  0
SECTION
  2
HEADER
  9
$ACADVER
  1
AC1024
  9
$ACADMAINTVER
 70
     6
  9
$DWGCODEPAGE
  3
UNDEFINED
  9
$INSBASE
 10
0.0
 20
0.0
 30
0.0
  9
$EXTMIN
 10
1.000000000000000E+20
 20
1.000000000000000E+20
 30
1.000000000000000E+20
  9
$EXTMAX
 10
-1.000000000000000E+20
 20
-1.000000000000000E+20
 30
-1.000000000000000E+20
  9
$LIMMIN
 10
0.0
 20
0.0
  9
$LIMMAX
 10
12.0
 20
9.0
  9
$ORTHOMODE
 70
     0
  9
$REGENMODE
 70
     1
  9
$FILLMODE
 70
     1
  9
$QTEXTMODE
 70
     0
  9
$MIRRTEXT
 70
     1
  9
$LTSCALE
 40
1.0
  9
$ATTMODE
 70
     1
  9
$TEXTSIZE
 40
0.2
  9
$TRACEWID
 40
0.05
  9
$TEXTSTYLE
  7
Standard
  9
$CLAYER
  8
0
  9
$CELTYPE
  6
ByLayer
  9
$CECOLOR
 62
   256
  9
$CELTSCALE
 40
1.0
  9
$DISPSILH
 70
     0
  9
$DIMSCALE
 40
1.0
  9
$DIMASZ
 40
0.18
  9
$DIMEXO
 40
0.0625
  9
$DIMDLI
 40
0.38
  9
$DIMRND
 40
0.0
  9
$DIMDLE
 40
0.0
  9
$DIMEXE
 40
0.18
  9
$DIMTP
 40
0.0
  9
$DIMTM
 40
0.0
  9
$DIMTXT
 40
0.18
  9
$DIMCEN
 40
0.09
  9
$DIMTSZ
 40
0.0
  9
$DIMTOL
 70
     0
  9
$DIMLIM
 70
     0
  9
$DIMTIH
 70
     1
  9
$DIMTOH
 70
     1
  9
$DIMSE1
 70
     0
  9
$DIMSE2
 70
     0
  9
$DIMTAD
 70
     0
  9
$DIMZIN
 70
     0
  9
$DIMBLK
  1

  9
$DIMASO
 70
     1
  9
$DIMSHO
 70
     1
  9
$DIMPOST
  1

  9
$DIMAPOST
  1

  9
$DIMALT
 70
     0
  9
$DIMALTD
 70
     2
  9
$DIMALTF
 40
25.4
  9
$DIMLFAC
 40
1.0
  9
$DIMTOFL
 70
     0
  9
$DIMTVP
 40
0.0
  9
$DIMTIX
 70
     0
  9
$DIMSOXD
 70
     0
  9
$DIMSAH
 70
     0
  9
$DIMBLK1
  1

  9
$DIMBLK2
  1

  9
$DIMSTYLE
  2
Standard
  9
$DIMCLRD
 70
     0
  9
$DIMCLRE
 70
     0
  9
$DIMCLRT
 70
     0
  9
$DIMTFAC
 40
1.0
  9
$DIMGAP
 40
0.09
  9
$DIMJUST
 70
     0
  9
$DIMSD1
 70
     0
  9
$DIMSD2
 70
     0
  9
$DIMTOLJ
 70
     1
  9
$DIMTZIN
 70
     0
  9
$DIMALTZ
 70
     0
  9
$DIMALTTZ
 70
     0
  9
$DIMUPT
 70
     0
  9
$DIMDEC
 70
     4
  9
$DIMTDEC
 70
     4
  9
$DIMALTU
 70
     2
  9
$DIMALTTD
 70
     2
  9
$DIMTXSTY
  7
Standard
  9
$DIMAUNIT
 70
     0
  9
$DIMADEC
 70
     0
  9
$DIMALTRND
 40
0.0
  9
$DIMAZIN
 70
     0
  9
$DIMDSEP
 70
    46
  9
$DIMATFIT
 70
     3
  9
$DIMFRAC
 70
     0
  9
$DIMLDRBLK
  1

  9
$DIMLUNIT
 70
     2
  9
$DIMLWD
 70
    -2
  9
$DIMLWE
 70
    -2
  9
$DIMTMOVE
 70
     0
  9
$DIMFXL
 40
1.0
  9
$DIMFXLON
 70
     0
  9
$DIMJOGANG
 40
0.7853981633974483
  9
$DIMTFILL
 70
     0
  9
$DIMTFILLCLR
 70
     0
  9
$DIMARCSYM
 70
     0
  9
$DIMLTYPE
  6

  9
$DIMLTEX1
  6

  9
$DIMLTEX2
  6

  9
$DIMTXTDIRECTION
 70
     0
  9
$LUNITS
 70
     2
  9
$LUPREC
 70
     4
  9
$SKETCHINC
 40
0.1
  9
$FILLETRAD
 40
0.5
  9
$AUNITS
 70
     0
  9
$AUPREC
 70
     0
  9
$MENU
  1
.
  9
$ELEVATION
 40
0.0
  9
$PELEVATION
 40
0.0
  9
$THICKNESS
 40
0.0
  9
$LIMCHECK
 70
     0
  9
$CHAMFERA
 40
0.5
  9
$CHAMFERB
 40
0.5
  9
$CHAMFERC
 40
1.0
  9
$CHAMFERD
 40
0.0
  9
$SKPOLY
 70
     0
  9
$TDCREATE
 40
2457917.586655081
  9
$TDUCREATE
 40
2457917.211655092
  9
$TDUPDATE
 40
2457917.586655081
  9
$TDUUPDATE
 40
2457917.211655092
  9
$TDINDWG
 40
0.0000000116
  9
$TDUSRTIMER
 40
0.0000000116
  9
$USRTIMER
 70
     1
  9
$ANGBASE
 50
0.0
  9
$ANGDIR
 70
     0
  9
$PDMODE
 70
     0
  9
$PDSIZE
 40
0.0
  9
$PLINEWID
 40
0.0
  9
$SPLFRAME
 70
     0
  9
$SPLINETYPE
 70
     6
  9
$SPLINESEGS
 70
     8
  9
$HANDSEED
  5
ED
  9
$SURFTAB1
 70
     6
  9
$SURFTAB2
 70
     6
  9
$SURFTYPE
 70
     6
  9
$SURFU
 70
     6
  9
$SURFV
 70
     6
  9
$UCSBASE
  2

  9
$UCSNAME
  2

  9
$UCSORG
 10
0.0
 20
0.0
 30
0.0
  9
$UCSXDIR
 10
1.0
 20
0.0
 30
0.0
  9
$UCSYDIR
 10
0.0
 20
1.0
 30
0.0
  9
$UCSORTHOREF
  2

  9
$UCSORTHOVIEW
 70
     0
  9
$UCSORGTOP
 10
0.0
 20
0.0
 30
0.0
  9
$UCSORGBOTTOM
 10
0.0
 20
0.0
 30
0.0
  9
$UCSORGLEFT
 10
0.0
 20
0.0
 30
0.0
  9
$UCSORGRIGHT
 10
0.0
 20
0.0
 30
0.0
  9
$UCSORGFRONT
 10
0.0
 20
0.0
 30
0.0
  9
$UCSORGBACK
 10
0.0
 20
0.0
 30
0.0
  9
$PUCSBASE
  2

  9
$PUCSNAME
  2

  9
$PUCSORG
 10
0.0
 20
0.0
 30
0.0
  9
$PUCSXDIR
 10
1.0
 20
0.0
 30
0.0
  9
$PUCSYDIR
 10
0.0
 20
1.0
 30
0.0
  9
$PUCSORTHOREF
  2

  9
$PUCSORTHOVIEW
 70
     0
  9
$PUCSORGTOP
 10
0.0
 20
0.0
 30
0.0
  9
$PUCSORGBOTTOM
 10
0.0
 20
0.0
 30
0.0
  9
$PUCSORGLEFT
 10
0.0
 20
0.0
 30
0.0
  9
$PUCSORGRIGHT
 10
0.0
 20
0.0
 30
0.0
  9
$PUCSORGFRONT
 10
0.0
 20
0.0
 30
0.0
  9
$PUCSORGBACK
 10
0.0
 20
0.0
 30
0.0
  9
$USERI1
 70
     0
  9
$USERI2
 70
     0
  9
$USERI3
 70
     0
  9
$USERI4
 70
     0
  9
$USERI5
 70
     0
  9
$USERR1
 40
0.0
  9
$USERR2
 40
0.0
  9
$USERR3
 40
0.0
  9
$USERR4
 40
0.0
  9
$USERR5
 40
0.0
  9
$WORLDVIEW
 70
     1
  9
$SHADEDGE
 70
     3
  9
$SHADEDIF
 70
    70
  9
$TILEMODE
 70
     1
  9
$MAXACTVP
 70
    64
  9
$PINSBASE
 10
0.0
 20
0.0
 30
0.0
  9
$PLIMCHECK
 70
     0
  9
$PEXTMIN
 10
1.000000000000000E+20
 20
1.000000000000000E+20
 30
1.000000000000000E+20
  9
$PEXTMAX
 10
-1.000000000000000E+20
 20
-1.000000000000000E+20
 30
-1.000000000000000E+20
  9
$PLIMMIN
 10
0.0
 20
0.0
  9
$PLIMMAX
 10
12.0
 20
9.0
  9
$UNITMODE
 70
     0
  9
$VISRETAIN
 70
     1
  9
$PLINEGEN
 70
     0
  9
$PSLTSCALE
 70
     1
  9
$TREEDEPTH
 70
  3020
  9
$CMLSTYLE
  2
Standard
  9
$CMLJUST
 70
     0
  9
$CMLSCALE
 40
1.0
  9
$PROXYGRAPHICS
 70
     1
  9
$MEASUREMENT
 70
     0
  9
$CELWEIGHT
370
    -1
  9
$ENDCAPS
280
     0
  9
$JOINSTYLE
280
     0
  9
$LWDISPLAY
290
     1
  9
$INSUNITS
 70
     1
  9
$HYPERLINKBASE
  1

  9
$STYLESHEET
  1

  9
$XEDIT
290
     1
  9
$CEPSNTYPE
380
     0
  9
$PSTYLEMODE
290
     1
  9
$FINGERPRINTGUID
  2
{4B24144A-E452-58D0-5101-30612F577FAC}
  9
$VERSIONGUID
  2
{FAEB1C32-E019-11D5-929B-00C0DF256EC4}
  9
$EXTNAMES
290
     1
  9
$PSVPSCALE
 40
0.0
  9
$OLESTARTUP
290
     0
  9
$SORTENTS
280
   127
  9
$INDEXCTL
280
     0
  9
$HIDETEXT
280
     1
  9
$XCLIPFRAME
280
     2
  9
$HALOGAP
280
     0
  9
$OBSCOLOR
 70
   257
  9
$OBSLTYPE
280
     0
  9
$INTERSECTIONDISPLAY
280
     0
  9
$INTERSECTIONCOLOR
 70
   257
  9
$DIMASSOC
280
     2
  9
$PROJECTNAME
  1

  9
$CAMERADISPLAY
290
     0
  9
$LENSLENGTH
 40
50.0
  9
$CAMERAHEIGHT
 40
0.0
  9
$STEPSPERSEC
 40
2.0
  9
$STEPSIZE
 40
6.0
  9
$3DDWFPREC
 40
2.0
  9
$PSOLWIDTH
 40
0.25
  9
$PSOLHEIGHT
 40
4.0
  9
$LOFTANG1
 40
1.570796326794897
  9
$LOFTANG2
 40
1.570796326794897
  9
$LOFTMAG1
 40
0.0
  9
$LOFTMAG2
 40
0.0
  9
$LOFTPARAM
 70
     7
  9
$LOFTNORMALS
280
     1
  9
$LATITUDE
 40
37.795
  9
$LONGITUDE
 40
-122.394
  9
$NORTHDIRECTION
 40
0.0
  9
$TIMEZONE
 70
 -8000
  9
$LIGHTGLYPHDISPLAY
280
     1
  9
$TILEMODELIGHTSYNCH
280
     1
  9
$CMATERIAL
347
3C
  9
$SOLIDHIST
280
     1
  9
$SHOWHIST
280
     1
  9
$DWFFRAME
280
     2
  9
$DGNFRAME
280
     2
  9
$REALWORLDSCALE
290
     1
  9
$INTERFERECOLOR
 62
   256
  9
$CSHADOW
280
     0
  9
$SHADOWPLANELOCATION
 40
0.0
  0
ENDSEC
  0
SECTION
  2
CLASSES
  0
CLASS
  1
ACDBDICTIONARYWDFLT
  2
AcDbDictionaryWithDefault
  3
ObjectDBX Classes
 90
        0
 91
        4
280
     0
281
     0
  0
CLASS
  1
VISUALSTYLE
  2
AcDbVisualStyle
  3
ObjectDBX Classes
 90
     4095
 91
        4
280
     0
281
     0
  0
CLASS
  1
MATERIAL
  2
AcDbMaterial
  3
ObjectDBX Classes
 90
     1153
 91
        4
280
     0
281
     0
  0
CLASS
  1
SUN
  2
AcDbSun
  3
SCENEOE
 90
     1024
 91
        4
280
     0
281
     0
  0
ENDSEC
  0
SECTION
  2
TABLES
  0
TABLE
  2
VPORT
  5
8
330
0
100
AcDbSymbolTable
 70
     1
  0
VPORT
  5
29
330
8
100
AcDbSymbolTableRecord
100
AcDbViewportTableRecord
  2
*Active
 70
     0
 10
0.0
 20
0.0
 11
1.0
 21
1.0
 12
0.0
 22
0.0
 13
0.0
 23
0.0
 14
0.5
 24
0.5
 15
0.5
 25
0.5
 16
0.0
 26
0.0
 36
1.0
 17
63.499999984125
 27
-89.00059456108309
 37
0.0
 40
178.0011891221662
 41
0.7134783795241226
 42
50.0
 43
0.0
 44
0.0
 50
0.0
 51
0.0
 71
     0
 72
   100
 73
     1
 74
     3
 75
     0
 76
     0
 77
     0
 78
     0
281
     0
 65
     1
110
0.0
120
0.0
130
0.0
111
1.0
121
0.0
131
0.0
112
0.0
122
1.0
132
0.0
 79
     0
146
0.0
 60
     3
 61
     5
292
     1
282
     1
141
0.0
142
0.0
 63
   250
361
3F
  0
ENDTAB
  0
TABLE
  2
LTYPE
  5
5
330
0
100
AcDbSymbolTable
 70
     1
  0
LTYPE
  5
14
330
5
100
AcDbSymbolTableRecord
100
AcDbLinetypeTableRecord
  2
ByBlock
 70
     0
  3

 72
    65
 73
     0
 40
0.0
  0
LTYPE
  5
15
330
5
100
AcDbSymbolTableRecord
100
AcDbLinetypeTableRecord
  2
ByLayer
 70
     0
  3

 72
    65
 73
     0
 40
0.0
  0
LTYPE
  5
16
330
5
100
AcDbSymbolTableRecord
100
AcDbLinetypeTableRecord
  2
Continuous
 70
     0
  3
Solid line
 72
    65
 73
     0
 40
0.0
  0
ENDTAB
  0
TABLE
  2
LAYER
  5
2
330
0
100
AcDbSymbolTable
 70
     2
  0
LAYER
  5
10
330
2
100
AcDbSymbolTableRecord
100
AcDbLayerTableRecord
  2
0
 70
     0
 62
     7
  6
Continuous
370
    -3
390
F
347
3E
  0
LAYER
  5
40
330
2
100
AcDbSymbolTableRecord
100
AcDbLayerTableRecord
  2
_U+30EC_U+30A4_U+30E4_U+30FC 1
 70
     0
 62
     7
  6
Continuous
370
    -3
390
F
347
3E
  0
ENDTAB
  0
TABLE
  2
STYLE
  5
3
330
0
100
AcDbSymbolTable
 70
     1
  0
STYLE
  5
11
330
3
100
AcDbSymbolTableRecord
100
AcDbTextStyleTableRecord
  2
Standard
 70
     0
 40
0.0
 41
1.0
 50
0.0
 71
     0
 42
0.2
  3
txt
  4

  0
ENDTAB
  0
TABLE
  2
VIEW
  5
6
330
0
100
AcDbSymbolTable
 70
     0
  0
ENDTAB
  0
TABLE
  2
UCS
  5
7
330
0
100
AcDbSymbolTable
 70
     0
  0
ENDTAB
  0
TABLE
  2
APPID
  5
9
330
0
100
AcDbSymbolTable
 70
     1
  0
APPID
  5
12
330
9
100
AcDbSymbolTableRecord
100
AcDbRegAppTableRecord
  2
ACAD
 70
     0
  0
ENDTAB
  0
TABLE
  2
DIMSTYLE
  5
A
330
0
100
AcDbSymbolTable
 70
     1
100
AcDbDimStyleTable
  0
DIMSTYLE
105
27
330
A
100
AcDbSymbolTableRecord
100
AcDbDimStyleTableRecord
  2
Standard
 70
     0
178
     0
340
11
  0
ENDTAB
  0
TABLE
  2
BLOCK_RECORD
  5
1
330
0
100
AcDbSymbolTable
 70
     7
  0
BLOCK_RECORD
  5
1F
330
1
100
AcDbSymbolTableRecord
100
AcDbBlockTableRecord
  2
*Model_Space
340
22
 70
     0
280
     1
281
     0
  0
BLOCK_RECORD
  5
1B
330
1
100
AcDbSymbolTableRecord
100
AcDbBlockTableRecord
  2
*Paper_Space
340
1E
 70
     0
280
     1
281
     0
  0
BLOCK_RECORD
  5
23
330
1
100
AcDbSymbolTableRecord
100
AcDbBlockTableRecord
  2
*Paper_Space0
340
26
 70
     0
280
     1
281
     0
  0
BLOCK_RECORD
  5
41
330
1
100
AcDbSymbolTableRecord
100
AcDbBlockTableRecord
  2
block 2
340
0
102
{BLKREFS
331
42
102
}
 70
     0
280
     1
281
     0
  0
BLOCK_RECORD
  5
85
330
1
100
AcDbSymbolTableRecord
100
AcDbBlockTableRecord
  2
block 3
340
0
102
{BLKREFS
331
86
102
}
 70
     0
280
     1
281
     0
  0
BLOCK_RECORD
  5
97
330
1
100
AcDbSymbolTableRecord
100
AcDbBlockTableRecord
  2
block 4
340
0
102
{BLKREFS
331
98
102
}
 70
     0
280
     1
281
     0
  0
BLOCK_RECORD
  5
AB
330
1
100
AcDbSymbolTableRecord
100
AcDbBlockTableRecord
  2
block 5
340
0
102
{BLKREFS
331
AC
102
}
 70
     0
280
     1
281
     0
  0
BLOCK_RECORD
  5
BF
330
1
100
AcDbSymbolTableRecord
100
AcDbBlockTableRecord
  2
block 6
340
0
102
{BLKREFS
331
C0
102
}
 70
     0
280
     1
281
     0
  0
BLOCK_RECORD
  5
D7
330
1
100
AcDbSymbolTableRecord
100
AcDbBlockTableRecord
  2
block 7
340
0
102
{BLKREFS
331
D8
102
}
 70
     0
280
     1
281
     0
  0
ENDTAB
  0
ENDSEC
  0
SECTION
  2
BLOCKS
  0
BLOCK
  5
20
330
1F
100
AcDbEntity
  8
0
100
AcDbBlockBegin
  2
*Model_Space
 70
     0
 10
0.0
 20
0.0
 30
0.0
  3
*Model_Space
  1

  0
ENDBLK
  5
21
330
1F
100
AcDbEntity
  8
0
100
AcDbBlockEnd
  0
BLOCK
  5
1C
330
1B
100
AcDbEntity
 67
     1
  8
0
100
AcDbBlockBegin
  2
*Paper_Space
 70
     0
 10
0.0
 20
0.0
 30
0.0
  3
*Paper_Space
  1

  0
ENDBLK
  5
1D
330
1B
100
AcDbEntity
 67
     1
  8
0
100
AcDbBlockEnd
  0
BLOCK
  5
24
330
23
100
AcDbEntity
  8
0
100
AcDbBlockBegin
  2
*Paper_Space0
 70
     0
 10
0.0
 20
0.0
 30
0.0
  3
*Paper_Space0
  1

  0
ENDBLK
  5
25
330
23
100
AcDbEntity
  8
0
100
AcDbBlockEnd
  0
BLOCK
  5
43
330
41
100
AcDbEntity
  8
0
100
AcDbBlockBegin
  2
block 2
 70
     0
 10
0.0
 20
0.0
 30
0.0
  3
block 2
  1

  0
POLYLINE
  5
45
330
41
100
AcDbEntity
  8
_U+30EC_U+30A4_U+30E4_U+30FC 1
 62
   179
420
  2234388
370
    25
100
AcDb2dPolyline
 66
     1
 10
0.0
 20
0.0
 30
0.0
  0
VERTEX
  5
46
330
45
100
AcDbEntity
  8
_U+30EC_U+30A4_U+30E4_U+30FC 1
 62
   179
420
  2234388
370
    25
100
AcDbVertex
100
AcDb2dVertex
 10
45.17294634754213
 20
-82.17602025723389
 30
0.0
  0
VERTEX
  5
47
330
45
100
AcDbEntity
  8
_U+30EC_U+30A4_U+30E4_U+30FC 1
 62
   179
420
  2234388
370
    25
100
AcDbVertex
100
AcDb2dVertex
 10
77.17288858671114
 20
-82.17602025723389
 30
0.0
  0
SEQEND
  5
48
330
45
100
AcDbEntity
  8
_U+30EC_U+30A4_U+30E4_U+30FC 1
 62
   179
420
  2234388
370
    25
  0
POLYLINE
  5
49
330
41
100
AcDbEntity
  8
_U+30EC_U+30A4_U+30E4_U+30FC 1
 62
   179
420
  2234388
370
    25
100
AcDb2dPolyline
 66
     1
 10
0.0
 20
0.0
 30
0.0
  0
VERTEX
  5
4A
330
49
100
AcDbEntity
  8
_U+30EC_U+30A4_U+30E4_U+30FC 1
 62
   179
420
  2234388
370
    25
100
AcDbVertex
100
AcDb2dVertex
 10
45.17294634754213
 20
-83.17579247920611
 30
0.0
  0
VERTEX
  5
4B
330
49
100
AcDbEntity
  8
_U+30EC_U+30A4_U+30E4_U+30FC 1
 62
   179
420
  2234388
370
    25
100
AcDbVertex
100
AcDb2dVertex
 10
57.17257776348475
 20
-83.17579247920611
 30
0.0
  0
SEQEND
  5
4C
330
49
100
AcDbEntity
  8
_U+30EC_U+30A4_U+30E4_U+30FC 1
 62
   179
420
  2234388
370
    25
  0
POLYLINE
  5
4D
330
41
100
AcDbEntity
  8
_U+30EC_U+30A4_U+30E4_U+30FC 1
 62
   179
420
  2234388
370
    25
100
AcDb2dPolyline
 66
     1
 10
0.0
 20
0.0
 30
0.0
  0
VERTEX
  5
4E
330
4D
100
AcDbEntity
  8
_U+30EC_U+30A4_U+30E4_U+30FC 1
 62
   179
420
  2234388
370
    25
100
AcDbVertex
100
AcDb2dVertex
 10
58.17301879366043
 20
-83.17579247920611
 30
0.0
  0
VERTEX
  5
4F
330
4D
100
AcDbEntity
  8
_U+30EC_U+30A4_U+30E4_U+30FC 1
 62
   179
420
  2234388
370
    25
100
AcDbVertex
100
AcDb2dVertex
 10
77.17288858671114
 20
-83.17579247920611
 30
0.0
  0
SEQEND
  5
50
330
4D
100
AcDbEntity
  8
_U+30EC_U+30A4_U+30E4_U+30FC 1
 62
   179
420
  2234388
370
    25
  0
POLYLINE
  5
51
330
41
100
AcDbEntity
  8
_U+30EC_U+30A4_U+30E4_U+30FC 1
 62
   179
420
  2234388
370
    25
100
AcDb2dPolyline
 66
     1
 10
0.0
 20
0.0
 30
0.0
  0
VERTEX
  5
52
330
51
100
AcDbEntity
  8
_U+30EC_U+30A4_U+30E4_U+30FC 1
 62
   179
420
  2234388
370
    25
100
AcDbVertex
100
AcDb2dVertex
 10
45.17294634754213
 20
-82.17602025723389
 30
0.0
  0
VERTEX
  5
53
330
51
100
AcDbEntity
  8
_U+30EC_U+30A4_U+30E4_U+30FC 1
 62
   179
420
  2234388
370
    25
100
AcDbVertex
100
AcDb2dVertex
 10
45.17294634754213
 20
-83.17579247920611
 30
0.0
  0
SEQEND
  5
54
330
51
100
AcDbEntity
  8
_U+30EC_U+30A4_U+30E4_U+30FC 1
 62
   179
420
  2234388
370
    25
  0
POLYLINE
  5
55
330
41
100
AcDbEntity
  8
_U+30EC_U+30A4_U+30E4_U+30FC 1
 62
   179
420
  2234388
370
    25
100
AcDb2dPolyline
 66
     1
 10
0.0
 20
0.0
 30
0.0
  0
VERTEX
  5
56
330
55
100
AcDbEntity
  8
_U+30EC_U+30A4_U+30E4_U+30FC 1
 62
   179
420
  2234388
370
    25
100
AcDbVertex
100
AcDb2dVertex
 10
77.17288858671114
 20
-82.17602025723389
 30
0.0
  0
VERTEX
  5
57
330
55
100
AcDbEntity
  8
_U+30EC_U+30A4_U+30E4_U+30FC 1
 62
   179
420
  2234388
370
    25
100
AcDbVertex
100
AcDb2dVertex
 10
77.17288858671114
 20
-83.17579247920611
 30
0.0
  0
SEQEND
  5
58
330
55
100
AcDbEntity
  8
_U+30EC_U+30A4_U+30E4_U+30FC 1
 62
   179
420
  2234388
370
    25
  0
POLYLINE
  5
59
330
41
100
AcDbEntity
  8
_U+30EC_U+30A4_U+30E4_U+30FC 1
 62
   179
420
  2234388
370
    25
100
AcDb2dPolyline
 66
     1
 10
0.0
 20
0.0
 30
0.0
  0
VERTEX
  5
5A
330
59
100
AcDbEntity
  8
_U+30EC_U+30A4_U+30E4_U+30FC 1
 62
   179
420
  2234388
370
    25
100
AcDbVertex
100
AcDb2dVertex
 10
58.17301879366043
 20
-95.97552275378386
 30
0.0
  0
VERTEX
  5
5B
330
59
100
AcDbEntity
  8
_U+30EC_U+30A4_U+30E4_U+30FC 1
 62
   179
420
  2234388
370
    25
100
AcDbVertex
100
AcDb2dVertex
 10
59.67302986650306
 20
-95.97552275378386
 30
0.0
  0
SEQEND
  5
5C
330
59
100
AcDbEntity
  8
_U+30EC_U+30A4_U+30E4_U+30FC 1
 62
   179
420
  2234388
370
    25
  0
POLYLINE
  5
5D
330
41
100
AcDbEntity
  8
_U+30EC_U+30A4_U+30E4_U+30FC 1
 62
   179
420
  2234388
370
    25
100
AcDb2dPolyline
 66
     1
 10
0.0
 20
0.0
 30
0.0
  0
VERTEX
  5
5E
330
5D
100
AcDbEntity
  8
_U+30EC_U+30A4_U+30E4_U+30FC 1
 62
   179
420
  2234388
370
    25
100
AcDbVertex
100
AcDb2dVertex
 10
57.17257776348475
 20
-96.97600053131129
 30
0.0
  0
VERTEX
  5
5F
330
5D
100
AcDbEntity
  8
_U+30EC_U+30A4_U+30E4_U+30FC 1
 62
   179
420
  2234388
370
    25
100
AcDbVertex
100
AcDb2dVertex
 10
59.67302986650306
 20
-96.97600053131129
 30
0.0
  0
SEQEND
  5
60
330
5D
100
AcDbEntity
  8
_U+30EC_U+30A4_U+30E4_U+30FC 1
 62
   179
420
  2234388
370
    25
  0
POLYLINE
  5
61
330
41
100
AcDbEntity
  8
_U+30EC_U+30A4_U+30E4_U+30FC 1
 62
   179
420
  2234388
370
    25
100
AcDb2dPolyline
 66
     1
 10
0.0
 20
0.0
 30
0.0
  0
VERTEX
  5
62
330
61
100
AcDbEntity
  8
_U+30EC_U+30A4_U+30E4_U+30FC 1
 62
   179
420
  2234388
370
    25
100
AcDbVertex
100
AcDb2dVertex
 10
57.17257776348475
 20
-83.17579247920611
 30
0.0
  0
VERTEX
  5
63
330
61
100
AcDbEntity
  8
_U+30EC_U+30A4_U+30E4_U+30FC 1
 62
   179
420
  2234388
370
    25
100
AcDbVertex
100
AcDb2dVertex
 10
57.17257776348475
 20
-96.97600053131129
 30
0.0
  0
SEQEND
  5
64
330
61
100
AcDbEntity
  8
_U+30EC_U+30A4_U+30E4_U+30FC 1
 62
   179
420
  2234388
370
    25
  0
POLYLINE
  5
65
330
41
100
AcDbEntity
  8
_U+30EC_U+30A4_U+30E4_U+30FC 1
 62
   179
420
  2234388
370
    25
100
AcDb2dPolyline
 66
     1
 10
0.0
 20
0.0
 30
0.0
  0
VERTEX
  5
66
330
65
100
AcDbEntity
  8
_U+30EC_U+30A4_U+30E4_U+30FC 1
 62
   179
420
  2234388
370
    25
100
AcDbVertex
100
AcDb2dVertex
 10
59.67302986650306
 20
-95.97552275378386
 30
0.0
  0
VERTEX
  5
67
330
65
100
AcDbEntity
  8
_U+30EC_U+30A4_U+30E4_U+30FC 1
 62
   179
420
  2234388
370
    25
100
AcDbVertex
100
AcDb2dVertex
 10
59.67302986650306
 20
-96.97600053131129
 30
0.0
  0
SEQEND
  5
68
330
65
100
AcDbEntity
  8
_U+30EC_U+30A4_U+30E4_U+30FC 1
 62
   179
420
  2234388
370
    25
  0
POLYLINE
  5
69
330
41
100
AcDbEntity
  8
_U+30EC_U+30A4_U+30E4_U+30FC 1
 62
   179
420
  2234388
370
    25
100
AcDb2dPolyline
 66
     1
 10
0.0
 20
0.0
 30
0.0
  0
VERTEX
  5
6A
330
69
100
AcDbEntity
  8
_U+30EC_U+30A4_U+30E4_U+30FC 1
 62
   179
420
  2234388
370
    25
100
AcDbVertex
100
AcDb2dVertex
 10
58.17301879366043
 20
-83.17579247920611
 30
0.0
  0
VERTEX
  5
6B
330
69
100
AcDbEntity
  8
_U+30EC_U+30A4_U+30E4_U+30FC 1
 62
   179
420
  2234388
370
    25
100
AcDbVertex
100
AcDb2dVertex
 10
58.17301879366043
 20
-95.97552275378386
 30
0.0
  0
SEQEND
  5
6C
330
69
100
AcDbEntity
  8
_U+30EC_U+30A4_U+30E4_U+30FC 1
 62
   179
420
  2234388
370
    25
  0
SPLINE
  5
6D
330
41
100
AcDbEntity
  8
_U+30EC_U+30A4_U+30E4_U+30FC 1
 62
   179
420
  2234388
370
     9
100
AcDbSpline
210
0.0
220
0.0
230
1.0
 70
    11
 71
     3
 72
    17
 73
    13
 74
     0
 42
0.0000000001
 43
0.0000000001
 12
1.0
 22
0.0
 32
0.0
 13
1.0
 23
0.0
 33
0.0
 40
0.0
 40
0.0
 40
0.0
 40
0.0
 40
1.0
 40
1.0
 40
1.0
 40
2.0
 40
2.0
 40
2.0
 40
3.0
 40
3.0
 40
3.0
 40
4.0
 40
4.0
 40
4.0
 40
4.0
 10
81.27325987099084
 20
-82.17602025723389
 30
0.0
 10
81.27325987099084
 20
-82.12056359058089
 30
0.0
 10
81.22845709435607
 20
-82.07579609059232
 30
0.0
 10
81.173353206873
 20
-82.07579609059232
 30
0.0
 10
81.11754376385238
 20
-82.07579609059232
 30
0.0
 10
81.07274098721761
 20
-82.12056359058089
 30
0.0
 10
81.07274098721761
 20
-82.17602025723389
 30
0.0
 10
81.07274098721761
 20
-82.23115942388664
 30
0.0
 10
81.11754376385238
 20
-82.27592692387552
 30
0.0
 10
81.173353206873
 20
-82.27592692387552
 30
0.0
 10
81.22845709435607
 20
-82.27592692387552
 30
0.0
 10
81.27325987099084
 20
-82.23115942388664
 30
0.0
 10
81.27325987099084
 20
-82.17602025723389
 30
0.0
  0
SPLINE
  5
6E
330
41
100
AcDbEntity
  8
_U+30EC_U+30A4_U+30E4_U+30FC 1
 62
   179
420
  2234388
370
     9
100
AcDbSpline
210
0.0
220
0.0
230
1.0
 70
    11
 71
     3
 72
    17
 73
    13
 74
     0
 42
0.0000000001
 43
0.0000000001
 12
1.0
 22
0.0
 32
0.0
 13
1.0
 23
0.0
 33
0.0
 40
0.0
 40
0.0
 40
0.0
 40
0.0
 40
1.0
 40
1.0
 40
1.0
 40
2.0
 40
2.0
 40
2.0
 40
3.0
 40
3.0
 40
3.0
 40
4.0
 40
4.0
 40
4.0
 40
4.0
 10
81.27325987099084
 20
-83.17579247920611
 30
0.0
 10
81.27325987099084
 20
-83.12068859033087
 30
0.0
 10
81.22845709435607
 20
-83.07588581256447
 30
0.0
 10
81.173353206873
 20
-83.07588581256447
 30
0.0
 10
81.11754376385238
 20
-83.07588581256447
 30
0.0
 10
81.07274098721761
 20
-83.12068859033087
 30
0.0
 10
81.07274098721761
 20
-83.17579247920611
 30
0.0
 10
81.07274098721761
 20
-83.23093164585886
 30
0.0
 10
81.11754376385238
 20
-83.27569914584774
 30
0.0
 10
81.173353206873
 20
-83.27569914584774
 30
0.0
 10
81.22845709435607
 20
-83.27569914584774
 30
0.0
 10
81.27325987099084
 20
-83.23093164585886
 30
0.0
 10
81.27325987099084
 20
-83.17579247920611
 30
0.0
  0
SPLINE
  5
6F
330
41
100
AcDbEntity
  8
_U+30EC_U+30A4_U+30E4_U+30FC 1
 62
   179
420
  2234388
370
     9
100
AcDbSpline
210
0.0
220
0.0
230
1.0
 70
    11
 71
     3
 72
    17
 73
    13
 74
     0
 42
0.0000000001
 43
0.0000000001
 12
1.0
 22
0.0
 32
0.0
 13
1.0
 23
0.0
 33
0.0
 40
0.0
 40
0.0
 40
0.0
 40
0.0
 40
1.0
 40
1.0
 40
1.0
 40
2.0
 40
2.0
 40
2.0
 40
3.0
 40
3.0
 40
3.0
 40
4.0
 40
4.0
 40
4.0
 40
4.0
 10
77.27279720290376
 20
-78.1757672026782
 30
0.0
 10
77.27279720290376
 20
-78.12062803602544
 30
0.0
 10
77.2280277519711
 20
-78.07586053603656
 30
0.0
 10
77.17288858671114
 20
-78.07586053603656
 30
0.0
 10
77.11778469922807
 20
-78.07586053603656
 30
0.0
 10
77.0729819225933
 20
-78.12062803602544
 30
0.0
 10
77.0729819225933
 20
-78.1757672026782
 30
0.0
 10
77.0729819225933
 20
-78.23104748044231
 30
0.0
 10
77.11778469922807
 20
-78.27585025820872
 30
0.0
 10
77.17288858671114
 20
-78.27585025820872
 30
0.0
 10
77.2280277519711
 20
-78.27585025820872
 30
0.0
 10
77.27279720290376
 20
-78.23104748044231
 30
0.0
 10
77.27279720290376
 20
-78.1757672026782
 30
0.0
  0
SPLINE
  5
70
330
41
100
AcDbEntity
  8
_U+30EC_U+30A4_U+30E4_U+30FC 1
 62
   179
420
  2234388
370
     9
100
AcDbSpline
210
0.0
220
0.0
230
1.0
 70
    11
 71
     3
 72
    17
 73
    13
 74
     0
 42
0.0000000001
 43
0.0000000001
 12
1.0
 22
0.0
 32
0.0
 13
1.0
 23
0.0
 33
0.0
 40
0.0
 40
0.0
 40
0.0
 40
0.0
 40
1.0
 40
1.0
 40
1.0
 40
2.0
 40
2.0
 40
2.0
 40
3.0
 40
3.0
 40
3.0
 40
4.0
 40
4.0
 40
4.0
 40
4.0
 10
45.27285301165996
 20
-78.1757672026782
 30
0.0
 10
45.27285301165996
 20
-78.12062803602544
 30
0.0
 10
45.22808551280207
 20
-78.07586053603656
 30
0.0
 10
45.17294634754213
 20
-78.07586053603656
 30
0.0
 10
45.11748968229028
 20
-78.07586053603656
 30
0.0
 10
45.07268690565552
 20
-78.12062803602544
 30
0.0
 10
45.07268690565552
 20
-78.1757672026782
 30
0.0
 10
45.07268690565552
 20
-78.23104748044231
 30
0.0
 10
45.11748968229028
 20
-78.27585025820872
 30
0.0
 10
45.17294634754213
 20
-78.27585025820872
 30
0.0
 10
45.22808551280207
 20
-78.27585025820872
 30
0.0
 10
45.27285301165996
 20
-78.23104748044231
 30
0.0
 10
45.27285301165996
 20
-78.1757672026782
 30
0.0
  0
SPLINE
  5
71
330
41
100
AcDbEntity
  8
_U+30EC_U+30A4_U+30E4_U+30FC 1
 62
   179
420
  2234388
370
     9
100
AcDbSpline
210
0.0
220
0.0
230
1.0
 70
    11
 71
     3
 72
    17
 73
    13
 74
     0
 42
0.0000000001
 43
0.0000000001
 12
1.0
 22
0.0
 32
0.0
 13
1.0
 23
0.0
 33
0.0
 40
0.0
 40
0.0
 40
0.0
 40
0.0
 40
1.0
 40
1.0
 40
1.0
 40
2.0
 40
2.0
 40
2.0
 40
3.0
 40
3.0
 40
3.0
 40
4.0
 40
4.0
 40
4.0
 40
4.0
 10
45.27285301165996
 20
-100.9757596969782
 30
0.0
 10
45.27285301165996
 20
-100.9206205303251
 30
0.0
 10
45.22808551280207
 20
-100.8758530303365
 30
0.0
 10
45.17294634754213
 20
-100.8758530303365
 30
0.0
 10
45.11748968229028
 20
-100.8758530303365
 30
0.0
 10
45.07268690565552
 20
-100.9206205303251
 30
0.0
 10
45.07268690565552
 20
-100.9757596969782
 30
0.0
 10
45.07268690565552
 20
-101.0308635858531
 30
0.0
 10
45.11748968229028
 20
-101.0756663636198
 30
0.0
 10
45.17294634754213
 20
-101.0756663636198
 30
0.0
 10
45.22808551280207
 20
-101.0756663636198
 30
0.0
 10
45.27285301165996
 20
-101.0308635858531
 30
0.0
 10
45.27285301165996
 20
-100.9757596969782
 30
0.0
  0
SPLINE
  5
72
330
41
100
AcDbEntity
  8
_U+30EC_U+30A4_U+30E4_U+30FC 1
 62
   179
420
  2234388
370
     9
100
AcDbSpline
210
0.0
220
0.0
230
1.0
 70
    11
 71
     3
 72
    17
 73
    13
 74
     0
 42
0.0000000001
 43
0.0000000001
 12
1.0
 22
0.0
 32
0.0
 13
1.0
 23
0.0
 33
0.0
 40
0.0
 40
0.0
 40
0.0
 40
0.0
 40
1.0
 40
1.0
 40
1.0
 40
2.0
 40
2.0
 40
2.0
 40
3.0
 40
3.0
 40
3.0
 40
4.0
 40
4.0
 40
4.0
 40
4.0
 10
57.27248298330167
 20
-100.9757596969782
 30
0.0
 10
57.27248298330167
 20
-100.9206205303251
 30
0.0
 10
57.22768020666691
 20
-100.8758530303365
 30
0.0
 10
57.17257776348475
 20
-100.8758530303365
 30
0.0
 10
57.11743715392389
 20
-100.8758530303365
 30
0.0
 10
57.072669655066
 20
-100.9206205303251
 30
0.0
 10
57.072669655066
 20
-100.9757596969782
 30
0.0
 10
57.072669655066
 20
-101.0308635858531
 30
0.0
 10
57.11743715392389
 20
-101.0756663636198
 30
0.0
 10
57.17257776348475
 20
-101.0756663636198
 30
0.0
 10
57.22768020666691
 20
-101.0756663636198
 30
0.0
 10
57.27248298330167
 20
-101.0308635858531
 30
0.0
 10
57.27248298330167
 20
-100.9757596969782
 30
0.0
  0
SPLINE
  5
73
330
41
100
AcDbEntity
  8
_U+30EC_U+30A4_U+30E4_U+30FC 1
 62
   179
420
  2234388
370
     9
100
AcDbSpline
210
0.0
220
0.0
230
1.0
 70
    11
 71
     3
 72
    17
 73
    13
 74
     0
 42
0.0000000001
 43
0.0000000001
 12
1.0
 22
0.0
 32
0.0
 13
1.0
 23
0.0
 33
0.0
 40
0.0
 40
0.0
 40
0.0
 40
0.0
 40
1.0
 40
1.0
 40
1.0
 40
2.0
 40
2.0
 40
2.0
 40
3.0
 40
3.0
 40
3.0
 40
4.0
 40
4.0
 40
4.0
 40
4.0
 10
59.7729365306209
 20
-100.9757596969782
 30
0.0
 10
59.7729365306209
 20
-100.9206205303251
 30
0.0
 10
59.72813375398614
 20
-100.8758530303365
 30
0.0
 10
59.67302986650306
 20
-100.8758530303365
 30
0.0
 10
59.61789070124312
 20
-100.8758530303365
 30
0.0
 10
59.57312320238523
 20
-100.9206205303251
 30
0.0
 10
59.57312320238523
 20
-100.9757596969782
 30
0.0
 10
59.57312320238523
 20
-101.0308635858531
 30
0.0
 10
59.61789070124312
 20
-101.0756663636198
 30
0.0
 10
59.67302986650306
 20
-101.0756663636198
 30
0.0
 10
59.72813375398614
 20
-101.0756663636198
 30
0.0
 10
59.7729365306209
 20
-101.0308635858531
 30
0.0
 10
59.7729365306209
 20
-100.9757596969782
 30
0.0
  0
SPLINE
  5
74
330
41
100
AcDbEntity
  8
_U+30EC_U+30A4_U+30E4_U+30FC 1
 62
   179
420
  2234388
370
     9
100
AcDbSpline
210
0.0
220
0.0
230
1.0
 70
    11
 71
     3
 72
    17
 73
    13
 74
     0
 42
0.0000000001
 43
0.0000000001
 12
1.0
 22
0.0
 32
0.0
 13
1.0
 23
0.0
 33
0.0
 40
0.0
 40
0.0
 40
0.0
 40
0.0
 40
1.0
 40
1.0
 40
1.0
 40
2.0
 40
2.0
 40
2.0
 40
3.0
 40
3.0
 40
3.0
 40
4.0
 40
4.0
 40
4.0
 40
4.0
 10
81.27325987099084
 20
-95.97552275378386
 30
0.0
 10
81.27325987099084
 20
-95.92041886490894
 30
0.0
 10
81.22845709435607
 20
-95.87561608714222
 30
0.0
 10
81.173353206873
 20
-95.87561608714222
 30
0.0
 10
81.11754376385238
 20
-95.87561608714222
 30
0.0
 10
81.07274098721761
 20
-95.92041886490894
 30
0.0
 10
81.07274098721761
 20
-95.97552275378386
 30
0.0
 10
81.07274098721761
 20
-96.0313321982143
 30
0.0
 10
81.11754376385238
 20
-96.07613497598102
 30
0.0
 10
81.173353206873
 20
-96.07613497598102
 30
0.0
 10
81.22845709435607
 20
-96.07613497598102
 30
0.0
 10
81.27325987099084
 20
-96.0313321982143
 30
0.0
 10
81.27325987099084
 20
-95.97552275378386
 30
0.0
  0
POLYLINE
  5
75
330
41
100
AcDbEntity
  8
_U+30EC_U+30A4_U+30E4_U+30FC 1
 62
   179
420
  2234388
370
     9
100
AcDb2dPolyline
 66
     1
 10
0.0
 20
0.0
 30
0.0
  0
VERTEX
  5
76
330
75
100
AcDbEntity
  8
_U+30EC_U+30A4_U+30E4_U+30FC 1
 62
   179
420
  2234388
370
     9
100
AcDbVertex
100
AcDb2dVertex
 10
81.173353206873
 20
-82.17602025723389
 30
0.0
  0
VERTEX
  5
77
330
75
100
AcDbEntity
  8
_U+30EC_U+30A4_U+30E4_U+30FC 1
 62
   179
420
  2234388
370
     9
100
AcDbVertex
100
AcDb2dVertex
 10
81.173353206873
 20
-78.40570775817646
 30
0.0
  0
SEQEND
  5
78
330
75
100
AcDbEntity
  8
_U+30EC_U+30A4_U+30E4_U+30FC 1
 62
   179
420
  2234388
370
     9
  0
POLYLINE
  5
79
330
41
100
AcDbEntity
  8
_U+30EC_U+30A4_U+30E4_U+30FC 1
 62
   179
420
  2234388
370
     9
100
AcDb2dPolyline
 66
     1
 10
0.0
 20
0.0
 30
0.0
  0
VERTEX
  5
7A
330
79
100
AcDbEntity
  8
_U+30EC_U+30A4_U+30E4_U+30FC 1
 62
   179
420
  2234388
370
     9
100
AcDbVertex
100
AcDb2dVertex
 10
81.173353206873
 20
-82.17602025723389
 30
0.0
  0
VERTEX
  5
7B
330
79
100
AcDbEntity
  8
_U+30EC_U+30A4_U+30E4_U+30FC 1
 62
   179
420
  2234388
370
     9
100
AcDbVertex
100
AcDb2dVertex
 10
81.173353206873
 20
-83.17579247920611
 30
0.0
  0
SEQEND
  5
7C
330
79
100
AcDbEntity
  8
_U+30EC_U+30A4_U+30E4_U+30FC 1
 62
   179
420
  2234388
370
     9
  0
POLYLINE
  5
7D
330
41
100
AcDbEntity
  8
_U+30EC_U+30A4_U+30E4_U+30FC 1
 62
   179
420
  2234388
370
     9
100
AcDb2dPolyline
 66
     1
 10
0.0
 20
0.0
 30
0.0
  0
VERTEX
  5
7E
330
7D
100
AcDbEntity
  8
_U+30EC_U+30A4_U+30E4_U+30FC 1
 62
   179
420
  2234388
370
     9
100
AcDbVertex
100
AcDb2dVertex
 10
79.71331386896082
 20
-82.17602025723389
 30
0.0
  0
VERTEX
  5
7F
330
7D
100
AcDbEntity
  8
_U+30EC_U+30A4_U+30E4_U+30FC 1
 62
   179
420
  2234388
370
     9
100
AcDbVertex
100
AcDb2dVertex
 10
82.17309012581204
 20
-82.17602025723389
 30
0.0
  0
SEQEND
  5
80
330
7D
100
AcDbEntity
  8
_U+30EC_U+30A4_U+30E4_U+30FC 1
 62
   179
420
  2234388
370
     9
  0
POLYLINE
  5
81
330
41
100
AcDbEntity
  8
_U+30EC_U+30A4_U+30E4_U+30FC 1
 62
   179
420
  2234388
370
     9
100
AcDb2dPolyline
 66
     1
 10
0.0
 20
0.0
 30
0.0
  0
VERTEX
  5
82
330
81
100
AcDbEntity
  8
_U+30EC_U+30A4_U+30E4_U+30FC 1
 62
   179
420
  2234388
370
     9
100
AcDbVertex
100
AcDb2dVertex
 10
79.71331386896082
 20
-83.17579247920611
 30
0.0
  0
VERTEX
  5
83
330
81
100
AcDbEntity
  8
_U+30EC_U+30A4_U+30E4_U+30FC 1
 62
   179
420
  2234388
370
     9
100
AcDbVertex
100
AcDb2dVertex
 10
82.17309012581204
 20
-83.17579247920611
 30
0.0
  0
SEQEND
  5
84
330
81
100
AcDbEntity
  8
_U+30EC_U+30A4_U+30E4_U+30FC 1
 62
   179
420
  2234388
370
     9
  0
INSERT
  5
86
330
41
100
AcDbEntity
  8
_U+30EC_U+30A4_U+30E4_U+30FC 1
100
AcDbBlockReference
  2
block 3
 10
0.0
 20
0.0
 30
0.0
  0
POLYLINE
  5
8B
330
41
100
AcDbEntity
  8
_U+30EC_U+30A4_U+30E4_U+30FC 1
 62
   179
420
  2234388
370
     9
100
AcDb2dPolyline
 66
     1
 10
0.0
 20
0.0
 30
0.0
  0
VERTEX
  5
8C
330
8B
100
AcDbEntity
  8
_U+30EC_U+30A4_U+30E4_U+30FC 1
 62
   179
420
  2234388
370
     9
100
AcDbVertex
100
AcDb2dVertex
 10
45.17294634754213
 20
-78.1757672026782
 30
0.0
  0
VERTEX
  5
8D
330
8B
100
AcDbEntity
  8
_U+30EC_U+30A4_U+30E4_U+30FC 1
 62
   179
420
  2234388
370
     9
100
AcDbVertex
100
AcDb2dVertex
 10
77.17288858671114
 20
-78.1757672026782
 30
0.0
  0
SEQEND
  5
8E
330
8B
100
AcDbEntity
  8
_U+30EC_U+30A4_U+30E4_U+30FC 1
 62
   179
420
  2234388
370
     9
  0
POLYLINE
  5
8F
330
41
100
AcDbEntity
  8
_U+30EC_U+30A4_U+30E4_U+30FC 1
 62
   179
420
  2234388
370
     9
100
AcDb2dPolyline
 66
     1
 10
0.0
 20
0.0
 30
0.0
  0
VERTEX
  5
90
330
8F
100
AcDbEntity
  8
_U+30EC_U+30A4_U+30E4_U+30FC 1
 62
   179
420
  2234388
370
     9
100
AcDbVertex
100
AcDb2dVertex
 10
45.17294634754213
 20
-79.63563220231335
 30
0.0
  0
VERTEX
  5
91
330
8F
100
AcDbEntity
  8
_U+30EC_U+30A4_U+30E4_U+30FC 1
 62
   179
420
  2234388
370
     9
100
AcDbVertex
100
AcDb2dVertex
 10
45.17294634754213
 20
-77.17581859181709
 30
0.0
  0
SEQEND
  5
92
330
8F
100
AcDbEntity
  8
_U+30EC_U+30A4_U+30E4_U+30FC 1
 62
   179
420
  2234388
370
     9
  0
POLYLINE
  5
93
330
41
100
AcDbEntity
  8
_U+30EC_U+30A4_U+30E4_U+30FC 1
 62
   179
420
  2234388
370
     9
100
AcDb2dPolyline
 66
     1
 10
0.0
 20
0.0
 30
0.0
  0
VERTEX
  5
94
330
93
100
AcDbEntity
  8
_U+30EC_U+30A4_U+30E4_U+30FC 1
 62
   179
420
  2234388
370
     9
100
AcDbVertex
100
AcDb2dVertex
 10
77.17288858671114
 20
-79.63563220231335
 30
0.0
  0
VERTEX
  5
95
330
93
100
AcDbEntity
  8
_U+30EC_U+30A4_U+30E4_U+30FC 1
 62
   179
420
  2234388
370
     9
100
AcDbVertex
100
AcDb2dVertex
 10
77.17288858671114
 20
-77.17581859181709
 30
0.0
  0
SEQEND
  5
96
330
93
100
AcDbEntity
  8
_U+30EC_U+30A4_U+30E4_U+30FC 1
 62
   179
420
  2234388
370
     9
  0
INSERT
  5
98
330
41
100
AcDbEntity
  8
_U+30EC_U+30A4_U+30E4_U+30FC 1
100
AcDbBlockReference
  2
block 4
 10
0.0
 20
0.0
 30
0.0
  0
POLYLINE
  5
9F
330
41
100
AcDbEntity
  8
_U+30EC_U+30A4_U+30E4_U+30FC 1
 62
   179
420
  2234388
370
     9
100
AcDb2dPolyline
 66
     1
 10
0.0
 20
0.0
 30
0.0
  0
VERTEX
  5
A0
330
9F
100
AcDbEntity
  8
_U+30EC_U+30A4_U+30E4_U+30FC 1
 62
   179
420
  2234388
370
     9
100
AcDbVertex
100
AcDb2dVertex
 10
45.17294634754213
 20
-100.9757596969782
 30
0.0
  0
VERTEX
  5
A1
330
9F
100
AcDbEntity
  8
_U+30EC_U+30A4_U+30E4_U+30FC 1
 62
   179
420
  2234388
370
     9
100
AcDbVertex
100
AcDb2dVertex
 10
57.17257776348475
 20
-100.9757596969782
 30
0.0
  0
SEQEND
  5
A2
330
9F
100
AcDbEntity
  8
_U+30EC_U+30A4_U+30E4_U+30FC 1
 62
   179
420
  2234388
370
     9
  0
POLYLINE
  5
A3
330
41
100
AcDbEntity
  8
_U+30EC_U+30A4_U+30E4_U+30FC 1
 62
   179
420
  2234388
370
     9
100
AcDb2dPolyline
 66
     1
 10
0.0
 20
0.0
 30
0.0
  0
VERTEX
  5
A4
330
A3
100
AcDbEntity
  8
_U+30EC_U+30A4_U+30E4_U+30FC 1
 62
   179
420
  2234388
370
     9
100
AcDbVertex
100
AcDb2dVertex
 10
45.17294634754213
 20
-85.71586303412673
 30
0.0
  0
VERTEX
  5
A5
330
A3
100
AcDbEntity
  8
_U+30EC_U+30A4_U+30E4_U+30FC 1
 62
   179
420
  2234388
370
     9
100
AcDbVertex
100
AcDb2dVertex
 10
45.17294634754213
 20
-101.9755319189507
 30
0.0
  0
SEQEND
  5
A6
330
A3
100
AcDbEntity
  8
_U+30EC_U+30A4_U+30E4_U+30FC 1
 62
   179
420
  2234388
370
     9
  0
POLYLINE
  5
A7
330
41
100
AcDbEntity
  8
_U+30EC_U+30A4_U+30E4_U+30FC 1
 62
   179
420
  2234388
370
     9
100
AcDb2dPolyline
 66
     1
 10
0.0
 20
0.0
 30
0.0
  0
VERTEX
  5
A8
330
A7
100
AcDbEntity
  8
_U+30EC_U+30A4_U+30E4_U+30FC 1
 62
   179
420
  2234388
370
     9
100
AcDbVertex
100
AcDb2dVertex
 10
57.17257776348475
 20
-99.51571830845447
 30
0.0
  0
VERTEX
  5
A9
330
A7
100
AcDbEntity
  8
_U+30EC_U+30A4_U+30E4_U+30FC 1
 62
   179
420
  2234388
370
     9
100
AcDbVertex
100
AcDb2dVertex
 10
57.17257776348475
 20
-101.9755319189507
 30
0.0
  0
SEQEND
  5
AA
330
A7
100
AcDbEntity
  8
_U+30EC_U+30A4_U+30E4_U+30FC 1
 62
   179
420
  2234388
370
     9
  0
INSERT
  5
AC
330
41
100
AcDbEntity
  8
_U+30EC_U+30A4_U+30E4_U+30FC 1
100
AcDbBlockReference
  2
block 5
 10
0.0
 20
0.0
 30
0.0
  0
POLYLINE
  5
B3
330
41
100
AcDbEntity
  8
_U+30EC_U+30A4_U+30E4_U+30FC 1
 62
   179
420
  2234388
370
     9
100
AcDb2dPolyline
 66
     1
 10
0.0
 20
0.0
 30
0.0
  0
VERTEX
  5
B4
330
B3
100
AcDbEntity
  8
_U+30EC_U+30A4_U+30E4_U+30FC 1
 62
   179
420
  2234388
370
     9
100
AcDbVertex
100
AcDb2dVertex
 10
59.67302986650306
 20
-100.9757596969782
 30
0.0
  0
VERTEX
  5
B5
330
B3
100
AcDbEntity
  8
_U+30EC_U+30A4_U+30E4_U+30FC 1
 62
   179
420
  2234388
370
     9
100
AcDbVertex
100
AcDb2dVertex
 10
64.93107667680356
 20
-100.9757596969782
 30
0.0
  0
SEQEND
  5
B6
330
B3
100
AcDbEntity
  8
_U+30EC_U+30A4_U+30E4_U+30FC 1
 62
   179
420
  2234388
370
     9
  0
POLYLINE
  5
B7
330
41
100
AcDbEntity
  8
_U+30EC_U+30A4_U+30E4_U+30FC 1
 62
   179
420
  2234388
370
     9
100
AcDb2dPolyline
 66
     1
 10
0.0
 20
0.0
 30
0.0
  0
VERTEX
  5
B8
330
B7
100
AcDbEntity
  8
_U+30EC_U+30A4_U+30E4_U+30FC 1
 62
   179
420
  2234388
370
     9
100
AcDbVertex
100
AcDb2dVertex
 10
57.17257776348475
 20
-100.9757596969782
 30
0.0
  0
VERTEX
  5
B9
330
B7
100
AcDbEntity
  8
_U+30EC_U+30A4_U+30E4_U+30FC 1
 62
   179
420
  2234388
370
     9
100
AcDbVertex
100
AcDb2dVertex
 10
59.67302986650306
 20
-100.9757596969782
 30
0.0
  0
SEQEND
  5
BA
330
B7
100
AcDbEntity
  8
_U+30EC_U+30A4_U+30E4_U+30FC 1
 62
   179
420
  2234388
370
     9
  0
POLYLINE
  5
BB
330
41
100
AcDbEntity
  8
_U+30EC_U+30A4_U+30E4_U+30FC 1
 62
   179
420
  2234388
370
     9
100
AcDb2dPolyline
 66
     1
 10
0.0
 20
0.0
 30
0.0
  0
VERTEX
  5
BC
330
BB
100
AcDbEntity
  8
_U+30EC_U+30A4_U+30E4_U+30FC 1
 62
   179
420
  2234388
370
     9
100
AcDbVertex
100
AcDb2dVertex
 10
59.67302986650306
 20
-99.51571830845447
 30
0.0
  0
VERTEX
  5
BD
330
BB
100
AcDbEntity
  8
_U+30EC_U+30A4_U+30E4_U+30FC 1
 62
   179
420
  2234388
370
     9
100
AcDbVertex
100
AcDb2dVertex
 10
59.67302986650306
 20
-101.9755319189507
 30
0.0
  0
SEQEND
  5
BE
330
BB
100
AcDbEntity
  8
_U+30EC_U+30A4_U+30E4_U+30FC 1
 62
   179
420
  2234388
370
     9
  0
INSERT
  5
C0
330
41
100
AcDbEntity
  8
_U+30EC_U+30A4_U+30E4_U+30FC 1
100
AcDbBlockReference
  2
block 6
 10
0.0
 20
0.0
 30
0.0
  0
POLYLINE
  5
CF
330
41
100
AcDbEntity
  8
_U+30EC_U+30A4_U+30E4_U+30FC 1
 62
   179
420
  2234388
370
     9
100
AcDb2dPolyline
 66
     1
 10
0.0
 20
0.0
 30
0.0
  0
VERTEX
  5
D0
330
CF
100
AcDbEntity
  8
_U+30EC_U+30A4_U+30E4_U+30FC 1
 62
   179
420
  2234388
370
     9
100
AcDbVertex
100
AcDb2dVertex
 10
81.173353206873
 20
-83.17579247920611
 30
0.0
  0
VERTEX
  5
D1
330
CF
100
AcDbEntity
  8
_U+30EC_U+30A4_U+30E4_U+30FC 1
 62
   179
420
  2234388
370
     9
100
AcDbVertex
100
AcDb2dVertex
 10
81.173353206873
 20
-95.97552275378386
 30
0.0
  0
SEQEND
  5
D2
330
CF
100
AcDbEntity
  8
_U+30EC_U+30A4_U+30E4_U+30FC 1
 62
   179
420
  2234388
370
     9
  0
POLYLINE
  5
D3
330
41
100
AcDbEntity
  8
_U+30EC_U+30A4_U+30E4_U+30FC 1
 62
   179
420
  2234388
370
     9
100
AcDb2dPolyline
 66
     1
 10
0.0
 20
0.0
 30
0.0
  0
VERTEX
  5
D4
330
D3
100
AcDbEntity
  8
_U+30EC_U+30A4_U+30E4_U+30FC 1
 62
   179
420
  2234388
370
     9
100
AcDbVertex
100
AcDb2dVertex
 10
62.21274757948725
 20
-95.97552275378386
 30
0.0
  0
VERTEX
  5
D5
330
D3
100
AcDbEntity
  8
_U+30EC_U+30A4_U+30E4_U+30FC 1
 62
   179
420
  2234388
370
     9
100
AcDbVertex
100
AcDb2dVertex
 10
82.17309012581204
 20
-95.97552275378386
 30
0.0
  0
SEQEND
  5
D6
330
D3
100
AcDbEntity
  8
_U+30EC_U+30A4_U+30E4_U+30FC 1
 62
   179
420
  2234388
370
     9
  0
INSERT
  5
D8
330
41
100
AcDbEntity
  8
_U+30EC_U+30A4_U+30E4_U+30FC 1
100
AcDbBlockReference
  2
block 7
 10
0.0
 20
0.0
 30
0.0
  0
ENDBLK
  5
44
330
41
100
AcDbEntity
  8
0
100
AcDbBlockEnd
  0
BLOCK
  5
87
330
85
100
AcDbEntity
  8
0
100
AcDbBlockBegin
  2
block 3
 70
     0
 10
0.0
 20
0.0
 30
0.0
  3
block 3
  1

  0
SPLINE
  5
89
330
85
100
AcDbEntity
  8
_U+30EC_U+30A4_U+30E4_U+30FC 1
370
     0
100
AcDbSpline
210
0.0
220
0.0
230
1.0
 70
    11
 71
     3
 72
    26
 73
    22
 74
     0
 42
0.0000000001
 43
0.0000000001
 12
1.0
 22
0.0
 32
0.0
 13
1.0
 23
0.0
 33
0.0
 40
0.0
 40
0.0
 40
0.0
 40
0.0
 40
1.0
 40
1.0
 40
1.0
 40
2.0
 40
2.0
 40
2.0
 40
3.0
 40
3.0
 40
3.0
 40
4.0
 40
4.0
 40
4.0
 40
5.0
 40
5.0
 40
5.0
 40
6.0
 40
6.0
 40
6.0
 40
7.0
 40
7.0
 40
7.0
 40
7.0
 10
80.57664928541139
 20
-79.29507376489846
 30
0.0
 10
80.57664928541139
 20
-79.29507376489846
 30
0.0
 10
79.47249618238882
 20
-79.29507376489846
 30
0.0
 10
79.47249618238882
 20
-79.29507376489846
 30
0.0
 10
79.47249618238882
 20
-79.29507376489846
 30
0.0
 10
79.47249618238882
 20
-79.58049992585141
 30
0.0
 10
79.47249618238882
 20
-79.58049992585141
 30
0.0
 10
79.47249618238882
 20
-79.58049992585141
 30
0.0
 10
79.32435707652309
 20
-79.58049992585141
 30
0.0
 10
79.32435707652309
 20
-79.58049992585141
 30
0.0
 10
79.3095431659365
 20
-79.29317896238157
 30
0.0
 10
79.14659014948418
 20
-79.25287134520414
 30
0.0
 10
79.0322129793739
 20
-79.22720538383903
 30
0.0
 10
79.0322129793739
 20
-79.22720538383903
 30
0.0
 10
79.0322129793739
 20
-79.10094263430463
 30
0.0
 10
79.0322129793739
 20
-79.10094263430463
 30
0.0
 10
79.0322129793739
 20
-79.10094263430463
 30
0.0
 10
80.57664928541139
 20
-79.10094263430463
 30
0.0
 10
80.57664928541139
 20
-79.10094263430463
 30
0.0
 10
80.57664928541139
 20
-79.10094263430463
 30
0.0
 10
80.57664928541139
 20
-79.29507376489846
 30
0.0
 10
80.57664928541139
 20
-79.29507376489846
 30
0.0
  0
HATCH
  5
8A
330
85
100
AcDbEntity
  8
_U+30EC_U+30A4_U+30E4_U+30FC 1
 62
   179
420
  2234388
100
AcDbHatch
 10
0.0
 20
0.0
 30
0.0
210
0.0
220
0.0
230
1.0
  2
SOLID
 70
     1
 71
     0
 91
        1
 92
        1
 93
        1
 72
     4
 94
        3
 73
     0
 74
     1
 95
       26
 96
       22
 40
0.0
 40
0.0
 40
0.0
 40
0.0
 40
1.0
 40
1.0
 40
1.0
 40
2.0
 40
2.0
 40
2.0
 40
3.0
 40
3.0
 40
3.0
 40
4.0
 40
4.0
 40
4.0
 40
5.0
 40
5.0
 40
5.0
 40
6.0
 40
6.0
 40
6.0
 40
7.0
 40
7.0
 40
7.0
 40
7.0
 10
80.57664928541139
 20
-79.29507376489846
 10
80.57664928541139
 20
-79.29507376489846
 10
79.47249618238882
 20
-79.29507376489846
 10
79.47249618238882
 20
-79.29507376489846
 10
79.47249618238882
 20
-79.29507376489846
 10
79.47249618238882
 20
-79.58049992585141
 10
79.47249618238882
 20
-79.58049992585141
 10
79.47249618238882
 20
-79.58049992585141
 10
79.32435707652309
 20
-79.58049992585141
 10
79.32435707652309
 20
-79.58049992585141
 10
79.3095431659365
 20
-79.29317896238157
 10
79.14659014948418
 20
-79.25287134520414
 10
79.0322129793739
 20
-79.22720538383903
 10
79.0322129793739
 20
-79.22720538383903
 10
79.0322129793739
 20
-79.10094263430463
 10
79.0322129793739
 20
-79.10094263430463
 10
79.0322129793739
 20
-79.10094263430463
 10
80.57664928541139
 20
-79.10094263430463
 10
80.57664928541139
 20
-79.10094263430463
 10
80.57664928541139
 20
-79.10094263430463
 10
80.57664928541139
 20
-79.29507376489846
 10
80.57664928541139
 20
-79.29507376489846
 97
        0
 97
        0
 75
     2
 76
     1
 98
        0
  0
ENDBLK
  5
88
330
85
100
AcDbEntity
  8
0
100
AcDbBlockEnd
  0
BLOCK
  5
99
330
97
100
AcDbEntity
  8
0
100
AcDbBlockBegin
  2
block 4
 70
     0
 10
0.0
 20
0.0
 30
0.0
  3
block 4
  1

  0
SPLINE
  5
9B
330
97
100
AcDbEntity
  8
_U+30EC_U+30A4_U+30E4_U+30FC 1
370
     0
100
AcDbSpline
210
0.0
220
0.0
230
1.0
 70
    11
 71
     3
 72
    62
 73
    58
 74
     0
 42
0.0000000001
 43
0.0000000001
 12
1.0
 22
0.0
 32
0.0
 13
1.0
 23
0.0
 33
0.0
 40
0.0
 40
0.0
 40
0.0
 40
0.0
 40
1.0
 40
1.0
 40
1.0
 40
2.0
 40
2.0
 40
2.0
 40
3.0
 40
3.0
 40
3.0
 40
4.0
 40
4.0
 40
4.0
 40
5.0
 40
5.0
 40
5.0
 40
6.0
 40
6.0
 40
6.0
 40
7.0
 40
7.0
 40
7.0
 40
8.0
 40
8.0
 40
8.0
 40
9.0
 40
9.0
 40
9.0
 40
10.0
 40
10.0
 40
10.0
 40
11.0
 40
11.0
 40
11.0
 40
12.0
 40
12.0
 40
12.0
 40
13.0
 40
13.0
 40
13.0
 40
14.0
 40
14.0
 40
14.0
 40
15.0
 40
15.0
 40
15.0
 40
16.0
 40
16.0
 40
16.0
 40
17.0
 40
17.0
 40
17.0
 40
18.0
 40
18.0
 40
18.0
 40
19.0
 40
19.0
 40
19.0
 40
19.0
 10
60.42180716805427
 20
-77.63092039074853
 30
0.0
 10
60.3394693859568
 20
-77.63092039074853
 30
0.0
 10
60.15067815336511
 20
-77.60973305351423
 30
0.0
 10
60.04284666467679
 20
-77.42352564253649
 30
0.0
 10
59.97876788865114
 20
-77.3113877844916
 30
0.0
 10
59.97497828361737
 20
-77.21199677974214
 30
0.0
 10
59.97153318813212
 20
-77.12741968557926
 30
0.0
 10
59.97153318813212
 20
-77.12741968557926
 30
0.0
 10
60.16170245891791
 20
-77.12741968557926
 30
0.0
 10
60.16170245891791
 20
-77.12741968557926
 30
0.0
 10
60.16376951620906
 20
-77.20148923851212
 30
0.0
 10
60.17272676447071
 20
-77.4362724958319
 30
0.0
 10
60.4180175630205
 20
-77.4362724958319
 30
0.0
 10
60.53687335726162
 20
-77.4362724958319
 30
0.0
 10
60.66882051434668
 20
-77.3665093122556
 30
0.0
 10
60.66882051434668
 20
-77.13792722680927
 30
0.0
 10
60.66882051434668
 20
-77.0216552541821
 30
0.0
 10
60.63574759768829
 20
-76.9729071530658
 30
0.0
 10
60.60818683380629
 20
-76.94121227460151
 30
0.0
 10
60.54445256732917
 20
-76.86714272166863
 30
0.0
 10
60.44351126961135
 20
-76.85456812314747
 30
0.0
 10
60.3959689519149
 20
-76.85456812314747
 30
0.0
 10
60.3794324935857
 20
-76.85456812314747
 30
0.0
 10
60.34842663421845
 20
-76.85663518043862
 30
0.0
 10
60.32465547537023
 20
-76.86076929502092
 30
0.0
 10
60.32465547537023
 20
-76.86076929502092
 30
0.0
 10
60.32465547537023
 20
-76.6661214001043
 30
0.0
 10
60.32465547537023
 20
-76.6661214001043
 30
0.0
 10
60.35772839202863
 20
-76.67249482675201
 30
0.0
 10
60.39424640417227
 20
-76.67473413881743
 30
0.0
 10
60.39975855694868
 20
-76.67473413881743
 30
0.0
 10
60.45660263245529
 20
-76.67473413881743
 30
0.0
 10
60.62851289716927
 20
-76.65354680158315
 30
0.0
 10
60.62851289716927
 20
-76.41652423219796
 30
0.0
 10
60.62851289716927
 20
-76.23892955993333
 30
0.0
 10
60.51516925570454
 20
-76.18380803216932
 30
0.0
 10
60.41974011076312
 20
-76.18380803216932
 30
0.0
 10
60.19098577054253
 20
-76.18380803216932
 30
0.0
 10
60.18375107002351
 20
-76.41652423219796
 30
0.0
 10
60.17996146498974
 20
-76.48852672783968
 30
0.0
 10
60.17996146498974
 20
-76.48852672783968
 30
0.0
 10
60.00426159524199
 20
-76.48852672783968
 30
0.0
 10
60.00426159524199
 20
-76.48852672783968
 30
0.0
 10
60.01184080530954
 20
-76.36364201649937
 30
0.0
 10
60.03561196415777
 20
-75.98709307996157
 30
0.0
 10
60.43076441631592
 20
-75.98709307996157
 30
0.0
 10
60.62472329213549
 20
-75.98709307996157
 30
0.0
 10
60.83349607854163
 20
-76.11404484859302
 30
0.0
 10
60.83349607854163
 20
-76.41015080555024
 30
0.0
 10
60.83349607854163
 20
-76.596358216528
 30
0.0
 10
60.75115829644416
 20
-76.67886825339973
 30
0.0
 10
60.66503090931291
 20
-76.74019095303717
 30
0.0
 10
60.71808537978576
 20
-76.76775171691918
 30
0.0
 10
60.87552624346168
 20
-76.84819469649976
 30
0.0
 10
60.87552624346168
 20
-77.12535262828811
 30
0.0
 10
60.87552624346168
 20
-77.46383325971391
 30
0.0
 10
60.66158581382766
 20
-77.63092039074853
 30
0.0
 10
60.42180716805427
 20
-77.63092039074853
 30
0.0
  0
HATCH
  5
9C
330
97
100
AcDbEntity
  8
_U+30EC_U+30A4_U+30E4_U+30FC 1
 62
   179
420
  2234388
100
AcDbHatch
 10
0.0
 20
0.0
 30
0.0
210
0.0
220
0.0
230
1.0
  2
SOLID
 70
     1
 71
     0
 91
        1
 92
        1
 93
        1
 72
     4
 94
        3
 73
     0
 74
     1
 95
       62
 96
       58
 40
0.0
 40
0.0
 40
0.0
 40
0.0
 40
1.0
 40
1.0
 40
1.0
 40
2.0
 40
2.0
 40
2.0
 40
3.0
 40
3.0
 40
3.0
 40
4.0
 40
4.0
 40
4.0
 40
5.0
 40
5.0
 40
5.0
 40
6.0
 40
6.0
 40
6.0
 40
7.0
 40
7.0
 40
7.0
 40
8.0
 40
8.0
 40
8.0
 40
9.0
 40
9.0
 40
9.0
 40
10.0
 40
10.0
 40
10.0
 40
11.0
 40
11.0
 40
11.0
 40
12.0
 40
12.0
 40
12.0
 40
13.0
 40
13.0
 40
13.0
 40
14.0
 40
14.0
 40
14.0
 40
15.0
 40
15.0
 40
15.0
 40
16.0
 40
16.0
 40
16.0
 40
17.0
 40
17.0
 40
17.0
 40
18.0
 40
18.0
 40
18.0
 40
19.0
 40
19.0
 40
19.0
 40
19.0
 10
60.42180716805427
 20
-77.63092039074853
 10
60.3394693859568
 20
-77.63092039074853
 10
60.15067815336511
 20
-77.60973305351423
 10
60.04284666467679
 20
-77.42352564253649
 10
59.97876788865114
 20
-77.3113877844916
 10
59.97497828361737
 20
-77.21199677974214
 10
59.97153318813212
 20
-77.12741968557926
 10
59.97153318813212
 20
-77.12741968557926
 10
60.16170245891791
 20
-77.12741968557926
 10
60.16170245891791
 20
-77.12741968557926
 10
60.16376951620906
 20
-77.20148923851212
 10
60.17272676447071
 20
-77.4362724958319
 10
60.4180175630205
 20
-77.4362724958319
 10
60.53687335726162
 20
-77.4362724958319
 10
60.66882051434668
 20
-77.3665093122556
 10
60.66882051434668
 20
-77.13792722680927
 10
60.66882051434668
 20
-77.0216552541821
 10
60.63574759768829
 20
-76.9729071530658
 10
60.60818683380629
 20
-76.94121227460151
 10
60.54445256732917
 20
-76.86714272166863
 10
60.44351126961135
 20
-76.85456812314747
 10
60.3959689519149
 20
-76.85456812314747
 10
60.3794324935857
 20
-76.85456812314747
 10
60.34842663421845
 20
-76.85663518043862
 10
60.32465547537023
 20
-76.86076929502092
 10
60.32465547537023
 20
-76.86076929502092
 10
60.32465547537023
 20
-76.6661214001043
 10
60.32465547537023
 20
-76.6661214001043
 10
60.35772839202863
 20
-76.67249482675201
 10
60.39424640417227
 20
-76.67473413881743
 10
60.39975855694868
 20
-76.67473413881743
 10
60.45660263245529
 20
-76.67473413881743
 10
60.62851289716927
 20
-76.65354680158315
 10
60.62851289716927
 20
-76.41652423219796
 10
60.62851289716927
 20
-76.23892955993333
 10
60.51516925570454
 20
-76.18380803216932
 10
60.41974011076312
 20
-76.18380803216932
 10
60.19098577054253
 20
-76.18380803216932
 10
60.18375107002351
 20
-76.41652423219796
 10
60.17996146498974
 20
-76.48852672783968
 10
60.17996146498974
 20
-76.48852672783968
 10
60.00426159524199
 20
-76.48852672783968
 10
60.00426159524199
 20
-76.48852672783968
 10
60.01184080530954
 20
-76.36364201649937
 10
60.03561196415777
 20
-75.98709307996157
 10
60.43076441631592
 20
-75.98709307996157
 10
60.62472329213549
 20
-75.98709307996157
 10
60.83349607854163
 20
-76.11404484859302
 10
60.83349607854163
 20
-76.41015080555024
 10
60.83349607854163
 20
-76.596358216528
 10
60.75115829644416
 20
-76.67886825339973
 10
60.66503090931291
 20
-76.74019095303717
 10
60.71808537978576
 20
-76.76775171691918
 10
60.87552624346168
 20
-76.84819469649976
 10
60.87552624346168
 20
-77.12535262828811
 10
60.87552624346168
 20
-77.46383325971391
 10
60.66158581382766
 20
-77.63092039074853
 10
60.42180716805427
 20
-77.63092039074853
 97
        0
 97
        0
 75
     2
 76
     1
 98
        0
  0
SPLINE
  5
9D
330
97
100
AcDbEntity
  8
_U+30EC_U+30A4_U+30E4_U+30FC 1
370
     0
100
AcDbSpline
210
0.0
220
0.0
230
1.0
 70
    11
 71
     3
 72
    44
 73
    40
 74
     0
 42
0.0000000001
 43
0.0000000001
 12
1.0
 22
0.0
 32
0.0
 13
1.0
 23
0.0
 33
0.0
 40
0.0
 40
0.0
 40
0.0
 40
0.0
 40
1.0
 40
1.0
 40
1.0
 40
2.0
 40
2.0
 40
2.0
 40
3.0
 40
3.0
 40
3.0
 40
4.0
 40
4.0
 40
4.0
 40
5.0
 40
5.0
 40
5.0
 40
6.0
 40
6.0
 40
6.0
 40
7.0
 40
7.0
 40
7.0
 40
8.0
 40
8.0
 40
8.0
 40
9.0
 40
9.0
 40
9.0
 40
10.0
 40
10.0
 40
10.0
 40
11.0
 40
11.0
 40
11.0
 40
12.0
 40
12.0
 40
12.0
 40
13.0
 40
13.0
 40
13.0
 40
13.0
 10
61.52699379972242
 20
-76.99840085965666
 30
0.0
 10
61.33820256713073
 20
-77.1570475067524
 30
0.0
 10
61.25793184232441
 20
-77.23111705968527
 30
0.0
 10
61.21590167740436
 20
-77.37494979619446
 30
0.0
 10
61.21590167740436
 20
-77.37494979619446
 30
0.0
 10
61.88907333522218
 20
-77.37494979619446
 30
0.0
 10
61.88907333522218
 20
-77.37494979619446
 30
0.0
 10
61.88907333522218
 20
-77.37494979619446
 30
0.0
 10
61.88907333522218
 20
-77.58010523234108
 30
0.0
 10
61.88907333522218
 20
-77.58010523234108
 30
0.0
 10
61.88907333522218
 20
-77.58010523234108
 30
0.0
 10
60.9998941904792
 20
-77.58010523234108
 30
0.0
 10
60.9998941904792
 20
-77.58010523234108
 30
0.0
 10
61.02711044481267
 20
-77.22250432097215
 30
0.0
 10
61.08395452031929
 20
-77.14430065345698
 30
0.0
 10
61.41709525374295
 20
-76.84595538443435
 30
0.0
 10
61.63861489344452
 20
-76.64717337493543
 30
0.0
 10
61.69511445940261
 20
-76.57947724865028
 30
0.0
 10
61.69511445940261
 20
-76.44201793878881
 30
0.0
 10
61.69511445940261
 20
-76.3235066540962
 30
0.0
 10
61.63310274066811
 20
-76.19242077088245
 30
0.0
 10
61.46291502369677
 20
-76.19242077088245
 30
0.0
 10
61.23760577896144
 20
-76.19242077088245
 30
0.0
 10
61.23037107844241
 20
-76.42289765884567
 30
0.0
 10
61.22658147340864
 20
-76.53934188624712
 30
0.0
 10
61.22658147340864
 20
-76.53934188624712
 30
0.0
 10
61.03262259758907
 20
-76.53934188624712
 30
0.0
 10
61.03262259758907
 20
-76.53934188624712
 30
0.0
 10
61.04020180765662
 20
-76.41239011761566
 30
0.0
 10
61.04915905591827
 20
-76.30025225957077
 30
0.0
 10
61.11874998472032
 20
-76.18174097487818
 30
0.0
 10
61.21383462011321
 20
-76.02102727049127
 30
0.0
 10
61.3750650888229
 20
-75.98709307996157
 30
0.0
 10
61.4756618769922
 20
-75.98709307996157
 30
0.0
 10
61.71544052276559
 20
-75.98709307996157
 30
0.0
 10
61.89458548799858
 20
-76.17123343364817
 30
0.0
 10
61.89458548799858
 20
-76.44408499607995
 30
0.0
 10
61.89458548799858
 20
-76.67249482675201
 30
0.0
 10
61.79398869982928
 20
-76.77205808627573
 30
0.0
 10
61.52699379972242
 20
-76.99840085965666
 30
0.0
  0
HATCH
  5
9E
330
97
100
AcDbEntity
  8
_U+30EC_U+30A4_U+30E4_U+30FC 1
 62
   179
420
  2234388
100
AcDbHatch
 10
0.0
 20
0.0
 30
0.0
210
0.0
220
0.0
230
1.0
  2
SOLID
 70
     1
 71
     0
 91
        1
 92
        1
 93
        1
 72
     4
 94
        3
 73
     0
 74
     1
 95
       44
 96
       40
 40
0.0
 40
0.0
 40
0.0
 40
0.0
 40
1.0
 40
1.0
 40
1.0
 40
2.0
 40
2.0
 40
2.0
 40
3.0
 40
3.0
 40
3.0
 40
4.0
 40
4.0
 40
4.0
 40
5.0
 40
5.0
 40
5.0
 40
6.0
 40
6.0
 40
6.0
 40
7.0
 40
7.0
 40
7.0
 40
8.0
 40
8.0
 40
8.0
 40
9.0
 40
9.0
 40
9.0
 40
10.0
 40
10.0
 40
10.0
 40
11.0
 40
11.0
 40
11.0
 40
12.0
 40
12.0
 40
12.0
 40
13.0
 40
13.0
 40
13.0
 40
13.0
 10
61.52699379972242
 20
-76.99840085965666
 10
61.33820256713073
 20
-77.1570475067524
 10
61.25793184232441
 20
-77.23111705968527
 10
61.21590167740436
 20
-77.37494979619446
 10
61.21590167740436
 20
-77.37494979619446
 10
61.88907333522218
 20
-77.37494979619446
 10
61.88907333522218
 20
-77.37494979619446
 10
61.88907333522218
 20
-77.37494979619446
 10
61.88907333522218
 20
-77.58010523234108
 10
61.88907333522218
 20
-77.58010523234108
 10
61.88907333522218
 20
-77.58010523234108
 10
60.9998941904792
 20
-77.58010523234108
 10
60.9998941904792
 20
-77.58010523234108
 10
61.02711044481267
 20
-77.22250432097215
 10
61.08395452031929
 20
-77.14430065345698
 10
61.41709525374295
 20
-76.84595538443435
 10
61.63861489344452
 20
-76.64717337493543
 10
61.69511445940261
 20
-76.57947724865028
 10
61.69511445940261
 20
-76.44201793878881
 10
61.69511445940261
 20
-76.3235066540962
 10
61.63310274066811
 20
-76.19242077088245
 10
61.46291502369677
 20
-76.19242077088245
 10
61.23760577896144
 20
-76.19242077088245
 10
61.23037107844241
 20
-76.42289765884567
 10
61.22658147340864
 20
-76.53934188624712
 10
61.22658147340864
 20
-76.53934188624712
 10
61.03262259758907
 20
-76.53934188624712
 10
61.03262259758907
 20
-76.53934188624712
 10
61.04020180765662
 20
-76.41239011761566
 10
61.04915905591827
 20
-76.30025225957077
 10
61.11874998472032
 20
-76.18174097487818
 10
61.21383462011321
 20
-76.02102727049127
 10
61.3750650888229
 20
-75.98709307996157
 10
61.4756618769922
 20
-75.98709307996157
 10
61.71544052276559
 20
-75.98709307996157
 10
61.89458548799858
 20
-76.17123343364817
 10
61.89458548799858
 20
-76.44408499607995
 10
61.89458548799858
 20
-76.67249482675201
 10
61.79398869982928
 20
-76.77205808627573
 10
61.52699379972242
 20
-76.99840085965666
 97
        0
 97
        0
 75
     2
 76
     1
 98
        0
  0
ENDBLK
  5
9A
330
97
100
AcDbEntity
  8
0
100
AcDbBlockEnd
  0
BLOCK
  5
AD
330
AB
100
AcDbEntity
  8
0
100
AcDbBlockBegin
  2
block 5
 70
     0
 10
0.0
 20
0.0
 30
0.0
  3
block 5
  1

  0
SPLINE
  5
AF
330
AB
100
AcDbEntity
  8
_U+30EC_U+30A4_U+30E4_U+30FC 1
370
     0
100
AcDbSpline
210
0.0
220
0.0
230
1.0
 70
    11
 71
     3
 72
    26
 73
    22
 74
     0
 42
0.0000000001
 43
0.0000000001
 12
1.0
 22
0.0
 32
0.0
 13
1.0
 23
0.0
 33
0.0
 40
0.0
 40
0.0
 40
0.0
 40
0.0
 40
1.0
 40
1.0
 40
1.0
 40
2.0
 40
2.0
 40
2.0
 40
3.0
 40
3.0
 40
3.0
 40
4.0
 40
4.0
 40
4.0
 40
5.0
 40
5.0
 40
5.0
 40
6.0
 40
6.0
 40
6.0
 40
7.0
 40
7.0
 40
7.0
 40
7.0
 10
50.38676078384428
 20
-99.85092499673866
 30
0.0
 10
50.38676078384428
 20
-99.85092499673866
 30
0.0
 10
50.38676078384428
 20
-98.74677189371609
 30
0.0
 10
50.38676078384428
 20
-98.74677189371609
 30
0.0
 10
50.38676078384428
 20
-98.74677189371609
 30
0.0
 10
50.10133462289134
 20
-98.74677189371609
 30
0.0
 10
50.10133462289134
 20
-98.74677189371609
 30
0.0
 10
50.10133462289134
 20
-98.74677189371609
 30
0.0
 10
50.10133462289134
 20
-98.59863278785035
 30
0.0
 10
50.10133462289134
 20
-98.59863278785035
 30
0.0
 10
50.38865558636117
 20
-98.58381887726377
 30
0.0
 10
50.42896320353859
 20
-98.42086586081146
 30
0.0
 10
50.45445691012944
 20
-98.30648869070116
 30
0.0
 10
50.45445691012944
 20
-98.30648869070116
 30
0.0
 10
50.58089191443811
 20
-98.30648869070116
 30
0.0
 10
50.58089191443811
 20
-98.30648869070116
 30
0.0
 10
50.58089191443811
 20
-98.30648869070116
 30
0.0
 10
50.58089191443811
 20
-99.85092499673866
 30
0.0
 10
50.58089191443811
 20
-99.85092499673866
 30
0.0
 10
50.58089191443811
 20
-99.85092499673866
 30
0.0
 10
50.38676078384428
 20
-99.85092499673866
 30
0.0
 10
50.38676078384428
 20
-99.85092499673866
 30
0.0
  0
HATCH
  5
B0
330
AB
100
AcDbEntity
  8
_U+30EC_U+30A4_U+30E4_U+30FC 1
 62
   179
420
  2234388
100
AcDbHatch
 10
0.0
 20
0.0
 30
0.0
210
0.0
220
0.0
230
1.0
  2
SOLID
 70
     1
 71
     0
 91
        1
 92
        1
 93
        1
 72
     4
 94
        3
 73
     0
 74
     1
 95
       26
 96
       22
 40
0.0
 40
0.0
 40
0.0
 40
0.0
 40
1.0
 40
1.0
 40
1.0
 40
2.0
 40
2.0
 40
2.0
 40
3.0
 40
3.0
 40
3.0
 40
4.0
 40
4.0
 40
4.0
 40
5.0
 40
5.0
 40
5.0
 40
6.0
 40
6.0
 40
6.0
 40
7.0
 40
7.0
 40
7.0
 40
7.0
 10
50.38676078384428
 20
-99.85092499673866
 10
50.38676078384428
 20
-99.85092499673866
 10
50.38676078384428
 20
-98.74677189371609
 10
50.38676078384428
 20
-98.74677189371609
 10
50.38676078384428
 20
-98.74677189371609
 10
50.10133462289134
 20
-98.74677189371609
 10
50.10133462289134
 20
-98.74677189371609
 10
50.10133462289134
 20
-98.74677189371609
 10
50.10133462289134
 20
-98.59863278785035
 10
50.10133462289134
 20
-98.59863278785035
 10
50.38865558636117
 20
-98.58381887726377
 10
50.42896320353859
 20
-98.42086586081146
 10
50.45445691012944
 20
-98.30648869070116
 10
50.45445691012944
 20
-98.30648869070116
 10
50.58089191443811
 20
-98.30648869070116
 10
50.58089191443811
 20
-98.30648869070116
 10
50.58089191443811
 20
-98.30648869070116
 10
50.58089191443811
 20
-99.85092499673866
 10
50.58089191443811
 20
-99.85092499673866
 10
50.58089191443811
 20
-99.85092499673866
 10
50.38676078384428
 20
-99.85092499673866
 10
50.38676078384428
 20
-99.85092499673866
 97
        0
 97
        0
 75
     2
 76
     1
 98
        0
  0
SPLINE
  5
B1
330
AB
100
AcDbEntity
  8
_U+30EC_U+30A4_U+30E4_U+30FC 1
370
     0
100
AcDbSpline
210
0.0
220
0.0
230
1.0
 70
    11
 71
     3
 72
    44
 73
    40
 74
     0
 42
0.0000000001
 43
0.0000000001
 12
1.0
 22
0.0
 32
0.0
 13
1.0
 23
0.0
 33
0.0
 40
0.0
 40
0.0
 40
0.0
 40
0.0
 40
1.0
 40
1.0
 40
1.0
 40
2.0
 40
2.0
 40
2.0
 40
3.0
 40
3.0
 40
3.0
 40
4.0
 40
4.0
 40
4.0
 40
5.0
 40
5.0
 40
5.0
 40
6.0
 40
6.0
 40
6.0
 40
7.0
 40
7.0
 40
7.0
 40
8.0
 40
8.0
 40
8.0
 40
9.0
 40
9.0
 40
9.0
 40
10.0
 40
10.0
 40
10.0
 40
11.0
 40
11.0
 40
11.0
 40
12.0
 40
12.0
 40
12.0
 40
13.0
 40
13.0
 40
13.0
 40
13.0
 10
51.52674287991346
 20
-99.26904836927997
 30
0.0
 10
51.33829615687029
 20
-99.42786727114998
 30
0.0
 10
51.25768092251544
 20
-99.50193682408285
 30
0.0
 10
51.2156507575954
 20
-99.64559730581777
 30
0.0
 10
51.2156507575954
 20
-99.64559730581777
 30
0.0
 10
51.88916692496174
 20
-99.64559730581777
 30
0.0
 10
51.88916692496174
 20
-99.64559730581777
 30
0.0
 10
51.88916692496174
 20
-99.64559730581777
 30
0.0
 10
51.88916692496174
 20
-99.85092499673866
 30
0.0
 10
51.88916692496174
 20
-99.85092499673866
 30
0.0
 10
51.88916692496174
 20
-99.85092499673866
 30
0.0
 10
50.99964327067023
 20
-99.85092499673866
 30
0.0
 10
50.99964327067023
 20
-99.85092499673866
 30
0.0
 10
51.02720403455223
 20
-99.49332408536974
 30
0.0
 10
51.08387585528459
 20
-99.41512041785455
 30
0.0
 10
51.41701658870825
 20
-99.11677514883192
 30
0.0
 10
51.63836397363555
 20
-98.917993139333
 30
0.0
 10
51.69520804914217
 20
-98.85012475827358
 30
0.0
 10
51.69520804914217
 20
-98.71266544841211
 30
0.0
 10
51.69520804914217
 20
-98.59415416371952
 30
0.0
 10
51.63302407563341
 20
-98.46324053528002
 30
0.0
 10
51.46266410388781
 20
-98.46324053528002
 30
0.0
 10
51.23752711392673
 20
-98.46324053528002
 30
0.0
 10
51.23029241340771
 20
-98.69371742324324
 30
0.0
 10
51.22667506314819
 20
-98.81016165064469
 30
0.0
 10
51.22667506314819
 20
-98.81016165064469
 30
0.0
 10
51.03254393255437
 20
-98.81016165064469
 30
0.0
 10
51.03254393255437
 20
-98.81016165064469
 30
0.0
 10
51.03995088784765
 20
-98.68303762723897
 30
0.0
 10
51.04908039088357
 20
-98.57107202396834
 30
0.0
 10
51.11867131968561
 20
-98.45256073927575
 30
0.0
 10
51.21375595507851
 20
-98.29167478011459
 30
0.0
 10
51.37481416901394
 20
-98.25791284435914
 30
0.0
 10
51.4755832119575
 20
-98.25791284435914
 30
0.0
 10
51.71536185773088
 20
-98.25791284435914
 30
0.0
 10
51.89467907773814
 20
-98.44188094327149
 30
0.0
 10
51.89467907773814
 20
-98.71473250570327
 30
0.0
 10
51.89467907773814
 20
-98.94348684592386
 30
0.0
 10
51.79391003479458
 20
-99.04270559589905
 30
0.0
 10
51.52674287991346
 20
-99.26904836927997
 30
0.0
  0
HATCH
  5
B2
330
AB
100
AcDbEntity
  8
_U+30EC_U+30A4_U+30E4_U+30FC 1
 62
   179
420
  2234388
100
AcDbHatch
 10
0.0
 20
0.0
 30
0.0
210
0.0
220
0.0
230
1.0
  2
SOLID
 70
     1
 71
     0
 91
        1
 92
        1
 93
        1
 72
     4
 94
        3
 73
     0
 74
     1
 95
       44
 96
       40
 40
0.0
 40
0.0
 40
0.0
 40
0.0
 40
1.0
 40
1.0
 40
1.0
 40
2.0
 40
2.0
 40
2.0
 40
3.0
 40
3.0
 40
3.0
 40
4.0
 40
4.0
 40
4.0
 40
5.0
 40
5.0
 40
5.0
 40
6.0
 40
6.0
 40
6.0
 40
7.0
 40
7.0
 40
7.0
 40
8.0
 40
8.0
 40
8.0
 40
9.0
 40
9.0
 40
9.0
 40
10.0
 40
10.0
 40
10.0
 40
11.0
 40
11.0
 40
11.0
 40
12.0
 40
12.0
 40
12.0
 40
13.0
 40
13.0
 40
13.0
 40
13.0
 10
51.52674287991346
 20
-99.26904836927997
 10
51.33829615687029
 20
-99.42786727114998
 10
51.25768092251544
 20
-99.50193682408285
 10
51.2156507575954
 20
-99.64559730581777
 10
51.2156507575954
 20
-99.64559730581777
 10
51.88916692496174
 20
-99.64559730581777
 10
51.88916692496174
 20
-99.64559730581777
 10
51.88916692496174
 20
-99.64559730581777
 10
51.88916692496174
 20
-99.85092499673866
 10
51.88916692496174
 20
-99.85092499673866
 10
51.88916692496174
 20
-99.85092499673866
 10
50.99964327067023
 20
-99.85092499673866
 10
50.99964327067023
 20
-99.85092499673866
 10
51.02720403455223
 20
-99.49332408536974
 10
51.08387585528459
 20
-99.41512041785455
 10
51.41701658870825
 20
-99.11677514883192
 10
51.63836397363555
 20
-98.917993139333
 10
51.69520804914217
 20
-98.85012475827358
 10
51.69520804914217
 20
-98.71266544841211
 10
51.69520804914217
 20
-98.59415416371952
 10
51.63302407563341
 20
-98.46324053528002
 10
51.46266410388781
 20
-98.46324053528002
 10
51.23752711392673
 20
-98.46324053528002
 10
51.23029241340771
 20
-98.69371742324324
 10
51.22667506314819
 20
-98.81016165064469
 10
51.22667506314819
 20
-98.81016165064469
 10
51.03254393255437
 20
-98.81016165064469
 10
51.03254393255437
 20
-98.81016165064469
 10
51.03995088784765
 20
-98.68303762723897
 10
51.04908039088357
 20
-98.57107202396834
 10
51.11867131968561
 20
-98.45256073927575
 10
51.21375595507851
 20
-98.29167478011459
 10
51.37481416901394
 20
-98.25791284435914
 10
51.4755832119575
 20
-98.25791284435914
 10
51.71536185773088
 20
-98.25791284435914
 10
51.89467907773814
 20
-98.44188094327149
 10
51.89467907773814
 20
-98.71473250570327
 10
51.89467907773814
 20
-98.94348684592386
 10
51.79391003479458
 20
-99.04270559589905
 10
51.52674287991346
 20
-99.26904836927997
 97
        0
 97
        0
 75
     2
 76
     1
 98
        0
  0
ENDBLK
  5
AE
330
AB
100
AcDbEntity
  8
0
100
AcDbBlockEnd
  0
BLOCK
  5
C1
330
BF
100
AcDbEntity
  8
0
100
AcDbBlockBegin
  2
block 6
 70
     0
 10
0.0
 20
0.0
 30
0.0
  3
block 6
  1

  0
SPLINE
  5
C3
330
BF
100
AcDbEntity
  8
_U+30EC_U+30A4_U+30E4_U+30FC 1
370
     0
100
AcDbSpline
210
0.0
220
0.0
230
1.0
 70
    11
 71
     3
 72
    44
 73
    40
 74
     0
 42
0.0000000001
 43
0.0000000001
 12
1.0
 22
0.0
 32
0.0
 13
1.0
 23
0.0
 33
0.0
 40
0.0
 40
0.0
 40
0.0
 40
0.0
 40
1.0
 40
1.0
 40
1.0
 40
2.0
 40
2.0
 40
2.0
 40
3.0
 40
3.0
 40
3.0
 40
4.0
 40
4.0
 40
4.0
 40
5.0
 40
5.0
 40
5.0
 40
6.0
 40
6.0
 40
6.0
 40
7.0
 40
7.0
 40
7.0
 40
8.0
 40
8.0
 40
8.0
 40
9.0
 40
9.0
 40
9.0
 40
10.0
 40
10.0
 40
10.0
 40
11.0
 40
11.0
 40
11.0
 40
12.0
 40
12.0
 40
12.0
 40
13.0
 40
13.0
 40
13.0
 40
13.0
 10
57.81025253546063
 20
-99.26904836927997
 30
0.0
 10
57.62146130286894
 20
-99.42786727114998
 30
0.0
 10
57.54119057806262
 20
-99.50193682408285
 30
0.0
 10
57.49916041314258
 20
-99.64559730581777
 30
0.0
 10
57.49916041314258
 20
-99.64559730581777
 30
0.0
 10
58.17233207096039
 20
-99.64559730581777
 30
0.0
 10
58.17233207096039
 20
-99.64559730581777
 30
0.0
 10
58.17233207096039
 20
-99.64559730581777
 30
0.0
 10
58.17233207096039
 20
-99.85092499673866
 30
0.0
 10
58.17233207096039
 20
-99.85092499673866
 30
0.0
 10
58.17233207096039
 20
-99.85092499673866
 30
0.0
 10
57.28315292621741
 20
-99.85092499673866
 30
0.0
 10
57.28315292621741
 20
-99.85092499673866
 30
0.0
 10
57.31036918055089
 20
-99.49332408536974
 30
0.0
 10
57.3672132560575
 20
-99.41512041785455
 30
0.0
 10
57.70035398948117
 20
-99.11677514883192
 30
0.0
 10
57.92187362918273
 20
-98.917993139333
 30
0.0
 10
57.97837319514083
 20
-98.85012475827358
 30
0.0
 10
57.97837319514083
 20
-98.71266544841211
 30
0.0
 10
57.97837319514083
 20
-98.59415416371952
 30
0.0
 10
57.91636147640633
 20
-98.46324053528002
 30
0.0
 10
57.74617375943499
 20
-98.46324053528002
 30
0.0
 10
57.52086451469965
 20
-98.46324053528002
 30
0.0
 10
57.51362981418063
 20
-98.69371742324324
 30
0.0
 10
57.50984020914685
 20
-98.81016165064469
 30
0.0
 10
57.50984020914685
 20
-98.81016165064469
 30
0.0
 10
57.31588133332728
 20
-98.81016165064469
 30
0.0
 10
57.31588133332728
 20
-98.81016165064469
 30
0.0
 10
57.32346054339483
 20
-98.68303762723897
 30
0.0
 10
57.33241779165648
 20
-98.57107202396834
 30
0.0
 10
57.40200872045853
 20
-98.45256073927575
 30
0.0
 10
57.49709335585143
 20
-98.29167478011459
 30
0.0
 10
57.65832382456112
 20
-98.25791284435914
 30
0.0
 10
57.75892061273041
 20
-98.25791284435914
 30
0.0
 10
57.9986992585038
 20
-98.25791284435914
 30
0.0
 10
58.17784422373679
 20
-98.44188094327149
 30
0.0
 10
58.17784422373679
 20
-98.71473250570327
 30
0.0
 10
58.17784422373679
 20
-98.94348684592386
 30
0.0
 10
58.07724743556749
 20
-99.04270559589905
 30
0.0
 10
57.81025253546063
 20
-99.26904836927997
 30
0.0
  0
HATCH
  5
C4
330
BF
100
AcDbEntity
  8
_U+30EC_U+30A4_U+30E4_U+30FC 1
 62
   179
420
  2234388
100
AcDbHatch
 10
0.0
 20
0.0
 30
0.0
210
0.0
220
0.0
230
1.0
  2
SOLID
 70
     1
 71
     0
 91
        1
 92
        1
 93
        1
 72
     4
 94
        3
 73
     0
 74
     1
 95
       44
 96
       40
 40
0.0
 40
0.0
 40
0.0
 40
0.0
 40
1.0
 40
1.0
 40
1.0
 40
2.0
 40
2.0
 40
2.0
 40
3.0
 40
3.0
 40
3.0
 40
4.0
 40
4.0
 40
4.0
 40
5.0
 40
5.0
 40
5.0
 40
6.0
 40
6.0
 40
6.0
 40
7.0
 40
7.0
 40
7.0
 40
8.0
 40
8.0
 40
8.0
 40
9.0
 40
9.0
 40
9.0
 40
10.0
 40
10.0
 40
10.0
 40
11.0
 40
11.0
 40
11.0
 40
12.0
 40
12.0
 40
12.0
 40
13.0
 40
13.0
 40
13.0
 40
13.0
 10
57.81025253546063
 20
-99.26904836927997
 10
57.62146130286894
 20
-99.42786727114998
 10
57.54119057806262
 20
-99.50193682408285
 10
57.49916041314258
 20
-99.64559730581777
 10
57.49916041314258
 20
-99.64559730581777
 10
58.17233207096039
 20
-99.64559730581777
 10
58.17233207096039
 20
-99.64559730581777
 10
58.17233207096039
 20
-99.64559730581777
 10
58.17233207096039
 20
-99.85092499673866
 10
58.17233207096039
 20
-99.85092499673866
 10
58.17233207096039
 20
-99.85092499673866
 10
57.28315292621741
 20
-99.85092499673866
 10
57.28315292621741
 20
-99.85092499673866
 10
57.31036918055089
 20
-99.49332408536974
 10
57.3672132560575
 20
-99.41512041785455
 10
57.70035398948117
 20
-99.11677514883192
 10
57.92187362918273
 20
-98.917993139333
 10
57.97837319514083
 20
-98.85012475827358
 10
57.97837319514083
 20
-98.71266544841211
 10
57.97837319514083
 20
-98.59415416371952
 10
57.91636147640633
 20
-98.46324053528002
 10
57.74617375943499
 20
-98.46324053528002
 10
57.52086451469965
 20
-98.46324053528002
 10
57.51362981418063
 20
-98.69371742324324
 10
57.50984020914685
 20
-98.81016165064469
 10
57.50984020914685
 20
-98.81016165064469
 10
57.31588133332728
 20
-98.81016165064469
 10
57.31588133332728
 20
-98.81016165064469
 10
57.32346054339483
 20
-98.68303762723897
 10
57.33241779165648
 20
-98.57107202396834
 10
57.40200872045853
 20
-98.45256073927575
 10
57.49709335585143
 20
-98.29167478011459
 10
57.65832382456112
 20
-98.25791284435914
 10
57.75892061273041
 20
-98.25791284435914
 10
57.9986992585038
 20
-98.25791284435914
 10
58.17784422373679
 20
-98.44188094327149
 10
58.17784422373679
 20
-98.71473250570327
 10
58.17784422373679
 20
-98.94348684592386
 10
58.07724743556749
 20
-99.04270559589905
 10
57.81025253546063
 20
-99.26904836927997
 97
        0
 97
        0
 75
     2
 76
     1
 98
        0
  0
POLYLINE
  5
C5
330
BF
100
AcDbEntity
  8
_U+30EC_U+30A4_U+30E4_U+30FC 1
370
     0
100
AcDb2dPolyline
 66
     1
 10
0.0
 20
0.0
 30
0.0
  0
VERTEX
  5
C6
330
C5
100
AcDbEntity
  8
_U+30EC_U+30A4_U+30E4_U+30FC 1
370
     0
100
AcDbVertex
100
AcDb2dVertex
 10
58.36629094677996
 20
-99.85092499673866
 30
0.0
  0
VERTEX
  5
C7
330
C5
100
AcDbEntity
  8
_U+30EC_U+30A4_U+30E4_U+30FC 1
370
     0
100
AcDbVertex
100
AcDb2dVertex
 10
58.36629094677996
 20
-99.5990885167669
 30
0.0
  0
VERTEX
  5
C8
330
C5
100
AcDbEntity
  8
_U+30EC_U+30A4_U+30E4_U+30FC 1
370
     0
100
AcDbVertex
100
AcDb2dVertex
 10
58.58402098144775
 20
-99.5990885167669
 30
0.0
  0
VERTEX
  5
C9
330
C5
100
AcDbEntity
  8
_U+30EC_U+30A4_U+30E4_U+30FC 1
370
     0
100
AcDbVertex
100
AcDb2dVertex
 10
58.58402098144775
 20
-99.85092499673866
 30
0.0
  0
VERTEX
  5
CA
330
C5
100
AcDbEntity
  8
_U+30EC_U+30A4_U+30E4_U+30FC 1
370
     0
100
AcDbVertex
100
AcDb2dVertex
 10
58.36629094677996
 20
-99.85092499673866
 30
0.0
  0
SEQEND
  5
CB
330
C5
100
AcDbEntity
  8
_U+30EC_U+30A4_U+30E4_U+30FC 1
370
     0
  0
HATCH
  5
CC
330
BF
100
AcDbEntity
  8
_U+30EC_U+30A4_U+30E4_U+30FC 1
 62
   179
420
  2234388
100
AcDbHatch
 10
0.0
 20
0.0
 30
0.0
210
0.0
220
0.0
230
1.0
  2
SOLID
 70
     1
 71
     0
 91
        1
 92
        1
 93
        4
 72
     1
 10
58.36629094677996
 20
-99.85092499673866
 11
58.36629094677996
 21
-99.5990885167669
 72
     1
 10
58.36629094677996
 20
-99.5990885167669
 11
58.58402098144775
 21
-99.5990885167669
 72
     1
 10
58.58402098144775
 20
-99.5990885167669
 11
58.58402098144775
 21
-99.85092499673866
 72
     1
 10
58.58402098144775
 20
-99.85092499673866
 11
58.36629094677996
 21
-99.85092499673866
 97
        0
 75
     2
 76
     1
 98
        0
  0
SPLINE
  5
CD
330
BF
100
AcDbEntity
  8
_U+30EC_U+30A4_U+30E4_U+30FC 1
370
     0
100
AcDbSpline
210
0.0
220
0.0
230
1.0
 70
    11
 71
     3
 72
    53
 73
    49
 74
     0
 42
0.0000000001
 43
0.0000000001
 12
1.0
 22
0.0
 32
0.0
 13
1.0
 23
0.0
 33
0.0
 40
0.0
 40
0.0
 40
0.0
 40
0.0
 40
1.0
 40
1.0
 40
1.0
 40
2.0
 40
2.0
 40
2.0
 40
3.0
 40
3.0
 40
3.0
 40
4.0
 40
4.0
 40
4.0
 40
5.0
 40
5.0
 40
5.0
 40
6.0
 40
6.0
 40
6.0
 40
7.0
 40
7.0
 40
7.0
 40
8.0
 40
8.0
 40
8.0
 40
9.0
 40
9.0
 40
9.0
 40
10.0
 40
10.0
 40
10.0
 40
11.0
 40
11.0
 40
11.0
 40
12.0
 40
12.0
 40
12.0
 40
13.0
 40
13.0
 40
13.0
 40
14.0
 40
14.0
 40
14.0
 40
15.0
 40
15.0
 40
15.0
 40
16.0
 40
16.0
 40
16.0
 40
16.0
 10
59.20413816879272
 20
-99.90156790037183
 30
0.0
 10
59.1362697877333
 20
-99.90156790037183
 30
0.0
 10
59.04876436240795
 20
-99.8846869324941
 30
0.0
 10
58.96056991798555
 20
-99.82129717556552
 30
0.0
 10
58.81070826437718
 20
-99.71139862958604
 30
0.0
 10
58.79244925830536
 20
-99.58014049159803
 30
0.0
 10
58.77591279997616
 20
-99.47230900290971
 30
0.0
 10
58.77591279997616
 20
-99.47230900290971
 30
0.0
 10
58.96814912805311
 20
-99.47230900290971
 30
0.0
 10
58.96814912805311
 20
-99.47230900290971
 30
0.0
 10
59.01569144574955
 20
-99.67109101240862
 30
0.0
 10
59.12558999172902
 20
-99.70071883358177
 30
0.0
 10
59.20586071653534
 20
-99.70071883358177
 30
0.0
 10
59.32678356806761
 20
-99.70071883358177
 30
0.0
 10
59.45873072515268
 20
-99.60115557405805
 30
0.0
 10
59.45873072515268
 20
-99.36861162880369
 30
0.0
 10
59.45873072515268
 20
-99.11264103424962
 30
0.0
 10
59.30301240921939
 20
-99.04270559589905
 30
0.0
 10
59.19862601601632
 20
-99.04270559589905
 30
0.0
 10
59.17106525213432
 20
-99.04270559589905
 30
0.0
 10
59.04876436240795
 20
-99.04270559589905
 30
0.0
 10
58.97159422353835
 20
-99.17189667659592
 30
0.0
 10
58.97159422353835
 20
-99.17189667659592
 30
0.0
 10
58.81966551263884
 20
-99.15294865142704
 30
0.0
 10
58.81966551263884
 20
-99.15294865142704
 30
0.0
 10
58.81966551263884
 20
-99.15294865142704
 30
0.0
 10
58.92405190584191
 20
-98.30648869070116
 30
0.0
 10
58.92405190584191
 20
-98.30648869070116
 30
0.0
 10
58.92405190584191
 20
-98.30648869070116
 30
0.0
 10
59.59756807320825
 20
-98.30648869070116
 30
0.0
 10
59.59756807320825
 20
-98.30648869070116
 30
0.0
 10
59.59756807320825
 20
-98.30648869070116
 30
0.0
 10
59.59756807320825
 20
-98.50113658561777
 30
0.0
 10
59.59756807320825
 20
-98.50113658561777
 30
0.0
 10
59.59756807320825
 20
-98.50113658561777
 30
0.0
 10
59.06495631118862
 20
-98.50113658561777
 30
0.0
 10
59.06495631118862
 20
-98.50113658561777
 30
0.0
 10
59.06495631118862
 20
-98.50113658561777
 30
0.0
 10
59.00845674523053
 20
-98.92419431120645
 30
0.0
 10
59.00845674523053
 20
-98.92419431120645
 30
0.0
 10
59.06151121570338
 20
-98.89043237545101
 30
0.0
 10
59.13282469224804
 20
-98.85012475827358
 30
0.0
 10
59.23514402815997
 20
-98.85012475827358
 30
0.0
 10
59.4549411201189
 20
-98.85012475827358
 30
0.0
 10
59.65992430149127
 20
-99.0365044240256
 30
0.0
 10
59.65992430149127
 20
-99.34966360363481
 30
0.0
 10
59.65992430149127
 20
-99.66695689782632
 30
0.0
 10
59.4659654256717
 20
-99.90156790037183
 30
0.0
 10
59.20413816879272
 20
-99.90156790037183
 30
0.0
  0
HATCH
  5
CE
330
BF
100
AcDbEntity
  8
_U+30EC_U+30A4_U+30E4_U+30FC 1
 62
   179
420
  2234388
100
AcDbHatch
 10
0.0
 20
0.0
 30
0.0
210
0.0
220
0.0
230
1.0
  2
SOLID
 70
     1
 71
     0
 91
        1
 92
        1
 93
        1
 72
     4
 94
        3
 73
     0
 74
     1
 95
       53
 96
       49
 40
0.0
 40
0.0
 40
0.0
 40
0.0
 40
1.0
 40
1.0
 40
1.0
 40
2.0
 40
2.0
 40
2.0
 40
3.0
 40
3.0
 40
3.0
 40
4.0
 40
4.0
 40
4.0
 40
5.0
 40
5.0
 40
5.0
 40
6.0
 40
6.0
 40
6.0
 40
7.0
 40
7.0
 40
7.0
 40
8.0
 40
8.0
 40
8.0
 40
9.0
 40
9.0
 40
9.0
 40
10.0
 40
10.0
 40
10.0
 40
11.0
 40
11.0
 40
11.0
 40
12.0
 40
12.0
 40
12.0
 40
13.0
 40
13.0
 40
13.0
 40
14.0
 40
14.0
 40
14.0
 40
15.0
 40
15.0
 40
15.0
 40
16.0
 40
16.0
 40
16.0
 40
16.0
 10
59.20413816879272
 20
-99.90156790037183
 10
59.1362697877333
 20
-99.90156790037183
 10
59.04876436240795
 20
-99.8846869324941
 10
58.96056991798555
 20
-99.82129717556552
 10
58.81070826437718
 20
-99.71139862958604
 10
58.79244925830536
 20
-99.58014049159803
 10
58.77591279997616
 20
-99.47230900290971
 10
58.77591279997616
 20
-99.47230900290971
 10
58.96814912805311
 20
-99.47230900290971
 10
58.96814912805311
 20
-99.47230900290971
 10
59.01569144574955
 20
-99.67109101240862
 10
59.12558999172902
 20
-99.70071883358177
 10
59.20586071653534
 20
-99.70071883358177
 10
59.32678356806761
 20
-99.70071883358177
 10
59.45873072515268
 20
-99.60115557405805
 10
59.45873072515268
 20
-99.36861162880369
 10
59.45873072515268
 20
-99.11264103424962
 10
59.30301240921939
 20
-99.04270559589905
 10
59.19862601601632
 20
-99.04270559589905
 10
59.17106525213432
 20
-99.04270559589905
 10
59.04876436240795
 20
-99.04270559589905
 10
58.97159422353835
 20
-99.17189667659592
 10
58.97159422353835
 20
-99.17189667659592
 10
58.81966551263884
 20
-99.15294865142704
 10
58.81966551263884
 20
-99.15294865142704
 10
58.81966551263884
 20
-99.15294865142704
 10
58.92405190584191
 20
-98.30648869070116
 10
58.92405190584191
 20
-98.30648869070116
 10
58.92405190584191
 20
-98.30648869070116
 10
59.59756807320825
 20
-98.30648869070116
 10
59.59756807320825
 20
-98.30648869070116
 10
59.59756807320825
 20
-98.30648869070116
 10
59.59756807320825
 20
-98.50113658561777
 10
59.59756807320825
 20
-98.50113658561777
 10
59.59756807320825
 20
-98.50113658561777
 10
59.06495631118862
 20
-98.50113658561777
 10
59.06495631118862
 20
-98.50113658561777
 10
59.06495631118862
 20
-98.50113658561777
 10
59.00845674523053
 20
-98.92419431120645
 10
59.00845674523053
 20
-98.92419431120645
 10
59.06151121570338
 20
-98.89043237545101
 10
59.13282469224804
 20
-98.85012475827358
 10
59.23514402815997
 20
-98.85012475827358
 10
59.4549411201189
 20
-98.85012475827358
 10
59.65992430149127
 20
-99.0365044240256
 10
59.65992430149127
 20
-99.34966360363481
 10
59.65992430149127
 20
-99.66695689782632
 10
59.4659654256717
 20
-99.90156790037183
 10
59.20413816879272
 20
-99.90156790037183
 97
        0
 97
        0
 75
     2
 76
     1
 98
        0
  0
ENDBLK
  5
C2
330
BF
100
AcDbEntity
  8
0
100
AcDbBlockEnd
  0
BLOCK
  5
D9
330
D7
100
AcDbEntity
  8
0
100
AcDbBlockBegin
  2
block 7
 70
     0
 10
0.0
 20
0.0
 30
0.0
  3
block 7
  1

  0
SPLINE
  5
DB
330
D7
100
AcDbEntity
  8
_U+30EC_U+30A4_U+30E4_U+30FC 1
370
     0
100
AcDbSpline
210
0.0
220
0.0
230
1.0
 70
    11
 71
     3
 72
    26
 73
    22
 74
     0
 42
0.0000000001
 43
0.0000000001
 12
1.0
 22
0.0
 32
0.0
 13
1.0
 23
0.0
 33
0.0
 40
0.0
 40
0.0
 40
0.0
 40
0.0
 40
1.0
 40
1.0
 40
1.0
 40
2.0
 40
2.0
 40
2.0
 40
3.0
 40
3.0
 40
3.0
 40
4.0
 40
4.0
 40
4.0
 40
5.0
 40
5.0
 40
5.0
 40
6.0
 40
6.0
 40
6.0
 40
7.0
 40
7.0
 40
7.0
 40
7.0
 10
80.57630477586287
 20
-91.03010251630498
 30
0.0
 10
80.57630477586287
 20
-91.03010251630498
 30
0.0
 10
79.4721516728403
 20
-91.03010251630498
 30
0.0
 10
79.4721516728403
 20
-91.03010251630498
 30
0.0
 10
79.4721516728403
 20
-91.03010251630498
 30
0.0
 10
79.4721516728403
 20
-91.31570093203219
 30
0.0
 10
79.4721516728403
 20
-91.31570093203219
 30
0.0
 10
79.4721516728403
 20
-91.31570093203219
 30
0.0
 10
79.32401256697456
 20
-91.31570093203219
 30
0.0
 10
79.32401256697456
 20
-91.31570093203219
 30
0.0
 10
79.30919865638798
 20
-91.02837996856235
 30
0.0
 10
79.14624563993567
 20
-90.98807235138493
 30
0.0
 10
79.03186846982537
 20
-90.96257864479408
 30
0.0
 10
79.03186846982537
 20
-90.96257864479408
 30
0.0
 10
79.03186846982537
 20
-90.83614364048542
 30
0.0
 10
79.03186846982537
 20
-90.83614364048542
 30
0.0
 10
79.03186846982537
 20
-90.83614364048542
 30
0.0
 10
80.57630477586287
 20
-90.83614364048542
 30
0.0
 10
80.57630477586287
 20
-90.83614364048542
 30
0.0
 10
80.57630477586287
 20
-90.83614364048542
 30
0.0
 10
80.57630477586287
 20
-91.03010251630498
 30
0.0
 10
80.57630477586287
 20
-91.03010251630498
 30
0.0
  0
HATCH
  5
DC
330
D7
100
AcDbEntity
  8
_U+30EC_U+30A4_U+30E4_U+30FC 1
 62
   179
420
  2234388
100
AcDbHatch
 10
0.0
 20
0.0
 30
0.0
210
0.0
220
0.0
230
1.0
  2
SOLID
 70
     1
 71
     0
 91
        1
 92
        1
 93
        1
 72
     4
 94
        3
 73
     0
 74
     1
 95
       26
 96
       22
 40
0.0
 40
0.0
 40
0.0
 40
0.0
 40
1.0
 40
1.0
 40
1.0
 40
2.0
 40
2.0
 40
2.0
 40
3.0
 40
3.0
 40
3.0
 40
4.0
 40
4.0
 40
4.0
 40
5.0
 40
5.0
 40
5.0
 40
6.0
 40
6.0
 40
6.0
 40
7.0
 40
7.0
 40
7.0
 40
7.0
 10
80.57630477586287
 20
-91.03010251630498
 10
80.57630477586287
 20
-91.03010251630498
 10
79.4721516728403
 20
-91.03010251630498
 10
79.4721516728403
 20
-91.03010251630498
 10
79.4721516728403
 20
-91.03010251630498
 10
79.4721516728403
 20
-91.31570093203219
 10
79.4721516728403
 20
-91.31570093203219
 10
79.4721516728403
 20
-91.31570093203219
 10
79.32401256697456
 20
-91.31570093203219
 10
79.32401256697456
 20
-91.31570093203219
 10
79.30919865638798
 20
-91.02837996856235
 10
79.14624563993567
 20
-90.98807235138493
 10
79.03186846982537
 20
-90.96257864479408
 10
79.03186846982537
 20
-90.96257864479408
 10
79.03186846982537
 20
-90.83614364048542
 10
79.03186846982537
 20
-90.83614364048542
 10
79.03186846982537
 20
-90.83614364048542
 10
80.57630477586287
 20
-90.83614364048542
 10
80.57630477586287
 20
-90.83614364048542
 10
80.57630477586287
 20
-90.83614364048542
 10
80.57630477586287
 20
-91.03010251630498
 10
80.57630477586287
 20
-91.03010251630498
 97
        0
 97
        0
 75
     2
 76
     1
 98
        0
  0
SPLINE
  5
DD
330
D7
100
AcDbEntity
  8
_U+30EC_U+30A4_U+30E4_U+30FC 1
370
     0
100
AcDbSpline
210
0.0
220
0.0
230
1.0
 70
    11
 71
     3
 72
    44
 73
    40
 74
     0
 42
0.0000000001
 43
0.0000000001
 12
1.0
 22
0.0
 32
0.0
 13
1.0
 23
0.0
 33
0.0
 40
0.0
 40
0.0
 40
0.0
 40
0.0
 40
1.0
 40
1.0
 40
1.0
 40
2.0
 40
2.0
 40
2.0
 40
3.0
 40
3.0
 40
3.0
 40
4.0
 40
4.0
 40
4.0
 40
5.0
 40
5.0
 40
5.0
 40
6.0
 40
6.0
 40
6.0
 40
7.0
 40
7.0
 40
7.0
 40
8.0
 40
8.0
 40
8.0
 40
9.0
 40
9.0
 40
9.0
 40
10.0
 40
10.0
 40
10.0
 40
11.0
 40
11.0
 40
11.0
 40
12.0
 40
12.0
 40
12.0
 40
13.0
 40
13.0
 40
13.0
 40
13.0
 10
79.99442814840417
 20
-89.8901204202358
 30
0.0
 10
80.15324705027419
 20
-90.0789116528275
 30
0.0
 10
80.22731660320706
 20
-90.15918237763383
 30
0.0
 10
80.37097708494198
 20
-90.20155705210239
 30
0.0
 10
80.37097708494198
 20
-90.20155705210239
 30
0.0
 10
80.37097708494198
 20
-89.52769637518753
 30
0.0
 10
80.37097708494198
 20
-89.52769637518753
 30
0.0
 10
80.37097708494198
 20
-89.52769637518753
 30
0.0
 10
80.57630477586287
 20
-89.52769637518753
 30
0.0
 10
80.57630477586287
 20
-89.52769637518753
 30
0.0
 10
80.57630477586287
 20
-89.52769637518753
 30
0.0
 10
80.57630477586287
 20
-90.41722002947903
 30
0.0
 10
80.57630477586287
 20
-90.41722002947903
 30
0.0
 10
80.21870386449393
 20
-90.39000377514556
 30
0.0
 10
80.14050019697876
 20
-90.33315969963894
 30
0.0
 10
79.84215492795613
 20
-90.00001896621528
 30
0.0
 10
79.64337291845722
 20
-89.77849932651371
 30
0.0
 10
79.57550453739779
 20
-89.72199976055562
 30
0.0
 10
79.43804522753632
 20
-89.72199976055562
 30
0.0
 10
79.31953394284373
 20
-89.72199976055562
 30
0.0
 10
79.18862031440423
 20
-89.78401147929011
 30
0.0
 10
79.18862031440423
 20
-89.95419919626146
 30
0.0
 10
79.18862031440423
 20
-90.1795084409968
 30
0.0
 10
79.41909720236745
 20
-90.18674314151582
 30
0.0
 10
79.5355414297689
 20
-90.1905327465496
 30
0.0
 10
79.5355414297689
 20
-90.1905327465496
 30
0.0
 10
79.5355414297689
 20
-90.38449162236915
 30
0.0
 10
79.5355414297689
 20
-90.38449162236915
 30
0.0
 10
79.40841740636317
 20
-90.37725692185013
 30
0.0
 10
79.29645180309255
 20
-90.36795516403996
 30
0.0
 10
79.17794051839996
 20
-90.29836423523791
 30
0.0
 10
79.0170545592388
 20
-90.20327959984502
 30
0.0
 10
78.98329262348335
 20
-90.04204913113533
 30
0.0
 10
78.98329262348335
 20
-89.94145234296603
 30
0.0
 10
78.98329262348335
 20
-89.70167369719265
 30
0.0
 10
79.16726072239568
 20
-89.52252873195965
 30
0.0
 10
79.44011228482748
 20
-89.52252873195965
 30
0.0
 10
79.66886662504807
 20
-89.52252873195965
 30
0.0
 10
79.76808537502326
 20
-89.62312552012895
 30
0.0
 10
79.99442814840417
 20
-89.8901204202358
 30
0.0
  0
HATCH
  5
DE
330
D7
100
AcDbEntity
  8
_U+30EC_U+30A4_U+30E4_U+30FC 1
 62
   179
420
  2234388
100
AcDbHatch
 10
0.0
 20
0.0
 30
0.0
210
0.0
220
0.0
230
1.0
  2
SOLID
 70
     1
 71
     0
 91
        1
 92
        1
 93
        1
 72
     4
 94
        3
 73
     0
 74
     1
 95
       44
 96
       40
 40
0.0
 40
0.0
 40
0.0
 40
0.0
 40
1.0
 40
1.0
 40
1.0
 40
2.0
 40
2.0
 40
2.0
 40
3.0
 40
3.0
 40
3.0
 40
4.0
 40
4.0
 40
4.0
 40
5.0
 40
5.0
 40
5.0
 40
6.0
 40
6.0
 40
6.0
 40
7.0
 40
7.0
 40
7.0
 40
8.0
 40
8.0
 40
8.0
 40
9.0
 40
9.0
 40
9.0
 40
10.0
 40
10.0
 40
10.0
 40
11.0
 40
11.0
 40
11.0
 40
12.0
 40
12.0
 40
12.0
 40
13.0
 40
13.0
 40
13.0
 40
13.0
 10
79.99442814840417
 20
-89.8901204202358
 10
80.15324705027419
 20
-90.0789116528275
 10
80.22731660320706
 20
-90.15918237763383
 10
80.37097708494198
 20
-90.20155705210239
 10
80.37097708494198
 20
-90.20155705210239
 10
80.37097708494198
 20
-89.52769637518753
 10
80.37097708494198
 20
-89.52769637518753
 10
80.37097708494198
 20
-89.52769637518753
 10
80.57630477586287
 20
-89.52769637518753
 10
80.57630477586287
 20
-89.52769637518753
 10
80.57630477586287
 20
-89.52769637518753
 10
80.57630477586287
 20
-90.41722002947903
 10
80.57630477586287
 20
-90.41722002947903
 10
80.21870386449393
 20
-90.39000377514556
 10
80.14050019697876
 20
-90.33315969963894
 10
79.84215492795613
 20
-90.00001896621528
 10
79.64337291845722
 20
-89.77849932651371
 10
79.57550453739779
 20
-89.72199976055562
 10
79.43804522753632
 20
-89.72199976055562
 10
79.31953394284373
 20
-89.72199976055562
 10
79.18862031440423
 20
-89.78401147929011
 10
79.18862031440423
 20
-89.95419919626146
 10
79.18862031440423
 20
-90.1795084409968
 10
79.41909720236745
 20
-90.18674314151582
 10
79.5355414297689
 20
-90.1905327465496
 10
79.5355414297689
 20
-90.1905327465496
 10
79.5355414297689
 20
-90.38449162236915
 10
79.5355414297689
 20
-90.38449162236915
 10
79.40841740636317
 20
-90.37725692185013
 10
79.29645180309255
 20
-90.36795516403996
 10
79.17794051839996
 20
-90.29836423523791
 10
79.0170545592388
 20
-90.20327959984502
 10
78.98329262348335
 20
-90.04204913113533
 10
78.98329262348335
 20
-89.94145234296603
 10
78.98329262348335
 20
-89.70167369719265
 10
79.16726072239568
 20
-89.52252873195965
 10
79.44011228482748
 20
-89.52252873195965
 10
79.66886662504807
 20
-89.52252873195965
 10
79.76808537502326
 20
-89.62312552012895
 10
79.99442814840417
 20
-89.8901204202358
 97
        0
 97
        0
 75
     2
 76
     1
 98
        0
  0
POLYLINE
  5
DF
330
D7
100
AcDbEntity
  8
_U+30EC_U+30A4_U+30E4_U+30FC 1
370
     0
100
AcDb2dPolyline
 66
     1
 10
0.0
 20
0.0
 30
0.0
  0
VERTEX
  5
E0
330
DF
100
AcDbEntity
  8
_U+30EC_U+30A4_U+30E4_U+30FC 1
370
     0
100
AcDbVertex
100
AcDb2dVertex
 10
80.57630477586287
 20
-89.33408200891648
 30
0.0
  0
VERTEX
  5
E1
330
DF
100
AcDbEntity
  8
_U+30EC_U+30A4_U+30E4_U+30FC 1
370
     0
100
AcDbVertex
100
AcDb2dVertex
 10
80.32446829589111
 20
-89.33408200891648
 30
0.0
  0
VERTEX
  5
E2
330
DF
100
AcDbEntity
  8
_U+30EC_U+30A4_U+30E4_U+30FC 1
370
     0
100
AcDbVertex
100
AcDb2dVertex
 10
80.32446829589111
 20
-89.11635197424869
 30
0.0
  0
VERTEX
  5
E3
330
DF
100
AcDbEntity
  8
_U+30EC_U+30A4_U+30E4_U+30FC 1
370
     0
100
AcDbVertex
100
AcDb2dVertex
 10
80.57630477586287
 20
-89.11635197424869
 30
0.0
  0
VERTEX
  5
E4
330
DF
100
AcDbEntity
  8
_U+30EC_U+30A4_U+30E4_U+30FC 1
370
     0
100
AcDbVertex
100
AcDb2dVertex
 10
80.57630477586287
 20
-89.33408200891648
 30
0.0
  0
SEQEND
  5
E5
330
DF
100
AcDbEntity
  8
_U+30EC_U+30A4_U+30E4_U+30FC 1
370
     0
  0
HATCH
  5
E6
330
D7
100
AcDbEntity
  8
_U+30EC_U+30A4_U+30E4_U+30FC 1
 62
   179
420
  2234388
100
AcDbHatch
 10
0.0
 20
0.0
 30
0.0
210
0.0
220
0.0
230
1.0
  2
SOLID
 70
     1
 71
     0
 91
        1
 92
        1
 93
        4
 72
     1
 10
80.57630477586287
 20
-89.33408200891648
 11
80.32446829589111
 21
-89.33408200891648
 72
     1
 10
80.32446829589111
 20
-89.33408200891648
 11
80.32446829589111
 21
-89.11635197424869
 72
     1
 10
80.32446829589111
 20
-89.11635197424869
 11
80.57630477586287
 21
-89.11635197424869
 72
     1
 10
80.57630477586287
 20
-89.11635197424869
 11
80.57630477586287
 21
-89.33408200891648
 97
        0
 75
     2
 76
     1
 98
        0
  0
SPLINE
  5
E7
330
D7
100
AcDbEntity
  8
_U+30EC_U+30A4_U+30E4_U+30FC 1
370
     0
100
AcDbSpline
210
0.0
220
0.0
230
1.0
 70
    11
 71
     3
 72
    29
 73
    25
 74
     0
 42
0.0000000001
 43
0.0000000001
 12
1.0
 22
0.0
 32
0.0
 13
1.0
 23
0.0
 33
0.0
 40
0.0
 40
0.0
 40
0.0
 40
0.0
 40
1.0
 40
1.0
 40
1.0
 40
2.0
 40
2.0
 40
2.0
 40
3.0
 40
3.0
 40
3.0
 40
4.0
 40
4.0
 40
4.0
 40
5.0
 40
5.0
 40
5.0
 40
6.0
 40
6.0
 40
6.0
 40
7.0
 40
7.0
 40
7.0
 40
8.0
 40
8.0
 40
8.0
 40
8.0
 10
80.62694767949604
 20
-88.47969832857453
 30
0.0
 10
80.62694767949604
 20
-88.71051972608626
 30
0.0
 10
80.48948836963457
 20
-88.92997230849667
 30
0.0
 10
80.14050019697876
 20
-88.92997230849667
 30
0.0
 10
79.8845296024247
 20
-88.92997230849667
 30
0.0
 10
79.78944496703181
 20
-88.80732690922179
 30
0.0
 10
79.72812226739437
 20
-88.71568736931414
 30
0.0
 10
79.66886662504807
 20
-88.82386336755098
 30
0.0
 10
79.55448945493777
 20
-88.88966469131925
 30
0.0
 10
79.3936034957766
 20
-88.88966469131925
 30
0.0
 10
79.11868487605366
 20
-88.88966469131925
 30
0.0
 10
78.98329262348335
 20
-88.71775442660528
 30
0.0
 10
78.98329262348335
 20
-88.47969832857453
 30
0.0
 10
78.98329262348335
 20
-88.23440753002474
 30
0.0
 10
79.12729761476679
 20
-88.06973196582979
 30
0.0
 10
79.3936034957766
 20
-88.06973196582979
 30
0.0
 10
79.55448945493777
 20
-88.06973196582979
 30
0.0
 10
79.66886662504807
 20
-88.13760034688922
 30
0.0
 10
79.72812226739437
 20
-88.24543183557753
 30
0.0
 10
79.77876517102753
 20
-88.16860620625647
 30
0.0
 10
79.87384980642042
 20
-88.03149140594353
 30
0.0
 10
80.13636608239646
 20
-88.03149140594353
 30
0.0
 10
80.51084796164312
 20
-88.03149140594353
 30
0.0
 10
80.62694767949604
 20
-88.27299259945953
 30
0.0
 10
80.62694767949604
 20
-88.47969832857453
 30
0.0
  0
SPLINE
  5
E8
330
D7
100
AcDbEntity
  8
_U+30EC_U+30A4_U+30E4_U+30FC 1
370
     0
100
AcDbSpline
210
0.0
220
0.0
230
1.0
 70
    11
 71
     3
 72
    17
 73
    13
 74
     0
 42
0.0000000001
 43
0.0000000001
 12
1.0
 22
0.0
 32
0.0
 13
1.0
 23
0.0
 33
0.0
 40
0.0
 40
0.0
 40
0.0
 40
0.0
 40
1.0
 40
1.0
 40
1.0
 40
2.0
 40
2.0
 40
2.0
 40
3.0
 40
3.0
 40
3.0
 40
4.0
 40
4.0
 40
4.0
 40
4.0
 10
79.17587346110881
 20
-88.47969832857453
 30
0.0
 10
79.17587346110881
 20
-88.62232528166386
 30
0.0
 10
79.27095809650172
 20
-88.6957058154997
 30
0.0
 10
79.40635034907203
 20
-88.6957058154997
 30
0.0
 10
79.52899574834692
 20
-88.6957058154997
 30
0.0
 10
79.64750703303952
 20
-88.63334958721667
 30
0.0
 10
79.64750703303952
 20
-88.47969832857453
 30
0.0
 10
79.64750703303952
 20
-88.32604706993239
 30
0.0
 10
79.52899574834692
 20
-88.26369084164936
 30
0.0
 10
79.40635034907203
 20
-88.26369084164936
 30
0.0
 10
79.27095809650172
 20
-88.26369084164936
 30
0.0
 10
79.17587346110881
 20
-88.33879392322781
 30
0.0
 10
79.17587346110881
 20
-88.47969832857453
 30
0.0
  0
SPLINE
  5
E9
330
D7
100
AcDbEntity
  8
_U+30EC_U+30A4_U+30E4_U+30FC 1
370
     0
100
AcDbSpline
210
0.0
220
0.0
230
1.0
 70
    11
 71
     3
 72
    17
 73
    13
 74
     0
 42
0.0000000001
 43
0.0000000001
 12
1.0
 22
0.0
 32
0.0
 13
1.0
 23
0.0
 33
0.0
 40
0.0
 40
0.0
 40
0.0
 40
0.0
 40
1.0
 40
1.0
 40
1.0
 40
2.0
 40
2.0
 40
2.0
 40
3.0
 40
3.0
 40
3.0
 40
4.0
 40
4.0
 40
4.0
 40
4.0
 10
79.83595375608269
 20
-88.47969832857453
 30
0.0
 10
79.83595375608269
 20
-88.60406627559205
 30
0.0
 10
79.92277016231098
 20
-88.73601343267711
 30
0.0
 10
80.1256862863922
 20
-88.73601343267711
 30
0.0
 10
80.33101397731308
 20
-88.73601343267711
 30
0.0
 10
80.43229978457943
 20
-88.62611488669764
 30
0.0
 10
80.43229978457943
 20
-88.47969832857453
 30
0.0
 10
80.43229978457943
 20
-88.31881236941335
 30
0.0
 10
80.30965438530454
 20
-88.22338322447193
 30
0.0
 10
80.13188745826564
 20
-88.22338322447193
 30
0.0
 10
79.91002330901556
 20
-88.22338322447193
 30
0.0
 10
79.83595375608269
 20
-88.36428762981865
 30
0.0
 10
79.83595375608269
 20
-88.47969832857453
 30
0.0
  0
HATCH
  5
EA
330
D7
100
AcDbEntity
  8
_U+30EC_U+30A4_U+30E4_U+30FC 1
 62
   179
420
  2234388
100
AcDbHatch
 10
0.0
 20
0.0
 30
0.0
210
0.0
220
0.0
230
1.0
  2
SOLID
 70
     1
 71
     0
 91
        3
 92
        1
 93
        1
 72
     4
 94
        3
 73
     0
 74
     1
 95
       29
 96
       25
 40
0.0
 40
0.0
 40
0.0
 40
0.0
 40
1.0
 40
1.0
 40
1.0
 40
2.0
 40
2.0
 40
2.0
 40
3.0
 40
3.0
 40
3.0
 40
4.0
 40
4.0
 40
4.0
 40
5.0
 40
5.0
 40
5.0
 40
6.0
 40
6.0
 40
6.0
 40
7.0
 40
7.0
 40
7.0
 40
8.0
 40
8.0
 40
8.0
 40
8.0
 10
80.62694767949604
 20
-88.47969832857453
 10
80.62694767949604
 20
-88.71051972608626
 10
80.48948836963457
 20
-88.92997230849667
 10
80.14050019697876
 20
-88.92997230849667
 10
79.8845296024247
 20
-88.92997230849667
 10
79.78944496703181
 20
-88.80732690922179
 10
79.72812226739437
 20
-88.71568736931414
 10
79.66886662504807
 20
-88.82386336755098
 10
79.55448945493777
 20
-88.88966469131925
 10
79.3936034957766
 20
-88.88966469131925
 10
79.11868487605366
 20
-88.88966469131925
 10
78.98329262348335
 20
-88.71775442660528
 10
78.98329262348335
 20
-88.47969832857453
 10
78.98329262348335
 20
-88.23440753002474
 10
79.12729761476679
 20
-88.06973196582979
 10
79.3936034957766
 20
-88.06973196582979
 10
79.55448945493777
 20
-88.06973196582979
 10
79.66886662504807
 20
-88.13760034688922
 10
79.72812226739437
 20
-88.24543183557753
 10
79.77876517102753
 20
-88.16860620625647
 10
79.87384980642042
 20
-88.03149140594353
 10
80.13636608239646
 20
-88.03149140594353
 10
80.51084796164312
 20
-88.03149140594353
 10
80.62694767949604
 20
-88.27299259945953
 10
80.62694767949604
 20
-88.47969832857453
 97
        0
 97
        0
 92
        1
 93
        1
 72
     4
 94
        3
 73
     0
 74
     1
 95
       17
 96
       13
 40
0.0
 40
0.0
 40
0.0
 40
0.0
 40
1.0
 40
1.0
 40
1.0
 40
2.0
 40
2.0
 40
2.0
 40
3.0
 40
3.0
 40
3.0
 40
4.0
 40
4.0
 40
4.0
 40
4.0
 10
79.17587346110881
 20
-88.47969832857453
 10
79.17587346110881
 20
-88.62232528166386
 10
79.27095809650172
 20
-88.6957058154997
 10
79.40635034907203
 20
-88.6957058154997
 10
79.52899574834692
 20
-88.6957058154997
 10
79.64750703303952
 20
-88.63334958721667
 10
79.64750703303952
 20
-88.47969832857453
 10
79.64750703303952
 20
-88.32604706993239
 10
79.52899574834692
 20
-88.26369084164936
 10
79.40635034907203
 20
-88.26369084164936
 10
79.27095809650172
 20
-88.26369084164936
 10
79.17587346110881
 20
-88.33879392322781
 10
79.17587346110881
 20
-88.47969832857453
 97
        0
 97
        0
 92
        1
 93
        1
 72
     4
 94
        3
 73
     0
 74
     1
 95
       17
 96
       13
 40
0.0
 40
0.0
 40
0.0
 40
0.0
 40
1.0
 40
1.0
 40
1.0
 40
2.0
 40
2.0
 40
2.0
 40
3.0
 40
3.0
 40
3.0
 40
4.0
 40
4.0
 40
4.0
 40
4.0
 10
79.83595375608269
 20
-88.47969832857453
 10
79.83595375608269
 20
-88.60406627559205
 10
79.92277016231098
 20
-88.73601343267711
 10
80.1256862863922
 20
-88.73601343267711
 10
80.33101397731308
 20
-88.73601343267711
 10
80.43229978457943
 20
-88.62611488669764
 10
80.43229978457943
 20
-88.47969832857453
 10
80.43229978457943
 20
-88.31881236941335
 10
80.30965438530454
 20
-88.22338322447193
 10
80.13188745826564
 20
-88.22338322447193
 10
79.91002330901556
 20
-88.22338322447193
 10
79.83595375608269
 20
-88.36428762981865
 10
79.83595375608269
 20
-88.47969832857453
 97
        0
 97
        0
 75
     2
 76
     1
 98
        0
  0
ENDBLK
  5
DA
330
D7
100
AcDbEntity
  8
0
100
AcDbBlockEnd
  0
ENDSEC
  0
SECTION
  2
ENTITIES
  0
INSERT
  5
42
330
1F
100
AcDbEntity
  8
_U+30EC_U+30A4_U+30E4_U+30FC 1
100
AcDbBlockReference
  2
block 2
 10
0.0
 20
0.0
 30
0.0
  0
ENDSEC
  0
SECTION
  2
OBJECTS
  0
DICTIONARY
  5
C
330
0
100
AcDbDictionary
281
     1
  3
ACAD_GROUP
350
D
  3
ACAD_LAYOUT
350
1A
  3
ACAD_MATERIAL
350
3B
  3
ACAD_MLEADERSTYLE
350
EC
  3
ACAD_MLINESTYLE
350
17
  3
ACAD_PLOTSETTINGS
350
19
  3
ACAD_PLOTSTYLENAME
350
E
  3
ACAD_TABLESTYLE
350
EB
  3
ACAD_VISUALSTYLE
350
2A
  0
SUN
  5
3F
330
29
100
AcDbSun
 90
        1
290
     0
 63
     7
421
 16777215
 40
1.0
291
     1
 91
  2455826
 92
 54000000
292
     0
 70
     2
 71
   256
280
     1
  0
DICTIONARY
  5
D
102
{ACAD_REACTORS
330
C
102
}
330
C
100
AcDbDictionary
281
     1
  0
DICTIONARY
  5
1A
102
{ACAD_REACTORS
330
C
102
}
330
C
100
AcDbDictionary
281
     1
  3
Layout1
350
1E
  3
Layout2
350
26
  3
Model
350
22
  0
DICTIONARY
  5
3B
102
{ACAD_REACTORS
330
C
102
}
330
C
100
AcDbDictionary
281
     1
  3
ByBlock
350
3D
  3
ByLayer
350
3C
  3
Global
350
3E
  0
DICTIONARY
  5
EC
102
{ACAD_REACTORS
330
C
102
}
330
C
100
AcDbDictionary
281
     1
  0
DICTIONARY
  5
17
102
{ACAD_REACTORS
330
C
102
}
330
C
100
AcDbDictionary
281
     1
  3
Standard
350
18
  0
DICTIONARY
  5
19
102
{ACAD_REACTORS
330
C
102
}
330
C
100
AcDbDictionary
281
     1
  0
ACDBDICTIONARYWDFLT
  5
E
102
{ACAD_REACTORS
330
C
102
}
330
C
100
AcDbDictionary
281
     1
  3
Normal
350
F
100
AcDbDictionaryWithDefault
340
F
  0
DICTIONARY
  5
EB
102
{ACAD_REACTORS
330
C
102
}
330
C
100
AcDbDictionary
281
     1
  0
DICTIONARY
  5
2A
102
{ACAD_REACTORS
330
C
102
}
330
C
100
AcDbDictionary
281
     1
  3
2dWireframe
350
2F
  3
3D Hidden
350
31
  3
3dWireframe
350
30
  3
Basic
350
32
  3
Brighten
350
36
  3
ColorChange
350
3A
  3
Conceptual
350
34
  3
Dim
350
35
  3
Facepattern
350
39
  3
Flat
350
2B
  3
FlatWithEdges
350
2C
  3
Gouraud
350
2D
  3
GouraudWithEdges
350
2E
  3
Linepattern
350
38
  3
Realistic
350
33
  3
Thicken
350
37
  0
LAYOUT
  5
1E
102
{ACAD_REACTORS
330
1A
102
}
330
1A
100
AcDbPlotSettings
  1

  2
none_device
  4

  6

 40
0.0
 41
0.0
 42
0.0
 43
0.0
 44
0.0
 45
0.0
 46
0.0
 47
0.0
 48
0.0
 49
0.0
140
0.0
141
0.0
142
1.0
143
1.0
 70
   688
 72
     0
 73
     0
 74
     5
  7

 75
    16
 76
     0
 77
     2
 78
   300
147
1.0
148
0.0
149
0.0
100
AcDbLayout
  1
Layout1
 70
     1
 71
     1
 10
0.0
 20
0.0
 11
12.0
 21
9.0
 12
0.0
 22
0.0
 32
0.0
 14
1.000000000000000E+20
 24
1.000000000000000E+20
 34
1.000000000000000E+20
 15
-1.000000000000000E+20
 25
-1.000000000000000E+20
 35
-1.000000000000000E+20
146
0.0
 13
0.0
 23
0.0
 33
0.0
 16
1.0
 26
0.0
 36
0.0
 17
0.0
 27
1.0
 37
0.0
 76
     0
330
1B
  0
LAYOUT
  5
26
102
{ACAD_REACTORS
330
1A
102
}
330
1A
100
AcDbPlotSettings
  1

  2
none_device
  4

  6

 40
0.0
 41
0.0
 42
0.0
 43
0.0
 44
0.0
 45
0.0
 46
0.0
 47
0.0
 48
0.0
 49
0.0
140
0.0
141
0.0
142
1.0
143
1.0
 70
   688
 72
     0
 73
     0
 74
     5
  7

 75
    16
 76
     0
 77
     2
 78
   300
147
1.0
148
0.0
149
0.0
100
AcDbLayout
  1
Layout2
 70
     1
 71
     2
 10
0.0
 20
0.0
 11
0.0
 21
0.0
 12
0.0
 22
0.0
 32
0.0
 14
0.0
 24
0.0
 34
0.0
 15
0.0
 25
0.0
 35
0.0
146
0.0
 13
0.0
 23
0.0
 33
0.0
 16
1.0
 26
0.0
 36
0.0
 17
0.0
 27
1.0
 37
0.0
 76
     0
330
23
  0
LAYOUT
  5
22
102
{ACAD_REACTORS
330
1A
102
}
330
1A
100
AcDbPlotSettings
  1

  2
none_device
  4

  6

 40
0.0
 41
0.0
 42
0.0
 43
0.0
 44
0.0
 45
0.0
 46
0.0
 47
0.0
 48
0.0
 49
0.0
140
0.0
141
0.0
142
1.0
143
1.0
 70
  1712
 72
     0
 73
     0
 74
     0
  7

 75
     0
 76
     0
 77
     2
 78
   300
147
1.0
148
0.0
149
0.0
100
AcDbLayout
  1
Model
 70
     1
 71
     0
 10
0.0
 20
0.0
 11
12.0
 21
9.0
 12
0.0
 22
0.0
 32
0.0
 14
1.000000000000000E+20
 24
1.000000000000000E+20
 34
1.000000000000000E+20
 15
-1.000000000000000E+20
 25
-1.000000000000000E+20
 35
-1.000000000000000E+20
146
0.0
 13
0.0
 23
0.0
 33
0.0
 16
1.0
 26
0.0
 36
0.0
 17
0.0
 27
1.0
 37
0.0
 76
     0
330
1F
331
29
  0
MATERIAL
  5
3D
102
{ACAD_REACTORS
330
3B
102
}
330
3B
100
AcDbMaterial
  1
ByBlock
 72
     1
 94
      127
  0
MATERIAL
  5
3C
102
{ACAD_REACTORS
330
3B
102
}
330
3B
100
AcDbMaterial
  1
ByLayer
 72
     1
 94
      127
  0
MATERIAL
  5
3E
102
{ACAD_REACTORS
330
3B
102
}
330
3B
100
AcDbMaterial
  1
Global
 72
     1
 94
      127
  0
MLINESTYLE
  5
18
102
{ACAD_REACTORS
330
17
102
}
330
17
100
AcDbMlineStyle
  2
Standard
 70
     0
  3

 62
   256
 51
90.0
 52
90.0
 71
     2
 49
0.5
 62
   256
  6
BYLAYER
 49
-0.5
 62
   256
  6
BYLAYER
  0
ACDBPLACEHOLDER
  5
F
102
{ACAD_REACTORS
330
E
102
}
330
E
  0
VISUALSTYLE
  5
2F
102
{ACAD_REACTORS
330
2A
102
}
330
2A
100
AcDbVisualStyle
  2
2dWireframe
 70
     4
177
     2
291
     0
 71
     0
176
     1
 72
     2
176
     1
 73
     0
176
     1
 90
        0
176
     1
 40
-0.6
176
     1
 41
-30.0
176
     1
 62
     5
 63
     7
421
 16777215
176
     1
 74
     1
176
     1
 91
        4
176
     1
 64
     7
176
     1
 65
   257
176
     1
 75
     1
176
     1
175
     1
176
     1
 42
1.0
176
     1
 92
        0
176
     1
 66
   257
176
     1
 43
1.0
176
     1
 76
     1
176
     1
 77
     6
176
     1
 78
     2
176
     1
 67
     7
176
     1
 79
     5
176
     1
170
     0
176
     1
171
     0
176
     1
290
     0
176
     1
 93
        1
176
     1
 44
0.0
176
     1
173
     0
176
     1
  0
VISUALSTYLE
  5
31
102
{ACAD_REACTORS
330
2A
102
}
330
2A
100
AcDbVisualStyle
  2
3D Hidden
 70
     6
177
     2
291
     0
 71
     1
176
     1
 72
     2
176
     1
 73
     2
176
     1
 90
        0
176
     1
 40
-0.6
176
     1
 41
-30.0
176
     1
 62
     5
 63
     7
421
 16777215
176
     1
 74
     2
176
     1
 91
        2
176
     1
 64
     7
176
     1
 65
   257
176
     1
 75
     2
176
     1
175
     1
176
     1
 42
40.0
176
     1
 92
        0
176
     1
 66
   257
176
     1
 43
1.0
176
     1
 76
     1
176
     1
 77
     6
176
     1
 78
     2
176
     1
 67
     7
176
     1
 79
     3
176
     1
170
     0
176
     1
171
     0
176
     1
290
     0
176
     1
 93
        1
176
     1
 44
0.0
176
     1
173
     0
176
     1
  0
VISUALSTYLE
  5
30
102
{ACAD_REACTORS
330
2A
102
}
330
2A
100
AcDbVisualStyle
  2
3dWireframe
 70
     5
177
     2
291
     0
 71
     0
176
     1
 72
     2
176
     1
 73
     0
176
     1
 90
        0
176
     1
 40
-0.6
176
     1
 41
-30.0
176
     1
 62
     5
 63
     7
421
 16777215
176
     1
 74
     1
176
     1
 91
        4
176
     1
 64
     7
176
     1
 65
   257
176
     1
 75
     1
176
     1
175
     1
176
     1
 42
1.0
176
     1
 92
        0
176
     1
 66
   257
176
     1
 43
1.0
176
     1
 76
     1
176
     1
 77
     6
176
     1
 78
     2
176
     1
 67
     7
176
     1
 79
     5
176
     1
170
     0
176
     1
171
     0
176
     1
290
     0
176
     1
 93
        1
176
     1
 44
0.0
176
     1
173
     0
176
     1
  0
VISUALSTYLE
  5
32
102
{ACAD_REACTORS
330
2A
102
}
330
2A
100
AcDbVisualStyle
  2
Basic
 70
     7
177
     2
291
     1
 71
     1
176
     1
 72
     0
176
     1
 73
     1
176
     1
 90
        0
176
     1
 40
-0.6
176
     1
 41
-30.0
176
     1
 62
     5
 63
     7
421
 16777215
176
     1
 74
     0
176
     1
 91
        4
176
     1
 64
     7
176
     1
 65
   257
176
     1
 75
     1
176
     1
175
     1
176
     1
 42
1.0
176
     1
 92
        8
176
     1
 66
     7
176
     1
 43
1.0
176
     1
 76
     1
176
     1
 77
     6
176
     1
 78
     2
176
     1
 67
     7
176
     1
 79
     5
176
     1
170
     0
176
     1
171
     0
176
     1
290
     0
176
     1
 93
        1
176
     1
 44
0.0
176
     1
173
     0
176
     1
  0
VISUALSTYLE
  5
36
102
{ACAD_REACTORS
330
2A
102
}
330
2A
100
AcDbVisualStyle
  2
Brighten
 70
    12
177
     2
291
     1
 71
     2
176
     1
 72
     2
176
     1
 73
     0
176
     1
 90
        0
176
     1
 40
-0.6
176
     1
 41
-30.0
176
     1
 62
     5
 63
     7
421
 16777215
176
     1
 74
     1
176
     1
 91
        4
176
     1
 64
     7
176
     1
 65
   257
176
     1
 75
     1
176
     1
175
     1
176
     1
 42
1.0
176
     1
 92
        8
176
     1
 66
     7
176
     1
 43
1.0
176
     1
 76
     1
176
     1
 77
     6
176
     1
 78
     2
176
     1
 67
     7
176
     1
 79
     5
176
     1
170
     0
176
     1
171
     0
176
     1
290
     0
176
     1
 93
        1
176
     1
 44
50.0
176
     1
173
     0
176
     1
  0
VISUALSTYLE
  5
3A
102
{ACAD_REACTORS
330
2A
102
}
330
2A
100
AcDbVisualStyle
  2
ColorChange
 70
    16
177
     2
291
     1
 71
     2
176
     1
 72
     2
176
     1
 73
     3
176
     1
 90
        0
176
     1
 40
-0.6
176
     1
 41
-30.0
176
     1
 62
     5
 63
     8
421
  8421504
176
     1
 74
     1
176
     1
 91
        4
176
     1
 64
     7
176
     1
 65
   257
176
     1
 75
     1
176
     1
175
     1
176
     1
 42
1.0
176
     1
 92
        8
176
     1
 66
     8
424
  8421504
176
     1
 43
1.0
176
     1
 76
     1
176
     1
 77
     6
176
     1
 78
     2
176
     1
 67
     7
176
     1
 79
     5
176
     1
170
     0
176
     1
171
     0
176
     1
290
     0
176
     1
 93
        1
176
     1
 44
0.0
176
     1
173
     0
176
     1
  0
VISUALSTYLE
  5
34
102
{ACAD_REACTORS
330
2A
102
}
330
2A
100
AcDbVisualStyle
  2
Conceptual
 70
     9
177
     2
291
     0
 71
     3
176
     1
 72
     2
176
     1
 73
     0
176
     1
 90
        0
176
     1
 40
-0.6
176
     1
 41
-30.0
176
     1
 62
     5
 63
     7
421
 16777215
176
     1
 74
     2
176
     1
 91
        2
176
     1
 64
     7
176
     1
 65
   257
176
     1
 75
     1
176
     1
175
     1
176
     1
 42
40.0
176
     1
 92
        8
176
     1
 66
     7
176
     1
 43
1.0
176
     1
 76
     1
176
     1
 77
     6
176
     1
 78
     2
176
     1
 67
     7
176
     1
 79
     3
176
     1
170
     0
176
     1
171
     0
176
     1
290
     0
176
     1
 93
        1
176
     1
 44
0.0
176
     1
173
     0
176
     1
  0
VISUALSTYLE
  5
35
102
{ACAD_REACTORS
330
2A
102
}
330
2A
100
AcDbVisualStyle
  2
Dim
 70
    11
177
     2
291
     1
 71
     2
176
     1
 72
     2
176
     1
 73
     0
176
     1
 90
        0
176
     1
 40
-0.6
176
     1
 41
-30.0
176
     1
 62
     5
 63
     7
421
 16777215
176
     1
 74
     1
176
     1
 91
        4
176
     1
 64
     7
176
     1
 65
   257
176
     1
 75
     1
176
     1
175
     1
176
     1
 42
1.0
176
     1
 92
        8
176
     1
 66
     7
176
     1
 43
1.0
176
     1
 76
     1
176
     1
 77
     6
176
     1
 78
     2
176
     1
 67
     7
176
     1
 79
     5
176
     1
170
     0
176
     1
171
     0
176
     1
290
     0
176
     1
 93
        1
176
     1
 44
-50.0
176
     1
173
     0
176
     1
  0
VISUALSTYLE
  5
39
102
{ACAD_REACTORS
330
2A
102
}
330
2A
100
AcDbVisualStyle
  2
Facepattern
 70
    15
177
     2
291
     1
 71
     2
176
     1
 72
     2
176
     1
 73
     0
176
     1
 90
        0
176
     1
 40
-0.6
176
     1
 41
-30.0
176
     1
 62
     5
 63
     7
421
 16777215
176
     1
 74
     1
176
     1
 91
        4
176
     1
 64
     7
176
     1
 65
   257
176
     1
 75
     1
176
     1
175
     1
176
     1
 42
1.0
176
     1
 92
        8
176
     1
 66
     7
176
     1
 43
1.0
176
     1
 76
     1
176
     1
 77
     6
176
     1
 78
     2
176
     1
 67
     7
176
     1
 79
     5
176
     1
170
     0
176
     1
171
     0
176
     1
290
     0
176
     1
 93
        1
176
     1
 44
0.0
176
     1
173
     0
176
     1
  0
VISUALSTYLE
  5
2B
102
{ACAD_REACTORS
330
2A
102
}
330
2A
100
AcDbVisualStyle
  2
Flat
 70
     0
177
     2
291
     1
 71
     2
176
     1
 72
     1
176
     1
 73
     1
176
     1
 90
        2
176
     1
 40
-0.6
176
     1
 41
30.0
176
     1
 62
     5
 63
     7
421
 16777215
176
     1
 74
     0
176
     1
 91
        4
176
     1
 64
     7
176
     1
 65
   257
176
     1
 75
     1
176
     1
175
     1
176
     1
 42
1.0
176
     1
 92
        8
176
     1
 66
     7
176
     1
 43
1.0
176
     1
 76
     1
176
     1
 77
     6
176
     1
 78
     2
176
     1
 67
     7
176
     1
 79
     5
176
     1
170
     0
176
     1
171
     0
176
     1
290
     0
176
     1
 93
       13
176
     1
 44
0.0
176
     1
173
     0
176
     1
  0
VISUALSTYLE
  5
2C
102
{ACAD_REACTORS
330
2A
102
}
330
2A
100
AcDbVisualStyle
  2
FlatWithEdges
 70
     1
177
     2
291
     1
 71
     2
176
     1
 72
     1
176
     1
 73
     1
176
     1
 90
        2
176
     1
 40
-0.6
176
     1
 41
30.0
176
     1
 62
     5
 63
     7
421
 16777215
176
     1
 74
     1
176
     1
 91
        4
176
     1
 64
     7
176
     1
 65
   257
176
     1
 75
     1
176
     1
175
     1
176
     1
 42
1.0
176
     1
 92
        0
176
     1
 66
   257
176
     1
 43
1.0
176
     1
 76
     1
176
     1
 77
     6
176
     1
 78
     2
176
     1
 67
     7
176
     1
 79
     5
176
     1
170
     0
176
     1
171
     0
176
     1
290
     0
176
     1
 93
       13
176
     1
 44
0.0
176
     1
173
     0
176
     1
  0
VISUALSTYLE
  5
2D
102
{ACAD_REACTORS
330
2A
102
}
330
2A
100
AcDbVisualStyle
  2
Gouraud
 70
     2
177
     2
291
     1
 71
     2
176
     1
 72
     2
176
     1
 73
     1
176
     1
 90
        2
176
     1
 40
-0.6
176
     1
 41
30.0
176
     1
 62
     5
 63
     7
421
 16777215
176
     1
 74
     0
176
     1
 91
        4
176
     1
 64
     7
176
     1
 65
   257
176
     1
 75
     1
176
     1
175
     1
176
     1
 42
1.0
176
     1
 92
        0
176
     1
 66
     7
176
     1
 43
1.0
176
     1
 76
     1
176
     1
 77
     6
176
     1
 78
     2
176
     1
 67
     7
176
     1
 79
     5
176
     1
170
     0
176
     1
171
     0
176
     1
290
     0
176
     1
 93
       13
176
     1
 44
0.0
176
     1
173
     0
176
     1
  0
VISUALSTYLE
  5
2E
102
{ACAD_REACTORS
330
2A
102
}
330
2A
100
AcDbVisualStyle
  2
GouraudWithEdges
 70
     3
177
     2
291
     1
 71
     2
176
     1
 72
     2
176
     1
 73
     1
176
     1
 90
        2
176
     1
 40
-0.6
176
     1
 41
30.0
176
     1
 62
     5
 63
     7
421
 16777215
176
     1
 74
     1
176
     1
 91
        4
176
     1
 64
     7
176
     1
 65
   257
176
     1
 75
     1
176
     1
175
     1
176
     1
 42
1.0
176
     1
 92
        0
176
     1
 66
   257
176
     1
 43
1.0
176
     1
 76
     1
176
     1
 77
     6
176
     1
 78
     2
176
     1
 67
     7
176
     1
 79
     5
176
     1
170
     0
176
     1
171
     0
176
     1
290
     0
176
     1
 93
       13
176
     1
 44
0.0
176
     1
173
     0
176
     1
  0
VISUALSTYLE
  5
38
102
{ACAD_REACTORS
330
2A
102
}
330
2A
100
AcDbVisualStyle
  2
Linepattern
 70
    14
177
     2
291
     1
 71
     2
176
     1
 72
     2
176
     1
 73
     0
176
     1
 90
        0
176
     1
 40
-0.6
176
     1
 41
-30.0
176
     1
 62
     5
 63
     7
421
 16777215
176
     1
 74
     1
176
     1
 91
        4
176
     1
 64
     7
176
     1
 65
   257
176
     1
 75
     7
176
     1
175
     7
176
     1
 42
1.0
176
     1
 92
        8
176
     1
 66
     7
176
     1
 43
1.0
176
     1
 76
     1
176
     1
 77
     6
176
     1
 78
     2
176
     1
 67
     7
176
     1
 79
     5
176
     1
170
     0
176
     1
171
     0
176
     1
290
     0
176
     1
 93
        1
176
     1
 44
0.0
176
     1
173
     0
176
     1
  0
VISUALSTYLE
  5
33
102
{ACAD_REACTORS
330
2A
102
}
330
2A
100
AcDbVisualStyle
  2
Realistic
 70
     8
177
     2
291
     0
 71
     2
176
     1
 72
     2
176
     1
 73
     0
176
     1
 90
        0
176
     1
 40
-0.6
176
     1
 41
-30.0
176
     1
 62
     5
 63
     7
421
 16777215
176
     1
 74
     1
176
     1
 91
        0
176
     1
 64
     7
176
     1
 65
   257
176
     1
 75
     1
176
     1
175
     1
176
     1
 42
1.0
176
     1
 92
        8
176
     1
 66
     8
424
  7895160
176
     1
 43
1.0
176
     1
 76
     1
176
     1
 77
     6
176
     1
 78
     2
176
     1
 67
     7
176
     1
 79
     5
176
     1
170
     0
176
     1
171
     0
176
     1
290
     0
176
     1
 93
       13
176
     1
 44
0.0
176
     1
173
     0
176
     1
  0
VISUALSTYLE
  5
37
102
{ACAD_REACTORS
330
2A
102
}
330
2A
100
AcDbVisualStyle
  2
Thicken
 70
    13
177
     2
291
     1
 71
     2
176
     1
 72
     2
176
     1
 73
     0
176
     1
 90
        0
176
     1
 40
-0.6
176
     1
 41
-30.0
176
     1
 62
     5
 63
     7
421
 16777215
176
     1
 74
     1
176
     1
 91
        4
176
     1
 64
     7
176
     1
 65
   257
176
     1
 75
     1
176
     1
175
     1
176
     1
 42
1.0
176
     1
 92
       12
176
     1
 66
     7
176
     1
 43
1.0
176
     1
 76
     1
176
     1
 77
     6
176
     1
 78
     2
176
     1
 67
     7
176
     1
 79
     5
176
     1
170
     0
176
     1
171
     0
176
     1
290
     0
176
     1
 93
        1
176
     1
 44
0.0
176
     1
173
     0
176
     1
  0
ENDSEC
  0
EOF
