  0
SECTION
  2
HEADER
  9
$ACADVER
  1
AC1024
  9
$ACADMAINTVER
 70
     6
  9
$DWGCODEPAGE
  3
UNDEFINED
  9
$INSBASE
 10
0.0
 20
0.0
 30
0.0
  9
$EXTMIN
 10
1.000000000000000E+20
 20
1.000000000000000E+20
 30
1.000000000000000E+20
  9
$EXTMAX
 10
-1.000000000000000E+20
 20
-1.000000000000000E+20
 30
-1.000000000000000E+20
  9
$LIMMIN
 10
0.0
 20
0.0
  9
$LIMMAX
 10
12.0
 20
9.0
  9
$ORTHOMODE
 70
     0
  9
$REGENMODE
 70
     1
  9
$FILLMODE
 70
     1
  9
$QTEXTMODE
 70
     0
  9
$MIRRTEXT
 70
     1
  9
$LTSCALE
 40
1.0
  9
$ATTMODE
 70
     1
  9
$TEXTSIZE
 40
0.2
  9
$TRACEWID
 40
0.05
  9
$TEXTSTYLE
  7
Standard
  9
$CLAYER
  8
0
  9
$CELTYPE
  6
ByLayer
  9
$CECOLOR
 62
   256
  9
$CELTSCALE
 40
1.0
  9
$DISPSILH
 70
     0
  9
$DIMSCALE
 40
1.0
  9
$DIMASZ
 40
0.18
  9
$DIMEXO
 40
0.0625
  9
$DIMDLI
 40
0.38
  9
$DIMRND
 40
0.0
  9
$DIMDLE
 40
0.0
  9
$DIMEXE
 40
0.18
  9
$DIMTP
 40
0.0
  9
$DIMTM
 40
0.0
  9
$DIMTXT
 40
0.18
  9
$DIMCEN
 40
0.09
  9
$DIMTSZ
 40
0.0
  9
$DIMTOL
 70
     0
  9
$DIMLIM
 70
     0
  9
$DIMTIH
 70
     1
  9
$DIMTOH
 70
     1
  9
$DIMSE1
 70
     0
  9
$DIMSE2
 70
     0
  9
$DIMTAD
 70
     0
  9
$DIMZIN
 70
     0
  9
$DIMBLK
  1

  9
$DIMASO
 70
     1
  9
$DIMSHO
 70
     1
  9
$DIMPOST
  1

  9
$DIMAPOST
  1

  9
$DIMALT
 70
     0
  9
$DIMALTD
 70
     2
  9
$DIMALTF
 40
25.4
  9
$DIMLFAC
 40
1.0
  9
$DIMTOFL
 70
     0
  9
$DIMTVP
 40
0.0
  9
$DIMTIX
 70
     0
  9
$DIMSOXD
 70
     0
  9
$DIMSAH
 70
     0
  9
$DIMBLK1
  1

  9
$DIMBLK2
  1

  9
$DIMSTYLE
  2
Standard
  9
$DIMCLRD
 70
     0
  9
$DIMCLRE
 70
     0
  9
$DIMCLRT
 70
     0
  9
$DIMTFAC
 40
1.0
  9
$DIMGAP
 40
0.09
  9
$DIMJUST
 70
     0
  9
$DIMSD1
 70
     0
  9
$DIMSD2
 70
     0
  9
$DIMTOLJ
 70
     1
  9
$DIMTZIN
 70
     0
  9
$DIMALTZ
 70
     0
  9
$DIMALTTZ
 70
     0
  9
$DIMUPT
 70
     0
  9
$DIMDEC
 70
     4
  9
$DIMTDEC
 70
     4
  9
$DIMALTU
 70
     2
  9
$DIMALTTD
 70
     2
  9
$DIMTXSTY
  7
Standard
  9
$DIMAUNIT
 70
     0
  9
$DIMADEC
 70
     0
  9
$DIMALTRND
 40
0.0
  9
$DIMAZIN
 70
     0
  9
$DIMDSEP
 70
    46
  9
$DIMATFIT
 70
     3
  9
$DIMFRAC
 70
     0
  9
$DIMLDRBLK
  1

  9
$DIMLUNIT
 70
     2
  9
$DIMLWD
 70
    -2
  9
$DIMLWE
 70
    -2
  9
$DIMTMOVE
 70
     0
  9
$DIMFXL
 40
1.0
  9
$DIMFXLON
 70
     0
  9
$DIMJOGANG
 40
0.7853981633974483
  9
$DIMTFILL
 70
     0
  9
$DIMTFILLCLR
 70
     0
  9
$DIMARCSYM
 70
     0
  9
$DIMLTYPE
  6

  9
$DIMLTEX1
  6

  9
$DIMLTEX2
  6

  9
$DIMTXTDIRECTION
 70
     0
  9
$LUNITS
 70
     2
  9
$LUPREC
 70
     4
  9
$SKETCHINC
 40
0.1
  9
$FILLETRAD
 40
0.5
  9
$AUNITS
 70
     0
  9
$AUPREC
 70
     0
  9
$MENU
  1
.
  9
$ELEVATION
 40
0.0
  9
$PELEVATION
 40
0.0
  9
$THICKNESS
 40
0.0
  9
$LIMCHECK
 70
     0
  9
$CHAMFERA
 40
0.5
  9
$CHAMFERB
 40
0.5
  9
$CHAMFERC
 40
1.0
  9
$CHAMFERD
 40
0.0
  9
$SKPOLY
 70
     0
  9
$TDCREATE
 40
2457917.586574063
  9
$TDUCREATE
 40
2457917.211574074
  9
$TDUPDATE
 40
2457917.586574063
  9
$TDUUPDATE
 40
2457917.211574074
  9
$TDINDWG
 40
0.0000000116
  9
$TDUSRTIMER
 40
0.0000000116
  9
$USRTIMER
 70
     1
  9
$ANGBASE
 50
0.0
  9
$ANGDIR
 70
     0
  9
$PDMODE
 70
     0
  9
$PDSIZE
 40
0.0
  9
$PLINEWID
 40
0.0
  9
$SPLFRAME
 70
     0
  9
$SPLINETYPE
 70
     6
  9
$SPLINESEGS
 70
     8
  9
$HANDSEED
  5
ED
  9
$SURFTAB1
 70
     6
  9
$SURFTAB2
 70
     6
  9
$SURFTYPE
 70
     6
  9
$SURFU
 70
     6
  9
$SURFV
 70
     6
  9
$UCSBASE
  2

  9
$UCSNAME
  2

  9
$UCSORG
 10
0.0
 20
0.0
 30
0.0
  9
$UCSXDIR
 10
1.0
 20
0.0
 30
0.0
  9
$UCSYDIR
 10
0.0
 20
1.0
 30
0.0
  9
$UCSORTHOREF
  2

  9
$UCSORTHOVIEW
 70
     0
  9
$UCSORGTOP
 10
0.0
 20
0.0
 30
0.0
  9
$UCSORGBOTTOM
 10
0.0
 20
0.0
 30
0.0
  9
$UCSORGLEFT
 10
0.0
 20
0.0
 30
0.0
  9
$UCSORGRIGHT
 10
0.0
 20
0.0
 30
0.0
  9
$UCSORGFRONT
 10
0.0
 20
0.0
 30
0.0
  9
$UCSORGBACK
 10
0.0
 20
0.0
 30
0.0
  9
$PUCSBASE
  2

  9
$PUCSNAME
  2

  9
$PUCSORG
 10
0.0
 20
0.0
 30
0.0
  9
$PUCSXDIR
 10
1.0
 20
0.0
 30
0.0
  9
$PUCSYDIR
 10
0.0
 20
1.0
 30
0.0
  9
$PUCSORTHOREF
  2

  9
$PUCSORTHOVIEW
 70
     0
  9
$PUCSORGTOP
 10
0.0
 20
0.0
 30
0.0
  9
$PUCSORGBOTTOM
 10
0.0
 20
0.0
 30
0.0
  9
$PUCSORGLEFT
 10
0.0
 20
0.0
 30
0.0
  9
$PUCSORGRIGHT
 10
0.0
 20
0.0
 30
0.0
  9
$PUCSORGFRONT
 10
0.0
 20
0.0
 30
0.0
  9
$PUCSORGBACK
 10
0.0
 20
0.0
 30
0.0
  9
$USERI1
 70
     0
  9
$USERI2
 70
     0
  9
$USERI3
 70
     0
  9
$USERI4
 70
     0
  9
$USERI5
 70
     0
  9
$USERR1
 40
0.0
  9
$USERR2
 40
0.0
  9
$USERR3
 40
0.0
  9
$USERR4
 40
0.0
  9
$USERR5
 40
0.0
  9
$WORLDVIEW
 70
     1
  9
$SHADEDGE
 70
     3
  9
$SHADEDIF
 70
    70
  9
$TILEMODE
 70
     1
  9
$MAXACTVP
 70
    64
  9
$PINSBASE
 10
0.0
 20
0.0
 30
0.0
  9
$PLIMCHECK
 70
     0
  9
$PEXTMIN
 10
1.000000000000000E+20
 20
1.000000000000000E+20
 30
1.000000000000000E+20
  9
$PEXTMAX
 10
-1.000000000000000E+20
 20
-1.000000000000000E+20
 30
-1.000000000000000E+20
  9
$PLIMMIN
 10
0.0
 20
0.0
  9
$PLIMMAX
 10
12.0
 20
9.0
  9
$UNITMODE
 70
     0
  9
$VISRETAIN
 70
     1
  9
$PLINEGEN
 70
     0
  9
$PSLTSCALE
 70
     1
  9
$TREEDEPTH
 70
  3020
  9
$CMLSTYLE
  2
Standard
  9
$CMLJUST
 70
     0
  9
$CMLSCALE
 40
1.0
  9
$PROXYGRAPHICS
 70
     1
  9
$MEASUREMENT
 70
     0
  9
$CELWEIGHT
370
    -1
  9
$ENDCAPS
280
     0
  9
$JOINSTYLE
280
     0
  9
$LWDISPLAY
290
     1
  9
$INSUNITS
 70
     1
  9
$HYPERLINKBASE
  1

  9
$STYLESHEET
  1

  9
$XEDIT
290
     1
  9
$CEPSNTYPE
380
     0
  9
$PSTYLEMODE
290
     1
  9
$FINGERPRINTGUID
  2
{A37C4B50-FFE8-8982-937A-1D96819B3706}
  9
$VERSIONGUID
  2
{FAEB1C32-E019-11D5-929B-00C0DF256EC4}
  9
$EXTNAMES
290
     1
  9
$PSVPSCALE
 40
0.0
  9
$OLESTARTUP
290
     0
  9
$SORTENTS
280
   127
  9
$INDEXCTL
280
     0
  9
$HIDETEXT
280
     1
  9
$XCLIPFRAME
280
     2
  9
$HALOGAP
280
     0
  9
$OBSCOLOR
 70
   257
  9
$OBSLTYPE
280
     0
  9
$INTERSECTIONDISPLAY
280
     0
  9
$INTERSECTIONCOLOR
 70
   257
  9
$DIMASSOC
280
     2
  9
$PROJECTNAME
  1

  9
$CAMERADISPLAY
290
     0
  9
$LENSLENGTH
 40
50.0
  9
$CAMERAHEIGHT
 40
0.0
  9
$STEPSPERSEC
 40
2.0
  9
$STEPSIZE
 40
6.0
  9
$3DDWFPREC
 40
2.0
  9
$PSOLWIDTH
 40
0.25
  9
$PSOLHEIGHT
 40
4.0
  9
$LOFTANG1
 40
1.570796326794897
  9
$LOFTANG2
 40
1.570796326794897
  9
$LOFTMAG1
 40
0.0
  9
$LOFTMAG2
 40
0.0
  9
$LOFTPARAM
 70
     7
  9
$LOFTNORMALS
280
     1
  9
$LATITUDE
 40
37.795
  9
$LONGITUDE
 40
-122.394
  9
$NORTHDIRECTION
 40
0.0
  9
$TIMEZONE
 70
 -8000
  9
$LIGHTGLYPHDISPLAY
280
     1
  9
$TILEMODELIGHTSYNCH
280
     1
  9
$CMATERIAL
347
3C
  9
$SOLIDHIST
280
     1
  9
$SHOWHIST
280
     1
  9
$DWFFRAME
280
     2
  9
$DGNFRAME
280
     2
  9
$REALWORLDSCALE
290
     1
  9
$INTERFERECOLOR
 62
   256
  9
$CSHADOW
280
     0
  9
$SHADOWPLANELOCATION
 40
0.0
  0
ENDSEC
  0
SECTION
  2
CLASSES
  0
CLASS
  1
ACDBDICTIONARYWDFLT
  2
AcDbDictionaryWithDefault
  3
ObjectDBX Classes
 90
        0
 91
        4
280
     0
281
     0
  0
CLASS
  1
VISUALSTYLE
  2
AcDbVisualStyle
  3
ObjectDBX Classes
 90
     4095
 91
        4
280
     0
281
     0
  0
CLASS
  1
MATERIAL
  2
AcDbMaterial
  3
ObjectDBX Classes
 90
     1153
 91
        4
280
     0
281
     0
  0
CLASS
  1
SUN
  2
AcDbSun
  3
SCENEOE
 90
     1024
 91
        4
280
     0
281
     0
  0
ENDSEC
  0
SECTION
  2
TABLES
  0
TABLE
  2
VPORT
  5
8
330
0
100
AcDbSymbolTable
 70
     1
  0
VPORT
  5
29
330
8
100
AcDbSymbolTableRecord
100
AcDbViewportTableRecord
  2
*Active
 70
     0
 10
0.0
 20
0.0
 11
1.0
 21
1.0
 12
0.0
 22
0.0
 13
0.0
 23
0.0
 14
0.5
 24
0.5
 15
0.5
 25
0.5
 16
0.0
 26
0.0
 36
1.0
 17
63.499999984125
 27
-89.00059456108309
 37
0.0
 40
178.0011891221662
 41
0.7134783795241226
 42
50.0
 43
0.0
 44
0.0
 50
0.0
 51
0.0
 71
     0
 72
   100
 73
     1
 74
     3
 75
     0
 76
     0
 77
     0
 78
     0
281
     0
 65
     1
110
0.0
120
0.0
130
0.0
111
1.0
121
0.0
131
0.0
112
0.0
122
1.0
132
0.0
 79
     0
146
0.0
 60
     3
 61
     5
292
     1
282
     1
141
0.0
142
0.0
 63
   250
361
3F
  0
ENDTAB
  0
TABLE
  2
LTYPE
  5
5
330
0
100
AcDbSymbolTable
 70
     1
  0
LTYPE
  5
14
330
5
100
AcDbSymbolTableRecord
100
AcDbLinetypeTableRecord
  2
ByBlock
 70
     0
  3

 72
    65
 73
     0
 40
0.0
  0
LTYPE
  5
15
330
5
100
AcDbSymbolTableRecord
100
AcDbLinetypeTableRecord
  2
ByLayer
 70
     0
  3

 72
    65
 73
     0
 40
0.0
  0
LTYPE
  5
16
330
5
100
AcDbSymbolTableRecord
100
AcDbLinetypeTableRecord
  2
Continuous
 70
     0
  3
Solid line
 72
    65
 73
     0
 40
0.0
  0
ENDTAB
  0
TABLE
  2
LAYER
  5
2
330
0
100
AcDbSymbolTable
 70
     2
  0
LAYER
  5
10
330
2
100
AcDbSymbolTableRecord
100
AcDbLayerTableRecord
  2
0
 70
     0
 62
     7
  6
Continuous
370
    -3
390
F
347
3E
  0
LAYER
  5
40
330
2
100
AcDbSymbolTableRecord
100
AcDbLayerTableRecord
  2
_U+30EC_U+30A4_U+30E4_U+30FC 1
 70
     0
 62
     7
  6
Continuous
370
    -3
390
F
347
3E
  0
ENDTAB
  0
TABLE
  2
STYLE
  5
3
330
0
100
AcDbSymbolTable
 70
     1
  0
STYLE
  5
11
330
3
100
AcDbSymbolTableRecord
100
AcDbTextStyleTableRecord
  2
Standard
 70
     0
 40
0.0
 41
1.0
 50
0.0
 71
     0
 42
0.2
  3
txt
  4

  0
ENDTAB
  0
TABLE
  2
VIEW
  5
6
330
0
100
AcDbSymbolTable
 70
     0
  0
ENDTAB
  0
TABLE
  2
UCS
  5
7
330
0
100
AcDbSymbolTable
 70
     0
  0
ENDTAB
  0
TABLE
  2
APPID
  5
9
330
0
100
AcDbSymbolTable
 70
     1
  0
APPID
  5
12
330
9
100
AcDbSymbolTableRecord
100
AcDbRegAppTableRecord
  2
ACAD
 70
     0
  0
ENDTAB
  0
TABLE
  2
DIMSTYLE
  5
A
330
0
100
AcDbSymbolTable
 70
     1
100
AcDbDimStyleTable
  0
DIMSTYLE
105
27
330
A
100
AcDbSymbolTableRecord
100
AcDbDimStyleTableRecord
  2
Standard
 70
     0
178
     0
340
11
  0
ENDTAB
  0
TABLE
  2
BLOCK_RECORD
  5
1
330
0
100
AcDbSymbolTable
 70
     6
  0
BLOCK_RECORD
  5
1F
330
1
100
AcDbSymbolTableRecord
100
AcDbBlockTableRecord
  2
*Model_Space
340
22
 70
     0
280
     1
281
     0
  0
BLOCK_RECORD
  5
1B
330
1
100
AcDbSymbolTableRecord
100
AcDbBlockTableRecord
  2
*Paper_Space
340
1E
 70
     0
280
     1
281
     0
  0
BLOCK_RECORD
  5
23
330
1
100
AcDbSymbolTableRecord
100
AcDbBlockTableRecord
  2
*Paper_Space0
340
26
 70
     0
280
     1
281
     0
  0
BLOCK_RECORD
  5
81
330
1
100
AcDbSymbolTableRecord
100
AcDbBlockTableRecord
  2
block 2
340
0
102
{BLKREFS
331
82
102
}
 70
     0
280
     1
281
     0
  0
BLOCK_RECORD
  5
93
330
1
100
AcDbSymbolTableRecord
100
AcDbBlockTableRecord
  2
block 3
340
0
102
{BLKREFS
331
94
102
}
 70
     0
280
     1
281
     0
  0
BLOCK_RECORD
  5
A7
330
1
100
AcDbSymbolTableRecord
100
AcDbBlockTableRecord
  2
block 4
340
0
102
{BLKREFS
331
A8
102
}
 70
     0
280
     1
281
     0
  0
BLOCK_RECORD
  5
C8
330
1
100
AcDbSymbolTableRecord
100
AcDbBlockTableRecord
  2
block 5
340
0
102
{BLKREFS
331
C9
102
}
 70
     0
280
     1
281
     0
  0
BLOCK_RECORD
  5
D9
330
1
100
AcDbSymbolTableRecord
100
AcDbBlockTableRecord
  2
block 6
340
0
102
{BLKREFS
331
DA
102
}
 70
     0
280
     1
281
     0
  0
ENDTAB
  0
ENDSEC
  0
SECTION
  2
BLOCKS
  0
BLOCK
  5
20
330
1F
100
AcDbEntity
  8
0
100
AcDbBlockBegin
  2
*Model_Space
 70
     0
 10
0.0
 20
0.0
 30
0.0
  3
*Model_Space
  1

  0
ENDBLK
  5
21
330
1F
100
AcDbEntity
  8
0
100
AcDbBlockEnd
  0
BLOCK
  5
1C
330
1B
100
AcDbEntity
 67
     1
  8
0
100
AcDbBlockBegin
  2
*Paper_Space
 70
     0
 10
0.0
 20
0.0
 30
0.0
  3
*Paper_Space
  1

  0
ENDBLK
  5
1D
330
1B
100
AcDbEntity
 67
     1
  8
0
100
AcDbBlockEnd
  0
BLOCK
  5
24
330
23
100
AcDbEntity
  8
0
100
AcDbBlockBegin
  2
*Paper_Space0
 70
     0
 10
0.0
 20
0.0
 30
0.0
  3
*Paper_Space0
  1

  0
ENDBLK
  5
25
330
23
100
AcDbEntity
  8
0
100
AcDbBlockEnd
  0
BLOCK
  5
83
330
81
100
AcDbEntity
  8
0
100
AcDbBlockBegin
  2
block 2
 70
     0
 10
0.0
 20
0.0
 30
0.0
  3
block 2
  1

  0
SPLINE
  5
85
330
81
100
AcDbEntity
  8
_U+30EC_U+30A4_U+30E4_U+30FC 1
370
     0
100
AcDbSpline
210
0.0
220
0.0
230
1.0
 70
    11
 71
     3
 72
    26
 73
    22
 74
     0
 42
0.0000000001
 43
0.0000000001
 12
1.0
 22
0.0
 32
0.0
 13
1.0
 23
0.0
 33
0.0
 40
0.0
 40
0.0
 40
0.0
 40
0.0
 40
1.0
 40
1.0
 40
1.0
 40
2.0
 40
2.0
 40
2.0
 40
3.0
 40
3.0
 40
3.0
 40
4.0
 40
4.0
 40
4.0
 40
5.0
 40
5.0
 40
5.0
 40
6.0
 40
6.0
 40
6.0
 40
7.0
 40
7.0
 40
7.0
 40
7.0
 10
76.93862845298757
 20
-79.40066594152137
 30
0.0
 10
76.93862845298757
 20
-79.40066594152137
 30
0.0
 10
75.83447534996499
 20
-79.40066594152137
 30
0.0
 10
75.83447534996499
 20
-79.40066594152137
 30
0.0
 10
75.83447534996499
 20
-79.40066594152137
 30
0.0
 10
75.83447534996499
 20
-79.68609210247432
 30
0.0
 10
75.83447534996499
 20
-79.68609210247432
 30
0.0
 10
75.83447534996499
 20
-79.68609210247432
 30
0.0
 10
75.68633624409925
 20
-79.68609210247432
 30
0.0
 10
75.68633624409925
 20
-79.68609210247432
 30
0.0
 10
75.67152233351268
 20
-79.39877113900448
 30
0.0
 10
75.50856931706036
 20
-79.35846352182705
 30
0.0
 10
75.39419214695006
 20
-79.33296981523621
 30
0.0
 10
75.39419214695006
 20
-79.33296981523621
 30
0.0
 10
75.39419214695006
 20
-79.20653481092754
 30
0.0
 10
75.39419214695006
 20
-79.20653481092754
 30
0.0
 10
75.39419214695006
 20
-79.20653481092754
 30
0.0
 10
76.93862845298757
 20
-79.20653481092754
 30
0.0
 10
76.93862845298757
 20
-79.20653481092754
 30
0.0
 10
76.93862845298757
 20
-79.20653481092754
 30
0.0
 10
76.93862845298757
 20
-79.40066594152137
 30
0.0
 10
76.93862845298757
 20
-79.40066594152137
 30
0.0
  0
HATCH
  5
86
330
81
100
AcDbEntity
  8
_U+30EC_U+30A4_U+30E4_U+30FC 1
 62
   179
420
  2234388
100
AcDbHatch
 10
0.0
 20
0.0
 30
0.0
210
0.0
220
0.0
230
1.0
  2
SOLID
 70
     1
 71
     0
 91
        1
 92
        1
 93
        1
 72
     4
 94
        3
 73
     0
 74
     1
 95
       26
 96
       22
 40
0.0
 40
0.0
 40
0.0
 40
0.0
 40
1.0
 40
1.0
 40
1.0
 40
2.0
 40
2.0
 40
2.0
 40
3.0
 40
3.0
 40
3.0
 40
4.0
 40
4.0
 40
4.0
 40
5.0
 40
5.0
 40
5.0
 40
6.0
 40
6.0
 40
6.0
 40
7.0
 40
7.0
 40
7.0
 40
7.0
 10
76.93862845298757
 20
-79.40066594152137
 10
76.93862845298757
 20
-79.40066594152137
 10
75.83447534996499
 20
-79.40066594152137
 10
75.83447534996499
 20
-79.40066594152137
 10
75.83447534996499
 20
-79.40066594152137
 10
75.83447534996499
 20
-79.68609210247432
 10
75.83447534996499
 20
-79.68609210247432
 10
75.83447534996499
 20
-79.68609210247432
 10
75.68633624409925
 20
-79.68609210247432
 10
75.68633624409925
 20
-79.68609210247432
 10
75.67152233351268
 20
-79.39877113900448
 10
75.50856931706036
 20
-79.35846352182705
 10
75.39419214695006
 20
-79.33296981523621
 10
75.39419214695006
 20
-79.33296981523621
 10
75.39419214695006
 20
-79.20653481092754
 10
75.39419214695006
 20
-79.20653481092754
 10
75.39419214695006
 20
-79.20653481092754
 10
76.93862845298757
 20
-79.20653481092754
 10
76.93862845298757
 20
-79.20653481092754
 10
76.93862845298757
 20
-79.20653481092754
 10
76.93862845298757
 20
-79.40066594152137
 10
76.93862845298757
 20
-79.40066594152137
 97
        0
 97
        0
 75
     2
 76
     1
 98
        0
  0
ENDBLK
  5
84
330
81
100
AcDbEntity
  8
0
100
AcDbBlockEnd
  0
BLOCK
  5
95
330
93
100
AcDbEntity
  8
0
100
AcDbBlockBegin
  2
block 3
 70
     0
 10
0.0
 20
0.0
 30
0.0
  3
block 3
  1

  0
SPLINE
  5
97
330
93
100
AcDbEntity
  8
_U+30EC_U+30A4_U+30E4_U+30FC 1
370
     0
100
AcDbSpline
210
0.0
220
0.0
230
1.0
 70
    11
 71
     3
 72
    44
 73
    40
 74
     0
 42
0.0000000001
 43
0.0000000001
 12
1.0
 22
0.0
 32
0.0
 13
1.0
 23
0.0
 33
0.0
 40
0.0
 40
0.0
 40
0.0
 40
0.0
 40
1.0
 40
1.0
 40
1.0
 40
2.0
 40
2.0
 40
2.0
 40
3.0
 40
3.0
 40
3.0
 40
4.0
 40
4.0
 40
4.0
 40
5.0
 40
5.0
 40
5.0
 40
6.0
 40
6.0
 40
6.0
 40
7.0
 40
7.0
 40
7.0
 40
8.0
 40
8.0
 40
8.0
 40
9.0
 40
9.0
 40
9.0
 40
10.0
 40
10.0
 40
10.0
 40
11.0
 40
11.0
 40
11.0
 40
12.0
 40
12.0
 40
12.0
 40
13.0
 40
13.0
 40
13.0
 40
13.0
 10
60.37185328351815
 20
-77.10399303627956
 30
0.0
 10
60.18306205092646
 20
-77.26263968337531
 30
0.0
 10
60.10279132612014
 20
-77.33670923630818
 30
0.0
 10
60.06041665165156
 20
-77.48054197281736
 30
0.0
 10
60.06041665165156
 20
-77.48054197281736
 30
0.0
 10
60.73427732856644
 20
-77.48054197281736
 30
0.0
 10
60.73427732856644
 20
-77.48054197281736
 30
0.0
 10
60.73427732856644
 20
-77.48054197281736
 30
0.0
 10
60.73427732856644
 20
-77.68569740896399
 30
0.0
 10
60.73427732856644
 20
-77.68569740896399
 30
0.0
 10
60.73427732856644
 20
-77.68569740896399
 30
0.0
 10
59.84475367427493
 20
-77.68569740896399
 30
0.0
 10
59.84475367427493
 20
-77.68569740896399
 30
0.0
 10
59.8719699286084
 20
-77.32809649759507
 30
0.0
 10
59.92881400411502
 20
-77.24989283007989
 30
0.0
 10
60.26195473753868
 20
-76.95154756105725
 30
0.0
 10
60.48347437724024
 20
-76.75276555155834
 30
0.0
 10
60.53997394319834
 20
-76.68506942527318
 30
0.0
 10
60.53997394319834
 20
-76.54761011541171
 30
0.0
 10
60.53997394319834
 20
-76.42909883071911
 30
0.0
 10
60.47796222446384
 20
-76.2978406927311
 30
0.0
 10
60.3077745074925
 20
-76.2978406927311
 30
0.0
 10
60.08246526275716
 20
-76.2978406927311
 30
0.0
 10
60.07523056223814
 20
-76.52848983546858
 30
0.0
 10
60.07144095720437
 20
-76.64493406287002
 30
0.0
 10
60.07144095720437
 20
-76.64493406287002
 30
0.0
 10
59.8774820813848
 20
-76.64493406287002
 30
0.0
 10
59.8774820813848
 20
-76.64493406287002
 30
0.0
 10
59.88471678190383
 20
-76.51798229423856
 30
0.0
 10
59.894018539714
 20
-76.40584443619368
 30
0.0
 10
59.96360946851605
 20
-76.28733315150109
 30
0.0
 10
60.05869410390894
 20
-76.12661944711418
 30
0.0
 10
60.21992457261863
 20
-76.09268525658447
 30
0.0
 10
60.32052136078793
 20
-76.09268525658447
 30
0.0
 10
60.56030000656132
 20
-76.09268525658447
 30
0.0
 10
60.73944497179431
 20
-76.27682561027108
 30
0.0
 10
60.73944497179431
 20
-76.54967717270286
 30
0.0
 10
60.73944497179431
 20
-76.77808700337492
 30
0.0
 10
60.63884818362502
 20
-76.87765026289864
 30
0.0
 10
60.37185328351815
 20
-77.10399303627956
 30
0.0
  0
HATCH
  5
98
330
93
100
AcDbEntity
  8
_U+30EC_U+30A4_U+30E4_U+30FC 1
 62
   179
420
  2234388
100
AcDbHatch
 10
0.0
 20
0.0
 30
0.0
210
0.0
220
0.0
230
1.0
  2
SOLID
 70
     1
 71
     0
 91
        1
 92
        1
 93
        1
 72
     4
 94
        3
 73
     0
 74
     1
 95
       44
 96
       40
 40
0.0
 40
0.0
 40
0.0
 40
0.0
 40
1.0
 40
1.0
 40
1.0
 40
2.0
 40
2.0
 40
2.0
 40
3.0
 40
3.0
 40
3.0
 40
4.0
 40
4.0
 40
4.0
 40
5.0
 40
5.0
 40
5.0
 40
6.0
 40
6.0
 40
6.0
 40
7.0
 40
7.0
 40
7.0
 40
8.0
 40
8.0
 40
8.0
 40
9.0
 40
9.0
 40
9.0
 40
10.0
 40
10.0
 40
10.0
 40
11.0
 40
11.0
 40
11.0
 40
12.0
 40
12.0
 40
12.0
 40
13.0
 40
13.0
 40
13.0
 40
13.0
 10
60.37185328351815
 20
-77.10399303627956
 10
60.18306205092646
 20
-77.26263968337531
 10
60.10279132612014
 20
-77.33670923630818
 10
60.06041665165156
 20
-77.48054197281736
 10
60.06041665165156
 20
-77.48054197281736
 10
60.73427732856644
 20
-77.48054197281736
 10
60.73427732856644
 20
-77.48054197281736
 10
60.73427732856644
 20
-77.48054197281736
 10
60.73427732856644
 20
-77.68569740896399
 10
60.73427732856644
 20
-77.68569740896399
 10
60.73427732856644
 20
-77.68569740896399
 10
59.84475367427493
 20
-77.68569740896399
 10
59.84475367427493
 20
-77.68569740896399
 10
59.8719699286084
 20
-77.32809649759507
 10
59.92881400411502
 20
-77.24989283007989
 10
60.26195473753868
 20
-76.95154756105725
 10
60.48347437724024
 20
-76.75276555155834
 10
60.53997394319834
 20
-76.68506942527318
 10
60.53997394319834
 20
-76.54761011541171
 10
60.53997394319834
 20
-76.42909883071911
 10
60.47796222446384
 20
-76.2978406927311
 10
60.3077745074925
 20
-76.2978406927311
 10
60.08246526275716
 20
-76.2978406927311
 10
60.07523056223814
 20
-76.52848983546858
 10
60.07144095720437
 20
-76.64493406287002
 10
60.07144095720437
 20
-76.64493406287002
 10
59.8774820813848
 20
-76.64493406287002
 10
59.8774820813848
 20
-76.64493406287002
 10
59.88471678190383
 20
-76.51798229423856
 10
59.894018539714
 20
-76.40584443619368
 10
59.96360946851605
 20
-76.28733315150109
 10
60.05869410390894
 20
-76.12661944711418
 10
60.21992457261863
 20
-76.09268525658447
 10
60.32052136078793
 20
-76.09268525658447
 10
60.56030000656132
 20
-76.09268525658447
 10
60.73944497179431
 20
-76.27682561027108
 10
60.73944497179431
 20
-76.54967717270286
 10
60.73944497179431
 20
-76.77808700337492
 10
60.63884818362502
 20
-76.87765026289864
 10
60.37185328351815
 20
-77.10399303627956
 97
        0
 97
        0
 75
     2
 76
     1
 98
        0
  0
SPLINE
  5
99
330
93
100
AcDbEntity
  8
_U+30EC_U+30A4_U+30E4_U+30FC 1
370
     0
100
AcDbSpline
210
0.0
220
0.0
230
1.0
 70
    11
 71
     3
 72
    53
 73
    49
 74
     0
 42
0.0000000001
 43
0.0000000001
 12
1.0
 22
0.0
 32
0.0
 13
1.0
 23
0.0
 33
0.0
 40
0.0
 40
0.0
 40
0.0
 40
0.0
 40
1.0
 40
1.0
 40
1.0
 40
2.0
 40
2.0
 40
2.0
 40
3.0
 40
3.0
 40
3.0
 40
4.0
 40
4.0
 40
4.0
 40
5.0
 40
5.0
 40
5.0
 40
6.0
 40
6.0
 40
6.0
 40
7.0
 40
7.0
 40
7.0
 40
8.0
 40
8.0
 40
8.0
 40
9.0
 40
9.0
 40
9.0
 40
10.0
 40
10.0
 40
10.0
 40
11.0
 40
11.0
 40
11.0
 40
12.0
 40
12.0
 40
12.0
 40
13.0
 40
13.0
 40
13.0
 40
14.0
 40
14.0
 40
14.0
 40
15.0
 40
15.0
 40
15.0
 40
16.0
 40
16.0
 40
16.0
 40
16.0
 10
61.29203828762838
 20
-77.73651256737143
 30
0.0
 10
61.22416990656896
 20
-77.73651256737143
 30
0.0
 10
61.13666448124361
 20
-77.71963159949371
 30
0.0
 10
61.04847003682122
 20
-77.65606958779085
 30
0.0
 10
60.89860838321285
 20
-77.54599878703712
 30
0.0
 10
60.88034937714102
 20
-77.41491290382336
 30
0.0
 10
60.86381291881182
 20
-77.30708141513504
 30
0.0
 10
60.86381291881182
 20
-77.30708141513504
 30
0.0
 10
61.05604924688877
 20
-77.30708141513504
 30
0.0
 10
61.05604924688877
 20
-77.30708141513504
 30
0.0
 10
61.10359156458522
 20
-77.50586342463396
 30
0.0
 10
61.21349011056468
 20
-77.53549124580711
 30
0.0
 10
61.29376083537101
 20
-77.53549124580711
 30
0.0
 10
61.41468368690327
 20
-77.53549124580711
 30
0.0
 10
61.54663084398835
 20
-77.43610024105764
 30
0.0
 10
61.54663084398835
 20
-77.20338404102903
 30
0.0
 10
61.54663084398835
 20
-76.94741344647495
 30
0.0
 10
61.39091252805505
 20
-76.87765026289864
 30
0.0
 10
61.28652613485198
 20
-76.87765026289864
 30
0.0
 10
61.25896537096998
 20
-76.87765026289864
 30
0.0
 10
61.13666448124361
 20
-76.87765026289864
 30
0.0
 10
61.05949434237402
 20
-77.00666908882125
 30
0.0
 10
61.05949434237402
 20
-77.00666908882125
 30
0.0
 10
60.9075656314745
 20
-76.98754880887812
 30
0.0
 10
60.9075656314745
 20
-76.98754880887812
 30
0.0
 10
60.9075656314745
 20
-76.98754880887812
 30
0.0
 10
61.01195202467757
 20
-76.14143335770076
 30
0.0
 10
61.01195202467757
 20
-76.14143335770076
 30
0.0
 10
61.01195202467757
 20
-76.14143335770076
 30
0.0
 10
61.68546819204391
 20
-76.14143335770076
 30
0.0
 10
61.68546819204391
 20
-76.14143335770076
 30
0.0
 10
61.68546819204391
 20
-76.14143335770076
 30
0.0
 10
61.68546819204391
 20
-76.33608125261738
 30
0.0
 10
61.68546819204391
 20
-76.33608125261738
 30
0.0
 10
61.68546819204391
 20
-76.33608125261738
 30
0.0
 10
61.15285643002429
 20
-76.33608125261738
 30
0.0
 10
61.15285643002429
 20
-76.33608125261738
 30
0.0
 10
61.15285643002429
 20
-76.33608125261738
 30
0.0
 10
61.09635686406619
 20
-76.75913897820605
 30
0.0
 10
61.09635686406619
 20
-76.75913897820605
 30
0.0
 10
61.14941133453904
 20
-76.72520478767635
 30
0.0
 10
61.22072481108371
 20
-76.68506942527318
 30
0.0
 10
61.32304414699563
 20
-76.68506942527318
 30
0.0
 10
61.54284123895457
 20
-76.68506942527318
 30
0.0
 10
61.74782442032694
 20
-76.87127683625093
 30
0.0
 10
61.74782442032694
 20
-77.18426376108589
 30
0.0
 10
61.74782442032694
 20
-77.50172931005166
 30
0.0
 10
61.55386554450737
 20
-77.73651256737143
 30
0.0
 10
61.29203828762838
 20
-77.73651256737143
 30
0.0
  0
HATCH
  5
9A
330
93
100
AcDbEntity
  8
_U+30EC_U+30A4_U+30E4_U+30FC 1
 62
   179
420
  2234388
100
AcDbHatch
 10
0.0
 20
0.0
 30
0.0
210
0.0
220
0.0
230
1.0
  2
SOLID
 70
     1
 71
     0
 91
        1
 92
        1
 93
        1
 72
     4
 94
        3
 73
     0
 74
     1
 95
       53
 96
       49
 40
0.0
 40
0.0
 40
0.0
 40
0.0
 40
1.0
 40
1.0
 40
1.0
 40
2.0
 40
2.0
 40
2.0
 40
3.0
 40
3.0
 40
3.0
 40
4.0
 40
4.0
 40
4.0
 40
5.0
 40
5.0
 40
5.0
 40
6.0
 40
6.0
 40
6.0
 40
7.0
 40
7.0
 40
7.0
 40
8.0
 40
8.0
 40
8.0
 40
9.0
 40
9.0
 40
9.0
 40
10.0
 40
10.0
 40
10.0
 40
11.0
 40
11.0
 40
11.0
 40
12.0
 40
12.0
 40
12.0
 40
13.0
 40
13.0
 40
13.0
 40
14.0
 40
14.0
 40
14.0
 40
15.0
 40
15.0
 40
15.0
 40
16.0
 40
16.0
 40
16.0
 40
16.0
 10
61.29203828762838
 20
-77.73651256737143
 10
61.22416990656896
 20
-77.73651256737143
 10
61.13666448124361
 20
-77.71963159949371
 10
61.04847003682122
 20
-77.65606958779085
 10
60.89860838321285
 20
-77.54599878703712
 10
60.88034937714102
 20
-77.41491290382336
 10
60.86381291881182
 20
-77.30708141513504
 10
60.86381291881182
 20
-77.30708141513504
 10
61.05604924688877
 20
-77.30708141513504
 10
61.05604924688877
 20
-77.30708141513504
 10
61.10359156458522
 20
-77.50586342463396
 10
61.21349011056468
 20
-77.53549124580711
 10
61.29376083537101
 20
-77.53549124580711
 10
61.41468368690327
 20
-77.53549124580711
 10
61.54663084398835
 20
-77.43610024105764
 10
61.54663084398835
 20
-77.20338404102903
 10
61.54663084398835
 20
-76.94741344647495
 10
61.39091252805505
 20
-76.87765026289864
 10
61.28652613485198
 20
-76.87765026289864
 10
61.25896537096998
 20
-76.87765026289864
 10
61.13666448124361
 20
-76.87765026289864
 10
61.05949434237402
 20
-77.00666908882125
 10
61.05949434237402
 20
-77.00666908882125
 10
60.9075656314745
 20
-76.98754880887812
 10
60.9075656314745
 20
-76.98754880887812
 10
60.9075656314745
 20
-76.98754880887812
 10
61.01195202467757
 20
-76.14143335770076
 10
61.01195202467757
 20
-76.14143335770076
 10
61.01195202467757
 20
-76.14143335770076
 10
61.68546819204391
 20
-76.14143335770076
 10
61.68546819204391
 20
-76.14143335770076
 10
61.68546819204391
 20
-76.14143335770076
 10
61.68546819204391
 20
-76.33608125261738
 10
61.68546819204391
 20
-76.33608125261738
 10
61.68546819204391
 20
-76.33608125261738
 10
61.15285643002429
 20
-76.33608125261738
 10
61.15285643002429
 20
-76.33608125261738
 10
61.15285643002429
 20
-76.33608125261738
 10
61.09635686406619
 20
-76.75913897820605
 10
61.09635686406619
 20
-76.75913897820605
 10
61.14941133453904
 20
-76.72520478767635
 10
61.22072481108371
 20
-76.68506942527318
 10
61.32304414699563
 20
-76.68506942527318
 10
61.54284123895457
 20
-76.68506942527318
 10
61.74782442032694
 20
-76.87127683625093
 10
61.74782442032694
 20
-77.18426376108589
 10
61.74782442032694
 20
-77.50172931005166
 10
61.55386554450737
 20
-77.73651256737143
 10
61.29203828762838
 20
-77.73651256737143
 97
        0
 97
        0
 75
     2
 76
     1
 98
        0
  0
ENDBLK
  5
96
330
93
100
AcDbEntity
  8
0
100
AcDbBlockEnd
  0
BLOCK
  5
A9
330
A7
100
AcDbEntity
  8
0
100
AcDbBlockBegin
  2
block 4
 70
     0
 10
0.0
 20
0.0
 30
0.0
  3
block 4
  1

  0
POLYLINE
  5
AB
330
A7
100
AcDbEntity
  8
_U+30EC_U+30A4_U+30E4_U+30FC 1
370
     0
100
AcDb2dPolyline
 66
     1
 10
0.0
 20
0.0
 30
0.0
  0
VERTEX
  5
AC
330
AB
100
AcDbEntity
  8
_U+30EC_U+30A4_U+30E4_U+30FC 1
370
     0
100
AcDbVertex
100
AcDb2dVertex
 10
60.74512937934497
 20
-100.0390272102333
 30
0.0
  0
VERTEX
  5
AD
330
AB
100
AcDbEntity
  8
_U+30EC_U+30A4_U+30E4_U+30FC 1
370
     0
100
AcDbVertex
100
AcDb2dVertex
 10
60.74512937934497
 20
-100.385948325598
 30
0.0
  0
VERTEX
  5
AE
330
AB
100
AcDbEntity
  8
_U+30EC_U+30A4_U+30E4_U+30FC 1
370
     0
100
AcDbVertex
100
AcDb2dVertex
 10
60.55651040152754
 20
-100.385948325598
 30
0.0
  0
VERTEX
  5
AF
330
AB
100
AcDbEntity
  8
_U+30EC_U+30A4_U+30E4_U+30FC 1
370
     0
100
AcDbVertex
100
AcDb2dVertex
 10
60.55651040152754
 20
-100.0390272102333
 30
0.0
  0
VERTEX
  5
B0
330
AB
100
AcDbEntity
  8
_U+30EC_U+30A4_U+30E4_U+30FC 1
370
     0
100
AcDbVertex
100
AcDb2dVertex
 10
59.98927542988115
 20
-100.0390272102333
 30
0.0
  0
VERTEX
  5
B1
330
AB
100
AcDbEntity
  8
_U+30EC_U+30A4_U+30E4_U+30FC 1
370
     0
100
AcDbVertex
100
AcDb2dVertex
 10
59.98927542988115
 20
-99.81475149414354
 30
0.0
  0
VERTEX
  5
B2
330
AB
100
AcDbEntity
  8
_U+30EC_U+30A4_U+30E4_U+30FC 1
370
     0
100
AcDbVertex
100
AcDb2dVertex
 10
60.57666421011626
 20
-98.84151201956045
 30
0.0
  0
VERTEX
  5
B3
330
AB
100
AcDbEntity
  8
_U+30EC_U+30A4_U+30E4_U+30FC 1
370
     0
100
AcDbVertex
100
AcDb2dVertex
 10
60.74512937934497
 20
-98.84151201956045
 30
0.0
  0
VERTEX
  5
B4
330
AB
100
AcDbEntity
  8
_U+30EC_U+30A4_U+30E4_U+30FC 1
370
     0
100
AcDbVertex
100
AcDb2dVertex
 10
60.74512937934497
 20
-99.84024520073439
 30
0.0
  0
VERTEX
  5
B5
330
AB
100
AcDbEntity
  8
_U+30EC_U+30A4_U+30E4_U+30FC 1
370
     0
100
AcDbVertex
100
AcDb2dVertex
 10
60.92444659935222
 20
-99.84024520073439
 30
0.0
  0
VERTEX
  5
B6
330
AB
100
AcDbEntity
  8
_U+30EC_U+30A4_U+30E4_U+30FC 1
370
     0
100
AcDbVertex
100
AcDb2dVertex
 10
60.92444659935222
 20
-100.0390272102333
 30
0.0
  0
VERTEX
  5
B7
330
AB
100
AcDbEntity
  8
_U+30EC_U+30A4_U+30E4_U+30FC 1
370
     0
100
AcDbVertex
100
AcDb2dVertex
 10
60.74512937934497
 20
-100.0390272102333
 30
0.0
  0
SEQEND
  5
B8
330
AB
100
AcDbEntity
  8
_U+30EC_U+30A4_U+30E4_U+30FC 1
370
     0
  0
POLYLINE
  5
B9
330
A7
100
AcDbEntity
  8
_U+30EC_U+30A4_U+30E4_U+30FC 1
370
     0
100
AcDb2dPolyline
 66
     1
 10
0.0
 20
0.0
 30
0.0
  0
VERTEX
  5
BA
330
B9
100
AcDbEntity
  8
_U+30EC_U+30A4_U+30E4_U+30FC 1
370
     0
100
AcDbVertex
100
AcDb2dVertex
 10
60.55651040152754
 20
-99.18429902034282
 30
0.0
  0
VERTEX
  5
BB
330
B9
100
AcDbEntity
  8
_U+30EC_U+30A4_U+30E4_U+30FC 1
370
     0
100
AcDbVertex
100
AcDb2dVertex
 10
60.16135794936938
 20
-99.84024520073439
 30
0.0
  0
VERTEX
  5
BC
330
B9
100
AcDbEntity
  8
_U+30EC_U+30A4_U+30E4_U+30FC 1
370
     0
100
AcDbVertex
100
AcDb2dVertex
 10
60.55651040152754
 20
-99.84024520073439
 30
0.0
  0
VERTEX
  5
BD
330
B9
100
AcDbEntity
  8
_U+30EC_U+30A4_U+30E4_U+30FC 1
370
     0
100
AcDbVertex
100
AcDb2dVertex
 10
60.55651040152754
 20
-99.18429902034282
 30
0.0
  0
SEQEND
  5
BE
330
B9
100
AcDbEntity
  8
_U+30EC_U+30A4_U+30E4_U+30FC 1
370
     0
  0
HATCH
  5
BF
330
A7
100
AcDbEntity
  8
_U+30EC_U+30A4_U+30E4_U+30FC 1
 62
   179
420
  2234388
100
AcDbHatch
 10
0.0
 20
0.0
 30
0.0
210
0.0
220
0.0
230
1.0
  2
SOLID
 70
     1
 71
     0
 91
        2
 92
        1
 93
       11
 72
     1
 10
60.74512937934497
 20
-100.0390272102333
 11
60.74512937934497
 21
-100.385948325598
 72
     1
 10
60.74512937934497
 20
-100.385948325598
 11
60.55651040152754
 21
-100.385948325598
 72
     1
 10
60.55651040152754
 20
-100.385948325598
 11
60.55651040152754
 21
-100.0390272102333
 72
     1
 10
60.55651040152754
 20
-100.0390272102333
 11
59.98927542988115
 21
-100.0390272102333
 72
     1
 10
59.98927542988115
 20
-100.0390272102333
 11
59.98927542988115
 21
-99.81475149414354
 72
     1
 10
59.98927542988115
 20
-99.81475149414354
 11
60.57666421011626
 21
-98.84151201956045
 72
     1
 10
60.57666421011626
 20
-98.84151201956045
 11
60.74512937934497
 21
-98.84151201956045
 72
     1
 10
60.74512937934497
 20
-98.84151201956045
 11
60.74512937934497
 21
-99.84024520073439
 72
     1
 10
60.74512937934497
 20
-99.84024520073439
 11
60.92444659935222
 21
-99.84024520073439
 72
     1
 10
60.92444659935222
 20
-99.84024520073439
 11
60.92444659935222
 21
-100.0390272102333
 72
     1
 10
60.92444659935222
 20
-100.0390272102333
 11
60.74512937934497
 21
-100.0390272102333
 97
        0
 92
        1
 93
        3
 72
     1
 10
60.55651040152754
 20
-99.18429902034282
 11
60.16135794936938
 21
-99.84024520073439
 72
     1
 10
60.16135794936938
 20
-99.84024520073439
 11
60.55651040152754
 21
-99.84024520073439
 72
     1
 10
60.55651040152754
 20
-99.84024520073439
 11
60.55651040152754
 21
-99.18429902034282
 97
        0
 75
     2
 76
     1
 98
        0
  0
ENDBLK
  5
AA
330
A7
100
AcDbEntity
  8
0
100
AcDbBlockEnd
  0
BLOCK
  5
CA
330
C8
100
AcDbEntity
  8
0
100
AcDbBlockBegin
  2
block 5
 70
     0
 10
0.0
 20
0.0
 30
0.0
  3
block 5
  1

  0
SPLINE
  5
CC
330
C8
100
AcDbEntity
  8
_U+30EC_U+30A4_U+30E4_U+30FC 1
370
     0
100
AcDbSpline
210
0.0
220
0.0
230
1.0
 70
    11
 71
     3
 72
    26
 73
    22
 74
     0
 42
0.0000000001
 43
0.0000000001
 12
1.0
 22
0.0
 32
0.0
 13
1.0
 23
0.0
 33
0.0
 40
0.0
 40
0.0
 40
0.0
 40
0.0
 40
1.0
 40
1.0
 40
1.0
 40
2.0
 40
2.0
 40
2.0
 40
3.0
 40
3.0
 40
3.0
 40
4.0
 40
4.0
 40
4.0
 40
5.0
 40
5.0
 40
5.0
 40
6.0
 40
6.0
 40
6.0
 40
7.0
 40
7.0
 40
7.0
 40
7.0
 10
52.7490627580801
 20
-100.3856038160494
 30
0.0
 10
52.7490627580801
 20
-100.3856038160494
 30
0.0
 10
52.7490627580801
 20
-99.28145071302687
 30
0.0
 10
52.7490627580801
 20
-99.28145071302687
 30
0.0
 10
52.7490627580801
 20
-99.28145071302687
 30
0.0
 10
52.46363659712715
 20
-99.28145071302687
 30
0.0
 10
52.46363659712715
 20
-99.28145071302687
 30
0.0
 10
52.46363659712715
 20
-99.28145071302687
 30
0.0
 10
52.46363659712715
 20
-99.13331160716112
 30
0.0
 10
52.46363659712715
 20
-99.13331160716112
 30
0.0
 10
52.75095756059699
 20
-99.11849769657455
 30
0.0
 10
52.79126517777441
 20
-98.95554468012223
 30
0.0
 10
52.81675888436526
 20
-98.84116751001193
 30
0.0
 10
52.81675888436526
 20
-98.84116751001193
 30
0.0
 10
52.94319388867392
 20
-98.84116751001193
 30
0.0
 10
52.94319388867392
 20
-98.84116751001193
 30
0.0
 10
52.94319388867392
 20
-98.84116751001193
 30
0.0
 10
52.94319388867392
 20
-100.3856038160494
 30
0.0
 10
52.94319388867392
 20
-100.3856038160494
 30
0.0
 10
52.94319388867392
 20
-100.3856038160494
 30
0.0
 10
52.7490627580801
 20
-100.3856038160494
 30
0.0
 10
52.7490627580801
 20
-100.3856038160494
 30
0.0
  0
HATCH
  5
CD
330
C8
100
AcDbEntity
  8
_U+30EC_U+30A4_U+30E4_U+30FC 1
 62
   179
420
  2234388
100
AcDbHatch
 10
0.0
 20
0.0
 30
0.0
210
0.0
220
0.0
230
1.0
  2
SOLID
 70
     1
 71
     0
 91
        1
 92
        1
 93
        1
 72
     4
 94
        3
 73
     0
 74
     1
 95
       26
 96
       22
 40
0.0
 40
0.0
 40
0.0
 40
0.0
 40
1.0
 40
1.0
 40
1.0
 40
2.0
 40
2.0
 40
2.0
 40
3.0
 40
3.0
 40
3.0
 40
4.0
 40
4.0
 40
4.0
 40
5.0
 40
5.0
 40
5.0
 40
6.0
 40
6.0
 40
6.0
 40
7.0
 40
7.0
 40
7.0
 40
7.0
 10
52.7490627580801
 20
-100.3856038160494
 10
52.7490627580801
 20
-100.3856038160494
 10
52.7490627580801
 20
-99.28145071302687
 10
52.7490627580801
 20
-99.28145071302687
 10
52.7490627580801
 20
-99.28145071302687
 10
52.46363659712715
 20
-99.28145071302687
 10
52.46363659712715
 20
-99.28145071302687
 10
52.46363659712715
 20
-99.28145071302687
 10
52.46363659712715
 20
-99.13331160716112
 10
52.46363659712715
 20
-99.13331160716112
 10
52.75095756059699
 20
-99.11849769657455
 10
52.79126517777441
 20
-98.95554468012223
 10
52.81675888436526
 20
-98.84116751001193
 10
52.81675888436526
 20
-98.84116751001193
 10
52.94319388867392
 20
-98.84116751001193
 10
52.94319388867392
 20
-98.84116751001193
 10
52.94319388867392
 20
-98.84116751001193
 10
52.94319388867392
 20
-100.3856038160494
 10
52.94319388867392
 20
-100.3856038160494
 10
52.94319388867392
 20
-100.3856038160494
 10
52.7490627580801
 20
-100.3856038160494
 10
52.7490627580801
 20
-100.3856038160494
 97
        0
 97
        0
 75
     2
 76
     1
 98
        0
  0
SPLINE
  5
CE
330
C8
100
AcDbEntity
  8
_U+30EC_U+30A4_U+30E4_U+30FC 1
370
     0
100
AcDbSpline
210
0.0
220
0.0
230
1.0
 70
    11
 71
     3
 72
    29
 73
    25
 74
     0
 42
0.0000000001
 43
0.0000000001
 12
1.0
 22
0.0
 32
0.0
 13
1.0
 23
0.0
 33
0.0
 40
0.0
 40
0.0
 40
0.0
 40
0.0
 40
1.0
 40
1.0
 40
1.0
 40
2.0
 40
2.0
 40
2.0
 40
3.0
 40
3.0
 40
3.0
 40
4.0
 40
4.0
 40
4.0
 40
5.0
 40
5.0
 40
5.0
 40
6.0
 40
6.0
 40
6.0
 40
7.0
 40
7.0
 40
7.0
 40
8.0
 40
8.0
 40
8.0
 40
8.0
 10
54.15276691354514
 20
-100.2078368890106
 30
0.0
 10
54.05940482589487
 20
-100.4172986945137
 30
0.0
 10
53.90919866273798
 20
-100.4362467196826
 30
0.0
 10
53.80860187456869
 20
-100.4362467196826
 30
0.0
 10
53.66942001696459
 20
-100.4362467196826
 30
0.0
 10
53.5467746176897
 20
-100.3897379306317
 30
0.0
 10
53.46443683559222
 20
-100.2078368890106
 30
0.0
 10
53.37486435297573
 20
-100.0131889940939
 30
0.0
 10
53.35832789464653
 20
-99.77616642470873
 30
0.0
 10
53.35832789464653
 20
-99.61355791780495
 30
0.0
 10
53.35832789464653
 20
-99.4695529265215
 30
0.0
 10
53.37296955045884
 20
-99.21771644654974
 30
0.0
 10
53.46443683559222
 20
-99.01893443705083
 30
0.0
 10
53.55779892324249
 20
-98.81601831296962
 30
0.0
 10
53.69698078084659
 20
-98.79259166366991
 30
0.0
 10
53.80860187456869
 20
-98.79259166366991
 30
0.0
 10
53.94571667488163
 20
-98.79259166366991
 30
0.0
 10
54.07042913144767
 20
-98.83703339542963
 30
0.0
 10
54.15276691354514
 20
-99.01893443705083
 30
0.0
 10
54.23854979112787
 20
-99.21151527467629
 30
0.0
 10
54.25887585449084
 20
-99.43992510534835
 30
0.0
 10
54.25887585449084
 20
-99.61355791780495
 30
0.0
 10
54.25887585449084
 20
-99.78477916342186
 30
0.0
 10
54.24061684841902
 20
-100.0152560513851
 30
0.0
 10
54.15276691354514
 20
-100.2078368890106
 30
0.0
  0
SPLINE
  5
CF
330
C8
100
AcDbEntity
  8
_U+30EC_U+30A4_U+30E4_U+30FC 1
370
     0
100
AcDbSpline
210
0.0
220
0.0
230
1.0
 70
    11
 71
     3
 72
    17
 73
    13
 74
     0
 42
0.0000000001
 43
0.0000000001
 12
1.0
 22
0.0
 32
0.0
 13
1.0
 23
0.0
 33
0.0
 40
0.0
 40
0.0
 40
0.0
 40
0.0
 40
1.0
 40
1.0
 40
1.0
 40
2.0
 40
2.0
 40
2.0
 40
3.0
 40
3.0
 40
3.0
 40
4.0
 40
4.0
 40
4.0
 40
4.0
 10
53.80860187456869
 20
-98.98517250129538
 30
0.0
 10
53.59259438764352
 20
-98.98517250129538
 30
0.0
 10
53.5522867704661
 20
-99.26870385973145
 30
0.0
 10
53.5522867704661
 20
-99.61355791780495
 30
0.0
 10
53.5522867704661
 20
-99.93291826928761
 30
0.0
 10
53.58346488460761
 20
-100.241598824766
 30
0.0
 10
53.80860187456869
 20
-100.241598824766
 30
0.0
 10
54.0225423042027
 20
-100.241598824766
 30
0.0
 10
54.06491697867127
 20
-99.9604790331696
 30
0.0
 10
54.06491697867127
 20
-99.61355791780495
 30
0.0
 10
54.06491697867127
 20
-99.29385305677377
 30
0.0
 10
54.03184406201287
 20
-98.98517250129538
 30
0.0
 10
53.80860187456869
 20
-98.98517250129538
 30
0.0
  0
HATCH
  5
D0
330
C8
100
AcDbEntity
  8
_U+30EC_U+30A4_U+30E4_U+30FC 1
 62
   179
420
  2234388
100
AcDbHatch
 10
0.0
 20
0.0
 30
0.0
210
0.0
220
0.0
230
1.0
  2
SOLID
 70
     1
 71
     0
 91
        2
 92
        1
 93
        1
 72
     4
 94
        3
 73
     0
 74
     1
 95
       29
 96
       25
 40
0.0
 40
0.0
 40
0.0
 40
0.0
 40
1.0
 40
1.0
 40
1.0
 40
2.0
 40
2.0
 40
2.0
 40
3.0
 40
3.0
 40
3.0
 40
4.0
 40
4.0
 40
4.0
 40
5.0
 40
5.0
 40
5.0
 40
6.0
 40
6.0
 40
6.0
 40
7.0
 40
7.0
 40
7.0
 40
8.0
 40
8.0
 40
8.0
 40
8.0
 10
54.15276691354514
 20
-100.2078368890106
 10
54.05940482589487
 20
-100.4172986945137
 10
53.90919866273798
 20
-100.4362467196826
 10
53.80860187456869
 20
-100.4362467196826
 10
53.66942001696459
 20
-100.4362467196826
 10
53.5467746176897
 20
-100.3897379306317
 10
53.46443683559222
 20
-100.2078368890106
 10
53.37486435297573
 20
-100.0131889940939
 10
53.35832789464653
 20
-99.77616642470873
 10
53.35832789464653
 20
-99.61355791780495
 10
53.35832789464653
 20
-99.4695529265215
 10
53.37296955045884
 20
-99.21771644654974
 10
53.46443683559222
 20
-99.01893443705083
 10
53.55779892324249
 20
-98.81601831296962
 10
53.69698078084659
 20
-98.79259166366991
 10
53.80860187456869
 20
-98.79259166366991
 10
53.94571667488163
 20
-98.79259166366991
 10
54.07042913144767
 20
-98.83703339542963
 10
54.15276691354514
 20
-99.01893443705083
 10
54.23854979112787
 20
-99.21151527467629
 10
54.25887585449084
 20
-99.43992510534835
 10
54.25887585449084
 20
-99.61355791780495
 10
54.25887585449084
 20
-99.78477916342186
 10
54.24061684841902
 20
-100.0152560513851
 10
54.15276691354514
 20
-100.2078368890106
 97
        0
 97
        0
 92
        1
 93
        1
 72
     4
 94
        3
 73
     0
 74
     1
 95
       17
 96
       13
 40
0.0
 40
0.0
 40
0.0
 40
0.0
 40
1.0
 40
1.0
 40
1.0
 40
2.0
 40
2.0
 40
2.0
 40
3.0
 40
3.0
 40
3.0
 40
4.0
 40
4.0
 40
4.0
 40
4.0
 10
53.80860187456869
 20
-98.98517250129538
 10
53.59259438764352
 20
-98.98517250129538
 10
53.5522867704661
 20
-99.26870385973145
 10
53.5522867704661
 20
-99.61355791780495
 10
53.5522867704661
 20
-99.93291826928761
 10
53.58346488460761
 20
-100.241598824766
 10
53.80860187456869
 20
-100.241598824766
 10
54.0225423042027
 20
-100.241598824766
 10
54.06491697867127
 20
-99.9604790331696
 10
54.06491697867127
 20
-99.61355791780495
 10
54.06491697867127
 20
-99.29385305677377
 10
54.03184406201287
 20
-98.98517250129538
 10
53.80860187456869
 20
-98.98517250129538
 97
        0
 97
        0
 75
     2
 76
     1
 98
        0
  0
ENDBLK
  5
CB
330
C8
100
AcDbEntity
  8
0
100
AcDbBlockEnd
  0
BLOCK
  5
DB
330
D9
100
AcDbEntity
  8
0
100
AcDbBlockBegin
  2
block 6
 70
     0
 10
0.0
 20
0.0
 30
0.0
  3
block 6
  1

  0
SPLINE
  5
DD
330
D9
100
AcDbEntity
  8
_U+30EC_U+30A4_U+30E4_U+30FC 1
370
     0
100
AcDbSpline
210
0.0
220
0.0
230
1.0
 70
    11
 71
     3
 72
    26
 73
    22
 74
     0
 42
0.0000000001
 43
0.0000000001
 12
1.0
 22
0.0
 32
0.0
 13
1.0
 23
0.0
 33
0.0
 40
0.0
 40
0.0
 40
0.0
 40
0.0
 40
1.0
 40
1.0
 40
1.0
 40
2.0
 40
2.0
 40
2.0
 40
3.0
 40
3.0
 40
3.0
 40
4.0
 40
4.0
 40
4.0
 40
5.0
 40
5.0
 40
5.0
 40
6.0
 40
6.0
 40
6.0
 40
7.0
 40
7.0
 40
7.0
 40
7.0
 10
76.9389729625361
 20
-91.08625757271454
 30
0.0
 10
76.9389729625361
 20
-91.08625757271454
 30
0.0
 10
75.83481985951352
 20
-91.08625757271454
 30
0.0
 10
75.83481985951352
 20
-91.08625757271454
 30
0.0
 10
75.83481985951352
 20
-91.08625757271454
 30
0.0
 10
75.83481985951352
 20
-91.37185598844177
 30
0.0
 10
75.83481985951352
 20
-91.37185598844177
 30
0.0
 10
75.83481985951352
 20
-91.37185598844177
 30
0.0
 10
75.68668075364778
 20
-91.37185598844177
 30
0.0
 10
75.68668075364778
 20
-91.37185598844177
 30
0.0
 10
75.67186684306121
 20
-91.08453502497193
 30
0.0
 10
75.50891382660889
 20
-91.04422740779451
 30
0.0
 10
75.39453665649859
 20
-91.01873370120366
 30
0.0
 10
75.39453665649859
 20
-91.01873370120366
 30
0.0
 10
75.39453665649859
 20
-90.89229869689498
 30
0.0
 10
75.39453665649859
 20
-90.89229869689498
 30
0.0
 10
75.39453665649859
 20
-90.89229869689498
 30
0.0
 10
76.9389729625361
 20
-90.89229869689498
 30
0.0
 10
76.9389729625361
 20
-90.89229869689498
 30
0.0
 10
76.9389729625361
 20
-90.89229869689498
 30
0.0
 10
76.9389729625361
 20
-91.08625757271454
 30
0.0
 10
76.9389729625361
 20
-91.08625757271454
 30
0.0
  0
HATCH
  5
DE
330
D9
100
AcDbEntity
  8
_U+30EC_U+30A4_U+30E4_U+30FC 1
 62
   179
420
  2234388
100
AcDbHatch
 10
0.0
 20
0.0
 30
0.0
210
0.0
220
0.0
230
1.0
  2
SOLID
 70
     1
 71
     0
 91
        1
 92
        1
 93
        1
 72
     4
 94
        3
 73
     0
 74
     1
 95
       26
 96
       22
 40
0.0
 40
0.0
 40
0.0
 40
0.0
 40
1.0
 40
1.0
 40
1.0
 40
2.0
 40
2.0
 40
2.0
 40
3.0
 40
3.0
 40
3.0
 40
4.0
 40
4.0
 40
4.0
 40
5.0
 40
5.0
 40
5.0
 40
6.0
 40
6.0
 40
6.0
 40
7.0
 40
7.0
 40
7.0
 40
7.0
 10
76.9389729625361
 20
-91.08625757271454
 10
76.9389729625361
 20
-91.08625757271454
 10
75.83481985951352
 20
-91.08625757271454
 10
75.83481985951352
 20
-91.08625757271454
 10
75.83481985951352
 20
-91.08625757271454
 10
75.83481985951352
 20
-91.37185598844177
 10
75.83481985951352
 20
-91.37185598844177
 10
75.83481985951352
 20
-91.37185598844177
 10
75.68668075364778
 20
-91.37185598844177
 10
75.68668075364778
 20
-91.37185598844177
 10
75.67186684306121
 20
-91.08453502497193
 10
75.50891382660889
 20
-91.04422740779451
 10
75.39453665649859
 20
-91.01873370120366
 10
75.39453665649859
 20
-91.01873370120366
 10
75.39453665649859
 20
-90.89229869689498
 10
75.39453665649859
 20
-90.89229869689498
 10
75.39453665649859
 20
-90.89229869689498
 10
76.9389729625361
 20
-90.89229869689498
 10
76.9389729625361
 20
-90.89229869689498
 10
76.9389729625361
 20
-90.89229869689498
 10
76.9389729625361
 20
-91.08625757271454
 10
76.9389729625361
 20
-91.08625757271454
 97
        0
 97
        0
 75
     2
 76
     1
 98
        0
  0
SPLINE
  5
DF
330
D9
100
AcDbEntity
  8
_U+30EC_U+30A4_U+30E4_U+30FC 1
370
     0
100
AcDbSpline
210
0.0
220
0.0
230
1.0
 70
    11
 71
     3
 72
    44
 73
    40
 74
     0
 42
0.0000000001
 43
0.0000000001
 12
1.0
 22
0.0
 32
0.0
 13
1.0
 23
0.0
 33
0.0
 40
0.0
 40
0.0
 40
0.0
 40
0.0
 40
1.0
 40
1.0
 40
1.0
 40
2.0
 40
2.0
 40
2.0
 40
3.0
 40
3.0
 40
3.0
 40
4.0
 40
4.0
 40
4.0
 40
5.0
 40
5.0
 40
5.0
 40
6.0
 40
6.0
 40
6.0
 40
7.0
 40
7.0
 40
7.0
 40
8.0
 40
8.0
 40
8.0
 40
9.0
 40
9.0
 40
9.0
 40
10.0
 40
10.0
 40
10.0
 40
11.0
 40
11.0
 40
11.0
 40
12.0
 40
12.0
 40
12.0
 40
13.0
 40
13.0
 40
13.0
 40
13.0
 10
76.3570963350774
 20
-89.94627547664538
 30
0.0
 10
76.51591523694741
 20
-90.13506670923707
 30
0.0
 10
76.58998478988029
 20
-90.21533743404339
 30
0.0
 10
76.7336452716152
 20
-90.25736759896344
 30
0.0
 10
76.7336452716152
 20
-90.25736759896344
 30
0.0
 10
76.7336452716152
 20
-89.58419594114562
 30
0.0
 10
76.7336452716152
 20
-89.58419594114562
 30
0.0
 10
76.7336452716152
 20
-89.58419594114562
 30
0.0
 10
76.9389729625361
 20
-89.58419594114562
 30
0.0
 10
76.9389729625361
 20
-89.58419594114562
 30
0.0
 10
76.9389729625361
 20
-89.58419594114562
 30
0.0
 10
76.9389729625361
 20
-90.4733750858886
 30
0.0
 10
76.9389729625361
 20
-90.4733750858886
 30
0.0
 10
76.58137205116716
 20
-90.44615883155514
 30
0.0
 10
76.503168383652
 20
-90.3893147560485
 30
0.0
 10
76.20482311462935
 20
-90.05617402262484
 30
0.0
 10
76.00604110513044
 20
-89.83465438292329
 30
0.0
 10
75.93817272407101
 20
-89.77815481696518
 30
0.0
 10
75.80071341420955
 20
-89.77815481696518
 30
0.0
 10
75.68220212951695
 20
-89.77815481696518
 30
0.0
 10
75.55128850107747
 20
-89.84016653569968
 30
0.0
 10
75.55128850107747
 20
-90.01035425267102
 30
0.0
 10
75.55128850107747
 20
-90.23566349740636
 30
0.0
 10
75.78176538904067
 20
-90.24289819792538
 30
0.0
 10
75.89820961644212
 20
-90.24668780295917
 30
0.0
 10
75.89820961644212
 20
-90.24668780295917
 30
0.0
 10
75.89820961644212
 20
-90.44064667877873
 30
0.0
 10
75.89820961644212
 20
-90.44064667877873
 30
0.0
 10
75.7710855930364
 20
-90.43306746871119
 30
0.0
 10
75.65911998976578
 20
-90.42411022044953
 30
0.0
 10
75.54060870507318
 20
-90.35451929164749
 30
0.0
 10
75.37972274591202
 20
-90.25943465625458
 30
0.0
 10
75.34596081015657
 20
-90.0982041875449
 30
0.0
 10
75.34596081015657
 20
-89.9976073993756
 30
0.0
 10
75.34596081015657
 20
-89.75782875360221
 30
0.0
 10
75.52992890906891
 20
-89.57868378836922
 30
0.0
 10
75.8027804715007
 20
-89.57868378836922
 30
0.0
 10
76.03153481172129
 20
-89.57868378836922
 30
0.0
 10
76.13075356169648
 20
-89.67928057653852
 30
0.0
 10
76.3570963350774
 20
-89.94627547664538
 30
0.0
  0
HATCH
  5
E0
330
D9
100
AcDbEntity
  8
_U+30EC_U+30A4_U+30E4_U+30FC 1
 62
   179
420
  2234388
100
AcDbHatch
 10
0.0
 20
0.0
 30
0.0
210
0.0
220
0.0
230
1.0
  2
SOLID
 70
     1
 71
     0
 91
        1
 92
        1
 93
        1
 72
     4
 94
        3
 73
     0
 74
     1
 95
       44
 96
       40
 40
0.0
 40
0.0
 40
0.0
 40
0.0
 40
1.0
 40
1.0
 40
1.0
 40
2.0
 40
2.0
 40
2.0
 40
3.0
 40
3.0
 40
3.0
 40
4.0
 40
4.0
 40
4.0
 40
5.0
 40
5.0
 40
5.0
 40
6.0
 40
6.0
 40
6.0
 40
7.0
 40
7.0
 40
7.0
 40
8.0
 40
8.0
 40
8.0
 40
9.0
 40
9.0
 40
9.0
 40
10.0
 40
10.0
 40
10.0
 40
11.0
 40
11.0
 40
11.0
 40
12.0
 40
12.0
 40
12.0
 40
13.0
 40
13.0
 40
13.0
 40
13.0
 10
76.3570963350774
 20
-89.94627547664538
 10
76.51591523694741
 20
-90.13506670923707
 10
76.58998478988029
 20
-90.21533743404339
 10
76.7336452716152
 20
-90.25736759896344
 10
76.7336452716152
 20
-90.25736759896344
 10
76.7336452716152
 20
-89.58419594114562
 10
76.7336452716152
 20
-89.58419594114562
 10
76.7336452716152
 20
-89.58419594114562
 10
76.9389729625361
 20
-89.58419594114562
 10
76.9389729625361
 20
-89.58419594114562
 10
76.9389729625361
 20
-89.58419594114562
 10
76.9389729625361
 20
-90.4733750858886
 10
76.9389729625361
 20
-90.4733750858886
 10
76.58137205116716
 20
-90.44615883155514
 10
76.503168383652
 20
-90.3893147560485
 10
76.20482311462935
 20
-90.05617402262484
 10
76.00604110513044
 20
-89.83465438292329
 10
75.93817272407101
 20
-89.77815481696518
 10
75.80071341420955
 20
-89.77815481696518
 10
75.68220212951695
 20
-89.77815481696518
 10
75.55128850107747
 20
-89.84016653569968
 10
75.55128850107747
 20
-90.01035425267102
 10
75.55128850107747
 20
-90.23566349740636
 10
75.78176538904067
 20
-90.24289819792538
 10
75.89820961644212
 20
-90.24668780295917
 10
75.89820961644212
 20
-90.24668780295917
 10
75.89820961644212
 20
-90.44064667877873
 10
75.89820961644212
 20
-90.44064667877873
 10
75.7710855930364
 20
-90.43306746871119
 10
75.65911998976578
 20
-90.42411022044953
 10
75.54060870507318
 20
-90.35451929164749
 10
75.37972274591202
 20
-90.25943465625458
 10
75.34596081015657
 20
-90.0982041875449
 10
75.34596081015657
 20
-89.9976073993756
 10
75.34596081015657
 20
-89.75782875360221
 10
75.52992890906891
 20
-89.57868378836922
 10
75.8027804715007
 20
-89.57868378836922
 10
76.03153481172129
 20
-89.57868378836922
 10
76.13075356169648
 20
-89.67928057653852
 10
76.3570963350774
 20
-89.94627547664538
 97
        0
 97
        0
 75
     2
 76
     1
 98
        0
  0
POLYLINE
  5
E1
330
D9
100
AcDbEntity
  8
_U+30EC_U+30A4_U+30E4_U+30FC 1
370
     0
100
AcDb2dPolyline
 66
     1
 10
0.0
 20
0.0
 30
0.0
  0
VERTEX
  5
E2
330
E1
100
AcDbEntity
  8
_U+30EC_U+30A4_U+30E4_U+30FC 1
370
     0
100
AcDbVertex
100
AcDb2dVertex
 10
76.9389729625361
 20
-89.39023706532606
 30
0.0
  0
VERTEX
  5
E3
330
E1
100
AcDbEntity
  8
_U+30EC_U+30A4_U+30E4_U+30FC 1
370
     0
100
AcDbVertex
100
AcDb2dVertex
 10
76.68713648256433
 20
-89.39023706532606
 30
0.0
  0
VERTEX
  5
E4
330
E1
100
AcDbEntity
  8
_U+30EC_U+30A4_U+30E4_U+30FC 1
370
     0
100
AcDbVertex
100
AcDb2dVertex
 10
76.68713648256433
 20
-89.17250703065827
 30
0.0
  0
VERTEX
  5
E5
330
E1
100
AcDbEntity
  8
_U+30EC_U+30A4_U+30E4_U+30FC 1
370
     0
100
AcDbVertex
100
AcDb2dVertex
 10
76.9389729625361
 20
-89.17250703065827
 30
0.0
  0
VERTEX
  5
E6
330
E1
100
AcDbEntity
  8
_U+30EC_U+30A4_U+30E4_U+30FC 1
370
     0
100
AcDbVertex
100
AcDb2dVertex
 10
76.9389729625361
 20
-89.39023706532606
 30
0.0
  0
SEQEND
  5
E7
330
E1
100
AcDbEntity
  8
_U+30EC_U+30A4_U+30E4_U+30FC 1
370
     0
  0
HATCH
  5
E8
330
D9
100
AcDbEntity
  8
_U+30EC_U+30A4_U+30E4_U+30FC 1
 62
   179
420
  2234388
100
AcDbHatch
 10
0.0
 20
0.0
 30
0.0
210
0.0
220
0.0
230
1.0
  2
SOLID
 70
     1
 71
     0
 91
        1
 92
        1
 93
        4
 72
     1
 10
76.9389729625361
 20
-89.39023706532606
 11
76.68713648256433
 21
-89.39023706532606
 72
     1
 10
76.68713648256433
 20
-89.39023706532606
 11
76.68713648256433
 21
-89.17250703065827
 72
     1
 10
76.68713648256433
 20
-89.17250703065827
 11
76.9389729625361
 21
-89.17250703065827
 72
     1
 10
76.9389729625361
 20
-89.17250703065827
 11
76.9389729625361
 21
-89.39023706532606
 97
        0
 75
     2
 76
     1
 98
        0
  0
SPLINE
  5
E9
330
D9
100
AcDbEntity
  8
_U+30EC_U+30A4_U+30E4_U+30FC 1
370
     0
100
AcDbSpline
210
0.0
220
0.0
230
1.0
 70
    11
 71
     3
 72
    26
 73
    22
 74
     0
 42
0.0000000001
 43
0.0000000001
 12
1.0
 22
0.0
 32
0.0
 13
1.0
 23
0.0
 33
0.0
 40
0.0
 40
0.0
 40
0.0
 40
0.0
 40
1.0
 40
1.0
 40
1.0
 40
2.0
 40
2.0
 40
2.0
 40
3.0
 40
3.0
 40
3.0
 40
4.0
 40
4.0
 40
4.0
 40
5.0
 40
5.0
 40
5.0
 40
6.0
 40
6.0
 40
6.0
 40
7.0
 40
7.0
 40
7.0
 40
7.0
 10
76.9389729625361
 20
-88.61267901430517
 30
0.0
 10
76.9389729625361
 20
-88.61267901430517
 30
0.0
 10
76.9389729625361
 20
-88.81766219567753
 30
0.0
 10
76.9389729625361
 20
-88.81766219567753
 30
0.0
 10
76.62994789750918
 20
-88.79595809412046
 30
0.0
 10
76.11180553652761
 20
-88.62921547263437
 30
0.0
 10
75.60606551929293
 20
-88.27781573313888
 30
0.0
 10
75.60606551929293
 20
-88.27781573313888
 30
0.0
 10
75.60606551929293
 20
-89.00266382323545
 30
0.0
 10
75.60606551929293
 20
-89.00266382323545
 30
0.0
 10
75.60606551929293
 20
-89.00266382323545
 30
0.0
 10
75.39453665649859
 20
-89.00266382323545
 30
0.0
 10
75.39453665649859
 20
-89.00266382323545
 30
0.0
 10
75.39453665649859
 20
-89.00266382323545
 30
0.0
 10
75.39453665649859
 20
-88.07283255176652
 30
0.0
 10
75.39453665649859
 20
-88.07283255176652
 30
0.0
 10
75.39453665649859
 20
-88.07283255176652
 30
0.0
 10
75.60606551929293
 20
-88.07283255176652
 30
0.0
 10
75.60606551929293
 20
-88.07283255176652
 30
0.0
 10
75.89614255915097
 20
-88.35291881471733
 30
0.0
 10
76.48835447306541
 20
-88.58339570268055
 30
0.0
 10
76.9389729625361
 20
-88.61267901430517
 30
0.0
  0
HATCH
  5
EA
330
D9
100
AcDbEntity
  8
_U+30EC_U+30A4_U+30E4_U+30FC 1
 62
   179
420
  2234388
100
AcDbHatch
 10
0.0
 20
0.0
 30
0.0
210
0.0
220
0.0
230
1.0
  2
SOLID
 70
     1
 71
     0
 91
        1
 92
        1
 93
        1
 72
     4
 94
        3
 73
     0
 74
     1
 95
       26
 96
       22
 40
0.0
 40
0.0
 40
0.0
 40
0.0
 40
1.0
 40
1.0
 40
1.0
 40
2.0
 40
2.0
 40
2.0
 40
3.0
 40
3.0
 40
3.0
 40
4.0
 40
4.0
 40
4.0
 40
5.0
 40
5.0
 40
5.0
 40
6.0
 40
6.0
 40
6.0
 40
7.0
 40
7.0
 40
7.0
 40
7.0
 10
76.9389729625361
 20
-88.61267901430517
 10
76.9389729625361
 20
-88.61267901430517
 10
76.9389729625361
 20
-88.81766219567753
 10
76.9389729625361
 20
-88.81766219567753
 10
76.62994789750918
 20
-88.79595809412046
 10
76.11180553652761
 20
-88.62921547263437
 10
75.60606551929293
 20
-88.27781573313888
 10
75.60606551929293
 20
-88.27781573313888
 10
75.60606551929293
 20
-89.00266382323545
 10
75.60606551929293
 20
-89.00266382323545
 10
75.60606551929293
 20
-89.00266382323545
 10
75.39453665649859
 20
-89.00266382323545
 10
75.39453665649859
 20
-89.00266382323545
 10
75.39453665649859
 20
-89.00266382323545
 10
75.39453665649859
 20
-88.07283255176652
 10
75.39453665649859
 20
-88.07283255176652
 10
75.39453665649859
 20
-88.07283255176652
 10
75.60606551929293
 20
-88.07283255176652
 10
75.60606551929293
 20
-88.07283255176652
 10
75.89614255915097
 20
-88.35291881471733
 10
76.48835447306541
 20
-88.58339570268055
 10
76.9389729625361
 20
-88.61267901430517
 97
        0
 97
        0
 75
     2
 76
     1
 98
        0
  0
ENDBLK
  5
DC
330
D9
100
AcDbEntity
  8
0
100
AcDbBlockEnd
  0
ENDSEC
  0
SECTION
  2
ENTITIES
  0
POLYLINE
  5
41
330
1F
100
AcDbEntity
  8
_U+30EC_U+30A4_U+30E4_U+30FC 1
 62
   179
420
  2234388
370
    25
100
AcDb2dPolyline
 66
     1
 10
0.0
 20
0.0
 30
0.0
  0
VERTEX
  5
42
330
41
100
AcDbEntity
  8
_U+30EC_U+30A4_U+30E4_U+30FC 1
 62
   179
420
  2234388
370
    25
100
AcDbVertex
100
AcDb2dVertex
 10
48.53537709509271
 20
-82.2816419238741
 30
0.0
  0
VERTEX
  5
43
330
41
100
AcDbEntity
  8
_U+30EC_U+30A4_U+30E4_U+30FC 1
 62
   179
420
  2234388
370
    25
100
AcDbVertex
100
AcDb2dVertex
 10
73.53486784619145
 20
-82.2816419238741
 30
0.0
  0
SEQEND
  5
44
330
41
100
AcDbEntity
  8
_U+30EC_U+30A4_U+30E4_U+30FC 1
 62
   179
420
  2234388
370
    25
  0
POLYLINE
  5
45
330
1F
100
AcDbEntity
  8
_U+30EC_U+30A4_U+30E4_U+30FC 1
 62
   179
420
  2234388
370
    25
100
AcDb2dPolyline
 66
     1
 10
0.0
 20
0.0
 30
0.0
  0
VERTEX
  5
46
330
45
100
AcDbEntity
  8
_U+30EC_U+30A4_U+30E4_U+30FC 1
 62
   179
420
  2234388
370
    25
100
AcDbVertex
100
AcDb2dVertex
 10
73.53486784619145
 20
-82.2816419238741
 30
0.0
  0
VERTEX
  5
47
330
45
100
AcDbEntity
  8
_U+30EC_U+30A4_U+30E4_U+30FC 1
 62
   179
420
  2234388
370
    25
100
AcDbVertex
100
AcDb2dVertex
 10
73.53486784619145
 20
-83.28137886806849
 30
0.0
  0
SEQEND
  5
48
330
45
100
AcDbEntity
  8
_U+30EC_U+30A4_U+30E4_U+30FC 1
 62
   179
420
  2234388
370
    25
  0
POLYLINE
  5
49
330
1F
100
AcDbEntity
  8
_U+30EC_U+30A4_U+30E4_U+30FC 1
 62
   179
420
  2234388
370
    25
100
AcDb2dPolyline
 66
     1
 10
0.0
 20
0.0
 30
0.0
  0
VERTEX
  5
4A
330
49
100
AcDbEntity
  8
_U+30EC_U+30A4_U+30E4_U+30FC 1
 62
   179
420
  2234388
370
    25
100
AcDbVertex
100
AcDb2dVertex
 10
48.53537709509271
 20
-82.2816419238741
 30
0.0
  0
VERTEX
  5
4B
330
49
100
AcDbEntity
  8
_U+30EC_U+30A4_U+30E4_U+30FC 1
 62
   179
420
  2234388
370
    25
100
AcDbVertex
100
AcDb2dVertex
 10
48.53537709509271
 20
-83.28137886806849
 30
0.0
  0
SEQEND
  5
4C
330
49
100
AcDbEntity
  8
_U+30EC_U+30A4_U+30E4_U+30FC 1
 62
   179
420
  2234388
370
    25
  0
POLYLINE
  5
4D
330
1F
100
AcDbEntity
  8
_U+30EC_U+30A4_U+30E4_U+30FC 1
 62
   179
420
  2234388
370
    25
100
AcDb2dPolyline
 66
     1
 10
0.0
 20
0.0
 30
0.0
  0
VERTEX
  5
4E
330
4D
100
AcDbEntity
  8
_U+30EC_U+30A4_U+30E4_U+30FC 1
 62
   179
420
  2234388
370
    25
100
AcDbVertex
100
AcDb2dVertex
 10
48.53537709509271
 20
-83.28137886806849
 30
0.0
  0
VERTEX
  5
4F
330
4D
100
AcDbEntity
  8
_U+30EC_U+30A4_U+30E4_U+30FC 1
 62
   179
420
  2234388
370
    25
100
AcDbVertex
100
AcDb2dVertex
 10
58.53510989553382
 20
-83.28137886806849
 30
0.0
  0
SEQEND
  5
50
330
4D
100
AcDbEntity
  8
_U+30EC_U+30A4_U+30E4_U+30FC 1
 62
   179
420
  2234388
370
    25
  0
POLYLINE
  5
51
330
1F
100
AcDbEntity
  8
_U+30EC_U+30A4_U+30E4_U+30FC 1
 62
   179
420
  2234388
370
    25
100
AcDb2dPolyline
 66
     1
 10
0.0
 20
0.0
 30
0.0
  0
VERTEX
  5
52
330
51
100
AcDbEntity
  8
_U+30EC_U+30A4_U+30E4_U+30FC 1
 62
   179
420
  2234388
370
    25
100
AcDbVertex
100
AcDb2dVertex
 10
58.53510989553382
 20
-83.28137886806849
 30
0.0
  0
VERTEX
  5
53
330
51
100
AcDbEntity
  8
_U+30EC_U+30A4_U+30E4_U+30FC 1
 62
   179
420
  2234388
370
    25
100
AcDbVertex
100
AcDb2dVertex
 10
58.53510989553382
 20
-96.98220942019898
 30
0.0
  0
SEQEND
  5
54
330
51
100
AcDbEntity
  8
_U+30EC_U+30A4_U+30E4_U+30FC 1
 62
   179
420
  2234388
370
    25
  0
POLYLINE
  5
55
330
1F
100
AcDbEntity
  8
_U+30EC_U+30A4_U+30E4_U+30FC 1
 62
   179
420
  2234388
370
    25
100
AcDb2dPolyline
 66
     1
 10
0.0
 20
0.0
 30
0.0
  0
VERTEX
  5
56
330
55
100
AcDbEntity
  8
_U+30EC_U+30A4_U+30E4_U+30FC 1
 62
   179
420
  2234388
370
    25
100
AcDbVertex
100
AcDb2dVertex
 10
62.53486896015814
 20
-95.98243719822645
 30
0.0
  0
VERTEX
  5
57
330
55
100
AcDbEntity
  8
_U+30EC_U+30A4_U+30E4_U+30FC 1
 62
   179
420
  2234388
370
    25
100
AcDbVertex
100
AcDb2dVertex
 10
62.53486896015814
 20
-96.98220942019898
 30
0.0
  0
SEQEND
  5
58
330
55
100
AcDbEntity
  8
_U+30EC_U+30A4_U+30E4_U+30FC 1
 62
   179
420
  2234388
370
    25
  0
POLYLINE
  5
59
330
1F
100
AcDbEntity
  8
_U+30EC_U+30A4_U+30E4_U+30FC 1
 62
   179
420
  2234388
370
    25
100
AcDb2dPolyline
 66
     1
 10
0.0
 20
0.0
 30
0.0
  0
VERTEX
  5
5A
330
59
100
AcDbEntity
  8
_U+30EC_U+30A4_U+30E4_U+30FC 1
 62
   179
420
  2234388
370
    25
100
AcDbVertex
100
AcDb2dVertex
 10
59.53488209224973
 20
-95.98243719822645
 30
0.0
  0
VERTEX
  5
5B
330
59
100
AcDbEntity
  8
_U+30EC_U+30A4_U+30E4_U+30FC 1
 62
   179
420
  2234388
370
    25
100
AcDbVertex
100
AcDb2dVertex
 10
62.53486896015814
 20
-95.98243719822645
 30
0.0
  0
SEQEND
  5
5C
330
59
100
AcDbEntity
  8
_U+30EC_U+30A4_U+30E4_U+30FC 1
 62
   179
420
  2234388
370
    25
  0
POLYLINE
  5
5D
330
1F
100
AcDbEntity
  8
_U+30EC_U+30A4_U+30E4_U+30FC 1
 62
   179
420
  2234388
370
    25
100
AcDb2dPolyline
 66
     1
 10
0.0
 20
0.0
 30
0.0
  0
VERTEX
  5
5E
330
5D
100
AcDbEntity
  8
_U+30EC_U+30A4_U+30E4_U+30FC 1
 62
   179
420
  2234388
370
    25
100
AcDbVertex
100
AcDb2dVertex
 10
58.53510989553382
 20
-96.98220942019898
 30
0.0
  0
VERTEX
  5
5F
330
5D
100
AcDbEntity
  8
_U+30EC_U+30A4_U+30E4_U+30FC 1
 62
   179
420
  2234388
370
    25
100
AcDbVertex
100
AcDb2dVertex
 10
62.53486896015814
 20
-96.98220942019898
 30
0.0
  0
SEQEND
  5
60
330
5D
100
AcDbEntity
  8
_U+30EC_U+30A4_U+30E4_U+30FC 1
 62
   179
420
  2234388
370
    25
  0
POLYLINE
  5
61
330
1F
100
AcDbEntity
  8
_U+30EC_U+30A4_U+30E4_U+30FC 1
 62
   179
420
  2234388
370
    25
100
AcDb2dPolyline
 66
     1
 10
0.0
 20
0.0
 30
0.0
  0
VERTEX
  5
62
330
61
100
AcDbEntity
  8
_U+30EC_U+30A4_U+30E4_U+30FC 1
 62
   179
420
  2234388
370
    25
100
AcDbVertex
100
AcDb2dVertex
 10
59.53488209224973
 20
-83.28137886806849
 30
0.0
  0
VERTEX
  5
63
330
61
100
AcDbEntity
  8
_U+30EC_U+30A4_U+30E4_U+30FC 1
 62
   179
420
  2234388
370
    25
100
AcDbVertex
100
AcDb2dVertex
 10
59.53488209224973
 20
-95.98243719822645
 30
0.0
  0
SEQEND
  5
64
330
61
100
AcDbEntity
  8
_U+30EC_U+30A4_U+30E4_U+30FC 1
 62
   179
420
  2234388
370
    25
  0
POLYLINE
  5
65
330
1F
100
AcDbEntity
  8
_U+30EC_U+30A4_U+30E4_U+30FC 1
 62
   179
420
  2234388
370
    25
100
AcDb2dPolyline
 66
     1
 10
0.0
 20
0.0
 30
0.0
  0
VERTEX
  5
66
330
65
100
AcDbEntity
  8
_U+30EC_U+30A4_U+30E4_U+30FC 1
 62
   179
420
  2234388
370
    25
100
AcDbVertex
100
AcDb2dVertex
 10
59.53488209224973
 20
-83.28137886806849
 30
0.0
  0
VERTEX
  5
67
330
65
100
AcDbEntity
  8
_U+30EC_U+30A4_U+30E4_U+30FC 1
 62
   179
420
  2234388
370
    25
100
AcDbVertex
100
AcDb2dVertex
 10
73.53486784619145
 20
-83.28137886806849
 30
0.0
  0
SEQEND
  5
68
330
65
100
AcDbEntity
  8
_U+30EC_U+30A4_U+30E4_U+30FC 1
 62
   179
420
  2234388
370
    25
  0
SPLINE
  5
69
330
1F
100
AcDbEntity
  8
_U+30EC_U+30A4_U+30E4_U+30FC 1
 62
   179
420
  2234388
370
     9
100
AcDbSpline
210
0.0
220
0.0
230
1.0
 70
    11
 71
     3
 72
    17
 73
    13
 74
     0
 42
0.0000000001
 43
0.0000000001
 12
1.0
 22
0.0
 32
0.0
 13
1.0
 23
0.0
 33
0.0
 40
0.0
 40
0.0
 40
0.0
 40
0.0
 40
1.0
 40
1.0
 40
1.0
 40
2.0
 40
2.0
 40
2.0
 40
3.0
 40
3.0
 40
3.0
 40
4.0
 40
4.0
 40
4.0
 40
4.0
 10
77.63523913047115
 20
-82.2816419238741
 30
0.0
 10
77.63523913047115
 20
-82.22650275722103
 30
0.0
 10
77.5904363538364
 20
-82.18173525723246
 30
0.0
 10
77.53462691081576
 20
-82.18173525723246
 30
0.0
 10
77.47952498063026
 20
-82.18173525723246
 30
0.0
 10
77.43472220286354
 20
-82.22650275722103
 30
0.0
 10
77.43472220286354
 20
-82.2816419238741
 30
0.0
 10
77.43472220286354
 20
-82.33674581274902
 30
0.0
 10
77.47952498063026
 20
-82.38154859051573
 30
0.0
 10
77.53462691081576
 20
-82.38154859051573
 30
0.0
 10
77.5904363538364
 20
-82.38154859051573
 30
0.0
 10
77.63523913047115
 20
-82.33674581274902
 30
0.0
 10
77.63523913047115
 20
-82.2816419238741
 30
0.0
  0
SPLINE
  5
6A
330
1F
100
AcDbEntity
  8
_U+30EC_U+30A4_U+30E4_U+30FC 1
 62
   179
420
  2234388
370
     9
100
AcDbSpline
210
0.0
220
0.0
230
1.0
 70
    11
 71
     3
 72
    17
 73
    13
 74
     0
 42
0.0000000001
 43
0.0000000001
 12
1.0
 22
0.0
 32
0.0
 13
1.0
 23
0.0
 33
0.0
 40
0.0
 40
0.0
 40
0.0
 40
0.0
 40
1.0
 40
1.0
 40
1.0
 40
2.0
 40
2.0
 40
2.0
 40
3.0
 40
3.0
 40
3.0
 40
4.0
 40
4.0
 40
4.0
 40
4.0
 10
77.63523913047115
 20
-83.28137886806849
 30
0.0
 10
77.63523913047115
 20
-83.22627497919356
 30
0.0
 10
77.5904363538364
 20
-83.18147220142684
 30
0.0
 10
77.53462691081576
 20
-83.18147220142684
 30
0.0
 10
77.47952498063026
 20
-83.18147220142684
 30
0.0
 10
77.43472220286354
 20
-83.22627497919356
 30
0.0
 10
77.43472220286354
 20
-83.28137886806849
 30
0.0
 10
77.43472220286354
 20
-83.33718831249892
 30
0.0
 10
77.47952498063026
 20
-83.38199109026564
 30
0.0
 10
77.53462691081576
 20
-83.38199109026564
 30
0.0
 10
77.5904363538364
 20
-83.38199109026564
 30
0.0
 10
77.63523913047115
 20
-83.33718831249892
 30
0.0
 10
77.63523913047115
 20
-83.28137886806849
 30
0.0
  0
SPLINE
  5
6B
330
1F
100
AcDbEntity
  8
_U+30EC_U+30A4_U+30E4_U+30FC 1
 62
   179
420
  2234388
370
     9
100
AcDbSpline
210
0.0
220
0.0
230
1.0
 70
    11
 71
     3
 72
    17
 73
    13
 74
     0
 42
0.0000000001
 43
0.0000000001
 12
1.0
 22
0.0
 32
0.0
 13
1.0
 23
0.0
 33
0.0
 40
0.0
 40
0.0
 40
0.0
 40
0.0
 40
1.0
 40
1.0
 40
1.0
 40
2.0
 40
2.0
 40
2.0
 40
3.0
 40
3.0
 40
3.0
 40
4.0
 40
4.0
 40
4.0
 40
4.0
 10
73.63477451030928
 20
-78.28188275820722
 30
0.0
 10
73.63477451030928
 20
-78.22674359155447
 30
0.0
 10
73.5900070114514
 20
-78.18197609156559
 30
0.0
 10
73.53486784619145
 20
-78.18197609156559
 30
0.0
 10
73.47976395870838
 20
-78.18197609156559
 30
0.0
 10
73.43496118207362
 20
-78.22674359155447
 30
0.0
 10
73.43496118207362
 20
-78.28188275820722
 30
0.0
 10
73.43496118207362
 20
-78.33698664708245
 30
0.0
 10
73.47976395870838
 20
-78.38178942484886
 30
0.0
 10
73.53486784619145
 20
-78.38178942484886
 30
0.0
 10
73.5900070114514
 20
-78.38178942484886
 30
0.0
 10
73.63477451030928
 20
-78.33698664708245
 30
0.0
 10
73.63477451030928
 20
-78.28188275820722
 30
0.0
  0
SPLINE
  5
6C
330
1F
100
AcDbEntity
  8
_U+30EC_U+30A4_U+30E4_U+30FC 1
 62
   179
420
  2234388
370
     9
100
AcDbSpline
210
0.0
220
0.0
230
1.0
 70
    11
 71
     3
 72
    17
 73
    13
 74
     0
 42
0.0000000001
 43
0.0000000001
 12
1.0
 22
0.0
 32
0.0
 13
1.0
 23
0.0
 33
0.0
 40
0.0
 40
0.0
 40
0.0
 40
0.0
 40
1.0
 40
1.0
 40
1.0
 40
2.0
 40
2.0
 40
2.0
 40
3.0
 40
3.0
 40
3.0
 40
4.0
 40
4.0
 40
4.0
 40
4.0
 10
48.63528375921054
 20
-78.28188275820722
 30
0.0
 10
48.63528375921054
 20
-78.22674359155447
 30
0.0
 10
48.59048098257578
 20
-78.18197609156559
 30
0.0
 10
48.53537709509271
 20
-78.18197609156559
 30
0.0
 10
48.48023792983275
 20
-78.18197609156559
 30
0.0
 10
48.43547043097487
 20
-78.22674359155447
 30
0.0
 10
48.43547043097487
 20
-78.28188275820722
 30
0.0
 10
48.43547043097487
 20
-78.33698664708245
 30
0.0
 10
48.48023792983275
 20
-78.38178942484886
 30
0.0
 10
48.53537709509271
 20
-78.38178942484886
 30
0.0
 10
48.59048098257578
 20
-78.38178942484886
 30
0.0
 10
48.63528375921054
 20
-78.33698664708245
 30
0.0
 10
48.63528375921054
 20
-78.28188275820722
 30
0.0
  0
SPLINE
  5
6D
330
1F
100
AcDbEntity
  8
_U+30EC_U+30A4_U+30E4_U+30FC 1
 62
   179
420
  2234388
370
     9
100
AcDbSpline
210
0.0
220
0.0
230
1.0
 70
    11
 71
     3
 72
    17
 73
    13
 74
     0
 42
0.0000000001
 43
0.0000000001
 12
1.0
 22
0.0
 32
0.0
 13
1.0
 23
0.0
 33
0.0
 40
0.0
 40
0.0
 40
0.0
 40
0.0
 40
1.0
 40
1.0
 40
1.0
 40
2.0
 40
2.0
 40
2.0
 40
3.0
 40
3.0
 40
3.0
 40
4.0
 40
4.0
 40
4.0
 40
4.0
 10
48.63528375921054
 20
-100.9819333080877
 30
0.0
 10
48.63528375921054
 20
-100.9268294192128
 30
0.0
 10
48.59048098257578
 20
-100.8820266414461
 30
0.0
 10
48.53537709509271
 20
-100.8820266414461
 30
0.0
 10
48.48023792983275
 20
-100.8820266414461
 30
0.0
 10
48.43547043097487
 20
-100.9268294192128
 30
0.0
 10
48.43547043097487
 20
-100.9819333080877
 30
0.0
 10
48.43547043097487
 20
-101.0370724747408
 30
0.0
 10
48.48023792983275
 20
-101.0818752525075
 30
0.0
 10
48.53537709509271
 20
-101.0818752525075
 30
0.0
 10
48.59048098257578
 20
-101.0818752525075
 30
0.0
 10
48.63528375921054
 20
-101.0370724747408
 30
0.0
 10
48.63528375921054
 20
-100.9819333080877
 30
0.0
  0
SPLINE
  5
6E
330
1F
100
AcDbEntity
  8
_U+30EC_U+30A4_U+30E4_U+30FC 1
 62
   179
420
  2234388
370
     9
100
AcDbSpline
210
0.0
220
0.0
230
1.0
 70
    11
 71
     3
 72
    17
 73
    13
 74
     0
 42
0.0000000001
 43
0.0000000001
 12
1.0
 22
0.0
 32
0.0
 13
1.0
 23
0.0
 33
0.0
 40
0.0
 40
0.0
 40
0.0
 40
0.0
 40
1.0
 40
1.0
 40
1.0
 40
2.0
 40
2.0
 40
2.0
 40
3.0
 40
3.0
 40
3.0
 40
4.0
 40
4.0
 40
4.0
 40
4.0
 10
58.63501655965166
 20
-100.9819333080877
 30
0.0
 10
58.63501655965166
 20
-100.9268294192128
 30
0.0
 10
58.59021378301689
 20
-100.8820266414461
 30
0.0
 10
58.53510989553382
 20
-100.8820266414461
 30
0.0
 10
58.47997220760239
 20
-100.8820266414461
 30
0.0
 10
58.43520323141599
 20
-100.9268294192128
 30
0.0
 10
58.43520323141599
 20
-100.9819333080877
 30
0.0
 10
58.43520323141599
 20
-101.0370724747408
 30
0.0
 10
58.47997220760239
 20
-101.0818752525075
 30
0.0
 10
58.53510989553382
 20
-101.0818752525075
 30
0.0
 10
58.59021378301689
 20
-101.0818752525075
 30
0.0
 10
58.63501655965166
 20
-101.0370724747408
 30
0.0
 10
58.63501655965166
 20
-100.9819333080877
 30
0.0
  0
SPLINE
  5
6F
330
1F
100
AcDbEntity
  8
_U+30EC_U+30A4_U+30E4_U+30FC 1
 62
   179
420
  2234388
370
     9
100
AcDbSpline
210
0.0
220
0.0
230
1.0
 70
    11
 71
     3
 72
    17
 73
    13
 74
     0
 42
0.0000000001
 43
0.0000000001
 12
1.0
 22
0.0
 32
0.0
 13
1.0
 23
0.0
 33
0.0
 40
0.0
 40
0.0
 40
0.0
 40
0.0
 40
1.0
 40
1.0
 40
1.0
 40
2.0
 40
2.0
 40
2.0
 40
3.0
 40
3.0
 40
3.0
 40
4.0
 40
4.0
 40
4.0
 40
4.0
 10
62.63477562427597
 20
-100.9819333080877
 30
0.0
 10
62.63477562427597
 20
-100.9268294192128
 30
0.0
 10
62.58997284764121
 20
-100.8820266414461
 30
0.0
 10
62.53486896015814
 20
-100.8820266414461
 30
0.0
 10
62.47972979489818
 20
-100.8820266414461
 30
0.0
 10
62.43496387328007
 20
-100.9268294192128
 30
0.0
 10
62.43496387328007
 20
-100.9819333080877
 30
0.0
 10
62.43496387328007
 20
-101.0370724747408
 30
0.0
 10
62.47972979489818
 20
-101.0818752525075
 30
0.0
 10
62.53486896015814
 20
-101.0818752525075
 30
0.0
 10
62.58997284764121
 20
-101.0818752525075
 30
0.0
 10
62.63477562427597
 20
-101.0370724747408
 30
0.0
 10
62.63477562427597
 20
-100.9819333080877
 30
0.0
  0
SPLINE
  5
70
330
1F
100
AcDbEntity
  8
_U+30EC_U+30A4_U+30E4_U+30FC 1
 62
   179
420
  2234388
370
     9
100
AcDbSpline
210
0.0
220
0.0
230
1.0
 70
    11
 71
     3
 72
    17
 73
    13
 74
     0
 42
0.0000000001
 43
0.0000000001
 12
1.0
 22
0.0
 32
0.0
 13
1.0
 23
0.0
 33
0.0
 40
0.0
 40
0.0
 40
0.0
 40
0.0
 40
1.0
 40
1.0
 40
1.0
 40
2.0
 40
2.0
 40
2.0
 40
3.0
 40
3.0
 40
3.0
 40
4.0
 40
4.0
 40
4.0
 40
4.0
 10
77.63523913047115
 20
-95.98243719822645
 30
0.0
 10
77.63523913047115
 20
-95.92662775379601
 30
0.0
 10
77.5904363538364
 20
-95.88182497602929
 30
0.0
 10
77.53462691081576
 20
-95.88182497602929
 30
0.0
 10
77.47952498063026
 20
-95.88182497602929
 30
0.0
 10
77.43472220286354
 20
-95.92662775379601
 30
0.0
 10
77.43472220286354
 20
-95.98243719822645
 30
0.0
 10
77.43472220286354
 20
-96.037541087102
 30
0.0
 10
77.47952498063026
 20
-96.08234386486808
 30
0.0
 10
77.53462691081576
 20
-96.08234386486808
 30
0.0
 10
77.5904363538364
 20
-96.08234386486808
 30
0.0
 10
77.63523913047115
 20
-96.037541087102
 30
0.0
 10
77.63523913047115
 20
-95.98243719822645
 30
0.0
  0
POLYLINE
  5
71
330
1F
100
AcDbEntity
  8
_U+30EC_U+30A4_U+30E4_U+30FC 1
 62
   179
420
  2234388
370
     9
100
AcDb2dPolyline
 66
     1
 10
0.0
 20
0.0
 30
0.0
  0
VERTEX
  5
72
330
71
100
AcDbEntity
  8
_U+30EC_U+30A4_U+30E4_U+30FC 1
 62
   179
420
  2234388
370
     9
100
AcDbVertex
100
AcDb2dVertex
 10
77.53462691081576
 20
-82.2816419238741
 30
0.0
  0
VERTEX
  5
73
330
71
100
AcDbEntity
  8
_U+30EC_U+30A4_U+30E4_U+30FC 1
 62
   179
420
  2234388
370
     9
100
AcDbVertex
100
AcDb2dVertex
 10
77.53462691081576
 20
-78.51132942481668
 30
0.0
  0
SEQEND
  5
74
330
71
100
AcDbEntity
  8
_U+30EC_U+30A4_U+30E4_U+30FC 1
 62
   179
420
  2234388
370
     9
  0
POLYLINE
  5
75
330
1F
100
AcDbEntity
  8
_U+30EC_U+30A4_U+30E4_U+30FC 1
 62
   179
420
  2234388
370
     9
100
AcDb2dPolyline
 66
     1
 10
0.0
 20
0.0
 30
0.0
  0
VERTEX
  5
76
330
75
100
AcDbEntity
  8
_U+30EC_U+30A4_U+30E4_U+30FC 1
 62
   179
420
  2234388
370
     9
100
AcDbVertex
100
AcDb2dVertex
 10
77.53462691081576
 20
-82.2816419238741
 30
0.0
  0
VERTEX
  5
77
330
75
100
AcDbEntity
  8
_U+30EC_U+30A4_U+30E4_U+30FC 1
 62
   179
420
  2234388
370
     9
100
AcDbVertex
100
AcDb2dVertex
 10
77.53462691081576
 20
-83.28137886806849
 30
0.0
  0
SEQEND
  5
78
330
75
100
AcDbEntity
  8
_U+30EC_U+30A4_U+30E4_U+30FC 1
 62
   179
420
  2234388
370
     9
  0
POLYLINE
  5
79
330
1F
100
AcDbEntity
  8
_U+30EC_U+30A4_U+30E4_U+30FC 1
 62
   179
420
  2234388
370
     9
100
AcDb2dPolyline
 66
     1
 10
0.0
 20
0.0
 30
0.0
  0
VERTEX
  5
7A
330
79
100
AcDbEntity
  8
_U+30EC_U+30A4_U+30E4_U+30FC 1
 62
   179
420
  2234388
370
     9
100
AcDbVertex
100
AcDb2dVertex
 10
76.07458555917563
 20
-82.2816419238741
 30
0.0
  0
VERTEX
  5
7B
330
79
100
AcDbEntity
  8
_U+30EC_U+30A4_U+30E4_U+30FC 1
 62
   179
420
  2234388
370
     9
100
AcDbVertex
100
AcDb2dVertex
 10
78.53506938529235
 20
-82.2816419238741
 30
0.0
  0
SEQEND
  5
7C
330
79
100
AcDbEntity
  8
_U+30EC_U+30A4_U+30E4_U+30FC 1
 62
   179
420
  2234388
370
     9
  0
POLYLINE
  5
7D
330
1F
100
AcDbEntity
  8
_U+30EC_U+30A4_U+30E4_U+30FC 1
 62
   179
420
  2234388
370
     9
100
AcDb2dPolyline
 66
     1
 10
0.0
 20
0.0
 30
0.0
  0
VERTEX
  5
7E
330
7D
100
AcDbEntity
  8
_U+30EC_U+30A4_U+30E4_U+30FC 1
 62
   179
420
  2234388
370
     9
100
AcDbVertex
100
AcDb2dVertex
 10
76.07458555917563
 20
-83.28137886806849
 30
0.0
  0
VERTEX
  5
7F
330
7D
100
AcDbEntity
  8
_U+30EC_U+30A4_U+30E4_U+30FC 1
 62
   179
420
  2234388
370
     9
100
AcDbVertex
100
AcDb2dVertex
 10
78.53506938529235
 20
-83.28137886806849
 30
0.0
  0
SEQEND
  5
80
330
7D
100
AcDbEntity
  8
_U+30EC_U+30A4_U+30E4_U+30FC 1
 62
   179
420
  2234388
370
     9
  0
INSERT
  5
82
330
1F
100
AcDbEntity
  8
_U+30EC_U+30A4_U+30E4_U+30FC 1
100
AcDbBlockReference
  2
block 2
 10
0.0
 20
0.0
 30
0.0
  0
POLYLINE
  5
87
330
1F
100
AcDbEntity
  8
_U+30EC_U+30A4_U+30E4_U+30FC 1
 62
   179
420
  2234388
370
     9
100
AcDb2dPolyline
 66
     1
 10
0.0
 20
0.0
 30
0.0
  0
VERTEX
  5
88
330
87
100
AcDbEntity
  8
_U+30EC_U+30A4_U+30E4_U+30FC 1
 62
   179
420
  2234388
370
     9
100
AcDbVertex
100
AcDb2dVertex
 10
48.53537709509271
 20
-78.28188275820722
 30
0.0
  0
VERTEX
  5
89
330
87
100
AcDbEntity
  8
_U+30EC_U+30A4_U+30E4_U+30FC 1
 62
   179
420
  2234388
370
     9
100
AcDbVertex
100
AcDb2dVertex
 10
73.53486784619145
 20
-78.28188275820722
 30
0.0
  0
SEQEND
  5
8A
330
87
100
AcDbEntity
  8
_U+30EC_U+30A4_U+30E4_U+30FC 1
 62
   179
420
  2234388
370
     9
  0
POLYLINE
  5
8B
330
1F
100
AcDbEntity
  8
_U+30EC_U+30A4_U+30E4_U+30FC 1
 62
   179
420
  2234388
370
     9
100
AcDb2dPolyline
 66
     1
 10
0.0
 20
0.0
 30
0.0
  0
VERTEX
  5
8C
330
8B
100
AcDbEntity
  8
_U+30EC_U+30A4_U+30E4_U+30FC 1
 62
   179
420
  2234388
370
     9
100
AcDbVertex
100
AcDb2dVertex
 10
48.53537709509271
 20
-79.74188886895341
 30
0.0
  0
VERTEX
  5
8D
330
8B
100
AcDbEntity
  8
_U+30EC_U+30A4_U+30E4_U+30FC 1
 62
   179
420
  2234388
370
     9
100
AcDbVertex
100
AcDb2dVertex
 10
48.53537709509271
 20
-77.2814049806798
 30
0.0
  0
SEQEND
  5
8E
330
8B
100
AcDbEntity
  8
_U+30EC_U+30A4_U+30E4_U+30FC 1
 62
   179
420
  2234388
370
     9
  0
POLYLINE
  5
8F
330
1F
100
AcDbEntity
  8
_U+30EC_U+30A4_U+30E4_U+30FC 1
 62
   179
420
  2234388
370
     9
100
AcDb2dPolyline
 66
     1
 10
0.0
 20
0.0
 30
0.0
  0
VERTEX
  5
90
330
8F
100
AcDbEntity
  8
_U+30EC_U+30A4_U+30E4_U+30FC 1
 62
   179
420
  2234388
370
     9
100
AcDbVertex
100
AcDb2dVertex
 10
73.53486784619145
 20
-79.74188886895341
 30
0.0
  0
VERTEX
  5
91
330
8F
100
AcDbEntity
  8
_U+30EC_U+30A4_U+30E4_U+30FC 1
 62
   179
420
  2234388
370
     9
100
AcDbVertex
100
AcDb2dVertex
 10
73.53486784619145
 20
-77.2814049806798
 30
0.0
  0
SEQEND
  5
92
330
8F
100
AcDbEntity
  8
_U+30EC_U+30A4_U+30E4_U+30FC 1
 62
   179
420
  2234388
370
     9
  0
INSERT
  5
94
330
1F
100
AcDbEntity
  8
_U+30EC_U+30A4_U+30E4_U+30FC 1
100
AcDbBlockReference
  2
block 3
 10
0.0
 20
0.0
 30
0.0
  0
POLYLINE
  5
9B
330
1F
100
AcDbEntity
  8
_U+30EC_U+30A4_U+30E4_U+30FC 1
 62
   179
420
  2234388
370
     9
100
AcDb2dPolyline
 66
     1
 10
0.0
 20
0.0
 30
0.0
  0
VERTEX
  5
9C
330
9B
100
AcDbEntity
  8
_U+30EC_U+30A4_U+30E4_U+30FC 1
 62
   179
420
  2234388
370
     9
100
AcDbVertex
100
AcDb2dVertex
 10
58.53510989553382
 20
-100.9819333080877
 30
0.0
  0
VERTEX
  5
9D
330
9B
100
AcDbEntity
  8
_U+30EC_U+30A4_U+30E4_U+30FC 1
 62
   179
420
  2234388
370
     9
100
AcDbVertex
100
AcDb2dVertex
 10
62.53486896015814
 20
-100.9819333080877
 30
0.0
  0
SEQEND
  5
9E
330
9B
100
AcDbEntity
  8
_U+30EC_U+30A4_U+30E4_U+30FC 1
 62
   179
420
  2234388
370
     9
  0
POLYLINE
  5
9F
330
1F
100
AcDbEntity
  8
_U+30EC_U+30A4_U+30E4_U+30FC 1
 62
   179
420
  2234388
370
     9
100
AcDb2dPolyline
 66
     1
 10
0.0
 20
0.0
 30
0.0
  0
VERTEX
  5
A0
330
9F
100
AcDbEntity
  8
_U+30EC_U+30A4_U+30E4_U+30FC 1
 62
   179
420
  2234388
370
     9
100
AcDbVertex
100
AcDb2dVertex
 10
58.53510989553382
 20
-99.52192719734153
 30
0.0
  0
VERTEX
  5
A1
330
9F
100
AcDbEntity
  8
_U+30EC_U+30A4_U+30E4_U+30FC 1
 62
   179
420
  2234388
370
     9
100
AcDbVertex
100
AcDb2dVertex
 10
58.53510989553382
 20
-101.9824110856158
 30
0.0
  0
SEQEND
  5
A2
330
9F
100
AcDbEntity
  8
_U+30EC_U+30A4_U+30E4_U+30FC 1
 62
   179
420
  2234388
370
     9
  0
POLYLINE
  5
A3
330
1F
100
AcDbEntity
  8
_U+30EC_U+30A4_U+30E4_U+30FC 1
 62
   179
420
  2234388
370
     9
100
AcDb2dPolyline
 66
     1
 10
0.0
 20
0.0
 30
0.0
  0
VERTEX
  5
A4
330
A3
100
AcDbEntity
  8
_U+30EC_U+30A4_U+30E4_U+30FC 1
 62
   179
420
  2234388
370
     9
100
AcDbVertex
100
AcDb2dVertex
 10
62.53486896015814
 20
-99.52192719734153
 30
0.0
  0
VERTEX
  5
A5
330
A3
100
AcDbEntity
  8
_U+30EC_U+30A4_U+30E4_U+30FC 1
 62
   179
420
  2234388
370
     9
100
AcDbVertex
100
AcDb2dVertex
 10
62.53486896015814
 20
-101.9824110856158
 30
0.0
  0
SEQEND
  5
A6
330
A3
100
AcDbEntity
  8
_U+30EC_U+30A4_U+30E4_U+30FC 1
 62
   179
420
  2234388
370
     9
  0
INSERT
  5
A8
330
1F
100
AcDbEntity
  8
_U+30EC_U+30A4_U+30E4_U+30FC 1
100
AcDbBlockReference
  2
block 4
 10
0.0
 20
0.0
 30
0.0
  0
POLYLINE
  5
C0
330
1F
100
AcDbEntity
  8
_U+30EC_U+30A4_U+30E4_U+30FC 1
 62
   179
420
  2234388
370
     9
100
AcDb2dPolyline
 66
     1
 10
0.0
 20
0.0
 30
0.0
  0
VERTEX
  5
C1
330
C0
100
AcDbEntity
  8
_U+30EC_U+30A4_U+30E4_U+30FC 1
 62
   179
420
  2234388
370
     9
100
AcDbVertex
100
AcDb2dVertex
 10
58.53510989553382
 20
-100.9819333080877
 30
0.0
  0
VERTEX
  5
C2
330
C0
100
AcDbEntity
  8
_U+30EC_U+30A4_U+30E4_U+30FC 1
 62
   179
420
  2234388
370
     9
100
AcDbVertex
100
AcDb2dVertex
 10
48.53537709509271
 20
-100.9819333080877
 30
0.0
  0
SEQEND
  5
C3
330
C0
100
AcDbEntity
  8
_U+30EC_U+30A4_U+30E4_U+30FC 1
 62
   179
420
  2234388
370
     9
  0
POLYLINE
  5
C4
330
1F
100
AcDbEntity
  8
_U+30EC_U+30A4_U+30E4_U+30FC 1
 62
   179
420
  2234388
370
     9
100
AcDb2dPolyline
 66
     1
 10
0.0
 20
0.0
 30
0.0
  0
VERTEX
  5
C5
330
C4
100
AcDbEntity
  8
_U+30EC_U+30A4_U+30E4_U+30FC 1
 62
   179
420
  2234388
370
     9
100
AcDbVertex
100
AcDb2dVertex
 10
48.53537709509271
 20
-85.82215497854462
 30
0.0
  0
VERTEX
  5
C6
330
C4
100
AcDbEntity
  8
_U+30EC_U+30A4_U+30E4_U+30FC 1
 62
   179
420
  2234388
370
     9
100
AcDbVertex
100
AcDb2dVertex
 10
48.53537709509271
 20
-101.9824110856158
 30
0.0
  0
SEQEND
  5
C7
330
C4
100
AcDbEntity
  8
_U+30EC_U+30A4_U+30E4_U+30FC 1
 62
   179
420
  2234388
370
     9
  0
INSERT
  5
C9
330
1F
100
AcDbEntity
  8
_U+30EC_U+30A4_U+30E4_U+30FC 1
100
AcDbBlockReference
  2
block 5
 10
0.0
 20
0.0
 30
0.0
  0
POLYLINE
  5
D1
330
1F
100
AcDbEntity
  8
_U+30EC_U+30A4_U+30E4_U+30FC 1
 62
   179
420
  2234388
370
     9
100
AcDb2dPolyline
 66
     1
 10
0.0
 20
0.0
 30
0.0
  0
VERTEX
  5
D2
330
D1
100
AcDbEntity
  8
_U+30EC_U+30A4_U+30E4_U+30FC 1
 62
   179
420
  2234388
370
     9
100
AcDbVertex
100
AcDb2dVertex
 10
77.53462691081576
 20
-83.28137886806849
 30
0.0
  0
VERTEX
  5
D3
330
D1
100
AcDbEntity
  8
_U+30EC_U+30A4_U+30E4_U+30FC 1
 62
   179
420
  2234388
370
     9
100
AcDbVertex
100
AcDb2dVertex
 10
77.53462691081576
 20
-95.98243719822645
 30
0.0
  0
SEQEND
  5
D4
330
D1
100
AcDbEntity
  8
_U+30EC_U+30A4_U+30E4_U+30FC 1
 62
   179
420
  2234388
370
     9
  0
POLYLINE
  5
D5
330
1F
100
AcDbEntity
  8
_U+30EC_U+30A4_U+30E4_U+30FC 1
 62
   179
420
  2234388
370
     9
100
AcDb2dPolyline
 66
     1
 10
0.0
 20
0.0
 30
0.0
  0
VERTEX
  5
D6
330
D5
100
AcDbEntity
  8
_U+30EC_U+30A4_U+30E4_U+30FC 1
 62
   179
420
  2234388
370
     9
100
AcDbVertex
100
AcDb2dVertex
 10
65.0750805620186
 20
-95.98243719822645
 30
0.0
  0
VERTEX
  5
D7
330
D5
100
AcDbEntity
  8
_U+30EC_U+30A4_U+30E4_U+30FC 1
 62
   179
420
  2234388
370
     9
100
AcDbVertex
100
AcDb2dVertex
 10
78.53506938529235
 20
-95.98243719822645
 30
0.0
  0
SEQEND
  5
D8
330
D5
100
AcDbEntity
  8
_U+30EC_U+30A4_U+30E4_U+30FC 1
 62
   179
420
  2234388
370
     9
  0
INSERT
  5
DA
330
1F
100
AcDbEntity
  8
_U+30EC_U+30A4_U+30E4_U+30FC 1
100
AcDbBlockReference
  2
block 6
 10
0.0
 20
0.0
 30
0.0
  0
ENDSEC
  0
SECTION
  2
OBJECTS
  0
DICTIONARY
  5
C
330
0
100
AcDbDictionary
281
     1
  3
ACAD_GROUP
350
D
  3
ACAD_LAYOUT
350
1A
  3
ACAD_MATERIAL
350
3B
  3
ACAD_MLEADERSTYLE
350
EC
  3
ACAD_MLINESTYLE
350
17
  3
ACAD_PLOTSETTINGS
350
19
  3
ACAD_PLOTSTYLENAME
350
E
  3
ACAD_TABLESTYLE
350
EB
  3
ACAD_VISUALSTYLE
350
2A
  0
SUN
  5
3F
330
29
100
AcDbSun
 90
        1
290
     0
 63
     7
421
 16777215
 40
1.0
291
     1
 91
  2455826
 92
 54000000
292
     0
 70
     2
 71
   256
280
     1
  0
DICTIONARY
  5
D
102
{ACAD_REACTORS
330
C
102
}
330
C
100
AcDbDictionary
281
     1
  0
DICTIONARY
  5
1A
102
{ACAD_REACTORS
330
C
102
}
330
C
100
AcDbDictionary
281
     1
  3
Layout1
350
1E
  3
Layout2
350
26
  3
Model
350
22
  0
DICTIONARY
  5
3B
102
{ACAD_REACTORS
330
C
102
}
330
C
100
AcDbDictionary
281
     1
  3
ByBlock
350
3D
  3
ByLayer
350
3C
  3
Global
350
3E
  0
DICTIONARY
  5
EC
102
{ACAD_REACTORS
330
C
102
}
330
C
100
AcDbDictionary
281
     1
  0
DICTIONARY
  5
17
102
{ACAD_REACTORS
330
C
102
}
330
C
100
AcDbDictionary
281
     1
  3
Standard
350
18
  0
DICTIONARY
  5
19
102
{ACAD_REACTORS
330
C
102
}
330
C
100
AcDbDictionary
281
     1
  0
ACDBDICTIONARYWDFLT
  5
E
102
{ACAD_REACTORS
330
C
102
}
330
C
100
AcDbDictionary
281
     1
  3
Normal
350
F
100
AcDbDictionaryWithDefault
340
F
  0
DICTIONARY
  5
EB
102
{ACAD_REACTORS
330
C
102
}
330
C
100
AcDbDictionary
281
     1
  0
DICTIONARY
  5
2A
102
{ACAD_REACTORS
330
C
102
}
330
C
100
AcDbDictionary
281
     1
  3
2dWireframe
350
2F
  3
3D Hidden
350
31
  3
3dWireframe
350
30
  3
Basic
350
32
  3
Brighten
350
36
  3
ColorChange
350
3A
  3
Conceptual
350
34
  3
Dim
350
35
  3
Facepattern
350
39
  3
Flat
350
2B
  3
FlatWithEdges
350
2C
  3
Gouraud
350
2D
  3
GouraudWithEdges
350
2E
  3
Linepattern
350
38
  3
Realistic
350
33
  3
Thicken
350
37
  0
LAYOUT
  5
1E
102
{ACAD_REACTORS
330
1A
102
}
330
1A
100
AcDbPlotSettings
  1

  2
none_device
  4

  6

 40
0.0
 41
0.0
 42
0.0
 43
0.0
 44
0.0
 45
0.0
 46
0.0
 47
0.0
 48
0.0
 49
0.0
140
0.0
141
0.0
142
1.0
143
1.0
 70
   688
 72
     0
 73
     0
 74
     5
  7

 75
    16
 76
     0
 77
     2
 78
   300
147
1.0
148
0.0
149
0.0
100
AcDbLayout
  1
Layout1
 70
     1
 71
     1
 10
0.0
 20
0.0
 11
12.0
 21
9.0
 12
0.0
 22
0.0
 32
0.0
 14
1.000000000000000E+20
 24
1.000000000000000E+20
 34
1.000000000000000E+20
 15
-1.000000000000000E+20
 25
-1.000000000000000E+20
 35
-1.000000000000000E+20
146
0.0
 13
0.0
 23
0.0
 33
0.0
 16
1.0
 26
0.0
 36
0.0
 17
0.0
 27
1.0
 37
0.0
 76
     0
330
1B
  0
LAYOUT
  5
26
102
{ACAD_REACTORS
330
1A
102
}
330
1A
100
AcDbPlotSettings
  1

  2
none_device
  4

  6

 40
0.0
 41
0.0
 42
0.0
 43
0.0
 44
0.0
 45
0.0
 46
0.0
 47
0.0
 48
0.0
 49
0.0
140
0.0
141
0.0
142
1.0
143
1.0
 70
   688
 72
     0
 73
     0
 74
     5
  7

 75
    16
 76
     0
 77
     2
 78
   300
147
1.0
148
0.0
149
0.0
100
AcDbLayout
  1
Layout2
 70
     1
 71
     2
 10
0.0
 20
0.0
 11
0.0
 21
0.0
 12
0.0
 22
0.0
 32
0.0
 14
0.0
 24
0.0
 34
0.0
 15
0.0
 25
0.0
 35
0.0
146
0.0
 13
0.0
 23
0.0
 33
0.0
 16
1.0
 26
0.0
 36
0.0
 17
0.0
 27
1.0
 37
0.0
 76
     0
330
23
  0
LAYOUT
  5
22
102
{ACAD_REACTORS
330
1A
102
}
330
1A
100
AcDbPlotSettings
  1

  2
none_device
  4

  6

 40
0.0
 41
0.0
 42
0.0
 43
0.0
 44
0.0
 45
0.0
 46
0.0
 47
0.0
 48
0.0
 49
0.0
140
0.0
141
0.0
142
1.0
143
1.0
 70
  1712
 72
     0
 73
     0
 74
     0
  7

 75
     0
 76
     0
 77
     2
 78
   300
147
1.0
148
0.0
149
0.0
100
AcDbLayout
  1
Model
 70
     1
 71
     0
 10
0.0
 20
0.0
 11
12.0
 21
9.0
 12
0.0
 22
0.0
 32
0.0
 14
1.000000000000000E+20
 24
1.000000000000000E+20
 34
1.000000000000000E+20
 15
-1.000000000000000E+20
 25
-1.000000000000000E+20
 35
-1.000000000000000E+20
146
0.0
 13
0.0
 23
0.0
 33
0.0
 16
1.0
 26
0.0
 36
0.0
 17
0.0
 27
1.0
 37
0.0
 76
     0
330
1F
331
29
  0
MATERIAL
  5
3D
102
{ACAD_REACTORS
330
3B
102
}
330
3B
100
AcDbMaterial
  1
ByBlock
 72
     1
 94
      127
  0
MATERIAL
  5
3C
102
{ACAD_REACTORS
330
3B
102
}
330
3B
100
AcDbMaterial
  1
ByLayer
 72
     1
 94
      127
  0
MATERIAL
  5
3E
102
{ACAD_REACTORS
330
3B
102
}
330
3B
100
AcDbMaterial
  1
Global
 72
     1
 94
      127
  0
MLINESTYLE
  5
18
102
{ACAD_REACTORS
330
17
102
}
330
17
100
AcDbMlineStyle
  2
Standard
 70
     0
  3

 62
   256
 51
90.0
 52
90.0
 71
     2
 49
0.5
 62
   256
  6
BYLAYER
 49
-0.5
 62
   256
  6
BYLAYER
  0
ACDBPLACEHOLDER
  5
F
102
{ACAD_REACTORS
330
E
102
}
330
E
  0
VISUALSTYLE
  5
2F
102
{ACAD_REACTORS
330
2A
102
}
330
2A
100
AcDbVisualStyle
  2
2dWireframe
 70
     4
177
     2
291
     0
 71
     0
176
     1
 72
     2
176
     1
 73
     0
176
     1
 90
        0
176
     1
 40
-0.6
176
     1
 41
-30.0
176
     1
 62
     5
 63
     7
421
 16777215
176
     1
 74
     1
176
     1
 91
        4
176
     1
 64
     7
176
     1
 65
   257
176
     1
 75
     1
176
     1
175
     1
176
     1
 42
1.0
176
     1
 92
        0
176
     1
 66
   257
176
     1
 43
1.0
176
     1
 76
     1
176
     1
 77
     6
176
     1
 78
     2
176
     1
 67
     7
176
     1
 79
     5
176
     1
170
     0
176
     1
171
     0
176
     1
290
     0
176
     1
 93
        1
176
     1
 44
0.0
176
     1
173
     0
176
     1
  0
VISUALSTYLE
  5
31
102
{ACAD_REACTORS
330
2A
102
}
330
2A
100
AcDbVisualStyle
  2
3D Hidden
 70
     6
177
     2
291
     0
 71
     1
176
     1
 72
     2
176
     1
 73
     2
176
     1
 90
        0
176
     1
 40
-0.6
176
     1
 41
-30.0
176
     1
 62
     5
 63
     7
421
 16777215
176
     1
 74
     2
176
     1
 91
        2
176
     1
 64
     7
176
     1
 65
   257
176
     1
 75
     2
176
     1
175
     1
176
     1
 42
40.0
176
     1
 92
        0
176
     1
 66
   257
176
     1
 43
1.0
176
     1
 76
     1
176
     1
 77
     6
176
     1
 78
     2
176
     1
 67
     7
176
     1
 79
     3
176
     1
170
     0
176
     1
171
     0
176
     1
290
     0
176
     1
 93
        1
176
     1
 44
0.0
176
     1
173
     0
176
     1
  0
VISUALSTYLE
  5
30
102
{ACAD_REACTORS
330
2A
102
}
330
2A
100
AcDbVisualStyle
  2
3dWireframe
 70
     5
177
     2
291
     0
 71
     0
176
     1
 72
     2
176
     1
 73
     0
176
     1
 90
        0
176
     1
 40
-0.6
176
     1
 41
-30.0
176
     1
 62
     5
 63
     7
421
 16777215
176
     1
 74
     1
176
     1
 91
        4
176
     1
 64
     7
176
     1
 65
   257
176
     1
 75
     1
176
     1
175
     1
176
     1
 42
1.0
176
     1
 92
        0
176
     1
 66
   257
176
     1
 43
1.0
176
     1
 76
     1
176
     1
 77
     6
176
     1
 78
     2
176
     1
 67
     7
176
     1
 79
     5
176
     1
170
     0
176
     1
171
     0
176
     1
290
     0
176
     1
 93
        1
176
     1
 44
0.0
176
     1
173
     0
176
     1
  0
VISUALSTYLE
  5
32
102
{ACAD_REACTORS
330
2A
102
}
330
2A
100
AcDbVisualStyle
  2
Basic
 70
     7
177
     2
291
     1
 71
     1
176
     1
 72
     0
176
     1
 73
     1
176
     1
 90
        0
176
     1
 40
-0.6
176
     1
 41
-30.0
176
     1
 62
     5
 63
     7
421
 16777215
176
     1
 74
     0
176
     1
 91
        4
176
     1
 64
     7
176
     1
 65
   257
176
     1
 75
     1
176
     1
175
     1
176
     1
 42
1.0
176
     1
 92
        8
176
     1
 66
     7
176
     1
 43
1.0
176
     1
 76
     1
176
     1
 77
     6
176
     1
 78
     2
176
     1
 67
     7
176
     1
 79
     5
176
     1
170
     0
176
     1
171
     0
176
     1
290
     0
176
     1
 93
        1
176
     1
 44
0.0
176
     1
173
     0
176
     1
  0
VISUALSTYLE
  5
36
102
{ACAD_REACTORS
330
2A
102
}
330
2A
100
AcDbVisualStyle
  2
Brighten
 70
    12
177
     2
291
     1
 71
     2
176
     1
 72
     2
176
     1
 73
     0
176
     1
 90
        0
176
     1
 40
-0.6
176
     1
 41
-30.0
176
     1
 62
     5
 63
     7
421
 16777215
176
     1
 74
     1
176
     1
 91
        4
176
     1
 64
     7
176
     1
 65
   257
176
     1
 75
     1
176
     1
175
     1
176
     1
 42
1.0
176
     1
 92
        8
176
     1
 66
     7
176
     1
 43
1.0
176
     1
 76
     1
176
     1
 77
     6
176
     1
 78
     2
176
     1
 67
     7
176
     1
 79
     5
176
     1
170
     0
176
     1
171
     0
176
     1
290
     0
176
     1
 93
        1
176
     1
 44
50.0
176
     1
173
     0
176
     1
  0
VISUALSTYLE
  5
3A
102
{ACAD_REACTORS
330
2A
102
}
330
2A
100
AcDbVisualStyle
  2
ColorChange
 70
    16
177
     2
291
     1
 71
     2
176
     1
 72
     2
176
     1
 73
     3
176
     1
 90
        0
176
     1
 40
-0.6
176
     1
 41
-30.0
176
     1
 62
     5
 63
     8
421
  8421504
176
     1
 74
     1
176
     1
 91
        4
176
     1
 64
     7
176
     1
 65
   257
176
     1
 75
     1
176
     1
175
     1
176
     1
 42
1.0
176
     1
 92
        8
176
     1
 66
     8
424
  8421504
176
     1
 43
1.0
176
     1
 76
     1
176
     1
 77
     6
176
     1
 78
     2
176
     1
 67
     7
176
     1
 79
     5
176
     1
170
     0
176
     1
171
     0
176
     1
290
     0
176
     1
 93
        1
176
     1
 44
0.0
176
     1
173
     0
176
     1
  0
VISUALSTYLE
  5
34
102
{ACAD_REACTORS
330
2A
102
}
330
2A
100
AcDbVisualStyle
  2
Conceptual
 70
     9
177
     2
291
     0
 71
     3
176
     1
 72
     2
176
     1
 73
     0
176
     1
 90
        0
176
     1
 40
-0.6
176
     1
 41
-30.0
176
     1
 62
     5
 63
     7
421
 16777215
176
     1
 74
     2
176
     1
 91
        2
176
     1
 64
     7
176
     1
 65
   257
176
     1
 75
     1
176
     1
175
     1
176
     1
 42
40.0
176
     1
 92
        8
176
     1
 66
     7
176
     1
 43
1.0
176
     1
 76
     1
176
     1
 77
     6
176
     1
 78
     2
176
     1
 67
     7
176
     1
 79
     3
176
     1
170
     0
176
     1
171
     0
176
     1
290
     0
176
     1
 93
        1
176
     1
 44
0.0
176
     1
173
     0
176
     1
  0
VISUALSTYLE
  5
35
102
{ACAD_REACTORS
330
2A
102
}
330
2A
100
AcDbVisualStyle
  2
Dim
 70
    11
177
     2
291
     1
 71
     2
176
     1
 72
     2
176
     1
 73
     0
176
     1
 90
        0
176
     1
 40
-0.6
176
     1
 41
-30.0
176
     1
 62
     5
 63
     7
421
 16777215
176
     1
 74
     1
176
     1
 91
        4
176
     1
 64
     7
176
     1
 65
   257
176
     1
 75
     1
176
     1
175
     1
176
     1
 42
1.0
176
     1
 92
        8
176
     1
 66
     7
176
     1
 43
1.0
176
     1
 76
     1
176
     1
 77
     6
176
     1
 78
     2
176
     1
 67
     7
176
     1
 79
     5
176
     1
170
     0
176
     1
171
     0
176
     1
290
     0
176
     1
 93
        1
176
     1
 44
-50.0
176
     1
173
     0
176
     1
  0
VISUALSTYLE
  5
39
102
{ACAD_REACTORS
330
2A
102
}
330
2A
100
AcDbVisualStyle
  2
Facepattern
 70
    15
177
     2
291
     1
 71
     2
176
     1
 72
     2
176
     1
 73
     0
176
     1
 90
        0
176
     1
 40
-0.6
176
     1
 41
-30.0
176
     1
 62
     5
 63
     7
421
 16777215
176
     1
 74
     1
176
     1
 91
        4
176
     1
 64
     7
176
     1
 65
   257
176
     1
 75
     1
176
     1
175
     1
176
     1
 42
1.0
176
     1
 92
        8
176
     1
 66
     7
176
     1
 43
1.0
176
     1
 76
     1
176
     1
 77
     6
176
     1
 78
     2
176
     1
 67
     7
176
     1
 79
     5
176
     1
170
     0
176
     1
171
     0
176
     1
290
     0
176
     1
 93
        1
176
     1
 44
0.0
176
     1
173
     0
176
     1
  0
VISUALSTYLE
  5
2B
102
{ACAD_REACTORS
330
2A
102
}
330
2A
100
AcDbVisualStyle
  2
Flat
 70
     0
177
     2
291
     1
 71
     2
176
     1
 72
     1
176
     1
 73
     1
176
     1
 90
        2
176
     1
 40
-0.6
176
     1
 41
30.0
176
     1
 62
     5
 63
     7
421
 16777215
176
     1
 74
     0
176
     1
 91
        4
176
     1
 64
     7
176
     1
 65
   257
176
     1
 75
     1
176
     1
175
     1
176
     1
 42
1.0
176
     1
 92
        8
176
     1
 66
     7
176
     1
 43
1.0
176
     1
 76
     1
176
     1
 77
     6
176
     1
 78
     2
176
     1
 67
     7
176
     1
 79
     5
176
     1
170
     0
176
     1
171
     0
176
     1
290
     0
176
     1
 93
       13
176
     1
 44
0.0
176
     1
173
     0
176
     1
  0
VISUALSTYLE
  5
2C
102
{ACAD_REACTORS
330
2A
102
}
330
2A
100
AcDbVisualStyle
  2
FlatWithEdges
 70
     1
177
     2
291
     1
 71
     2
176
     1
 72
     1
176
     1
 73
     1
176
     1
 90
        2
176
     1
 40
-0.6
176
     1
 41
30.0
176
     1
 62
     5
 63
     7
421
 16777215
176
     1
 74
     1
176
     1
 91
        4
176
     1
 64
     7
176
     1
 65
   257
176
     1
 75
     1
176
     1
175
     1
176
     1
 42
1.0
176
     1
 92
        0
176
     1
 66
   257
176
     1
 43
1.0
176
     1
 76
     1
176
     1
 77
     6
176
     1
 78
     2
176
     1
 67
     7
176
     1
 79
     5
176
     1
170
     0
176
     1
171
     0
176
     1
290
     0
176
     1
 93
       13
176
     1
 44
0.0
176
     1
173
     0
176
     1
  0
VISUALSTYLE
  5
2D
102
{ACAD_REACTORS
330
2A
102
}
330
2A
100
AcDbVisualStyle
  2
Gouraud
 70
     2
177
     2
291
     1
 71
     2
176
     1
 72
     2
176
     1
 73
     1
176
     1
 90
        2
176
     1
 40
-0.6
176
     1
 41
30.0
176
     1
 62
     5
 63
     7
421
 16777215
176
     1
 74
     0
176
     1
 91
        4
176
     1
 64
     7
176
     1
 65
   257
176
     1
 75
     1
176
     1
175
     1
176
     1
 42
1.0
176
     1
 92
        0
176
     1
 66
     7
176
     1
 43
1.0
176
     1
 76
     1
176
     1
 77
     6
176
     1
 78
     2
176
     1
 67
     7
176
     1
 79
     5
176
     1
170
     0
176
     1
171
     0
176
     1
290
     0
176
     1
 93
       13
176
     1
 44
0.0
176
     1
173
     0
176
     1
  0
VISUALSTYLE
  5
2E
102
{ACAD_REACTORS
330
2A
102
}
330
2A
100
AcDbVisualStyle
  2
GouraudWithEdges
 70
     3
177
     2
291
     1
 71
     2
176
     1
 72
     2
176
     1
 73
     1
176
     1
 90
        2
176
     1
 40
-0.6
176
     1
 41
30.0
176
     1
 62
     5
 63
     7
421
 16777215
176
     1
 74
     1
176
     1
 91
        4
176
     1
 64
     7
176
     1
 65
   257
176
     1
 75
     1
176
     1
175
     1
176
     1
 42
1.0
176
     1
 92
        0
176
     1
 66
   257
176
     1
 43
1.0
176
     1
 76
     1
176
     1
 77
     6
176
     1
 78
     2
176
     1
 67
     7
176
     1
 79
     5
176
     1
170
     0
176
     1
171
     0
176
     1
290
     0
176
     1
 93
       13
176
     1
 44
0.0
176
     1
173
     0
176
     1
  0
VISUALSTYLE
  5
38
102
{ACAD_REACTORS
330
2A
102
}
330
2A
100
AcDbVisualStyle
  2
Linepattern
 70
    14
177
     2
291
     1
 71
     2
176
     1
 72
     2
176
     1
 73
     0
176
     1
 90
        0
176
     1
 40
-0.6
176
     1
 41
-30.0
176
     1
 62
     5
 63
     7
421
 16777215
176
     1
 74
     1
176
     1
 91
        4
176
     1
 64
     7
176
     1
 65
   257
176
     1
 75
     7
176
     1
175
     7
176
     1
 42
1.0
176
     1
 92
        8
176
     1
 66
     7
176
     1
 43
1.0
176
     1
 76
     1
176
     1
 77
     6
176
     1
 78
     2
176
     1
 67
     7
176
     1
 79
     5
176
     1
170
     0
176
     1
171
     0
176
     1
290
     0
176
     1
 93
        1
176
     1
 44
0.0
176
     1
173
     0
176
     1
  0
VISUALSTYLE
  5
33
102
{ACAD_REACTORS
330
2A
102
}
330
2A
100
AcDbVisualStyle
  2
Realistic
 70
     8
177
     2
291
     0
 71
     2
176
     1
 72
     2
176
     1
 73
     0
176
     1
 90
        0
176
     1
 40
-0.6
176
     1
 41
-30.0
176
     1
 62
     5
 63
     7
421
 16777215
176
     1
 74
     1
176
     1
 91
        0
176
     1
 64
     7
176
     1
 65
   257
176
     1
 75
     1
176
     1
175
     1
176
     1
 42
1.0
176
     1
 92
        8
176
     1
 66
     8
424
  7895160
176
     1
 43
1.0
176
     1
 76
     1
176
     1
 77
     6
176
     1
 78
     2
176
     1
 67
     7
176
     1
 79
     5
176
     1
170
     0
176
     1
171
     0
176
     1
290
     0
176
     1
 93
       13
176
     1
 44
0.0
176
     1
173
     0
176
     1
  0
VISUALSTYLE
  5
37
102
{ACAD_REACTORS
330
2A
102
}
330
2A
100
AcDbVisualStyle
  2
Thicken
 70
    13
177
     2
291
     1
 71
     2
176
     1
 72
     2
176
     1
 73
     0
176
     1
 90
        0
176
     1
 40
-0.6
176
     1
 41
-30.0
176
     1
 62
     5
 63
     7
421
 16777215
176
     1
 74
     1
176
     1
 91
        4
176
     1
 64
     7
176
     1
 65
   257
176
     1
 75
     1
176
     1
175
     1
176
     1
 42
1.0
176
     1
 92
       12
176
     1
 66
     7
176
     1
 43
1.0
176
     1
 76
     1
176
     1
 77
     6
176
     1
 78
     2
176
     1
 67
     7
176
     1
 79
     5
176
     1
170
     0
176
     1
171
     0
176
     1
290
     0
176
     1
 93
        1
176
     1
 44
0.0
176
     1
173
     0
176
     1
  0
ENDSEC
  0
EOF
