  0
SECTION
  2
HEADER
  9
$ACADVER
  1
AC1024
  9
$ACADMAINTVER
 70
     6
  9
$DWGCODEPAGE
  3
UNDEFINED
  9
$INSBASE
 10
0.0
 20
0.0
 30
0.0
  9
$EXTMIN
 10
1.000000000000000E+20
 20
1.000000000000000E+20
 30
1.000000000000000E+20
  9
$EXTMAX
 10
-1.000000000000000E+20
 20
-1.000000000000000E+20
 30
-1.000000000000000E+20
  9
$LIMMIN
 10
0.0
 20
0.0
  9
$LIMMAX
 10
12.0
 20
9.0
  9
$ORTHOMODE
 70
     0
  9
$REGENMODE
 70
     1
  9
$FILLMODE
 70
     1
  9
$QTEXTMODE
 70
     0
  9
$MIRRTEXT
 70
     1
  9
$LTSCALE
 40
1.0
  9
$ATTMODE
 70
     1
  9
$TEXTSIZE
 40
0.2
  9
$TRACEWID
 40
0.05
  9
$TEXTSTYLE
  7
Standard
  9
$CLAYER
  8
0
  9
$CELTYPE
  6
ByLayer
  9
$CECOLOR
 62
   256
  9
$CELTSCALE
 40
1.0
  9
$DISPSILH
 70
     0
  9
$DIMSCALE
 40
1.0
  9
$DIMASZ
 40
0.18
  9
$DIMEXO
 40
0.0625
  9
$DIMDLI
 40
0.38
  9
$DIMRND
 40
0.0
  9
$DIMDLE
 40
0.0
  9
$DIMEXE
 40
0.18
  9
$DIMTP
 40
0.0
  9
$DIMTM
 40
0.0
  9
$DIMTXT
 40
0.18
  9
$DIMCEN
 40
0.09
  9
$DIMTSZ
 40
0.0
  9
$DIMTOL
 70
     0
  9
$DIMLIM
 70
     0
  9
$DIMTIH
 70
     1
  9
$DIMTOH
 70
     1
  9
$DIMSE1
 70
     0
  9
$DIMSE2
 70
     0
  9
$DIMTAD
 70
     0
  9
$DIMZIN
 70
     0
  9
$DIMBLK
  1

  9
$DIMASO
 70
     1
  9
$DIMSHO
 70
     1
  9
$DIMPOST
  1

  9
$DIMAPOST
  1

  9
$DIMALT
 70
     0
  9
$DIMALTD
 70
     2
  9
$DIMALTF
 40
25.4
  9
$DIMLFAC
 40
1.0
  9
$DIMTOFL
 70
     0
  9
$DIMTVP
 40
0.0
  9
$DIMTIX
 70
     0
  9
$DIMSOXD
 70
     0
  9
$DIMSAH
 70
     0
  9
$DIMBLK1
  1

  9
$DIMBLK2
  1

  9
$DIMSTYLE
  2
Standard
  9
$DIMCLRD
 70
     0
  9
$DIMCLRE
 70
     0
  9
$DIMCLRT
 70
     0
  9
$DIMTFAC
 40
1.0
  9
$DIMGAP
 40
0.09
  9
$DIMJUST
 70
     0
  9
$DIMSD1
 70
     0
  9
$DIMSD2
 70
     0
  9
$DIMTOLJ
 70
     1
  9
$DIMTZIN
 70
     0
  9
$DIMALTZ
 70
     0
  9
$DIMALTTZ
 70
     0
  9
$DIMUPT
 70
     0
  9
$DIMDEC
 70
     4
  9
$DIMTDEC
 70
     4
  9
$DIMALTU
 70
     2
  9
$DIMALTTD
 70
     2
  9
$DIMTXSTY
  7
Standard
  9
$DIMAUNIT
 70
     0
  9
$DIMADEC
 70
     0
  9
$DIMALTRND
 40
0.0
  9
$DIMAZIN
 70
     0
  9
$DIMDSEP
 70
    46
  9
$DIMATFIT
 70
     3
  9
$DIMFRAC
 70
     0
  9
$DIMLDRBLK
  1

  9
$DIMLUNIT
 70
     2
  9
$DIMLWD
 70
    -2
  9
$DIMLWE
 70
    -2
  9
$DIMTMOVE
 70
     0
  9
$DIMFXL
 40
1.0
  9
$DIMFXLON
 70
     0
  9
$DIMJOGANG
 40
0.7853981633974483
  9
$DIMTFILL
 70
     0
  9
$DIMTFILLCLR
 70
     0
  9
$DIMARCSYM
 70
     0
  9
$DIMLTYPE
  6

  9
$DIMLTEX1
  6

  9
$DIMLTEX2
  6

  9
$DIMTXTDIRECTION
 70
     0
  9
$LUNITS
 70
     2
  9
$LUPREC
 70
     4
  9
$SKETCHINC
 40
0.1
  9
$FILLETRAD
 40
0.5
  9
$AUNITS
 70
     0
  9
$AUPREC
 70
     0
  9
$MENU
  1
.
  9
$ELEVATION
 40
0.0
  9
$PELEVATION
 40
0.0
  9
$THICKNESS
 40
0.0
  9
$LIMCHECK
 70
     0
  9
$CHAMFERA
 40
0.5
  9
$CHAMFERB
 40
0.5
  9
$CHAMFERC
 40
1.0
  9
$CHAMFERD
 40
0.0
  9
$SKPOLY
 70
     0
  9
$TDCREATE
 40
2457917.58653934
  9
$TDUCREATE
 40
2457917.211539352
  9
$TDUPDATE
 40
2457917.58653934
  9
$TDUUPDATE
 40
2457917.211539352
  9
$TDINDWG
 40
0.0000000116
  9
$TDUSRTIMER
 40
0.0000000116
  9
$USRTIMER
 70
     1
  9
$ANGBASE
 50
0.0
  9
$ANGDIR
 70
     0
  9
$PDMODE
 70
     0
  9
$PDSIZE
 40
0.0
  9
$PLINEWID
 40
0.0
  9
$SPLFRAME
 70
     0
  9
$SPLINETYPE
 70
     6
  9
$SPLINESEGS
 70
     8
  9
$HANDSEED
  5
EC
  9
$SURFTAB1
 70
     6
  9
$SURFTAB2
 70
     6
  9
$SURFTYPE
 70
     6
  9
$SURFU
 70
     6
  9
$SURFV
 70
     6
  9
$UCSBASE
  2

  9
$UCSNAME
  2

  9
$UCSORG
 10
0.0
 20
0.0
 30
0.0
  9
$UCSXDIR
 10
1.0
 20
0.0
 30
0.0
  9
$UCSYDIR
 10
0.0
 20
1.0
 30
0.0
  9
$UCSORTHOREF
  2

  9
$UCSORTHOVIEW
 70
     0
  9
$UCSORGTOP
 10
0.0
 20
0.0
 30
0.0
  9
$UCSORGBOTTOM
 10
0.0
 20
0.0
 30
0.0
  9
$UCSORGLEFT
 10
0.0
 20
0.0
 30
0.0
  9
$UCSORGRIGHT
 10
0.0
 20
0.0
 30
0.0
  9
$UCSORGFRONT
 10
0.0
 20
0.0
 30
0.0
  9
$UCSORGBACK
 10
0.0
 20
0.0
 30
0.0
  9
$PUCSBASE
  2

  9
$PUCSNAME
  2

  9
$PUCSORG
 10
0.0
 20
0.0
 30
0.0
  9
$PUCSXDIR
 10
1.0
 20
0.0
 30
0.0
  9
$PUCSYDIR
 10
0.0
 20
1.0
 30
0.0
  9
$PUCSORTHOREF
  2

  9
$PUCSORTHOVIEW
 70
     0
  9
$PUCSORGTOP
 10
0.0
 20
0.0
 30
0.0
  9
$PUCSORGBOTTOM
 10
0.0
 20
0.0
 30
0.0
  9
$PUCSORGLEFT
 10
0.0
 20
0.0
 30
0.0
  9
$PUCSORGRIGHT
 10
0.0
 20
0.0
 30
0.0
  9
$PUCSORGFRONT
 10
0.0
 20
0.0
 30
0.0
  9
$PUCSORGBACK
 10
0.0
 20
0.0
 30
0.0
  9
$USERI1
 70
     0
  9
$USERI2
 70
     0
  9
$USERI3
 70
     0
  9
$USERI4
 70
     0
  9
$USERI5
 70
     0
  9
$USERR1
 40
0.0
  9
$USERR2
 40
0.0
  9
$USERR3
 40
0.0
  9
$USERR4
 40
0.0
  9
$USERR5
 40
0.0
  9
$WORLDVIEW
 70
     1
  9
$SHADEDGE
 70
     3
  9
$SHADEDIF
 70
    70
  9
$TILEMODE
 70
     1
  9
$MAXACTVP
 70
    64
  9
$PINSBASE
 10
0.0
 20
0.0
 30
0.0
  9
$PLIMCHECK
 70
     0
  9
$PEXTMIN
 10
1.000000000000000E+20
 20
1.000000000000000E+20
 30
1.000000000000000E+20
  9
$PEXTMAX
 10
-1.000000000000000E+20
 20
-1.000000000000000E+20
 30
-1.000000000000000E+20
  9
$PLIMMIN
 10
0.0
 20
0.0
  9
$PLIMMAX
 10
12.0
 20
9.0
  9
$UNITMODE
 70
     0
  9
$VISRETAIN
 70
     1
  9
$PLINEGEN
 70
     0
  9
$PSLTSCALE
 70
     1
  9
$TREEDEPTH
 70
  3020
  9
$CMLSTYLE
  2
Standard
  9
$CMLJUST
 70
     0
  9
$CMLSCALE
 40
1.0
  9
$PROXYGRAPHICS
 70
     1
  9
$MEASUREMENT
 70
     0
  9
$CELWEIGHT
370
    -1
  9
$ENDCAPS
280
     0
  9
$JOINSTYLE
280
     0
  9
$LWDISPLAY
290
     1
  9
$INSUNITS
 70
     1
  9
$HYPERLINKBASE
  1

  9
$STYLESHEET
  1

  9
$XEDIT
290
     1
  9
$CEPSNTYPE
380
     0
  9
$PSTYLEMODE
290
     1
  9
$FINGERPRINTGUID
  2
{DC0321FA-ED99-8B9C-E760-1B6E2EA7567C}
  9
$VERSIONGUID
  2
{FAEB1C32-E019-11D5-929B-00C0DF256EC4}
  9
$EXTNAMES
290
     1
  9
$PSVPSCALE
 40
0.0
  9
$OLESTARTUP
290
     0
  9
$SORTENTS
280
   127
  9
$INDEXCTL
280
     0
  9
$HIDETEXT
280
     1
  9
$XCLIPFRAME
280
     2
  9
$HALOGAP
280
     0
  9
$OBSCOLOR
 70
   257
  9
$OBSLTYPE
280
     0
  9
$INTERSECTIONDISPLAY
280
     0
  9
$INTERSECTIONCOLOR
 70
   257
  9
$DIMASSOC
280
     2
  9
$PROJECTNAME
  1

  9
$CAMERADISPLAY
290
     0
  9
$LENSLENGTH
 40
50.0
  9
$CAMERAHEIGHT
 40
0.0
  9
$STEPSPERSEC
 40
2.0
  9
$STEPSIZE
 40
6.0
  9
$3DDWFPREC
 40
2.0
  9
$PSOLWIDTH
 40
0.25
  9
$PSOLHEIGHT
 40
4.0
  9
$LOFTANG1
 40
1.570796326794897
  9
$LOFTANG2
 40
1.570796326794897
  9
$LOFTMAG1
 40
0.0
  9
$LOFTMAG2
 40
0.0
  9
$LOFTPARAM
 70
     7
  9
$LOFTNORMALS
280
     1
  9
$LATITUDE
 40
37.795
  9
$LONGITUDE
 40
-122.394
  9
$NORTHDIRECTION
 40
0.0
  9
$TIMEZONE
 70
 -8000
  9
$LIGHTGLYPHDISPLAY
280
     1
  9
$TILEMODELIGHTSYNCH
280
     1
  9
$CMATERIAL
347
3C
  9
$SOLIDHIST
280
     1
  9
$SHOWHIST
280
     1
  9
$DWFFRAME
280
     2
  9
$DGNFRAME
280
     2
  9
$REALWORLDSCALE
290
     1
  9
$INTERFERECOLOR
 62
   256
  9
$CSHADOW
280
     0
  9
$SHADOWPLANELOCATION
 40
0.0
  0
ENDSEC
  0
SECTION
  2
CLASSES
  0
CLASS
  1
ACDBDICTIONARYWDFLT
  2
AcDbDictionaryWithDefault
  3
ObjectDBX Classes
 90
        0
 91
        4
280
     0
281
     0
  0
CLASS
  1
VISUALSTYLE
  2
AcDbVisualStyle
  3
ObjectDBX Classes
 90
     4095
 91
        4
280
     0
281
     0
  0
CLASS
  1
MATERIAL
  2
AcDbMaterial
  3
ObjectDBX Classes
 90
     1153
 91
        4
280
     0
281
     0
  0
CLASS
  1
SUN
  2
AcDbSun
  3
SCENEOE
 90
     1024
 91
        4
280
     0
281
     0
  0
ENDSEC
  0
SECTION
  2
TABLES
  0
TABLE
  2
VPORT
  5
8
330
0
100
AcDbSymbolTable
 70
     1
  0
VPORT
  5
29
330
8
100
AcDbSymbolTableRecord
100
AcDbViewportTableRecord
  2
*Active
 70
     0
 10
0.0
 20
0.0
 11
1.0
 21
1.0
 12
0.0
 22
0.0
 13
0.0
 23
0.0
 14
0.5
 24
0.5
 15
0.5
 25
0.5
 16
0.0
 26
0.0
 36
1.0
 17
63.499999984125
 27
-89.00059456108309
 37
0.0
 40
178.0011891221662
 41
0.7134783795241226
 42
50.0
 43
0.0
 44
0.0
 50
0.0
 51
0.0
 71
     0
 72
   100
 73
     1
 74
     3
 75
     0
 76
     0
 77
     0
 78
     0
281
     0
 65
     1
110
0.0
120
0.0
130
0.0
111
1.0
121
0.0
131
0.0
112
0.0
122
1.0
132
0.0
 79
     0
146
0.0
 60
     3
 61
     5
292
     1
282
     1
141
0.0
142
0.0
 63
   250
361
3F
  0
ENDTAB
  0
TABLE
  2
LTYPE
  5
5
330
0
100
AcDbSymbolTable
 70
     1
  0
LTYPE
  5
14
330
5
100
AcDbSymbolTableRecord
100
AcDbLinetypeTableRecord
  2
ByBlock
 70
     0
  3

 72
    65
 73
     0
 40
0.0
  0
LTYPE
  5
15
330
5
100
AcDbSymbolTableRecord
100
AcDbLinetypeTableRecord
  2
ByLayer
 70
     0
  3

 72
    65
 73
     0
 40
0.0
  0
LTYPE
  5
16
330
5
100
AcDbSymbolTableRecord
100
AcDbLinetypeTableRecord
  2
Continuous
 70
     0
  3
Solid line
 72
    65
 73
     0
 40
0.0
  0
ENDTAB
  0
TABLE
  2
LAYER
  5
2
330
0
100
AcDbSymbolTable
 70
     2
  0
LAYER
  5
10
330
2
100
AcDbSymbolTableRecord
100
AcDbLayerTableRecord
  2
0
 70
     0
 62
     7
  6
Continuous
370
    -3
390
F
347
3E
  0
LAYER
  5
40
330
2
100
AcDbSymbolTableRecord
100
AcDbLayerTableRecord
  2
_U+30EC_U+30A4_U+30E4_U+30FC 1
 70
     0
 62
     7
  6
Continuous
370
    -3
390
F
347
3E
  0
ENDTAB
  0
TABLE
  2
STYLE
  5
3
330
0
100
AcDbSymbolTable
 70
     1
  0
STYLE
  5
11
330
3
100
AcDbSymbolTableRecord
100
AcDbTextStyleTableRecord
  2
Standard
 70
     0
 40
0.0
 41
1.0
 50
0.0
 71
     0
 42
0.2
  3
txt
  4

  0
ENDTAB
  0
TABLE
  2
VIEW
  5
6
330
0
100
AcDbSymbolTable
 70
     0
  0
ENDTAB
  0
TABLE
  2
UCS
  5
7
330
0
100
AcDbSymbolTable
 70
     0
  0
ENDTAB
  0
TABLE
  2
APPID
  5
9
330
0
100
AcDbSymbolTable
 70
     1
  0
APPID
  5
12
330
9
100
AcDbSymbolTableRecord
100
AcDbRegAppTableRecord
  2
ACAD
 70
     0
  0
ENDTAB
  0
TABLE
  2
DIMSTYLE
  5
A
330
0
100
AcDbSymbolTable
 70
     1
100
AcDbDimStyleTable
  0
DIMSTYLE
105
27
330
A
100
AcDbSymbolTableRecord
100
AcDbDimStyleTableRecord
  2
Standard
 70
     0
178
     0
340
11
  0
ENDTAB
  0
TABLE
  2
BLOCK_RECORD
  5
1
330
0
100
AcDbSymbolTable
 70
     6
  0
BLOCK_RECORD
  5
1F
330
1
100
AcDbSymbolTableRecord
100
AcDbBlockTableRecord
  2
*Model_Space
340
22
 70
     0
280
     1
281
     0
  0
BLOCK_RECORD
  5
1B
330
1
100
AcDbSymbolTableRecord
100
AcDbBlockTableRecord
  2
*Paper_Space
340
1E
 70
     0
280
     1
281
     0
  0
BLOCK_RECORD
  5
23
330
1
100
AcDbSymbolTableRecord
100
AcDbBlockTableRecord
  2
*Paper_Space0
340
26
 70
     0
280
     1
281
     0
  0
BLOCK_RECORD
  5
81
330
1
100
AcDbSymbolTableRecord
100
AcDbBlockTableRecord
  2
block 2
340
0
102
{BLKREFS
331
82
102
}
 70
     0
280
     1
281
     0
  0
BLOCK_RECORD
  5
93
330
1
100
AcDbSymbolTableRecord
100
AcDbBlockTableRecord
  2
block 3
340
0
102
{BLKREFS
331
94
102
}
 70
     0
280
     1
281
     0
  0
BLOCK_RECORD
  5
A3
330
1
100
AcDbSymbolTableRecord
100
AcDbBlockTableRecord
  2
block 4
340
0
102
{BLKREFS
331
A4
102
}
 70
     0
280
     1
281
     0
  0
BLOCK_RECORD
  5
C0
330
1
100
AcDbSymbolTableRecord
100
AcDbBlockTableRecord
  2
block 5
340
0
102
{BLKREFS
331
C1
102
}
 70
     0
280
     1
281
     0
  0
BLOCK_RECORD
  5
E1
330
1
100
AcDbSymbolTableRecord
100
AcDbBlockTableRecord
  2
block 6
340
0
102
{BLKREFS
331
E2
102
}
 70
     0
280
     1
281
     0
  0
ENDTAB
  0
ENDSEC
  0
SECTION
  2
BLOCKS
  0
BLOCK
  5
20
330
1F
100
AcDbEntity
  8
0
100
AcDbBlockBegin
  2
*Model_Space
 70
     0
 10
0.0
 20
0.0
 30
0.0
  3
*Model_Space
  1

  0
ENDBLK
  5
21
330
1F
100
AcDbEntity
  8
0
100
AcDbBlockEnd
  0
BLOCK
  5
1C
330
1B
100
AcDbEntity
 67
     1
  8
0
100
AcDbBlockBegin
  2
*Paper_Space
 70
     0
 10
0.0
 20
0.0
 30
0.0
  3
*Paper_Space
  1

  0
ENDBLK
  5
1D
330
1B
100
AcDbEntity
 67
     1
  8
0
100
AcDbBlockEnd
  0
BLOCK
  5
24
330
23
100
AcDbEntity
  8
0
100
AcDbBlockBegin
  2
*Paper_Space0
 70
     0
 10
0.0
 20
0.0
 30
0.0
  3
*Paper_Space0
  1

  0
ENDBLK
  5
25
330
23
100
AcDbEntity
  8
0
100
AcDbBlockEnd
  0
BLOCK
  5
83
330
81
100
AcDbEntity
  8
0
100
AcDbBlockBegin
  2
block 2
 70
     0
 10
0.0
 20
0.0
 30
0.0
  3
block 2
  1

  0
SPLINE
  5
85
330
81
100
AcDbEntity
  8
_U+30EC_U+30A4_U+30E4_U+30FC 1
370
     0
100
AcDbSpline
210
0.0
220
0.0
230
1.0
 70
    11
 71
     3
 72
    26
 73
    22
 74
     0
 42
0.0000000001
 43
0.0000000001
 12
1.0
 22
0.0
 32
0.0
 13
1.0
 23
0.0
 33
0.0
 40
0.0
 40
0.0
 40
0.0
 40
0.0
 40
1.0
 40
1.0
 40
1.0
 40
2.0
 40
2.0
 40
2.0
 40
3.0
 40
3.0
 40
3.0
 40
4.0
 40
4.0
 40
4.0
 40
5.0
 40
5.0
 40
5.0
 40
6.0
 40
6.0
 40
6.0
 40
7.0
 40
7.0
 40
7.0
 40
7.0
 10
76.81598305371267
 20
-82.88262394846338
 30
0.0
 10
76.81598305371267
 20
-82.88262394846338
 30
0.0
 10
75.7118299506901
 20
-82.88262394846338
 30
0.0
 10
75.7118299506901
 20
-82.88262394846338
 30
0.0
 10
75.7118299506901
 20
-82.88262394846338
 30
0.0
 10
75.7118299506901
 20
-83.16805010941633
 30
0.0
 10
75.7118299506901
 20
-83.16805010941633
 30
0.0
 10
75.7118299506901
 20
-83.16805010941633
 30
0.0
 10
75.56369084482436
 20
-83.16805010941633
 30
0.0
 10
75.56369084482436
 20
-83.16805010941633
 30
0.0
 10
75.54887693423778
 20
-82.88072914594649
 30
0.0
 10
75.38592391778546
 20
-82.84042152876907
 30
0.0
 10
75.27154674767517
 20
-82.81492782217822
 30
0.0
 10
75.27154674767517
 20
-82.81492782217822
 30
0.0
 10
75.27154674767517
 20
-82.68849281786954
 30
0.0
 10
75.27154674767517
 20
-82.68849281786954
 30
0.0
 10
75.27154674767517
 20
-82.68849281786954
 30
0.0
 10
76.81598305371267
 20
-82.68849281786954
 30
0.0
 10
76.81598305371267
 20
-82.68849281786954
 30
0.0
 10
76.81598305371267
 20
-82.68849281786954
 30
0.0
 10
76.81598305371267
 20
-82.88262394846338
 30
0.0
 10
76.81598305371267
 20
-82.88262394846338
 30
0.0
  0
HATCH
  5
86
330
81
100
AcDbEntity
  8
_U+30EC_U+30A4_U+30E4_U+30FC 1
 62
   179
420
  2234388
100
AcDbHatch
 10
0.0
 20
0.0
 30
0.0
210
0.0
220
0.0
230
1.0
  2
SOLID
 70
     1
 71
     0
 91
        1
 92
        1
 93
        1
 72
     4
 94
        3
 73
     0
 74
     1
 95
       26
 96
       22
 40
0.0
 40
0.0
 40
0.0
 40
0.0
 40
1.0
 40
1.0
 40
1.0
 40
2.0
 40
2.0
 40
2.0
 40
3.0
 40
3.0
 40
3.0
 40
4.0
 40
4.0
 40
4.0
 40
5.0
 40
5.0
 40
5.0
 40
6.0
 40
6.0
 40
6.0
 40
7.0
 40
7.0
 40
7.0
 40
7.0
 10
76.81598305371267
 20
-82.88262394846338
 10
76.81598305371267
 20
-82.88262394846338
 10
75.7118299506901
 20
-82.88262394846338
 10
75.7118299506901
 20
-82.88262394846338
 10
75.7118299506901
 20
-82.88262394846338
 10
75.7118299506901
 20
-83.16805010941633
 10
75.7118299506901
 20
-83.16805010941633
 10
75.7118299506901
 20
-83.16805010941633
 10
75.56369084482436
 20
-83.16805010941633
 10
75.56369084482436
 20
-83.16805010941633
 10
75.54887693423778
 20
-82.88072914594649
 10
75.38592391778546
 20
-82.84042152876907
 10
75.27154674767517
 20
-82.81492782217822
 10
75.27154674767517
 20
-82.81492782217822
 10
75.27154674767517
 20
-82.68849281786954
 10
75.27154674767517
 20
-82.68849281786954
 10
75.27154674767517
 20
-82.68849281786954
 10
76.81598305371267
 20
-82.68849281786954
 10
76.81598305371267
 20
-82.68849281786954
 10
76.81598305371267
 20
-82.68849281786954
 10
76.81598305371267
 20
-82.88262394846338
 10
76.81598305371267
 20
-82.88262394846338
 97
        0
 97
        0
 75
     2
 76
     1
 98
        0
  0
ENDBLK
  5
84
330
81
100
AcDbEntity
  8
0
100
AcDbBlockEnd
  0
BLOCK
  5
95
330
93
100
AcDbEntity
  8
0
100
AcDbBlockBegin
  2
block 3
 70
     0
 10
0.0
 20
0.0
 30
0.0
  3
block 3
  1

  0
SPLINE
  5
97
330
93
100
AcDbEntity
  8
_U+30EC_U+30A4_U+30E4_U+30FC 1
370
     0
100
AcDbSpline
210
0.0
220
0.0
230
1.0
 70
    11
 71
     3
 72
    44
 73
    40
 74
     0
 42
0.0000000001
 43
0.0000000001
 12
1.0
 22
0.0
 32
0.0
 13
1.0
 23
0.0
 33
0.0
 40
0.0
 40
0.0
 40
0.0
 40
0.0
 40
1.0
 40
1.0
 40
1.0
 40
2.0
 40
2.0
 40
2.0
 40
3.0
 40
3.0
 40
3.0
 40
4.0
 40
4.0
 40
4.0
 40
5.0
 40
5.0
 40
5.0
 40
6.0
 40
6.0
 40
6.0
 40
7.0
 40
7.0
 40
7.0
 40
8.0
 40
8.0
 40
8.0
 40
9.0
 40
9.0
 40
9.0
 40
10.0
 40
10.0
 40
10.0
 40
11.0
 40
11.0
 40
11.0
 40
12.0
 40
12.0
 40
12.0
 40
13.0
 40
13.0
 40
13.0
 40
13.0
 10
60.24920788424325
 20
-80.58491751457599
 30
0.0
 10
60.06041665165156
 20
-80.74373641644601
 30
0.0
 10
59.98014592684525
 20
-80.81780596937888
 30
0.0
 10
59.93777125237667
 20
-80.96146645111381
 30
0.0
 10
59.93777125237667
 20
-80.96146645111381
 30
0.0
 10
60.61163192929154
 20
-80.96146645111381
 30
0.0
 10
60.61163192929154
 20
-80.96146645111381
 30
0.0
 10
60.61163192929154
 20
-80.96146645111381
 30
0.0
 10
60.61163192929154
 20
-81.16679414203469
 30
0.0
 10
60.61163192929154
 20
-81.16679414203469
 30
0.0
 10
60.61163192929154
 20
-81.16679414203469
 30
0.0
 10
59.72210827500003
 20
-81.16679414203469
 30
0.0
 10
59.72210827500003
 20
-81.16679414203469
 30
0.0
 10
59.74932452933351
 20
-80.80919323066576
 30
0.0
 10
59.80616860484012
 20
-80.73098956315059
 30
0.0
 10
60.13930933826379
 20
-80.43264429412795
 30
0.0
 10
60.36082897796535
 20
-80.23386228462904
 30
0.0
 10
60.41732854392345
 20
-80.16599390356961
 30
0.0
 10
60.41732854392345
 20
-80.02853459370814
 30
0.0
 10
60.41732854392345
 20
-79.91002330901556
 30
0.0
 10
60.35531682518895
 20
-79.77910968057606
 30
0.0
 10
60.18512910821761
 20
-79.77910968057606
 30
0.0
 10
59.95981986348227
 20
-79.77910968057606
 30
0.0
 10
59.95258516296325
 20
-80.00958656853928
 30
0.0
 10
59.94879555792947
 20
-80.12603079594072
 30
0.0
 10
59.94879555792947
 20
-80.12603079594072
 30
0.0
 10
59.7548366821099
 20
-80.12603079594072
 30
0.0
 10
59.7548366821099
 20
-80.12603079594072
 30
0.0
 10
59.76207138262893
 20
-79.998906772535
 30
0.0
 10
59.7713731404391
 20
-79.88694116926438
 30
0.0
 10
59.84096406924115
 20
-79.76842988457179
 30
0.0
 10
59.93604870463405
 20
-79.60754392541062
 30
0.0
 10
60.09727917334374
 20
-79.57378198965517
 30
0.0
 10
60.19787596151303
 20
-79.57378198965517
 30
0.0
 10
60.43765460728643
 20
-79.57378198965517
 30
0.0
 10
60.61679957251941
 20
-79.7577500885675
 30
0.0
 10
60.61679957251941
 20
-80.0306016509993
 30
0.0
 10
60.61679957251941
 20
-80.25935599121989
 30
0.0
 10
60.51620278435012
 20
-80.35857474119508
 30
0.0
 10
60.24920788424325
 20
-80.58491751457599
 30
0.0
  0
HATCH
  5
98
330
93
100
AcDbEntity
  8
_U+30EC_U+30A4_U+30E4_U+30FC 1
 62
   179
420
  2234388
100
AcDbHatch
 10
0.0
 20
0.0
 30
0.0
210
0.0
220
0.0
230
1.0
  2
SOLID
 70
     1
 71
     0
 91
        1
 92
        1
 93
        1
 72
     4
 94
        3
 73
     0
 74
     1
 95
       44
 96
       40
 40
0.0
 40
0.0
 40
0.0
 40
0.0
 40
1.0
 40
1.0
 40
1.0
 40
2.0
 40
2.0
 40
2.0
 40
3.0
 40
3.0
 40
3.0
 40
4.0
 40
4.0
 40
4.0
 40
5.0
 40
5.0
 40
5.0
 40
6.0
 40
6.0
 40
6.0
 40
7.0
 40
7.0
 40
7.0
 40
8.0
 40
8.0
 40
8.0
 40
9.0
 40
9.0
 40
9.0
 40
10.0
 40
10.0
 40
10.0
 40
11.0
 40
11.0
 40
11.0
 40
12.0
 40
12.0
 40
12.0
 40
13.0
 40
13.0
 40
13.0
 40
13.0
 10
60.24920788424325
 20
-80.58491751457599
 10
60.06041665165156
 20
-80.74373641644601
 10
59.98014592684525
 20
-80.81780596937888
 10
59.93777125237667
 20
-80.96146645111381
 10
59.93777125237667
 20
-80.96146645111381
 10
60.61163192929154
 20
-80.96146645111381
 10
60.61163192929154
 20
-80.96146645111381
 10
60.61163192929154
 20
-80.96146645111381
 10
60.61163192929154
 20
-81.16679414203469
 10
60.61163192929154
 20
-81.16679414203469
 10
60.61163192929154
 20
-81.16679414203469
 10
59.72210827500003
 20
-81.16679414203469
 10
59.72210827500003
 20
-81.16679414203469
 10
59.74932452933351
 20
-80.80919323066576
 10
59.80616860484012
 20
-80.73098956315059
 10
60.13930933826379
 20
-80.43264429412795
 10
60.36082897796535
 20
-80.23386228462904
 10
60.41732854392345
 20
-80.16599390356961
 10
60.41732854392345
 20
-80.02853459370814
 10
60.41732854392345
 20
-79.91002330901556
 10
60.35531682518895
 20
-79.77910968057606
 10
60.18512910821761
 20
-79.77910968057606
 10
59.95981986348227
 20
-79.77910968057606
 10
59.95258516296325
 20
-80.00958656853928
 10
59.94879555792947
 20
-80.12603079594072
 10
59.94879555792947
 20
-80.12603079594072
 10
59.7548366821099
 20
-80.12603079594072
 10
59.7548366821099
 20
-80.12603079594072
 10
59.76207138262893
 20
-79.998906772535
 10
59.7713731404391
 20
-79.88694116926438
 10
59.84096406924115
 20
-79.76842988457179
 10
59.93604870463405
 20
-79.60754392541062
 10
60.09727917334374
 20
-79.57378198965517
 10
60.19787596151303
 20
-79.57378198965517
 10
60.43765460728643
 20
-79.57378198965517
 10
60.61679957251941
 20
-79.7577500885675
 10
60.61679957251941
 20
-80.0306016509993
 10
60.61679957251941
 20
-80.25935599121989
 10
60.51620278435012
 20
-80.35857474119508
 10
60.24920788424325
 20
-80.58491751457599
 97
        0
 97
        0
 75
     2
 76
     1
 98
        0
  0
SPLINE
  5
99
330
93
100
AcDbEntity
  8
_U+30EC_U+30A4_U+30E4_U+30FC 1
370
     0
100
AcDbSpline
210
0.0
220
0.0
230
1.0
 70
    11
 71
     3
 72
    53
 73
    49
 74
     0
 42
0.0000000001
 43
0.0000000001
 12
1.0
 22
0.0
 32
0.0
 13
1.0
 23
0.0
 33
0.0
 40
0.0
 40
0.0
 40
0.0
 40
0.0
 40
1.0
 40
1.0
 40
1.0
 40
2.0
 40
2.0
 40
2.0
 40
3.0
 40
3.0
 40
3.0
 40
4.0
 40
4.0
 40
4.0
 40
5.0
 40
5.0
 40
5.0
 40
6.0
 40
6.0
 40
6.0
 40
7.0
 40
7.0
 40
7.0
 40
8.0
 40
8.0
 40
8.0
 40
9.0
 40
9.0
 40
9.0
 40
10.0
 40
10.0
 40
10.0
 40
11.0
 40
11.0
 40
11.0
 40
12.0
 40
12.0
 40
12.0
 40
13.0
 40
13.0
 40
13.0
 40
14.0
 40
14.0
 40
14.0
 40
15.0
 40
15.0
 40
15.0
 40
16.0
 40
16.0
 40
16.0
 40
16.0
 10
61.16939288835349
 20
-81.21743704566786
 30
0.0
 10
61.10152450729407
 20
-81.21743704566786
 30
0.0
 10
61.01401908196872
 20
-81.20055607779014
 30
0.0
 10
60.92582463754633
 20
-81.13716632086154
 30
0.0
 10
60.77596298393796
 20
-81.02726777488208
 30
0.0
 10
60.75770397786614
 20
-80.89600963689405
 30
0.0
 10
60.74116751953693
 20
-80.78817814820573
 30
0.0
 10
60.74116751953693
 20
-80.78817814820573
 30
0.0
 10
60.93340384761387
 20
-80.78817814820573
 30
0.0
 10
60.93340384761387
 20
-80.78817814820573
 30
0.0
 10
60.98094616531032
 20
-80.98696015770466
 30
0.0
 10
61.09084471128979
 20
-81.0165879788778
 30
0.0
 10
61.17111543609612
 20
-81.0165879788778
 30
0.0
 10
61.29203828762838
 20
-81.0165879788778
 30
0.0
 10
61.42398544471345
 20
-80.91702471935407
 30
0.0
 10
61.42398544471345
 20
-80.68448077409971
 30
0.0
 10
61.42398544471345
 20
-80.42851017954565
 30
0.0
 10
61.26826712878016
 20
-80.35857474119508
 30
0.0
 10
61.16388073557709
 20
-80.35857474119508
 30
0.0
 10
61.13631997169509
 20
-80.35857474119508
 30
0.0
 10
61.01401908196872
 20
-80.35857474119508
 30
0.0
 10
60.93684894309912
 20
-80.48776582189195
 30
0.0
 10
60.93684894309912
 20
-80.48776582189195
 30
0.0
 10
60.7849202321996
 20
-80.46881779672307
 30
0.0
 10
60.7849202321996
 20
-80.46881779672307
 30
0.0
 10
60.7849202321996
 20
-80.46881779672307
 30
0.0
 10
60.88930662540267
 20
-79.62235783599719
 30
0.0
 10
60.88930662540267
 20
-79.62235783599719
 30
0.0
 10
60.88930662540267
 20
-79.62235783599719
 30
0.0
 10
61.56282279276902
 20
-79.62235783599719
 30
0.0
 10
61.56282279276902
 20
-79.62235783599719
 30
0.0
 10
61.56282279276902
 20
-79.62235783599719
 30
0.0
 10
61.56282279276902
 20
-79.8170057309138
 30
0.0
 10
61.56282279276902
 20
-79.8170057309138
 30
0.0
 10
61.56282279276902
 20
-79.8170057309138
 30
0.0
 10
61.03021103074939
 20
-79.8170057309138
 30
0.0
 10
61.03021103074939
 20
-79.8170057309138
 30
0.0
 10
61.03021103074939
 20
-79.8170057309138
 30
0.0
 10
60.9737114647913
 20
-80.24006345650248
 30
0.0
 10
60.9737114647913
 20
-80.24006345650248
 30
0.0
 10
61.02676593526414
 20
-80.20630152074703
 30
0.0
 10
61.09807941180882
 20
-80.16599390356961
 30
0.0
 10
61.20039874772073
 20
-80.16599390356961
 30
0.0
 10
61.42019583967968
 20
-80.16599390356961
 30
0.0
 10
61.62517902105204
 20
-80.35237356932163
 30
0.0
 10
61.62517902105204
 20
-80.66553274893084
 30
0.0
 10
61.62517902105204
 20
-80.98282604312236
 30
0.0
 10
61.43122014523247
 20
-81.21743704566786
 30
0.0
 10
61.16939288835349
 20
-81.21743704566786
 30
0.0
  0
HATCH
  5
9A
330
93
100
AcDbEntity
  8
_U+30EC_U+30A4_U+30E4_U+30FC 1
 62
   179
420
  2234388
100
AcDbHatch
 10
0.0
 20
0.0
 30
0.0
210
0.0
220
0.0
230
1.0
  2
SOLID
 70
     1
 71
     0
 91
        1
 92
        1
 93
        1
 72
     4
 94
        3
 73
     0
 74
     1
 95
       53
 96
       49
 40
0.0
 40
0.0
 40
0.0
 40
0.0
 40
1.0
 40
1.0
 40
1.0
 40
2.0
 40
2.0
 40
2.0
 40
3.0
 40
3.0
 40
3.0
 40
4.0
 40
4.0
 40
4.0
 40
5.0
 40
5.0
 40
5.0
 40
6.0
 40
6.0
 40
6.0
 40
7.0
 40
7.0
 40
7.0
 40
8.0
 40
8.0
 40
8.0
 40
9.0
 40
9.0
 40
9.0
 40
10.0
 40
10.0
 40
10.0
 40
11.0
 40
11.0
 40
11.0
 40
12.0
 40
12.0
 40
12.0
 40
13.0
 40
13.0
 40
13.0
 40
14.0
 40
14.0
 40
14.0
 40
15.0
 40
15.0
 40
15.0
 40
16.0
 40
16.0
 40
16.0
 40
16.0
 10
61.16939288835349
 20
-81.21743704566786
 10
61.10152450729407
 20
-81.21743704566786
 10
61.01401908196872
 20
-81.20055607779014
 10
60.92582463754633
 20
-81.13716632086154
 10
60.77596298393796
 20
-81.02726777488208
 10
60.75770397786614
 20
-80.89600963689405
 10
60.74116751953693
 20
-80.78817814820573
 10
60.74116751953693
 20
-80.78817814820573
 10
60.93340384761387
 20
-80.78817814820573
 10
60.93340384761387
 20
-80.78817814820573
 10
60.98094616531032
 20
-80.98696015770466
 10
61.09084471128979
 20
-81.0165879788778
 10
61.17111543609612
 20
-81.0165879788778
 10
61.29203828762838
 20
-81.0165879788778
 10
61.42398544471345
 20
-80.91702471935407
 10
61.42398544471345
 20
-80.68448077409971
 10
61.42398544471345
 20
-80.42851017954565
 10
61.26826712878016
 20
-80.35857474119508
 10
61.16388073557709
 20
-80.35857474119508
 10
61.13631997169509
 20
-80.35857474119508
 10
61.01401908196872
 20
-80.35857474119508
 10
60.93684894309912
 20
-80.48776582189195
 10
60.93684894309912
 20
-80.48776582189195
 10
60.7849202321996
 20
-80.46881779672307
 10
60.7849202321996
 20
-80.46881779672307
 10
60.7849202321996
 20
-80.46881779672307
 10
60.88930662540267
 20
-79.62235783599719
 10
60.88930662540267
 20
-79.62235783599719
 10
60.88930662540267
 20
-79.62235783599719
 10
61.56282279276902
 20
-79.62235783599719
 10
61.56282279276902
 20
-79.62235783599719
 10
61.56282279276902
 20
-79.62235783599719
 10
61.56282279276902
 20
-79.8170057309138
 10
61.56282279276902
 20
-79.8170057309138
 10
61.56282279276902
 20
-79.8170057309138
 10
61.03021103074939
 20
-79.8170057309138
 10
61.03021103074939
 20
-79.8170057309138
 10
61.03021103074939
 20
-79.8170057309138
 10
60.9737114647913
 20
-80.24006345650248
 10
60.9737114647913
 20
-80.24006345650248
 10
61.02676593526414
 20
-80.20630152074703
 10
61.09807941180882
 20
-80.16599390356961
 10
61.20039874772073
 20
-80.16599390356961
 10
61.42019583967968
 20
-80.16599390356961
 10
61.62517902105204
 20
-80.35237356932163
 10
61.62517902105204
 20
-80.66553274893084
 10
61.62517902105204
 20
-80.98282604312236
 10
61.43122014523247
 20
-81.21743704566786
 10
61.16939288835349
 20
-81.21743704566786
 97
        0
 97
        0
 75
     2
 76
     1
 98
        0
  0
ENDBLK
  5
96
330
93
100
AcDbEntity
  8
0
100
AcDbBlockEnd
  0
BLOCK
  5
A5
330
A3
100
AcDbEntity
  8
0
100
AcDbBlockBegin
  2
block 4
 70
     0
 10
0.0
 20
0.0
 30
0.0
  3
block 4
  1

  0
SPLINE
  5
A7
330
A3
100
AcDbEntity
  8
_U+30EC_U+30A4_U+30E4_U+30FC 1
370
     0
100
AcDbSpline
210
0.0
220
0.0
230
1.0
 70
    11
 71
     3
 72
    32
 73
    28
 74
     0
 42
0.0000000001
 43
0.0000000001
 12
1.0
 22
0.0
 32
0.0
 13
1.0
 23
0.0
 33
0.0
 40
0.0
 40
0.0
 40
0.0
 40
0.0
 40
1.0
 40
1.0
 40
1.0
 40
2.0
 40
2.0
 40
2.0
 40
3.0
 40
3.0
 40
3.0
 40
4.0
 40
4.0
 40
4.0
 40
5.0
 40
5.0
 40
5.0
 40
6.0
 40
6.0
 40
6.0
 40
7.0
 40
7.0
 40
7.0
 40
8.0
 40
8.0
 40
8.0
 40
9.0
 40
9.0
 40
9.0
 40
9.0
 10
76.86662595734585
 20
-90.75380585838793
 30
0.0
 10
76.86662595734585
 20
-91.20029023327632
 30
0.0
 10
76.31265460331767
 20
-91.20752493379534
 30
0.0
 10
76.09871417368366
 20
-91.20752493379534
 30
0.0
 10
75.86823728572044
 20
-91.20752493379534
 30
0.0
 10
75.220903844042
 20
-91.19098847546614
 30
0.0
 10
75.220903844042
 20
-90.72073294172954
 30
0.0
 10
75.220903844042
 20
-90.57052677857266
 30
0.0
 10
75.29083928239257
 20
-90.35830889668127
 30
0.0
 10
75.62294648717065
 20
-90.32523598002287
 30
0.0
 10
75.62294648717065
 20
-90.32523598002287
 30
0.0
 10
75.62294648717065
 20
-90.51023760758078
 30
0.0
 10
75.62294648717065
 20
-90.51023760758078
 30
0.0
 10
75.56575790211551
 20
-90.51953936539095
 30
0.0
 10
75.41761879624977
 20
-90.54675561972442
 30
0.0
 10
75.41761879624977
 20
-90.72245548947217
 30
0.0
 10
75.41761879624977
 20
-90.97498098854098
 30
0.0
 10
75.74559188644555
 20
-91.009776452942
 30
0.0
 10
75.95057506781791
 20
-91.0208007584948
 30
0.0
 10
75.87237140030274
 20
-90.94018552413996
 30
0.0
 10
75.81311575795645
 20
-90.88161890089071
 30
0.0
 10
75.81311575795645
 20
-90.7241780372148
 30
0.0
 10
75.81311575795645
 20
-90.56880423083003
 30
0.0
 10
75.9212917561933
 20
-90.30697697395104
 30
0.0
 10
76.32746851390425
 20
-90.30697697395104
 30
0.0
 10
76.64682886538691
 20
-90.30697697395104
 30
0.0
 10
76.86662595734585
 20
-90.47923174821354
 30
0.0
 10
76.86662595734585
 20
-90.75380585838793
 30
0.0
  0
SPLINE
  5
A8
330
A3
100
AcDbEntity
  8
_U+30EC_U+30A4_U+30E4_U+30FC 1
370
     0
100
AcDbSpline
210
0.0
220
0.0
230
1.0
 70
    11
 71
     3
 72
    17
 73
    13
 74
     0
 42
0.0000000001
 43
0.0000000001
 12
1.0
 22
0.0
 32
0.0
 13
1.0
 23
0.0
 33
0.0
 40
0.0
 40
0.0
 40
0.0
 40
0.0
 40
1.0
 40
1.0
 40
1.0
 40
2.0
 40
2.0
 40
2.0
 40
3.0
 40
3.0
 40
3.0
 40
4.0
 40
4.0
 40
4.0
 40
4.0
 10
76.00776365287307
 20
-90.73899194780137
 30
0.0
 10
76.00776365287307
 20
-90.96602374027933
 30
0.0
 10
76.2192925156674
 20
-90.99875214738921
 30
0.0
 10
76.33573674306885
 20
-90.99875214738921
 30
0.0
 10
76.5114366128166
 20
-90.99875214738921
 30
0.0
 10
76.6743896292689
 20
-90.91641436529173
 30
0.0
 10
76.6743896292689
 20
-90.7572509538732
 30
0.0
 10
76.6743896292689
 20
-90.65286456067012
 30
0.0
 10
76.61513398692261
 20
-90.5009358497706
 30
0.0
 10
76.3295355711954
 20
-90.5009358497706
 30
0.0
 10
76.10525985510563
 20
-90.5009358497706
 30
0.0
 10
76.00776365287307
 20
-90.62185870130287
 30
0.0
 10
76.00776365287307
 20
-90.73899194780137
 30
0.0
  0
HATCH
  5
A9
330
A3
100
AcDbEntity
  8
_U+30EC_U+30A4_U+30E4_U+30FC 1
 62
   179
420
  2234388
100
AcDbHatch
 10
0.0
 20
0.0
 30
0.0
210
0.0
220
0.0
230
1.0
  2
SOLID
 70
     1
 71
     0
 91
        2
 92
        1
 93
        1
 72
     4
 94
        3
 73
     0
 74
     1
 95
       32
 96
       28
 40
0.0
 40
0.0
 40
0.0
 40
0.0
 40
1.0
 40
1.0
 40
1.0
 40
2.0
 40
2.0
 40
2.0
 40
3.0
 40
3.0
 40
3.0
 40
4.0
 40
4.0
 40
4.0
 40
5.0
 40
5.0
 40
5.0
 40
6.0
 40
6.0
 40
6.0
 40
7.0
 40
7.0
 40
7.0
 40
8.0
 40
8.0
 40
8.0
 40
9.0
 40
9.0
 40
9.0
 40
9.0
 10
76.86662595734585
 20
-90.75380585838793
 10
76.86662595734585
 20
-91.20029023327632
 10
76.31265460331767
 20
-91.20752493379534
 10
76.09871417368366
 20
-91.20752493379534
 10
75.86823728572044
 20
-91.20752493379534
 10
75.220903844042
 20
-91.19098847546614
 10
75.220903844042
 20
-90.72073294172954
 10
75.220903844042
 20
-90.57052677857266
 10
75.29083928239257
 20
-90.35830889668127
 10
75.62294648717065
 20
-90.32523598002287
 10
75.62294648717065
 20
-90.32523598002287
 10
75.62294648717065
 20
-90.51023760758078
 10
75.62294648717065
 20
-90.51023760758078
 10
75.56575790211551
 20
-90.51953936539095
 10
75.41761879624977
 20
-90.54675561972442
 10
75.41761879624977
 20
-90.72245548947217
 10
75.41761879624977
 20
-90.97498098854098
 10
75.74559188644555
 20
-91.009776452942
 10
75.95057506781791
 20
-91.0208007584948
 10
75.87237140030274
 20
-90.94018552413996
 10
75.81311575795645
 20
-90.88161890089071
 10
75.81311575795645
 20
-90.7241780372148
 10
75.81311575795645
 20
-90.56880423083003
 10
75.9212917561933
 20
-90.30697697395104
 10
76.32746851390425
 20
-90.30697697395104
 10
76.64682886538691
 20
-90.30697697395104
 10
76.86662595734585
 20
-90.47923174821354
 10
76.86662595734585
 20
-90.75380585838793
 97
        0
 97
        0
 92
        1
 93
        1
 72
     4
 94
        3
 73
     0
 74
     1
 95
       17
 96
       13
 40
0.0
 40
0.0
 40
0.0
 40
0.0
 40
1.0
 40
1.0
 40
1.0
 40
2.0
 40
2.0
 40
2.0
 40
3.0
 40
3.0
 40
3.0
 40
4.0
 40
4.0
 40
4.0
 40
4.0
 10
76.00776365287307
 20
-90.73899194780137
 10
76.00776365287307
 20
-90.96602374027933
 10
76.2192925156674
 20
-90.99875214738921
 10
76.33573674306885
 20
-90.99875214738921
 10
76.5114366128166
 20
-90.99875214738921
 10
76.6743896292689
 20
-90.91641436529173
 10
76.6743896292689
 20
-90.7572509538732
 10
76.6743896292689
 20
-90.65286456067012
 10
76.61513398692261
 20
-90.5009358497706
 10
76.3295355711954
 20
-90.5009358497706
 10
76.10525985510563
 20
-90.5009358497706
 10
76.00776365287307
 20
-90.62185870130287
 10
76.00776365287307
 20
-90.73899194780137
 97
        0
 97
        0
 75
     2
 76
     1
 98
        0
  0
POLYLINE
  5
AA
330
A3
100
AcDbEntity
  8
_U+30EC_U+30A4_U+30E4_U+30FC 1
370
     0
100
AcDb2dPolyline
 66
     1
 10
0.0
 20
0.0
 30
0.0
  0
VERTEX
  5
AB
330
AA
100
AcDbEntity
  8
_U+30EC_U+30A4_U+30E4_U+30FC 1
370
     0
100
AcDbVertex
100
AcDb2dVertex
 10
76.81598305371267
 20
-90.12059730819902
 30
0.0
  0
VERTEX
  5
AC
330
AA
100
AcDbEntity
  8
_U+30EC_U+30A4_U+30E4_U+30FC 1
370
     0
100
AcDbVertex
100
AcDb2dVertex
 10
76.56414657374091
 20
-90.12059730819902
 30
0.0
  0
VERTEX
  5
AD
330
AA
100
AcDbEntity
  8
_U+30EC_U+30A4_U+30E4_U+30FC 1
370
     0
100
AcDbVertex
100
AcDb2dVertex
 10
76.56414657374091
 20
-89.90286727353123
 30
0.0
  0
VERTEX
  5
AE
330
AA
100
AcDbEntity
  8
_U+30EC_U+30A4_U+30E4_U+30FC 1
370
     0
100
AcDbVertex
100
AcDb2dVertex
 10
76.81598305371267
 20
-89.90286727353123
 30
0.0
  0
VERTEX
  5
AF
330
AA
100
AcDbEntity
  8
_U+30EC_U+30A4_U+30E4_U+30FC 1
370
     0
100
AcDbVertex
100
AcDb2dVertex
 10
76.81598305371267
 20
-90.12059730819902
 30
0.0
  0
SEQEND
  5
B0
330
AA
100
AcDbEntity
  8
_U+30EC_U+30A4_U+30E4_U+30FC 1
370
     0
  0
HATCH
  5
B1
330
A3
100
AcDbEntity
  8
_U+30EC_U+30A4_U+30E4_U+30FC 1
 62
   179
420
  2234388
100
AcDbHatch
 10
0.0
 20
0.0
 30
0.0
210
0.0
220
0.0
230
1.0
  2
SOLID
 70
     1
 71
     0
 91
        1
 92
        1
 93
        4
 72
     1
 10
76.81598305371267
 20
-90.12059730819902
 11
76.56414657374091
 21
-90.12059730819902
 72
     1
 10
76.56414657374091
 20
-90.12059730819902
 11
76.56414657374091
 21
-89.90286727353123
 72
     1
 10
76.56414657374091
 20
-89.90286727353123
 11
76.81598305371267
 21
-89.90286727353123
 72
     1
 10
76.81598305371267
 20
-89.90286727353123
 11
76.81598305371267
 21
-90.12059730819902
 97
        0
 75
     2
 76
     1
 98
        0
  0
SPLINE
  5
B2
330
A3
100
AcDbEntity
  8
_U+30EC_U+30A4_U+30E4_U+30FC 1
370
     0
100
AcDbSpline
210
0.0
220
0.0
230
1.0
 70
    11
 71
     3
 72
    44
 73
    40
 74
     0
 42
0.0000000001
 43
0.0000000001
 12
1.0
 22
0.0
 32
0.0
 13
1.0
 23
0.0
 33
0.0
 40
0.0
 40
0.0
 40
0.0
 40
0.0
 40
1.0
 40
1.0
 40
1.0
 40
2.0
 40
2.0
 40
2.0
 40
3.0
 40
3.0
 40
3.0
 40
4.0
 40
4.0
 40
4.0
 40
5.0
 40
5.0
 40
5.0
 40
6.0
 40
6.0
 40
6.0
 40
7.0
 40
7.0
 40
7.0
 40
8.0
 40
8.0
 40
8.0
 40
9.0
 40
9.0
 40
9.0
 40
10.0
 40
10.0
 40
10.0
 40
11.0
 40
11.0
 40
11.0
 40
12.0
 40
12.0
 40
12.0
 40
13.0
 40
13.0
 40
13.0
 40
13.0
 10
76.23410642625397
 20
-89.18559839350222
 30
0.0
 10
76.392925328124
 20
-89.3743896260939
 30
0.0
 10
76.46699488105686
 20
-89.45466035090023
 30
0.0
 10
76.61065536279179
 20
-89.4970350253688
 30
0.0
 10
76.61065536279179
 20
-89.4970350253688
 30
0.0
 10
76.61065536279179
 20
-88.82317434845393
 30
0.0
 10
76.61065536279179
 20
-88.82317434845393
 30
0.0
 10
76.61065536279179
 20
-88.82317434845393
 30
0.0
 10
76.81598305371267
 20
-88.82317434845393
 30
0.0
 10
76.81598305371267
 20
-88.82317434845393
 30
0.0
 10
76.81598305371267
 20
-88.82317434845393
 30
0.0
 10
76.81598305371267
 20
-89.71269800274544
 30
0.0
 10
76.81598305371267
 20
-89.71269800274544
 30
0.0
 10
76.45838214234374
 20
-89.68548174841197
 30
0.0
 10
76.38017847482857
 20
-89.62863767290534
 30
0.0
 10
76.08183320580594
 20
-89.29549693948168
 30
0.0
 10
75.88305119630702
 20
-89.07397729978013
 30
0.0
 10
75.8151828152476
 20
-89.01747773382202
 30
0.0
 10
75.67772350538613
 20
-89.01747773382202
 30
0.0
 10
75.55921222069354
 20
-89.01747773382202
 30
0.0
 10
75.42829859225404
 20
-89.07948945255652
 30
0.0
 10
75.42829859225404
 20
-89.24967716952786
 30
0.0
 10
75.42829859225404
 20
-89.4749864142632
 30
0.0
 10
75.65877548021726
 20
-89.48222111478222
 30
0.0
 10
75.7752197076187
 20
-89.48601071981601
 30
0.0
 10
75.7752197076187
 20
-89.48601071981601
 30
0.0
 10
75.7752197076187
 20
-89.67996959563557
 30
0.0
 10
75.7752197076187
 20
-89.67996959563557
 30
0.0
 10
75.64809568421298
 20
-89.67273489511655
 30
0.0
 10
75.53613008094236
 20
-89.66343313730637
 30
0.0
 10
75.41761879624977
 20
-89.59384220850433
 30
0.0
 10
75.25673283708859
 20
-89.49875757311142
 30
0.0
 10
75.22297090133316
 20
-89.33752710440173
 30
0.0
 10
75.22297090133316
 20
-89.23693031623243
 30
0.0
 10
75.22297090133316
 20
-88.99715167045905
 30
0.0
 10
75.40693900024549
 20
-88.81800670522605
 30
0.0
 10
75.67979056267728
 20
-88.81800670522605
 30
0.0
 10
75.90854490289787
 20
-88.81800670522605
 30
0.0
 10
76.00776365287307
 20
-88.91860349339535
 30
0.0
 10
76.23410642625397
 20
-89.18559839350222
 30
0.0
  0
HATCH
  5
B3
330
A3
100
AcDbEntity
  8
_U+30EC_U+30A4_U+30E4_U+30FC 1
 62
   179
420
  2234388
100
AcDbHatch
 10
0.0
 20
0.0
 30
0.0
210
0.0
220
0.0
230
1.0
  2
SOLID
 70
     1
 71
     0
 91
        1
 92
        1
 93
        1
 72
     4
 94
        3
 73
     0
 74
     1
 95
       44
 96
       40
 40
0.0
 40
0.0
 40
0.0
 40
0.0
 40
1.0
 40
1.0
 40
1.0
 40
2.0
 40
2.0
 40
2.0
 40
3.0
 40
3.0
 40
3.0
 40
4.0
 40
4.0
 40
4.0
 40
5.0
 40
5.0
 40
5.0
 40
6.0
 40
6.0
 40
6.0
 40
7.0
 40
7.0
 40
7.0
 40
8.0
 40
8.0
 40
8.0
 40
9.0
 40
9.0
 40
9.0
 40
10.0
 40
10.0
 40
10.0
 40
11.0
 40
11.0
 40
11.0
 40
12.0
 40
12.0
 40
12.0
 40
13.0
 40
13.0
 40
13.0
 40
13.0
 10
76.23410642625397
 20
-89.18559839350222
 10
76.392925328124
 20
-89.3743896260939
 10
76.46699488105686
 20
-89.45466035090023
 10
76.61065536279179
 20
-89.4970350253688
 10
76.61065536279179
 20
-89.4970350253688
 10
76.61065536279179
 20
-88.82317434845393
 10
76.61065536279179
 20
-88.82317434845393
 10
76.61065536279179
 20
-88.82317434845393
 10
76.81598305371267
 20
-88.82317434845393
 10
76.81598305371267
 20
-88.82317434845393
 10
76.81598305371267
 20
-88.82317434845393
 10
76.81598305371267
 20
-89.71269800274544
 10
76.81598305371267
 20
-89.71269800274544
 10
76.45838214234374
 20
-89.68548174841197
 10
76.38017847482857
 20
-89.62863767290534
 10
76.08183320580594
 20
-89.29549693948168
 10
75.88305119630702
 20
-89.07397729978013
 10
75.8151828152476
 20
-89.01747773382202
 10
75.67772350538613
 20
-89.01747773382202
 10
75.55921222069354
 20
-89.01747773382202
 10
75.42829859225404
 20
-89.07948945255652
 10
75.42829859225404
 20
-89.24967716952786
 10
75.42829859225404
 20
-89.4749864142632
 10
75.65877548021726
 20
-89.48222111478222
 10
75.7752197076187
 20
-89.48601071981601
 10
75.7752197076187
 20
-89.48601071981601
 10
75.7752197076187
 20
-89.67996959563557
 10
75.7752197076187
 20
-89.67996959563557
 10
75.64809568421298
 20
-89.67273489511655
 10
75.53613008094236
 20
-89.66343313730637
 10
75.41761879624977
 20
-89.59384220850433
 10
75.25673283708859
 20
-89.49875757311142
 10
75.22297090133316
 20
-89.33752710440173
 10
75.22297090133316
 20
-89.23693031623243
 10
75.22297090133316
 20
-88.99715167045905
 10
75.40693900024549
 20
-88.81800670522605
 10
75.67979056267728
 20
-88.81800670522605
 10
75.90854490289787
 20
-88.81800670522605
 10
76.00776365287307
 20
-88.91860349339535
 10
76.23410642625397
 20
-89.18559839350222
 97
        0
 97
        0
 75
     2
 76
     1
 98
        0
  0
ENDBLK
  5
A6
330
A3
100
AcDbEntity
  8
0
100
AcDbBlockEnd
  0
BLOCK
  5
C2
330
C0
100
AcDbEntity
  8
0
100
AcDbBlockBegin
  2
block 5
 70
     0
 10
0.0
 20
0.0
 30
0.0
  3
block 5
  1

  0
POLYLINE
  5
C4
330
C0
100
AcDbEntity
  8
_U+30EC_U+30A4_U+30E4_U+30FC 1
370
     0
100
AcDb2dPolyline
 66
     1
 10
0.0
 20
0.0
 30
0.0
  0
VERTEX
  5
C5
330
C4
100
AcDbEntity
  8
_U+30EC_U+30A4_U+30E4_U+30FC 1
370
     0
100
AcDbVertex
100
AcDb2dVertex
 10
60.62213947052155
 20
-97.01974552696035
 30
0.0
  0
VERTEX
  5
C6
330
C4
100
AcDbEntity
  8
_U+30EC_U+30A4_U+30E4_U+30FC 1
370
     0
100
AcDbVertex
100
AcDb2dVertex
 10
60.62213947052155
 20
-97.366666642325
 30
0.0
  0
VERTEX
  5
C7
330
C4
100
AcDbEntity
  8
_U+30EC_U+30A4_U+30E4_U+30FC 1
370
     0
100
AcDbVertex
100
AcDb2dVertex
 10
60.43352049270413
 20
-97.366666642325
 30
0.0
  0
VERTEX
  5
C8
330
C4
100
AcDbEntity
  8
_U+30EC_U+30A4_U+30E4_U+30FC 1
370
     0
100
AcDbVertex
100
AcDb2dVertex
 10
60.43352049270413
 20
-97.01974552696035
 30
0.0
  0
VERTEX
  5
C9
330
C4
100
AcDbEntity
  8
_U+30EC_U+30A4_U+30E4_U+30FC 1
370
     0
100
AcDbVertex
100
AcDb2dVertex
 10
59.86628552105773
 20
-97.01974552696035
 30
0.0
  0
VERTEX
  5
CA
330
C4
100
AcDbEntity
  8
_U+30EC_U+30A4_U+30E4_U+30FC 1
370
     0
100
AcDbVertex
100
AcDb2dVertex
 10
59.86628552105773
 20
-96.79546981087059
 30
0.0
  0
VERTEX
  5
CB
330
C4
100
AcDbEntity
  8
_U+30EC_U+30A4_U+30E4_U+30FC 1
370
     0
100
AcDbVertex
100
AcDb2dVertex
 10
60.45367430129284
 20
-95.8222303362875
 30
0.0
  0
VERTEX
  5
CC
330
C4
100
AcDbEntity
  8
_U+30EC_U+30A4_U+30E4_U+30FC 1
370
     0
100
AcDbVertex
100
AcDb2dVertex
 10
60.62213947052155
 20
-95.8222303362875
 30
0.0
  0
VERTEX
  5
CD
330
C4
100
AcDbEntity
  8
_U+30EC_U+30A4_U+30E4_U+30FC 1
370
     0
100
AcDbVertex
100
AcDb2dVertex
 10
60.62213947052155
 20
-96.82096351746144
 30
0.0
  0
VERTEX
  5
CE
330
C4
100
AcDbEntity
  8
_U+30EC_U+30A4_U+30E4_U+30FC 1
370
     0
100
AcDbVertex
100
AcDb2dVertex
 10
60.8014566905288
 20
-96.82096351746144
 30
0.0
  0
VERTEX
  5
CF
330
C4
100
AcDbEntity
  8
_U+30EC_U+30A4_U+30E4_U+30FC 1
370
     0
100
AcDbVertex
100
AcDb2dVertex
 10
60.8014566905288
 20
-97.01974552696035
 30
0.0
  0
VERTEX
  5
D0
330
C4
100
AcDbEntity
  8
_U+30EC_U+30A4_U+30E4_U+30FC 1
370
     0
100
AcDbVertex
100
AcDb2dVertex
 10
60.62213947052155
 20
-97.01974552696035
 30
0.0
  0
SEQEND
  5
D1
330
C4
100
AcDbEntity
  8
_U+30EC_U+30A4_U+30E4_U+30FC 1
370
     0
  0
POLYLINE
  5
D2
330
C0
100
AcDbEntity
  8
_U+30EC_U+30A4_U+30E4_U+30FC 1
370
     0
100
AcDb2dPolyline
 66
     1
 10
0.0
 20
0.0
 30
0.0
  0
VERTEX
  5
D3
330
D2
100
AcDbEntity
  8
_U+30EC_U+30A4_U+30E4_U+30FC 1
370
     0
100
AcDbVertex
100
AcDb2dVertex
 10
60.43352049270413
 20
-96.16501733706986
 30
0.0
  0
VERTEX
  5
D4
330
D2
100
AcDbEntity
  8
_U+30EC_U+30A4_U+30E4_U+30FC 1
370
     0
100
AcDbVertex
100
AcDb2dVertex
 10
60.03836804054597
 20
-96.82096351746144
 30
0.0
  0
VERTEX
  5
D5
330
D2
100
AcDbEntity
  8
_U+30EC_U+30A4_U+30E4_U+30FC 1
370
     0
100
AcDbVertex
100
AcDb2dVertex
 10
60.43352049270413
 20
-96.82096351746144
 30
0.0
  0
VERTEX
  5
D6
330
D2
100
AcDbEntity
  8
_U+30EC_U+30A4_U+30E4_U+30FC 1
370
     0
100
AcDbVertex
100
AcDb2dVertex
 10
60.43352049270413
 20
-96.16501733706986
 30
0.0
  0
SEQEND
  5
D7
330
D2
100
AcDbEntity
  8
_U+30EC_U+30A4_U+30E4_U+30FC 1
370
     0
  0
HATCH
  5
D8
330
C0
100
AcDbEntity
  8
_U+30EC_U+30A4_U+30E4_U+30FC 1
 62
   179
420
  2234388
100
AcDbHatch
 10
0.0
 20
0.0
 30
0.0
210
0.0
220
0.0
230
1.0
  2
SOLID
 70
     1
 71
     0
 91
        2
 92
        1
 93
       11
 72
     1
 10
60.62213947052155
 20
-97.01974552696035
 11
60.62213947052155
 21
-97.366666642325
 72
     1
 10
60.62213947052155
 20
-97.366666642325
 11
60.43352049270413
 21
-97.366666642325
 72
     1
 10
60.43352049270413
 20
-97.366666642325
 11
60.43352049270413
 21
-97.01974552696035
 72
     1
 10
60.43352049270413
 20
-97.01974552696035
 11
59.86628552105773
 21
-97.01974552696035
 72
     1
 10
59.86628552105773
 20
-97.01974552696035
 11
59.86628552105773
 21
-96.79546981087059
 72
     1
 10
59.86628552105773
 20
-96.79546981087059
 11
60.45367430129284
 21
-95.8222303362875
 72
     1
 10
60.45367430129284
 20
-95.8222303362875
 11
60.62213947052155
 21
-95.8222303362875
 72
     1
 10
60.62213947052155
 20
-95.8222303362875
 11
60.62213947052155
 21
-96.82096351746144
 72
     1
 10
60.62213947052155
 20
-96.82096351746144
 11
60.8014566905288
 21
-96.82096351746144
 72
     1
 10
60.8014566905288
 20
-96.82096351746144
 11
60.8014566905288
 21
-97.01974552696035
 72
     1
 10
60.8014566905288
 20
-97.01974552696035
 11
60.62213947052155
 21
-97.01974552696035
 97
        0
 92
        1
 93
        3
 72
     1
 10
60.43352049270413
 20
-96.16501733706986
 11
60.03836804054597
 21
-96.82096351746144
 72
     1
 10
60.03836804054597
 20
-96.82096351746144
 11
60.43352049270413
 21
-96.82096351746144
 72
     1
 10
60.43352049270413
 20
-96.82096351746144
 11
60.43352049270413
 21
-96.16501733706986
 97
        0
 75
     2
 76
     1
 98
        0
  0
ENDBLK
  5
C3
330
C0
100
AcDbEntity
  8
0
100
AcDbBlockEnd
  0
BLOCK
  5
E3
330
E1
100
AcDbEntity
  8
0
100
AcDbBlockBegin
  2
block 6
 70
     0
 10
0.0
 20
0.0
 30
0.0
  3
block 6
  1

  0
SPLINE
  5
E5
330
E1
100
AcDbEntity
  8
_U+30EC_U+30A4_U+30E4_U+30FC 1
370
     0
100
AcDbSpline
210
0.0
220
0.0
230
1.0
 70
    11
 71
     3
 72
    26
 73
    22
 74
     0
 42
0.0000000001
 43
0.0000000001
 12
1.0
 22
0.0
 32
0.0
 13
1.0
 23
0.0
 33
0.0
 40
0.0
 40
0.0
 40
0.0
 40
0.0
 40
1.0
 40
1.0
 40
1.0
 40
2.0
 40
2.0
 40
2.0
 40
3.0
 40
3.0
 40
3.0
 40
4.0
 40
4.0
 40
4.0
 40
5.0
 40
5.0
 40
5.0
 40
6.0
 40
6.0
 40
6.0
 40
7.0
 40
7.0
 40
7.0
 40
7.0
 10
52.62641735880521
 20
-97.366666642325
 30
0.0
 10
52.62641735880521
 20
-97.366666642325
 30
0.0
 10
52.62641735880521
 20
-96.26251353930243
 30
0.0
 10
52.62641735880521
 20
-96.26251353930243
 30
0.0
 10
52.62641735880521
 20
-96.26251353930243
 30
0.0
 10
52.34099119785225
 20
-96.26251353930243
 30
0.0
 10
52.34099119785225
 20
-96.26251353930243
 30
0.0
 10
52.34099119785225
 20
-96.26251353930243
 30
0.0
 10
52.34099119785225
 20
-96.1143744334367
 30
0.0
 10
52.34099119785225
 20
-96.1143744334367
 30
0.0
 10
52.62831216132209
 20
-96.09956052285011
 30
0.0
 10
52.66861977849951
 20
-95.93660750639779
 30
0.0
 10
52.69411348509036
 20
-95.8222303362875
 30
0.0
 10
52.69411348509036
 20
-95.8222303362875
 30
0.0
 10
52.82054848939903
 20
-95.8222303362875
 30
0.0
 10
52.82054848939903
 20
-95.8222303362875
 30
0.0
 10
52.82054848939903
 20
-95.8222303362875
 30
0.0
 10
52.82054848939903
 20
-97.366666642325
 30
0.0
 10
52.82054848939903
 20
-97.366666642325
 30
0.0
 10
52.82054848939903
 20
-97.366666642325
 30
0.0
 10
52.62641735880521
 20
-97.366666642325
 30
0.0
 10
52.62641735880521
 20
-97.366666642325
 30
0.0
  0
HATCH
  5
E6
330
E1
100
AcDbEntity
  8
_U+30EC_U+30A4_U+30E4_U+30FC 1
 62
   179
420
  2234388
100
AcDbHatch
 10
0.0
 20
0.0
 30
0.0
210
0.0
220
0.0
230
1.0
  2
SOLID
 70
     1
 71
     0
 91
        1
 92
        1
 93
        1
 72
     4
 94
        3
 73
     0
 74
     1
 95
       26
 96
       22
 40
0.0
 40
0.0
 40
0.0
 40
0.0
 40
1.0
 40
1.0
 40
1.0
 40
2.0
 40
2.0
 40
2.0
 40
3.0
 40
3.0
 40
3.0
 40
4.0
 40
4.0
 40
4.0
 40
5.0
 40
5.0
 40
5.0
 40
6.0
 40
6.0
 40
6.0
 40
7.0
 40
7.0
 40
7.0
 40
7.0
 10
52.62641735880521
 20
-97.366666642325
 10
52.62641735880521
 20
-97.366666642325
 10
52.62641735880521
 20
-96.26251353930243
 10
52.62641735880521
 20
-96.26251353930243
 10
52.62641735880521
 20
-96.26251353930243
 10
52.34099119785225
 20
-96.26251353930243
 10
52.34099119785225
 20
-96.26251353930243
 10
52.34099119785225
 20
-96.26251353930243
 10
52.34099119785225
 20
-96.1143744334367
 10
52.34099119785225
 20
-96.1143744334367
 10
52.62831216132209
 20
-96.09956052285011
 10
52.66861977849951
 20
-95.93660750639779
 10
52.69411348509036
 20
-95.8222303362875
 10
52.69411348509036
 20
-95.8222303362875
 10
52.82054848939903
 20
-95.8222303362875
 10
52.82054848939903
 20
-95.8222303362875
 10
52.82054848939903
 20
-95.8222303362875
 10
52.82054848939903
 20
-97.366666642325
 10
52.82054848939903
 20
-97.366666642325
 10
52.82054848939903
 20
-97.366666642325
 10
52.62641735880521
 20
-97.366666642325
 10
52.62641735880521
 20
-97.366666642325
 97
        0
 97
        0
 75
     2
 76
     1
 98
        0
  0
SPLINE
  5
E7
330
E1
100
AcDbEntity
  8
_U+30EC_U+30A4_U+30E4_U+30FC 1
370
     0
100
AcDbSpline
210
0.0
220
0.0
230
1.0
 70
    11
 71
     3
 72
    29
 73
    25
 74
     0
 42
0.0000000001
 43
0.0000000001
 12
1.0
 22
0.0
 32
0.0
 13
1.0
 23
0.0
 33
0.0
 40
0.0
 40
0.0
 40
0.0
 40
0.0
 40
1.0
 40
1.0
 40
1.0
 40
2.0
 40
2.0
 40
2.0
 40
3.0
 40
3.0
 40
3.0
 40
4.0
 40
4.0
 40
4.0
 40
5.0
 40
5.0
 40
5.0
 40
6.0
 40
6.0
 40
6.0
 40
7.0
 40
7.0
 40
7.0
 40
8.0
 40
8.0
 40
8.0
 40
8.0
 10
54.03012151427025
 20
-97.18889971528611
 30
0.0
 10
53.93675942661998
 20
-97.39836152078931
 30
0.0
 10
53.78655326346308
 20
-97.41730954595818
 30
0.0
 10
53.68595647529379
 20
-97.41730954595818
 30
0.0
 10
53.5467746176897
 20
-97.41730954595818
 30
0.0
 10
53.42412921841481
 20
-97.3708007569073
 30
0.0
 10
53.34179143631733
 20
-97.18889971528611
 30
0.0
 10
53.25221895370084
 20
-96.9942518203695
 30
0.0
 10
53.23568249537163
 20
-96.75722925098431
 30
0.0
 10
53.23568249537163
 20
-96.59462074408052
 30
0.0
 10
53.23568249537163
 20
-96.45061575279708
 30
0.0
 10
53.25032415118395
 20
-96.1987792728253
 30
0.0
 10
53.34179143631733
 20
-95.99999726332639
 30
0.0
 10
53.4351535239676
 20
-95.79708113924518
 30
0.0
 10
53.57433538157169
 20
-95.77365448994549
 30
0.0
 10
53.68595647529379
 20
-95.77365448994549
 30
0.0
 10
53.82307127560674
 20
-95.77365448994549
 30
0.0
 10
53.94778373217278
 20
-95.8180962217052
 30
0.0
 10
54.03012151427025
 20
-95.99999726332639
 30
0.0
 10
54.11590439185297
 20
-96.19257810095186
 30
0.0
 10
54.13623045521594
 20
-96.42098793162393
 30
0.0
 10
54.13623045521594
 20
-96.59462074408052
 30
0.0
 10
54.13623045521594
 20
-96.76584198969744
 30
0.0
 10
54.11797144914412
 20
-96.99631887766064
 30
0.0
 10
54.03012151427025
 20
-97.18889971528611
 30
0.0
  0
SPLINE
  5
E8
330
E1
100
AcDbEntity
  8
_U+30EC_U+30A4_U+30E4_U+30FC 1
370
     0
100
AcDbSpline
210
0.0
220
0.0
230
1.0
 70
    11
 71
     3
 72
    17
 73
    13
 74
     0
 42
0.0000000001
 43
0.0000000001
 12
1.0
 22
0.0
 32
0.0
 13
1.0
 23
0.0
 33
0.0
 40
0.0
 40
0.0
 40
0.0
 40
0.0
 40
1.0
 40
1.0
 40
1.0
 40
2.0
 40
2.0
 40
2.0
 40
3.0
 40
3.0
 40
3.0
 40
4.0
 40
4.0
 40
4.0
 40
4.0
 10
53.68595647529379
 20
-95.96623532757094
 30
0.0
 10
53.46994898836863
 20
-95.96623532757094
 30
0.0
 10
53.4296413711912
 20
-96.249766686007
 30
0.0
 10
53.4296413711912
 20
-96.59462074408052
 30
0.0
 10
53.4296413711912
 20
-96.91398109556317
 30
0.0
 10
53.46081948533271
 20
-97.22266165104156
 30
0.0
 10
53.68595647529379
 20
-97.22266165104156
 30
0.0
 10
53.89989690492781
 20
-97.22266165104156
 30
0.0
 10
53.94227157939638
 20
-96.94154185944518
 30
0.0
 10
53.94227157939638
 20
-96.59462074408052
 30
0.0
 10
53.94227157939638
 20
-96.27491588304933
 30
0.0
 10
53.90919866273798
 20
-95.96623532757094
 30
0.0
 10
53.68595647529379
 20
-95.96623532757094
 30
0.0
  0
HATCH
  5
E9
330
E1
100
AcDbEntity
  8
_U+30EC_U+30A4_U+30E4_U+30FC 1
 62
   179
420
  2234388
100
AcDbHatch
 10
0.0
 20
0.0
 30
0.0
210
0.0
220
0.0
230
1.0
  2
SOLID
 70
     1
 71
     0
 91
        2
 92
        1
 93
        1
 72
     4
 94
        3
 73
     0
 74
     1
 95
       29
 96
       25
 40
0.0
 40
0.0
 40
0.0
 40
0.0
 40
1.0
 40
1.0
 40
1.0
 40
2.0
 40
2.0
 40
2.0
 40
3.0
 40
3.0
 40
3.0
 40
4.0
 40
4.0
 40
4.0
 40
5.0
 40
5.0
 40
5.0
 40
6.0
 40
6.0
 40
6.0
 40
7.0
 40
7.0
 40
7.0
 40
8.0
 40
8.0
 40
8.0
 40
8.0
 10
54.03012151427025
 20
-97.18889971528611
 10
53.93675942661998
 20
-97.39836152078931
 10
53.78655326346308
 20
-97.41730954595818
 10
53.68595647529379
 20
-97.41730954595818
 10
53.5467746176897
 20
-97.41730954595818
 10
53.42412921841481
 20
-97.3708007569073
 10
53.34179143631733
 20
-97.18889971528611
 10
53.25221895370084
 20
-96.9942518203695
 10
53.23568249537163
 20
-96.75722925098431
 10
53.23568249537163
 20
-96.59462074408052
 10
53.23568249537163
 20
-96.45061575279708
 10
53.25032415118395
 20
-96.1987792728253
 10
53.34179143631733
 20
-95.99999726332639
 10
53.4351535239676
 20
-95.79708113924518
 10
53.57433538157169
 20
-95.77365448994549
 10
53.68595647529379
 20
-95.77365448994549
 10
53.82307127560674
 20
-95.77365448994549
 10
53.94778373217278
 20
-95.8180962217052
 10
54.03012151427025
 20
-95.99999726332639
 10
54.11590439185297
 20
-96.19257810095186
 10
54.13623045521594
 20
-96.42098793162393
 10
54.13623045521594
 20
-96.59462074408052
 10
54.13623045521594
 20
-96.76584198969744
 10
54.11797144914412
 20
-96.99631887766064
 10
54.03012151427025
 20
-97.18889971528611
 97
        0
 97
        0
 92
        1
 93
        1
 72
     4
 94
        3
 73
     0
 74
     1
 95
       17
 96
       13
 40
0.0
 40
0.0
 40
0.0
 40
0.0
 40
1.0
 40
1.0
 40
1.0
 40
2.0
 40
2.0
 40
2.0
 40
3.0
 40
3.0
 40
3.0
 40
4.0
 40
4.0
 40
4.0
 40
4.0
 10
53.68595647529379
 20
-95.96623532757094
 10
53.46994898836863
 20
-95.96623532757094
 10
53.4296413711912
 20
-96.249766686007
 10
53.4296413711912
 20
-96.59462074408052
 10
53.4296413711912
 20
-96.91398109556317
 10
53.46081948533271
 20
-97.22266165104156
 10
53.68595647529379
 20
-97.22266165104156
 10
53.89989690492781
 20
-97.22266165104156
 10
53.94227157939638
 20
-96.94154185944518
 10
53.94227157939638
 20
-96.59462074408052
 10
53.94227157939638
 20
-96.27491588304933
 10
53.90919866273798
 20
-95.96623532757094
 10
53.68595647529379
 20
-95.96623532757094
 97
        0
 97
        0
 75
     2
 76
     1
 98
        0
  0
ENDBLK
  5
E4
330
E1
100
AcDbEntity
  8
0
100
AcDbBlockEnd
  0
ENDSEC
  0
SECTION
  2
ENTITIES
  0
POLYLINE
  5
41
330
1F
100
AcDbEntity
  8
_U+30EC_U+30A4_U+30E4_U+30FC 1
 62
   179
420
  2234388
370
    25
100
AcDb2dPolyline
 66
     1
 10
0.0
 20
0.0
 30
0.0
  0
VERTEX
  5
42
330
41
100
AcDbEntity
  8
_U+30EC_U+30A4_U+30E4_U+30FC 1
 62
   179
420
  2234388
370
    25
100
AcDbVertex
100
AcDb2dVertex
 10
48.41236348711993
 20
-85.7635938674481
 30
0.0
  0
VERTEX
  5
43
330
41
100
AcDbEntity
  8
_U+30EC_U+30A4_U+30E4_U+30FC 1
 62
   179
420
  2234388
370
    25
100
AcDbVertex
100
AcDb2dVertex
 10
73.41224229376434
 20
-85.7635938674481
 30
0.0
  0
SEQEND
  5
44
330
41
100
AcDbEntity
  8
_U+30EC_U+30A4_U+30E4_U+30FC 1
 62
   179
420
  2234388
370
    25
  0
POLYLINE
  5
45
330
1F
100
AcDbEntity
  8
_U+30EC_U+30A4_U+30E4_U+30FC 1
 62
   179
420
  2234388
370
    25
100
AcDb2dPolyline
 66
     1
 10
0.0
 20
0.0
 30
0.0
  0
VERTEX
  5
46
330
45
100
AcDbEntity
  8
_U+30EC_U+30A4_U+30E4_U+30FC 1
 62
   179
420
  2234388
370
    25
100
AcDbVertex
100
AcDb2dVertex
 10
73.41224229376434
 20
-85.7635938674481
 30
0.0
  0
VERTEX
  5
47
330
45
100
AcDbEntity
  8
_U+30EC_U+30A4_U+30E4_U+30FC 1
 62
   179
420
  2234388
370
    25
100
AcDbVertex
100
AcDb2dVertex
 10
73.41224229376434
 20
-86.76336608942032
 30
0.0
  0
SEQEND
  5
48
330
45
100
AcDbEntity
  8
_U+30EC_U+30A4_U+30E4_U+30FC 1
 62
   179
420
  2234388
370
    25
  0
POLYLINE
  5
49
330
1F
100
AcDbEntity
  8
_U+30EC_U+30A4_U+30E4_U+30FC 1
 62
   179
420
  2234388
370
    25
100
AcDb2dPolyline
 66
     1
 10
0.0
 20
0.0
 30
0.0
  0
VERTEX
  5
4A
330
49
100
AcDbEntity
  8
_U+30EC_U+30A4_U+30E4_U+30FC 1
 62
   179
420
  2234388
370
    25
100
AcDbVertex
100
AcDb2dVertex
 10
48.41236348711993
 20
-85.7635938674481
 30
0.0
  0
VERTEX
  5
4B
330
49
100
AcDbEntity
  8
_U+30EC_U+30A4_U+30E4_U+30FC 1
 62
   179
420
  2234388
370
    25
100
AcDbVertex
100
AcDb2dVertex
 10
48.41236348711993
 20
-86.76336608942032
 30
0.0
  0
SEQEND
  5
4C
330
49
100
AcDbEntity
  8
_U+30EC_U+30A4_U+30E4_U+30FC 1
 62
   179
420
  2234388
370
    25
  0
POLYLINE
  5
4D
330
1F
100
AcDbEntity
  8
_U+30EC_U+30A4_U+30E4_U+30FC 1
 62
   179
420
  2234388
370
    25
100
AcDb2dPolyline
 66
     1
 10
0.0
 20
0.0
 30
0.0
  0
VERTEX
  5
4E
330
4D
100
AcDbEntity
  8
_U+30EC_U+30A4_U+30E4_U+30FC 1
 62
   179
420
  2234388
370
    25
100
AcDbVertex
100
AcDb2dVertex
 10
48.41236348711993
 20
-86.76336608942032
 30
0.0
  0
VERTEX
  5
4F
330
4D
100
AcDbEntity
  8
_U+30EC_U+30A4_U+30E4_U+30FC 1
 62
   179
420
  2234388
370
    25
100
AcDbVertex
100
AcDb2dVertex
 10
58.41209628756105
 20
-86.76336608942032
 30
0.0
  0
SEQEND
  5
50
330
4D
100
AcDbEntity
  8
_U+30EC_U+30A4_U+30E4_U+30FC 1
 62
   179
420
  2234388
370
    25
  0
POLYLINE
  5
51
330
1F
100
AcDbEntity
  8
_U+30EC_U+30A4_U+30E4_U+30FC 1
 62
   179
420
  2234388
370
    25
100
AcDb2dPolyline
 66
     1
 10
0.0
 20
0.0
 30
0.0
  0
VERTEX
  5
52
330
51
100
AcDbEntity
  8
_U+30EC_U+30A4_U+30E4_U+30FC 1
 62
   179
420
  2234388
370
    25
100
AcDbVertex
100
AcDb2dVertex
 10
58.41209628756105
 20
-86.76336608942032
 30
0.0
  0
VERTEX
  5
53
330
51
100
AcDbEntity
  8
_U+30EC_U+30A4_U+30E4_U+30FC 1
 62
   179
420
  2234388
370
    25
100
AcDbVertex
100
AcDb2dVertex
 10
58.41209628756105
 20
-93.96292553206482
 30
0.0
  0
SEQEND
  5
54
330
51
100
AcDbEntity
  8
_U+30EC_U+30A4_U+30E4_U+30FC 1
 62
   179
420
  2234388
370
    25
  0
POLYLINE
  5
55
330
1F
100
AcDbEntity
  8
_U+30EC_U+30A4_U+30E4_U+30FC 1
 62
   179
420
  2234388
370
    25
100
AcDb2dPolyline
 66
     1
 10
0.0
 20
0.0
 30
0.0
  0
VERTEX
  5
56
330
55
100
AcDbEntity
  8
_U+30EC_U+30A4_U+30E4_U+30FC 1
 62
   179
420
  2234388
370
    25
100
AcDbVertex
100
AcDb2dVertex
 10
62.41220812995414
 20
-92.96315331009228
 30
0.0
  0
VERTEX
  5
57
330
55
100
AcDbEntity
  8
_U+30EC_U+30A4_U+30E4_U+30FC 1
 62
   179
420
  2234388
370
    25
100
AcDbVertex
100
AcDb2dVertex
 10
62.41220812995414
 20
-93.96292553206482
 30
0.0
  0
SEQEND
  5
58
330
55
100
AcDbEntity
  8
_U+30EC_U+30A4_U+30E4_U+30FC 1
 62
   179
420
  2234388
370
    25
  0
POLYLINE
  5
59
330
1F
100
AcDbEntity
  8
_U+30EC_U+30A4_U+30E4_U+30FC 1
 62
   179
420
  2234388
370
    25
100
AcDb2dPolyline
 66
     1
 10
0.0
 20
0.0
 30
0.0
  0
VERTEX
  5
5A
330
59
100
AcDbEntity
  8
_U+30EC_U+30A4_U+30E4_U+30FC 1
 62
   179
420
  2234388
370
    25
100
AcDbVertex
100
AcDb2dVertex
 10
59.41222126204573
 20
-92.96315331009228
 30
0.0
  0
VERTEX
  5
5B
330
59
100
AcDbEntity
  8
_U+30EC_U+30A4_U+30E4_U+30FC 1
 62
   179
420
  2234388
370
    25
100
AcDbVertex
100
AcDb2dVertex
 10
62.41220812995414
 20
-92.96315331009228
 30
0.0
  0
SEQEND
  5
5C
330
59
100
AcDbEntity
  8
_U+30EC_U+30A4_U+30E4_U+30FC 1
 62
   179
420
  2234388
370
    25
  0
POLYLINE
  5
5D
330
1F
100
AcDbEntity
  8
_U+30EC_U+30A4_U+30E4_U+30FC 1
 62
   179
420
  2234388
370
    25
100
AcDb2dPolyline
 66
     1
 10
0.0
 20
0.0
 30
0.0
  0
VERTEX
  5
5E
330
5D
100
AcDbEntity
  8
_U+30EC_U+30A4_U+30E4_U+30FC 1
 62
   179
420
  2234388
370
    25
100
AcDbVertex
100
AcDb2dVertex
 10
58.41209628756105
 20
-93.96292553206482
 30
0.0
  0
VERTEX
  5
5F
330
5D
100
AcDbEntity
  8
_U+30EC_U+30A4_U+30E4_U+30FC 1
 62
   179
420
  2234388
370
    25
100
AcDbVertex
100
AcDb2dVertex
 10
62.41220812995414
 20
-93.96292553206482
 30
0.0
  0
SEQEND
  5
60
330
5D
100
AcDbEntity
  8
_U+30EC_U+30A4_U+30E4_U+30FC 1
 62
   179
420
  2234388
370
    25
  0
POLYLINE
  5
61
330
1F
100
AcDbEntity
  8
_U+30EC_U+30A4_U+30E4_U+30FC 1
 62
   179
420
  2234388
370
    25
100
AcDb2dPolyline
 66
     1
 10
0.0
 20
0.0
 30
0.0
  0
VERTEX
  5
62
330
61
100
AcDbEntity
  8
_U+30EC_U+30A4_U+30E4_U+30FC 1
 62
   179
420
  2234388
370
    25
100
AcDbVertex
100
AcDb2dVertex
 10
59.41222126204573
 20
-86.76336608942032
 30
0.0
  0
VERTEX
  5
63
330
61
100
AcDbEntity
  8
_U+30EC_U+30A4_U+30E4_U+30FC 1
 62
   179
420
  2234388
370
    25
100
AcDbVertex
100
AcDb2dVertex
 10
59.41222126204573
 20
-92.96315331009228
 30
0.0
  0
SEQEND
  5
64
330
61
100
AcDbEntity
  8
_U+30EC_U+30A4_U+30E4_U+30FC 1
 62
   179
420
  2234388
370
    25
  0
POLYLINE
  5
65
330
1F
100
AcDbEntity
  8
_U+30EC_U+30A4_U+30E4_U+30FC 1
 62
   179
420
  2234388
370
    25
100
AcDb2dPolyline
 66
     1
 10
0.0
 20
0.0
 30
0.0
  0
VERTEX
  5
66
330
65
100
AcDbEntity
  8
_U+30EC_U+30A4_U+30E4_U+30FC 1
 62
   179
420
  2234388
370
    25
100
AcDbVertex
100
AcDb2dVertex
 10
59.41222126204573
 20
-86.76336608942032
 30
0.0
  0
VERTEX
  5
67
330
65
100
AcDbEntity
  8
_U+30EC_U+30A4_U+30E4_U+30FC 1
 62
   179
420
  2234388
370
    25
100
AcDbVertex
100
AcDb2dVertex
 10
73.41224229376434
 20
-86.76336608942032
 30
0.0
  0
SEQEND
  5
68
330
65
100
AcDbEntity
  8
_U+30EC_U+30A4_U+30E4_U+30FC 1
 62
   179
420
  2234388
370
    25
  0
SPLINE
  5
69
330
1F
100
AcDbEntity
  8
_U+30EC_U+30A4_U+30E4_U+30FC 1
 62
   179
420
  2234388
370
     9
100
AcDbSpline
210
0.0
220
0.0
230
1.0
 70
    11
 71
     3
 72
    17
 73
    13
 74
     0
 42
0.0000000001
 43
0.0000000001
 12
1.0
 22
0.0
 32
0.0
 13
1.0
 23
0.0
 33
0.0
 40
0.0
 40
0.0
 40
0.0
 40
0.0
 40
1.0
 40
1.0
 40
1.0
 40
2.0
 40
2.0
 40
2.0
 40
3.0
 40
3.0
 40
3.0
 40
4.0
 40
4.0
 40
4.0
 40
4.0
 10
77.51257830026715
 20
-85.7635938674481
 30
0.0
 10
77.51257830026715
 20
-85.70778442301766
 30
0.0
 10
77.46781080140927
 20
-85.66298164525094
 30
0.0
 10
77.41196608061176
 20
-85.66298164525094
 30
0.0
 10
77.35686219312869
 20
-85.66298164525094
 30
0.0
 10
77.31205941649394
 20
-85.70778442301766
 30
0.0
 10
77.31205941649394
 20
-85.7635938674481
 30
0.0
 10
77.31205941649394
 20
-85.818697756323
 30
0.0
 10
77.35686219312869
 20
-85.86350053408972
 30
0.0
 10
77.41196608061176
 20
-85.86350053408972
 30
0.0
 10
77.46781080140927
 20
-85.86350053408972
 30
0.0
 10
77.51257830026715
 20
-85.818697756323
 30
0.0
 10
77.51257830026715
 20
-85.7635938674481
 30
0.0
  0
SPLINE
  5
6A
330
1F
100
AcDbEntity
  8
_U+30EC_U+30A4_U+30E4_U+30FC 1
 62
   179
420
  2234388
370
     9
100
AcDbSpline
210
0.0
220
0.0
230
1.0
 70
    11
 71
     3
 72
    17
 73
    13
 74
     0
 42
0.0000000001
 43
0.0000000001
 12
1.0
 22
0.0
 32
0.0
 13
1.0
 23
0.0
 33
0.0
 40
0.0
 40
0.0
 40
0.0
 40
0.0
 40
1.0
 40
1.0
 40
1.0
 40
2.0
 40
2.0
 40
2.0
 40
3.0
 40
3.0
 40
3.0
 40
4.0
 40
4.0
 40
4.0
 40
4.0
 10
77.51257830026715
 20
-86.76336608942032
 30
0.0
 10
77.51257830026715
 20
-86.70822692276724
 30
0.0
 10
77.46781080140927
 20
-86.66345942277867
 30
0.0
 10
77.41196608061176
 20
-86.66345942277867
 30
0.0
 10
77.35686219312869
 20
-86.66345942277867
 30
0.0
 10
77.31205941649394
 20
-86.70822692276724
 30
0.0
 10
77.31205941649394
 20
-86.76336608942032
 30
0.0
 10
77.31205941649394
 20
-86.81846997829523
 30
0.0
 10
77.35686219312869
 20
-86.86327275606195
 30
0.0
 10
77.41196608061176
 20
-86.86327275606195
 30
0.0
 10
77.46781080140927
 20
-86.86327275606195
 30
0.0
 10
77.51257830026715
 20
-86.81846997829523
 30
0.0
 10
77.51257830026715
 20
-86.76336608942032
 30
0.0
  0
SPLINE
  5
6B
330
1F
100
AcDbEntity
  8
_U+30EC_U+30A4_U+30E4_U+30FC 1
 62
   179
420
  2234388
370
     9
100
AcDbSpline
210
0.0
220
0.0
230
1.0
 70
    11
 71
     3
 72
    17
 73
    13
 74
     0
 42
0.0000000001
 43
0.0000000001
 12
1.0
 22
0.0
 32
0.0
 13
1.0
 23
0.0
 33
0.0
 40
0.0
 40
0.0
 40
0.0
 40
0.0
 40
1.0
 40
1.0
 40
1.0
 40
2.0
 40
2.0
 40
2.0
 40
3.0
 40
3.0
 40
3.0
 40
4.0
 40
4.0
 40
4.0
 40
4.0
 10
73.51214895788218
 20
-81.763129146226
 30
0.0
 10
73.51214895788218
 20
-81.70802525735077
 30
0.0
 10
73.46734618124741
 20
-81.66322247958405
 30
0.0
 10
73.41224229376434
 20
-81.66322247958405
 30
0.0
 10
73.35710312850438
 20
-81.66322247958405
 30
0.0
 10
73.3123356296465
 20
-81.70802525735077
 30
0.0
 10
73.3123356296465
 20
-81.763129146226
 30
0.0
 10
73.3123356296465
 20
-81.81826831287876
 30
0.0
 10
73.35710312850438
 20
-81.86303581286765
 30
0.0
 10
73.41224229376434
 20
-81.86303581286765
 30
0.0
 10
73.46734618124741
 20
-81.86303581286765
 30
0.0
 10
73.51214895788218
 20
-81.81826831287876
 30
0.0
 10
73.51214895788218
 20
-81.763129146226
 30
0.0
  0
SPLINE
  5
6C
330
1F
100
AcDbEntity
  8
_U+30EC_U+30A4_U+30E4_U+30FC 1
 62
   179
420
  2234388
370
     9
100
AcDbSpline
210
0.0
220
0.0
230
1.0
 70
    11
 71
     3
 72
    17
 73
    13
 74
     0
 42
0.0000000001
 43
0.0000000001
 12
1.0
 22
0.0
 32
0.0
 13
1.0
 23
0.0
 33
0.0
 40
0.0
 40
0.0
 40
0.0
 40
0.0
 40
1.0
 40
1.0
 40
1.0
 40
2.0
 40
2.0
 40
2.0
 40
3.0
 40
3.0
 40
3.0
 40
4.0
 40
4.0
 40
4.0
 40
4.0
 10
48.51227015123776
 20
-81.763129146226
 30
0.0
 10
48.51227015123776
 20
-81.70802525735077
 30
0.0
 10
48.46750265237988
 20
-81.66322247958405
 30
0.0
 10
48.41236348711993
 20
-81.66322247958405
 30
0.0
 10
48.35725959963686
 20
-81.66322247958405
 30
0.0
 10
48.31245682300209
 20
-81.70802525735077
 30
0.0
 10
48.31245682300209
 20
-81.763129146226
 30
0.0
 10
48.31245682300209
 20
-81.81826831287876
 30
0.0
 10
48.35725959963686
 20
-81.86303581286765
 30
0.0
 10
48.41236348711993
 20
-81.86303581286765
 30
0.0
 10
48.46750265237988
 20
-81.86303581286765
 30
0.0
 10
48.51227015123776
 20
-81.81826831287876
 30
0.0
 10
48.51227015123776
 20
-81.763129146226
 30
0.0
  0
SPLINE
  5
6D
330
1F
100
AcDbEntity
  8
_U+30EC_U+30A4_U+30E4_U+30FC 1
 62
   179
420
  2234388
370
     9
100
AcDbSpline
210
0.0
220
0.0
230
1.0
 70
    11
 71
     3
 72
    17
 73
    13
 74
     0
 42
0.0000000001
 43
0.0000000001
 12
1.0
 22
0.0
 32
0.0
 13
1.0
 23
0.0
 33
0.0
 40
0.0
 40
0.0
 40
0.0
 40
0.0
 40
1.0
 40
1.0
 40
1.0
 40
2.0
 40
2.0
 40
2.0
 40
3.0
 40
3.0
 40
3.0
 40
4.0
 40
4.0
 40
4.0
 40
4.0
 10
48.51227015123776
 20
-97.96335497550906
 30
0.0
 10
48.51227015123776
 20
-97.90825108663414
 30
0.0
 10
48.46750265237988
 20
-97.86344830886742
 30
0.0
 10
48.41236348711993
 20
-97.86344830886742
 30
0.0
 10
48.35725959963686
 20
-97.86344830886742
 30
0.0
 10
48.31245682300209
 20
-97.90825108663414
 30
0.0
 10
48.31245682300209
 20
-97.96335497550906
 30
0.0
 10
48.31245682300209
 20
-98.01849414216214
 30
0.0
 10
48.35725959963686
 20
-98.06326164215069
 30
0.0
 10
48.41236348711993
 20
-98.06326164215069
 30
0.0
 10
48.46750265237988
 20
-98.06326164215069
 30
0.0
 10
48.51227015123776
 20
-98.01849414216214
 30
0.0
 10
48.51227015123776
 20
-97.96335497550906
 30
0.0
  0
SPLINE
  5
6E
330
1F
100
AcDbEntity
  8
_U+30EC_U+30A4_U+30E4_U+30FC 1
 62
   179
420
  2234388
370
     9
100
AcDbSpline
210
0.0
220
0.0
230
1.0
 70
    11
 71
     3
 72
    17
 73
    13
 74
     0
 42
0.0000000001
 43
0.0000000001
 12
1.0
 22
0.0
 32
0.0
 13
1.0
 23
0.0
 33
0.0
 40
0.0
 40
0.0
 40
0.0
 40
0.0
 40
1.0
 40
1.0
 40
1.0
 40
2.0
 40
2.0
 40
2.0
 40
3.0
 40
3.0
 40
3.0
 40
4.0
 40
4.0
 40
4.0
 40
4.0
 10
58.51200295167889
 20
-97.96335497550906
 30
0.0
 10
58.51200295167889
 20
-97.90825108663414
 30
0.0
 10
58.467235452821
 20
-97.86344830886742
 30
0.0
 10
58.41209628756105
 20
-97.86344830886742
 30
0.0
 10
58.35699240007798
 20
-97.86344830886742
 30
0.0
 10
58.31218962344322
 20
-97.90825108663414
 30
0.0
 10
58.31218962344322
 20
-97.96335497550906
 30
0.0
 10
58.31218962344322
 20
-98.01849414216214
 30
0.0
 10
58.35699240007798
 20
-98.06326164215069
 30
0.0
 10
58.41209628756105
 20
-98.06326164215069
 30
0.0
 10
58.467235452821
 20
-98.06326164215069
 30
0.0
 10
58.51200295167889
 20
-98.01849414216214
 30
0.0
 10
58.51200295167889
 20
-97.96335497550906
 30
0.0
  0
SPLINE
  5
6F
330
1F
100
AcDbEntity
  8
_U+30EC_U+30A4_U+30E4_U+30FC 1
 62
   179
420
  2234388
370
     9
100
AcDbSpline
210
0.0
220
0.0
230
1.0
 70
    11
 71
     3
 72
    17
 73
    13
 74
     0
 42
0.0000000001
 43
0.0000000001
 12
1.0
 22
0.0
 32
0.0
 13
1.0
 23
0.0
 33
0.0
 40
0.0
 40
0.0
 40
0.0
 40
0.0
 40
1.0
 40
1.0
 40
1.0
 40
2.0
 40
2.0
 40
2.0
 40
3.0
 40
3.0
 40
3.0
 40
4.0
 40
4.0
 40
4.0
 40
4.0
 10
62.51211479407198
 20
-97.96335497550906
 30
0.0
 10
62.51211479407198
 20
-97.90825108663414
 30
0.0
 10
62.46734729521409
 20
-97.86344830886742
 30
0.0
 10
62.41220812995414
 20
-97.86344830886742
 30
0.0
 10
62.35710424247107
 20
-97.86344830886742
 30
0.0
 10
62.31230146583631
 20
-97.90825108663414
 30
0.0
 10
62.31230146583631
 20
-97.96335497550906
 30
0.0
 10
62.31230146583631
 20
-98.01849414216214
 30
0.0
 10
62.35710424247107
 20
-98.06326164215069
 30
0.0
 10
62.41220812995414
 20
-98.06326164215069
 30
0.0
 10
62.46734729521409
 20
-98.06326164215069
 30
0.0
 10
62.51211479407198
 20
-98.01849414216214
 30
0.0
 10
62.51211479407198
 20
-97.96335497550906
 30
0.0
  0
SPLINE
  5
70
330
1F
100
AcDbEntity
  8
_U+30EC_U+30A4_U+30E4_U+30FC 1
 62
   179
420
  2234388
370
     9
100
AcDbSpline
210
0.0
220
0.0
230
1.0
 70
    11
 71
     3
 72
    17
 73
    13
 74
     0
 42
0.0000000001
 43
0.0000000001
 12
1.0
 22
0.0
 32
0.0
 13
1.0
 23
0.0
 33
0.0
 40
0.0
 40
0.0
 40
0.0
 40
0.0
 40
1.0
 40
1.0
 40
1.0
 40
2.0
 40
2.0
 40
2.0
 40
3.0
 40
3.0
 40
3.0
 40
4.0
 40
4.0
 40
4.0
 40
4.0
 10
77.51257830026715
 20
-92.96315331009228
 30
0.0
 10
77.51257830026715
 20
-92.90801414343984
 30
0.0
 10
77.46781080140927
 20
-92.86324664345064
 30
0.0
 10
77.41196608061176
 20
-92.86324664345064
 30
0.0
 10
77.35686219312869
 20
-92.86324664345064
 30
0.0
 10
77.31205941649394
 20
-92.90801414343984
 30
0.0
 10
77.31205941649394
 20
-92.96315331009228
 30
0.0
 10
77.31205941649394
 20
-93.01825719896783
 30
0.0
 10
77.35686219312869
 20
-93.06305997673455
 30
0.0
 10
77.41196608061176
 20
-93.06305997673455
 30
0.0
 10
77.46781080140927
 20
-93.06305997673455
 30
0.0
 10
77.51257830026715
 20
-93.01825719896783
 30
0.0
 10
77.51257830026715
 20
-92.96315331009228
 30
0.0
  0
POLYLINE
  5
71
330
1F
100
AcDbEntity
  8
_U+30EC_U+30A4_U+30E4_U+30FC 1
 62
   179
420
  2234388
370
     9
100
AcDb2dPolyline
 66
     1
 10
0.0
 20
0.0
 30
0.0
  0
VERTEX
  5
72
330
71
100
AcDbEntity
  8
_U+30EC_U+30A4_U+30E4_U+30FC 1
 62
   179
420
  2234388
370
     9
100
AcDbVertex
100
AcDb2dVertex
 10
77.41196608061176
 20
-85.7635938674481
 30
0.0
  0
VERTEX
  5
73
330
71
100
AcDbEntity
  8
_U+30EC_U+30A4_U+30E4_U+30FC 1
 62
   179
420
  2234388
370
     9
100
AcDbVertex
100
AcDb2dVertex
 10
77.41196608061176
 20
-81.99328136839067
 30
0.0
  0
SEQEND
  5
74
330
71
100
AcDbEntity
  8
_U+30EC_U+30A4_U+30E4_U+30FC 1
 62
   179
420
  2234388
370
     9
  0
POLYLINE
  5
75
330
1F
100
AcDbEntity
  8
_U+30EC_U+30A4_U+30E4_U+30FC 1
 62
   179
420
  2234388
370
     9
100
AcDb2dPolyline
 66
     1
 10
0.0
 20
0.0
 30
0.0
  0
VERTEX
  5
76
330
75
100
AcDbEntity
  8
_U+30EC_U+30A4_U+30E4_U+30FC 1
 62
   179
420
  2234388
370
     9
100
AcDbVertex
100
AcDb2dVertex
 10
77.41196608061176
 20
-85.7635938674481
 30
0.0
  0
VERTEX
  5
77
330
75
100
AcDbEntity
  8
_U+30EC_U+30A4_U+30E4_U+30FC 1
 62
   179
420
  2234388
370
     9
100
AcDbVertex
100
AcDb2dVertex
 10
77.41196608061176
 20
-86.76336608942032
 30
0.0
  0
SEQEND
  5
78
330
75
100
AcDbEntity
  8
_U+30EC_U+30A4_U+30E4_U+30FC 1
 62
   179
420
  2234388
370
     9
  0
POLYLINE
  5
79
330
1F
100
AcDbEntity
  8
_U+30EC_U+30A4_U+30E4_U+30FC 1
 62
   179
420
  2234388
370
     9
100
AcDb2dPolyline
 66
     1
 10
0.0
 20
0.0
 30
0.0
  0
VERTEX
  5
7A
330
79
100
AcDbEntity
  8
_U+30EC_U+30A4_U+30E4_U+30FC 1
 62
   179
420
  2234388
370
     9
100
AcDbVertex
100
AcDb2dVertex
 10
75.95196000674851
 20
-85.7635938674481
 30
0.0
  0
VERTEX
  5
7B
330
79
100
AcDbEntity
  8
_U+30EC_U+30A4_U+30E4_U+30FC 1
 62
   179
420
  2234388
370
     9
100
AcDbVertex
100
AcDb2dVertex
 10
78.41244383286524
 20
-85.7635938674481
 30
0.0
  0
SEQEND
  5
7C
330
79
100
AcDbEntity
  8
_U+30EC_U+30A4_U+30E4_U+30FC 1
 62
   179
420
  2234388
370
     9
  0
POLYLINE
  5
7D
330
1F
100
AcDbEntity
  8
_U+30EC_U+30A4_U+30E4_U+30FC 1
 62
   179
420
  2234388
370
     9
100
AcDb2dPolyline
 66
     1
 10
0.0
 20
0.0
 30
0.0
  0
VERTEX
  5
7E
330
7D
100
AcDbEntity
  8
_U+30EC_U+30A4_U+30E4_U+30FC 1
 62
   179
420
  2234388
370
     9
100
AcDbVertex
100
AcDb2dVertex
 10
75.95196000674851
 20
-86.76336608942032
 30
0.0
  0
VERTEX
  5
7F
330
7D
100
AcDbEntity
  8
_U+30EC_U+30A4_U+30E4_U+30FC 1
 62
   179
420
  2234388
370
     9
100
AcDbVertex
100
AcDb2dVertex
 10
78.41244383286524
 20
-86.76336608942032
 30
0.0
  0
SEQEND
  5
80
330
7D
100
AcDbEntity
  8
_U+30EC_U+30A4_U+30E4_U+30FC 1
 62
   179
420
  2234388
370
     9
  0
INSERT
  5
82
330
1F
100
AcDbEntity
  8
_U+30EC_U+30A4_U+30E4_U+30FC 1
100
AcDbBlockReference
  2
block 2
 10
0.0
 20
0.0
 30
0.0
  0
POLYLINE
  5
87
330
1F
100
AcDbEntity
  8
_U+30EC_U+30A4_U+30E4_U+30FC 1
 62
   179
420
  2234388
370
     9
100
AcDb2dPolyline
 66
     1
 10
0.0
 20
0.0
 30
0.0
  0
VERTEX
  5
88
330
87
100
AcDbEntity
  8
_U+30EC_U+30A4_U+30E4_U+30FC 1
 62
   179
420
  2234388
370
     9
100
AcDbVertex
100
AcDb2dVertex
 10
48.41236348711993
 20
-81.763129146226
 30
0.0
  0
VERTEX
  5
89
330
87
100
AcDbEntity
  8
_U+30EC_U+30A4_U+30E4_U+30FC 1
 62
   179
420
  2234388
370
     9
100
AcDbVertex
100
AcDb2dVertex
 10
73.41224229376434
 20
-81.763129146226
 30
0.0
  0
SEQEND
  5
8A
330
87
100
AcDbEntity
  8
_U+30EC_U+30A4_U+30E4_U+30FC 1
 62
   179
420
  2234388
370
     9
  0
POLYLINE
  5
8B
330
1F
100
AcDbEntity
  8
_U+30EC_U+30A4_U+30E4_U+30FC 1
 62
   179
420
  2234388
370
     9
100
AcDb2dPolyline
 66
     1
 10
0.0
 20
0.0
 30
0.0
  0
VERTEX
  5
8C
330
8B
100
AcDbEntity
  8
_U+30EC_U+30A4_U+30E4_U+30FC 1
 62
   179
420
  2234388
370
     9
100
AcDbVertex
100
AcDb2dVertex
 10
48.41236348711993
 20
-83.22317053474971
 30
0.0
  0
VERTEX
  5
8D
330
8B
100
AcDbEntity
  8
_U+30EC_U+30A4_U+30E4_U+30FC 1
 62
   179
420
  2234388
370
     9
100
AcDbVertex
100
AcDb2dVertex
 10
48.41236348711993
 20
-80.76335692425347
 30
0.0
  0
SEQEND
  5
8E
330
8B
100
AcDbEntity
  8
_U+30EC_U+30A4_U+30E4_U+30FC 1
 62
   179
420
  2234388
370
     9
  0
POLYLINE
  5
8F
330
1F
100
AcDbEntity
  8
_U+30EC_U+30A4_U+30E4_U+30FC 1
 62
   179
420
  2234388
370
     9
100
AcDb2dPolyline
 66
     1
 10
0.0
 20
0.0
 30
0.0
  0
VERTEX
  5
90
330
8F
100
AcDbEntity
  8
_U+30EC_U+30A4_U+30E4_U+30FC 1
 62
   179
420
  2234388
370
     9
100
AcDbVertex
100
AcDb2dVertex
 10
73.41224229376434
 20
-83.22317053474971
 30
0.0
  0
VERTEX
  5
91
330
8F
100
AcDbEntity
  8
_U+30EC_U+30A4_U+30E4_U+30FC 1
 62
   179
420
  2234388
370
     9
100
AcDbVertex
100
AcDb2dVertex
 10
73.41224229376434
 20
-80.76335692425347
 30
0.0
  0
SEQEND
  5
92
330
8F
100
AcDbEntity
  8
_U+30EC_U+30A4_U+30E4_U+30FC 1
 62
   179
420
  2234388
370
     9
  0
INSERT
  5
94
330
1F
100
AcDbEntity
  8
_U+30EC_U+30A4_U+30E4_U+30FC 1
100
AcDbBlockReference
  2
block 3
 10
0.0
 20
0.0
 30
0.0
  0
POLYLINE
  5
9B
330
1F
100
AcDbEntity
  8
_U+30EC_U+30A4_U+30E4_U+30FC 1
 62
   179
420
  2234388
370
     9
100
AcDb2dPolyline
 66
     1
 10
0.0
 20
0.0
 30
0.0
  0
VERTEX
  5
9C
330
9B
100
AcDbEntity
  8
_U+30EC_U+30A4_U+30E4_U+30FC 1
 62
   179
420
  2234388
370
     9
100
AcDbVertex
100
AcDb2dVertex
 10
77.41196608061176
 20
-86.76336608942032
 30
0.0
  0
VERTEX
  5
9D
330
9B
100
AcDbEntity
  8
_U+30EC_U+30A4_U+30E4_U+30FC 1
 62
   179
420
  2234388
370
     9
100
AcDbVertex
100
AcDb2dVertex
 10
77.41196608061176
 20
-92.96315331009228
 30
0.0
  0
SEQEND
  5
9E
330
9B
100
AcDbEntity
  8
_U+30EC_U+30A4_U+30E4_U+30FC 1
 62
   179
420
  2234388
370
     9
  0
POLYLINE
  5
9F
330
1F
100
AcDbEntity
  8
_U+30EC_U+30A4_U+30E4_U+30FC 1
 62
   179
420
  2234388
370
     9
100
AcDb2dPolyline
 66
     1
 10
0.0
 20
0.0
 30
0.0
  0
VERTEX
  5
A0
330
9F
100
AcDbEntity
  8
_U+30EC_U+30A4_U+30E4_U+30FC 1
 62
   179
420
  2234388
370
     9
100
AcDbVertex
100
AcDb2dVertex
 10
64.95245500959149
 20
-92.96315331009228
 30
0.0
  0
VERTEX
  5
A1
330
9F
100
AcDbEntity
  8
_U+30EC_U+30A4_U+30E4_U+30FC 1
 62
   179
420
  2234388
370
     9
100
AcDbVertex
100
AcDb2dVertex
 10
78.41244383286524
 20
-92.96315331009228
 30
0.0
  0
SEQEND
  5
A2
330
9F
100
AcDbEntity
  8
_U+30EC_U+30A4_U+30E4_U+30FC 1
 62
   179
420
  2234388
370
     9
  0
INSERT
  5
A4
330
1F
100
AcDbEntity
  8
_U+30EC_U+30A4_U+30E4_U+30FC 1
100
AcDbBlockReference
  2
block 4
 10
0.0
 20
0.0
 30
0.0
  0
POLYLINE
  5
B4
330
1F
100
AcDbEntity
  8
_U+30EC_U+30A4_U+30E4_U+30FC 1
 62
   179
420
  2234388
370
     9
100
AcDb2dPolyline
 66
     1
 10
0.0
 20
0.0
 30
0.0
  0
VERTEX
  5
B5
330
B4
100
AcDbEntity
  8
_U+30EC_U+30A4_U+30E4_U+30FC 1
 62
   179
420
  2234388
370
     9
100
AcDbVertex
100
AcDb2dVertex
 10
58.41209628756105
 20
-97.96335497550906
 30
0.0
  0
VERTEX
  5
B6
330
B4
100
AcDbEntity
  8
_U+30EC_U+30A4_U+30E4_U+30FC 1
 62
   179
420
  2234388
370
     9
100
AcDbVertex
100
AcDb2dVertex
 10
62.41220812995414
 20
-97.96335497550906
 30
0.0
  0
SEQEND
  5
B7
330
B4
100
AcDbEntity
  8
_U+30EC_U+30A4_U+30E4_U+30FC 1
 62
   179
420
  2234388
370
     9
  0
POLYLINE
  5
B8
330
1F
100
AcDbEntity
  8
_U+30EC_U+30A4_U+30E4_U+30FC 1
 62
   179
420
  2234388
370
     9
100
AcDb2dPolyline
 66
     1
 10
0.0
 20
0.0
 30
0.0
  0
VERTEX
  5
B9
330
B8
100
AcDbEntity
  8
_U+30EC_U+30A4_U+30E4_U+30FC 1
 62
   179
420
  2234388
370
     9
100
AcDbVertex
100
AcDb2dVertex
 10
58.41209628756105
 20
-96.50331358698536
 30
0.0
  0
VERTEX
  5
BA
330
B8
100
AcDbEntity
  8
_U+30EC_U+30A4_U+30E4_U+30FC 1
 62
   179
420
  2234388
370
     9
100
AcDbVertex
100
AcDb2dVertex
 10
58.41209628756105
 20
-98.9631271974816
 30
0.0
  0
SEQEND
  5
BB
330
B8
100
AcDbEntity
  8
_U+30EC_U+30A4_U+30E4_U+30FC 1
 62
   179
420
  2234388
370
     9
  0
POLYLINE
  5
BC
330
1F
100
AcDbEntity
  8
_U+30EC_U+30A4_U+30E4_U+30FC 1
 62
   179
420
  2234388
370
     9
100
AcDb2dPolyline
 66
     1
 10
0.0
 20
0.0
 30
0.0
  0
VERTEX
  5
BD
330
BC
100
AcDbEntity
  8
_U+30EC_U+30A4_U+30E4_U+30FC 1
 62
   179
420
  2234388
370
     9
100
AcDbVertex
100
AcDb2dVertex
 10
62.41220812995414
 20
-96.50331358698536
 30
0.0
  0
VERTEX
  5
BE
330
BC
100
AcDbEntity
  8
_U+30EC_U+30A4_U+30E4_U+30FC 1
 62
   179
420
  2234388
370
     9
100
AcDbVertex
100
AcDb2dVertex
 10
62.41220812995414
 20
-98.9631271974816
 30
0.0
  0
SEQEND
  5
BF
330
BC
100
AcDbEntity
  8
_U+30EC_U+30A4_U+30E4_U+30FC 1
 62
   179
420
  2234388
370
     9
  0
INSERT
  5
C1
330
1F
100
AcDbEntity
  8
_U+30EC_U+30A4_U+30E4_U+30FC 1
100
AcDbBlockReference
  2
block 5
 10
0.0
 20
0.0
 30
0.0
  0
POLYLINE
  5
D9
330
1F
100
AcDbEntity
  8
_U+30EC_U+30A4_U+30E4_U+30FC 1
 62
   179
420
  2234388
370
     9
100
AcDb2dPolyline
 66
     1
 10
0.0
 20
0.0
 30
0.0
  0
VERTEX
  5
DA
330
D9
100
AcDbEntity
  8
_U+30EC_U+30A4_U+30E4_U+30FC 1
 62
   179
420
  2234388
370
     9
100
AcDbVertex
100
AcDb2dVertex
 10
58.41209628756105
 20
-97.96335497550906
 30
0.0
  0
VERTEX
  5
DB
330
D9
100
AcDbEntity
  8
_U+30EC_U+30A4_U+30E4_U+30FC 1
 62
   179
420
  2234388
370
     9
100
AcDbVertex
100
AcDb2dVertex
 10
48.41236348711993
 20
-97.96335497550906
 30
0.0
  0
SEQEND
  5
DC
330
D9
100
AcDbEntity
  8
_U+30EC_U+30A4_U+30E4_U+30FC 1
 62
   179
420
  2234388
370
     9
  0
POLYLINE
  5
DD
330
1F
100
AcDbEntity
  8
_U+30EC_U+30A4_U+30E4_U+30FC 1
 62
   179
420
  2234388
370
     9
100
AcDb2dPolyline
 66
     1
 10
0.0
 20
0.0
 30
0.0
  0
VERTEX
  5
DE
330
DD
100
AcDbEntity
  8
_U+30EC_U+30A4_U+30E4_U+30FC 1
 62
   179
420
  2234388
370
     9
100
AcDbVertex
100
AcDb2dVertex
 10
48.41236348711993
 20
-89.30308386656284
 30
0.0
  0
VERTEX
  5
DF
330
DD
100
AcDbEntity
  8
_U+30EC_U+30A4_U+30E4_U+30FC 1
 62
   179
420
  2234388
370
     9
100
AcDbVertex
100
AcDb2dVertex
 10
48.41236348711993
 20
-98.9631271974816
 30
0.0
  0
SEQEND
  5
E0
330
DD
100
AcDbEntity
  8
_U+30EC_U+30A4_U+30E4_U+30FC 1
 62
   179
420
  2234388
370
     9
  0
INSERT
  5
E2
330
1F
100
AcDbEntity
  8
_U+30EC_U+30A4_U+30E4_U+30FC 1
100
AcDbBlockReference
  2
block 6
 10
0.0
 20
0.0
 30
0.0
  0
ENDSEC
  0
SECTION
  2
OBJECTS
  0
DICTIONARY
  5
C
330
0
100
AcDbDictionary
281
     1
  3
ACAD_GROUP
350
D
  3
ACAD_LAYOUT
350
1A
  3
ACAD_MATERIAL
350
3B
  3
ACAD_MLEADERSTYLE
350
EB
  3
ACAD_MLINESTYLE
350
17
  3
ACAD_PLOTSETTINGS
350
19
  3
ACAD_PLOTSTYLENAME
350
E
  3
ACAD_TABLESTYLE
350
EA
  3
ACAD_VISUALSTYLE
350
2A
  0
SUN
  5
3F
330
29
100
AcDbSun
 90
        1
290
     0
 63
     7
421
 16777215
 40
1.0
291
     1
 91
  2455826
 92
 54000000
292
     0
 70
     2
 71
   256
280
     1
  0
DICTIONARY
  5
D
102
{ACAD_REACTORS
330
C
102
}
330
C
100
AcDbDictionary
281
     1
  0
DICTIONARY
  5
1A
102
{ACAD_REACTORS
330
C
102
}
330
C
100
AcDbDictionary
281
     1
  3
Layout1
350
1E
  3
Layout2
350
26
  3
Model
350
22
  0
DICTIONARY
  5
3B
102
{ACAD_REACTORS
330
C
102
}
330
C
100
AcDbDictionary
281
     1
  3
ByBlock
350
3D
  3
ByLayer
350
3C
  3
Global
350
3E
  0
DICTIONARY
  5
EB
102
{ACAD_REACTORS
330
C
102
}
330
C
100
AcDbDictionary
281
     1
  0
DICTIONARY
  5
17
102
{ACAD_REACTORS
330
C
102
}
330
C
100
AcDbDictionary
281
     1
  3
Standard
350
18
  0
DICTIONARY
  5
19
102
{ACAD_REACTORS
330
C
102
}
330
C
100
AcDbDictionary
281
     1
  0
ACDBDICTIONARYWDFLT
  5
E
102
{ACAD_REACTORS
330
C
102
}
330
C
100
AcDbDictionary
281
     1
  3
Normal
350
F
100
AcDbDictionaryWithDefault
340
F
  0
DICTIONARY
  5
EA
102
{ACAD_REACTORS
330
C
102
}
330
C
100
AcDbDictionary
281
     1
  0
DICTIONARY
  5
2A
102
{ACAD_REACTORS
330
C
102
}
330
C
100
AcDbDictionary
281
     1
  3
2dWireframe
350
2F
  3
3D Hidden
350
31
  3
3dWireframe
350
30
  3
Basic
350
32
  3
Brighten
350
36
  3
ColorChange
350
3A
  3
Conceptual
350
34
  3
Dim
350
35
  3
Facepattern
350
39
  3
Flat
350
2B
  3
FlatWithEdges
350
2C
  3
Gouraud
350
2D
  3
GouraudWithEdges
350
2E
  3
Linepattern
350
38
  3
Realistic
350
33
  3
Thicken
350
37
  0
LAYOUT
  5
1E
102
{ACAD_REACTORS
330
1A
102
}
330
1A
100
AcDbPlotSettings
  1

  2
none_device
  4

  6

 40
0.0
 41
0.0
 42
0.0
 43
0.0
 44
0.0
 45
0.0
 46
0.0
 47
0.0
 48
0.0
 49
0.0
140
0.0
141
0.0
142
1.0
143
1.0
 70
   688
 72
     0
 73
     0
 74
     5
  7

 75
    16
 76
     0
 77
     2
 78
   300
147
1.0
148
0.0
149
0.0
100
AcDbLayout
  1
Layout1
 70
     1
 71
     1
 10
0.0
 20
0.0
 11
12.0
 21
9.0
 12
0.0
 22
0.0
 32
0.0
 14
1.000000000000000E+20
 24
1.000000000000000E+20
 34
1.000000000000000E+20
 15
-1.000000000000000E+20
 25
-1.000000000000000E+20
 35
-1.000000000000000E+20
146
0.0
 13
0.0
 23
0.0
 33
0.0
 16
1.0
 26
0.0
 36
0.0
 17
0.0
 27
1.0
 37
0.0
 76
     0
330
1B
  0
LAYOUT
  5
26
102
{ACAD_REACTORS
330
1A
102
}
330
1A
100
AcDbPlotSettings
  1

  2
none_device
  4

  6

 40
0.0
 41
0.0
 42
0.0
 43
0.0
 44
0.0
 45
0.0
 46
0.0
 47
0.0
 48
0.0
 49
0.0
140
0.0
141
0.0
142
1.0
143
1.0
 70
   688
 72
     0
 73
     0
 74
     5
  7

 75
    16
 76
     0
 77
     2
 78
   300
147
1.0
148
0.0
149
0.0
100
AcDbLayout
  1
Layout2
 70
     1
 71
     2
 10
0.0
 20
0.0
 11
0.0
 21
0.0
 12
0.0
 22
0.0
 32
0.0
 14
0.0
 24
0.0
 34
0.0
 15
0.0
 25
0.0
 35
0.0
146
0.0
 13
0.0
 23
0.0
 33
0.0
 16
1.0
 26
0.0
 36
0.0
 17
0.0
 27
1.0
 37
0.0
 76
     0
330
23
  0
LAYOUT
  5
22
102
{ACAD_REACTORS
330
1A
102
}
330
1A
100
AcDbPlotSettings
  1

  2
none_device
  4

  6

 40
0.0
 41
0.0
 42
0.0
 43
0.0
 44
0.0
 45
0.0
 46
0.0
 47
0.0
 48
0.0
 49
0.0
140
0.0
141
0.0
142
1.0
143
1.0
 70
  1712
 72
     0
 73
     0
 74
     0
  7

 75
     0
 76
     0
 77
     2
 78
   300
147
1.0
148
0.0
149
0.0
100
AcDbLayout
  1
Model
 70
     1
 71
     0
 10
0.0
 20
0.0
 11
12.0
 21
9.0
 12
0.0
 22
0.0
 32
0.0
 14
1.000000000000000E+20
 24
1.000000000000000E+20
 34
1.000000000000000E+20
 15
-1.000000000000000E+20
 25
-1.000000000000000E+20
 35
-1.000000000000000E+20
146
0.0
 13
0.0
 23
0.0
 33
0.0
 16
1.0
 26
0.0
 36
0.0
 17
0.0
 27
1.0
 37
0.0
 76
     0
330
1F
331
29
  0
MATERIAL
  5
3D
102
{ACAD_REACTORS
330
3B
102
}
330
3B
100
AcDbMaterial
  1
ByBlock
 72
     1
 94
      127
  0
MATERIAL
  5
3C
102
{ACAD_REACTORS
330
3B
102
}
330
3B
100
AcDbMaterial
  1
ByLayer
 72
     1
 94
      127
  0
MATERIAL
  5
3E
102
{ACAD_REACTORS
330
3B
102
}
330
3B
100
AcDbMaterial
  1
Global
 72
     1
 94
      127
  0
MLINESTYLE
  5
18
102
{ACAD_REACTORS
330
17
102
}
330
17
100
AcDbMlineStyle
  2
Standard
 70
     0
  3

 62
   256
 51
90.0
 52
90.0
 71
     2
 49
0.5
 62
   256
  6
BYLAYER
 49
-0.5
 62
   256
  6
BYLAYER
  0
ACDBPLACEHOLDER
  5
F
102
{ACAD_REACTORS
330
E
102
}
330
E
  0
VISUALSTYLE
  5
2F
102
{ACAD_REACTORS
330
2A
102
}
330
2A
100
AcDbVisualStyle
  2
2dWireframe
 70
     4
177
     2
291
     0
 71
     0
176
     1
 72
     2
176
     1
 73
     0
176
     1
 90
        0
176
     1
 40
-0.6
176
     1
 41
-30.0
176
     1
 62
     5
 63
     7
421
 16777215
176
     1
 74
     1
176
     1
 91
        4
176
     1
 64
     7
176
     1
 65
   257
176
     1
 75
     1
176
     1
175
     1
176
     1
 42
1.0
176
     1
 92
        0
176
     1
 66
   257
176
     1
 43
1.0
176
     1
 76
     1
176
     1
 77
     6
176
     1
 78
     2
176
     1
 67
     7
176
     1
 79
     5
176
     1
170
     0
176
     1
171
     0
176
     1
290
     0
176
     1
 93
        1
176
     1
 44
0.0
176
     1
173
     0
176
     1
  0
VISUALSTYLE
  5
31
102
{ACAD_REACTORS
330
2A
102
}
330
2A
100
AcDbVisualStyle
  2
3D Hidden
 70
     6
177
     2
291
     0
 71
     1
176
     1
 72
     2
176
     1
 73
     2
176
     1
 90
        0
176
     1
 40
-0.6
176
     1
 41
-30.0
176
     1
 62
     5
 63
     7
421
 16777215
176
     1
 74
     2
176
     1
 91
        2
176
     1
 64
     7
176
     1
 65
   257
176
     1
 75
     2
176
     1
175
     1
176
     1
 42
40.0
176
     1
 92
        0
176
     1
 66
   257
176
     1
 43
1.0
176
     1
 76
     1
176
     1
 77
     6
176
     1
 78
     2
176
     1
 67
     7
176
     1
 79
     3
176
     1
170
     0
176
     1
171
     0
176
     1
290
     0
176
     1
 93
        1
176
     1
 44
0.0
176
     1
173
     0
176
     1
  0
VISUALSTYLE
  5
30
102
{ACAD_REACTORS
330
2A
102
}
330
2A
100
AcDbVisualStyle
  2
3dWireframe
 70
     5
177
     2
291
     0
 71
     0
176
     1
 72
     2
176
     1
 73
     0
176
     1
 90
        0
176
     1
 40
-0.6
176
     1
 41
-30.0
176
     1
 62
     5
 63
     7
421
 16777215
176
     1
 74
     1
176
     1
 91
        4
176
     1
 64
     7
176
     1
 65
   257
176
     1
 75
     1
176
     1
175
     1
176
     1
 42
1.0
176
     1
 92
        0
176
     1
 66
   257
176
     1
 43
1.0
176
     1
 76
     1
176
     1
 77
     6
176
     1
 78
     2
176
     1
 67
     7
176
     1
 79
     5
176
     1
170
     0
176
     1
171
     0
176
     1
290
     0
176
     1
 93
        1
176
     1
 44
0.0
176
     1
173
     0
176
     1
  0
VISUALSTYLE
  5
32
102
{ACAD_REACTORS
330
2A
102
}
330
2A
100
AcDbVisualStyle
  2
Basic
 70
     7
177
     2
291
     1
 71
     1
176
     1
 72
     0
176
     1
 73
     1
176
     1
 90
        0
176
     1
 40
-0.6
176
     1
 41
-30.0
176
     1
 62
     5
 63
     7
421
 16777215
176
     1
 74
     0
176
     1
 91
        4
176
     1
 64
     7
176
     1
 65
   257
176
     1
 75
     1
176
     1
175
     1
176
     1
 42
1.0
176
     1
 92
        8
176
     1
 66
     7
176
     1
 43
1.0
176
     1
 76
     1
176
     1
 77
     6
176
     1
 78
     2
176
     1
 67
     7
176
     1
 79
     5
176
     1
170
     0
176
     1
171
     0
176
     1
290
     0
176
     1
 93
        1
176
     1
 44
0.0
176
     1
173
     0
176
     1
  0
VISUALSTYLE
  5
36
102
{ACAD_REACTORS
330
2A
102
}
330
2A
100
AcDbVisualStyle
  2
Brighten
 70
    12
177
     2
291
     1
 71
     2
176
     1
 72
     2
176
     1
 73
     0
176
     1
 90
        0
176
     1
 40
-0.6
176
     1
 41
-30.0
176
     1
 62
     5
 63
     7
421
 16777215
176
     1
 74
     1
176
     1
 91
        4
176
     1
 64
     7
176
     1
 65
   257
176
     1
 75
     1
176
     1
175
     1
176
     1
 42
1.0
176
     1
 92
        8
176
     1
 66
     7
176
     1
 43
1.0
176
     1
 76
     1
176
     1
 77
     6
176
     1
 78
     2
176
     1
 67
     7
176
     1
 79
     5
176
     1
170
     0
176
     1
171
     0
176
     1
290
     0
176
     1
 93
        1
176
     1
 44
50.0
176
     1
173
     0
176
     1
  0
VISUALSTYLE
  5
3A
102
{ACAD_REACTORS
330
2A
102
}
330
2A
100
AcDbVisualStyle
  2
ColorChange
 70
    16
177
     2
291
     1
 71
     2
176
     1
 72
     2
176
     1
 73
     3
176
     1
 90
        0
176
     1
 40
-0.6
176
     1
 41
-30.0
176
     1
 62
     5
 63
     8
421
  8421504
176
     1
 74
     1
176
     1
 91
        4
176
     1
 64
     7
176
     1
 65
   257
176
     1
 75
     1
176
     1
175
     1
176
     1
 42
1.0
176
     1
 92
        8
176
     1
 66
     8
424
  8421504
176
     1
 43
1.0
176
     1
 76
     1
176
     1
 77
     6
176
     1
 78
     2
176
     1
 67
     7
176
     1
 79
     5
176
     1
170
     0
176
     1
171
     0
176
     1
290
     0
176
     1
 93
        1
176
     1
 44
0.0
176
     1
173
     0
176
     1
  0
VISUALSTYLE
  5
34
102
{ACAD_REACTORS
330
2A
102
}
330
2A
100
AcDbVisualStyle
  2
Conceptual
 70
     9
177
     2
291
     0
 71
     3
176
     1
 72
     2
176
     1
 73
     0
176
     1
 90
        0
176
     1
 40
-0.6
176
     1
 41
-30.0
176
     1
 62
     5
 63
     7
421
 16777215
176
     1
 74
     2
176
     1
 91
        2
176
     1
 64
     7
176
     1
 65
   257
176
     1
 75
     1
176
     1
175
     1
176
     1
 42
40.0
176
     1
 92
        8
176
     1
 66
     7
176
     1
 43
1.0
176
     1
 76
     1
176
     1
 77
     6
176
     1
 78
     2
176
     1
 67
     7
176
     1
 79
     3
176
     1
170
     0
176
     1
171
     0
176
     1
290
     0
176
     1
 93
        1
176
     1
 44
0.0
176
     1
173
     0
176
     1
  0
VISUALSTYLE
  5
35
102
{ACAD_REACTORS
330
2A
102
}
330
2A
100
AcDbVisualStyle
  2
Dim
 70
    11
177
     2
291
     1
 71
     2
176
     1
 72
     2
176
     1
 73
     0
176
     1
 90
        0
176
     1
 40
-0.6
176
     1
 41
-30.0
176
     1
 62
     5
 63
     7
421
 16777215
176
     1
 74
     1
176
     1
 91
        4
176
     1
 64
     7
176
     1
 65
   257
176
     1
 75
     1
176
     1
175
     1
176
     1
 42
1.0
176
     1
 92
        8
176
     1
 66
     7
176
     1
 43
1.0
176
     1
 76
     1
176
     1
 77
     6
176
     1
 78
     2
176
     1
 67
     7
176
     1
 79
     5
176
     1
170
     0
176
     1
171
     0
176
     1
290
     0
176
     1
 93
        1
176
     1
 44
-50.0
176
     1
173
     0
176
     1
  0
VISUALSTYLE
  5
39
102
{ACAD_REACTORS
330
2A
102
}
330
2A
100
AcDbVisualStyle
  2
Facepattern
 70
    15
177
     2
291
     1
 71
     2
176
     1
 72
     2
176
     1
 73
     0
176
     1
 90
        0
176
     1
 40
-0.6
176
     1
 41
-30.0
176
     1
 62
     5
 63
     7
421
 16777215
176
     1
 74
     1
176
     1
 91
        4
176
     1
 64
     7
176
     1
 65
   257
176
     1
 75
     1
176
     1
175
     1
176
     1
 42
1.0
176
     1
 92
        8
176
     1
 66
     7
176
     1
 43
1.0
176
     1
 76
     1
176
     1
 77
     6
176
     1
 78
     2
176
     1
 67
     7
176
     1
 79
     5
176
     1
170
     0
176
     1
171
     0
176
     1
290
     0
176
     1
 93
        1
176
     1
 44
0.0
176
     1
173
     0
176
     1
  0
VISUALSTYLE
  5
2B
102
{ACAD_REACTORS
330
2A
102
}
330
2A
100
AcDbVisualStyle
  2
Flat
 70
     0
177
     2
291
     1
 71
     2
176
     1
 72
     1
176
     1
 73
     1
176
     1
 90
        2
176
     1
 40
-0.6
176
     1
 41
30.0
176
     1
 62
     5
 63
     7
421
 16777215
176
     1
 74
     0
176
     1
 91
        4
176
     1
 64
     7
176
     1
 65
   257
176
     1
 75
     1
176
     1
175
     1
176
     1
 42
1.0
176
     1
 92
        8
176
     1
 66
     7
176
     1
 43
1.0
176
     1
 76
     1
176
     1
 77
     6
176
     1
 78
     2
176
     1
 67
     7
176
     1
 79
     5
176
     1
170
     0
176
     1
171
     0
176
     1
290
     0
176
     1
 93
       13
176
     1
 44
0.0
176
     1
173
     0
176
     1
  0
VISUALSTYLE
  5
2C
102
{ACAD_REACTORS
330
2A
102
}
330
2A
100
AcDbVisualStyle
  2
FlatWithEdges
 70
     1
177
     2
291
     1
 71
     2
176
     1
 72
     1
176
     1
 73
     1
176
     1
 90
        2
176
     1
 40
-0.6
176
     1
 41
30.0
176
     1
 62
     5
 63
     7
421
 16777215
176
     1
 74
     1
176
     1
 91
        4
176
     1
 64
     7
176
     1
 65
   257
176
     1
 75
     1
176
     1
175
     1
176
     1
 42
1.0
176
     1
 92
        0
176
     1
 66
   257
176
     1
 43
1.0
176
     1
 76
     1
176
     1
 77
     6
176
     1
 78
     2
176
     1
 67
     7
176
     1
 79
     5
176
     1
170
     0
176
     1
171
     0
176
     1
290
     0
176
     1
 93
       13
176
     1
 44
0.0
176
     1
173
     0
176
     1
  0
VISUALSTYLE
  5
2D
102
{ACAD_REACTORS
330
2A
102
}
330
2A
100
AcDbVisualStyle
  2
Gouraud
 70
     2
177
     2
291
     1
 71
     2
176
     1
 72
     2
176
     1
 73
     1
176
     1
 90
        2
176
     1
 40
-0.6
176
     1
 41
30.0
176
     1
 62
     5
 63
     7
421
 16777215
176
     1
 74
     0
176
     1
 91
        4
176
     1
 64
     7
176
     1
 65
   257
176
     1
 75
     1
176
     1
175
     1
176
     1
 42
1.0
176
     1
 92
        0
176
     1
 66
     7
176
     1
 43
1.0
176
     1
 76
     1
176
     1
 77
     6
176
     1
 78
     2
176
     1
 67
     7
176
     1
 79
     5
176
     1
170
     0
176
     1
171
     0
176
     1
290
     0
176
     1
 93
       13
176
     1
 44
0.0
176
     1
173
     0
176
     1
  0
VISUALSTYLE
  5
2E
102
{ACAD_REACTORS
330
2A
102
}
330
2A
100
AcDbVisualStyle
  2
GouraudWithEdges
 70
     3
177
     2
291
     1
 71
     2
176
     1
 72
     2
176
     1
 73
     1
176
     1
 90
        2
176
     1
 40
-0.6
176
     1
 41
30.0
176
     1
 62
     5
 63
     7
421
 16777215
176
     1
 74
     1
176
     1
 91
        4
176
     1
 64
     7
176
     1
 65
   257
176
     1
 75
     1
176
     1
175
     1
176
     1
 42
1.0
176
     1
 92
        0
176
     1
 66
   257
176
     1
 43
1.0
176
     1
 76
     1
176
     1
 77
     6
176
     1
 78
     2
176
     1
 67
     7
176
     1
 79
     5
176
     1
170
     0
176
     1
171
     0
176
     1
290
     0
176
     1
 93
       13
176
     1
 44
0.0
176
     1
173
     0
176
     1
  0
VISUALSTYLE
  5
38
102
{ACAD_REACTORS
330
2A
102
}
330
2A
100
AcDbVisualStyle
  2
Linepattern
 70
    14
177
     2
291
     1
 71
     2
176
     1
 72
     2
176
     1
 73
     0
176
     1
 90
        0
176
     1
 40
-0.6
176
     1
 41
-30.0
176
     1
 62
     5
 63
     7
421
 16777215
176
     1
 74
     1
176
     1
 91
        4
176
     1
 64
     7
176
     1
 65
   257
176
     1
 75
     7
176
     1
175
     7
176
     1
 42
1.0
176
     1
 92
        8
176
     1
 66
     7
176
     1
 43
1.0
176
     1
 76
     1
176
     1
 77
     6
176
     1
 78
     2
176
     1
 67
     7
176
     1
 79
     5
176
     1
170
     0
176
     1
171
     0
176
     1
290
     0
176
     1
 93
        1
176
     1
 44
0.0
176
     1
173
     0
176
     1
  0
VISUALSTYLE
  5
33
102
{ACAD_REACTORS
330
2A
102
}
330
2A
100
AcDbVisualStyle
  2
Realistic
 70
     8
177
     2
291
     0
 71
     2
176
     1
 72
     2
176
     1
 73
     0
176
     1
 90
        0
176
     1
 40
-0.6
176
     1
 41
-30.0
176
     1
 62
     5
 63
     7
421
 16777215
176
     1
 74
     1
176
     1
 91
        0
176
     1
 64
     7
176
     1
 65
   257
176
     1
 75
     1
176
     1
175
     1
176
     1
 42
1.0
176
     1
 92
        8
176
     1
 66
     8
424
  7895160
176
     1
 43
1.0
176
     1
 76
     1
176
     1
 77
     6
176
     1
 78
     2
176
     1
 67
     7
176
     1
 79
     5
176
     1
170
     0
176
     1
171
     0
176
     1
290
     0
176
     1
 93
       13
176
     1
 44
0.0
176
     1
173
     0
176
     1
  0
VISUALSTYLE
  5
37
102
{ACAD_REACTORS
330
2A
102
}
330
2A
100
AcDbVisualStyle
  2
Thicken
 70
    13
177
     2
291
     1
 71
     2
176
     1
 72
     2
176
     1
 73
     0
176
     1
 90
        0
176
     1
 40
-0.6
176
     1
 41
-30.0
176
     1
 62
     5
 63
     7
421
 16777215
176
     1
 74
     1
176
     1
 91
        4
176
     1
 64
     7
176
     1
 65
   257
176
     1
 75
     1
176
     1
175
     1
176
     1
 42
1.0
176
     1
 92
       12
176
     1
 66
     7
176
     1
 43
1.0
176
     1
 76
     1
176
     1
 77
     6
176
     1
 78
     2
176
     1
 67
     7
176
     1
 79
     5
176
     1
170
     0
176
     1
171
     0
176
     1
290
     0
176
     1
 93
        1
176
     1
 44
0.0
176
     1
173
     0
176
     1
  0
ENDSEC
  0
EOF
