  0
SECTION
  2
HEADER
  9
$ACADVER
  1
AC1024
  9
$ACADMAINTVER
 70
     6
  9
$DWGCODEPAGE
  3
UNDEFINED
  9
$INSBASE
 10
0.0
 20
0.0
 30
0.0
  9
$EXTMIN
 10
1.000000000000000E+20
 20
1.000000000000000E+20
 30
1.000000000000000E+20
  9
$EXTMAX
 10
-1.000000000000000E+20
 20
-1.000000000000000E+20
 30
-1.000000000000000E+20
  9
$LIMMIN
 10
0.0
 20
0.0
  9
$LIMMAX
 10
12.0
 20
9.0
  9
$ORTHOMODE
 70
     0
  9
$REGENMODE
 70
     1
  9
$FILLMODE
 70
     1
  9
$QTEXTMODE
 70
     0
  9
$MIRRTEXT
 70
     1
  9
$LTSCALE
 40
1.0
  9
$ATTMODE
 70
     1
  9
$TEXTSIZE
 40
0.2
  9
$TRACEWID
 40
0.05
  9
$TEXTSTYLE
  7
Standard
  9
$CLAYER
  8
0
  9
$CELTYPE
  6
ByLayer
  9
$CECOLOR
 62
   256
  9
$CELTSCALE
 40
1.0
  9
$DISPSILH
 70
     0
  9
$DIMSCALE
 40
1.0
  9
$DIMASZ
 40
0.18
  9
$DIMEXO
 40
0.0625
  9
$DIMDLI
 40
0.38
  9
$DIMRND
 40
0.0
  9
$DIMDLE
 40
0.0
  9
$DIMEXE
 40
0.18
  9
$DIMTP
 40
0.0
  9
$DIMTM
 40
0.0
  9
$DIMTXT
 40
0.18
  9
$DIMCEN
 40
0.09
  9
$DIMTSZ
 40
0.0
  9
$DIMTOL
 70
     0
  9
$DIMLIM
 70
     0
  9
$DIMTIH
 70
     1
  9
$DIMTOH
 70
     1
  9
$DIMSE1
 70
     0
  9
$DIMSE2
 70
     0
  9
$DIMTAD
 70
     0
  9
$DIMZIN
 70
     0
  9
$DIMBLK
  1

  9
$DIMASO
 70
     1
  9
$DIMSHO
 70
     1
  9
$DIMPOST
  1

  9
$DIMAPOST
  1

  9
$DIMALT
 70
     0
  9
$DIMALTD
 70
     2
  9
$DIMALTF
 40
25.4
  9
$DIMLFAC
 40
1.0
  9
$DIMTOFL
 70
     0
  9
$DIMTVP
 40
0.0
  9
$DIMTIX
 70
     0
  9
$DIMSOXD
 70
     0
  9
$DIMSAH
 70
     0
  9
$DIMBLK1
  1

  9
$DIMBLK2
  1

  9
$DIMSTYLE
  2
Standard
  9
$DIMCLRD
 70
     0
  9
$DIMCLRE
 70
     0
  9
$DIMCLRT
 70
     0
  9
$DIMTFAC
 40
1.0
  9
$DIMGAP
 40
0.09
  9
$DIMJUST
 70
     0
  9
$DIMSD1
 70
     0
  9
$DIMSD2
 70
     0
  9
$DIMTOLJ
 70
     1
  9
$DIMTZIN
 70
     0
  9
$DIMALTZ
 70
     0
  9
$DIMALTTZ
 70
     0
  9
$DIMUPT
 70
     0
  9
$DIMDEC
 70
     4
  9
$DIMTDEC
 70
     4
  9
$DIMALTU
 70
     2
  9
$DIMALTTD
 70
     2
  9
$DIMTXSTY
  7
Standard
  9
$DIMAUNIT
 70
     0
  9
$DIMADEC
 70
     0
  9
$DIMALTRND
 40
0.0
  9
$DIMAZIN
 70
     0
  9
$DIMDSEP
 70
    46
  9
$DIMATFIT
 70
     3
  9
$DIMFRAC
 70
     0
  9
$DIMLDRBLK
  1

  9
$DIMLUNIT
 70
     2
  9
$DIMLWD
 70
    -2
  9
$DIMLWE
 70
    -2
  9
$DIMTMOVE
 70
     0
  9
$DIMFXL
 40
1.0
  9
$DIMFXLON
 70
     0
  9
$DIMJOGANG
 40
0.7853981633974483
  9
$DIMTFILL
 70
     0
  9
$DIMTFILLCLR
 70
     0
  9
$DIMARCSYM
 70
     0
  9
$DIMLTYPE
  6

  9
$DIMLTEX1
  6

  9
$DIMLTEX2
  6

  9
$DIMTXTDIRECTION
 70
     0
  9
$LUNITS
 70
     2
  9
$LUPREC
 70
     4
  9
$SKETCHINC
 40
0.1
  9
$FILLETRAD
 40
0.5
  9
$AUNITS
 70
     0
  9
$AUPREC
 70
     0
  9
$MENU
  1
.
  9
$ELEVATION
 40
0.0
  9
$PELEVATION
 40
0.0
  9
$THICKNESS
 40
0.0
  9
$LIMCHECK
 70
     0
  9
$CHAMFERA
 40
0.5
  9
$CHAMFERB
 40
0.5
  9
$CHAMFERC
 40
1.0
  9
$CHAMFERD
 40
0.0
  9
$SKPOLY
 70
     0
  9
$TDCREATE
 40
2457917.586423611
  9
$TDUCREATE
 40
2457917.211423611
  9
$TDUPDATE
 40
2457917.586423611
  9
$TDUUPDATE
 40
2457917.211423611
  9
$TDINDWG
 40
0.0000000116
  9
$TDUSRTIMER
 40
0.0000000116
  9
$USRTIMER
 70
     1
  9
$ANGBASE
 50
0.0
  9
$ANGDIR
 70
     0
  9
$PDMODE
 70
     0
  9
$PDSIZE
 40
0.0
  9
$PLINEWID
 40
0.0
  9
$SPLFRAME
 70
     0
  9
$SPLINETYPE
 70
     6
  9
$SPLINESEGS
 70
     8
  9
$HANDSEED
  5
104
  9
$SURFTAB1
 70
     6
  9
$SURFTAB2
 70
     6
  9
$SURFTYPE
 70
     6
  9
$SURFU
 70
     6
  9
$SURFV
 70
     6
  9
$UCSBASE
  2

  9
$UCSNAME
  2

  9
$UCSORG
 10
0.0
 20
0.0
 30
0.0
  9
$UCSXDIR
 10
1.0
 20
0.0
 30
0.0
  9
$UCSYDIR
 10
0.0
 20
1.0
 30
0.0
  9
$UCSORTHOREF
  2

  9
$UCSORTHOVIEW
 70
     0
  9
$UCSORGTOP
 10
0.0
 20
0.0
 30
0.0
  9
$UCSORGBOTTOM
 10
0.0
 20
0.0
 30
0.0
  9
$UCSORGLEFT
 10
0.0
 20
0.0
 30
0.0
  9
$UCSORGRIGHT
 10
0.0
 20
0.0
 30
0.0
  9
$UCSORGFRONT
 10
0.0
 20
0.0
 30
0.0
  9
$UCSORGBACK
 10
0.0
 20
0.0
 30
0.0
  9
$PUCSBASE
  2

  9
$PUCSNAME
  2

  9
$PUCSORG
 10
0.0
 20
0.0
 30
0.0
  9
$PUCSXDIR
 10
1.0
 20
0.0
 30
0.0
  9
$PUCSYDIR
 10
0.0
 20
1.0
 30
0.0
  9
$PUCSORTHOREF
  2

  9
$PUCSORTHOVIEW
 70
     0
  9
$PUCSORGTOP
 10
0.0
 20
0.0
 30
0.0
  9
$PUCSORGBOTTOM
 10
0.0
 20
0.0
 30
0.0
  9
$PUCSORGLEFT
 10
0.0
 20
0.0
 30
0.0
  9
$PUCSORGRIGHT
 10
0.0
 20
0.0
 30
0.0
  9
$PUCSORGFRONT
 10
0.0
 20
0.0
 30
0.0
  9
$PUCSORGBACK
 10
0.0
 20
0.0
 30
0.0
  9
$USERI1
 70
     0
  9
$USERI2
 70
     0
  9
$USERI3
 70
     0
  9
$USERI4
 70
     0
  9
$USERI5
 70
     0
  9
$USERR1
 40
0.0
  9
$USERR2
 40
0.0
  9
$USERR3
 40
0.0
  9
$USERR4
 40
0.0
  9
$USERR5
 40
0.0
  9
$WORLDVIEW
 70
     1
  9
$SHADEDGE
 70
     3
  9
$SHADEDIF
 70
    70
  9
$TILEMODE
 70
     1
  9
$MAXACTVP
 70
    64
  9
$PINSBASE
 10
0.0
 20
0.0
 30
0.0
  9
$PLIMCHECK
 70
     0
  9
$PEXTMIN
 10
1.000000000000000E+20
 20
1.000000000000000E+20
 30
1.000000000000000E+20
  9
$PEXTMAX
 10
-1.000000000000000E+20
 20
-1.000000000000000E+20
 30
-1.000000000000000E+20
  9
$PLIMMIN
 10
0.0
 20
0.0
  9
$PLIMMAX
 10
12.0
 20
9.0
  9
$UNITMODE
 70
     0
  9
$VISRETAIN
 70
     1
  9
$PLINEGEN
 70
     0
  9
$PSLTSCALE
 70
     1
  9
$TREEDEPTH
 70
  3020
  9
$CMLSTYLE
  2
Standard
  9
$CMLJUST
 70
     0
  9
$CMLSCALE
 40
1.0
  9
$PROXYGRAPHICS
 70
     1
  9
$MEASUREMENT
 70
     0
  9
$CELWEIGHT
370
    -1
  9
$ENDCAPS
280
     0
  9
$JOINSTYLE
280
     0
  9
$LWDISPLAY
290
     1
  9
$INSUNITS
 70
     1
  9
$HYPERLINKBASE
  1

  9
$STYLESHEET
  1

  9
$XEDIT
290
     1
  9
$CEPSNTYPE
380
     0
  9
$PSTYLEMODE
290
     1
  9
$FINGERPRINTGUID
  2
{93FC8E7C-40A2-7FB8-4BC1-A8670650F496}
  9
$VERSIONGUID
  2
{FAEB1C32-E019-11D5-929B-00C0DF256EC4}
  9
$EXTNAMES
290
     1
  9
$PSVPSCALE
 40
0.0
  9
$OLESTARTUP
290
     0
  9
$SORTENTS
280
   127
  9
$INDEXCTL
280
     0
  9
$HIDETEXT
280
     1
  9
$XCLIPFRAME
280
     2
  9
$HALOGAP
280
     0
  9
$OBSCOLOR
 70
   257
  9
$OBSLTYPE
280
     0
  9
$INTERSECTIONDISPLAY
280
     0
  9
$INTERSECTIONCOLOR
 70
   257
  9
$DIMASSOC
280
     2
  9
$PROJECTNAME
  1

  9
$CAMERADISPLAY
290
     0
  9
$LENSLENGTH
 40
50.0
  9
$CAMERAHEIGHT
 40
0.0
  9
$STEPSPERSEC
 40
2.0
  9
$STEPSIZE
 40
6.0
  9
$3DDWFPREC
 40
2.0
  9
$PSOLWIDTH
 40
0.25
  9
$PSOLHEIGHT
 40
4.0
  9
$LOFTANG1
 40
1.570796326794897
  9
$LOFTANG2
 40
1.570796326794897
  9
$LOFTMAG1
 40
0.0
  9
$LOFTMAG2
 40
0.0
  9
$LOFTPARAM
 70
     7
  9
$LOFTNORMALS
280
     1
  9
$LATITUDE
 40
37.795
  9
$LONGITUDE
 40
-122.394
  9
$NORTHDIRECTION
 40
0.0
  9
$TIMEZONE
 70
 -8000
  9
$LIGHTGLYPHDISPLAY
280
     1
  9
$TILEMODELIGHTSYNCH
280
     1
  9
$CMATERIAL
347
3C
  9
$SOLIDHIST
280
     1
  9
$SHOWHIST
280
     1
  9
$DWFFRAME
280
     2
  9
$DGNFRAME
280
     2
  9
$REALWORLDSCALE
290
     1
  9
$INTERFERECOLOR
 62
   256
  9
$CSHADOW
280
     0
  9
$SHADOWPLANELOCATION
 40
0.0
  0
ENDSEC
  0
SECTION
  2
CLASSES
  0
CLASS
  1
ACDBDICTIONARYWDFLT
  2
AcDbDictionaryWithDefault
  3
ObjectDBX Classes
 90
        0
 91
        4
280
     0
281
     0
  0
CLASS
  1
VISUALSTYLE
  2
AcDbVisualStyle
  3
ObjectDBX Classes
 90
     4095
 91
        4
280
     0
281
     0
  0
CLASS
  1
MATERIAL
  2
AcDbMaterial
  3
ObjectDBX Classes
 90
     1153
 91
        4
280
     0
281
     0
  0
CLASS
  1
SUN
  2
AcDbSun
  3
SCENEOE
 90
     1024
 91
        4
280
     0
281
     0
  0
ENDSEC
  0
SECTION
  2
TABLES
  0
TABLE
  2
VPORT
  5
8
330
0
100
AcDbSymbolTable
 70
     1
  0
VPORT
  5
29
330
8
100
AcDbSymbolTableRecord
100
AcDbViewportTableRecord
  2
*Active
 70
     0
 10
0.0
 20
0.0
 11
1.0
 21
1.0
 12
0.0
 22
0.0
 13
0.0
 23
0.0
 14
0.5
 24
0.5
 15
0.5
 25
0.5
 16
0.0
 26
0.0
 36
1.0
 17
105.0008280156501
 27
-148.4999710739862
 37
0.0
 40
296.9999421479724
 41
0.7070764206636528
 42
50.0
 43
0.0
 44
0.0
 50
0.0
 51
0.0
 71
     0
 72
   100
 73
     1
 74
     3
 75
     0
 76
     0
 77
     0
 78
     0
281
     0
 65
     1
110
0.0
120
0.0
130
0.0
111
1.0
121
0.0
131
0.0
112
0.0
122
1.0
132
0.0
 79
     0
146
0.0
 60
     3
 61
     5
292
     1
282
     1
141
0.0
142
0.0
 63
   250
361
3F
  0
ENDTAB
  0
TABLE
  2
LTYPE
  5
5
330
0
100
AcDbSymbolTable
 70
     1
  0
LTYPE
  5
14
330
5
100
AcDbSymbolTableRecord
100
AcDbLinetypeTableRecord
  2
ByBlock
 70
     0
  3

 72
    65
 73
     0
 40
0.0
  0
LTYPE
  5
15
330
5
100
AcDbSymbolTableRecord
100
AcDbLinetypeTableRecord
  2
ByLayer
 70
     0
  3

 72
    65
 73
     0
 40
0.0
  0
LTYPE
  5
16
330
5
100
AcDbSymbolTableRecord
100
AcDbLinetypeTableRecord
  2
Continuous
 70
     0
  3
Solid line
 72
    65
 73
     0
 40
0.0
  0
ENDTAB
  0
TABLE
  2
LAYER
  5
2
330
0
100
AcDbSymbolTable
 70
     2
  0
LAYER
  5
10
330
2
100
AcDbSymbolTableRecord
100
AcDbLayerTableRecord
  2
0
 70
     0
 62
     7
  6
Continuous
370
    -3
390
F
347
3E
  0
LAYER
  5
40
330
2
100
AcDbSymbolTableRecord
100
AcDbLayerTableRecord
  2
_U+30EC_U+30A4_U+30E4_U+30FC 1
 70
     0
 62
     7
  6
Continuous
370
    -3
390
F
347
3E
  0
ENDTAB
  0
TABLE
  2
STYLE
  5
3
330
0
100
AcDbSymbolTable
 70
     1
  0
STYLE
  5
11
330
3
100
AcDbSymbolTableRecord
100
AcDbTextStyleTableRecord
  2
Standard
 70
     0
 40
0.0
 41
1.0
 50
0.0
 71
     0
 42
0.2
  3
txt
  4

  0
ENDTAB
  0
TABLE
  2
VIEW
  5
6
330
0
100
AcDbSymbolTable
 70
     0
  0
ENDTAB
  0
TABLE
  2
UCS
  5
7
330
0
100
AcDbSymbolTable
 70
     0
  0
ENDTAB
  0
TABLE
  2
APPID
  5
9
330
0
100
AcDbSymbolTable
 70
     1
  0
APPID
  5
12
330
9
100
AcDbSymbolTableRecord
100
AcDbRegAppTableRecord
  2
ACAD
 70
     0
  0
ENDTAB
  0
TABLE
  2
DIMSTYLE
  5
A
330
0
100
AcDbSymbolTable
 70
     1
100
AcDbDimStyleTable
  0
DIMSTYLE
105
27
330
A
100
AcDbSymbolTableRecord
100
AcDbDimStyleTableRecord
  2
Standard
 70
     0
178
     0
340
11
  0
ENDTAB
  0
TABLE
  2
BLOCK_RECORD
  5
1
330
0
100
AcDbSymbolTable
 70
     7
  0
BLOCK_RECORD
  5
1F
330
1
100
AcDbSymbolTableRecord
100
AcDbBlockTableRecord
  2
*Model_Space
340
22
 70
     0
280
     1
281
     0
  0
BLOCK_RECORD
  5
1B
330
1
100
AcDbSymbolTableRecord
100
AcDbBlockTableRecord
  2
*Paper_Space
340
1E
 70
     0
280
     1
281
     0
  0
BLOCK_RECORD
  5
23
330
1
100
AcDbSymbolTableRecord
100
AcDbBlockTableRecord
  2
*Paper_Space0
340
26
 70
     0
280
     1
281
     0
  0
BLOCK_RECORD
  5
93
330
1
100
AcDbSymbolTableRecord
100
AcDbBlockTableRecord
  2
block 2
340
0
102
{BLKREFS
331
94
102
}
 70
     0
280
     1
281
     0
  0
BLOCK_RECORD
  5
A5
330
1
100
AcDbSymbolTableRecord
100
AcDbBlockTableRecord
  2
block 3
340
0
102
{BLKREFS
331
A6
102
}
 70
     0
280
     1
281
     0
  0
BLOCK_RECORD
  5
B6
330
1
100
AcDbSymbolTableRecord
100
AcDbBlockTableRecord
  2
block 4
340
0
102
{BLKREFS
331
B7
102
}
 70
     0
280
     1
281
     0
  0
BLOCK_RECORD
  5
C9
330
1
100
AcDbSymbolTableRecord
100
AcDbBlockTableRecord
  2
block 5
340
0
102
{BLKREFS
331
CA
102
}
 70
     0
280
     1
281
     0
  0
BLOCK_RECORD
  5
E1
330
1
100
AcDbSymbolTableRecord
100
AcDbBlockTableRecord
  2
block 6
340
0
102
{BLKREFS
331
E2
102
}
 70
     0
280
     1
281
     0
  0
BLOCK_RECORD
  5
FA
330
1
100
AcDbSymbolTableRecord
100
AcDbBlockTableRecord
  2
block 7
340
0
102
{BLKREFS
331
FB
102
}
 70
     0
280
     1
281
     0
  0
ENDTAB
  0
ENDSEC
  0
SECTION
  2
BLOCKS
  0
BLOCK
  5
20
330
1F
100
AcDbEntity
  8
0
100
AcDbBlockBegin
  2
*Model_Space
 70
     0
 10
0.0
 20
0.0
 30
0.0
  3
*Model_Space
  1

  0
ENDBLK
  5
21
330
1F
100
AcDbEntity
  8
0
100
AcDbBlockEnd
  0
BLOCK
  5
1C
330
1B
100
AcDbEntity
 67
     1
  8
0
100
AcDbBlockBegin
  2
*Paper_Space
 70
     0
 10
0.0
 20
0.0
 30
0.0
  3
*Paper_Space
  1

  0
ENDBLK
  5
1D
330
1B
100
AcDbEntity
 67
     1
  8
0
100
AcDbBlockEnd
  0
BLOCK
  5
24
330
23
100
AcDbEntity
  8
0
100
AcDbBlockBegin
  2
*Paper_Space0
 70
     0
 10
0.0
 20
0.0
 30
0.0
  3
*Paper_Space0
  1

  0
ENDBLK
  5
25
330
23
100
AcDbEntity
  8
0
100
AcDbBlockEnd
  0
BLOCK
  5
95
330
93
100
AcDbEntity
  8
0
100
AcDbBlockBegin
  2
block 2
 70
     0
 10
0.0
 20
0.0
 30
0.0
  3
block 2
  1

  0
SPLINE
  5
97
330
93
100
AcDbEntity
  8
_U+30EC_U+30A4_U+30E4_U+30FC 1
370
     0
100
AcDbSpline
210
0.0
220
0.0
230
1.0
 70
    11
 71
     3
 72
    26
 73
    22
 74
     0
 42
0.0000000001
 43
0.0000000001
 12
1.0
 22
0.0
 32
0.0
 13
1.0
 23
0.0
 33
0.0
 40
0.0
 40
0.0
 40
0.0
 40
0.0
 40
1.0
 40
1.0
 40
1.0
 40
2.0
 40
2.0
 40
2.0
 40
3.0
 40
3.0
 40
3.0
 40
4.0
 40
4.0
 40
4.0
 40
5.0
 40
5.0
 40
5.0
 40
6.0
 40
6.0
 40
6.0
 40
7.0
 40
7.0
 40
7.0
 40
7.0
 10
120.9476562197631
 20
-139.3243123024085
 30
0.0
 10
120.9476562197631
 20
-139.3243123024085
 30
0.0
 10
119.8435031167405
 20
-139.3243123024085
 30
0.0
 10
119.8435031167405
 20
-139.3243123024085
 30
0.0
 10
119.8435031167405
 20
-139.3243123024085
 30
0.0
 10
119.8435031167405
 20
-139.6770900800981
 30
0.0
 10
119.8435031167405
 20
-139.6770900800981
 30
0.0
 10
119.8435031167405
 20
-139.6770900800981
 30
0.0
 10
119.6953640108748
 20
-139.6770900800981
 30
0.0
 10
119.6953640108748
 20
-139.6770900800981
 30
0.0
 10
119.6805501002882
 20
-139.3220729903431
 30
0.0
 10
119.5175970838359
 20
-139.2722913605812
 30
0.0
 10
119.4032199137256
 20
-139.2407687368912
 30
0.0
 10
119.4032199137256
 20
-139.2407687368912
 30
0.0
 10
119.4032199137256
 20
-139.0847059114094
 30
0.0
 10
119.4032199137256
 20
-139.0847059114094
 30
0.0
 10
119.4032199137256
 20
-139.0847059114094
 30
0.0
 10
120.9476562197631
 20
-139.0847059114094
 30
0.0
 10
120.9476562197631
 20
-139.0847059114094
 30
0.0
 10
120.9476562197631
 20
-139.0847059114094
 30
0.0
 10
120.9476562197631
 20
-139.3243123024085
 30
0.0
 10
120.9476562197631
 20
-139.3243123024085
 30
0.0
  0
HATCH
  5
98
330
93
100
AcDbEntity
  8
_U+30EC_U+30A4_U+30E4_U+30FC 1
 62
   179
420
  2234388
100
AcDbHatch
 10
0.0
 20
0.0
 30
0.0
210
0.0
220
0.0
230
1.0
  2
SOLID
 70
     1
 71
     0
 91
        1
 92
        1
 93
        1
 72
     4
 94
        3
 73
     0
 74
     1
 95
       26
 96
       22
 40
0.0
 40
0.0
 40
0.0
 40
0.0
 40
1.0
 40
1.0
 40
1.0
 40
2.0
 40
2.0
 40
2.0
 40
3.0
 40
3.0
 40
3.0
 40
4.0
 40
4.0
 40
4.0
 40
5.0
 40
5.0
 40
5.0
 40
6.0
 40
6.0
 40
6.0
 40
7.0
 40
7.0
 40
7.0
 40
7.0
 10
120.9476562197631
 20
-139.3243123024085
 10
120.9476562197631
 20
-139.3243123024085
 10
119.8435031167405
 20
-139.3243123024085
 10
119.8435031167405
 20
-139.3243123024085
 10
119.8435031167405
 20
-139.3243123024085
 10
119.8435031167405
 20
-139.6770900800981
 10
119.8435031167405
 20
-139.6770900800981
 10
119.8435031167405
 20
-139.6770900800981
 10
119.6953640108748
 20
-139.6770900800981
 10
119.6953640108748
 20
-139.6770900800981
 10
119.6805501002882
 20
-139.3220729903431
 10
119.5175970838359
 20
-139.2722913605812
 10
119.4032199137256
 20
-139.2407687368912
 10
119.4032199137256
 20
-139.2407687368912
 10
119.4032199137256
 20
-139.0847059114094
 10
119.4032199137256
 20
-139.0847059114094
 10
119.4032199137256
 20
-139.0847059114094
 10
120.9476562197631
 20
-139.0847059114094
 10
120.9476562197631
 20
-139.0847059114094
 10
120.9476562197631
 20
-139.0847059114094
 10
120.9476562197631
 20
-139.3243123024085
 10
120.9476562197631
 20
-139.3243123024085
 97
        0
 97
        0
 75
     2
 76
     1
 98
        0
  0
ENDBLK
  5
96
330
93
100
AcDbEntity
  8
0
100
AcDbBlockEnd
  0
BLOCK
  5
A7
330
A5
100
AcDbEntity
  8
0
100
AcDbBlockBegin
  2
block 3
 70
     0
 10
0.0
 20
0.0
 30
0.0
  3
block 3
  1

  0
SPLINE
  5
A9
330
A5
100
AcDbEntity
  8
_U+30EC_U+30A4_U+30E4_U+30FC 1
370
     0
100
AcDbSpline
210
0.0
220
0.0
230
1.0
 70
    11
 71
     3
 72
    26
 73
    22
 74
     0
 42
0.0000000001
 43
0.0000000001
 12
1.0
 22
0.0
 32
0.0
 13
1.0
 23
0.0
 33
0.0
 40
0.0
 40
0.0
 40
0.0
 40
0.0
 40
1.0
 40
1.0
 40
1.0
 40
2.0
 40
2.0
 40
2.0
 40
3.0
 40
3.0
 40
3.0
 40
4.0
 40
4.0
 40
4.0
 40
5.0
 40
5.0
 40
5.0
 40
6.0
 40
6.0
 40
6.0
 40
7.0
 40
7.0
 40
7.0
 40
7.0
 10
97.5728556071172
 20
-160.0133164747536
 30
0.0
 10
97.5728556071172
 20
-160.0133164747536
 30
0.0
 10
97.5728556071172
 20
-158.909163371731
 30
0.0
 10
97.5728556071172
 20
-158.909163371731
 30
0.0
 10
97.5728556071172
 20
-158.909163371731
 30
0.0
 10
97.22042233897615
 20
-158.909163371731
 30
0.0
 10
97.22042233897615
 20
-158.909163371731
 30
0.0
 10
97.22042233897615
 20
-158.909163371731
 30
0.0
 10
97.22042233897615
 20
-158.7610242658653
 30
0.0
 10
97.22042233897615
 20
-158.7610242658653
 30
0.0
 10
97.57526717395689
 20
-158.7462103552787
 30
0.0
 10
97.62487654894448
 20
-158.5832573388264
 30
0.0
 10
97.65657142740878
 20
-158.4688801687161
 30
0.0
 10
97.65657142740878
 20
-158.4688801687161
 30
0.0
 10
97.81263425289059
 20
-158.4688801687161
 30
0.0
 10
97.81263425289059
 20
-158.4688801687161
 30
0.0
 10
97.81263425289059
 20
-158.4688801687161
 30
0.0
 10
97.81263425289059
 20
-160.0133164747536
 30
0.0
 10
97.81263425289059
 20
-160.0133164747536
 30
0.0
 10
97.81263425289059
 20
-160.0133164747536
 30
0.0
 10
97.5728556071172
 20
-160.0133164747536
 30
0.0
 10
97.5728556071172
 20
-160.0133164747536
 30
0.0
  0
HATCH
  5
AA
330
A5
100
AcDbEntity
  8
_U+30EC_U+30A4_U+30E4_U+30FC 1
 62
   179
420
  2234388
100
AcDbHatch
 10
0.0
 20
0.0
 30
0.0
210
0.0
220
0.0
230
1.0
  2
SOLID
 70
     1
 71
     0
 91
        1
 92
        1
 93
        1
 72
     4
 94
        3
 73
     0
 74
     1
 95
       26
 96
       22
 40
0.0
 40
0.0
 40
0.0
 40
0.0
 40
1.0
 40
1.0
 40
1.0
 40
2.0
 40
2.0
 40
2.0
 40
3.0
 40
3.0
 40
3.0
 40
4.0
 40
4.0
 40
4.0
 40
5.0
 40
5.0
 40
5.0
 40
6.0
 40
6.0
 40
6.0
 40
7.0
 40
7.0
 40
7.0
 40
7.0
 10
97.5728556071172
 20
-160.0133164747536
 10
97.5728556071172
 20
-160.0133164747536
 10
97.5728556071172
 20
-158.909163371731
 10
97.5728556071172
 20
-158.909163371731
 10
97.5728556071172
 20
-158.909163371731
 10
97.22042233897615
 20
-158.909163371731
 10
97.22042233897615
 20
-158.909163371731
 10
97.22042233897615
 20
-158.909163371731
 10
97.22042233897615
 20
-158.7610242658653
 10
97.22042233897615
 20
-158.7610242658653
 10
97.57526717395689
 20
-158.7462103552787
 10
97.62487654894448
 20
-158.5832573388264
 10
97.65657142740878
 20
-158.4688801687161
 10
97.65657142740878
 20
-158.4688801687161
 10
97.81263425289059
 20
-158.4688801687161
 10
97.81263425289059
 20
-158.4688801687161
 10
97.81263425289059
 20
-158.4688801687161
 10
97.81263425289059
 20
-160.0133164747536
 10
97.81263425289059
 20
-160.0133164747536
 10
97.81263425289059
 20
-160.0133164747536
 10
97.5728556071172
 20
-160.0133164747536
 10
97.5728556071172
 20
-160.0133164747536
 97
        0
 97
        0
 75
     2
 76
     1
 98
        0
  0
SPLINE
  5
AB
330
A5
100
AcDbEntity
  8
_U+30EC_U+30A4_U+30E4_U+30FC 1
370
     0
100
AcDbSpline
210
0.0
220
0.0
230
1.0
 70
    11
 71
     3
 72
    29
 73
    25
 74
     0
 42
0.0000000001
 43
0.0000000001
 12
1.0
 22
0.0
 32
0.0
 13
1.0
 23
0.0
 33
0.0
 40
0.0
 40
0.0
 40
0.0
 40
0.0
 40
1.0
 40
1.0
 40
1.0
 40
2.0
 40
2.0
 40
2.0
 40
3.0
 40
3.0
 40
3.0
 40
4.0
 40
4.0
 40
4.0
 40
5.0
 40
5.0
 40
5.0
 40
6.0
 40
6.0
 40
6.0
 40
7.0
 40
7.0
 40
7.0
 40
8.0
 40
8.0
 40
8.0
 40
8.0
 10
99.30780569348903
 20
-159.8355495477147
 30
0.0
 10
99.19239499473315
 20
-160.0450113532179
 30
0.0
 10
99.00704885762671
 20
-160.0639593783868
 30
0.0
 10
98.8826809106092
 20
-160.0639593783868
 30
0.0
 10
98.71111515544375
 20
-160.0639593783868
 30
0.0
 10
98.55953095409276
 20
-160.0174505893359
 30
0.0
 10
98.45790063727789
 20
-159.8355495477147
 30
0.0
 10
98.34696856265285
 20
-159.6409016527981
 30
0.0
 10
98.32664249928987
 20
-159.4042235929614
 30
0.0
 10
98.32664249928987
 20
-159.2412705765091
 30
0.0
 10
98.32664249928987
 20
-159.0972655852257
 30
0.0
 10
98.34490150536169
 20
-158.8454291052539
 30
0.0
 10
98.45790063727789
 20
-158.646647095755
 30
0.0
 10
98.57296682648524
 20
-158.4437309716738
 30
0.0
 10
98.7448770911992
 20
-158.4203043223741
 30
0.0
 10
98.8826809106092
 20
-158.4203043223741
 30
0.0
 10
99.05252411803201
 20
-158.4203043223741
 30
0.0
 10
99.20617537667415
 20
-158.4647460541338
 30
0.0
 10
99.30780569348903
 20
-158.646647095755
 30
0.0
 10
99.41425914398324
 20
-158.8392279333805
 30
0.0
 10
99.43906383147704
 20
-159.0676377640525
 30
0.0
 10
99.43906383147704
 20
-159.2412705765091
 30
0.0
 10
99.43906383147704
 20
-159.412491822126
 30
0.0
 10
99.4163262012744
 20
-159.6429687100893
 30
0.0
 10
99.30780569348903
 20
-159.8355495477147
 30
0.0
  0
SPLINE
  5
AC
330
A5
100
AcDbEntity
  8
_U+30EC_U+30A4_U+30E4_U+30FC 1
370
     0
100
AcDbSpline
210
0.0
220
0.0
230
1.0
 70
    11
 71
     3
 72
    17
 73
    13
 74
     0
 42
0.0000000001
 43
0.0000000001
 12
1.0
 22
0.0
 32
0.0
 13
1.0
 23
0.0
 33
0.0
 40
0.0
 40
0.0
 40
0.0
 40
0.0
 40
1.0
 40
1.0
 40
1.0
 40
2.0
 40
2.0
 40
2.0
 40
3.0
 40
3.0
 40
3.0
 40
4.0
 40
4.0
 40
4.0
 40
4.0
 10
98.8826809106092
 20
-158.6128851599996
 30
0.0
 10
98.61603052005086
 20
-158.6128851599996
 30
0.0
 10
98.56642114506326
 20
-158.8964165184356
 30
0.0
 10
98.56642114506326
 20
-159.2412705765091
 30
0.0
 10
98.56642114506326
 20
-159.5606309279918
 30
0.0
 10
98.60466170494954
 20
-159.8693114834702
 30
0.0
 10
98.8826809106092
 20
-159.8693114834702
 30
0.0
 10
99.14726424387638
 20
-159.8693114834702
 30
0.0
 10
99.19928518570366
 20
-159.5881916918738
 30
0.0
 10
99.19928518570366
 20
-159.2412705765091
 30
0.0
 10
99.19928518570366
 20
-158.921565715478
 30
0.0
 10
99.15863305897771
 20
-158.6128851599996
 30
0.0
 10
98.8826809106092
 20
-158.6128851599996
 30
0.0
  0
HATCH
  5
AD
330
A5
100
AcDbEntity
  8
_U+30EC_U+30A4_U+30E4_U+30FC 1
 62
   179
420
  2234388
100
AcDbHatch
 10
0.0
 20
0.0
 30
0.0
210
0.0
220
0.0
230
1.0
  2
SOLID
 70
     1
 71
     0
 91
        2
 92
        1
 93
        1
 72
     4
 94
        3
 73
     0
 74
     1
 95
       29
 96
       25
 40
0.0
 40
0.0
 40
0.0
 40
0.0
 40
1.0
 40
1.0
 40
1.0
 40
2.0
 40
2.0
 40
2.0
 40
3.0
 40
3.0
 40
3.0
 40
4.0
 40
4.0
 40
4.0
 40
5.0
 40
5.0
 40
5.0
 40
6.0
 40
6.0
 40
6.0
 40
7.0
 40
7.0
 40
7.0
 40
8.0
 40
8.0
 40
8.0
 40
8.0
 10
99.30780569348903
 20
-159.8355495477147
 10
99.19239499473315
 20
-160.0450113532179
 10
99.00704885762671
 20
-160.0639593783868
 10
98.8826809106092
 20
-160.0639593783868
 10
98.71111515544375
 20
-160.0639593783868
 10
98.55953095409276
 20
-160.0174505893359
 10
98.45790063727789
 20
-159.8355495477147
 10
98.34696856265285
 20
-159.6409016527981
 10
98.32664249928987
 20
-159.4042235929614
 10
98.32664249928987
 20
-159.2412705765091
 10
98.32664249928987
 20
-159.0972655852257
 10
98.34490150536169
 20
-158.8454291052539
 10
98.45790063727789
 20
-158.646647095755
 10
98.57296682648524
 20
-158.4437309716738
 10
98.7448770911992
 20
-158.4203043223741
 10
98.8826809106092
 20
-158.4203043223741
 10
99.05252411803201
 20
-158.4203043223741
 10
99.20617537667415
 20
-158.4647460541338
 10
99.30780569348903
 20
-158.646647095755
 10
99.41425914398324
 20
-158.8392279333805
 10
99.43906383147704
 20
-159.0676377640525
 10
99.43906383147704
 20
-159.2412705765091
 10
99.43906383147704
 20
-159.412491822126
 10
99.4163262012744
 20
-159.6429687100893
 10
99.30780569348903
 20
-159.8355495477147
 97
        0
 97
        0
 92
        1
 93
        1
 72
     4
 94
        3
 73
     0
 74
     1
 95
       17
 96
       13
 40
0.0
 40
0.0
 40
0.0
 40
0.0
 40
1.0
 40
1.0
 40
1.0
 40
2.0
 40
2.0
 40
2.0
 40
3.0
 40
3.0
 40
3.0
 40
4.0
 40
4.0
 40
4.0
 40
4.0
 10
98.8826809106092
 20
-158.6128851599996
 10
98.61603052005086
 20
-158.6128851599996
 10
98.56642114506326
 20
-158.8964165184356
 10
98.56642114506326
 20
-159.2412705765091
 10
98.56642114506326
 20
-159.5606309279918
 10
98.60466170494954
 20
-159.8693114834702
 10
98.8826809106092
 20
-159.8693114834702
 10
99.14726424387638
 20
-159.8693114834702
 10
99.19928518570366
 20
-159.5881916918738
 10
99.19928518570366
 20
-159.2412705765091
 10
99.19928518570366
 20
-158.921565715478
 10
99.15863305897771
 20
-158.6128851599996
 10
98.8826809106092
 20
-158.6128851599996
 97
        0
 97
        0
 75
     2
 76
     1
 98
        0
  0
ENDBLK
  5
A8
330
A5
100
AcDbEntity
  8
0
100
AcDbBlockEnd
  0
BLOCK
  5
B8
330
B6
100
AcDbEntity
  8
0
100
AcDbBlockBegin
  2
block 4
 70
     0
 10
0.0
 20
0.0
 30
0.0
  3
block 4
  1

  0
SPLINE
  5
BA
330
B6
100
AcDbEntity
  8
_U+30EC_U+30A4_U+30E4_U+30FC 1
370
     0
100
AcDbSpline
210
0.0
220
0.0
230
1.0
 70
    11
 71
     3
 72
    32
 73
    28
 74
     0
 42
0.0000000001
 43
0.0000000001
 12
1.0
 22
0.0
 32
0.0
 13
1.0
 23
0.0
 33
0.0
 40
0.0
 40
0.0
 40
0.0
 40
0.0
 40
1.0
 40
1.0
 40
1.0
 40
2.0
 40
2.0
 40
2.0
 40
3.0
 40
3.0
 40
3.0
 40
4.0
 40
4.0
 40
4.0
 40
5.0
 40
5.0
 40
5.0
 40
6.0
 40
6.0
 40
6.0
 40
7.0
 40
7.0
 40
7.0
 40
8.0
 40
8.0
 40
8.0
 40
9.0
 40
9.0
 40
9.0
 40
9.0
 10
90.29595266839824
 20
-160.0639593783868
 30
0.0
 10
89.74439288120973
 20
-160.0639593783868
 30
0.0
 10
89.73526337817383
 20
-159.5099880243586
 30
0.0
 10
89.73526337817383
 20
-159.2960475947246
 30
0.0
 10
89.73526337817383
 20
-159.0655707067614
 30
0.0
 10
89.7555894415368
 20
-158.418237265083
 30
0.0
 10
90.33660479512419
 20
-158.418237265083
 30
0.0
 10
90.52195093223062
 20
-158.418237265083
 30
0.0
 10
90.78429495343241
 20
-158.4881727034335
 30
0.0
 10
90.82494708015835
 20
-158.8202799082116
 30
0.0
 10
90.82494708015835
 20
-158.8202799082116
 30
0.0
 10
90.59670950426055
 20
-158.8202799082116
 30
0.0
 10
90.59670950426055
 20
-158.8202799082116
 30
0.0
 10
90.58534068915922
 20
-158.7630913231565
 30
0.0
 10
90.55140649862952
 20
-158.6149522172907
 30
0.0
 10
90.33436548305878
 20
-158.6149522172907
 30
0.0
 10
90.0224120868694
 20
-158.6149522172907
 30
0.0
 10
89.97934839330378
 20
-158.9429253074865
 30
0.0
 10
89.9659125209113
 20
-159.1479084888589
 30
0.0
 10
90.06530352566077
 20
-159.0697048213437
 30
0.0
 10
90.137650530851
 20
-159.0104491789974
 30
0.0
 10
90.33212617099336
 20
-159.0104491789974
 30
0.0
 10
90.5243624990703
 20
-159.0104491789974
 30
0.0
 10
90.84751245558674
 20
-159.1186251772342
 30
0.0
 10
90.84751245558674
 20
-159.5248019349452
 30
0.0
 10
90.84751245558674
 20
-159.8441622864279
 30
0.0
 10
90.63512231892109
 20
-160.0639593783868
 30
0.0
 10
90.29595266839824
 20
-160.0639593783868
 30
0.0
  0
SPLINE
  5
BB
330
B6
100
AcDbEntity
  8
_U+30EC_U+30A4_U+30E4_U+30FC 1
370
     0
100
AcDbSpline
210
0.0
220
0.0
230
1.0
 70
    11
 71
     3
 72
    17
 73
    13
 74
     0
 42
0.0000000001
 43
0.0000000001
 12
1.0
 22
0.0
 32
0.0
 13
1.0
 23
0.0
 33
0.0
 40
0.0
 40
0.0
 40
0.0
 40
0.0
 40
1.0
 40
1.0
 40
1.0
 40
2.0
 40
2.0
 40
2.0
 40
3.0
 40
3.0
 40
3.0
 40
4.0
 40
4.0
 40
4.0
 40
4.0
 10
90.3140394196958
 20
-159.205097073914
 30
0.0
 10
90.03378090197073
 20
-159.205097073914
 30
0.0
 10
89.99295652047051
 20
-159.4166259367084
 30
0.0
 10
89.99295652047051
 20
-159.5330701641098
 30
0.0
 10
89.99295652047051
 20
-159.7087700338575
 30
0.0
 10
90.09475909205965
 20
-159.8717230503099
 30
0.0
 10
90.29147404426742
 20
-159.8717230503099
 30
0.0
 10
90.42032061541576
 20
-159.8717230503099
 30
0.0
 10
90.60790606458761
 20
-159.8124674079636
 30
0.0
 10
90.60790606458761
 20
-159.5268689922364
 30
0.0
 10
90.60790606458761
 20
-159.3025932761466
 30
0.0
 10
90.4587334300763
 20
-159.205097073914
 30
0.0
 10
90.3140394196958
 20
-159.205097073914
 30
0.0
  0
HATCH
  5
BC
330
B6
100
AcDbEntity
  8
_U+30EC_U+30A4_U+30E4_U+30FC 1
 62
   179
420
  2234388
100
AcDbHatch
 10
0.0
 20
0.0
 30
0.0
210
0.0
220
0.0
230
1.0
  2
SOLID
 70
     1
 71
     0
 91
        2
 92
        1
 93
        1
 72
     4
 94
        3
 73
     0
 74
     1
 95
       32
 96
       28
 40
0.0
 40
0.0
 40
0.0
 40
0.0
 40
1.0
 40
1.0
 40
1.0
 40
2.0
 40
2.0
 40
2.0
 40
3.0
 40
3.0
 40
3.0
 40
4.0
 40
4.0
 40
4.0
 40
5.0
 40
5.0
 40
5.0
 40
6.0
 40
6.0
 40
6.0
 40
7.0
 40
7.0
 40
7.0
 40
8.0
 40
8.0
 40
8.0
 40
9.0
 40
9.0
 40
9.0
 40
9.0
 10
90.29595266839824
 20
-160.0639593783868
 10
89.74439288120973
 20
-160.0639593783868
 10
89.73526337817383
 20
-159.5099880243586
 10
89.73526337817383
 20
-159.2960475947246
 10
89.73526337817383
 20
-159.0655707067614
 10
89.7555894415368
 20
-158.418237265083
 10
90.33660479512419
 20
-158.418237265083
 10
90.52195093223062
 20
-158.418237265083
 10
90.78429495343241
 20
-158.4881727034335
 10
90.82494708015835
 20
-158.8202799082116
 10
90.82494708015835
 20
-158.8202799082116
 10
90.59670950426055
 20
-158.8202799082116
 10
90.59670950426055
 20
-158.8202799082116
 10
90.58534068915922
 20
-158.7630913231565
 10
90.55140649862952
 20
-158.6149522172907
 10
90.33436548305878
 20
-158.6149522172907
 10
90.0224120868694
 20
-158.6149522172907
 10
89.97934839330378
 20
-158.9429253074865
 10
89.9659125209113
 20
-159.1479084888589
 10
90.06530352566077
 20
-159.0697048213437
 10
90.137650530851
 20
-159.0104491789974
 10
90.33212617099336
 20
-159.0104491789974
 10
90.5243624990703
 20
-159.0104491789974
 10
90.84751245558674
 20
-159.1186251772342
 10
90.84751245558674
 20
-159.5248019349452
 10
90.84751245558674
 20
-159.8441622864279
 10
90.63512231892109
 20
-160.0639593783868
 10
90.29595266839824
 20
-160.0639593783868
 97
        0
 97
        0
 92
        1
 93
        1
 72
     4
 94
        3
 73
     0
 74
     1
 95
       17
 96
       13
 40
0.0
 40
0.0
 40
0.0
 40
0.0
 40
1.0
 40
1.0
 40
1.0
 40
2.0
 40
2.0
 40
2.0
 40
3.0
 40
3.0
 40
3.0
 40
4.0
 40
4.0
 40
4.0
 40
4.0
 10
90.3140394196958
 20
-159.205097073914
 10
90.03378090197073
 20
-159.205097073914
 10
89.99295652047051
 20
-159.4166259367084
 10
89.99295652047051
 20
-159.5330701641098
 10
89.99295652047051
 20
-159.7087700338575
 10
90.09475909205965
 20
-159.8717230503099
 10
90.29147404426742
 20
-159.8717230503099
 10
90.42032061541576
 20
-159.8717230503099
 10
90.60790606458761
 20
-159.8124674079636
 10
90.60790606458761
 20
-159.5268689922364
 10
90.60790606458761
 20
-159.3025932761466
 10
90.4587334300763
 20
-159.205097073914
 10
90.3140394196958
 20
-159.205097073914
 97
        0
 97
        0
 75
     2
 76
     1
 98
        0
  0
ENDBLK
  5
B9
330
B6
100
AcDbEntity
  8
0
100
AcDbBlockEnd
  0
BLOCK
  5
CB
330
C9
100
AcDbEntity
  8
0
100
AcDbBlockBegin
  2
block 5
 70
     0
 10
0.0
 20
0.0
 30
0.0
  3
block 5
  1

  0
SPLINE
  5
CD
330
C9
100
AcDbEntity
  8
_U+30EC_U+30A4_U+30E4_U+30FC 1
370
     0
100
AcDbSpline
210
0.0
220
0.0
230
1.0
 70
    11
 71
     3
 72
    62
 73
    58
 74
     0
 42
0.0000000001
 43
0.0000000001
 12
1.0
 22
0.0
 32
0.0
 13
1.0
 23
0.0
 33
0.0
 40
0.0
 40
0.0
 40
0.0
 40
0.0
 40
1.0
 40
1.0
 40
1.0
 40
2.0
 40
2.0
 40
2.0
 40
3.0
 40
3.0
 40
3.0
 40
4.0
 40
4.0
 40
4.0
 40
5.0
 40
5.0
 40
5.0
 40
6.0
 40
6.0
 40
6.0
 40
7.0
 40
7.0
 40
7.0
 40
8.0
 40
8.0
 40
8.0
 40
9.0
 40
9.0
 40
9.0
 40
10.0
 40
10.0
 40
10.0
 40
11.0
 40
11.0
 40
11.0
 40
12.0
 40
12.0
 40
12.0
 40
13.0
 40
13.0
 40
13.0
 40
14.0
 40
14.0
 40
14.0
 40
15.0
 40
15.0
 40
15.0
 40
16.0
 40
16.0
 40
16.0
 40
17.0
 40
17.0
 40
17.0
 40
18.0
 40
18.0
 40
18.0
 40
19.0
 40
19.0
 40
19.0
 40
19.0
 10
102.1159030235162
 20
-137.0639851545361
 30
0.0
 10
102.0142727067013
 20
-137.0639851545361
 30
0.0
 10
101.7813842518984
 20
-137.0427978173018
 30
0.0
 10
101.6480590566192
 20
-136.856590406324
 30
0.0
 10
101.5688218604585
 20
-136.7444525482792
 30
0.0
 10
101.5643432363277
 20
-136.6450615435297
 30
0.0
 10
101.5598646121968
 20
-136.5604844493668
 30
0.0
 10
101.5598646121968
 20
-136.5604844493668
 30
0.0
 10
101.7948201242909
 20
-136.5604844493668
 30
0.0
 10
101.7948201242909
 20
-136.5604844493668
 30
0.0
 10
101.7972316911306
 20
-136.6345540022997
 30
0.0
 10
101.8086005062319
 20
-136.8693372596195
 30
0.0
 10
102.1114243993853
 20
-136.8693372596195
 30
0.0
 10
102.2585299766055
 20
-136.8693372596195
 30
0.0
 10
102.4211384835093
 20
-136.7995740760432
 30
0.0
 10
102.4211384835093
 20
-136.5709919905968
 30
0.0
 10
102.4211384835093
 20
-136.4547200179697
 30
0.0
 10
102.3804863567834
 20
-136.4059719168534
 30
0.0
 10
102.3467244210279
 20
-136.3742770383891
 30
0.0
 10
102.2674872248672
 20
-136.3002074854562
 30
0.0
 10
102.1431192778496
 20
-136.287632886935
 30
0.0
 10
102.0842081450519
 20
-136.287632886935
 30
0.0
 10
102.0638820816889
 20
-136.287632886935
 30
0.0
 10
102.0256415218026
 20
-136.2896999442262
 30
0.0
 10
101.9960137006295
 20
-136.2938340588085
 30
0.0
 10
101.9960137006295
 20
-136.2938340588085
 30
0.0
 10
101.9960137006295
 20
-136.0991861638919
 30
0.0
 10
101.9960137006295
 20
-136.0991861638919
 30
0.0
 10
102.0366658273554
 20
-136.1055595905396
 30
0.0
 10
102.0821410877607
 20
-136.107798902605
 30
0.0
 10
102.0886867691827
 20
-136.107798902605
 30
0.0
 10
102.1589667170818
 20
-136.107798902605
 30
0.0
 10
102.3715291085217
 20
-136.0866115653707
 30
0.0
 10
102.3715291085217
 20
-135.8495889959855
 30
0.0
 10
102.3715291085217
 20
-135.6719943237209
 30
0.0
 10
102.231313722272
 20
-135.6168727959569
 30
0.0
 10
102.113835966225
 20
-135.6168727959569
 30
0.0
 10
101.830993626886
 20
-135.6168727959569
 30
0.0
 10
101.8220363786244
 20
-135.8495889959855
 30
0.0
 10
101.8175577544935
 20
-135.9215914916273
 30
0.0
 10
101.8175577544935
 20
-135.9215914916273
 30
0.0
 10
101.6005167389228
 20
-135.9215914916273
 30
0.0
 10
101.6005167389228
 20
-135.9215914916273
 30
0.0
 10
101.6094739871844
 20
-135.7967067802869
 30
0.0
 10
101.6387572988091
 20
-135.4201578437491
 30
0.0
 10
102.1272718386175
 20
-135.4201578437491
 30
0.0
 10
102.3670504843909
 20
-135.4201578437491
 30
0.0
 10
102.6247436266876
 20
-135.5471096123806
 30
0.0
 10
102.6247436266876
 20
-135.8432155693378
 30
0.0
 10
102.6247436266876
 20
-136.0294229803156
 30
0.0
 10
102.5227688003242
 20
-136.1119330171873
 30
0.0
 10
102.4166598593785
 20
-136.1732557168247
 30
0.0
 10
102.4821166735982
 20
-136.2008164807067
 30
0.0
 10
102.6767645685148
 20
-136.2812594602873
 30
0.0
 10
102.6767645685148
 20
-136.5584173920757
 30
0.0
 10
102.6767645685148
 20
-136.8968980235015
 30
0.0
 10
102.4121812352477
 20
-137.0639851545361
 30
0.0
 10
102.1159030235162
 20
-137.0639851545361
 30
0.0
  0
HATCH
  5
CE
330
C9
100
AcDbEntity
  8
_U+30EC_U+30A4_U+30E4_U+30FC 1
 62
   179
420
  2234388
100
AcDbHatch
 10
0.0
 20
0.0
 30
0.0
210
0.0
220
0.0
230
1.0
  2
SOLID
 70
     1
 71
     0
 91
        1
 92
        1
 93
        1
 72
     4
 94
        3
 73
     0
 74
     1
 95
       62
 96
       58
 40
0.0
 40
0.0
 40
0.0
 40
0.0
 40
1.0
 40
1.0
 40
1.0
 40
2.0
 40
2.0
 40
2.0
 40
3.0
 40
3.0
 40
3.0
 40
4.0
 40
4.0
 40
4.0
 40
5.0
 40
5.0
 40
5.0
 40
6.0
 40
6.0
 40
6.0
 40
7.0
 40
7.0
 40
7.0
 40
8.0
 40
8.0
 40
8.0
 40
9.0
 40
9.0
 40
9.0
 40
10.0
 40
10.0
 40
10.0
 40
11.0
 40
11.0
 40
11.0
 40
12.0
 40
12.0
 40
12.0
 40
13.0
 40
13.0
 40
13.0
 40
14.0
 40
14.0
 40
14.0
 40
15.0
 40
15.0
 40
15.0
 40
16.0
 40
16.0
 40
16.0
 40
17.0
 40
17.0
 40
17.0
 40
18.0
 40
18.0
 40
18.0
 40
19.0
 40
19.0
 40
19.0
 40
19.0
 10
102.1159030235162
 20
-137.0639851545361
 10
102.0142727067013
 20
-137.0639851545361
 10
101.7813842518984
 20
-137.0427978173018
 10
101.6480590566192
 20
-136.856590406324
 10
101.5688218604585
 20
-136.7444525482792
 10
101.5643432363277
 20
-136.6450615435297
 10
101.5598646121968
 20
-136.5604844493668
 10
101.5598646121968
 20
-136.5604844493668
 10
101.7948201242909
 20
-136.5604844493668
 10
101.7948201242909
 20
-136.5604844493668
 10
101.7972316911306
 20
-136.6345540022997
 10
101.8086005062319
 20
-136.8693372596195
 10
102.1114243993853
 20
-136.8693372596195
 10
102.2585299766055
 20
-136.8693372596195
 10
102.4211384835093
 20
-136.7995740760432
 10
102.4211384835093
 20
-136.5709919905968
 10
102.4211384835093
 20
-136.4547200179697
 10
102.3804863567834
 20
-136.4059719168534
 10
102.3467244210279
 20
-136.3742770383891
 10
102.2674872248672
 20
-136.3002074854562
 10
102.1431192778496
 20
-136.287632886935
 10
102.0842081450519
 20
-136.287632886935
 10
102.0638820816889
 20
-136.287632886935
 10
102.0256415218026
 20
-136.2896999442262
 10
101.9960137006295
 20
-136.2938340588085
 10
101.9960137006295
 20
-136.2938340588085
 10
101.9960137006295
 20
-136.0991861638919
 10
101.9960137006295
 20
-136.0991861638919
 10
102.0366658273554
 20
-136.1055595905396
 10
102.0821410877607
 20
-136.107798902605
 10
102.0886867691827
 20
-136.107798902605
 10
102.1589667170818
 20
-136.107798902605
 10
102.3715291085217
 20
-136.0866115653707
 10
102.3715291085217
 20
-135.8495889959855
 10
102.3715291085217
 20
-135.6719943237209
 10
102.231313722272
 20
-135.6168727959569
 10
102.113835966225
 20
-135.6168727959569
 10
101.830993626886
 20
-135.6168727959569
 10
101.8220363786244
 20
-135.8495889959855
 10
101.8175577544935
 20
-135.9215914916273
 10
101.8175577544935
 20
-135.9215914916273
 10
101.6005167389228
 20
-135.9215914916273
 10
101.6005167389228
 20
-135.9215914916273
 10
101.6094739871844
 20
-135.7967067802869
 10
101.6387572988091
 20
-135.4201578437491
 10
102.1272718386175
 20
-135.4201578437491
 10
102.3670504843909
 20
-135.4201578437491
 10
102.6247436266876
 20
-135.5471096123806
 10
102.6247436266876
 20
-135.8432155693378
 10
102.6247436266876
 20
-136.0294229803156
 10
102.5227688003242
 20
-136.1119330171873
 10
102.4166598593785
 20
-136.1732557168247
 10
102.4821166735982
 20
-136.2008164807067
 10
102.6767645685148
 20
-136.2812594602873
 10
102.6767645685148
 20
-136.5584173920757
 10
102.6767645685148
 20
-136.8968980235015
 10
102.4121812352477
 20
-137.0639851545361
 10
102.1159030235162
 20
-137.0639851545361
 97
        0
 97
        0
 75
     2
 76
     1
 98
        0
  0
SPLINE
  5
CF
330
C9
100
AcDbEntity
  8
_U+30EC_U+30A4_U+30E4_U+30FC 1
370
     0
100
AcDbSpline
210
0.0
220
0.0
230
1.0
 70
    11
 71
     3
 72
    26
 73
    22
 74
     0
 42
0.0000000001
 43
0.0000000001
 12
1.0
 22
0.0
 32
0.0
 13
1.0
 23
0.0
 33
0.0
 40
0.0
 40
0.0
 40
0.0
 40
0.0
 40
1.0
 40
1.0
 40
1.0
 40
2.0
 40
2.0
 40
2.0
 40
3.0
 40
3.0
 40
3.0
 40
4.0
 40
4.0
 40
4.0
 40
5.0
 40
5.0
 40
5.0
 40
6.0
 40
6.0
 40
6.0
 40
7.0
 40
7.0
 40
7.0
 40
7.0
 10
103.3306436916153
 20
-137.0131699961287
 30
0.0
 10
103.3306436916153
 20
-137.0131699961287
 30
0.0
 10
103.3306436916153
 20
-135.9088446383318
 30
0.0
 10
103.3306436916153
 20
-135.9088446383318
 30
0.0
 10
103.3306436916153
 20
-135.9088446383318
 30
0.0
 10
102.9782104234742
 20
-135.9088446383318
 30
0.0
 10
102.9782104234742
 20
-135.9088446383318
 30
0.0
 10
102.9782104234742
 20
-135.9088446383318
 30
0.0
 10
102.9782104234742
 20
-135.7608777872403
 30
0.0
 10
102.9782104234742
 20
-135.7608777872403
 30
0.0
 10
103.3330552584549
 20
-135.7460638766538
 30
0.0
 10
103.3826646334425
 20
-135.5831108602015
 30
0.0
 10
103.4143595119068
 20
-135.4689059448654
 30
0.0
 10
103.4143595119068
 20
-135.4689059448654
 30
0.0
 10
103.5704223373886
 20
-135.4689059448654
 30
0.0
 10
103.5704223373886
 20
-135.4689059448654
 30
0.0
 10
103.5704223373886
 20
-135.4689059448654
 30
0.0
 10
103.5704223373886
 20
-137.0131699961287
 30
0.0
 10
103.5704223373886
 20
-137.0131699961287
 30
0.0
 10
103.5704223373886
 20
-137.0131699961287
 30
0.0
 10
103.3306436916153
 20
-137.0131699961287
 30
0.0
 10
103.3306436916153
 20
-137.0131699961287
 30
0.0
  0
HATCH
  5
D0
330
C9
100
AcDbEntity
  8
_U+30EC_U+30A4_U+30E4_U+30FC 1
 62
   179
420
  2234388
100
AcDbHatch
 10
0.0
 20
0.0
 30
0.0
210
0.0
220
0.0
230
1.0
  2
SOLID
 70
     1
 71
     0
 91
        1
 92
        1
 93
        1
 72
     4
 94
        3
 73
     0
 74
     1
 95
       26
 96
       22
 40
0.0
 40
0.0
 40
0.0
 40
0.0
 40
1.0
 40
1.0
 40
1.0
 40
2.0
 40
2.0
 40
2.0
 40
3.0
 40
3.0
 40
3.0
 40
4.0
 40
4.0
 40
4.0
 40
5.0
 40
5.0
 40
5.0
 40
6.0
 40
6.0
 40
6.0
 40
7.0
 40
7.0
 40
7.0
 40
7.0
 10
103.3306436916153
 20
-137.0131699961287
 10
103.3306436916153
 20
-137.0131699961287
 10
103.3306436916153
 20
-135.9088446383318
 10
103.3306436916153
 20
-135.9088446383318
 10
103.3306436916153
 20
-135.9088446383318
 10
102.9782104234742
 20
-135.9088446383318
 10
102.9782104234742
 20
-135.9088446383318
 10
102.9782104234742
 20
-135.9088446383318
 10
102.9782104234742
 20
-135.7608777872403
 10
102.9782104234742
 20
-135.7608777872403
 10
103.3330552584549
 20
-135.7460638766538
 10
103.3826646334425
 20
-135.5831108602015
 10
103.4143595119068
 20
-135.4689059448654
 10
103.4143595119068
 20
-135.4689059448654
 10
103.5704223373886
 20
-135.4689059448654
 10
103.5704223373886
 20
-135.4689059448654
 10
103.5704223373886
 20
-135.4689059448654
 10
103.5704223373886
 20
-137.0131699961287
 10
103.5704223373886
 20
-137.0131699961287
 10
103.5704223373886
 20
-137.0131699961287
 10
103.3306436916153
 20
-137.0131699961287
 10
103.3306436916153
 20
-137.0131699961287
 97
        0
 97
        0
 75
     2
 76
     1
 98
        0
  0
ENDBLK
  5
CC
330
C9
100
AcDbEntity
  8
0
100
AcDbBlockEnd
  0
BLOCK
  5
E3
330
E1
100
AcDbEntity
  8
0
100
AcDbBlockBegin
  2
block 6
 70
     0
 10
0.0
 20
0.0
 30
0.0
  3
block 6
  1

  0
SPLINE
  5
E5
330
E1
100
AcDbEntity
  8
_U+30EC_U+30A4_U+30E4_U+30FC 1
370
     0
100
AcDbSpline
210
0.0
220
0.0
230
1.0
 70
    11
 71
     3
 72
    29
 73
    25
 74
     0
 42
0.0000000001
 43
0.0000000001
 12
1.0
 22
0.0
 32
0.0
 13
1.0
 23
0.0
 33
0.0
 40
0.0
 40
0.0
 40
0.0
 40
0.0
 40
1.0
 40
1.0
 40
1.0
 40
2.0
 40
2.0
 40
2.0
 40
3.0
 40
3.0
 40
3.0
 40
4.0
 40
4.0
 40
4.0
 40
5.0
 40
5.0
 40
5.0
 40
6.0
 40
6.0
 40
6.0
 40
7.0
 40
7.0
 40
7.0
 40
8.0
 40
8.0
 40
8.0
 40
8.0
 10
105.7692545308494
 20
-153.6646945145352
 30
0.0
 10
105.9787163363525
 20
-153.7801052132911
 30
0.0
 10
105.9973198519729
 20
-153.9654513503975
 30
0.0
 10
105.9973198519729
 20
-154.0898192974151
 30
0.0
 10
105.9973198519729
 20
-154.2613850525805
 30
0.0
 10
105.9511555724706
 20
-154.4129692539315
 30
0.0
 10
105.7692545308494
 20
-154.5145995707464
 30
0.0
 10
105.5742621263842
 20
-154.6255316453714
 30
0.0
 10
105.3377563213218
 20
-154.6458577087344
 30
0.0
 10
105.1748033048695
 20
-154.6458577087344
 30
0.0
 10
105.0307983135861
 20
-154.6458577087344
 30
0.0
 10
104.7789618336143
 20
-154.6279432122111
 30
0.0
 10
104.5801798241154
 20
-154.5145995707464
 30
0.0
 10
104.3772637000342
 20
-154.399533381539
 30
0.0
 10
104.3538370507345
 20
-154.227623116825
 30
0.0
 10
104.3538370507345
 20
-154.0898192974151
 30
0.0
 10
104.3538370507345
 20
-153.9199760899922
 30
0.0
 10
104.3982787824942
 20
-153.7663248313501
 30
0.0
 10
104.5801798241154
 20
-153.6646945145352
 30
0.0
 10
104.7727606617408
 20
-153.558241064041
 30
0.0
 10
105.0011704924129
 20
-153.5334363765472
 30
0.0
 10
105.1748033048695
 20
-153.5334363765472
 30
0.0
 10
105.3460245504864
 20
-153.5334363765472
 30
0.0
 10
105.5763291836754
 20
-153.5561740067498
 30
0.0
 10
105.7692545308494
 20
-153.6646945145352
 30
0.0
  0
SPLINE
  5
E6
330
E1
100
AcDbEntity
  8
_U+30EC_U+30A4_U+30E4_U+30FC 1
370
     0
100
AcDbSpline
210
0.0
220
0.0
230
1.0
 70
    11
 71
     3
 72
    17
 73
    13
 74
     0
 42
0.0000000001
 43
0.0000000001
 12
1.0
 22
0.0
 32
0.0
 13
1.0
 23
0.0
 33
0.0
 40
0.0
 40
0.0
 40
0.0
 40
0.0
 40
1.0
 40
1.0
 40
1.0
 40
2.0
 40
2.0
 40
2.0
 40
3.0
 40
3.0
 40
3.0
 40
4.0
 40
4.0
 40
4.0
 40
4.0
 10
104.5464178883599
 20
-154.0898192974151
 30
0.0
 10
104.5464178883599
 20
-154.3564696879734
 30
0.0
 10
104.829949246796
 20
-154.406079062961
 30
0.0
 10
105.1748033048695
 20
-154.406079062961
 30
0.0
 10
105.4943359111264
 20
-154.406079062961
 30
0.0
 10
105.8030164666048
 20
-154.3678385030747
 30
0.0
 10
105.8030164666048
 20
-154.0898192974151
 30
0.0
 10
105.8030164666048
 20
-153.8252359641479
 30
0.0
 10
105.5218966750084
 20
-153.7732150223206
 30
0.0
 10
105.1748033048695
 20
-153.7732150223206
 30
0.0
 10
104.8550984438383
 20
-153.7732150223206
 30
0.0
 10
104.5464178883599
 20
-153.8138671490465
 30
0.0
 10
104.5464178883599
 20
-154.0898192974151
 30
0.0
  0
HATCH
  5
E7
330
E1
100
AcDbEntity
  8
_U+30EC_U+30A4_U+30E4_U+30FC 1
 62
   179
420
  2234388
100
AcDbHatch
 10
0.0
 20
0.0
 30
0.0
210
0.0
220
0.0
230
1.0
  2
SOLID
 70
     1
 71
     0
 91
        2
 92
        1
 93
        1
 72
     4
 94
        3
 73
     0
 74
     1
 95
       29
 96
       25
 40
0.0
 40
0.0
 40
0.0
 40
0.0
 40
1.0
 40
1.0
 40
1.0
 40
2.0
 40
2.0
 40
2.0
 40
3.0
 40
3.0
 40
3.0
 40
4.0
 40
4.0
 40
4.0
 40
5.0
 40
5.0
 40
5.0
 40
6.0
 40
6.0
 40
6.0
 40
7.0
 40
7.0
 40
7.0
 40
8.0
 40
8.0
 40
8.0
 40
8.0
 10
105.7692545308494
 20
-153.6646945145352
 10
105.9787163363525
 20
-153.7801052132911
 10
105.9973198519729
 20
-153.9654513503975
 10
105.9973198519729
 20
-154.0898192974151
 10
105.9973198519729
 20
-154.2613850525805
 10
105.9511555724706
 20
-154.4129692539315
 10
105.7692545308494
 20
-154.5145995707464
 10
105.5742621263842
 20
-154.6255316453714
 10
105.3377563213218
 20
-154.6458577087344
 10
105.1748033048695
 20
-154.6458577087344
 10
105.0307983135861
 20
-154.6458577087344
 10
104.7789618336143
 20
-154.6279432122111
 10
104.5801798241154
 20
-154.5145995707464
 10
104.3772637000342
 20
-154.399533381539
 10
104.3538370507345
 20
-154.227623116825
 10
104.3538370507345
 20
-154.0898192974151
 10
104.3538370507345
 20
-153.9199760899922
 10
104.3982787824942
 20
-153.7663248313501
 10
104.5801798241154
 20
-153.6646945145352
 10
104.7727606617408
 20
-153.558241064041
 10
105.0011704924129
 20
-153.5334363765472
 10
105.1748033048695
 20
-153.5334363765472
 10
105.3460245504864
 20
-153.5334363765472
 10
105.5763291836754
 20
-153.5561740067498
 10
105.7692545308494
 20
-153.6646945145352
 97
        0
 97
        0
 92
        1
 93
        1
 72
     4
 94
        3
 73
     0
 74
     1
 95
       17
 96
       13
 40
0.0
 40
0.0
 40
0.0
 40
0.0
 40
1.0
 40
1.0
 40
1.0
 40
2.0
 40
2.0
 40
2.0
 40
3.0
 40
3.0
 40
3.0
 40
4.0
 40
4.0
 40
4.0
 40
4.0
 10
104.5464178883599
 20
-154.0898192974151
 10
104.5464178883599
 20
-154.3564696879734
 10
104.829949246796
 20
-154.406079062961
 10
105.1748033048695
 20
-154.406079062961
 10
105.4943359111264
 20
-154.406079062961
 10
105.8030164666048
 20
-154.3678385030747
 10
105.8030164666048
 20
-154.0898192974151
 10
105.8030164666048
 20
-153.8252359641479
 10
105.5218966750084
 20
-153.7732150223206
 10
105.1748033048695
 20
-153.7732150223206
 10
104.8550984438383
 20
-153.7732150223206
 10
104.5464178883599
 20
-153.8138671490465
 10
104.5464178883599
 20
-154.0898192974151
 97
        0
 97
        0
 75
     2
 76
     1
 98
        0
  0
POLYLINE
  5
E8
330
E1
100
AcDbEntity
  8
_U+30EC_U+30A4_U+30E4_U+30FC 1
370
     0
100
AcDb2dPolyline
 66
     1
 10
0.0
 20
0.0
 30
0.0
  0
VERTEX
  5
E9
330
E8
100
AcDbEntity
  8
_U+30EC_U+30A4_U+30E4_U+30FC 1
370
     0
100
AcDbVertex
100
AcDb2dVertex
 10
105.9470214578883
 20
-153.3022704694869
 30
0.0
  0
VERTEX
  5
EA
330
E8
100
AcDbEntity
  8
_U+30EC_U+30A4_U+30E4_U+30FC 1
370
     0
100
AcDbVertex
100
AcDb2dVertex
 10
105.694840468368
 20
-153.3022704694869
 30
0.0
  0
VERTEX
  5
EB
330
E8
100
AcDbEntity
  8
_U+30EC_U+30A4_U+30E4_U+30FC 1
370
     0
100
AcDbVertex
100
AcDb2dVertex
 10
105.694840468368
 20
-153.0332085120889
 30
0.0
  0
VERTEX
  5
EC
330
E8
100
AcDbEntity
  8
_U+30EC_U+30A4_U+30E4_U+30FC 1
370
     0
100
AcDbVertex
100
AcDb2dVertex
 10
105.9470214578883
 20
-153.0332085120889
 30
0.0
  0
VERTEX
  5
ED
330
E8
100
AcDbEntity
  8
_U+30EC_U+30A4_U+30E4_U+30FC 1
370
     0
100
AcDbVertex
100
AcDb2dVertex
 10
105.9470214578883
 20
-153.3022704694869
 30
0.0
  0
SEQEND
  5
EE
330
E8
100
AcDbEntity
  8
_U+30EC_U+30A4_U+30E4_U+30FC 1
370
     0
  0
HATCH
  5
EF
330
E1
100
AcDbEntity
  8
_U+30EC_U+30A4_U+30E4_U+30FC 1
 62
   179
420
  2234388
100
AcDbHatch
 10
0.0
 20
0.0
 30
0.0
210
0.0
220
0.0
230
1.0
  2
SOLID
 70
     1
 71
     0
 91
        1
 92
        1
 93
        4
 72
     1
 10
105.9470214578883
 20
-153.3022704694869
 11
105.694840468368
 21
-153.3022704694869
 72
     1
 10
105.694840468368
 20
-153.3022704694869
 11
105.694840468368
 21
-153.0332085120889
 72
     1
 10
105.694840468368
 20
-153.0332085120889
 11
105.9470214578883
 21
-153.0332085120889
 72
     1
 10
105.9470214578883
 20
-153.0332085120889
 11
105.9470214578883
 21
-153.3022704694869
 97
        0
 75
     2
 76
     1
 98
        0
  0
SPLINE
  5
F0
330
E1
100
AcDbEntity
  8
_U+30EC_U+30A4_U+30E4_U+30FC 1
370
     0
100
AcDbSpline
210
0.0
220
0.0
230
1.0
 70
    11
 71
     3
 72
    53
 73
    49
 74
     0
 42
0.0000000001
 43
0.0000000001
 12
1.0
 22
0.0
 32
0.0
 13
1.0
 23
0.0
 33
0.0
 40
0.0
 40
0.0
 40
0.0
 40
0.0
 40
1.0
 40
1.0
 40
1.0
 40
2.0
 40
2.0
 40
2.0
 40
3.0
 40
3.0
 40
3.0
 40
4.0
 40
4.0
 40
4.0
 40
5.0
 40
5.0
 40
5.0
 40
6.0
 40
6.0
 40
6.0
 40
7.0
 40
7.0
 40
7.0
 40
8.0
 40
8.0
 40
8.0
 40
9.0
 40
9.0
 40
9.0
 40
10.0
 40
10.0
 40
10.0
 40
11.0
 40
11.0
 40
11.0
 40
12.0
 40
12.0
 40
12.0
 40
13.0
 40
13.0
 40
13.0
 40
14.0
 40
14.0
 40
14.0
 40
15.0
 40
15.0
 40
15.0
 40
16.0
 40
16.0
 40
16.0
 40
16.0
 10
105.9973198519729
 20
-152.2663302570723
 30
0.0
 10
105.9973198519729
 20
-152.3500460773639
 30
0.0
 10
105.9807833936437
 20
-152.4582220756007
 30
0.0
 10
105.9173936367151
 20
-152.5670870929346
 30
0.0
 10
105.8071505811871
 20
-152.7524332300411
 30
0.0
 10
105.6762369527476
 20
-152.7748263506952
 30
0.0
 10
105.5680609545108
 20
-152.7951524140582
 30
0.0
 10
105.5680609545108
 20
-152.7951524140582
 30
0.0
 10
105.5680609545108
 20
-152.5577853351244
 30
0.0
 10
105.5680609545108
 20
-152.5577853351244
 30
0.0
 10
105.7671874735582
 20
-152.4992187118752
 30
0.0
 10
105.7968152947314
 20
-152.3634819497564
 30
0.0
 10
105.7968152947314
 20
-152.2639186902326
 30
0.0
 10
105.7968152947314
 20
-152.1147460557213
 30
0.0
 10
105.6969075256591
 20
-151.951793039269
 30
0.0
 10
105.464535835179
 20
-151.951793039269
 30
0.0
 10
105.2085652406249
 20
-151.951793039269
 30
0.0
 10
105.1386298022744
 20
-152.144029367346
 30
0.0
 10
105.1386298022744
 20
-152.2728759384943
 30
0.0
 10
105.1386298022744
 20
-152.3069823837983
 30
0.0
 10
105.1386298022744
 20
-152.4582220756007
 30
0.0
 10
105.2678208829713
 20
-152.5533067109936
 30
0.0
 10
105.2678208829713
 20
-152.5533067109936
 30
0.0
 10
105.2488728578024
 20
-152.7410644149397
 30
0.0
 10
105.2488728578024
 20
-152.7410644149397
 30
0.0
 10
105.2488728578024
 20
-152.7410644149397
 30
0.0
 10
104.4024128970765
 20
-152.6122178437914
 30
0.0
 10
104.4024128970765
 20
-152.6122178437914
 30
0.0
 10
104.4024128970765
 20
-152.6122178437914
 30
0.0
 10
104.4024128970765
 20
-151.7802272841036
 30
0.0
 10
104.4024128970765
 20
-151.7802272841036
 30
0.0
 10
104.4024128970765
 20
-151.7802272841036
 30
0.0
 10
104.5970607919931
 20
-151.7802272841036
 30
0.0
 10
104.5970607919931
 20
-151.7802272841036
 30
0.0
 10
104.5970607919931
 20
-151.7802272841036
 30
0.0
 10
104.5970607919931
 20
-152.4378960122378
 30
0.0
 10
104.5970607919931
 20
-152.4378960122378
 30
0.0
 10
104.5970607919931
 20
-152.4378960122378
 30
0.0
 10
105.0201185175818
 20
-152.5081759601368
 30
0.0
 10
105.0201185175818
 20
-152.5081759601368
 30
0.0
 10
104.9863565818263
 20
-152.4427191459171
 30
0.0
 10
104.9460489646489
 20
-152.3545247014947
 30
0.0
 10
104.9460489646489
 20
-152.2277451876375
 30
0.0
 10
104.9460489646489
 20
-151.9566161729483
 30
0.0
 10
105.1324286304009
 20
-151.7034016547825
 30
0.0
 10
105.4455878100101
 20
-151.7034016547825
 30
0.0
 10
105.7630533589759
 20
-151.7034016547825
 30
0.0
 10
105.9973198519729
 20
-151.9428357910074
 30
0.0
 10
105.9973198519729
 20
-152.2663302570723
 30
0.0
  0
HATCH
  5
F1
330
E1
100
AcDbEntity
  8
_U+30EC_U+30A4_U+30E4_U+30FC 1
 62
   179
420
  2234388
100
AcDbHatch
 10
0.0
 20
0.0
 30
0.0
210
0.0
220
0.0
230
1.0
  2
SOLID
 70
     1
 71
     0
 91
        1
 92
        1
 93
        1
 72
     4
 94
        3
 73
     0
 74
     1
 95
       53
 96
       49
 40
0.0
 40
0.0
 40
0.0
 40
0.0
 40
1.0
 40
1.0
 40
1.0
 40
2.0
 40
2.0
 40
2.0
 40
3.0
 40
3.0
 40
3.0
 40
4.0
 40
4.0
 40
4.0
 40
5.0
 40
5.0
 40
5.0
 40
6.0
 40
6.0
 40
6.0
 40
7.0
 40
7.0
 40
7.0
 40
8.0
 40
8.0
 40
8.0
 40
9.0
 40
9.0
 40
9.0
 40
10.0
 40
10.0
 40
10.0
 40
11.0
 40
11.0
 40
11.0
 40
12.0
 40
12.0
 40
12.0
 40
13.0
 40
13.0
 40
13.0
 40
14.0
 40
14.0
 40
14.0
 40
15.0
 40
15.0
 40
15.0
 40
16.0
 40
16.0
 40
16.0
 40
16.0
 10
105.9973198519729
 20
-152.2663302570723
 10
105.9973198519729
 20
-152.3500460773639
 10
105.9807833936437
 20
-152.4582220756007
 10
105.9173936367151
 20
-152.5670870929346
 10
105.8071505811871
 20
-152.7524332300411
 10
105.6762369527476
 20
-152.7748263506952
 10
105.5680609545108
 20
-152.7951524140582
 10
105.5680609545108
 20
-152.7951524140582
 10
105.5680609545108
 20
-152.5577853351244
 10
105.5680609545108
 20
-152.5577853351244
 10
105.7671874735582
 20
-152.4992187118752
 10
105.7968152947314
 20
-152.3634819497564
 10
105.7968152947314
 20
-152.2639186902326
 10
105.7968152947314
 20
-152.1147460557213
 10
105.6969075256591
 20
-151.951793039269
 10
105.464535835179
 20
-151.951793039269
 10
105.2085652406249
 20
-151.951793039269
 10
105.1386298022744
 20
-152.144029367346
 10
105.1386298022744
 20
-152.2728759384943
 10
105.1386298022744
 20
-152.3069823837983
 10
105.1386298022744
 20
-152.4582220756007
 10
105.2678208829713
 20
-152.5533067109936
 10
105.2678208829713
 20
-152.5533067109936
 10
105.2488728578024
 20
-152.7410644149397
 10
105.2488728578024
 20
-152.7410644149397
 10
105.2488728578024
 20
-152.7410644149397
 10
104.4024128970765
 20
-152.6122178437914
 10
104.4024128970765
 20
-152.6122178437914
 10
104.4024128970765
 20
-152.6122178437914
 10
104.4024128970765
 20
-151.7802272841036
 10
104.4024128970765
 20
-151.7802272841036
 10
104.4024128970765
 20
-151.7802272841036
 10
104.5970607919931
 20
-151.7802272841036
 10
104.5970607919931
 20
-151.7802272841036
 10
104.5970607919931
 20
-151.7802272841036
 10
104.5970607919931
 20
-152.4378960122378
 10
104.5970607919931
 20
-152.4378960122378
 10
104.5970607919931
 20
-152.4378960122378
 10
105.0201185175818
 20
-152.5081759601368
 10
105.0201185175818
 20
-152.5081759601368
 10
104.9863565818263
 20
-152.4427191459171
 10
104.9460489646489
 20
-152.3545247014947
 10
104.9460489646489
 20
-152.2277451876375
 10
104.9460489646489
 20
-151.9566161729483
 10
105.1324286304009
 20
-151.7034016547825
 10
105.4455878100101
 20
-151.7034016547825
 10
105.7630533589759
 20
-151.7034016547825
 10
105.9973198519729
 20
-151.9428357910074
 10
105.9973198519729
 20
-152.2663302570723
 97
        0
 97
        0
 75
     2
 76
     1
 98
        0
  0
ENDBLK
  5
E4
330
E1
100
AcDbEntity
  8
0
100
AcDbBlockEnd
  0
BLOCK
  5
FC
330
FA
100
AcDbEntity
  8
0
100
AcDbBlockBegin
  2
block 7
 70
     0
 10
0.0
 20
0.0
 30
0.0
  3
block 7
  1

  0
SPLINE
  5
FE
330
FA
100
AcDbEntity
  8
_U+30EC_U+30A4_U+30E4_U+30FC 1
370
     0
100
AcDbSpline
210
0.0
220
0.0
230
1.0
 70
    11
 71
     3
 72
    26
 73
    22
 74
     0
 42
0.0000000001
 43
0.0000000001
 12
1.0
 22
0.0
 32
0.0
 13
1.0
 23
0.0
 33
0.0
 40
0.0
 40
0.0
 40
0.0
 40
0.0
 40
1.0
 40
1.0
 40
1.0
 40
2.0
 40
2.0
 40
2.0
 40
3.0
 40
3.0
 40
3.0
 40
4.0
 40
4.0
 40
4.0
 40
5.0
 40
5.0
 40
5.0
 40
6.0
 40
6.0
 40
6.0
 40
7.0
 40
7.0
 40
7.0
 40
7.0
 10
120.946967200666
 20
-150.4914170630716
 30
0.0
 10
120.946967200666
 20
-150.4914170630716
 30
0.0
 10
119.843158607192
 20
-150.4914170630716
 30
0.0
 10
119.843158607192
 20
-150.4914170630716
 30
0.0
 10
119.843158607192
 20
-150.4914170630716
 30
0.0
 10
119.843158607192
 20
-150.8438503312126
 30
0.0
 10
119.843158607192
 20
-150.8438503312126
 30
0.0
 10
119.843158607192
 20
-150.8438503312126
 30
0.0
 10
119.6950195013263
 20
-150.8438503312126
 30
0.0
 10
119.6950195013263
 20
-150.8438503312126
 30
0.0
 10
119.6798610811911
 20
-150.4890054962319
 30
0.0
 10
119.5172525742874
 20
-150.4393961212443
 30
0.0
 10
119.4028754041771
 20
-150.40770124278
 30
0.0
 10
119.4028754041771
 20
-150.40770124278
 30
0.0
 10
119.4028754041771
 20
-150.2516384172982
 30
0.0
 10
119.4028754041771
 20
-150.2516384172982
 30
0.0
 10
119.4028754041771
 20
-150.2516384172982
 30
0.0
 10
120.946967200666
 20
-150.2516384172982
 30
0.0
 10
120.946967200666
 20
-150.2516384172982
 30
0.0
 10
120.946967200666
 20
-150.2516384172982
 30
0.0
 10
120.946967200666
 20
-150.4914170630716
 30
0.0
 10
120.946967200666
 20
-150.4914170630716
 30
0.0
  0
HATCH
  5
FF
330
FA
100
AcDbEntity
  8
_U+30EC_U+30A4_U+30E4_U+30FC 1
 62
   179
420
  2234388
100
AcDbHatch
 10
0.0
 20
0.0
 30
0.0
210
0.0
220
0.0
230
1.0
  2
SOLID
 70
     1
 71
     0
 91
        1
 92
        1
 93
        1
 72
     4
 94
        3
 73
     0
 74
     1
 95
       26
 96
       22
 40
0.0
 40
0.0
 40
0.0
 40
0.0
 40
1.0
 40
1.0
 40
1.0
 40
2.0
 40
2.0
 40
2.0
 40
3.0
 40
3.0
 40
3.0
 40
4.0
 40
4.0
 40
4.0
 40
5.0
 40
5.0
 40
5.0
 40
6.0
 40
6.0
 40
6.0
 40
7.0
 40
7.0
 40
7.0
 40
7.0
 10
120.946967200666
 20
-150.4914170630716
 10
120.946967200666
 20
-150.4914170630716
 10
119.843158607192
 20
-150.4914170630716
 10
119.843158607192
 20
-150.4914170630716
 10
119.843158607192
 20
-150.4914170630716
 10
119.843158607192
 20
-150.8438503312126
 10
119.843158607192
 20
-150.8438503312126
 10
119.843158607192
 20
-150.8438503312126
 10
119.6950195013263
 20
-150.8438503312126
 10
119.6950195013263
 20
-150.8438503312126
 10
119.6798610811911
 20
-150.4890054962319
 10
119.5172525742874
 20
-150.4393961212443
 10
119.4028754041771
 20
-150.40770124278
 10
119.4028754041771
 20
-150.40770124278
 10
119.4028754041771
 20
-150.2516384172982
 10
119.4028754041771
 20
-150.2516384172982
 10
119.4028754041771
 20
-150.2516384172982
 10
120.946967200666
 20
-150.2516384172982
 10
120.946967200666
 20
-150.2516384172982
 10
120.946967200666
 20
-150.2516384172982
 10
120.946967200666
 20
-150.4914170630716
 10
120.946967200666
 20
-150.4914170630716
 97
        0
 97
        0
 75
     2
 76
     1
 98
        0
  0
SPLINE
  5
100
330
FA
100
AcDbEntity
  8
_U+30EC_U+30A4_U+30E4_U+30FC 1
370
     0
100
AcDbSpline
210
0.0
220
0.0
230
1.0
 70
    11
 71
     3
 72
    62
 73
    58
 74
     0
 42
0.0000000001
 43
0.0000000001
 12
1.0
 22
0.0
 32
0.0
 13
1.0
 23
0.0
 33
0.0
 40
0.0
 40
0.0
 40
0.0
 40
0.0
 40
1.0
 40
1.0
 40
1.0
 40
2.0
 40
2.0
 40
2.0
 40
3.0
 40
3.0
 40
3.0
 40
4.0
 40
4.0
 40
4.0
 40
5.0
 40
5.0
 40
5.0
 40
6.0
 40
6.0
 40
6.0
 40
7.0
 40
7.0
 40
7.0
 40
8.0
 40
8.0
 40
8.0
 40
9.0
 40
9.0
 40
9.0
 40
10.0
 40
10.0
 40
10.0
 40
11.0
 40
11.0
 40
11.0
 40
12.0
 40
12.0
 40
12.0
 40
13.0
 40
13.0
 40
13.0
 40
14.0
 40
14.0
 40
14.0
 40
15.0
 40
15.0
 40
15.0
 40
16.0
 40
16.0
 40
16.0
 40
17.0
 40
17.0
 40
17.0
 40
18.0
 40
18.0
 40
18.0
 40
19.0
 40
19.0
 40
19.0
 40
19.0
 10
120.9979546138477
 20
-149.1905490078413
 30
0.0
 10
120.9979546138477
 20
-149.2921793246561
 30
0.0
 10
120.9765950218392
 20
-149.525067779459
 30
0.0
 10
120.7905598656357
 20
-149.6583929747382
 30
0.0
 10
120.6782497528166
 20
-149.7376301708989
 30
0.0
 10
120.5790310028414
 20
-149.7421087950298
 30
0.0
 10
120.4942816539042
 20
-149.7465874191606
 30
0.0
 10
120.4942816539042
 20
-149.7465874191606
 30
0.0
 10
120.4942816539042
 20
-149.5116319070665
 30
0.0
 10
120.4942816539042
 20
-149.5116319070665
 30
0.0
 10
120.5686957163856
 20
-149.5092203402269
 30
0.0
 10
120.8029622093826
 20
-149.4978515251256
 30
0.0
 10
120.8029622093826
 20
-149.1950276319721
 30
0.0
 10
120.8029622093826
 20
-149.0479220547519
 30
0.0
 10
120.7333712805806
 20
-148.8853135478481
 30
0.0
 10
120.505305959457
 20
-148.8853135478481
 30
0.0
 10
120.3888617320556
 20
-148.8853135478481
 30
0.0
 10
120.339941376165
 20
-148.9259656745741
 30
0.0
 10
120.3082464977007
 20
-148.960072119878
 30
0.0
 10
120.2345214543164
 20
-149.0389648064903
 30
0.0
 10
120.2214300914724
 20
-149.1633327535078
 30
0.0
 10
120.2214300914724
 20
-149.2222438863056
 30
0.0
 10
120.2214300914724
 20
-149.2425699496685
 30
0.0
 10
120.2234971487636
 20
-149.2808105095548
 30
0.0
 10
120.2276312633459
 20
-149.3104383307279
 30
0.0
 10
120.2276312633459
 20
-149.3104383307279
 30
0.0
 10
120.0333278779778
 20
-149.3104383307279
 30
0.0
 10
120.0333278779778
 20
-149.3104383307279
 30
0.0
 10
120.0395290498512
 20
-149.269786204002
 30
0.0
 10
120.0415961071424
 20
-149.2243109435967
 30
0.0
 10
120.0415961071424
 20
-149.2177652621747
 30
0.0
 10
120.0415961071424
 20
-149.1474853142756
 30
0.0
 10
120.0202365151338
 20
-148.9349229228357
 30
0.0
 10
119.7839029648457
 20
-148.9349229228357
 30
0.0
 10
119.6061360378068
 20
-148.9349229228357
 30
0.0
 10
119.5510145100428
 20
-149.0751383090854
 30
0.0
 10
119.5510145100428
 20
-149.1926160651324
 30
0.0
 10
119.5510145100428
 20
-149.4754584044714
 30
0.0
 10
119.7839029648457
 20
-149.4844156527331
 30
0.0
 10
119.8555609509389
 20
-149.4888942768639
 30
0.0
 10
119.8555609509389
 20
-149.4888942768639
 30
0.0
 10
119.8555609509389
 20
-149.7059352924346
 30
0.0
 10
119.8555609509389
 20
-149.7059352924346
 30
0.0
 10
119.7308484943729
 20
-149.696978044173
 30
0.0
 10
119.3539550482865
 20
-149.6676947325484
 30
0.0
 10
119.3539550482865
 20
-149.1791801927399
 30
0.0
 10
119.3539550482865
 20
-148.9394015469665
 30
0.0
 10
119.4814235812408
 20
-148.6817084046698
 30
0.0
 10
119.7770127738752
 20
-148.6817084046698
 30
0.0
 10
119.9637369491757
 20
-148.6817084046698
 30
0.0
 10
120.0457302217247
 20
-148.7836832310333
 30
0.0
 10
120.1070529213621
 20
-148.8897921719789
 30
0.0
 10
120.1346136852441
 20
-148.8243353577592
 30
0.0
 10
120.215228919599
 20
-148.6296874628426
 30
0.0
 10
120.4922145966131
 20
-148.6296874628426
 30
0.0
 10
120.8305229732646
 20
-148.6296874628426
 30
0.0
 10
120.9979546138477
 20
-148.8942707961098
 30
0.0
 10
120.9979546138477
 20
-149.1905490078413
 30
0.0
  0
HATCH
  5
101
330
FA
100
AcDbEntity
  8
_U+30EC_U+30A4_U+30E4_U+30FC 1
 62
   179
420
  2234388
100
AcDbHatch
 10
0.0
 20
0.0
 30
0.0
210
0.0
220
0.0
230
1.0
  2
SOLID
 70
     1
 71
     0
 91
        1
 92
        1
 93
        1
 72
     4
 94
        3
 73
     0
 74
     1
 95
       62
 96
       58
 40
0.0
 40
0.0
 40
0.0
 40
0.0
 40
1.0
 40
1.0
 40
1.0
 40
2.0
 40
2.0
 40
2.0
 40
3.0
 40
3.0
 40
3.0
 40
4.0
 40
4.0
 40
4.0
 40
5.0
 40
5.0
 40
5.0
 40
6.0
 40
6.0
 40
6.0
 40
7.0
 40
7.0
 40
7.0
 40
8.0
 40
8.0
 40
8.0
 40
9.0
 40
9.0
 40
9.0
 40
10.0
 40
10.0
 40
10.0
 40
11.0
 40
11.0
 40
11.0
 40
12.0
 40
12.0
 40
12.0
 40
13.0
 40
13.0
 40
13.0
 40
14.0
 40
14.0
 40
14.0
 40
15.0
 40
15.0
 40
15.0
 40
16.0
 40
16.0
 40
16.0
 40
17.0
 40
17.0
 40
17.0
 40
18.0
 40
18.0
 40
18.0
 40
19.0
 40
19.0
 40
19.0
 40
19.0
 10
120.9979546138477
 20
-149.1905490078413
 10
120.9979546138477
 20
-149.2921793246561
 10
120.9765950218392
 20
-149.525067779459
 10
120.7905598656357
 20
-149.6583929747382
 10
120.6782497528166
 20
-149.7376301708989
 10
120.5790310028414
 20
-149.7421087950298
 10
120.4942816539042
 20
-149.7465874191606
 10
120.4942816539042
 20
-149.7465874191606
 10
120.4942816539042
 20
-149.5116319070665
 10
120.4942816539042
 20
-149.5116319070665
 10
120.5686957163856
 20
-149.5092203402269
 10
120.8029622093826
 20
-149.4978515251256
 10
120.8029622093826
 20
-149.1950276319721
 10
120.8029622093826
 20
-149.0479220547519
 10
120.7333712805806
 20
-148.8853135478481
 10
120.505305959457
 20
-148.8853135478481
 10
120.3888617320556
 20
-148.8853135478481
 10
120.339941376165
 20
-148.9259656745741
 10
120.3082464977007
 20
-148.960072119878
 10
120.2345214543164
 20
-149.0389648064903
 10
120.2214300914724
 20
-149.1633327535078
 10
120.2214300914724
 20
-149.2222438863056
 10
120.2214300914724
 20
-149.2425699496685
 10
120.2234971487636
 20
-149.2808105095548
 10
120.2276312633459
 20
-149.3104383307279
 10
120.2276312633459
 20
-149.3104383307279
 10
120.0333278779778
 20
-149.3104383307279
 10
120.0333278779778
 20
-149.3104383307279
 10
120.0395290498512
 20
-149.269786204002
 10
120.0415961071424
 20
-149.2243109435967
 10
120.0415961071424
 20
-149.2177652621747
 10
120.0415961071424
 20
-149.1474853142756
 10
120.0202365151338
 20
-148.9349229228357
 10
119.7839029648457
 20
-148.9349229228357
 10
119.6061360378068
 20
-148.9349229228357
 10
119.5510145100428
 20
-149.0751383090854
 10
119.5510145100428
 20
-149.1926160651324
 10
119.5510145100428
 20
-149.4754584044714
 10
119.7839029648457
 20
-149.4844156527331
 10
119.8555609509389
 20
-149.4888942768639
 10
119.8555609509389
 20
-149.4888942768639
 10
119.8555609509389
 20
-149.7059352924346
 10
119.8555609509389
 20
-149.7059352924346
 10
119.7308484943729
 20
-149.696978044173
 10
119.3539550482865
 20
-149.6676947325484
 10
119.3539550482865
 20
-149.1791801927399
 10
119.3539550482865
 20
-148.9394015469665
 10
119.4814235812408
 20
-148.6817084046698
 10
119.7770127738752
 20
-148.6817084046698
 10
119.9637369491757
 20
-148.6817084046698
 10
120.0457302217247
 20
-148.7836832310333
 10
120.1070529213621
 20
-148.8897921719789
 10
120.1346136852441
 20
-148.8243353577592
 10
120.215228919599
 20
-148.6296874628426
 10
120.4922145966131
 20
-148.6296874628426
 10
120.8305229732646
 20
-148.6296874628426
 10
120.9979546138477
 20
-148.8942707961098
 10
120.9979546138477
 20
-149.1905490078413
 97
        0
 97
        0
 75
     2
 76
     1
 98
        0
  0
ENDBLK
  5
FD
330
FA
100
AcDbEntity
  8
0
100
AcDbBlockEnd
  0
ENDSEC
  0
SECTION
  2
ENTITIES
  0
POLYLINE
  5
41
330
1F
100
AcDbEntity
  8
_U+30EC_U+30A4_U+30E4_U+30FC 1
 62
   179
420
  2234388
370
    25
100
AcDb2dPolyline
 66
     1
 10
0.0
 20
0.0
 30
0.0
  0
VERTEX
  5
42
330
41
100
AcDbEntity
  8
_U+30EC_U+30A4_U+30E4_U+30FC 1
 62
   179
420
  2234388
370
    25
100
AcDbVertex
100
AcDb2dVertex
 10
87.24927999630765
 20
-142.3151769088656
 30
0.0
  0
VERTEX
  5
43
330
41
100
AcDbEntity
  8
_U+30EC_U+30A4_U+30E4_U+30FC 1
 62
   179
420
  2234388
370
    25
100
AcDbVertex
100
AcDb2dVertex
 10
94.24902592884037
 20
-142.3151769088656
 30
0.0
  0
SEQEND
  5
44
330
41
100
AcDbEntity
  8
_U+30EC_U+30A4_U+30E4_U+30FC 1
 62
   179
420
  2234388
370
    25
  0
POLYLINE
  5
45
330
1F
100
AcDbEntity
  8
_U+30EC_U+30A4_U+30E4_U+30FC 1
 62
   179
420
  2234388
370
    25
100
AcDb2dPolyline
 66
     1
 10
0.0
 20
0.0
 30
0.0
  0
VERTEX
  5
46
330
45
100
AcDbEntity
  8
_U+30EC_U+30A4_U+30E4_U+30FC 1
 62
   179
420
  2234388
370
    25
100
AcDbVertex
100
AcDb2dVertex
 10
118.2494500387608
 20
-142.3151769088656
 30
0.0
  0
VERTEX
  5
47
330
45
100
AcDbEntity
  8
_U+30EC_U+30A4_U+30E4_U+30FC 1
 62
   179
420
  2234388
370
    25
100
AcDbVertex
100
AcDb2dVertex
 10
118.2494500387608
 20
-143.3149491308381
 30
0.0
  0
SEQEND
  5
48
330
45
100
AcDbEntity
  8
_U+30EC_U+30A4_U+30E4_U+30FC 1
 62
   179
420
  2234388
370
    25
  0
POLYLINE
  5
49
330
1F
100
AcDbEntity
  8
_U+30EC_U+30A4_U+30E4_U+30FC 1
 62
   179
420
  2234388
370
    25
100
AcDb2dPolyline
 66
     1
 10
0.0
 20
0.0
 30
0.0
  0
VERTEX
  5
4A
330
49
100
AcDbEntity
  8
_U+30EC_U+30A4_U+30E4_U+30FC 1
 62
   179
420
  2234388
370
    25
100
AcDbVertex
100
AcDb2dVertex
 10
96.24924060003286
 20
-143.3149491308381
 30
0.0
  0
VERTEX
  5
4B
330
49
100
AcDbEntity
  8
_U+30EC_U+30A4_U+30E4_U+30FC 1
 62
   179
420
  2234388
370
    25
100
AcDbVertex
100
AcDb2dVertex
 10
118.2494500387608
 20
-143.3149491308381
 30
0.0
  0
SEQEND
  5
4C
330
49
100
AcDbEntity
  8
_U+30EC_U+30A4_U+30E4_U+30FC 1
 62
   179
420
  2234388
370
    25
  0
POLYLINE
  5
4D
330
1F
100
AcDbEntity
  8
_U+30EC_U+30A4_U+30E4_U+30FC 1
 62
   179
420
  2234388
370
    25
100
AcDb2dPolyline
 66
     1
 10
0.0
 20
0.0
 30
0.0
  0
VERTEX
  5
4E
330
4D
100
AcDbEntity
  8
_U+30EC_U+30A4_U+30E4_U+30FC 1
 62
   179
420
  2234388
370
    25
100
AcDbVertex
100
AcDb2dVertex
 10
93.24925373212446
 20
-143.3149491308381
 30
0.0
  0
VERTEX
  5
4F
330
4D
100
AcDbEntity
  8
_U+30EC_U+30A4_U+30E4_U+30FC 1
 62
   179
420
  2234388
370
    25
100
AcDbVertex
100
AcDb2dVertex
 10
93.24925373212446
 20
-157.3151116273379
 30
0.0
  0
SEQEND
  5
50
330
4D
100
AcDbEntity
  8
_U+30EC_U+30A4_U+30E4_U+30FC 1
 62
   179
420
  2234388
370
    25
  0
POLYLINE
  5
51
330
1F
100
AcDbEntity
  8
_U+30EC_U+30A4_U+30E4_U+30FC 1
 62
   179
420
  2234388
370
    25
100
AcDb2dPolyline
 66
     1
 10
0.0
 20
0.0
 30
0.0
  0
VERTEX
  5
52
330
51
100
AcDbEntity
  8
_U+30EC_U+30A4_U+30E4_U+30FC 1
 62
   179
420
  2234388
370
    25
100
AcDbVertex
100
AcDb2dVertex
 10
103.2493393103343
 20
-156.3153394053654
 30
0.0
  0
VERTEX
  5
53
330
51
100
AcDbEntity
  8
_U+30EC_U+30A4_U+30E4_U+30FC 1
 62
   179
420
  2234388
370
    25
100
AcDbVertex
100
AcDb2dVertex
 10
103.2493393103343
 20
-156.8148727385742
 30
0.0
  0
SEQEND
  5
54
330
51
100
AcDbEntity
  8
_U+30EC_U+30A4_U+30E4_U+30FC 1
 62
   179
420
  2234388
370
    25
  0
POLYLINE
  5
55
330
1F
100
AcDbEntity
  8
_U+30EC_U+30A4_U+30E4_U+30FC 1
 62
   179
420
  2234388
370
    25
100
AcDb2dPolyline
 66
     1
 10
0.0
 20
0.0
 30
0.0
  0
VERTEX
  5
56
330
55
100
AcDbEntity
  8
_U+30EC_U+30A4_U+30E4_U+30FC 1
 62
   179
420
  2234388
370
    25
100
AcDbVertex
100
AcDb2dVertex
 10
96.24924060003286
 20
-156.3153394053654
 30
0.0
  0
VERTEX
  5
57
330
55
100
AcDbEntity
  8
_U+30EC_U+30A4_U+30E4_U+30FC 1
 62
   179
420
  2234388
370
    25
100
AcDbVertex
100
AcDb2dVertex
 10
103.2493393103343
 20
-156.3153394053654
 30
0.0
  0
SEQEND
  5
58
330
55
100
AcDbEntity
  8
_U+30EC_U+30A4_U+30E4_U+30FC 1
 62
   179
420
  2234388
370
    25
  0
POLYLINE
  5
59
330
1F
100
AcDbEntity
  8
_U+30EC_U+30A4_U+30E4_U+30FC 1
 62
   179
420
  2234388
370
    25
100
AcDb2dPolyline
 66
     1
 10
0.0
 20
0.0
 30
0.0
  0
VERTEX
  5
5A
330
59
100
AcDbEntity
  8
_U+30EC_U+30A4_U+30E4_U+30FC 1
 62
   179
420
  2234388
370
    25
100
AcDbVertex
100
AcDb2dVertex
 10
95.24946840331695
 20
-142.3151769088656
 30
0.0
  0
VERTEX
  5
5B
330
59
100
AcDbEntity
  8
_U+30EC_U+30A4_U+30E4_U+30FC 1
 62
   179
420
  2234388
370
    25
100
AcDbVertex
100
AcDb2dVertex
 10
118.2494500387608
 20
-142.3151769088656
 30
0.0
  0
SEQEND
  5
5C
330
59
100
AcDbEntity
  8
_U+30EC_U+30A4_U+30E4_U+30FC 1
 62
   179
420
  2234388
370
    25
  0
POLYLINE
  5
5D
330
1F
100
AcDbEntity
  8
_U+30EC_U+30A4_U+30E4_U+30FC 1
 62
   179
420
  2234388
370
    25
100
AcDb2dPolyline
 66
     1
 10
0.0
 20
0.0
 30
0.0
  0
VERTEX
  5
5E
330
5D
100
AcDbEntity
  8
_U+30EC_U+30A4_U+30E4_U+30FC 1
 62
   179
420
  2234388
370
    25
100
AcDbVertex
100
AcDb2dVertex
 10
94.24902592884037
 20
-142.3151769088656
 30
0.0
  0
VERTEX
  5
5F
330
5D
100
AcDbEntity
  8
_U+30EC_U+30A4_U+30E4_U+30FC 1
 62
   179
420
  2234388
370
    25
100
AcDbVertex
100
AcDb2dVertex
 10
94.24902592884037
 20
-156.3153394053654
 30
0.0
  0
SEQEND
  5
60
330
5D
100
AcDbEntity
  8
_U+30EC_U+30A4_U+30E4_U+30FC 1
 62
   179
420
  2234388
370
    25
  0
POLYLINE
  5
61
330
1F
100
AcDbEntity
  8
_U+30EC_U+30A4_U+30E4_U+30FC 1
 62
   179
420
  2234388
370
    25
100
AcDb2dPolyline
 66
     1
 10
0.0
 20
0.0
 30
0.0
  0
VERTEX
  5
62
330
61
100
AcDbEntity
  8
_U+30EC_U+30A4_U+30E4_U+30FC 1
 62
   179
420
  2234388
370
    25
100
AcDbVertex
100
AcDb2dVertex
 10
95.24946840331695
 20
-142.3151769088656
 30
0.0
  0
VERTEX
  5
63
330
61
100
AcDbEntity
  8
_U+30EC_U+30A4_U+30E4_U+30FC 1
 62
   179
420
  2234388
370
    25
100
AcDbVertex
100
AcDb2dVertex
 10
95.24946840331695
 20
-156.3153394053654
 30
0.0
  0
SEQEND
  5
64
330
61
100
AcDbEntity
  8
_U+30EC_U+30A4_U+30E4_U+30FC 1
 62
   179
420
  2234388
370
    25
  0
POLYLINE
  5
65
330
1F
100
AcDbEntity
  8
_U+30EC_U+30A4_U+30E4_U+30FC 1
 62
   179
420
  2234388
370
    25
100
AcDb2dPolyline
 66
     1
 10
0.0
 20
0.0
 30
0.0
  0
VERTEX
  5
66
330
65
100
AcDbEntity
  8
_U+30EC_U+30A4_U+30E4_U+30FC 1
 62
   179
420
  2234388
370
    25
100
AcDbVertex
100
AcDb2dVertex
 10
96.24924060003286
 20
-143.3149491308381
 30
0.0
  0
VERTEX
  5
67
330
65
100
AcDbEntity
  8
_U+30EC_U+30A4_U+30E4_U+30FC 1
 62
   179
420
  2234388
370
    25
100
AcDbVertex
100
AcDb2dVertex
 10
96.24924060003286
 20
-156.3153394053654
 30
0.0
  0
SEQEND
  5
68
330
65
100
AcDbEntity
  8
_U+30EC_U+30A4_U+30E4_U+30FC 1
 62
   179
420
  2234388
370
    25
  0
POLYLINE
  5
69
330
1F
100
AcDbEntity
  8
_U+30EC_U+30A4_U+30E4_U+30FC 1
 62
   179
420
  2234388
370
    25
100
AcDb2dPolyline
 66
     1
 10
0.0
 20
0.0
 30
0.0
  0
VERTEX
  5
6A
330
69
100
AcDbEntity
  8
_U+30EC_U+30A4_U+30E4_U+30FC 1
 62
   179
420
  2234388
370
    25
100
AcDbVertex
100
AcDb2dVertex
 10
94.24902592884037
 20
-156.3153394053654
 30
0.0
  0
VERTEX
  5
6B
330
69
100
AcDbEntity
  8
_U+30EC_U+30A4_U+30E4_U+30FC 1
 62
   179
420
  2234388
370
    25
100
AcDbVertex
100
AcDb2dVertex
 10
95.24946840331695
 20
-156.3153394053654
 30
0.0
  0
SEQEND
  5
6C
330
69
100
AcDbEntity
  8
_U+30EC_U+30A4_U+30E4_U+30FC 1
 62
   179
420
  2234388
370
    25
  0
POLYLINE
  5
6D
330
1F
100
AcDbEntity
  8
_U+30EC_U+30A4_U+30E4_U+30FC 1
 62
   179
420
  2234388
370
    25
100
AcDb2dPolyline
 66
     1
 10
0.0
 20
0.0
 30
0.0
  0
VERTEX
  5
6E
330
6D
100
AcDbEntity
  8
_U+30EC_U+30A4_U+30E4_U+30FC 1
 62
   179
420
  2234388
370
    25
100
AcDbVertex
100
AcDb2dVertex
 10
87.24927999630765
 20
-142.3151769088656
 30
0.0
  0
VERTEX
  5
6F
330
6D
100
AcDbEntity
  8
_U+30EC_U+30A4_U+30E4_U+30FC 1
 62
   179
420
  2234388
370
    25
100
AcDbVertex
100
AcDb2dVertex
 10
87.24927999630765
 20
-143.3149491308381
 30
0.0
  0
SEQEND
  5
70
330
6D
100
AcDbEntity
  8
_U+30EC_U+30A4_U+30E4_U+30FC 1
 62
   179
420
  2234388
370
    25
  0
POLYLINE
  5
71
330
1F
100
AcDbEntity
  8
_U+30EC_U+30A4_U+30E4_U+30FC 1
 62
   179
420
  2234388
370
    25
100
AcDb2dPolyline
 66
     1
 10
0.0
 20
0.0
 30
0.0
  0
VERTEX
  5
72
330
71
100
AcDbEntity
  8
_U+30EC_U+30A4_U+30E4_U+30FC 1
 62
   179
420
  2234388
370
    25
100
AcDbVertex
100
AcDb2dVertex
 10
87.24927999630765
 20
-143.3149491308381
 30
0.0
  0
VERTEX
  5
73
330
71
100
AcDbEntity
  8
_U+30EC_U+30A4_U+30E4_U+30FC 1
 62
   179
420
  2234388
370
    25
100
AcDbVertex
100
AcDb2dVertex
 10
93.24925373212446
 20
-143.3149491308381
 30
0.0
  0
SEQEND
  5
74
330
71
100
AcDbEntity
  8
_U+30EC_U+30A4_U+30E4_U+30FC 1
 62
   179
420
  2234388
370
    25
  0
POLYLINE
  5
75
330
1F
100
AcDbEntity
  8
_U+30EC_U+30A4_U+30E4_U+30FC 1
 62
   179
420
  2234388
370
    25
100
AcDb2dPolyline
 66
     1
 10
0.0
 20
0.0
 30
0.0
  0
VERTEX
  5
76
330
75
100
AcDbEntity
  8
_U+30EC_U+30A4_U+30E4_U+30FC 1
 62
   179
420
  2234388
370
    25
100
AcDbVertex
100
AcDb2dVertex
 10
93.24925373212446
 20
-157.3151116273379
 30
0.0
  0
VERTEX
  5
77
330
75
100
AcDbEntity
  8
_U+30EC_U+30A4_U+30E4_U+30FC 1
 62
   179
420
  2234388
370
    25
100
AcDbVertex
100
AcDb2dVertex
 10
103.2493393103343
 20
-156.8148727385742
 30
0.0
  0
SEQEND
  5
78
330
75
100
AcDbEntity
  8
_U+30EC_U+30A4_U+30E4_U+30FC 1
 62
   179
420
  2234388
370
    25
  0
SPLINE
  5
79
330
1F
100
AcDbEntity
  8
_U+30EC_U+30A4_U+30E4_U+30FC 1
 62
   179
420
  2234388
370
     9
100
AcDbSpline
210
0.0
220
0.0
230
1.0
 70
    11
 71
     3
 72
    17
 73
    13
 74
     0
 42
0.0000000001
 43
0.0000000001
 12
1.0
 22
0.0
 32
0.0
 13
1.0
 23
0.0
 33
0.0
 40
0.0
 40
0.0
 40
0.0
 40
0.0
 40
1.0
 40
1.0
 40
1.0
 40
2.0
 40
2.0
 40
2.0
 40
3.0
 40
3.0
 40
3.0
 40
4.0
 40
4.0
 40
4.0
 40
4.0
 10
118.3493567028786
 20
-138.315417743199
 30
0.0
 10
118.3493567028786
 20
-138.2596082987686
 30
0.0
 10
118.3045892040207
 20
-138.2148055210018
 30
0.0
 10
118.2494500387608
 20
-138.2148055210018
 30
0.0
 10
118.1943461512777
 20
-138.2148055210018
 30
0.0
 10
118.1495433746429
 20
-138.2596082987686
 30
0.0
 10
118.1495433746429
 20
-138.315417743199
 30
0.0
 10
118.1495433746429
 20
-138.3705216320739
 30
0.0
 10
118.1943461512777
 20
-138.4153244098407
 30
0.0
 10
118.2494500387608
 20
-138.4153244098407
 30
0.0
 10
118.3045892040207
 20
-138.4153244098407
 30
0.0
 10
118.3493567028786
 20
-138.3705216320739
 30
0.0
 10
118.3493567028786
 20
-138.315417743199
 30
0.0
  0
SPLINE
  5
7A
330
1F
100
AcDbEntity
  8
_U+30EC_U+30A4_U+30E4_U+30FC 1
 62
   179
420
  2234388
370
     9
100
AcDbSpline
210
0.0
220
0.0
230
1.0
 70
    11
 71
     3
 72
    17
 73
    13
 74
     0
 42
0.0000000001
 43
0.0000000001
 12
1.0
 22
0.0
 32
0.0
 13
1.0
 23
0.0
 33
0.0
 40
0.0
 40
0.0
 40
0.0
 40
0.0
 40
1.0
 40
1.0
 40
1.0
 40
2.0
 40
2.0
 40
2.0
 40
3.0
 40
3.0
 40
3.0
 40
4.0
 40
4.0
 40
4.0
 40
4.0
 10
122.3491157675029
 20
-142.3151769088656
 30
0.0
 10
122.3491157675029
 20
-142.2600377422128
 30
0.0
 10
122.304348268645
 20
-142.2152702422239
 30
0.0
 10
122.2492091033851
 20
-142.2152702422239
 30
0.0
 10
122.194108302785
 20
-142.2152702422239
 30
0.0
 10
122.1493055250182
 20
-142.2600377422128
 30
0.0
 10
122.1493055250182
 20
-142.3151769088656
 30
0.0
 10
122.1493055250182
 20
-142.3702807977408
 30
0.0
 10
122.194108302785
 20
-142.4150835755072
 30
0.0
 10
122.2492091033851
 20
-142.4150835755072
 30
0.0
 10
122.304348268645
 20
-142.4150835755072
 30
0.0
 10
122.3491157675029
 20
-142.3702807977408
 30
0.0
 10
122.3491157675029
 20
-142.3151769088656
 30
0.0
  0
SPLINE
  5
7B
330
1F
100
AcDbEntity
  8
_U+30EC_U+30A4_U+30E4_U+30FC 1
 62
   179
420
  2234388
370
     9
100
AcDbSpline
210
0.0
220
0.0
230
1.0
 70
    11
 71
     3
 72
    17
 73
    13
 74
     0
 42
0.0000000001
 43
0.0000000001
 12
1.0
 22
0.0
 32
0.0
 13
1.0
 23
0.0
 33
0.0
 40
0.0
 40
0.0
 40
0.0
 40
0.0
 40
1.0
 40
1.0
 40
1.0
 40
2.0
 40
2.0
 40
2.0
 40
3.0
 40
3.0
 40
3.0
 40
4.0
 40
4.0
 40
4.0
 40
4.0
 10
122.3491157675029
 20
-143.3149491308381
 30
0.0
 10
122.3491157675029
 20
-143.259809964185
 30
0.0
 10
122.304348268645
 20
-143.2150424641962
 30
0.0
 10
122.2492091033851
 20
-143.2150424641962
 30
0.0
 10
122.194108302785
 20
-143.2150424641962
 30
0.0
 10
122.1493055250182
 20
-143.259809964185
 30
0.0
 10
122.1493055250182
 20
-143.3149491308381
 30
0.0
 10
122.1493055250182
 20
-143.370053019713
 30
0.0
 10
122.194108302785
 20
-143.4148557974798
 30
0.0
 10
122.2492091033851
 20
-143.4148557974798
 30
0.0
 10
122.304348268645
 20
-143.4148557974798
 30
0.0
 10
122.3491157675029
 20
-143.370053019713
 30
0.0
 10
122.3491157675029
 20
-143.3149491308381
 30
0.0
  0
SPLINE
  5
7C
330
1F
100
AcDbEntity
  8
_U+30EC_U+30A4_U+30E4_U+30FC 1
 62
   179
420
  2234388
370
     9
100
AcDbSpline
210
0.0
220
0.0
230
1.0
 70
    11
 71
     3
 72
    17
 73
    13
 74
     0
 42
0.0000000001
 43
0.0000000001
 12
1.0
 22
0.0
 32
0.0
 13
1.0
 23
0.0
 33
0.0
 40
0.0
 40
0.0
 40
0.0
 40
0.0
 40
1.0
 40
1.0
 40
1.0
 40
2.0
 40
2.0
 40
2.0
 40
3.0
 40
3.0
 40
3.0
 40
4.0
 40
4.0
 40
4.0
 40
4.0
 10
103.3492459744522
 20
-161.3148707930048
 30
0.0
 10
103.3492459744522
 20
-161.2597669041293
 30
0.0
 10
103.3044431978174
 20
-161.2149641263632
 30
0.0
 10
103.2493393103343
 20
-161.2149641263632
 30
0.0
 10
103.1942027519793
 20
-161.2149641263632
 30
0.0
 10
103.1494326462165
 20
-161.2597669041293
 30
0.0
 10
103.1494326462165
 20
-161.3148707930048
 30
0.0
 10
103.1494326462165
 20
-161.3700099596572
 30
0.0
 10
103.1942027519793
 20
-161.4147774596464
 30
0.0
 10
103.2493393103343
 20
-161.4147774596464
 30
0.0
 10
103.3044431978174
 20
-161.4147774596464
 30
0.0
 10
103.3492459744522
 20
-161.3700099596572
 30
0.0
 10
103.3492459744522
 20
-161.3148707930048
 30
0.0
  0
SPLINE
  5
7D
330
1F
100
AcDbEntity
  8
_U+30EC_U+30A4_U+30E4_U+30FC 1
 62
   179
420
  2234388
370
     9
100
AcDbSpline
210
0.0
220
0.0
230
1.0
 70
    11
 71
     3
 72
    17
 73
    13
 74
     0
 42
0.0000000001
 43
0.0000000001
 12
1.0
 22
0.0
 32
0.0
 13
1.0
 23
0.0
 33
0.0
 40
0.0
 40
0.0
 40
0.0
 40
0.0
 40
1.0
 40
1.0
 40
1.0
 40
2.0
 40
2.0
 40
2.0
 40
3.0
 40
3.0
 40
3.0
 40
4.0
 40
4.0
 40
4.0
 40
4.0
 10
93.34916039624228
 20
-161.3148707930048
 30
0.0
 10
93.34916039624228
 20
-161.2597669041293
 30
0.0
 10
93.3043928973844
 20
-161.2149641263632
 30
0.0
 10
93.24925373212446
 20
-161.2149641263632
 30
0.0
 10
93.19414984464139
 20
-161.2149641263632
 30
0.0
 10
93.14934706800662
 20
-161.2597669041293
 30
0.0
 10
93.14934706800662
 20
-161.3148707930048
 30
0.0
 10
93.14934706800662
 20
-161.3700099596572
 30
0.0
 10
93.19414984464139
 20
-161.4147774596464
 30
0.0
 10
93.24925373212446
 20
-161.4147774596464
 30
0.0
 10
93.3043928973844
 20
-161.4147774596464
 30
0.0
 10
93.34916039624228
 20
-161.3700099596572
 30
0.0
 10
93.34916039624228
 20
-161.3148707930048
 30
0.0
  0
SPLINE
  5
7E
330
1F
100
AcDbEntity
  8
_U+30EC_U+30A4_U+30E4_U+30FC 1
 62
   179
420
  2234388
370
     9
100
AcDbSpline
210
0.0
220
0.0
230
1.0
 70
    11
 71
     3
 72
    17
 73
    13
 74
     0
 42
0.0000000001
 43
0.0000000001
 12
1.0
 22
0.0
 32
0.0
 13
1.0
 23
0.0
 33
0.0
 40
0.0
 40
0.0
 40
0.0
 40
0.0
 40
1.0
 40
1.0
 40
1.0
 40
2.0
 40
2.0
 40
2.0
 40
3.0
 40
3.0
 40
3.0
 40
4.0
 40
4.0
 40
4.0
 40
4.0
 10
107.3491814279609
 20
-156.3153394053654
 30
0.0
 10
107.3491814279609
 20
-156.2595299609349
 30
0.0
 10
107.3043786513261
 20
-156.2147624609464
 30
0.0
 10
107.249274763843
 20
-156.2147624609464
 30
0.0
 10
107.1941355985831
 20
-156.2147624609464
 30
0.0
 10
107.1493680997252
 20
-156.2595299609349
 30
0.0
 10
107.1493680997252
 20
-156.3153394053654
 30
0.0
 10
107.1493680997252
 20
-156.3704785720185
 30
0.0
 10
107.1941355985831
 20
-156.415246072007
 30
0.0
 10
107.249274763843
 20
-156.415246072007
 30
0.0
 10
107.3043786513261
 20
-156.415246072007
 30
0.0
 10
107.3491814279609
 20
-156.3704785720185
 30
0.0
 10
107.3491814279609
 20
-156.3153394053654
 30
0.0
  0
SPLINE
  5
7F
330
1F
100
AcDbEntity
  8
_U+30EC_U+30A4_U+30E4_U+30FC 1
 62
   179
420
  2234388
370
     9
100
AcDbSpline
210
0.0
220
0.0
230
1.0
 70
    11
 71
     3
 72
    17
 73
    13
 74
     0
 42
0.0000000001
 43
0.0000000001
 12
1.0
 22
0.0
 32
0.0
 13
1.0
 23
0.0
 33
0.0
 40
0.0
 40
0.0
 40
0.0
 40
0.0
 40
1.0
 40
1.0
 40
1.0
 40
2.0
 40
2.0
 40
2.0
 40
3.0
 40
3.0
 40
3.0
 40
4.0
 40
4.0
 40
4.0
 40
4.0
 10
122.3491157675029
 20
-156.3153394053654
 30
0.0
 10
122.3491157675029
 20
-156.2595299609349
 30
0.0
 10
122.304348268645
 20
-156.2147624609464
 30
0.0
 10
122.2492091033851
 20
-156.2147624609464
 30
0.0
 10
122.194108302785
 20
-156.2147624609464
 30
0.0
 10
122.1493055250182
 20
-156.2595299609349
 30
0.0
 10
122.1493055250182
 20
-156.3153394053654
 30
0.0
 10
122.1493055250182
 20
-156.3704785720185
 30
0.0
 10
122.194108302785
 20
-156.415246072007
 30
0.0
 10
122.2492091033851
 20
-156.415246072007
 30
0.0
 10
122.304348268645
 20
-156.415246072007
 30
0.0
 10
122.3491157675029
 20
-156.3704785720185
 30
0.0
 10
122.3491157675029
 20
-156.3153394053654
 30
0.0
  0
SPLINE
  5
80
330
1F
100
AcDbEntity
  8
_U+30EC_U+30A4_U+30E4_U+30FC 1
 62
   179
420
  2234388
370
     9
100
AcDbSpline
210
0.0
220
0.0
230
1.0
 70
    11
 71
     3
 72
    17
 73
    13
 74
     0
 42
0.0000000001
 43
0.0000000001
 12
1.0
 22
0.0
 32
0.0
 13
1.0
 23
0.0
 33
0.0
 40
0.0
 40
0.0
 40
0.0
 40
0.0
 40
1.0
 40
1.0
 40
1.0
 40
2.0
 40
2.0
 40
2.0
 40
3.0
 40
3.0
 40
3.0
 40
4.0
 40
4.0
 40
4.0
 40
4.0
 10
107.3491814279609
 20
-156.8148727385742
 30
0.0
 10
107.3491814279609
 20
-156.7597688496986
 30
0.0
 10
107.3043786513261
 20
-156.7149660719326
 30
0.0
 10
107.249274763843
 20
-156.7149660719326
 30
0.0
 10
107.1941355985831
 20
-156.7149660719326
 30
0.0
 10
107.1493680997252
 20
-156.7597688496986
 30
0.0
 10
107.1493680997252
 20
-156.8148727385742
 30
0.0
 10
107.1493680997252
 20
-156.8700119052266
 30
0.0
 10
107.1941355985831
 20
-156.9148146829934
 30
0.0
 10
107.249274763843
 20
-156.9148146829934
 30
0.0
 10
107.3043786513261
 20
-156.9148146829934
 30
0.0
 10
107.3491814279609
 20
-156.8700119052266
 30
0.0
 10
107.3491814279609
 20
-156.8148727385742
 30
0.0
  0
SPLINE
  5
81
330
1F
100
AcDbEntity
  8
_U+30EC_U+30A4_U+30E4_U+30FC 1
 62
   179
420
  2234388
370
     9
100
AcDbSpline
210
0.0
220
0.0
230
1.0
 70
    11
 71
     3
 72
    17
 73
    13
 74
     0
 42
0.0000000001
 43
0.0000000001
 12
1.0
 22
0.0
 32
0.0
 13
1.0
 23
0.0
 33
0.0
 40
0.0
 40
0.0
 40
0.0
 40
0.0
 40
1.0
 40
1.0
 40
1.0
 40
2.0
 40
2.0
 40
2.0
 40
3.0
 40
3.0
 40
3.0
 40
4.0
 40
4.0
 40
4.0
 40
4.0
 10
87.3491888670517
 20
-138.315417743199
 30
0.0
 10
87.3491888670517
 20
-138.2596082987686
 30
0.0
 10
87.3044191615676
 20
-138.2148055210018
 30
0.0
 10
87.24927999630765
 20
-138.2148055210018
 30
0.0
 10
87.19417610882458
 20
-138.2148055210018
 30
0.0
 10
87.14937333218981
 20
-138.2596082987686
 30
0.0
 10
87.14937333218981
 20
-138.315417743199
 30
0.0
 10
87.14937333218981
 20
-138.3705216320739
 30
0.0
 10
87.19417610882458
 20
-138.4153244098407
 30
0.0
 10
87.24927999630765
 20
-138.4153244098407
 30
0.0
 10
87.3044191615676
 20
-138.4153244098407
 30
0.0
 10
87.3491888670517
 20
-138.3705216320739
 30
0.0
 10
87.3491888670517
 20
-138.315417743199
 30
0.0
  0
SPLINE
  5
82
330
1F
100
AcDbEntity
  8
_U+30EC_U+30A4_U+30E4_U+30FC 1
 62
   179
420
  2234388
370
     9
100
AcDbSpline
210
0.0
220
0.0
230
1.0
 70
    11
 71
     3
 72
    17
 73
    13
 74
     0
 42
0.0000000001
 43
0.0000000001
 12
1.0
 22
0.0
 32
0.0
 13
1.0
 23
0.0
 33
0.0
 40
0.0
 40
0.0
 40
0.0
 40
0.0
 40
1.0
 40
1.0
 40
1.0
 40
2.0
 40
2.0
 40
2.0
 40
3.0
 40
3.0
 40
3.0
 40
4.0
 40
4.0
 40
4.0
 40
4.0
 10
87.3491888670517
 20
-161.3148707930048
 30
0.0
 10
87.3491888670517
 20
-161.2597669041293
 30
0.0
 10
87.3044191615676
 20
-161.2149641263632
 30
0.0
 10
87.24927999630765
 20
-161.2149641263632
 30
0.0
 10
87.19417610882458
 20
-161.2149641263632
 30
0.0
 10
87.14937333218981
 20
-161.2597669041293
 30
0.0
 10
87.14937333218981
 20
-161.3148707930048
 30
0.0
 10
87.14937333218981
 20
-161.3700099596572
 30
0.0
 10
87.19417610882458
 20
-161.4147774596464
 30
0.0
 10
87.24927999630765
 20
-161.4147774596464
 30
0.0
 10
87.3044191615676
 20
-161.4147774596464
 30
0.0
 10
87.3491888670517
 20
-161.3700099596572
 30
0.0
 10
87.3491888670517
 20
-161.3148707930048
 30
0.0
  0
POLYLINE
  5
83
330
1F
100
AcDbEntity
  8
_U+30EC_U+30A4_U+30E4_U+30FC 1
 62
   179
420
  2234388
370
     9
100
AcDb2dPolyline
 66
     1
 10
0.0
 20
0.0
 30
0.0
  0
VERTEX
  5
84
330
83
100
AcDbEntity
  8
_U+30EC_U+30A4_U+30E4_U+30FC 1
 62
   179
420
  2234388
370
     9
100
AcDbVertex
100
AcDb2dVertex
 10
122.2492091033851
 20
-142.3151769088656
 30
0.0
  0
VERTEX
  5
85
330
83
100
AcDbEntity
  8
_U+30EC_U+30A4_U+30E4_U+30FC 1
 62
   179
420
  2234388
370
     9
100
AcDbVertex
100
AcDb2dVertex
 10
122.2492091033851
 20
-138.5448644098082
 30
0.0
  0
SEQEND
  5
86
330
83
100
AcDbEntity
  8
_U+30EC_U+30A4_U+30E4_U+30FC 1
 62
   179
420
  2234388
370
     9
  0
POLYLINE
  5
87
330
1F
100
AcDbEntity
  8
_U+30EC_U+30A4_U+30E4_U+30FC 1
 62
   179
420
  2234388
370
     9
100
AcDb2dPolyline
 66
     1
 10
0.0
 20
0.0
 30
0.0
  0
VERTEX
  5
88
330
87
100
AcDbEntity
  8
_U+30EC_U+30A4_U+30E4_U+30FC 1
 62
   179
420
  2234388
370
     9
100
AcDbVertex
100
AcDb2dVertex
 10
122.2492091033851
 20
-142.3151769088656
 30
0.0
  0
VERTEX
  5
89
330
87
100
AcDbEntity
  8
_U+30EC_U+30A4_U+30E4_U+30FC 1
 62
   179
420
  2234388
370
     9
100
AcDbVertex
100
AcDb2dVertex
 10
122.2492091033851
 20
-143.3149491308381
 30
0.0
  0
SEQEND
  5
8A
330
87
100
AcDbEntity
  8
_U+30EC_U+30A4_U+30E4_U+30FC 1
 62
   179
420
  2234388
370
     9
  0
POLYLINE
  5
8B
330
1F
100
AcDbEntity
  8
_U+30EC_U+30A4_U+30E4_U+30FC 1
 62
   179
420
  2234388
370
     9
100
AcDb2dPolyline
 66
     1
 10
0.0
 20
0.0
 30
0.0
  0
VERTEX
  5
8C
330
8B
100
AcDbEntity
  8
_U+30EC_U+30A4_U+30E4_U+30FC 1
 62
   179
420
  2234388
370
     9
100
AcDbVertex
100
AcDb2dVertex
 10
120.7891677517449
 20
-142.3151769088656
 30
0.0
  0
VERTEX
  5
8D
330
8B
100
AcDbEntity
  8
_U+30EC_U+30A4_U+30E4_U+30FC 1
 62
   179
420
  2234388
370
     9
100
AcDbVertex
100
AcDb2dVertex
 10
123.248981300101
 20
-142.3151769088656
 30
0.0
  0
SEQEND
  5
8E
330
8B
100
AcDbEntity
  8
_U+30EC_U+30A4_U+30E4_U+30FC 1
 62
   179
420
  2234388
370
     9
  0
POLYLINE
  5
8F
330
1F
100
AcDbEntity
  8
_U+30EC_U+30A4_U+30E4_U+30FC 1
 62
   179
420
  2234388
370
     9
100
AcDb2dPolyline
 66
     1
 10
0.0
 20
0.0
 30
0.0
  0
VERTEX
  5
90
330
8F
100
AcDbEntity
  8
_U+30EC_U+30A4_U+30E4_U+30FC 1
 62
   179
420
  2234388
370
     9
100
AcDbVertex
100
AcDb2dVertex
 10
120.7891677517449
 20
-143.3149491308381
 30
0.0
  0
VERTEX
  5
91
330
8F
100
AcDbEntity
  8
_U+30EC_U+30A4_U+30E4_U+30FC 1
 62
   179
420
  2234388
370
     9
100
AcDbVertex
100
AcDb2dVertex
 10
123.248981300101
 20
-143.3149491308381
 30
0.0
  0
SEQEND
  5
92
330
8F
100
AcDbEntity
  8
_U+30EC_U+30A4_U+30E4_U+30FC 1
 62
   179
420
  2234388
370
     9
  0
INSERT
  5
94
330
1F
100
AcDbEntity
  8
_U+30EC_U+30A4_U+30E4_U+30FC 1
100
AcDbBlockReference
  2
block 2
 10
0.0
 20
0.0
 30
0.0
  0
POLYLINE
  5
99
330
1F
100
AcDbEntity
  8
_U+30EC_U+30A4_U+30E4_U+30FC 1
 62
   179
420
  2234388
370
     9
100
AcDb2dPolyline
 66
     1
 10
0.0
 20
0.0
 30
0.0
  0
VERTEX
  5
9A
330
99
100
AcDbEntity
  8
_U+30EC_U+30A4_U+30E4_U+30FC 1
 62
   179
420
  2234388
370
     9
100
AcDbVertex
100
AcDb2dVertex
 10
93.24925373212446
 20
-161.3148707930048
 30
0.0
  0
VERTEX
  5
9B
330
99
100
AcDbEntity
  8
_U+30EC_U+30A4_U+30E4_U+30FC 1
 62
   179
420
  2234388
370
     9
100
AcDbVertex
100
AcDb2dVertex
 10
103.2493393103343
 20
-161.3148707930048
 30
0.0
  0
SEQEND
  5
9C
330
99
100
AcDbEntity
  8
_U+30EC_U+30A4_U+30E4_U+30FC 1
 62
   179
420
  2234388
370
     9
  0
POLYLINE
  5
9D
330
1F
100
AcDbEntity
  8
_U+30EC_U+30A4_U+30E4_U+30FC 1
 62
   179
420
  2234388
370
     9
100
AcDb2dPolyline
 66
     1
 10
0.0
 20
0.0
 30
0.0
  0
VERTEX
  5
9E
330
9D
100
AcDbEntity
  8
_U+30EC_U+30A4_U+30E4_U+30FC 1
 62
   179
420
  2234388
370
     9
100
AcDbVertex
100
AcDb2dVertex
 10
93.24925373212446
 20
-159.8548294044805
 30
0.0
  0
VERTEX
  5
9F
330
9D
100
AcDbEntity
  8
_U+30EC_U+30A4_U+30E4_U+30FC 1
 62
   179
420
  2234388
370
     9
100
AcDbVertex
100
AcDb2dVertex
 10
93.24925373212446
 20
-162.3153132927547
 30
0.0
  0
SEQEND
  5
A0
330
9D
100
AcDbEntity
  8
_U+30EC_U+30A4_U+30E4_U+30FC 1
 62
   179
420
  2234388
370
     9
  0
POLYLINE
  5
A1
330
1F
100
AcDbEntity
  8
_U+30EC_U+30A4_U+30E4_U+30FC 1
 62
   179
420
  2234388
370
     9
100
AcDb2dPolyline
 66
     1
 10
0.0
 20
0.0
 30
0.0
  0
VERTEX
  5
A2
330
A1
100
AcDbEntity
  8
_U+30EC_U+30A4_U+30E4_U+30FC 1
 62
   179
420
  2234388
370
     9
100
AcDbVertex
100
AcDb2dVertex
 10
103.2493393103343
 20
-159.154812460211
 30
0.0
  0
VERTEX
  5
A3
330
A1
100
AcDbEntity
  8
_U+30EC_U+30A4_U+30E4_U+30FC 1
 62
   179
420
  2234388
370
     9
100
AcDbVertex
100
AcDb2dVertex
 10
103.2493393103343
 20
-162.3153132927547
 30
0.0
  0
SEQEND
  5
A4
330
A1
100
AcDbEntity
  8
_U+30EC_U+30A4_U+30E4_U+30FC 1
 62
   179
420
  2234388
370
     9
  0
INSERT
  5
A6
330
1F
100
AcDbEntity
  8
_U+30EC_U+30A4_U+30E4_U+30FC 1
100
AcDbBlockReference
  2
block 3
 10
0.0
 20
0.0
 30
0.0
  0
POLYLINE
  5
AE
330
1F
100
AcDbEntity
  8
_U+30EC_U+30A4_U+30E4_U+30FC 1
 62
   179
420
  2234388
370
     9
100
AcDb2dPolyline
 66
     1
 10
0.0
 20
0.0
 30
0.0
  0
VERTEX
  5
AF
330
AE
100
AcDbEntity
  8
_U+30EC_U+30A4_U+30E4_U+30FC 1
 62
   179
420
  2234388
370
     9
100
AcDbVertex
100
AcDb2dVertex
 10
87.24927999630765
 20
-161.3148707930048
 30
0.0
  0
VERTEX
  5
B0
330
AE
100
AcDbEntity
  8
_U+30EC_U+30A4_U+30E4_U+30FC 1
 62
   179
420
  2234388
370
     9
100
AcDbVertex
100
AcDb2dVertex
 10
93.24925373212446
 20
-161.3148707930048
 30
0.0
  0
SEQEND
  5
B1
330
AE
100
AcDbEntity
  8
_U+30EC_U+30A4_U+30E4_U+30FC 1
 62
   179
420
  2234388
370
     9
  0
POLYLINE
  5
B2
330
1F
100
AcDbEntity
  8
_U+30EC_U+30A4_U+30E4_U+30FC 1
 62
   179
420
  2234388
370
     9
100
AcDb2dPolyline
 66
     1
 10
0.0
 20
0.0
 30
0.0
  0
VERTEX
  5
B3
330
B2
100
AcDbEntity
  8
_U+30EC_U+30A4_U+30E4_U+30FC 1
 62
   179
420
  2234388
370
     9
100
AcDbVertex
100
AcDb2dVertex
 10
87.24927999630765
 20
-145.8553371857583
 30
0.0
  0
VERTEX
  5
B4
330
B2
100
AcDbEntity
  8
_U+30EC_U+30A4_U+30E4_U+30FC 1
 62
   179
420
  2234388
370
     9
100
AcDbVertex
100
AcDb2dVertex
 10
87.24927999630765
 20
-162.3153132927547
 30
0.0
  0
SEQEND
  5
B5
330
B2
100
AcDbEntity
  8
_U+30EC_U+30A4_U+30E4_U+30FC 1
 62
   179
420
  2234388
370
     9
  0
INSERT
  5
B7
330
1F
100
AcDbEntity
  8
_U+30EC_U+30A4_U+30E4_U+30FC 1
100
AcDbBlockReference
  2
block 4
 10
0.0
 20
0.0
 30
0.0
  0
POLYLINE
  5
BD
330
1F
100
AcDbEntity
  8
_U+30EC_U+30A4_U+30E4_U+30FC 1
 62
   179
420
  2234388
370
     9
100
AcDb2dPolyline
 66
     1
 10
0.0
 20
0.0
 30
0.0
  0
VERTEX
  5
BE
330
BD
100
AcDbEntity
  8
_U+30EC_U+30A4_U+30E4_U+30FC 1
 62
   179
420
  2234388
370
     9
100
AcDbVertex
100
AcDb2dVertex
 10
118.2494500387608
 20
-138.315417743199
 30
0.0
  0
VERTEX
  5
BF
330
BD
100
AcDbEntity
  8
_U+30EC_U+30A4_U+30E4_U+30FC 1
 62
   179
420
  2234388
370
     9
100
AcDbVertex
100
AcDb2dVertex
 10
87.24927999630765
 20
-138.315417743199
 30
0.0
  0
SEQEND
  5
C0
330
BD
100
AcDbEntity
  8
_U+30EC_U+30A4_U+30E4_U+30FC 1
 62
   179
420
  2234388
370
     9
  0
POLYLINE
  5
C1
330
1F
100
AcDbEntity
  8
_U+30EC_U+30A4_U+30E4_U+30FC 1
 62
   179
420
  2234388
370
     9
100
AcDb2dPolyline
 66
     1
 10
0.0
 20
0.0
 30
0.0
  0
VERTEX
  5
C2
330
C1
100
AcDbEntity
  8
_U+30EC_U+30A4_U+30E4_U+30FC 1
 62
   179
420
  2234388
370
     9
100
AcDbVertex
100
AcDb2dVertex
 10
118.2494500387608
 20
-139.7747535761675
 30
0.0
  0
VERTEX
  5
C3
330
C1
100
AcDbEntity
  8
_U+30EC_U+30A4_U+30E4_U+30FC 1
 62
   179
420
  2234388
370
     9
100
AcDbVertex
100
AcDb2dVertex
 10
118.2494500387608
 20
-137.3149752434491
 30
0.0
  0
SEQEND
  5
C4
330
C1
100
AcDbEntity
  8
_U+30EC_U+30A4_U+30E4_U+30FC 1
 62
   179
420
  2234388
370
     9
  0
POLYLINE
  5
C5
330
1F
100
AcDbEntity
  8
_U+30EC_U+30A4_U+30E4_U+30FC 1
 62
   179
420
  2234388
370
     9
100
AcDb2dPolyline
 66
     1
 10
0.0
 20
0.0
 30
0.0
  0
VERTEX
  5
C6
330
C5
100
AcDbEntity
  8
_U+30EC_U+30A4_U+30E4_U+30FC 1
 62
   179
420
  2234388
370
     9
100
AcDbVertex
100
AcDb2dVertex
 10
87.24927999630765
 20
-139.7747535761675
 30
0.0
  0
VERTEX
  5
C7
330
C5
100
AcDbEntity
  8
_U+30EC_U+30A4_U+30E4_U+30FC 1
 62
   179
420
  2234388
370
     9
100
AcDbVertex
100
AcDb2dVertex
 10
87.24927999630765
 20
-137.3149752434491
 30
0.0
  0
SEQEND
  5
C8
330
C5
100
AcDbEntity
  8
_U+30EC_U+30A4_U+30E4_U+30FC 1
 62
   179
420
  2234388
370
     9
  0
INSERT
  5
CA
330
1F
100
AcDbEntity
  8
_U+30EC_U+30A4_U+30E4_U+30FC 1
100
AcDbBlockReference
  2
block 5
 10
0.0
 20
0.0
 30
0.0
  0
POLYLINE
  5
D1
330
1F
100
AcDbEntity
  8
_U+30EC_U+30A4_U+30E4_U+30FC 1
 62
   179
420
  2234388
370
     9
100
AcDb2dPolyline
 66
     1
 10
0.0
 20
0.0
 30
0.0
  0
VERTEX
  5
D2
330
D1
100
AcDbEntity
  8
_U+30EC_U+30A4_U+30E4_U+30FC 1
 62
   179
420
  2234388
370
     9
100
AcDbVertex
100
AcDb2dVertex
 10
107.249274763843
 20
-156.3153394053654
 30
0.0
  0
VERTEX
  5
D3
330
D1
100
AcDbEntity
  8
_U+30EC_U+30A4_U+30E4_U+30FC 1
 62
   179
420
  2234388
370
     9
100
AcDbVertex
100
AcDb2dVertex
 10
107.249274763843
 20
-151.0574335733465
 30
0.0
  0
SEQEND
  5
D4
330
D1
100
AcDbEntity
  8
_U+30EC_U+30A4_U+30E4_U+30FC 1
 62
   179
420
  2234388
370
     9
  0
POLYLINE
  5
D5
330
1F
100
AcDbEntity
  8
_U+30EC_U+30A4_U+30E4_U+30FC 1
 62
   179
420
  2234388
370
     9
100
AcDb2dPolyline
 66
     1
 10
0.0
 20
0.0
 30
0.0
  0
VERTEX
  5
D6
330
D5
100
AcDbEntity
  8
_U+30EC_U+30A4_U+30E4_U+30FC 1
 62
   179
420
  2234388
370
     9
100
AcDbVertex
100
AcDb2dVertex
 10
107.249274763843
 20
-156.3153394053654
 30
0.0
  0
VERTEX
  5
D7
330
D5
100
AcDbEntity
  8
_U+30EC_U+30A4_U+30E4_U+30FC 1
 62
   179
420
  2234388
370
     9
100
AcDbVertex
100
AcDb2dVertex
 10
107.249274763843
 20
-157.8153505161016
 30
0.0
  0
SEQEND
  5
D8
330
D5
100
AcDbEntity
  8
_U+30EC_U+30A4_U+30E4_U+30FC 1
 62
   179
420
  2234388
370
     9
  0
POLYLINE
  5
D9
330
1F
100
AcDbEntity
  8
_U+30EC_U+30A4_U+30E4_U+30FC 1
 62
   179
420
  2234388
370
     9
100
AcDb2dPolyline
 66
     1
 10
0.0
 20
0.0
 30
0.0
  0
VERTEX
  5
DA
330
D9
100
AcDbEntity
  8
_U+30EC_U+30A4_U+30E4_U+30FC 1
 62
   179
420
  2234388
370
     9
100
AcDbVertex
100
AcDb2dVertex
 10
105.7892360846638
 20
-156.3153394053654
 30
0.0
  0
VERTEX
  5
DB
330
D9
100
AcDbEntity
  8
_U+30EC_U+30A4_U+30E4_U+30FC 1
 62
   179
420
  2234388
370
     9
100
AcDbVertex
100
AcDb2dVertex
 10
108.249046960559
 20
-156.3153394053654
 30
0.0
  0
SEQEND
  5
DC
330
D9
100
AcDbEntity
  8
_U+30EC_U+30A4_U+30E4_U+30FC 1
 62
   179
420
  2234388
370
     9
  0
POLYLINE
  5
DD
330
1F
100
AcDbEntity
  8
_U+30EC_U+30A4_U+30E4_U+30FC 1
 62
   179
420
  2234388
370
     9
100
AcDb2dPolyline
 66
     1
 10
0.0
 20
0.0
 30
0.0
  0
VERTEX
  5
DE
330
DD
100
AcDbEntity
  8
_U+30EC_U+30A4_U+30E4_U+30FC 1
 62
   179
420
  2234388
370
     9
100
AcDbVertex
100
AcDb2dVertex
 10
105.7892360846638
 20
-156.8148727385742
 30
0.0
  0
VERTEX
  5
DF
330
DD
100
AcDbEntity
  8
_U+30EC_U+30A4_U+30E4_U+30FC 1
 62
   179
420
  2234388
370
     9
100
AcDbVertex
100
AcDb2dVertex
 10
108.249046960559
 20
-156.8148727385742
 30
0.0
  0
SEQEND
  5
E0
330
DD
100
AcDbEntity
  8
_U+30EC_U+30A4_U+30E4_U+30FC 1
 62
   179
420
  2234388
370
     9
  0
INSERT
  5
E2
330
1F
100
AcDbEntity
  8
_U+30EC_U+30A4_U+30E4_U+30FC 1
100
AcDbBlockReference
  2
block 6
 10
0.0
 20
0.0
 30
0.0
  0
POLYLINE
  5
F2
330
1F
100
AcDbEntity
  8
_U+30EC_U+30A4_U+30E4_U+30FC 1
 62
   179
420
  2234388
370
     9
100
AcDb2dPolyline
 66
     1
 10
0.0
 20
0.0
 30
0.0
  0
VERTEX
  5
F3
330
F2
100
AcDbEntity
  8
_U+30EC_U+30A4_U+30E4_U+30FC 1
 62
   179
420
  2234388
370
     9
100
AcDbVertex
100
AcDb2dVertex
 10
122.2492091033851
 20
-143.3149491308381
 30
0.0
  0
VERTEX
  5
F4
330
F2
100
AcDbEntity
  8
_U+30EC_U+30A4_U+30E4_U+30FC 1
 62
   179
420
  2234388
370
     9
100
AcDbVertex
100
AcDb2dVertex
 10
122.2492091033851
 20
-156.3153394053654
 30
0.0
  0
SEQEND
  5
F5
330
F2
100
AcDbEntity
  8
_U+30EC_U+30A4_U+30E4_U+30FC 1
 62
   179
420
  2234388
370
     9
  0
POLYLINE
  5
F6
330
1F
100
AcDbEntity
  8
_U+30EC_U+30A4_U+30E4_U+30FC 1
 62
   179
420
  2234388
370
     9
100
AcDb2dPolyline
 66
     1
 10
0.0
 20
0.0
 30
0.0
  0
VERTEX
  5
F7
330
F6
100
AcDbEntity
  8
_U+30EC_U+30A4_U+30E4_U+30FC 1
 62
   179
420
  2234388
370
     9
100
AcDbVertex
100
AcDb2dVertex
 10
105.7892360846638
 20
-156.3153394053654
 30
0.0
  0
VERTEX
  5
F8
330
F6
100
AcDbEntity
  8
_U+30EC_U+30A4_U+30E4_U+30FC 1
 62
   179
420
  2234388
370
     9
100
AcDbVertex
100
AcDb2dVertex
 10
123.248981300101
 20
-156.3153394053654
 30
0.0
  0
SEQEND
  5
F9
330
F6
100
AcDbEntity
  8
_U+30EC_U+30A4_U+30E4_U+30FC 1
 62
   179
420
  2234388
370
     9
  0
INSERT
  5
FB
330
1F
100
AcDbEntity
  8
_U+30EC_U+30A4_U+30E4_U+30FC 1
100
AcDbBlockReference
  2
block 7
 10
0.0
 20
0.0
 30
0.0
  0
ENDSEC
  0
SECTION
  2
OBJECTS
  0
DICTIONARY
  5
C
330
0
100
AcDbDictionary
281
     1
  3
ACAD_GROUP
350
D
  3
ACAD_LAYOUT
350
1A
  3
ACAD_MATERIAL
350
3B
  3
ACAD_MLEADERSTYLE
350
103
  3
ACAD_MLINESTYLE
350
17
  3
ACAD_PLOTSETTINGS
350
19
  3
ACAD_PLOTSTYLENAME
350
E
  3
ACAD_TABLESTYLE
350
102
  3
ACAD_VISUALSTYLE
350
2A
  0
SUN
  5
3F
330
29
100
AcDbSun
 90
        1
290
     0
 63
     7
421
 16777215
 40
1.0
291
     1
 91
  2455826
 92
 54000000
292
     0
 70
     2
 71
   256
280
     1
  0
DICTIONARY
  5
D
102
{ACAD_REACTORS
330
C
102
}
330
C
100
AcDbDictionary
281
     1
  0
DICTIONARY
  5
1A
102
{ACAD_REACTORS
330
C
102
}
330
C
100
AcDbDictionary
281
     1
  3
Layout1
350
1E
  3
Layout2
350
26
  3
Model
350
22
  0
DICTIONARY
  5
3B
102
{ACAD_REACTORS
330
C
102
}
330
C
100
AcDbDictionary
281
     1
  3
ByBlock
350
3D
  3
ByLayer
350
3C
  3
Global
350
3E
  0
DICTIONARY
  5
103
102
{ACAD_REACTORS
330
C
102
}
330
C
100
AcDbDictionary
281
     1
  0
DICTIONARY
  5
17
102
{ACAD_REACTORS
330
C
102
}
330
C
100
AcDbDictionary
281
     1
  3
Standard
350
18
  0
DICTIONARY
  5
19
102
{ACAD_REACTORS
330
C
102
}
330
C
100
AcDbDictionary
281
     1
  0
ACDBDICTIONARYWDFLT
  5
E
102
{ACAD_REACTORS
330
C
102
}
330
C
100
AcDbDictionary
281
     1
  3
Normal
350
F
100
AcDbDictionaryWithDefault
340
F
  0
DICTIONARY
  5
102
102
{ACAD_REACTORS
330
C
102
}
330
C
100
AcDbDictionary
281
     1
  0
DICTIONARY
  5
2A
102
{ACAD_REACTORS
330
C
102
}
330
C
100
AcDbDictionary
281
     1
  3
2dWireframe
350
2F
  3
3D Hidden
350
31
  3
3dWireframe
350
30
  3
Basic
350
32
  3
Brighten
350
36
  3
ColorChange
350
3A
  3
Conceptual
350
34
  3
Dim
350
35
  3
Facepattern
350
39
  3
Flat
350
2B
  3
FlatWithEdges
350
2C
  3
Gouraud
350
2D
  3
GouraudWithEdges
350
2E
  3
Linepattern
350
38
  3
Realistic
350
33
  3
Thicken
350
37
  0
LAYOUT
  5
1E
102
{ACAD_REACTORS
330
1A
102
}
330
1A
100
AcDbPlotSettings
  1

  2
none_device
  4

  6

 40
0.0
 41
0.0
 42
0.0
 43
0.0
 44
0.0
 45
0.0
 46
0.0
 47
0.0
 48
0.0
 49
0.0
140
0.0
141
0.0
142
1.0
143
1.0
 70
   688
 72
     0
 73
     0
 74
     5
  7

 75
    16
 76
     0
 77
     2
 78
   300
147
1.0
148
0.0
149
0.0
100
AcDbLayout
  1
Layout1
 70
     1
 71
     1
 10
0.0
 20
0.0
 11
12.0
 21
9.0
 12
0.0
 22
0.0
 32
0.0
 14
1.000000000000000E+20
 24
1.000000000000000E+20
 34
1.000000000000000E+20
 15
-1.000000000000000E+20
 25
-1.000000000000000E+20
 35
-1.000000000000000E+20
146
0.0
 13
0.0
 23
0.0
 33
0.0
 16
1.0
 26
0.0
 36
0.0
 17
0.0
 27
1.0
 37
0.0
 76
     0
330
1B
  0
LAYOUT
  5
26
102
{ACAD_REACTORS
330
1A
102
}
330
1A
100
AcDbPlotSettings
  1

  2
none_device
  4

  6

 40
0.0
 41
0.0
 42
0.0
 43
0.0
 44
0.0
 45
0.0
 46
0.0
 47
0.0
 48
0.0
 49
0.0
140
0.0
141
0.0
142
1.0
143
1.0
 70
   688
 72
     0
 73
     0
 74
     5
  7

 75
    16
 76
     0
 77
     2
 78
   300
147
1.0
148
0.0
149
0.0
100
AcDbLayout
  1
Layout2
 70
     1
 71
     2
 10
0.0
 20
0.0
 11
0.0
 21
0.0
 12
0.0
 22
0.0
 32
0.0
 14
0.0
 24
0.0
 34
0.0
 15
0.0
 25
0.0
 35
0.0
146
0.0
 13
0.0
 23
0.0
 33
0.0
 16
1.0
 26
0.0
 36
0.0
 17
0.0
 27
1.0
 37
0.0
 76
     0
330
23
  0
LAYOUT
  5
22
102
{ACAD_REACTORS
330
1A
102
}
330
1A
100
AcDbPlotSettings
  1

  2
none_device
  4

  6

 40
0.0
 41
0.0
 42
0.0
 43
0.0
 44
0.0
 45
0.0
 46
0.0
 47
0.0
 48
0.0
 49
0.0
140
0.0
141
0.0
142
1.0
143
1.0
 70
  1712
 72
     0
 73
     0
 74
     0
  7

 75
     0
 76
     0
 77
     2
 78
   300
147
1.0
148
0.0
149
0.0
100
AcDbLayout
  1
Model
 70
     1
 71
     0
 10
0.0
 20
0.0
 11
12.0
 21
9.0
 12
0.0
 22
0.0
 32
0.0
 14
1.000000000000000E+20
 24
1.000000000000000E+20
 34
1.000000000000000E+20
 15
-1.000000000000000E+20
 25
-1.000000000000000E+20
 35
-1.000000000000000E+20
146
0.0
 13
0.0
 23
0.0
 33
0.0
 16
1.0
 26
0.0
 36
0.0
 17
0.0
 27
1.0
 37
0.0
 76
     0
330
1F
331
29
  0
MATERIAL
  5
3D
102
{ACAD_REACTORS
330
3B
102
}
330
3B
100
AcDbMaterial
  1
ByBlock
 72
     1
 94
      127
  0
MATERIAL
  5
3C
102
{ACAD_REACTORS
330
3B
102
}
330
3B
100
AcDbMaterial
  1
ByLayer
 72
     1
 94
      127
  0
MATERIAL
  5
3E
102
{ACAD_REACTORS
330
3B
102
}
330
3B
100
AcDbMaterial
  1
Global
 72
     1
 94
      127
  0
MLINESTYLE
  5
18
102
{ACAD_REACTORS
330
17
102
}
330
17
100
AcDbMlineStyle
  2
Standard
 70
     0
  3

 62
   256
 51
90.0
 52
90.0
 71
     2
 49
0.5
 62
   256
  6
BYLAYER
 49
-0.5
 62
   256
  6
BYLAYER
  0
ACDBPLACEHOLDER
  5
F
102
{ACAD_REACTORS
330
E
102
}
330
E
  0
VISUALSTYLE
  5
2F
102
{ACAD_REACTORS
330
2A
102
}
330
2A
100
AcDbVisualStyle
  2
2dWireframe
 70
     4
177
     2
291
     0
 71
     0
176
     1
 72
     2
176
     1
 73
     0
176
     1
 90
        0
176
     1
 40
-0.6
176
     1
 41
-30.0
176
     1
 62
     5
 63
     7
421
 16777215
176
     1
 74
     1
176
     1
 91
        4
176
     1
 64
     7
176
     1
 65
   257
176
     1
 75
     1
176
     1
175
     1
176
     1
 42
1.0
176
     1
 92
        0
176
     1
 66
   257
176
     1
 43
1.0
176
     1
 76
     1
176
     1
 77
     6
176
     1
 78
     2
176
     1
 67
     7
176
     1
 79
     5
176
     1
170
     0
176
     1
171
     0
176
     1
290
     0
176
     1
 93
        1
176
     1
 44
0.0
176
     1
173
     0
176
     1
  0
VISUALSTYLE
  5
31
102
{ACAD_REACTORS
330
2A
102
}
330
2A
100
AcDbVisualStyle
  2
3D Hidden
 70
     6
177
     2
291
     0
 71
     1
176
     1
 72
     2
176
     1
 73
     2
176
     1
 90
        0
176
     1
 40
-0.6
176
     1
 41
-30.0
176
     1
 62
     5
 63
     7
421
 16777215
176
     1
 74
     2
176
     1
 91
        2
176
     1
 64
     7
176
     1
 65
   257
176
     1
 75
     2
176
     1
175
     1
176
     1
 42
40.0
176
     1
 92
        0
176
     1
 66
   257
176
     1
 43
1.0
176
     1
 76
     1
176
     1
 77
     6
176
     1
 78
     2
176
     1
 67
     7
176
     1
 79
     3
176
     1
170
     0
176
     1
171
     0
176
     1
290
     0
176
     1
 93
        1
176
     1
 44
0.0
176
     1
173
     0
176
     1
  0
VISUALSTYLE
  5
30
102
{ACAD_REACTORS
330
2A
102
}
330
2A
100
AcDbVisualStyle
  2
3dWireframe
 70
     5
177
     2
291
     0
 71
     0
176
     1
 72
     2
176
     1
 73
     0
176
     1
 90
        0
176
     1
 40
-0.6
176
     1
 41
-30.0
176
     1
 62
     5
 63
     7
421
 16777215
176
     1
 74
     1
176
     1
 91
        4
176
     1
 64
     7
176
     1
 65
   257
176
     1
 75
     1
176
     1
175
     1
176
     1
 42
1.0
176
     1
 92
        0
176
     1
 66
   257
176
     1
 43
1.0
176
     1
 76
     1
176
     1
 77
     6
176
     1
 78
     2
176
     1
 67
     7
176
     1
 79
     5
176
     1
170
     0
176
     1
171
     0
176
     1
290
     0
176
     1
 93
        1
176
     1
 44
0.0
176
     1
173
     0
176
     1
  0
VISUALSTYLE
  5
32
102
{ACAD_REACTORS
330
2A
102
}
330
2A
100
AcDbVisualStyle
  2
Basic
 70
     7
177
     2
291
     1
 71
     1
176
     1
 72
     0
176
     1
 73
     1
176
     1
 90
        0
176
     1
 40
-0.6
176
     1
 41
-30.0
176
     1
 62
     5
 63
     7
421
 16777215
176
     1
 74
     0
176
     1
 91
        4
176
     1
 64
     7
176
     1
 65
   257
176
     1
 75
     1
176
     1
175
     1
176
     1
 42
1.0
176
     1
 92
        8
176
     1
 66
     7
176
     1
 43
1.0
176
     1
 76
     1
176
     1
 77
     6
176
     1
 78
     2
176
     1
 67
     7
176
     1
 79
     5
176
     1
170
     0
176
     1
171
     0
176
     1
290
     0
176
     1
 93
        1
176
     1
 44
0.0
176
     1
173
     0
176
     1
  0
VISUALSTYLE
  5
36
102
{ACAD_REACTORS
330
2A
102
}
330
2A
100
AcDbVisualStyle
  2
Brighten
 70
    12
177
     2
291
     1
 71
     2
176
     1
 72
     2
176
     1
 73
     0
176
     1
 90
        0
176
     1
 40
-0.6
176
     1
 41
-30.0
176
     1
 62
     5
 63
     7
421
 16777215
176
     1
 74
     1
176
     1
 91
        4
176
     1
 64
     7
176
     1
 65
   257
176
     1
 75
     1
176
     1
175
     1
176
     1
 42
1.0
176
     1
 92
        8
176
     1
 66
     7
176
     1
 43
1.0
176
     1
 76
     1
176
     1
 77
     6
176
     1
 78
     2
176
     1
 67
     7
176
     1
 79
     5
176
     1
170
     0
176
     1
171
     0
176
     1
290
     0
176
     1
 93
        1
176
     1
 44
50.0
176
     1
173
     0
176
     1
  0
VISUALSTYLE
  5
3A
102
{ACAD_REACTORS
330
2A
102
}
330
2A
100
AcDbVisualStyle
  2
ColorChange
 70
    16
177
     2
291
     1
 71
     2
176
     1
 72
     2
176
     1
 73
     3
176
     1
 90
        0
176
     1
 40
-0.6
176
     1
 41
-30.0
176
     1
 62
     5
 63
     8
421
  8421504
176
     1
 74
     1
176
     1
 91
        4
176
     1
 64
     7
176
     1
 65
   257
176
     1
 75
     1
176
     1
175
     1
176
     1
 42
1.0
176
     1
 92
        8
176
     1
 66
     8
424
  8421504
176
     1
 43
1.0
176
     1
 76
     1
176
     1
 77
     6
176
     1
 78
     2
176
     1
 67
     7
176
     1
 79
     5
176
     1
170
     0
176
     1
171
     0
176
     1
290
     0
176
     1
 93
        1
176
     1
 44
0.0
176
     1
173
     0
176
     1
  0
VISUALSTYLE
  5
34
102
{ACAD_REACTORS
330
2A
102
}
330
2A
100
AcDbVisualStyle
  2
Conceptual
 70
     9
177
     2
291
     0
 71
     3
176
     1
 72
     2
176
     1
 73
     0
176
     1
 90
        0
176
     1
 40
-0.6
176
     1
 41
-30.0
176
     1
 62
     5
 63
     7
421
 16777215
176
     1
 74
     2
176
     1
 91
        2
176
     1
 64
     7
176
     1
 65
   257
176
     1
 75
     1
176
     1
175
     1
176
     1
 42
40.0
176
     1
 92
        8
176
     1
 66
     7
176
     1
 43
1.0
176
     1
 76
     1
176
     1
 77
     6
176
     1
 78
     2
176
     1
 67
     7
176
     1
 79
     3
176
     1
170
     0
176
     1
171
     0
176
     1
290
     0
176
     1
 93
        1
176
     1
 44
0.0
176
     1
173
     0
176
     1
  0
VISUALSTYLE
  5
35
102
{ACAD_REACTORS
330
2A
102
}
330
2A
100
AcDbVisualStyle
  2
Dim
 70
    11
177
     2
291
     1
 71
     2
176
     1
 72
     2
176
     1
 73
     0
176
     1
 90
        0
176
     1
 40
-0.6
176
     1
 41
-30.0
176
     1
 62
     5
 63
     7
421
 16777215
176
     1
 74
     1
176
     1
 91
        4
176
     1
 64
     7
176
     1
 65
   257
176
     1
 75
     1
176
     1
175
     1
176
     1
 42
1.0
176
     1
 92
        8
176
     1
 66
     7
176
     1
 43
1.0
176
     1
 76
     1
176
     1
 77
     6
176
     1
 78
     2
176
     1
 67
     7
176
     1
 79
     5
176
     1
170
     0
176
     1
171
     0
176
     1
290
     0
176
     1
 93
        1
176
     1
 44
-50.0
176
     1
173
     0
176
     1
  0
VISUALSTYLE
  5
39
102
{ACAD_REACTORS
330
2A
102
}
330
2A
100
AcDbVisualStyle
  2
Facepattern
 70
    15
177
     2
291
     1
 71
     2
176
     1
 72
     2
176
     1
 73
     0
176
     1
 90
        0
176
     1
 40
-0.6
176
     1
 41
-30.0
176
     1
 62
     5
 63
     7
421
 16777215
176
     1
 74
     1
176
     1
 91
        4
176
     1
 64
     7
176
     1
 65
   257
176
     1
 75
     1
176
     1
175
     1
176
     1
 42
1.0
176
     1
 92
        8
176
     1
 66
     7
176
     1
 43
1.0
176
     1
 76
     1
176
     1
 77
     6
176
     1
 78
     2
176
     1
 67
     7
176
     1
 79
     5
176
     1
170
     0
176
     1
171
     0
176
     1
290
     0
176
     1
 93
        1
176
     1
 44
0.0
176
     1
173
     0
176
     1
  0
VISUALSTYLE
  5
2B
102
{ACAD_REACTORS
330
2A
102
}
330
2A
100
AcDbVisualStyle
  2
Flat
 70
     0
177
     2
291
     1
 71
     2
176
     1
 72
     1
176
     1
 73
     1
176
     1
 90
        2
176
     1
 40
-0.6
176
     1
 41
30.0
176
     1
 62
     5
 63
     7
421
 16777215
176
     1
 74
     0
176
     1
 91
        4
176
     1
 64
     7
176
     1
 65
   257
176
     1
 75
     1
176
     1
175
     1
176
     1
 42
1.0
176
     1
 92
        8
176
     1
 66
     7
176
     1
 43
1.0
176
     1
 76
     1
176
     1
 77
     6
176
     1
 78
     2
176
     1
 67
     7
176
     1
 79
     5
176
     1
170
     0
176
     1
171
     0
176
     1
290
     0
176
     1
 93
       13
176
     1
 44
0.0
176
     1
173
     0
176
     1
  0
VISUALSTYLE
  5
2C
102
{ACAD_REACTORS
330
2A
102
}
330
2A
100
AcDbVisualStyle
  2
FlatWithEdges
 70
     1
177
     2
291
     1
 71
     2
176
     1
 72
     1
176
     1
 73
     1
176
     1
 90
        2
176
     1
 40
-0.6
176
     1
 41
30.0
176
     1
 62
     5
 63
     7
421
 16777215
176
     1
 74
     1
176
     1
 91
        4
176
     1
 64
     7
176
     1
 65
   257
176
     1
 75
     1
176
     1
175
     1
176
     1
 42
1.0
176
     1
 92
        0
176
     1
 66
   257
176
     1
 43
1.0
176
     1
 76
     1
176
     1
 77
     6
176
     1
 78
     2
176
     1
 67
     7
176
     1
 79
     5
176
     1
170
     0
176
     1
171
     0
176
     1
290
     0
176
     1
 93
       13
176
     1
 44
0.0
176
     1
173
     0
176
     1
  0
VISUALSTYLE
  5
2D
102
{ACAD_REACTORS
330
2A
102
}
330
2A
100
AcDbVisualStyle
  2
Gouraud
 70
     2
177
     2
291
     1
 71
     2
176
     1
 72
     2
176
     1
 73
     1
176
     1
 90
        2
176
     1
 40
-0.6
176
     1
 41
30.0
176
     1
 62
     5
 63
     7
421
 16777215
176
     1
 74
     0
176
     1
 91
        4
176
     1
 64
     7
176
     1
 65
   257
176
     1
 75
     1
176
     1
175
     1
176
     1
 42
1.0
176
     1
 92
        0
176
     1
 66
     7
176
     1
 43
1.0
176
     1
 76
     1
176
     1
 77
     6
176
     1
 78
     2
176
     1
 67
     7
176
     1
 79
     5
176
     1
170
     0
176
     1
171
     0
176
     1
290
     0
176
     1
 93
       13
176
     1
 44
0.0
176
     1
173
     0
176
     1
  0
VISUALSTYLE
  5
2E
102
{ACAD_REACTORS
330
2A
102
}
330
2A
100
AcDbVisualStyle
  2
GouraudWithEdges
 70
     3
177
     2
291
     1
 71
     2
176
     1
 72
     2
176
     1
 73
     1
176
     1
 90
        2
176
     1
 40
-0.6
176
     1
 41
30.0
176
     1
 62
     5
 63
     7
421
 16777215
176
     1
 74
     1
176
     1
 91
        4
176
     1
 64
     7
176
     1
 65
   257
176
     1
 75
     1
176
     1
175
     1
176
     1
 42
1.0
176
     1
 92
        0
176
     1
 66
   257
176
     1
 43
1.0
176
     1
 76
     1
176
     1
 77
     6
176
     1
 78
     2
176
     1
 67
     7
176
     1
 79
     5
176
     1
170
     0
176
     1
171
     0
176
     1
290
     0
176
     1
 93
       13
176
     1
 44
0.0
176
     1
173
     0
176
     1
  0
VISUALSTYLE
  5
38
102
{ACAD_REACTORS
330
2A
102
}
330
2A
100
AcDbVisualStyle
  2
Linepattern
 70
    14
177
     2
291
     1
 71
     2
176
     1
 72
     2
176
     1
 73
     0
176
     1
 90
        0
176
     1
 40
-0.6
176
     1
 41
-30.0
176
     1
 62
     5
 63
     7
421
 16777215
176
     1
 74
     1
176
     1
 91
        4
176
     1
 64
     7
176
     1
 65
   257
176
     1
 75
     7
176
     1
175
     7
176
     1
 42
1.0
176
     1
 92
        8
176
     1
 66
     7
176
     1
 43
1.0
176
     1
 76
     1
176
     1
 77
     6
176
     1
 78
     2
176
     1
 67
     7
176
     1
 79
     5
176
     1
170
     0
176
     1
171
     0
176
     1
290
     0
176
     1
 93
        1
176
     1
 44
0.0
176
     1
173
     0
176
     1
  0
VISUALSTYLE
  5
33
102
{ACAD_REACTORS
330
2A
102
}
330
2A
100
AcDbVisualStyle
  2
Realistic
 70
     8
177
     2
291
     0
 71
     2
176
     1
 72
     2
176
     1
 73
     0
176
     1
 90
        0
176
     1
 40
-0.6
176
     1
 41
-30.0
176
     1
 62
     5
 63
     7
421
 16777215
176
     1
 74
     1
176
     1
 91
        0
176
     1
 64
     7
176
     1
 65
   257
176
     1
 75
     1
176
     1
175
     1
176
     1
 42
1.0
176
     1
 92
        8
176
     1
 66
     8
424
  7895160
176
     1
 43
1.0
176
     1
 76
     1
176
     1
 77
     6
176
     1
 78
     2
176
     1
 67
     7
176
     1
 79
     5
176
     1
170
     0
176
     1
171
     0
176
     1
290
     0
176
     1
 93
       13
176
     1
 44
0.0
176
     1
173
     0
176
     1
  0
VISUALSTYLE
  5
37
102
{ACAD_REACTORS
330
2A
102
}
330
2A
100
AcDbVisualStyle
  2
Thicken
 70
    13
177
     2
291
     1
 71
     2
176
     1
 72
     2
176
     1
 73
     0
176
     1
 90
        0
176
     1
 40
-0.6
176
     1
 41
-30.0
176
     1
 62
     5
 63
     7
421
 16777215
176
     1
 74
     1
176
     1
 91
        4
176
     1
 64
     7
176
     1
 65
   257
176
     1
 75
     1
176
     1
175
     1
176
     1
 42
1.0
176
     1
 92
       12
176
     1
 66
     7
176
     1
 43
1.0
176
     1
 76
     1
176
     1
 77
     6
176
     1
 78
     2
176
     1
 67
     7
176
     1
 79
     5
176
     1
170
     0
176
     1
171
     0
176
     1
290
     0
176
     1
 93
        1
176
     1
 44
0.0
176
     1
173
     0
176
     1
  0
ENDSEC
  0
EOF
