  0
SECTION
  2
HEADER
  9
$ACADVER
  1
AC1024
  9
$ACADMAINTVER
 70
   226
  9
$DWGCODEPAGE
  3
ANSI_932
  9
$INSBASE
 10
0.0
 20
0.0
 30
0.0
  9
$EXTMIN
 10
1.000000000000000E+20
 20
1.000000000000000E+20
 30
1.000000000000000E+20
  9
$EXTMAX
 10
-1.000000000000000E+20
 20
-1.000000000000000E+20
 30
-1.000000000000000E+20
  9
$LIMMIN
 10
0.0
 20
0.0
  9
$LIMMAX
 10
12.0
 20
9.0
  9
$ORTHOMODE
 70
     0
  9
$REGENMODE
 70
     1
  9
$FILLMODE
 70
     1
  9
$QTEXTMODE
 70
     0
  9
$MIRRTEXT
 70
     0
  9
$LTSCALE
 40
1.0
  9
$ATTMODE
 70
     1
  9
$TEXTSIZE
 40
0.2
  9
$TRACEWID
 40
0.05
  9
$TEXTSTYLE
  7
Standard
  9
$CLAYER
  8
0
  9
$CELTYPE
  6
ByLayer
  9
$CECOLOR
 62
   256
  9
$CELTSCALE
 40
1.0
  9
$DISPSILH
 70
     0
  9
$DIMSCALE
 40
1.0
  9
$DIMASZ
 40
0.18
  9
$DIMEXO
 40
0.0625
  9
$DIMDLI
 40
0.38
  9
$DIMRND
 40
0.0
  9
$DIMDLE
 40
0.0
  9
$DIMEXE
 40
0.18
  9
$DIMTP
 40
0.0
  9
$DIMTM
 40
0.0
  9
$DIMTXT
 40
0.18
  9
$DIMCEN
 40
0.09
  9
$DIMTSZ
 40
0.0
  9
$DIMTOL
 70
     0
  9
$DIMLIM
 70
     0
  9
$DIMTIH
 70
     1
  9
$DIMTOH
 70
     1
  9
$DIMSE1
 70
     0
  9
$DIMSE2
 70
     0
  9
$DIMTAD
 70
     0
  9
$DIMZIN
 70
     0
  9
$DIMBLK
  1

  9
$DIMASO
 70
     1
  9
$DIMSHO
 70
     1
  9
$DIMPOST
  1

  9
$DIMAPOST
  1

  9
$DIMALT
 70
     0
  9
$DIMALTD
 70
     2
  9
$DIMALTF
 40
25.4
  9
$DIMLFAC
 40
1.0
  9
$DIMTOFL
 70
     0
  9
$DIMTVP
 40
0.0
  9
$DIMTIX
 70
     0
  9
$DIMSOXD
 70
     0
  9
$DIMSAH
 70
     0
  9
$DIMBLK1
  1

  9
$DIMBLK2
  1

  9
$DIMSTYLE
  2
Standard
  9
$DIMCLRD
 70
     0
  9
$DIMCLRE
 70
     0
  9
$DIMCLRT
 70
     0
  9
$DIMTFAC
 40
1.0
  9
$DIMGAP
 40
0.09
  9
$DIMJUST
 70
     0
  9
$DIMSD1
 70
     0
  9
$DIMSD2
 70
     0
  9
$DIMTOLJ
 70
     1
  9
$DIMTZIN
 70
     0
  9
$DIMALTZ
 70
     0
  9
$DIMALTTZ
 70
     0
  9
$DIMUPT
 70
     0
  9
$DIMDEC
 70
     4
  9
$DIMTDEC
 70
     4
  9
$DIMALTU
 70
     2
  9
$DIMALTTD
 70
     2
  9
$DIMTXSTY
  7
Standard
  9
$DIMAUNIT
 70
     0
  9
$DIMADEC
 70
     0
  9
$DIMALTRND
 40
0.0
  9
$DIMAZIN
 70
     0
  9
$DIMDSEP
 70
    46
  9
$DIMATFIT
 70
     3
  9
$DIMFRAC
 70
     0
  9
$DIMLDRBLK
  1

  9
$DIMLUNIT
 70
     2
  9
$DIMLWD
 70
    -2
  9
$DIMLWE
 70
    -2
  9
$DIMTMOVE
 70
     0
  9
$DIMFXL
 40
1.0
  9
$DIMFXLON
 70
     0
  9
$DIMJOGANG
 40
0.7853981633974483
  9
$DIMTFILL
 70
     0
  9
$DIMTFILLCLR
 70
     0
  9
$DIMARCSYM
 70
     0
  9
$DIMLTYPE
  6

  9
$DIMLTEX1
  6

  9
$DIMLTEX2
  6

  9
$DIMTXTDIRECTION
 70
     0
  9
$LUNITS
 70
     2
  9
$LUPREC
 70
     4
  9
$SKETCHINC
 40
0.1
  9
$FILLETRAD
 40
0.0
  9
$AUNITS
 70
     0
  9
$AUPREC
 70
     0
  9
$MENU
  1
.
  9
$ELEVATION
 40
0.0
  9
$PELEVATION
 40
0.0
  9
$THICKNESS
 40
0.0
  9
$LIMCHECK
 70
     0
  9
$CHAMFERA
 40
0.0
  9
$CHAMFERB
 40
0.0
  9
$CHAMFERC
 40
0.0
  9
$CHAMFERD
 40
0.0
  9
$SKPOLY
 70
     0
  9
$TDCREATE
 40
2459569.502592592
  9
$TDUCREATE
 40
2459569.127592593
  9
$TDUPDATE
 40
2459569.502592592
  9
$TDUUPDATE
 40
2459569.127592593
  9
$TDINDWG
 40
0.0000115741
  9
$TDUSRTIMER
 40
0.0000115741
  9
$USRTIMER
 70
     1
  9
$ANGBASE
 50
0.0
  9
$ANGDIR
 70
     0
  9
$PDMODE
 70
     0
  9
$PDSIZE
 40
0.0
  9
$PLINEWID
 40
0.0
  9
$SPLFRAME
 70
     0
  9
$SPLINETYPE
 70
     6
  9
$SPLINESEGS
 70
     8
  9
$HANDSEED
  5
167
  9
$SURFTAB1
 70
     6
  9
$SURFTAB2
 70
     6
  9
$SURFTYPE
 70
     6
  9
$SURFU
 70
     6
  9
$SURFV
 70
     6
  9
$UCSBASE
  2

  9
$UCSNAME
  2

  9
$UCSORG
 10
0.0
 20
0.0
 30
0.0
  9
$UCSXDIR
 10
1.0
 20
0.0
 30
0.0
  9
$UCSYDIR
 10
0.0
 20
1.0
 30
0.0
  9
$UCSORTHOREF
  2

  9
$UCSORTHOVIEW
 70
     0
  9
$UCSORGTOP
 10
0.0
 20
0.0
 30
0.0
  9
$UCSORGBOTTOM
 10
0.0
 20
0.0
 30
0.0
  9
$UCSORGLEFT
 10
0.0
 20
0.0
 30
0.0
  9
$UCSORGRIGHT
 10
0.0
 20
0.0
 30
0.0
  9
$UCSORGFRONT
 10
0.0
 20
0.0
 30
0.0
  9
$UCSORGBACK
 10
0.0
 20
0.0
 30
0.0
  9
$PUCSBASE
  2

  9
$PUCSNAME
  2

  9
$PUCSORG
 10
0.0
 20
0.0
 30
0.0
  9
$PUCSXDIR
 10
1.0
 20
0.0
 30
0.0
  9
$PUCSYDIR
 10
0.0
 20
1.0
 30
0.0
  9
$PUCSORTHOREF
  2

  9
$PUCSORTHOVIEW
 70
     0
  9
$PUCSORGTOP
 10
0.0
 20
0.0
 30
0.0
  9
$PUCSORGBOTTOM
 10
0.0
 20
0.0
 30
0.0
  9
$PUCSORGLEFT
 10
0.0
 20
0.0
 30
0.0
  9
$PUCSORGRIGHT
 10
0.0
 20
0.0
 30
0.0
  9
$PUCSORGFRONT
 10
0.0
 20
0.0
 30
0.0
  9
$PUCSORGBACK
 10
0.0
 20
0.0
 30
0.0
  9
$USERI1
 70
     0
  9
$USERI2
 70
     0
  9
$USERI3
 70
     0
  9
$USERI4
 70
     0
  9
$USERI5
 70
     0
  9
$USERR1
 40
0.0
  9
$USERR2
 40
0.0
  9
$USERR3
 40
0.0
  9
$USERR4
 40
0.0
  9
$USERR5
 40
0.0
  9
$WORLDVIEW
 70
     1
  9
$SHADEDGE
 70
     3
  9
$SHADEDIF
 70
    70
  9
$TILEMODE
 70
     1
  9
$MAXACTVP
 70
    64
  9
$PINSBASE
 10
0.0
 20
0.0
 30
0.0
  9
$PLIMCHECK
 70
     0
  9
$PEXTMIN
 10
1.000000000000000E+20
 20
1.000000000000000E+20
 30
1.000000000000000E+20
  9
$PEXTMAX
 10
-1.000000000000000E+20
 20
-1.000000000000000E+20
 30
-1.000000000000000E+20
  9
$PLIMMIN
 10
0.0
 20
0.0
  9
$PLIMMAX
 10
12.0
 20
9.0
  9
$UNITMODE
 70
     0
  9
$VISRETAIN
 70
     1
  9
$PLINEGEN
 70
     0
  9
$PSLTSCALE
 70
     1
  9
$TREEDEPTH
 70
  3020
  9
$CMLSTYLE
  2
Standard
  9
$CMLJUST
 70
     0
  9
$CMLSCALE
 40
1.0
  9
$PROXYGRAPHICS
 70
     1
  9
$MEASUREMENT
 70
     0
  9
$CELWEIGHT
370
    -1
  9
$ENDCAPS
280
     0
  9
$JOINSTYLE
280
     0
  9
$LWDISPLAY
290
     1
  9
$INSUNITS
 70
     4
  9
$HYPERLINKBASE
  1

  9
$STYLESHEET
  1

  9
$XEDIT
290
     1
  9
$CEPSNTYPE
380
     0
  9
$PSTYLEMODE
290
     1
  9
$FINGERPRINTGUID
  2
{175C03BE-AB87-9043-A9AE-D1DB4C213235}
  9
$VERSIONGUID
  2
{E48FF7DC-AA19-7C40-9060-024AC9509851}
  9
$EXTNAMES
290
     1
  9
$PSVPSCALE
 40
0.0
  9
$OLESTARTUP
290
     0
  9
$SORTENTS
280
   127
  9
$INDEXCTL
280
     0
  9
$HIDETEXT
280
     1
  9
$XCLIPFRAME
280
     2
  9
$HALOGAP
280
     0
  9
$OBSCOLOR
 70
   257
  9
$OBSLTYPE
280
     0
  9
$INTERSECTIONDISPLAY
280
     0
  9
$INTERSECTIONCOLOR
 70
   257
  9
$DIMASSOC
280
     2
  9
$PROJECTNAME
  1

  9
$CAMERADISPLAY
290
     0
  9
$LENSLENGTH
 40
50.0
  9
$CAMERAHEIGHT
 40
0.0
  9
$STEPSPERSEC
 40
2.0
  9
$STEPSIZE
 40
6.0
  9
$3DDWFPREC
 40
2.0
  9
$PSOLWIDTH
 40
0.25
  9
$PSOLHEIGHT
 40
4.0
  9
$LOFTANG1
 40
1.570796326794896
  9
$LOFTANG2
 40
1.570796326794896
  9
$LOFTMAG1
 40
0.0
  9
$LOFTMAG2
 40
0.0
  9
$LOFTPARAM
 70
     7
  9
$LOFTNORMALS
280
     1
  9
$LATITUDE
 40
37.795
  9
$LONGITUDE
 40
-122.394
  9
$NORTHDIRECTION
 40
0.0
  9
$TIMEZONE
 70
 -8000
  9
$LIGHTGLYPHDISPLAY
280
     1
  9
$TILEMODELIGHTSYNCH
280
     1
  9
$CMATERIAL
347
11
  9
$SOLIDHIST
280
     0
  9
$SHOWHIST
280
     1
  9
$DWFFRAME
280
     2
  9
$DGNFRAME
280
     0
  9
$REALWORLDSCALE
290
     1
  9
$INTERFERECOLOR
 62
     1
  9
$INTERFEREOBJVS
345
33
  9
$INTERFEREVPVS
346
30
  9
$CSHADOW
280
     0
  9
$SHADOWPLANELOCATION
 40
0.0
  0
ENDSEC
  0
SECTION
  2
CLASSES
  0
CLASS
  1
ACDBDICTIONARYWDFLT
  2
AcDbDictionaryWithDefault
  3
ObjectDBX Classes
 90
        0
 91
        1
280
     0
281
     0
  0
CLASS
  1
MATERIAL
  2
AcDbMaterial
  3
ObjectDBX Classes
 90
     1153
 91
        3
280
     0
281
     0
  0
CLASS
  1
VISUALSTYLE
  2
AcDbVisualStyle
  3
ObjectDBX Classes
 90
     4095
 91
       24
280
     0
281
     0
  0
CLASS
  1
SCALE
  2
AcDbScale
  3
ObjectDBX Classes
 90
     1153
 91
       17
280
     0
281
     0
  0
CLASS
  1
TABLESTYLE
  2
AcDbTableStyle
  3
ObjectDBX Classes
 90
     4095
 91
        1
280
     0
281
     0
  0
CLASS
  1
MLEADERSTYLE
  2
AcDbMLeaderStyle
  3
ACDB_MLEADERSTYLE_CLASS
 90
     4095
 91
        1
280
     0
281
     0
  0
CLASS
  1
ACDBSECTIONVIEWSTYLE
  2
AcDbSectionViewStyle
  3
ObjectDBX Classes
 90
     1025
 91
        1
280
     0
281
     0
  0
CLASS
  1
ACDBDETAILVIEWSTYLE
  2
AcDbDetailViewStyle
  3
ObjectDBX Classes
 90
     1025
 91
        1
280
     0
281
     0
  0
CLASS
  1
DICTIONARYVAR
  2
AcDbDictionaryVar
  3
ObjectDBX Classes
 90
        0
 91
        5
280
     0
281
     0
  0
CLASS
  1
CELLSTYLEMAP
  2
AcDbCellStyleMap
  3
ObjectDBX Classes
 90
     1152
 91
        1
280
     0
281
     0
  0
ENDSEC
  0
SECTION
  2
TABLES
  0
TABLE
  2
VPORT
  5
8
330
0
100
AcDbSymbolTable
 70
     1
  0
VPORT
  5
57
330
8
100
AcDbSymbolTableRecord
100
AcDbViewportTableRecord
  2
*Active
 70
     0
 10
0.0
 20
0.0
 11
1.0
 21
1.0
 12
0.0
 22
0.0
 13
0.0
 23
0.0
 14
1.0
 24
1.0
 15
0.0
 25
0.0
 16
0.0
 26
0.0
 36
1.0
 17
104.9999999737534
 27
-148.4999999628701
 37
0.0
 40
302.939999924255
 41
0.7070707070707534
 42
50.0
 43
0.0
 44
0.0
 50
0.0
 51
0.0
 71
     0
 72
   100
 73
     1
 74
     0
 75
     1
 76
     0
 77
     0
 78
     0
281
     0
 65
     1
110
0.0
120
0.0
130
0.0
111
1.0
121
0.0
131
0.0
112
0.0
122
1.0
132
0.0
 79
     0
146
0.0
 60
     3
 61
     5
292
     1
282
     1
141
0.0
142
0.0
 63
   250
421
  3355443
  0
ENDTAB
  0
TABLE
  2
LTYPE
  5
5
330
0
100
AcDbSymbolTable
 70
     3
  0
LTYPE
  5
5B
330
5
100
AcDbSymbolTableRecord
100
AcDbLinetypeTableRecord
  2
ByBlock
 70
     0
  3

 72
    65
 73
     0
 40
0.0
  0
LTYPE
  5
5C
330
5
100
AcDbSymbolTableRecord
100
AcDbLinetypeTableRecord
  2
ByLayer
 70
     0
  3

 72
    65
 73
     0
 40
0.0
  0
LTYPE
  5
5D
330
5
100
AcDbSymbolTableRecord
100
AcDbLinetypeTableRecord
  2
Continuous
 70
     0
  3
Solid line
 72
    65
 73
     0
 40
0.0
  0
LTYPE
  5
86
330
5
100
AcDbSymbolTableRecord
100
AcDbLinetypeTableRecord
  2
AI-Linetype-0
 70
     0
  3
Adobe Illustrator Linetype No. 0
 72
    65
 73
     2
 40
1.411111110758333
 49
0.7055555553791667
 74
     0
 49
-0.7055555553791667
 74
     0
  0
LTYPE
  5
88
330
5
100
AcDbSymbolTableRecord
100
AcDbLinetypeTableRecord
  2
AI-Linetype-1
 70
     0
  3
Adobe Illustrator Linetype No. 1
 72
    65
 73
     2
 40
1.411111110758333
 49
0.7055555553791667
 74
     0
 49
-0.7055555553791667
 74
     0
  0
ENDTAB
  0
TABLE
  2
LAYER
  5
2
330
0
100
AcDbSymbolTable
 70
     2
  0
LAYER
  5
54
330
2
100
AcDbSymbolTableRecord
100
AcDbLayerTableRecord
  2
0
 70
     0
 62
     7
  6
Continuous
370
    -3
390
F
347
21
  0
LAYER
  5
78
330
2
100
AcDbSymbolTableRecord
100
AcDbLayerTableRecord
  2
レイヤー 1
 70
     0
 62
     7
  6
Continuous
370
     0
390
F
347
21
  0
ENDTAB
  0
TABLE
  2
STYLE
  5
3
330
0
100
AcDbSymbolTable
 70
     2
  0
STYLE
  5
55
330
3
100
AcDbSymbolTableRecord
100
AcDbTextStyleTableRecord
  2
Standard
 70
     0
 40
0.0
 41
1.0
 50
0.0
 71
     0
 42
0.2
  3
txt
  4

  0
STYLE
  5
5A
330
3
100
AcDbSymbolTableRecord
100
AcDbTextStyleTableRecord
  2
Annotative
 70
     0
 40
0.0
 41
1.0
 50
0.0
 71
     0
 42
0.2
  3
txt
  4

1001
AcadAnnotative
1000
AnnotativeData
1002
{
1070
     1
1070
     1
1002
}
  0
ENDTAB
  0
TABLE
  2
VIEW
  5
6
330
0
100
AcDbSymbolTable
 70
     0
  0
ENDTAB
  0
TABLE
  2
UCS
  5
7
330
0
100
AcDbSymbolTable
 70
     0
  0
ENDTAB
  0
TABLE
  2
APPID
  5
9
330
0
100
AcDbSymbolTable
 70
     2
  0
APPID
  5
56
330
9
100
AcDbSymbolTableRecord
100
AcDbRegAppTableRecord
  2
ACAD
 70
     0
  0
APPID
  5
5E
330
9
100
AcDbSymbolTableRecord
100
AcDbRegAppTableRecord
  2
AcadAnnotative
 70
     0
  0
ENDTAB
  0
TABLE
  2
DIMSTYLE
  5
A
330
0
100
AcDbSymbolTable
 70
     2
100
AcDbDimStyleTable
 71
     0
  0
DIMSTYLE
105
58
330
A
100
AcDbSymbolTableRecord
100
AcDbDimStyleTableRecord
  2
Standard
 70
     0
340
55
  0
DIMSTYLE
105
59
330
A
100
AcDbSymbolTableRecord
100
AcDbDimStyleTableRecord
  2
Annotative
 70
     0
340
55
1001
AcadAnnotative
1000
AnnotativeData
1002
{
1070
     1
1070
     1
1002
}
  0
ENDTAB
  0
TABLE
  2
BLOCK_RECORD
  5
1
330
0
100
AcDbSymbolTable
 70
    21
  0
BLOCK_RECORD
  5
70
330
1
100
AcDbSymbolTableRecord
100
AcDbBlockTableRecord
  2
*Model_Space
340
73
 70
     0
280
     1
281
     0
  0
BLOCK_RECORD
  5
6C
330
1
100
AcDbSymbolTableRecord
100
AcDbBlockTableRecord
  2
*Paper_Space
340
6F
 70
     0
280
     1
281
     0
  0
BLOCK_RECORD
  5
74
330
1
100
AcDbSymbolTableRecord
100
AcDbBlockTableRecord
  2
*Paper_Space0
340
77
 70
     0
280
     1
281
     0
  0
BLOCK_RECORD
  5
79
330
1
100
AcDbSymbolTableRecord
100
AcDbBlockTableRecord
  2
Block_0
340
0
102
{BLKREFS
331
7A
102
}
 70
     0
280
     1
281
     0
  0
BLOCK_RECORD
  5
91
330
1
100
AcDbSymbolTableRecord
100
AcDbBlockTableRecord
  2
Block_1
340
0
102
{BLKREFS
331
92
102
}
 70
     0
280
     1
281
     0
  0
BLOCK_RECORD
  5
97
330
1
100
AcDbSymbolTableRecord
100
AcDbBlockTableRecord
  2
Block_2
340
0
102
{BLKREFS
331
98
102
}
 70
     0
280
     1
281
     0
  0
BLOCK_RECORD
  5
9B
330
1
100
AcDbSymbolTableRecord
100
AcDbBlockTableRecord
  2
Block_3
340
0
102
{BLKREFS
331
9C
102
}
 70
     0
280
     1
281
     0
  0
BLOCK_RECORD
  5
A3
330
1
100
AcDbSymbolTableRecord
100
AcDbBlockTableRecord
  2
Block_4
340
0
102
{BLKREFS
331
A4
102
}
 70
     0
280
     1
281
     0
  0
BLOCK_RECORD
  5
AB
330
1
100
AcDbSymbolTableRecord
100
AcDbBlockTableRecord
  2
Block_5
340
0
102
{BLKREFS
331
AC
102
}
 70
     0
280
     1
281
     0
  0
BLOCK_RECORD
  5
AF
330
1
100
AcDbSymbolTableRecord
100
AcDbBlockTableRecord
  2
Block_6
340
0
102
{BLKREFS
331
B0
102
}
 70
     0
280
     1
281
     0
  0
BLOCK_RECORD
  5
B9
330
1
100
AcDbSymbolTableRecord
100
AcDbBlockTableRecord
  2
Block_7
340
0
102
{BLKREFS
331
BA
102
}
 70
     0
280
     1
281
     0
  0
BLOCK_RECORD
  5
C1
330
1
100
AcDbSymbolTableRecord
100
AcDbBlockTableRecord
  2
Block_8
340
0
102
{BLKREFS
331
C2
102
}
 70
     0
280
     1
281
     0
  0
BLOCK_RECORD
  5
C5
330
1
100
AcDbSymbolTableRecord
100
AcDbBlockTableRecord
  2
Block_9
340
0
102
{BLKREFS
331
C6
102
}
 70
     0
280
     1
281
     0
  0
BLOCK_RECORD
  5
D1
330
1
100
AcDbSymbolTableRecord
100
AcDbBlockTableRecord
  2
Block_10
340
0
102
{BLKREFS
331
D2
102
}
 70
     0
280
     1
281
     0
  0
BLOCK_RECORD
  5
D8
330
1
100
AcDbSymbolTableRecord
100
AcDbBlockTableRecord
  2
Block_11
340
0
102
{BLKREFS
331
D9
102
}
 70
     0
280
     1
281
     0
  0
BLOCK_RECORD
  5
DC
330
1
100
AcDbSymbolTableRecord
100
AcDbBlockTableRecord
  2
Block_12
340
0
102
{BLKREFS
331
DD
102
}
 70
     0
280
     1
281
     0
  0
BLOCK_RECORD
  5
E4
330
1
100
AcDbSymbolTableRecord
100
AcDbBlockTableRecord
  2
Block_13
340
0
102
{BLKREFS
331
E5
102
}
 70
     0
280
     1
281
     0
  0
BLOCK_RECORD
  5
EA
330
1
100
AcDbSymbolTableRecord
100
AcDbBlockTableRecord
  2
Block_14
340
0
102
{BLKREFS
331
EB
102
}
 70
     0
280
     1
281
     0
  0
BLOCK_RECORD
  5
EE
330
1
100
AcDbSymbolTableRecord
100
AcDbBlockTableRecord
  2
Block_15
340
0
102
{BLKREFS
331
EF
102
}
 70
     0
280
     1
281
     0
  0
BLOCK_RECORD
  5
FA
330
1
100
AcDbSymbolTableRecord
100
AcDbBlockTableRecord
  2
Block_16
340
0
102
{BLKREFS
331
FB
102
}
 70
     0
280
     1
281
     0
  0
BLOCK_RECORD
  5
FE
330
1
100
AcDbSymbolTableRecord
100
AcDbBlockTableRecord
  2
Block_17
340
0
102
{BLKREFS
331
FF
102
}
 70
     0
280
     1
281
     0
  0
BLOCK_RECORD
  5
10F
330
1
100
AcDbSymbolTableRecord
100
AcDbBlockTableRecord
  2
Block_18
340
0
102
{BLKREFS
331
110
102
}
 70
     0
280
     1
281
     0
  0
BLOCK_RECORD
  5
113
330
1
100
AcDbSymbolTableRecord
100
AcDbBlockTableRecord
  2
Block_19
340
0
102
{BLKREFS
331
114
102
}
 70
     0
280
     1
281
     0
  0
ENDTAB
  0
ENDSEC
  0
SECTION
  2
BLOCKS
  0
BLOCK
  5
71
330
70
100
AcDbEntity
  8
0
100
AcDbBlockBegin
  2
*Model_Space
 70
     0
 10
0.0
 20
0.0
 30
0.0
  3
*Model_Space
  1

  0
ENDBLK
  5
72
330
70
100
AcDbEntity
  8
0
100
AcDbBlockEnd
  0
BLOCK
  5
6D
330
6C
100
AcDbEntity
 67
     1
  8
0
100
AcDbBlockBegin
  2
*Paper_Space
 70
     0
 10
0.0
 20
0.0
 30
0.0
  3
*Paper_Space
  1

  0
ENDBLK
  5
6E
330
6C
100
AcDbEntity
 67
     1
  8
0
100
AcDbBlockEnd
  0
BLOCK
  5
75
330
74
100
AcDbEntity
 67
     1
  8
0
100
AcDbBlockBegin
  2
*Paper_Space0
 70
     0
 10
0.0
 20
0.0
 30
0.0
  3
*Paper_Space0
  1

  0
ENDBLK
  5
76
330
74
100
AcDbEntity
 67
     1
  8
0
100
AcDbBlockEnd
  0
BLOCK
  5
7B
330
79
100
AcDbEntity
  8
0
100
AcDbBlockBegin
  2
Block_0
 70
     0
 10
0.0
 20
0.0
 30
0.0
  3
Block_0
  1

  0
LINE
  5
7D
330
79
100
AcDbEntity
  8
レイヤー 1
 62
   250
420
  2299925
370
    25
100
AcDbLine
 10
92.25650673592395
 20
-142.1213947345109
 30
0.0
 11
105.3564858461601
 21
-142.1213947345109
 31
0.0
  0
LINE
  5
7E
330
79
100
AcDbEntity
  8
レイヤー 1
 62
   250
420
  2299925
370
    25
100
AcDbLine
 10
104.2564894853344
 20
-143.2210735953447
 30
0.0
 11
104.2564894853344
 21
-155.721257392069
 31
0.0
  0
LINE
  5
7F
330
79
100
AcDbEntity
  8
レイヤー 1
 62
   250
420
  2299925
370
    25
100
AcDbLine
 10
92.25650673592395
 20
-143.2210735953447
 30
0.0
 11
104.2564894853344
 21
-143.2210735953447
 31
0.0
  0
LINE
  5
80
330
79
100
AcDbEntity
  8
レイヤー 1
 62
   250
420
  2299925
370
    25
100
AcDbLine
 10
92.25650673592395
 20
-142.1213947345109
 30
0.0
 11
92.25650673592395
 21
-143.2210735953447
 31
0.0
  0
LINE
  5
81
330
79
100
AcDbEntity
  8
レイヤー 1
 62
   250
420
  2299925
370
    25
100
AcDbLine
 10
105.3564858461601
 20
-142.1213947345109
 30
0.0
 11
105.3564858461601
 21
-154.6215810822713
 31
0.0
  0
LINE
  5
82
330
79
100
AcDbEntity
  8
レイヤー 1
 62
   250
420
  2299925
370
    25
100
AcDbLine
 10
121.256638496069
 20
-154.6215810822713
 30
0.0
 11
121.256638496069
 21
-155.0212077387427
 31
0.0
  0
LINE
  5
83
330
79
100
AcDbEntity
  8
レイヤー 1
 62
   250
420
  2299925
370
    25
100
AcDbLine
 10
105.3564858461601
 20
-154.6215810822713
 30
0.0
 11
121.256638496069
 21
-154.6215810822713
 31
0.0
  0
LINE
  5
84
330
79
100
AcDbEntity
  8
レイヤー 1
 62
   250
420
  2299925
370
    25
100
AcDbLine
 10
121.256638496069
 20
-155.0212077387427
 30
0.0
 11
104.2564894853344
 21
-155.721257392069
 31
0.0
  0
LINE
  5
85
330
79
100
AcDbEntity
  8
レイヤー 1
  6
AI-Linetype-0
 62
   154
420
    23468
370
    25
100
AcDbLine
 10
92.25650673592395
 20
-143.7213124714714
 30
0.0
 11
103.7566033869765
 21
-143.7213124714714
 31
0.0
  0
LINE
  5
87
330
79
100
AcDbEntity
  8
レイヤー 1
  6
AI-Linetype-1
 62
   154
420
    23468
370
    25
100
AcDbLine
 10
103.7566033869765
 20
-143.7213124714714
 30
0.0
 11
103.7566033869765
 21
-154.6215810822713
 31
0.0
  0
SPLINE
  5
89
330
79
100
AcDbEntity
  8
レイヤー 1
 62
   250
420
  2299925
370
     9
100
AcDbSpline
210
0.0
220
0.0
230
1.0
 70
     9
 71
     3
 72
    17
 73
    13
 74
     0
 42
0.0000000001
 43
0.0000000001
 40
0.0
 40
0.0
 40
0.0
 40
0.0
 40
1.0
 40
1.0
 40
1.0
 40
2.0
 40
2.0
 40
2.0
 40
3.0
 40
3.0
 40
3.0
 40
4.0
 40
4.0
 40
4.0
 40
4.0
 10
125.3563042248111
 20
-142.1213947345109
 30
0.0
 10
125.3563042248111
 20
-142.0655823954827
 30
0.0
 10
125.3115367259532
 20
-142.0214851732715
 30
0.0
 10
125.2563975606932
 20
-142.0214851732715
 30
0.0
 10
125.2012936732102
 20
-142.0214851732715
 30
0.0
 10
125.1564908965754
 20
-142.0655823954827
 30
0.0
 10
125.1564908965754
 20
-142.1213947345109
 30
0.0
 10
125.1564908965754
 20
-142.1765338997709
 30
0.0
 10
125.2012936732102
 20
-142.2213013986288
 30
0.0
 10
125.2563975606932
 20
-142.2213013986288
 30
0.0
 10
125.3115367259532
 20
-142.2213013986288
 30
0.0
 10
125.3563042248111
 20
-142.1765338997709
 30
0.0
 10
125.3563042248111
 20
-142.1213947345109
 30
0.0
  0
SPLINE
  5
8A
330
79
100
AcDbEntity
  8
レイヤー 1
 62
   250
420
  2299925
370
     9
100
AcDbSpline
210
0.0
220
0.0
230
1.0
 70
     9
 71
     3
 72
    17
 73
    13
 74
     0
 42
0.0000000001
 43
0.0000000001
 40
0.0
 40
0.0
 40
0.0
 40
0.0
 40
1.0
 40
1.0
 40
1.0
 40
2.0
 40
2.0
 40
2.0
 40
3.0
 40
3.0
 40
3.0
 40
4.0
 40
4.0
 40
4.0
 40
4.0
 10
125.3563042248111
 20
-154.6215810822713
 30
0.0
 10
125.3563042248111
 20
-154.5657716392507
 30
0.0
 10
125.3115367259532
 20
-154.5210041403928
 30
0.0
 10
125.2563975606932
 20
-154.5210041403928
 30
0.0
 10
125.2012936732102
 20
-154.5210041403928
 30
0.0
 10
125.1564908965754
 20
-154.5657716392507
 30
0.0
 10
125.1564908965754
 20
-154.6215810822713
 30
0.0
 10
125.1564908965754
 20
-154.6767202475312
 30
0.0
 10
125.2012936732102
 20
-154.7214851700965
 30
0.0
 10
125.2563975606932
 20
-154.7214851700965
 30
0.0
 10
125.3115367259532
 20
-154.7214851700965
 30
0.0
 10
125.3563042248111
 20
-154.6767202475312
 30
0.0
 10
125.3563042248111
 20
-154.6215810822713
 30
0.0
  0
CIRCLE
  5
8B
330
79
100
AcDbEntity
  8
レイヤー 1
 62
   250
420
  2299925
370
     9
100
AcDbCircle
 10
125.2563975606932
 20
-155.0212077387427
 30
0.0
 40
0.0999066641178353
  0
SPLINE
  5
8C
330
79
100
AcDbEntity
  8
レイヤー 1
 62
   250
420
  2299925
370
     9
100
AcDbSpline
210
0.0
220
0.0
230
1.0
 70
     9
 71
     3
 72
    17
 73
    13
 74
     0
 42
0.0000000001
 43
0.0000000001
 40
0.0
 40
0.0
 40
0.0
 40
0.0
 40
1.0
 40
1.0
 40
1.0
 40
2.0
 40
2.0
 40
2.0
 40
3.0
 40
3.0
 40
3.0
 40
4.0
 40
4.0
 40
4.0
 40
4.0
 10
121.3565451601868
 20
-159.7210190077294
 30
0.0
 10
121.3565451601868
 20
-159.6658798424694
 30
0.0
 10
121.3117776613289
 20
-159.6211123436115
 30
0.0
 10
121.256638496069
 20
-159.6211123436115
 30
0.0
 10
121.2008290530483
 20
-159.6211123436115
 30
0.0
 10
121.1560615541904
 20
-159.6658798424694
 30
0.0
 10
121.1560615541904
 20
-159.7210190077294
 30
0.0
 10
121.1560615541904
 20
-159.7761228952124
 30
0.0
 10
121.2008290530483
 20
-159.8209256718472
 30
0.0
 10
121.256638496069
 20
-159.8209256718472
 30
0.0
 10
121.3117776613289
 20
-159.8209256718472
 30
0.0
 10
121.3565451601868
 20
-159.7761228952124
 30
0.0
 10
121.3565451601868
 20
-159.7210190077294
 30
0.0
  0
SPLINE
  5
8D
330
79
100
AcDbEntity
  8
レイヤー 1
 62
   250
420
  2299925
370
     9
100
AcDbSpline
210
0.0
220
0.0
230
1.0
 70
     9
 71
     3
 72
    17
 73
    13
 74
     0
 42
0.0000000001
 43
0.0000000001
 40
0.0
 40
0.0
 40
0.0
 40
0.0
 40
1.0
 40
1.0
 40
1.0
 40
2.0
 40
2.0
 40
2.0
 40
3.0
 40
3.0
 40
3.0
 40
4.0
 40
4.0
 40
4.0
 40
4.0
 10
92.35644867781868
 20
-159.7210190077294
 30
0.0
 10
92.35644867781868
 20
-159.6658798424694
 30
0.0
 10
92.31164590118391
 20
-159.6211123436115
 30
0.0
 10
92.25650673592395
 20
-159.6211123436115
 30
0.0
 10
92.2014028484409
 20
-159.6211123436115
 30
0.0
 10
92.15660007180613
 20
-159.6658798424694
 30
0.0
 10
92.15660007180613
 20
-159.7210190077294
 30
0.0
 10
92.15660007180613
 20
-159.7761228952124
 30
0.0
 10
92.2014028484409
 20
-159.8209256718472
 30
0.0
 10
92.25650673592395
 20
-159.8209256718472
 30
0.0
 10
92.31164590118391
 20
-159.8209256718472
 30
0.0
 10
92.35644867781868
 20
-159.7761228952124
 30
0.0
 10
92.35644867781868
 20
-159.7210190077294
 30
0.0
  0
SPLINE
  5
8E
330
79
100
AcDbEntity
  8
レイヤー 1
 62
   250
420
  2299925
370
     9
100
AcDbSpline
210
0.0
220
0.0
230
1.0
 70
     9
 71
     3
 72
    17
 73
    13
 74
     0
 42
0.0000000001
 43
0.0000000001
 40
0.0
 40
0.0
 40
0.0
 40
0.0
 40
1.0
 40
1.0
 40
1.0
 40
2.0
 40
2.0
 40
2.0
 40
3.0
 40
3.0
 40
3.0
 40
4.0
 40
4.0
 40
4.0
 40
4.0
 10
88.35668961319436
 20
-142.1213947345109
 30
0.0
 10
88.35668961319436
 20
-142.0655823954827
 30
0.0
 10
88.31188683655961
 20
-142.0214851732715
 30
0.0
 10
88.25678294907653
 20
-142.0214851732715
 30
0.0
 10
88.20129100604781
 20
-142.0214851732715
 30
0.0
 10
88.15652350718991
 20
-142.0655823954827
 30
0.0
 10
88.15652350718991
 20
-142.1213947345109
 30
0.0
 10
88.15652350718991
 20
-142.1765338997709
 30
0.0
 10
88.20129100604781
 20
-142.2213013986288
 30
0.0
 10
88.25678294907653
 20
-142.2213013986288
 30
0.0
 10
88.31188683655961
 20
-142.2213013986288
 30
0.0
 10
88.35668961319436
 20
-142.1765338997709
 30
0.0
 10
88.35668961319436
 20
-142.1213947345109
 30
0.0
  0
SPLINE
  5
8F
330
79
100
AcDbEntity
  8
レイヤー 1
 62
   250
420
  2299925
370
     9
100
AcDbSpline
210
0.0
220
0.0
230
1.0
 70
     9
 71
     3
 72
    17
 73
    13
 74
     0
 42
0.0000000001
 43
0.0000000001
 40
0.0
 40
0.0
 40
0.0
 40
0.0
 40
1.0
 40
1.0
 40
1.0
 40
2.0
 40
2.0
 40
2.0
 40
3.0
 40
3.0
 40
3.0
 40
4.0
 40
4.0
 40
4.0
 40
4.0
 10
88.35668961319436
 20
-143.2210735953447
 30
0.0
 10
88.35668961319436
 20
-143.1659697078616
 30
0.0
 10
88.31188683655961
 20
-143.1211669312272
 30
0.0
 10
88.25678294907653
 20
-143.1211669312272
 30
0.0
 10
88.20129100604781
 20
-143.1211669312272
 30
0.0
 10
88.15652350718991
 20
-143.1659697078616
 30
0.0
 10
88.15652350718991
 20
-143.2210735953447
 30
0.0
 10
88.15652350718991
 20
-143.2762127606046
 30
0.0
 10
88.20129100604781
 20
-143.3209802594626
 30
0.0
 10
88.25678294907653
 20
-143.3209802594626
 30
0.0
 10
88.31188683655961
 20
-143.3209802594626
 30
0.0
 10
88.35668961319436
 20
-143.2762127606046
 30
0.0
 10
88.35668961319436
 20
-143.2210735953447
 30
0.0
  0
SPLINE
  5
90
330
79
100
AcDbEntity
  8
レイヤー 1
 62
   250
420
  2299925
370
     9
100
AcDbSpline
210
0.0
220
0.0
230
1.0
 70
     9
 71
     3
 72
    17
 73
    13
 74
     0
 42
0.0000000001
 43
0.0000000001
 40
0.0
 40
0.0
 40
0.0
 40
0.0
 40
1.0
 40
1.0
 40
1.0
 40
2.0
 40
2.0
 40
2.0
 40
3.0
 40
3.0
 40
3.0
 40
4.0
 40
4.0
 40
4.0
 40
4.0
 10
104.356748927221
 20
-159.7210190077294
 30
0.0
 10
104.356748927221
 20
-159.6658798424694
 30
0.0
 10
104.3119461505863
 20
-159.6211123436115
 30
0.0
 10
104.2564894853344
 20
-159.6211123436115
 30
0.0
 10
104.2013503200745
 20
-159.6211123436115
 30
0.0
 10
104.1565868275061
 20
-159.6658798424694
 30
0.0
 10
104.1565868275061
 20
-159.7210190077294
 30
0.0
 10
104.1565868275061
 20
-159.7761228952124
 30
0.0
 10
104.2013503200745
 20
-159.8209256718472
 30
0.0
 10
104.2564894853344
 20
-159.8209256718472
 30
0.0
 10
104.3119461505863
 20
-159.8209256718472
 30
0.0
 10
104.356748927221
 20
-159.7761228952124
 30
0.0
 10
104.356748927221
 20
-159.7210190077294
 30
0.0
  0
INSERT
  5
92
330
79
100
AcDbEntity
  8
レイヤー 1
100
AcDbBlockReference
  2
Block_1
 10
0.0
 20
0.0
 30
0.0
  0
INSERT
  5
A4
330
79
100
AcDbEntity
  8
レイヤー 1
100
AcDbBlockReference
  2
Block_4
 10
0.0
 20
0.0
 30
0.0
  0
INSERT
  5
BA
330
79
100
AcDbEntity
  8
レイヤー 1
100
AcDbBlockReference
  2
Block_7
 10
0.0
 20
0.0
 30
0.0
  0
INSERT
  5
D2
330
79
100
AcDbEntity
  8
レイヤー 1
100
AcDbBlockReference
  2
Block_10
 10
0.0
 20
0.0
 30
0.0
  0
INSERT
  5
E5
330
79
100
AcDbEntity
  8
レイヤー 1
100
AcDbBlockReference
  2
Block_13
 10
0.0
 20
0.0
 30
0.0
  0
ENDBLK
  5
7C
330
79
100
AcDbEntity
  8
0
100
AcDbBlockEnd
  0
BLOCK
  5
93
330
91
100
AcDbEntity
  8
0
100
AcDbBlockBegin
  2
Block_1
 70
     0
 10
0.0
 20
0.0
 30
0.0
  3
Block_1
  1

  0
LINE
  5
95
330
91
100
AcDbEntity
  8
レイヤー 1
 62
   250
420
  2299925
370
     9
100
AcDbLine
 10
104.2564894853344
 20
-159.7210190077294
 30
0.0
 11
121.256638496069
 21
-159.7210190077294
 31
0.0
  0
LINE
  5
96
330
91
100
AcDbEntity
  8
レイヤー 1
 62
   250
420
  2299925
370
     9
100
AcDbLine
 10
121.256638496069
 20
-157.5609254517268
 30
0.0
 11
121.256638496069
 21
-160.7214614822059
 31
0.0
  0
INSERT
  5
98
330
91
100
AcDbEntity
  8
レイヤー 1
100
AcDbBlockReference
  2
Block_2
 10
0.0
 20
0.0
 30
0.0
  0
ENDBLK
  5
94
330
91
100
AcDbEntity
  8
0
100
AcDbBlockEnd
  0
BLOCK
  5
99
330
97
100
AcDbEntity
  8
0
100
AcDbBlockBegin
  2
Block_2
 70
     0
 10
0.0
 20
0.0
 30
0.0
  3
Block_2
  1

  0
INSERT
  5
9C
330
97
100
AcDbEntity
  8
レイヤー 1
100
AcDbBlockReference
  2
Block_3
 10
0.0
 20
0.0
 30
0.0
  0
ENDBLK
  5
9A
330
97
100
AcDbEntity
  8
0
100
AcDbBlockEnd
  0
BLOCK
  5
9D
330
9B
100
AcDbEntity
  8
0
100
AcDbBlockBegin
  2
Block_3
 70
     0
 10
0.0
 20
0.0
 30
0.0
  3
Block_3
  1

  0
SPLINE
  5
9F
330
9B
100
AcDbEntity
  8
レイヤー 1
100
AcDbSpline
210
0.0
220
0.0
230
1.0
 70
    11
 71
     3
 72
    26
 73
    22
 74
     0
 42
0.0000000001
 43
0.0000000001
 40
0.0
 40
0.0
 40
0.0
 40
0.0
 40
1.0
 40
1.0
 40
1.0
 40
2.0
 40
2.0
 40
2.0
 40
3.0
 40
3.0
 40
3.0
 40
4.0
 40
4.0
 40
4.0
 40
5.0
 40
5.0
 40
5.0
 40
6.0
 40
6.0
 40
6.0
 40
7.0
 40
7.0
 40
7.0
 40
7.0
 10
112.2143391646547
 20
-159.0755614836686
 30
0.0
 10
112.2143391646547
 20
-159.0755614836686
 30
0.0
 10
112.2143391646547
 20
-157.971408380646
 30
0.0
 10
112.2143391646547
 20
-157.971408380646
 30
0.0
 10
112.2143391646547
 20
-157.971408380646
 30
0.0
 10
111.9328748635098
 20
-157.971408380646
 30
0.0
 10
111.9328748635098
 20
-157.971408380646
 30
0.0
 10
111.9328748635098
 20
-157.971408380646
 30
0.0
 10
111.9328748635098
 20
-157.8232692747803
 30
0.0
 10
111.9328748635098
 20
-157.8232692747803
 30
0.0
 10
112.2160617123973
 20
-157.8084553641937
 30
0.0
 10
112.2556803104777
 20
-157.6455023477414
 30
0.0
 10
112.28082950752
 20
-157.5311251776311
 30
0.0
 10
112.28082950752
 20
-157.5311251776311
 30
0.0
 10
112.4055419640861
 20
-157.5311251776311
 30
0.0
 10
112.4055419640861
 20
-157.5311251776311
 30
0.0
 10
112.4055419640861
 20
-157.5311251776311
 30
0.0
 10
112.4055419640861
 20
-159.0755614836686
 30
0.0
 10
112.4055419640861
 20
-159.0755614836686
 30
0.0
 10
112.4055419640861
 20
-159.0755614836686
 30
0.0
 10
112.2143391646547
 20
-159.0755614836686
 30
0.0
 10
112.2143391646547
 20
-159.0755614836686
 30
0.0
  0
HATCH
  5
A0
330
9B
100
AcDbEntity
  8
レイヤー 1
 62
   250
420
  2299925
440
 33554687
100
AcDbHatch
 10
0.0
 20
0.0
 30
0.0
210
0.0
220
0.0
230
1.0
  2
SOLID
 70
     1
 71
     1
 91
        1
 92
        1
 93
        1
 72
     4
 94
        3
 73
     0
 74
     0
 95
       26
 96
       22
 40
0.0
 40
0.0
 40
0.0
 40
0.0
 40
1.0
 40
1.0
 40
1.0
 40
2.0
 40
2.0
 40
2.0
 40
3.0
 40
3.0
 40
3.0
 40
4.0
 40
4.0
 40
4.0
 40
5.0
 40
5.0
 40
5.0
 40
6.0
 40
6.0
 40
6.0
 40
7.0
 40
7.0
 40
7.0
 40
7.0
 10
112.2143391646547
 20
-159.0755614836686
 10
112.2143391646547
 20
-159.0755614836686
 10
112.2143391646547
 20
-157.971408380646
 10
112.2143391646547
 20
-157.971408380646
 10
112.2143391646547
 20
-157.971408380646
 10
111.9328748635098
 20
-157.971408380646
 10
111.9328748635098
 20
-157.971408380646
 10
111.9328748635098
 20
-157.971408380646
 10
111.9328748635098
 20
-157.8232692747803
 10
111.9328748635098
 20
-157.8232692747803
 10
112.2160617123973
 20
-157.8084553641937
 10
112.2556803104777
 20
-157.6455023477414
 10
112.28082950752
 20
-157.5311251776311
 10
112.28082950752
 20
-157.5311251776311
 10
112.4055419640861
 20
-157.5311251776311
 10
112.4055419640861
 20
-157.5311251776311
 10
112.4055419640861
 20
-157.5311251776311
 10
112.4055419640861
 20
-159.0755614836686
 10
112.4055419640861
 20
-159.0755614836686
 10
112.4055419640861
 20
-159.0755614836686
 10
112.2143391646547
 20
-159.0755614836686
 10
112.2143391646547
 20
-159.0755614836686
 97
        0
 97
        1
330
9F
 75
     2
 76
     1
 98
        1
 10
0.0
 20
0.0
450
        0
451
        0
460
0.0
461
0.0
452
        0
462
0.0
453
        0
470

  0
SPLINE
  5
A1
330
9B
100
AcDbEntity
  8
レイヤー 1
100
AcDbSpline
210
0.0
220
0.0
230
1.0
 70
     9
 71
     3
 72
    26
 73
    22
 74
     0
 42
0.0000000001
 43
0.0000000001
 40
0.0
 40
0.0
 40
0.0
 40
0.0
 40
1.0
 40
1.0
 40
1.0
 40
2.0
 40
2.0
 40
2.0
 40
3.0
 40
3.0
 40
3.0
 40
4.0
 40
4.0
 40
4.0
 40
5.0
 40
5.0
 40
5.0
 40
6.0
 40
6.0
 40
6.0
 40
7.0
 40
7.0
 40
7.0
 40
7.0
 10
113.1817219769129
 20
-159.0755614836686
 30
0.0
 10
113.1817219769129
 20
-159.0755614836686
 30
0.0
 10
112.9798393814772
 20
-159.0755614836686
 30
0.0
 10
112.9798393814772
 20
-159.0755614836686
 30
0.0
 10
113.0015434830343
 20
-158.7665364186417
 30
0.0
 10
113.1655300281322
 20
-158.2483940576601
 30
0.0
 10
113.5117621243998
 20
-157.7426540404254
 30
0.0
 10
113.5117621243998
 20
-157.7426540404254
 30
0.0
 10
112.7975938303075
 20
-157.7426540404254
 30
0.0
 10
112.7975938303075
 20
-157.7426540404254
 30
0.0
 10
112.7975938303075
 20
-157.7426540404254
 30
0.0
 10
112.7975938303075
 20
-157.5311251776311
 30
0.0
 10
112.7975938303075
 20
-157.5311251776311
 30
0.0
 10
112.7975938303075
 20
-157.5311251776311
 30
0.0
 10
113.7136447198355
 20
-157.5311251776311
 30
0.0
 10
113.7136447198355
 20
-157.5311251776311
 30
0.0
 10
113.7136447198355
 20
-157.5311251776311
 30
0.0
 10
113.7136447198355
 20
-157.7426540404254
 30
0.0
 10
113.7136447198355
 20
-157.7426540404254
 30
0.0
 10
113.4380370810155
 20
-158.0327310802835
 30
0.0
 10
113.210660778989
 20
-158.6249429941979
 30
0.0
 10
113.1817219769129
 20
-159.0755614836686
 30
0.0
  0
HATCH
  5
A2
330
9B
100
AcDbEntity
  8
レイヤー 1
 62
   250
420
  2299925
440
 33554687
100
AcDbHatch
 10
0.0
 20
0.0
 30
0.0
210
0.0
220
0.0
230
1.0
  2
SOLID
 70
     1
 71
     1
 91
        1
 92
        1
 93
        1
 72
     4
 94
        3
 73
     0
 74
     0
 95
       26
 96
       22
 40
0.0
 40
0.0
 40
0.0
 40
0.0
 40
1.0
 40
1.0
 40
1.0
 40
2.0
 40
2.0
 40
2.0
 40
3.0
 40
3.0
 40
3.0
 40
4.0
 40
4.0
 40
4.0
 40
5.0
 40
5.0
 40
5.0
 40
6.0
 40
6.0
 40
6.0
 40
7.0
 40
7.0
 40
7.0
 40
7.0
 10
113.1817219769129
 20
-159.0755614836686
 10
113.1817219769129
 20
-159.0755614836686
 10
112.9798393814772
 20
-159.0755614836686
 10
112.9798393814772
 20
-159.0755614836686
 10
113.0015434830343
 20
-158.7665364186417
 10
113.1655300281322
 20
-158.2483940576601
 10
113.5117621243998
 20
-157.7426540404254
 10
113.5117621243998
 20
-157.7426540404254
 10
112.7975938303075
 20
-157.7426540404254
 10
112.7975938303075
 20
-157.7426540404254
 10
112.7975938303075
 20
-157.7426540404254
 10
112.7975938303075
 20
-157.5311251776311
 10
112.7975938303075
 20
-157.5311251776311
 10
112.7975938303075
 20
-157.5311251776311
 10
113.7136447198355
 20
-157.5311251776311
 10
113.7136447198355
 20
-157.5311251776311
 10
113.7136447198355
 20
-157.5311251776311
 10
113.7136447198355
 20
-157.7426540404254
 10
113.7136447198355
 20
-157.7426540404254
 10
113.4380370810155
 20
-158.0327310802835
 10
113.210660778989
 20
-158.6249429941979
 10
113.1817219769129
 20
-159.0755614836686
 97
        0
 97
        1
330
A1
 75
     2
 76
     1
 98
        1
 10
0.0
 20
0.0
450
        0
451
        0
460
0.0
461
0.0
452
        0
462
0.0
453
        0
470

  0
ENDBLK
  5
9E
330
9B
100
AcDbEntity
  8
0
100
AcDbBlockEnd
  0
BLOCK
  5
A5
330
A3
100
AcDbEntity
  8
0
100
AcDbBlockBegin
  2
Block_4
 70
     0
 10
0.0
 20
0.0
 30
0.0
  3
Block_4
  1

  0
LINE
  5
A7
330
A3
100
AcDbEntity
  8
レイヤー 1
 62
   250
420
  2299925
370
     9
100
AcDbLine
 10
88.25678294907653
 20
-142.1213947345109
 30
0.0
 11
88.25678294907653
 21
-141.1209522600344
 31
0.0
  0
LINE
  5
A8
330
A3
100
AcDbEntity
  8
レイヤー 1
 62
   250
420
  2299925
370
     9
100
AcDbLine
 10
88.25678294907653
 20
-142.1213947345109
 30
0.0
 11
88.25678294907653
 21
-144.2208457920606
 31
0.0
  0
LINE
  5
A9
330
A3
100
AcDbEntity
  8
レイヤー 1
 62
   250
420
  2299925
370
     9
100
AcDbLine
 10
89.71647152294821
 20
-142.1213947345109
 30
0.0
 11
87.25630519682306
 21
-142.1213947345109
 31
0.0
  0
LINE
  5
AA
330
A3
100
AcDbEntity
  8
レイヤー 1
 62
   250
420
  2299925
370
     9
100
AcDbLine
 10
89.71647152294821
 20
-143.2210735953447
 30
0.0
 11
87.25630519682306
 21
-143.2210735953447
 31
0.0
  0
INSERT
  5
AC
330
A3
100
AcDbEntity
  8
レイヤー 1
100
AcDbBlockReference
  2
Block_5
 10
0.0
 20
0.0
 30
0.0
  0
ENDBLK
  5
A6
330
A3
100
AcDbEntity
  8
0
100
AcDbBlockEnd
  0
BLOCK
  5
AD
330
AB
100
AcDbEntity
  8
0
100
AcDbBlockBegin
  2
Block_5
 70
     0
 10
0.0
 20
0.0
 30
0.0
  3
Block_5
  1

  0
INSERT
  5
B0
330
AB
100
AcDbEntity
  8
レイヤー 1
100
AcDbBlockReference
  2
Block_6
 10
0.0
 20
0.0
 30
0.0
  0
ENDBLK
  5
AE
330
AB
100
AcDbEntity
  8
0
100
AcDbBlockEnd
  0
BLOCK
  5
B1
330
AF
100
AcDbEntity
  8
0
100
AcDbBlockBegin
  2
Block_6
 70
     0
 10
0.0
 20
0.0
 30
0.0
  3
Block_6
  1

  0
SPLINE
  5
B3
330
AF
100
AcDbEntity
  8
レイヤー 1
100
AcDbSpline
210
0.0
220
0.0
230
1.0
 70
    11
 71
     3
 72
    26
 73
    22
 74
     0
 42
0.0000000001
 43
0.0000000001
 40
0.0
 40
0.0
 40
0.0
 40
0.0
 40
1.0
 40
1.0
 40
1.0
 40
2.0
 40
2.0
 40
2.0
 40
3.0
 40
3.0
 40
3.0
 40
4.0
 40
4.0
 40
4.0
 40
5.0
 40
5.0
 40
5.0
 40
6.0
 40
6.0
 40
6.0
 40
7.0
 40
7.0
 40
7.0
 40
7.0
 10
87.61015622809747
 20
-140.8961371175537
 30
0.0
 10
87.61015622809747
 20
-140.8961371175537
 30
0.0
 10
86.5060031250749
 20
-140.8961371175537
 30
0.0
 10
86.5060031250749
 20
-140.8961371175537
 30
0.0
 10
86.5060031250749
 20
-140.8961371175537
 30
0.0
 10
86.5060031250749
 20
-141.1776014186986
 30
0.0
 10
86.5060031250749
 20
-141.1776014186986
 30
0.0
 10
86.5060031250749
 20
-141.1776014186986
 30
0.0
 10
86.35786401920915
 20
-141.1776014186986
 30
0.0
 10
86.35786401920915
 20
-141.1776014186986
 30
0.0
 10
86.34305010862258
 20
-140.8944145698111
 30
0.0
 10
86.18009709217025
 20
-140.8547959717307
 30
0.0
 10
86.06571992205998
 20
-140.8296467746884
 30
0.0
 10
86.06571992205998
 20
-140.8296467746884
 30
0.0
 10
86.06571992205998
 20
-140.7049343181224
 30
0.0
 10
86.06571992205998
 20
-140.7049343181224
 30
0.0
 10
86.06571992205998
 20
-140.7049343181224
 30
0.0
 10
87.61015622809747
 20
-140.7049343181224
 30
0.0
 10
87.61015622809747
 20
-140.7049343181224
 30
0.0
 10
87.61015622809747
 20
-140.7049343181224
 30
0.0
 10
87.61015622809747
 20
-140.8961371175537
 30
0.0
 10
87.61015622809747
 20
-140.8961371175537
 30
0.0
  0
HATCH
  5
B4
330
AF
100
AcDbEntity
  8
レイヤー 1
 62
   250
420
  2299925
440
 33554687
100
AcDbHatch
 10
0.0
 20
0.0
 30
0.0
210
0.0
220
0.0
230
1.0
  2
SOLID
 70
     1
 71
     1
 91
        1
 92
        1
 93
        1
 72
     4
 94
        3
 73
     0
 74
     0
 95
       26
 96
       22
 40
0.0
 40
0.0
 40
0.0
 40
0.0
 40
1.0
 40
1.0
 40
1.0
 40
2.0
 40
2.0
 40
2.0
 40
3.0
 40
3.0
 40
3.0
 40
4.0
 40
4.0
 40
4.0
 40
5.0
 40
5.0
 40
5.0
 40
6.0
 40
6.0
 40
6.0
 40
7.0
 40
7.0
 40
7.0
 40
7.0
 10
87.61015622809747
 20
-140.8961371175537
 10
87.61015622809747
 20
-140.8961371175537
 10
86.5060031250749
 20
-140.8961371175537
 10
86.5060031250749
 20
-140.8961371175537
 10
86.5060031250749
 20
-140.8961371175537
 10
86.5060031250749
 20
-141.1776014186986
 10
86.5060031250749
 20
-141.1776014186986
 10
86.5060031250749
 20
-141.1776014186986
 10
86.35786401920915
 20
-141.1776014186986
 10
86.35786401920915
 20
-141.1776014186986
 10
86.34305010862258
 20
-140.8944145698111
 10
86.18009709217025
 20
-140.8547959717307
 10
86.06571992205998
 20
-140.8296467746884
 10
86.06571992205998
 20
-140.8296467746884
 10
86.06571992205998
 20
-140.7049343181224
 10
86.06571992205998
 20
-140.7049343181224
 10
86.06571992205998
 20
-140.7049343181224
 10
87.61015622809747
 20
-140.7049343181224
 10
87.61015622809747
 20
-140.7049343181224
 10
87.61015622809747
 20
-140.7049343181224
 10
87.61015622809747
 20
-140.8961371175537
 10
87.61015622809747
 20
-140.8961371175537
 97
        0
 97
        1
330
B3
 75
     2
 76
     1
 98
        1
 10
0.0
 20
0.0
450
        0
451
        0
460
0.0
461
0.0
452
        0
462
0.0
453
        0
470

  0
SPLINE
  5
B5
330
AF
100
AcDbEntity
  8
レイヤー 1
100
AcDbSpline
210
0.0
220
0.0
230
1.0
 70
    11
 71
     3
 72
    17
 73
    13
 74
     0
 42
0.0000000001
 43
0.0000000001
 40
0.0
 40
0.0
 40
0.0
 40
0.0
 40
1.0
 40
1.0
 40
1.0
 40
2.0
 40
2.0
 40
2.0
 40
3.0
 40
3.0
 40
3.0
 40
4.0
 40
4.0
 40
4.0
 40
4.0
 10
87.61015622809747
 20
-140.2281331029638
 30
0.0
 10
87.61015622809747
 20
-140.2281331029638
 30
0.0
 10
87.35831974812571
 20
-140.2281331029638
 30
0.0
 10
87.35831974812571
 20
-140.2281331029638
 30
0.0
 10
87.35831974812571
 20
-140.2281331029638
 30
0.0
 10
87.35831974812571
 20
-140.0135036542327
 30
0.0
 10
87.35831974812571
 20
-140.0135036542327
 30
0.0
 10
87.35831974812571
 20
-140.0135036542327
 30
0.0
 10
87.61015622809747
 20
-140.0135036542327
 30
0.0
 10
87.61015622809747
 20
-140.0135036542327
 30
0.0
 10
87.61015622809747
 20
-140.0135036542327
 30
0.0
 10
87.61015622809747
 20
-140.2281331029638
 30
0.0
 10
87.61015622809747
 20
-140.2281331029638
 30
0.0
  0
HATCH
  5
B6
330
AF
100
AcDbEntity
  8
レイヤー 1
 62
   250
420
  2299925
440
 33554687
100
AcDbHatch
 10
0.0
 20
0.0
 30
0.0
210
0.0
220
0.0
230
1.0
  2
SOLID
 70
     1
 71
     1
 91
        1
 92
        1
 93
        1
 72
     4
 94
        3
 73
     0
 74
     0
 95
       17
 96
       13
 40
0.0
 40
0.0
 40
0.0
 40
0.0
 40
1.0
 40
1.0
 40
1.0
 40
2.0
 40
2.0
 40
2.0
 40
3.0
 40
3.0
 40
3.0
 40
4.0
 40
4.0
 40
4.0
 40
4.0
 10
87.61015622809747
 20
-140.2281331029638
 10
87.61015622809747
 20
-140.2281331029638
 10
87.35831974812571
 20
-140.2281331029638
 10
87.35831974812571
 20
-140.2281331029638
 10
87.35831974812571
 20
-140.2281331029638
 10
87.35831974812571
 20
-140.0135036542327
 10
87.35831974812571
 20
-140.0135036542327
 10
87.35831974812571
 20
-140.0135036542327
 10
87.61015622809747
 20
-140.0135036542327
 10
87.61015622809747
 20
-140.0135036542327
 10
87.61015622809747
 20
-140.0135036542327
 10
87.61015622809747
 20
-140.2281331029638
 10
87.61015622809747
 20
-140.2281331029638
 97
        0
 97
        1
330
B5
 75
     2
 76
     1
 98
        1
 10
0.0
 20
0.0
450
        0
451
        0
460
0.0
461
0.0
452
        0
462
0.0
453
        0
470

  0
SPLINE
  5
B7
330
AF
100
AcDbEntity
  8
レイヤー 1
100
AcDbSpline
210
0.0
220
0.0
230
1.0
 70
    11
 71
     3
 72
    26
 73
    22
 74
     0
 42
0.0000000001
 43
0.0000000001
 40
0.0
 40
0.0
 40
0.0
 40
0.0
 40
1.0
 40
1.0
 40
1.0
 40
2.0
 40
2.0
 40
2.0
 40
3.0
 40
3.0
 40
3.0
 40
4.0
 40
4.0
 40
4.0
 40
5.0
 40
5.0
 40
5.0
 40
6.0
 40
6.0
 40
6.0
 40
7.0
 40
7.0
 40
7.0
 40
7.0
 10
87.61015622809747
 20
-139.4274929121917
 30
0.0
 10
87.61015622809747
 20
-139.4274929121917
 30
0.0
 10
86.5060031250749
 20
-139.4274929121917
 30
0.0
 10
86.5060031250749
 20
-139.4274929121917
 30
0.0
 10
86.5060031250749
 20
-139.4274929121917
 30
0.0
 10
86.5060031250749
 20
-139.7089572133366
 30
0.0
 10
86.5060031250749
 20
-139.7089572133366
 30
0.0
 10
86.5060031250749
 20
-139.7089572133366
 30
0.0
 10
86.35786401920915
 20
-139.7089572133366
 30
0.0
 10
86.35786401920915
 20
-139.7089572133366
 30
0.0
 10
86.34305010862258
 20
-139.4257703644491
 30
0.0
 10
86.18009709217025
 20
-139.3861517663687
 30
0.0
 10
86.06571992205998
 20
-139.3610025693264
 30
0.0
 10
86.06571992205998
 20
-139.3610025693264
 30
0.0
 10
86.06571992205998
 20
-139.2362901127603
 30
0.0
 10
86.06571992205998
 20
-139.2362901127603
 30
0.0
 10
86.06571992205998
 20
-139.2362901127603
 30
0.0
 10
87.61015622809747
 20
-139.2362901127603
 30
0.0
 10
87.61015622809747
 20
-139.2362901127603
 30
0.0
 10
87.61015622809747
 20
-139.2362901127603
 30
0.0
 10
87.61015622809747
 20
-139.4274929121917
 30
0.0
 10
87.61015622809747
 20
-139.4274929121917
 30
0.0
  0
HATCH
  5
B8
330
AF
100
AcDbEntity
  8
レイヤー 1
 62
   250
420
  2299925
440
 33554687
100
AcDbHatch
 10
0.0
 20
0.0
 30
0.0
210
0.0
220
0.0
230
1.0
  2
SOLID
 70
     1
 71
     1
 91
        1
 92
        1
 93
        1
 72
     4
 94
        3
 73
     0
 74
     0
 95
       26
 96
       22
 40
0.0
 40
0.0
 40
0.0
 40
0.0
 40
1.0
 40
1.0
 40
1.0
 40
2.0
 40
2.0
 40
2.0
 40
3.0
 40
3.0
 40
3.0
 40
4.0
 40
4.0
 40
4.0
 40
5.0
 40
5.0
 40
5.0
 40
6.0
 40
6.0
 40
6.0
 40
7.0
 40
7.0
 40
7.0
 40
7.0
 10
87.61015622809747
 20
-139.4274929121917
 10
87.61015622809747
 20
-139.4274929121917
 10
86.5060031250749
 20
-139.4274929121917
 10
86.5060031250749
 20
-139.4274929121917
 10
86.5060031250749
 20
-139.4274929121917
 10
86.5060031250749
 20
-139.7089572133366
 10
86.5060031250749
 20
-139.7089572133366
 10
86.5060031250749
 20
-139.7089572133366
 10
86.35786401920915
 20
-139.7089572133366
 10
86.35786401920915
 20
-139.7089572133366
 10
86.34305010862258
 20
-139.4257703644491
 10
86.18009709217025
 20
-139.3861517663687
 10
86.06571992205998
 20
-139.3610025693264
 10
86.06571992205998
 20
-139.3610025693264
 10
86.06571992205998
 20
-139.2362901127603
 10
86.06571992205998
 20
-139.2362901127603
 10
86.06571992205998
 20
-139.2362901127603
 10
87.61015622809747
 20
-139.2362901127603
 10
87.61015622809747
 20
-139.2362901127603
 10
87.61015622809747
 20
-139.2362901127603
 10
87.61015622809747
 20
-139.4274929121917
 10
87.61015622809747
 20
-139.4274929121917
 97
        0
 97
        1
330
B7
 75
     2
 76
     1
 98
        1
 10
0.0
 20
0.0
450
        0
451
        0
460
0.0
461
0.0
452
        0
462
0.0
453
        0
470

  0
ENDBLK
  5
B2
330
AF
100
AcDbEntity
  8
0
100
AcDbBlockEnd
  0
BLOCK
  5
BB
330
B9
100
AcDbEntity
  8
0
100
AcDbBlockBegin
  2
Block_7
 70
     0
 10
0.0
 20
0.0
 30
0.0
  3
Block_7
  1

  0
LINE
  5
BD
330
B9
100
AcDbEntity
  8
レイヤー 1
 62
   250
420
  2299925
370
     9
100
AcDbLine
 10
125.2563975606932
 20
-155.0212077387427
 30
0.0
 11
125.2563975606932
 21
-156.0209799354586
 31
0.0
  0
LINE
  5
BE
330
B9
100
AcDbEntity
  8
レイヤー 1
 62
   250
420
  2299925
370
     9
100
AcDbLine
 10
125.2563975606932
 20
-154.6215810822713
 30
0.0
 11
125.2563975606932
 21
-155.0212077387427
 31
0.0
  0
LINE
  5
BF
330
B9
100
AcDbEntity
  8
レイヤー 1
 62
   250
420
  2299925
370
     9
100
AcDbLine
 10
123.7963562090531
 20
-154.6215810822713
 30
0.0
 11
126.2561697574092
 21
-154.6215810822713
 31
0.0
  0
LINE
  5
C0
330
B9
100
AcDbEntity
  8
レイヤー 1
 62
   250
420
  2299925
370
     9
100
AcDbLine
 10
123.7963562090531
 20
-155.0212077387427
 30
0.0
 11
126.2561697574092
 21
-155.0212077387427
 31
0.0
  0
INSERT
  5
C2
330
B9
100
AcDbEntity
  8
レイヤー 1
100
AcDbBlockReference
  2
Block_8
 10
0.0
 20
0.0
 30
0.0
  0
ENDBLK
  5
BC
330
B9
100
AcDbEntity
  8
0
100
AcDbBlockEnd
  0
BLOCK
  5
C3
330
C1
100
AcDbEntity
  8
0
100
AcDbBlockBegin
  2
Block_8
 70
     0
 10
0.0
 20
0.0
 30
0.0
  3
Block_8
  1

  0
INSERT
  5
C6
330
C1
100
AcDbEntity
  8
レイヤー 1
100
AcDbBlockReference
  2
Block_9
 10
0.0
 20
0.0
 30
0.0
  0
ENDBLK
  5
C4
330
C1
100
AcDbEntity
  8
0
100
AcDbBlockEnd
  0
BLOCK
  5
C7
330
C5
100
AcDbEntity
  8
0
100
AcDbBlockBegin
  2
Block_9
 70
     0
 10
0.0
 20
0.0
 30
0.0
  3
Block_9
  1

  0
SPLINE
  5
C9
330
C5
100
AcDbEntity
  8
レイヤー 1
100
AcDbSpline
210
0.0
220
0.0
230
1.0
 70
     9
 71
     3
 72
    17
 73
    13
 74
     0
 42
0.0000000001
 43
0.0000000001
 40
0.0
 40
0.0
 40
0.0
 40
0.0
 40
1.0
 40
1.0
 40
1.0
 40
2.0
 40
2.0
 40
2.0
 40
3.0
 40
3.0
 40
3.0
 40
4.0
 40
4.0
 40
4.0
 40
4.0
 10
122.5930338235184
 20
-155.579478585237
 30
0.0
 10
122.5930338235184
 20
-155.792040976677
 30
0.0
 10
122.8765651819545
 20
-155.8320040843059
 30
0.0
 10
123.221419240028
 20
-155.8320040843059
 30
0.0
 10
123.5407795915106
 20
-155.8320040843059
 30
0.0
 10
123.849460146989
 20
-155.8013427344872
 30
0.0
 10
123.849460146989
 20
-155.579478585237
 30
0.0
 10
123.849460146989
 20
-155.3682942319912
 30
0.0
 10
123.5683403553926
 20
-155.3269530861682
 30
0.0
 10
123.221419240028
 20
-155.3269530861682
 30
0.0
 10
122.9017143789968
 20
-155.3269530861682
 30
0.0
 10
122.5930338235184
 20
-155.3593369837296
 30
0.0
 10
122.5930338235184
 20
-155.579478585237
 30
0.0
  0
SPLINE
  5
CA
330
C5
100
AcDbEntity
  8
レイヤー 1
100
AcDbSpline
210
0.0
220
0.0
230
1.0
 70
     9
 71
     3
 72
    29
 73
    25
 74
     0
 42
0.0000000001
 43
0.0000000001
 40
0.0
 40
0.0
 40
0.0
 40
0.0
 40
1.0
 40
1.0
 40
1.0
 40
2.0
 40
2.0
 40
2.0
 40
3.0
 40
3.0
 40
3.0
 40
4.0
 40
4.0
 40
4.0
 40
5.0
 40
5.0
 40
5.0
 40
6.0
 40
6.0
 40
6.0
 40
7.0
 40
7.0
 40
7.0
 40
8.0
 40
8.0
 40
8.0
 40
8.0
 10
123.8156982112336
 20
-155.2404811894885
 30
0.0
 10
124.0251600167368
 20
-155.3324652389447
 30
0.0
 10
124.0441080419056
 20
-155.4802598352619
 30
0.0
 10
124.0441080419056
 20
-155.579478585237
 30
0.0
 10
124.0441080419056
 20
-155.71659338555
 30
0.0
 10
123.9975992528547
 20
-155.8371717275337
 30
0.0
 10
123.8156982112336
 20
-155.9184759809856
 30
0.0
 10
123.6210503163169
 20
-156.006670425408
 30
0.0
 10
123.3843722564803
 20
-156.0228623741887
 30
0.0
 10
123.221419240028
 20
-156.0228623741887
 30
0.0
 10
123.0774142487445
 20
-156.0228623741887
 30
0.0
 10
122.8255777687728
 20
-156.0087374826992
 30
0.0
 10
122.6267957592738
 20
-155.9184759809856
 30
0.0
 10
122.4238796351926
 20
-155.8264919315295
 30
0.0
 10
122.4004529858929
 20
-155.6893771312165
 30
0.0
 10
122.4004529858929
 20
-155.579478585237
 30
0.0
 10
122.4004529858929
 20
-155.4440863326667
 30
0.0
 10
122.4448947176526
 20
-155.3214409333918
 30
0.0
 10
122.6267957592738
 20
-155.2404811894885
 30
0.0
 10
122.8193765968993
 20
-155.1557318405513
 30
0.0
 10
123.0477864275714
 20
-155.1357502867369
 30
0.0
 10
123.221419240028
 20
-155.1357502867369
 30
0.0
 10
123.3926404856449
 20
-155.1357502867369
 30
0.0
 10
123.6231173736081
 20
-155.1540092928087
 30
0.0
 10
123.8156982112336
 20
-155.2404811894885
 30
0.0
  0
HATCH
  5
CB
330
C5
100
AcDbEntity
  8
レイヤー 1
 62
   250
420
  2299925
440
 33554687
100
AcDbHatch
 10
0.0
 20
0.0
 30
0.0
210
0.0
220
0.0
230
1.0
  2
SOLID
 70
     1
 71
     1
 91
        2
 92
        1
 93
        1
 72
     4
 94
        3
 73
     0
 74
     0
 95
       17
 96
       13
 40
0.0
 40
0.0
 40
0.0
 40
0.0
 40
1.0
 40
1.0
 40
1.0
 40
2.0
 40
2.0
 40
2.0
 40
3.0
 40
3.0
 40
3.0
 40
4.0
 40
4.0
 40
4.0
 40
4.0
 10
122.5930338235184
 20
-155.579478585237
 10
122.5930338235184
 20
-155.792040976677
 10
122.8765651819545
 20
-155.8320040843059
 10
123.221419240028
 20
-155.8320040843059
 10
123.5407795915106
 20
-155.8320040843059
 10
123.849460146989
 20
-155.8013427344872
 10
123.849460146989
 20
-155.579478585237
 10
123.849460146989
 20
-155.3682942319912
 10
123.5683403553926
 20
-155.3269530861682
 10
123.221419240028
 20
-155.3269530861682
 10
122.9017143789968
 20
-155.3269530861682
 10
122.5930338235184
 20
-155.3593369837296
 10
122.5930338235184
 20
-155.579478585237
 97
        0
 97
        1
330
C9
 92
        1
 93
        1
 72
     4
 94
        3
 73
     0
 74
     0
 95
       29
 96
       25
 40
0.0
 40
0.0
 40
0.0
 40
0.0
 40
1.0
 40
1.0
 40
1.0
 40
2.0
 40
2.0
 40
2.0
 40
3.0
 40
3.0
 40
3.0
 40
4.0
 40
4.0
 40
4.0
 40
5.0
 40
5.0
 40
5.0
 40
6.0
 40
6.0
 40
6.0
 40
7.0
 40
7.0
 40
7.0
 40
8.0
 40
8.0
 40
8.0
 40
8.0
 10
123.8156982112336
 20
-155.2404811894885
 10
124.0251600167368
 20
-155.3324652389447
 10
124.0441080419056
 20
-155.4802598352619
 10
124.0441080419056
 20
-155.579478585237
 10
124.0441080419056
 20
-155.71659338555
 10
123.9975992528547
 20
-155.8371717275337
 10
123.8156982112336
 20
-155.9184759809856
 10
123.6210503163169
 20
-156.006670425408
 10
123.3843722564803
 20
-156.0228623741887
 10
123.221419240028
 20
-156.0228623741887
 10
123.0774142487445
 20
-156.0228623741887
 10
122.8255777687728
 20
-156.0087374826992
 10
122.6267957592738
 20
-155.9184759809856
 10
122.4238796351926
 20
-155.8264919315295
 10
122.4004529858929
 20
-155.6893771312165
 10
122.4004529858929
 20
-155.579478585237
 10
122.4004529858929
 20
-155.4440863326667
 10
122.4448947176526
 20
-155.3214409333918
 10
122.6267957592738
 20
-155.2404811894885
 10
122.8193765968993
 20
-155.1557318405513
 10
123.0477864275714
 20
-155.1357502867369
 10
123.221419240028
 20
-155.1357502867369
 10
123.3926404856449
 20
-155.1357502867369
 10
123.6231173736081
 20
-155.1540092928087
 10
123.8156982112336
 20
-155.2404811894885
 97
        0
 97
        1
330
CA
 75
     2
 76
     1
 98
        1
 10
0.0
 20
0.0
450
        0
451
        0
460
0.0
461
0.0
452
        0
462
0.0
453
        0
470

  0
SPLINE
  5
CC
330
C5
100
AcDbEntity
  8
レイヤー 1
100
AcDbSpline
210
0.0
220
0.0
230
1.0
 70
    11
 71
     3
 72
    17
 73
    13
 74
     0
 42
0.0000000001
 43
0.0000000001
 40
0.0
 40
0.0
 40
0.0
 40
0.0
 40
1.0
 40
1.0
 40
1.0
 40
2.0
 40
2.0
 40
2.0
 40
3.0
 40
3.0
 40
3.0
 40
4.0
 40
4.0
 40
4.0
 40
4.0
 10
123.9934651382724
 20
-154.9528157164701
 30
0.0
 10
123.9934651382724
 20
-154.9528157164701
 30
0.0
 10
123.7416286583007
 20
-154.9528157164701
 30
0.0
 10
123.7416286583007
 20
-154.9528157164701
 30
0.0
 10
123.7416286583007
 20
-154.9528157164701
 30
0.0
 10
123.7416286583007
 20
-154.738186267739
 30
0.0
 10
123.7416286583007
 20
-154.738186267739
 30
0.0
 10
123.7416286583007
 20
-154.738186267739
 30
0.0
 10
123.9934651382724
 20
-154.738186267739
 30
0.0
 10
123.9934651382724
 20
-154.738186267739
 30
0.0
 10
123.9934651382724
 20
-154.738186267739
 30
0.0
 10
123.9934651382724
 20
-154.9528157164701
 30
0.0
 10
123.9934651382724
 20
-154.9528157164701
 30
0.0
  0
HATCH
  5
CD
330
C5
100
AcDbEntity
  8
レイヤー 1
 62
   250
420
  2299925
440
 33554687
100
AcDbHatch
 10
0.0
 20
0.0
 30
0.0
210
0.0
220
0.0
230
1.0
  2
SOLID
 70
     1
 71
     1
 91
        1
 92
        1
 93
        1
 72
     4
 94
        3
 73
     0
 74
     0
 95
       17
 96
       13
 40
0.0
 40
0.0
 40
0.0
 40
0.0
 40
1.0
 40
1.0
 40
1.0
 40
2.0
 40
2.0
 40
2.0
 40
3.0
 40
3.0
 40
3.0
 40
4.0
 40
4.0
 40
4.0
 40
4.0
 10
123.9934651382724
 20
-154.9528157164701
 10
123.9934651382724
 20
-154.9528157164701
 10
123.7416286583007
 20
-154.9528157164701
 10
123.7416286583007
 20
-154.9528157164701
 10
123.7416286583007
 20
-154.9528157164701
 10
123.7416286583007
 20
-154.738186267739
 10
123.7416286583007
 20
-154.738186267739
 10
123.7416286583007
 20
-154.738186267739
 10
123.9934651382724
 20
-154.738186267739
 10
123.9934651382724
 20
-154.738186267739
 10
123.9934651382724
 20
-154.738186267739
 10
123.9934651382724
 20
-154.9528157164701
 10
123.9934651382724
 20
-154.9528157164701
 97
        0
 97
        1
330
CC
 75
     2
 76
     1
 98
        1
 10
0.0
 20
0.0
450
        0
451
        0
460
0.0
461
0.0
452
        0
462
0.0
453
        0
470

  0
SPLINE
  5
CE
330
C5
100
AcDbEntity
  8
レイヤー 1
100
AcDbSpline
210
0.0
220
0.0
230
1.0
 70
    11
 71
     3
 72
    14
 73
    10
 74
     0
 42
0.0000000001
 43
0.0000000001
 40
0.0
 40
0.0
 40
0.0
 40
0.0
 40
1.0
 40
1.0
 40
1.0
 40
2.0
 40
2.0
 40
2.0
 40
3.0
 40
3.0
 40
3.0
 40
3.0
 10
122.7918158330173
 20
-154.0133381776425
 30
0.0
 10
122.7918158330173
 20
-154.0133381776425
 30
0.0
 10
123.4477620134089
 20
-154.4029784770242
 30
0.0
 10
123.4477620134089
 20
-154.4029784770242
 30
0.0
 10
123.4477620134089
 20
-154.4029784770242
 30
0.0
 10
123.4477620134089
 20
-154.0133381776425
 30
0.0
 10
123.4477620134089
 20
-154.0133381776425
 30
0.0
 10
123.4477620134089
 20
-154.0133381776425
 30
0.0
 10
122.7918158330173
 20
-154.0133381776425
 30
0.0
 10
122.7918158330173
 20
-154.0133381776425
 30
0.0
  0
SPLINE
  5
CF
330
C5
100
AcDbEntity
  8
レイヤー 1
100
AcDbSpline
210
0.0
220
0.0
230
1.0
 70
    11
 71
     3
 72
    38
 73
    34
 74
     0
 42
0.0000000001
 43
0.0000000001
 40
0.0
 40
0.0
 40
0.0
 40
0.0
 40
1.0
 40
1.0
 40
1.0
 40
2.0
 40
2.0
 40
2.0
 40
3.0
 40
3.0
 40
3.0
 40
4.0
 40
4.0
 40
4.0
 40
5.0
 40
5.0
 40
5.0
 40
6.0
 40
6.0
 40
6.0
 40
7.0
 40
7.0
 40
7.0
 40
8.0
 40
8.0
 40
8.0
 40
9.0
 40
9.0
 40
9.0
 40
10.0
 40
10.0
 40
10.0
 40
11.0
 40
11.0
 40
11.0
 40
11.0
 10
123.6465440229078
 20
-153.8276475309875
 30
0.0
 10
123.6465440229078
 20
-153.8276475309875
 30
0.0
 10
123.9934651382724
 20
-153.8276475309875
 30
0.0
 10
123.9934651382724
 20
-153.8276475309875
 30
0.0
 10
123.9934651382724
 20
-153.8276475309875
 30
0.0
 10
123.9934651382724
 20
-154.0133381776425
 30
0.0
 10
123.9934651382724
 20
-154.0133381776425
 30
0.0
 10
123.9934651382724
 20
-154.0133381776425
 30
0.0
 10
123.6465440229078
 20
-154.0133381776425
 30
0.0
 10
123.6465440229078
 20
-154.0133381776425
 30
0.0
 10
123.6465440229078
 20
-154.0133381776425
 30
0.0
 10
123.6465440229078
 20
-154.5724771748985
 30
0.0
 10
123.6465440229078
 20
-154.5724771748985
 30
0.0
 10
123.6465440229078
 20
-154.5724771748985
 30
0.0
 10
123.422268306818
 20
-154.5724771748985
 30
0.0
 10
123.422268306818
 20
-154.5724771748985
 30
0.0
 10
123.422268306818
 20
-154.5724771748985
 30
0.0
 10
122.449028832235
 20
-153.9937011333766
 30
0.0
 10
122.449028832235
 20
-153.9937011333766
 30
0.0
 10
122.449028832235
 20
-153.9937011333766
 30
0.0
 10
122.449028832235
 20
-153.8276475309875
 30
0.0
 10
122.449028832235
 20
-153.8276475309875
 30
0.0
 10
122.449028832235
 20
-153.8276475309875
 30
0.0
 10
123.4477620134089
 20
-153.8276475309875
 30
0.0
 10
123.4477620134089
 20
-153.8276475309875
 30
0.0
 10
123.4477620134089
 20
-153.8276475309875
 30
0.0
 10
123.4477620134089
 20
-153.6509141325942
 30
0.0
 10
123.4477620134089
 20
-153.6509141325942
 30
0.0
 10
123.4477620134089
 20
-153.6509141325942
 30
0.0
 10
123.6465440229078
 20
-153.6509141325942
 30
0.0
 10
123.6465440229078
 20
-153.6509141325942
 30
0.0
 10
123.6465440229078
 20
-153.6509141325942
 30
0.0
 10
123.6465440229078
 20
-153.8276475309875
 30
0.0
 10
123.6465440229078
 20
-153.8276475309875
 30
0.0
  0
HATCH
  5
D0
330
C5
100
AcDbEntity
  8
レイヤー 1
 62
   250
420
  2299925
440
 33554687
100
AcDbHatch
 10
0.0
 20
0.0
 30
0.0
210
0.0
220
0.0
230
1.0
  2
SOLID
 70
     1
 71
     1
 91
        2
 92
        1
 93
        1
 72
     4
 94
        3
 73
     0
 74
     0
 95
       14
 96
       10
 40
0.0
 40
0.0
 40
0.0
 40
0.0
 40
1.0
 40
1.0
 40
1.0
 40
2.0
 40
2.0
 40
2.0
 40
3.0
 40
3.0
 40
3.0
 40
3.0
 10
122.7918158330173
 20
-154.0133381776425
 10
122.7918158330173
 20
-154.0133381776425
 10
123.4477620134089
 20
-154.4029784770242
 10
123.4477620134089
 20
-154.4029784770242
 10
123.4477620134089
 20
-154.4029784770242
 10
123.4477620134089
 20
-154.0133381776425
 10
123.4477620134089
 20
-154.0133381776425
 10
123.4477620134089
 20
-154.0133381776425
 10
122.7918158330173
 20
-154.0133381776425
 10
122.7918158330173
 20
-154.0133381776425
 97
        0
 97
        1
330
CE
 92
        1
 93
        1
 72
     4
 94
        3
 73
     0
 74
     0
 95
       38
 96
       34
 40
0.0
 40
0.0
 40
0.0
 40
0.0
 40
1.0
 40
1.0
 40
1.0
 40
2.0
 40
2.0
 40
2.0
 40
3.0
 40
3.0
 40
3.0
 40
4.0
 40
4.0
 40
4.0
 40
5.0
 40
5.0
 40
5.0
 40
6.0
 40
6.0
 40
6.0
 40
7.0
 40
7.0
 40
7.0
 40
8.0
 40
8.0
 40
8.0
 40
9.0
 40
9.0
 40
9.0
 40
10.0
 40
10.0
 40
10.0
 40
11.0
 40
11.0
 40
11.0
 40
11.0
 10
123.6465440229078
 20
-153.8276475309875
 10
123.6465440229078
 20
-153.8276475309875
 10
123.9934651382724
 20
-153.8276475309875
 10
123.9934651382724
 20
-153.8276475309875
 10
123.9934651382724
 20
-153.8276475309875
 10
123.9934651382724
 20
-154.0133381776425
 10
123.9934651382724
 20
-154.0133381776425
 10
123.9934651382724
 20
-154.0133381776425
 10
123.6465440229078
 20
-154.0133381776425
 10
123.6465440229078
 20
-154.0133381776425
 10
123.6465440229078
 20
-154.0133381776425
 10
123.6465440229078
 20
-154.5724771748985
 10
123.6465440229078
 20
-154.5724771748985
 10
123.6465440229078
 20
-154.5724771748985
 10
123.422268306818
 20
-154.5724771748985
 10
123.422268306818
 20
-154.5724771748985
 10
123.422268306818
 20
-154.5724771748985
 10
122.449028832235
 20
-153.9937011333766
 10
122.449028832235
 20
-153.9937011333766
 10
122.449028832235
 20
-153.9937011333766
 10
122.449028832235
 20
-153.8276475309875
 10
122.449028832235
 20
-153.8276475309875
 10
122.449028832235
 20
-153.8276475309875
 10
123.4477620134089
 20
-153.8276475309875
 10
123.4477620134089
 20
-153.8276475309875
 10
123.4477620134089
 20
-153.8276475309875
 10
123.4477620134089
 20
-153.6509141325942
 10
123.4477620134089
 20
-153.6509141325942
 10
123.4477620134089
 20
-153.6509141325942
 10
123.6465440229078
 20
-153.6509141325942
 10
123.6465440229078
 20
-153.6509141325942
 10
123.6465440229078
 20
-153.6509141325942
 10
123.6465440229078
 20
-153.8276475309875
 10
123.6465440229078
 20
-153.8276475309875
 97
        0
 97
        1
330
CF
 75
     2
 76
     1
 98
        1
 10
0.0
 20
0.0
450
        0
451
        0
460
0.0
461
0.0
452
        0
462
0.0
453
        0
470

  0
ENDBLK
  5
C8
330
C5
100
AcDbEntity
  8
0
100
AcDbBlockEnd
  0
BLOCK
  5
D3
330
D1
100
AcDbEntity
  8
0
100
AcDbBlockBegin
  2
Block_10
 70
     0
 10
0.0
 20
0.0
 30
0.0
  3
Block_10
  1

  0
LINE
  5
D5
330
D1
100
AcDbEntity
  8
レイヤー 1
 62
   250
420
  2299925
370
     9
100
AcDbLine
 10
92.25650673592395
 20
-159.7210190077294
 30
0.0
 11
104.2564894853344
 21
-159.7210190077294
 31
0.0
  0
LINE
  5
D6
330
D1
100
AcDbEntity
  8
レイヤー 1
 62
   250
420
  2299925
370
     9
100
AcDbLine
 10
92.25650673592395
 20
-145.7614968638664
 30
0.0
 11
92.25650673592395
 21
-160.7214614822059
 31
0.0
  0
LINE
  5
D7
330
D1
100
AcDbEntity
  8
レイヤー 1
 62
   250
420
  2299925
370
     9
100
AcDbLine
 10
104.2564894853344
 20
-158.2609776560892
 30
0.0
 11
104.2564894853344
 21
-160.7214614822059
 31
0.0
  0
INSERT
  5
D9
330
D1
100
AcDbEntity
  8
レイヤー 1
100
AcDbBlockReference
  2
Block_11
 10
0.0
 20
0.0
 30
0.0
  0
ENDBLK
  5
D4
330
D1
100
AcDbEntity
  8
0
100
AcDbBlockEnd
  0
BLOCK
  5
DA
330
D8
100
AcDbEntity
  8
0
100
AcDbBlockBegin
  2
Block_11
 70
     0
 10
0.0
 20
0.0
 30
0.0
  3
Block_11
  1

  0
INSERT
  5
DD
330
D8
100
AcDbEntity
  8
レイヤー 1
100
AcDbBlockReference
  2
Block_12
 10
0.0
 20
0.0
 30
0.0
  0
ENDBLK
  5
DB
330
D8
100
AcDbEntity
  8
0
100
AcDbBlockEnd
  0
BLOCK
  5
DE
330
DC
100
AcDbEntity
  8
0
100
AcDbBlockBegin
  2
Block_12
 70
     0
 10
0.0
 20
0.0
 30
0.0
  3
Block_12
  1

  0
SPLINE
  5
E0
330
DC
100
AcDbEntity
  8
レイヤー 1
100
AcDbSpline
210
0.0
220
0.0
230
1.0
 70
    11
 71
     3
 72
    26
 73
    22
 74
     0
 42
0.0000000001
 43
0.0000000001
 40
0.0
 40
0.0
 40
0.0
 40
0.0
 40
1.0
 40
1.0
 40
1.0
 40
2.0
 40
2.0
 40
2.0
 40
3.0
 40
3.0
 40
3.0
 40
4.0
 40
4.0
 40
4.0
 40
5.0
 40
5.0
 40
5.0
 40
6.0
 40
6.0
 40
6.0
 40
7.0
 40
7.0
 40
7.0
 40
7.0
 10
97.71444903156098
 20
-159.0755614836686
 30
0.0
 10
97.71444903156098
 20
-159.0755614836686
 30
0.0
 10
97.71444903156098
 20
-157.971408380646
 30
0.0
 10
97.71444903156098
 20
-157.971408380646
 30
0.0
 10
97.71444903156098
 20
-157.971408380646
 30
0.0
 10
97.43298473041607
 20
-157.971408380646
 30
0.0
 10
97.43298473041607
 20
-157.971408380646
 30
0.0
 10
97.43298473041607
 20
-157.971408380646
 30
0.0
 10
97.43298473041607
 20
-157.8232692747803
 30
0.0
 10
97.43298473041607
 20
-157.8232692747803
 30
0.0
 10
97.71617157930361
 20
-157.8084553641937
 30
0.0
 10
97.75579017738397
 20
-157.6455023477414
 30
0.0
 10
97.78111162920056
 20
-157.5311251776311
 30
0.0
 10
97.78111162920056
 20
-157.5311251776311
 30
0.0
 10
97.90547957621809
 20
-157.5311251776311
 30
0.0
 10
97.90547957621809
 20
-157.5311251776311
 30
0.0
 10
97.90547957621809
 20
-157.5311251776311
 30
0.0
 10
97.90547957621809
 20
-159.0755614836686
 30
0.0
 10
97.90547957621809
 20
-159.0755614836686
 30
0.0
 10
97.90547957621809
 20
-159.0755614836686
 30
0.0
 10
97.71444903156098
 20
-159.0755614836686
 30
0.0
 10
97.71444903156098
 20
-159.0755614836686
 30
0.0
  0
HATCH
  5
E1
330
DC
100
AcDbEntity
  8
レイヤー 1
 62
   250
420
  2299925
440
 33554687
100
AcDbHatch
 10
0.0
 20
0.0
 30
0.0
210
0.0
220
0.0
230
1.0
  2
SOLID
 70
     1
 71
     1
 91
        1
 92
        1
 93
        1
 72
     4
 94
        3
 73
     0
 74
     0
 95
       26
 96
       22
 40
0.0
 40
0.0
 40
0.0
 40
0.0
 40
1.0
 40
1.0
 40
1.0
 40
2.0
 40
2.0
 40
2.0
 40
3.0
 40
3.0
 40
3.0
 40
4.0
 40
4.0
 40
4.0
 40
5.0
 40
5.0
 40
5.0
 40
6.0
 40
6.0
 40
6.0
 40
7.0
 40
7.0
 40
7.0
 40
7.0
 10
97.71444903156098
 20
-159.0755614836686
 10
97.71444903156098
 20
-159.0755614836686
 10
97.71444903156098
 20
-157.971408380646
 10
97.71444903156098
 20
-157.971408380646
 10
97.71444903156098
 20
-157.971408380646
 10
97.43298473041607
 20
-157.971408380646
 10
97.43298473041607
 20
-157.971408380646
 10
97.43298473041607
 20
-157.971408380646
 10
97.43298473041607
 20
-157.8232692747803
 10
97.43298473041607
 20
-157.8232692747803
 10
97.71617157930361
 20
-157.8084553641937
 10
97.75579017738397
 20
-157.6455023477414
 10
97.78111162920056
 20
-157.5311251776311
 10
97.78111162920056
 20
-157.5311251776311
 10
97.90547957621809
 20
-157.5311251776311
 10
97.90547957621809
 20
-157.5311251776311
 10
97.90547957621809
 20
-157.5311251776311
 10
97.90547957621809
 20
-159.0755614836686
 10
97.90547957621809
 20
-159.0755614836686
 10
97.90547957621809
 20
-159.0755614836686
 10
97.71444903156098
 20
-159.0755614836686
 10
97.71444903156098
 20
-159.0755614836686
 97
        0
 97
        1
330
E0
 75
     2
 76
     1
 98
        1
 10
0.0
 20
0.0
450
        0
451
        0
460
0.0
461
0.0
452
        0
462
0.0
453
        0
470

  0
SPLINE
  5
E2
330
DC
100
AcDbEntity
  8
レイヤー 1
100
AcDbSpline
210
0.0
220
0.0
230
1.0
 70
     9
 71
     3
 72
    44
 73
    40
 74
     0
 42
0.0000000001
 43
0.0000000001
 40
0.0
 40
0.0
 40
0.0
 40
0.0
 40
1.0
 40
1.0
 40
1.0
 40
2.0
 40
2.0
 40
2.0
 40
3.0
 40
3.0
 40
3.0
 40
4.0
 40
4.0
 40
4.0
 40
5.0
 40
5.0
 40
5.0
 40
6.0
 40
6.0
 40
6.0
 40
7.0
 40
7.0
 40
7.0
 40
8.0
 40
8.0
 40
8.0
 40
9.0
 40
9.0
 40
9.0
 40
10.0
 40
10.0
 40
10.0
 40
11.0
 40
11.0
 40
11.0
 40
12.0
 40
12.0
 40
12.0
 40
13.0
 40
13.0
 40
13.0
 40
13.0
 10
98.83703339542963
 20
-158.4936848562099
 30
0.0
 10
98.65134274877467
 20
-158.6525037580799
 30
0.0
 10
98.57193329783967
 20
-158.7265733110128
 30
0.0
 10
98.53041989724239
 20
-158.8702337927477
 30
0.0
 10
98.53041989724239
 20
-158.8702337927477
 30
0.0
 10
99.19411754247578
 20
-158.8702337927477
 30
0.0
 10
99.19411754247578
 20
-158.8702337927477
 30
0.0
 10
99.19411754247578
 20
-158.8702337927477
 30
0.0
 10
99.19411754247578
 20
-159.0755614836686
 30
0.0
 10
99.19411754247578
 20
-159.0755614836686
 30
0.0
 10
99.19411754247578
 20
-159.0755614836686
 30
0.0
 10
98.31768525102823
 20
-159.0755614836686
 30
0.0
 10
98.31768525102823
 20
-159.0755614836686
 30
0.0
 10
98.34472925058744
 20
-158.7179605722997
 30
0.0
 10
98.40071205222274
 20
-158.6397569047845
 30
0.0
 10
98.72885739719279
 20
-158.3414116357619
 30
0.0
 10
98.94710419618336
 20
-158.1426296262629
 30
0.0
 10
99.00291474304442
 20
-158.0747612452035
 30
0.0
 10
99.00291474304442
 20
-157.9373019353421
 30
0.0
 10
99.00291474304442
 20
-157.8187906506494
 30
0.0
 10
98.94159204340697
 20
-157.68787702221
 30
0.0
 10
98.77398814804957
 20
-157.68787702221
 30
0.0
 10
98.55212399879947
 20
-157.68787702221
 30
0.0
 10
98.54488929828045
 20
-157.9183539101732
 30
0.0
 10
98.54127194802094
 20
-158.0347981375746
 30
0.0
 10
98.54127194802094
 20
-158.0347981375746
 30
0.0
 10
98.35006914858958
 20
-158.0347981375746
 30
0.0
 10
98.35006914858958
 20
-158.0347981375746
 30
0.0
 10
98.3573038491086
 20
-157.9076741141689
 30
0.0
 10
98.36643335214452
 20
-157.7957085108983
 30
0.0
 10
98.43481849752672
 20
-157.6771972262057
 30
0.0
 10
98.52869734949978
 20
-157.5163112670445
 30
0.0
 10
98.68734399659553
 20
-157.4825493312891
 30
0.0
 10
98.78656274657073
 20
-157.4825493312891
 30
0.0
 10
99.0227240420846
 20
-157.4825493312891
 30
0.0
 10
99.19945744047792
 20
-157.6665174302014
 30
0.0
 10
99.19945744047792
 20
-157.9393689926332
 30
0.0
 10
99.19945744047792
 20
-158.1681233328538
 30
0.0
 10
99.10023869050272
 20
-158.267342082829
 30
0.0
 10
98.83703339542963
 20
-158.4936848562099
 30
0.0
  0
HATCH
  5
E3
330
DC
100
AcDbEntity
  8
レイヤー 1
 62
   250
420
  2299925
440
 33554687
100
AcDbHatch
 10
0.0
 20
0.0
 30
0.0
210
0.0
220
0.0
230
1.0
  2
SOLID
 70
     1
 71
     1
 91
        1
 92
        1
 93
        1
 72
     4
 94
        3
 73
     0
 74
     0
 95
       44
 96
       40
 40
0.0
 40
0.0
 40
0.0
 40
0.0
 40
1.0
 40
1.0
 40
1.0
 40
2.0
 40
2.0
 40
2.0
 40
3.0
 40
3.0
 40
3.0
 40
4.0
 40
4.0
 40
4.0
 40
5.0
 40
5.0
 40
5.0
 40
6.0
 40
6.0
 40
6.0
 40
7.0
 40
7.0
 40
7.0
 40
8.0
 40
8.0
 40
8.0
 40
9.0
 40
9.0
 40
9.0
 40
10.0
 40
10.0
 40
10.0
 40
11.0
 40
11.0
 40
11.0
 40
12.0
 40
12.0
 40
12.0
 40
13.0
 40
13.0
 40
13.0
 40
13.0
 10
98.83703339542963
 20
-158.4936848562099
 10
98.65134274877467
 20
-158.6525037580799
 10
98.57193329783967
 20
-158.7265733110128
 10
98.53041989724239
 20
-158.8702337927477
 10
98.53041989724239
 20
-158.8702337927477
 10
99.19411754247578
 20
-158.8702337927477
 10
99.19411754247578
 20
-158.8702337927477
 10
99.19411754247578
 20
-158.8702337927477
 10
99.19411754247578
 20
-159.0755614836686
 10
99.19411754247578
 20
-159.0755614836686
 10
99.19411754247578
 20
-159.0755614836686
 10
98.31768525102823
 20
-159.0755614836686
 10
98.31768525102823
 20
-159.0755614836686
 10
98.34472925058744
 20
-158.7179605722997
 10
98.40071205222274
 20
-158.6397569047845
 10
98.72885739719279
 20
-158.3414116357619
 10
98.94710419618336
 20
-158.1426296262629
 10
99.00291474304442
 20
-158.0747612452035
 10
99.00291474304442
 20
-157.9373019353421
 10
99.00291474304442
 20
-157.8187906506494
 10
98.94159204340697
 20
-157.68787702221
 10
98.77398814804957
 20
-157.68787702221
 10
98.55212399879947
 20
-157.68787702221
 10
98.54488929828045
 20
-157.9183539101732
 10
98.54127194802094
 20
-158.0347981375746
 10
98.54127194802094
 20
-158.0347981375746
 10
98.35006914858958
 20
-158.0347981375746
 10
98.35006914858958
 20
-158.0347981375746
 10
98.3573038491086
 20
-157.9076741141689
 10
98.36643335214452
 20
-157.7957085108983
 10
98.43481849752672
 20
-157.6771972262057
 10
98.52869734949978
 20
-157.5163112670445
 10
98.68734399659553
 20
-157.4825493312891
 10
98.78656274657073
 20
-157.4825493312891
 10
99.0227240420846
 20
-157.4825493312891
 10
99.19945744047792
 20
-157.6665174302014
 10
99.19945744047792
 20
-157.9393689926332
 10
99.19945744047792
 20
-158.1681233328538
 10
99.10023869050272
 20
-158.267342082829
 10
98.83703339542963
 20
-158.4936848562099
 97
        0
 97
        1
330
E2
 75
     2
 76
     1
 98
        1
 10
0.0
 20
0.0
450
        0
451
        0
460
0.0
461
0.0
452
        0
462
0.0
453
        0
470

  0
ENDBLK
  5
DF
330
DC
100
AcDbEntity
  8
0
100
AcDbBlockEnd
  0
BLOCK
  5
E6
330
E4
100
AcDbEntity
  8
0
100
AcDbBlockBegin
  2
Block_13
 70
     0
 10
0.0
 20
0.0
 30
0.0
  3
Block_13
  1

  0
LINE
  5
E8
330
E4
100
AcDbEntity
  8
レイヤー 1
 62
   250
420
  2299925
370
     9
100
AcDbLine
 10
125.2563975606932
 20
-142.1213947345109
 30
0.0
 11
125.2563975606932
 21
-154.6215810822713
 31
0.0
  0
LINE
  5
E9
330
E4
100
AcDbEntity
  8
レイヤー 1
 62
   250
420
  2299925
370
     9
100
AcDbLine
 10
107.896556336913
 20
-142.1213947345109
 30
0.0
 11
126.2561697574092
 21
-142.1213947345109
 31
0.0
  0
INSERT
  5
EB
330
E4
100
AcDbEntity
  8
レイヤー 1
100
AcDbBlockReference
  2
Block_14
 10
0.0
 20
0.0
 30
0.0
  0
ENDBLK
  5
E7
330
E4
100
AcDbEntity
  8
0
100
AcDbBlockEnd
  0
BLOCK
  5
EC
330
EA
100
AcDbEntity
  8
0
100
AcDbBlockBegin
  2
Block_14
 70
     0
 10
0.0
 20
0.0
 30
0.0
  3
Block_14
  1

  0
INSERT
  5
EF
330
EA
100
AcDbEntity
  8
レイヤー 1
100
AcDbBlockReference
  2
Block_15
 10
0.0
 20
0.0
 30
0.0
  0
ENDBLK
  5
ED
330
EA
100
AcDbEntity
  8
0
100
AcDbBlockEnd
  0
BLOCK
  5
F0
330
EE
100
AcDbEntity
  8
0
100
AcDbBlockBegin
  2
Block_15
 70
     0
 10
0.0
 20
0.0
 30
0.0
  3
Block_15
  1

  0
SPLINE
  5
F2
330
EE
100
AcDbEntity
  8
レイヤー 1
100
AcDbSpline
210
0.0
220
0.0
230
1.0
 70
    11
 71
     3
 72
    26
 73
    22
 74
     0
 42
0.0000000001
 43
0.0000000001
 40
0.0
 40
0.0
 40
0.0
 40
0.0
 40
1.0
 40
1.0
 40
1.0
 40
2.0
 40
2.0
 40
2.0
 40
3.0
 40
3.0
 40
3.0
 40
4.0
 40
4.0
 40
4.0
 40
5.0
 40
5.0
 40
5.0
 40
6.0
 40
6.0
 40
6.0
 40
7.0
 40
7.0
 40
7.0
 40
7.0
 10
123.9934651382724
 20
-149.6466796500883
 30
0.0
 10
123.9934651382724
 20
-149.6466796500883
 30
0.0
 10
122.8893120352499
 20
-149.6466796500883
 30
0.0
 10
122.8893120352499
 20
-149.6466796500883
 30
0.0
 10
122.8893120352499
 20
-149.6466796500883
 30
0.0
 10
122.8893120352499
 20
-149.9281439512332
 30
0.0
 10
122.8893120352499
 20
-149.9281439512332
 30
0.0
 10
122.8893120352499
 20
-149.9281439512332
 30
0.0
 10
122.7411729293841
 20
-149.9281439512332
 30
0.0
 10
122.7411729293841
 20
-149.9281439512332
 30
0.0
 10
122.7263590187976
 20
-149.6449571023457
 30
0.0
 10
122.5634060023452
 20
-149.6053385042653
 30
0.0
 10
122.449028832235
 20
-149.580189307223
 30
0.0
 10
122.449028832235
 20
-149.580189307223
 30
0.0
 10
122.449028832235
 20
-149.4554768506569
 30
0.0
 10
122.449028832235
 20
-149.4554768506569
 30
0.0
 10
122.449028832235
 20
-149.4554768506569
 30
0.0
 10
123.9934651382724
 20
-149.4554768506569
 30
0.0
 10
123.9934651382724
 20
-149.4554768506569
 30
0.0
 10
123.9934651382724
 20
-149.4554768506569
 30
0.0
 10
123.9934651382724
 20
-149.6466796500883
 30
0.0
 10
123.9934651382724
 20
-149.6466796500883
 30
0.0
  0
HATCH
  5
F3
330
EE
100
AcDbEntity
  8
レイヤー 1
 62
   250
420
  2299925
440
 33554687
100
AcDbHatch
 10
0.0
 20
0.0
 30
0.0
210
0.0
220
0.0
230
1.0
  2
SOLID
 70
     1
 71
     1
 91
        1
 92
        1
 93
        1
 72
     4
 94
        3
 73
     0
 74
     0
 95
       26
 96
       22
 40
0.0
 40
0.0
 40
0.0
 40
0.0
 40
1.0
 40
1.0
 40
1.0
 40
2.0
 40
2.0
 40
2.0
 40
3.0
 40
3.0
 40
3.0
 40
4.0
 40
4.0
 40
4.0
 40
5.0
 40
5.0
 40
5.0
 40
6.0
 40
6.0
 40
6.0
 40
7.0
 40
7.0
 40
7.0
 40
7.0
 10
123.9934651382724
 20
-149.6466796500883
 10
123.9934651382724
 20
-149.6466796500883
 10
122.8893120352499
 20
-149.6466796500883
 10
122.8893120352499
 20
-149.6466796500883
 10
122.8893120352499
 20
-149.6466796500883
 10
122.8893120352499
 20
-149.9281439512332
 10
122.8893120352499
 20
-149.9281439512332
 10
122.8893120352499
 20
-149.9281439512332
 10
122.7411729293841
 20
-149.9281439512332
 10
122.7411729293841
 20
-149.9281439512332
 10
122.7263590187976
 20
-149.6449571023457
 10
122.5634060023452
 20
-149.6053385042653
 10
122.449028832235
 20
-149.580189307223
 10
122.449028832235
 20
-149.580189307223
 10
122.449028832235
 20
-149.4554768506569
 10
122.449028832235
 20
-149.4554768506569
 10
122.449028832235
 20
-149.4554768506569
 10
123.9934651382724
 20
-149.4554768506569
 10
123.9934651382724
 20
-149.4554768506569
 10
123.9934651382724
 20
-149.4554768506569
 10
123.9934651382724
 20
-149.6466796500883
 10
123.9934651382724
 20
-149.6466796500883
 97
        0
 97
        1
330
F2
 75
     2
 76
     1
 98
        1
 10
0.0
 20
0.0
450
        0
451
        0
460
0.0
461
0.0
452
        0
462
0.0
453
        0
470

  0
SPLINE
  5
F4
330
EE
100
AcDbEntity
  8
レイヤー 1
100
AcDbSpline
210
0.0
220
0.0
230
1.0
 70
     9
 71
     3
 72
    44
 73
    40
 74
     0
 42
0.0000000001
 43
0.0000000001
 40
0.0
 40
0.0
 40
0.0
 40
0.0
 40
1.0
 40
1.0
 40
1.0
 40
2.0
 40
2.0
 40
2.0
 40
3.0
 40
3.0
 40
3.0
 40
4.0
 40
4.0
 40
4.0
 40
5.0
 40
5.0
 40
5.0
 40
6.0
 40
6.0
 40
6.0
 40
7.0
 40
7.0
 40
7.0
 40
8.0
 40
8.0
 40
8.0
 40
9.0
 40
9.0
 40
9.0
 40
10.0
 40
10.0
 40
10.0
 40
11.0
 40
11.0
 40
11.0
 40
12.0
 40
12.0
 40
12.0
 40
13.0
 40
13.0
 40
13.0
 40
13.0
 10
123.4115885108137
 20
-148.5242675409939
 30
0.0
 10
123.5704074126838
 20
-148.7099581876489
 30
0.0
 10
123.6444769656166
 20
-148.7891953838096
 30
0.0
 10
123.7881374473516
 20
-148.8305365296326
 30
0.0
 10
123.7881374473516
 20
-148.8305365296326
 30
0.0
 10
123.7881374473516
 20
-148.1670111391735
 30
0.0
 10
123.7881374473516
 20
-148.1670111391735
 30
0.0
 10
123.7881374473516
 20
-148.1670111391735
 30
0.0
 10
123.9934651382724
 20
-148.1670111391735
 30
0.0
 10
123.9934651382724
 20
-148.1670111391735
 30
0.0
 10
123.9934651382724
 20
-148.1670111391735
 30
0.0
 10
123.9934651382724
 20
-149.0434434306211
 30
0.0
 10
123.9934651382724
 20
-149.0434434306211
 30
0.0
 10
123.6358642269035
 20
-149.0165716858361
 30
0.0
 10
123.5576605593883
 20
-148.9604166294265
 30
0.0
 10
123.2593152903657
 20
-148.6324435392308
 30
0.0
 10
123.0605332808668
 20
-148.4140244854659
 30
0.0
 10
122.9926648998074
 20
-148.3582139386049
 30
0.0
 10
122.8552055899459
 20
-148.3582139386049
 30
0.0
 10
122.7366943052533
 20
-148.3582139386049
 30
0.0
 10
122.6057806768138
 20
-148.4195366382423
 30
0.0
 10
122.6057806768138
 20
-148.587312788374
 30
0.0
 10
122.6057806768138
 20
-148.8091769376241
 30
0.0
 10
122.836257564777
 20
-148.8164116381431
 30
0.0
 10
122.9527017921785
 20
-148.8198567336283
 30
0.0
 10
122.9527017921785
 20
-148.8198567336283
 30
0.0
 10
122.9527017921785
 20
-149.0110595330597
 30
0.0
 10
122.9527017921785
 20
-149.0110595330597
 30
0.0
 10
122.8255777687728
 20
-149.0038248325407
 30
0.0
 10
122.7136121655021
 20
-148.994867584279
 30
0.0
 10
122.5951008808095
 20
-148.9263101841226
 30
0.0
 10
122.4342149216484
 20
-148.8326035869238
 30
0.0
 10
122.4004529858929
 20
-148.6737846850538
 30
0.0
 10
122.4004529858929
 20
-148.5745659350786
 30
0.0
 10
122.4004529858929
 20
-148.3382323847904
 30
0.0
 10
122.5844210848053
 20
-148.1614989863971
 30
0.0
 10
122.8572726472371
 20
-148.1614989863971
 30
0.0
 10
123.0860269874576
 20
-148.1614989863971
 30
0.0
 10
123.1852457374328
 20
-148.2607177363723
 30
0.0
 10
123.4115885108137
 20
-148.5242675409939
 30
0.0
  0
HATCH
  5
F5
330
EE
100
AcDbEntity
  8
レイヤー 1
 62
   250
420
  2299925
440
 33554687
100
AcDbHatch
 10
0.0
 20
0.0
 30
0.0
210
0.0
220
0.0
230
1.0
  2
SOLID
 70
     1
 71
     1
 91
        1
 92
        1
 93
        1
 72
     4
 94
        3
 73
     0
 74
     0
 95
       44
 96
       40
 40
0.0
 40
0.0
 40
0.0
 40
0.0
 40
1.0
 40
1.0
 40
1.0
 40
2.0
 40
2.0
 40
2.0
 40
3.0
 40
3.0
 40
3.0
 40
4.0
 40
4.0
 40
4.0
 40
5.0
 40
5.0
 40
5.0
 40
6.0
 40
6.0
 40
6.0
 40
7.0
 40
7.0
 40
7.0
 40
8.0
 40
8.0
 40
8.0
 40
9.0
 40
9.0
 40
9.0
 40
10.0
 40
10.0
 40
10.0
 40
11.0
 40
11.0
 40
11.0
 40
12.0
 40
12.0
 40
12.0
 40
13.0
 40
13.0
 40
13.0
 40
13.0
 10
123.4115885108137
 20
-148.5242675409939
 10
123.5704074126838
 20
-148.7099581876489
 10
123.6444769656166
 20
-148.7891953838096
 10
123.7881374473516
 20
-148.8305365296326
 10
123.7881374473516
 20
-148.8305365296326
 10
123.7881374473516
 20
-148.1670111391735
 10
123.7881374473516
 20
-148.1670111391735
 10
123.7881374473516
 20
-148.1670111391735
 10
123.9934651382724
 20
-148.1670111391735
 10
123.9934651382724
 20
-148.1670111391735
 10
123.9934651382724
 20
-148.1670111391735
 10
123.9934651382724
 20
-149.0434434306211
 10
123.9934651382724
 20
-149.0434434306211
 10
123.6358642269035
 20
-149.0165716858361
 10
123.5576605593883
 20
-148.9604166294265
 10
123.2593152903657
 20
-148.6324435392308
 10
123.0605332808668
 20
-148.4140244854659
 10
122.9926648998074
 20
-148.3582139386049
 10
122.8552055899459
 20
-148.3582139386049
 10
122.7366943052533
 20
-148.3582139386049
 10
122.6057806768138
 20
-148.4195366382423
 10
122.6057806768138
 20
-148.587312788374
 10
122.6057806768138
 20
-148.8091769376241
 10
122.836257564777
 20
-148.8164116381431
 10
122.9527017921785
 20
-148.8198567336283
 10
122.9527017921785
 20
-148.8198567336283
 10
122.9527017921785
 20
-149.0110595330597
 10
122.9527017921785
 20
-149.0110595330597
 10
122.8255777687728
 20
-149.0038248325407
 10
122.7136121655021
 20
-148.994867584279
 10
122.5951008808095
 20
-148.9263101841226
 10
122.4342149216484
 20
-148.8326035869238
 10
122.4004529858929
 20
-148.6737846850538
 10
122.4004529858929
 20
-148.5745659350786
 10
122.4004529858929
 20
-148.3382323847904
 10
122.5844210848053
 20
-148.1614989863971
 10
122.8572726472371
 20
-148.1614989863971
 10
123.0860269874576
 20
-148.1614989863971
 10
123.1852457374328
 20
-148.2607177363723
 10
123.4115885108137
 20
-148.5242675409939
 97
        0
 97
        1
330
F4
 75
     2
 76
     1
 98
        1
 10
0.0
 20
0.0
450
        0
451
        0
460
0.0
461
0.0
452
        0
462
0.0
453
        0
470

  0
SPLINE
  5
F6
330
EE
100
AcDbEntity
  8
レイヤー 1
100
AcDbSpline
210
0.0
220
0.0
230
1.0
 70
    11
 71
     3
 72
    17
 73
    13
 74
     0
 42
0.0000000001
 43
0.0000000001
 40
0.0
 40
0.0
 40
0.0
 40
0.0
 40
1.0
 40
1.0
 40
1.0
 40
2.0
 40
2.0
 40
2.0
 40
3.0
 40
3.0
 40
3.0
 40
4.0
 40
4.0
 40
4.0
 40
4.0
 10
123.9934651382724
 20
-147.9768418683877
 30
0.0
 10
123.9934651382724
 20
-147.9768418683877
 30
0.0
 10
123.7416286583007
 20
-147.9768418683877
 30
0.0
 10
123.7416286583007
 20
-147.9768418683877
 30
0.0
 10
123.7416286583007
 20
-147.9768418683877
 30
0.0
 10
123.7416286583007
 20
-147.7622124196566
 30
0.0
 10
123.7416286583007
 20
-147.7622124196566
 30
0.0
 10
123.7416286583007
 20
-147.7622124196566
 30
0.0
 10
123.9934651382724
 20
-147.7622124196566
 30
0.0
 10
123.9934651382724
 20
-147.7622124196566
 30
0.0
 10
123.9934651382724
 20
-147.7622124196566
 30
0.0
 10
123.9934651382724
 20
-147.9768418683877
 30
0.0
 10
123.9934651382724
 20
-147.9768418683877
 30
0.0
  0
HATCH
  5
F7
330
EE
100
AcDbEntity
  8
レイヤー 1
 62
   250
420
  2299925
440
 33554687
100
AcDbHatch
 10
0.0
 20
0.0
 30
0.0
210
0.0
220
0.0
230
1.0
  2
SOLID
 70
     1
 71
     1
 91
        1
 92
        1
 93
        1
 72
     4
 94
        3
 73
     0
 74
     0
 95
       17
 96
       13
 40
0.0
 40
0.0
 40
0.0
 40
0.0
 40
1.0
 40
1.0
 40
1.0
 40
2.0
 40
2.0
 40
2.0
 40
3.0
 40
3.0
 40
3.0
 40
4.0
 40
4.0
 40
4.0
 40
4.0
 10
123.9934651382724
 20
-147.9768418683877
 10
123.9934651382724
 20
-147.9768418683877
 10
123.7416286583007
 20
-147.9768418683877
 10
123.7416286583007
 20
-147.9768418683877
 10
123.7416286583007
 20
-147.9768418683877
 10
123.7416286583007
 20
-147.7622124196566
 10
123.7416286583007
 20
-147.7622124196566
 10
123.7416286583007
 20
-147.7622124196566
 10
123.9934651382724
 20
-147.7622124196566
 10
123.9934651382724
 20
-147.7622124196566
 10
123.9934651382724
 20
-147.7622124196566
 10
123.9934651382724
 20
-147.9768418683877
 10
123.9934651382724
 20
-147.9768418683877
 97
        0
 97
        1
330
F6
 75
     2
 76
     1
 98
        1
 10
0.0
 20
0.0
450
        0
451
        0
460
0.0
461
0.0
452
        0
462
0.0
453
        0
470

  0
SPLINE
  5
F8
330
EE
100
AcDbEntity
  8
レイヤー 1
100
AcDbSpline
210
0.0
220
0.0
230
1.0
 70
     9
 71
     3
 72
    53
 73
    49
 74
     0
 42
0.0000000001
 43
0.0000000001
 40
0.0
 40
0.0
 40
0.0
 40
0.0
 40
1.0
 40
1.0
 40
1.0
 40
2.0
 40
2.0
 40
2.0
 40
3.0
 40
3.0
 40
3.0
 40
4.0
 40
4.0
 40
4.0
 40
5.0
 40
5.0
 40
5.0
 40
6.0
 40
6.0
 40
6.0
 40
7.0
 40
7.0
 40
7.0
 40
8.0
 40
8.0
 40
8.0
 40
9.0
 40
9.0
 40
9.0
 40
10.0
 40
10.0
 40
10.0
 40
11.0
 40
11.0
 40
11.0
 40
12.0
 40
12.0
 40
12.0
 40
13.0
 40
13.0
 40
13.0
 40
14.0
 40
14.0
 40
14.0
 40
15.0
 40
15.0
 40
15.0
 40
16.0
 40
16.0
 40
16.0
 40
16.0
 10
124.0441080419056
 20
-147.1510524805733
 30
0.0
 10
124.0441080419056
 20
-147.2178873329872
 30
0.0
 10
124.0272270740279
 20
-147.304359229667
 30
0.0
 10
123.9638373170993
 20
-147.3908311263467
 30
0.0
 10
123.8539387711198
 20
-147.5386257226639
 30
0.0
 10
123.7226806331318
 20
-147.5568847287358
 30
0.0
 10
123.6148491444435
 20
-147.5730766775164
 30
0.0
 10
123.6148491444435
 20
-147.5730766775164
 30
0.0
 10
123.6148491444435
 20
-147.3835964258277
 30
0.0
 10
123.6148491444435
 20
-147.3835964258277
 30
0.0
 10
123.8136311539424
 20
-147.3367431272283
 30
0.0
 10
123.8432589751155
 20
-147.2285671289915
 30
0.0
 10
123.8432589751155
 20
-147.1493299328307
 30
0.0
 10
123.8432589751155
 20
-147.0301296290411
 30
0.0
 10
123.7436957155918
 20
-146.9002495292471
 30
0.0
 10
123.5111517703375
 20
-146.9002495292471
 30
0.0
 10
123.2551811757834
 20
-146.9002495292471
 30
0.0
 10
123.1852457374328
 20
-147.0535562783408
 30
0.0
 10
123.1852457374328
 20
-147.1565646333497
 30
0.0
 10
123.1852457374328
 20
-147.1834363781347
 30
0.0
 10
123.1852457374328
 20
-147.304359229667
 30
0.0
 10
123.3144368181297
 20
-147.3801513303425
 30
0.0
 10
123.3144368181297
 20
-147.3801513303425
 30
0.0
 10
123.2954887929608
 20
-147.5296684744023
 30
0.0
 10
123.2954887929608
 20
-147.5296684744023
 30
0.0
 10
123.2954887929608
 20
-147.5296684744023
 30
0.0
 10
122.449028832235
 20
-147.4270046289418
 30
0.0
 10
122.449028832235
 20
-147.4270046289418
 30
0.0
 10
122.449028832235
 20
-147.4270046289418
 30
0.0
 10
122.449028832235
 20
-146.7634792384827
 30
0.0
 10
122.449028832235
 20
-146.7634792384827
 30
0.0
 10
122.449028832235
 20
-146.7634792384827
 30
0.0
 10
122.6436767271516
 20
-146.7634792384827
 30
0.0
 10
122.6436767271516
 20
-146.7634792384827
 30
0.0
 10
122.6436767271516
 20
-146.7634792384827
 30
0.0
 10
122.6436767271516
 20
-147.2881672808863
 30
0.0
 10
122.6436767271516
 20
-147.2881672808863
 30
0.0
 10
122.6436767271516
 20
-147.2881672808863
 30
0.0
 10
123.0667344527402
 20
-147.3439778277473
 30
0.0
 10
123.0667344527402
 20
-147.3439778277473
 30
0.0
 10
123.0329725169848
 20
-147.2916123763715
 30
0.0
 10
122.9926648998074
 20
-147.2213324284724
 30
0.0
 10
122.9926648998074
 20
-147.1203911307546
 30
0.0
 10
122.9926648998074
 20
-146.9040391342809
 30
0.0
 10
123.1790445655594
 20
-146.7021565388453
 30
0.0
 10
123.4922037451686
 20
-146.7021565388453
 30
0.0
 10
123.8094970393601
 20
-146.7021565388453
 30
0.0
 10
124.0441080419056
 20
-146.8930148287281
 30
0.0
 10
124.0441080419056
 20
-147.1510524805733
 30
0.0
  0
HATCH
  5
F9
330
EE
100
AcDbEntity
  8
レイヤー 1
 62
   250
420
  2299925
440
 33554687
100
AcDbHatch
 10
0.0
 20
0.0
 30
0.0
210
0.0
220
0.0
230
1.0
  2
SOLID
 70
     1
 71
     1
 91
        1
 92
        1
 93
        1
 72
     4
 94
        3
 73
     0
 74
     0
 95
       53
 96
       49
 40
0.0
 40
0.0
 40
0.0
 40
0.0
 40
1.0
 40
1.0
 40
1.0
 40
2.0
 40
2.0
 40
2.0
 40
3.0
 40
3.0
 40
3.0
 40
4.0
 40
4.0
 40
4.0
 40
5.0
 40
5.0
 40
5.0
 40
6.0
 40
6.0
 40
6.0
 40
7.0
 40
7.0
 40
7.0
 40
8.0
 40
8.0
 40
8.0
 40
9.0
 40
9.0
 40
9.0
 40
10.0
 40
10.0
 40
10.0
 40
11.0
 40
11.0
 40
11.0
 40
12.0
 40
12.0
 40
12.0
 40
13.0
 40
13.0
 40
13.0
 40
14.0
 40
14.0
 40
14.0
 40
15.0
 40
15.0
 40
15.0
 40
16.0
 40
16.0
 40
16.0
 40
16.0
 10
124.0441080419056
 20
-147.1510524805733
 10
124.0441080419056
 20
-147.2178873329872
 10
124.0272270740279
 20
-147.304359229667
 10
123.9638373170993
 20
-147.3908311263467
 10
123.8539387711198
 20
-147.5386257226639
 10
123.7226806331318
 20
-147.5568847287358
 10
123.6148491444435
 20
-147.5730766775164
 10
123.6148491444435
 20
-147.5730766775164
 10
123.6148491444435
 20
-147.3835964258277
 10
123.6148491444435
 20
-147.3835964258277
 10
123.8136311539424
 20
-147.3367431272283
 10
123.8432589751155
 20
-147.2285671289915
 10
123.8432589751155
 20
-147.1493299328307
 10
123.8432589751155
 20
-147.0301296290411
 10
123.7436957155918
 20
-146.9002495292471
 10
123.5111517703375
 20
-146.9002495292471
 10
123.2551811757834
 20
-146.9002495292471
 10
123.1852457374328
 20
-147.0535562783408
 10
123.1852457374328
 20
-147.1565646333497
 10
123.1852457374328
 20
-147.1834363781347
 10
123.1852457374328
 20
-147.304359229667
 10
123.3144368181297
 20
-147.3801513303425
 10
123.3144368181297
 20
-147.3801513303425
 10
123.2954887929608
 20
-147.5296684744023
 10
123.2954887929608
 20
-147.5296684744023
 10
123.2954887929608
 20
-147.5296684744023
 10
122.449028832235
 20
-147.4270046289418
 10
122.449028832235
 20
-147.4270046289418
 10
122.449028832235
 20
-147.4270046289418
 10
122.449028832235
 20
-146.7634792384827
 10
122.449028832235
 20
-146.7634792384827
 10
122.449028832235
 20
-146.7634792384827
 10
122.6436767271516
 20
-146.7634792384827
 10
122.6436767271516
 20
-146.7634792384827
 10
122.6436767271516
 20
-146.7634792384827
 10
122.6436767271516
 20
-147.2881672808863
 10
122.6436767271516
 20
-147.2881672808863
 10
122.6436767271516
 20
-147.2881672808863
 10
123.0667344527402
 20
-147.3439778277473
 10
123.0667344527402
 20
-147.3439778277473
 10
123.0329725169848
 20
-147.2916123763715
 10
122.9926648998074
 20
-147.2213324284724
 10
122.9926648998074
 20
-147.1203911307546
 10
122.9926648998074
 20
-146.9040391342809
 10
123.1790445655594
 20
-146.7021565388453
 10
123.4922037451686
 20
-146.7021565388453
 10
123.8094970393601
 20
-146.7021565388453
 10
124.0441080419056
 20
-146.8930148287281
 10
124.0441080419056
 20
-147.1510524805733
 97
        0
 97
        1
330
F8
 75
     2
 76
     1
 98
        1
 10
0.0
 20
0.0
450
        0
451
        0
460
0.0
461
0.0
452
        0
462
0.0
453
        0
470

  0
ENDBLK
  5
F1
330
EE
100
AcDbEntity
  8
0
100
AcDbBlockEnd
  0
BLOCK
  5
FC
330
FA
100
AcDbEntity
  8
0
100
AcDbBlockBegin
  2
Block_16
 70
     0
 10
0.0
 20
0.0
 30
0.0
  3
Block_16
  1

  0
INSERT
  5
FF
330
FA
100
AcDbEntity
  8
レイヤー 1
100
AcDbBlockReference
  2
Block_17
 10
0.0
 20
0.0
 30
0.0
  0
ENDBLK
  5
FD
330
FA
100
AcDbEntity
  8
0
100
AcDbBlockEnd
  0
BLOCK
  5
100
330
FE
100
AcDbEntity
  8
0
100
AcDbBlockBegin
  2
Block_17
 70
     0
 10
0.0
 20
0.0
 30
0.0
  3
Block_17
  1

  0
SPLINE
  5
102
330
FE
100
AcDbEntity
  8
レイヤー 1
100
AcDbSpline
210
0.0
220
0.0
230
1.0
 70
     9
 71
     3
 72
    59
 73
    55
 74
     0
 42
0.0000000001
 43
0.0000000001
 40
0.0
 40
0.0
 40
0.0
 40
0.0
 40
1.0
 40
1.0
 40
1.0
 40
2.0
 40
2.0
 40
2.0
 40
3.0
 40
3.0
 40
3.0
 40
4.0
 40
4.0
 40
4.0
 40
5.0
 40
5.0
 40
5.0
 40
6.0
 40
6.0
 40
6.0
 40
7.0
 40
7.0
 40
7.0
 40
8.0
 40
8.0
 40
8.0
 40
9.0
 40
9.0
 40
9.0
 40
10.0
 40
10.0
 40
10.0
 40
11.0
 40
11.0
 40
11.0
 40
12.0
 40
12.0
 40
12.0
 40
13.0
 40
13.0
 40
13.0
 40
14.0
 40
14.0
 40
14.0
 40
15.0
 40
15.0
 40
15.0
 40
16.0
 40
16.0
 40
16.0
 40
17.0
 40
17.0
 40
17.0
 40
18.0
 40
18.0
 40
18.0
 40
18.0
 10
93.99064532155442
 20
-144.7777262007847
 30
0.0
 10
93.84819062323934
 20
-145.2643459380762
 30
0.0
 10
93.63545597702517
 20
-145.7867946684144
 30
0.0
 10
93.1250650808854
 20
-146.1040879626059
 30
0.0
 10
93.1250650808854
 20
-146.1040879626059
 30
0.0
 10
92.96469588604702
 20
-145.9518147421579
 30
0.0
 10
92.96469588604702
 20
-145.9518147421579
 30
0.0
 10
93.10163843158571
 20
-145.8820515585815
 30
0.0
 10
93.31092798231464
 20
-145.7719807578278
 30
0.0
 10
93.52538517627143
 20
-145.4419406103409
 30
0.0
 10
93.72744002648133
 20
-145.1289536855059
 30
0.0
 10
93.77618812759761
 20
-144.8729830909519
 30
0.0
 10
93.79961477689732
 20
-144.7460313223204
 30
0.0
 10
93.79961477689732
 20
-144.7460313223204
 30
0.0
 10
93.2477104801603
 20
-144.7460313223204
 30
0.0
 10
93.2477104801603
 20
-144.7460313223204
 30
0.0
 10
93.15934378096363
 20
-144.9067450267073
 30
0.0
 10
93.0566799355032
 20
-145.073832157742
 30
0.0
 10
92.89252113563104
 20
-145.2452256581331
 30
0.0
 10
92.89252113563104
 20
-145.2452256581331
 30
0.0
 10
92.74455428453956
 20
-145.1225802588582
 30
0.0
 10
92.74455428453956
 20
-145.1225802588582
 30
0.0
 10
92.79519718817274
 20
-145.0760714698073
 30
0.0
 10
92.92128768293286
 20
-144.9639336117625
 30
0.0
 10
93.06201983350533
 20
-144.7143364438561
 30
0.0
 10
93.12695988340228
 20
-144.5958251591635
 30
0.0
 10
93.21532658259895
 20
-144.4264987160635
 30
0.0
 10
93.23685842938175
 20
-144.3038533167886
 30
0.0
 10
93.23685842938175
 20
-144.3038533167886
 30
0.0
 10
93.43357338158952
 20
-144.4053113788292
 30
0.0
 10
93.43357338158952
 20
-144.4053113788292
 30
0.0
 10
93.4461479801107
 20
-144.4116848054769
 30
0.0
 10
93.45872257863184
 20
-144.4201252894158
 30
0.0
 10
93.45872257863184
 20
-144.4349392000024
 30
0.0
 10
93.45872257863184
 20
-144.4561265372366
 30
0.0
 10
93.43701847707476
 20
-144.4688733905321
 30
0.0
 10
93.42995603133003
 20
-144.4709404478232
 30
0.0
 10
93.40635712725605
 20
-144.4793809317621
 30
0.0
 10
93.3992946815113
 20
-144.4773138744709
 30
0.0
 10
93.37759057995421
 20
-144.5026353262875
 30
0.0
 10
93.35588647839713
 20
-144.5281290328784
 30
0.0
 10
93.35778128091403
 20
-144.5365695168172
 30
0.0
 10
93.33073728135481
 20
-144.5894517325158
 30
0.0
 10
93.33073728135481
 20
-144.5894517325158
 30
0.0
 10
93.61564667798498
 20
-144.5894517325158
 30
0.0
 10
93.61564667798498
 20
-144.5894517325158
 30
0.0
 10
93.83389347697557
 20
-144.5894517325158
 30
0.0
 10
93.86093747653477
 20
-144.5767048792204
 30
0.0
 10
93.90951332287679
 20
-144.5470770580473
 30
0.0
 10
93.90951332287679
 20
-144.5470770580473
 30
0.0
 10
94.04301077293023
 20
-144.7120971317907
 30
0.0
 10
94.04301077293023
 20
-144.7120971317907
 30
0.0
 10
94.01407197085411
 20
-144.7480983796116
 30
0.0
 10
94.0123494231115
 20
-144.7501654369027
 30
0.0
 10
93.99064532155442
 20
-144.7777262007847
 30
0.0
  0
HATCH
  5
103
330
FE
100
AcDbEntity
  8
レイヤー 1
 62
   250
420
  2299925
440
 33554687
100
AcDbHatch
 10
0.0
 20
0.0
 30
0.0
210
0.0
220
0.0
230
1.0
  2
SOLID
 70
     1
 71
     1
 91
        1
 92
        1
 93
        1
 72
     4
 94
        3
 73
     0
 74
     0
 95
       59
 96
       55
 40
0.0
 40
0.0
 40
0.0
 40
0.0
 40
1.0
 40
1.0
 40
1.0
 40
2.0
 40
2.0
 40
2.0
 40
3.0
 40
3.0
 40
3.0
 40
4.0
 40
4.0
 40
4.0
 40
5.0
 40
5.0
 40
5.0
 40
6.0
 40
6.0
 40
6.0
 40
7.0
 40
7.0
 40
7.0
 40
8.0
 40
8.0
 40
8.0
 40
9.0
 40
9.0
 40
9.0
 40
10.0
 40
10.0
 40
10.0
 40
11.0
 40
11.0
 40
11.0
 40
12.0
 40
12.0
 40
12.0
 40
13.0
 40
13.0
 40
13.0
 40
14.0
 40
14.0
 40
14.0
 40
15.0
 40
15.0
 40
15.0
 40
16.0
 40
16.0
 40
16.0
 40
17.0
 40
17.0
 40
17.0
 40
18.0
 40
18.0
 40
18.0
 40
18.0
 10
93.99064532155442
 20
-144.7777262007847
 10
93.84819062323934
 20
-145.2643459380762
 10
93.63545597702517
 20
-145.7867946684144
 10
93.1250650808854
 20
-146.1040879626059
 10
93.1250650808854
 20
-146.1040879626059
 10
92.96469588604702
 20
-145.9518147421579
 10
92.96469588604702
 20
-145.9518147421579
 10
93.10163843158571
 20
-145.8820515585815
 10
93.31092798231464
 20
-145.7719807578278
 10
93.52538517627143
 20
-145.4419406103409
 10
93.72744002648133
 20
-145.1289536855059
 10
93.77618812759761
 20
-144.8729830909519
 10
93.79961477689732
 20
-144.7460313223204
 10
93.79961477689732
 20
-144.7460313223204
 10
93.2477104801603
 20
-144.7460313223204
 10
93.2477104801603
 20
-144.7460313223204
 10
93.15934378096363
 20
-144.9067450267073
 10
93.0566799355032
 20
-145.073832157742
 10
92.89252113563104
 20
-145.2452256581331
 10
92.89252113563104
 20
-145.2452256581331
 10
92.74455428453956
 20
-145.1225802588582
 10
92.74455428453956
 20
-145.1225802588582
 10
92.79519718817274
 20
-145.0760714698073
 10
92.92128768293286
 20
-144.9639336117625
 10
93.06201983350533
 20
-144.7143364438561
 10
93.12695988340228
 20
-144.5958251591635
 10
93.21532658259895
 20
-144.4264987160635
 10
93.23685842938175
 20
-144.3038533167886
 10
93.23685842938175
 20
-144.3038533167886
 10
93.43357338158952
 20
-144.4053113788292
 10
93.43357338158952
 20
-144.4053113788292
 10
93.4461479801107
 20
-144.4116848054769
 10
93.45872257863184
 20
-144.4201252894158
 10
93.45872257863184
 20
-144.4349392000024
 10
93.45872257863184
 20
-144.4561265372366
 10
93.43701847707476
 20
-144.4688733905321
 10
93.42995603133003
 20
-144.4709404478232
 10
93.40635712725605
 20
-144.4793809317621
 10
93.3992946815113
 20
-144.4773138744709
 10
93.37759057995421
 20
-144.5026353262875
 10
93.35588647839713
 20
-144.5281290328784
 10
93.35778128091403
 20
-144.5365695168172
 10
93.33073728135481
 20
-144.5894517325158
 10
93.33073728135481
 20
-144.5894517325158
 10
93.61564667798498
 20
-144.5894517325158
 10
93.61564667798498
 20
-144.5894517325158
 10
93.83389347697557
 20
-144.5894517325158
 10
93.86093747653477
 20
-144.5767048792204
 10
93.90951332287679
 20
-144.5470770580473
 10
93.90951332287679
 20
-144.5470770580473
 10
94.04301077293023
 20
-144.7120971317907
 10
94.04301077293023
 20
-144.7120971317907
 10
94.01407197085411
 20
-144.7480983796116
 10
94.0123494231115
 20
-144.7501654369027
 10
93.99064532155442
 20
-144.7777262007847
 97
        0
 97
        1
330
102
 75
     2
 76
     1
 98
        1
 10
0.0
 20
0.0
450
        0
451
        0
460
0.0
461
0.0
452
        0
462
0.0
453
        0
470

  0
SPLINE
  5
104
330
FE
100
AcDbEntity
  8
レイヤー 1
100
AcDbSpline
210
0.0
220
0.0
230
1.0
 70
    11
 71
     3
 72
    17
 73
    13
 74
     0
 42
0.0000000001
 43
0.0000000001
 40
0.0
 40
0.0
 40
0.0
 40
0.0
 40
1.0
 40
1.0
 40
1.0
 40
2.0
 40
2.0
 40
2.0
 40
3.0
 40
3.0
 40
3.0
 40
4.0
 40
4.0
 40
4.0
 40
4.0
 10
95.38866506946881
 20
-144.6867756799741
 30
0.0
 10
95.38866506946881
 20
-144.6867756799741
 30
0.0
 10
94.50138072724271
 20
-144.6867756799741
 30
0.0
 10
94.50138072724271
 20
-144.6867756799741
 30
0.0
 10
94.50138072724271
 20
-144.6867756799741
 30
0.0
 10
94.50138072724271
 20
-145.5752658056201
 30
0.0
 10
94.50138072724271
 20
-145.5752658056201
 30
0.0
 10
94.50138072724271
 20
-145.5752658056201
 30
0.0
 10
95.38866506946881
 20
-145.5752658056201
 30
0.0
 10
95.38866506946881
 20
-145.5752658056201
 30
0.0
 10
95.38866506946881
 20
-145.5752658056201
 30
0.0
 10
95.38866506946881
 20
-144.6867756799741
 30
0.0
 10
95.38866506946881
 20
-144.6867756799741
 30
0.0
  0
SPLINE
  5
105
330
FE
100
AcDbEntity
  8
レイヤー 1
100
AcDbSpline
210
0.0
220
0.0
230
1.0
 70
     9
 71
     3
 72
    53
 73
    49
 74
     0
 42
0.0000000001
 43
0.0000000001
 40
0.0
 40
0.0
 40
0.0
 40
0.0
 40
1.0
 40
1.0
 40
1.0
 40
2.0
 40
2.0
 40
2.0
 40
3.0
 40
3.0
 40
3.0
 40
4.0
 40
4.0
 40
4.0
 40
5.0
 40
5.0
 40
5.0
 40
6.0
 40
6.0
 40
6.0
 40
7.0
 40
7.0
 40
7.0
 40
8.0
 40
8.0
 40
8.0
 40
9.0
 40
9.0
 40
9.0
 40
10.0
 40
10.0
 40
10.0
 40
11.0
 40
11.0
 40
11.0
 40
12.0
 40
12.0
 40
12.0
 40
13.0
 40
13.0
 40
13.0
 40
14.0
 40
14.0
 40
14.0
 40
15.0
 40
15.0
 40
15.0
 40
16.0
 40
16.0
 40
16.0
 40
16.0
 10
95.36885577042863
 20
-145.8904920425204
 30
0.0
 10
95.37609047094765
 20
-145.8460503107607
 30
0.0
 10
95.37609047094765
 20
-145.8376098268218
 30
0.0
 10
95.38143036894977
 20
-145.763540273889
 30
0.0
 10
95.38143036894977
 20
-145.763540273889
 30
0.0
 10
94.50327552975961
 20
-145.763540273889
 30
0.0
 10
94.50327552975961
 20
-145.763540273889
 30
0.0
 10
94.50327552975961
 20
-145.7952351523533
 30
0.0
 10
94.50327552975961
 20
-145.8503566801172
 30
0.0
 10
94.5068928800191
 20
-145.8861856731639
 30
0.0
 10
94.5068928800191
 20
-145.8861856731639
 30
0.0
 10
94.3012206795497
 20
-145.8861856731639
 30
0.0
 10
94.3012206795497
 20
-145.8861856731639
 30
0.0
 10
94.30673283232611
 20
-145.8312364001741
 30
0.0
 10
94.31569008058774
 20
-145.7402858793635
 30
0.0
 10
94.31569008058774
 20
-145.6112670534409
 30
0.0
 10
94.31758488310462
 20
-145.4061116172943
 30
0.0
 10
94.31758488310462
 20
-145.3826849679946
 30
0.0
 10
94.31758488310462
 20
-145.3594305734692
 30
0.0
 10
94.31758488310462
 20
-145.3594305734692
 30
0.0
 10
94.31758488310462
 20
-144.9194918800027
 30
0.0
 10
94.31758488310462
 20
-144.9194918800027
 30
0.0
 10
94.31758488310462
 20
-144.8538628110087
 30
0.0
 10
94.31207273032823
 20
-144.5301960901695
 30
0.0
 10
94.30845538006872
 20
-144.4752468171798
 30
0.0
 10
94.41490883056294
 20
-144.487821415701
 30
0.0
 10
94.64039033007255
 20
-144.4921277850575
 30
0.0
 10
94.75218367856889
 20
-144.4921277850575
 30
0.0
 10
94.75218367856889
 20
-144.4921277850575
 30
0.0
 10
95.13975692065951
 20
-144.4921277850575
 30
0.0
 10
95.13975692065951
 20
-144.4921277850575
 30
0.0
 10
95.26791447271079
 20
-144.4921277850575
 30
0.0
 10
95.45894501736791
 20
-144.4900607277664
 30
0.0
 10
95.58348521915968
 20
-144.4816202438275
 30
0.0
 10
95.57625051864066
 20
-144.591518789807
 30
0.0
 10
95.57263316838115
 20
-144.8411159577133
 30
0.0
 10
95.57263316838115
 20
-144.9596272424059
 30
0.0
 10
95.57263316838115
 20
-144.9596272424059
 30
0.0
 10
95.57263316838115
 20
-145.3785508534123
 30
0.0
 10
95.57263316838115
 20
-145.3785508534123
 30
0.0
 10
95.57263316838115
 20
-145.4209255278809
 30
0.0
 10
95.57797306638329
 20
-145.602826569502
 30
0.0
 10
95.57797306638329
 20
-145.640894874614
 30
0.0
 10
95.57986786890017
 20
-145.7911010377709
 30
0.0
 10
95.58710256941919
 20
-145.8417439414041
 30
0.0
 10
95.59433726993821
 20
-145.8904920425204
 30
0.0
 10
95.59433726993821
 20
-145.8904920425204
 30
0.0
 10
95.36885577042863
 20
-145.8904920425204
 30
0.0
 10
95.36885577042863
 20
-145.8904920425204
 30
0.0
  0
HATCH
  5
106
330
FE
100
AcDbEntity
  8
レイヤー 1
 62
   250
420
  2299925
440
 33554687
100
AcDbHatch
 10
0.0
 20
0.0
 30
0.0
210
0.0
220
0.0
230
1.0
  2
SOLID
 70
     1
 71
     1
 91
        2
 92
        1
 93
        1
 72
     4
 94
        3
 73
     0
 74
     0
 95
       17
 96
       13
 40
0.0
 40
0.0
 40
0.0
 40
0.0
 40
1.0
 40
1.0
 40
1.0
 40
2.0
 40
2.0
 40
2.0
 40
3.0
 40
3.0
 40
3.0
 40
4.0
 40
4.0
 40
4.0
 40
4.0
 10
95.38866506946881
 20
-144.6867756799741
 10
95.38866506946881
 20
-144.6867756799741
 10
94.50138072724271
 20
-144.6867756799741
 10
94.50138072724271
 20
-144.6867756799741
 10
94.50138072724271
 20
-144.6867756799741
 10
94.50138072724271
 20
-145.5752658056201
 10
94.50138072724271
 20
-145.5752658056201
 10
94.50138072724271
 20
-145.5752658056201
 10
95.38866506946881
 20
-145.5752658056201
 10
95.38866506946881
 20
-145.5752658056201
 10
95.38866506946881
 20
-145.5752658056201
 10
95.38866506946881
 20
-144.6867756799741
 10
95.38866506946881
 20
-144.6867756799741
 97
        0
 97
        1
330
104
 92
        1
 93
        1
 72
     4
 94
        3
 73
     0
 74
     0
 95
       53
 96
       49
 40
0.0
 40
0.0
 40
0.0
 40
0.0
 40
1.0
 40
1.0
 40
1.0
 40
2.0
 40
2.0
 40
2.0
 40
3.0
 40
3.0
 40
3.0
 40
4.0
 40
4.0
 40
4.0
 40
5.0
 40
5.0
 40
5.0
 40
6.0
 40
6.0
 40
6.0
 40
7.0
 40
7.0
 40
7.0
 40
8.0
 40
8.0
 40
8.0
 40
9.0
 40
9.0
 40
9.0
 40
10.0
 40
10.0
 40
10.0
 40
11.0
 40
11.0
 40
11.0
 40
12.0
 40
12.0
 40
12.0
 40
13.0
 40
13.0
 40
13.0
 40
14.0
 40
14.0
 40
14.0
 40
15.0
 40
15.0
 40
15.0
 40
16.0
 40
16.0
 40
16.0
 40
16.0
 10
95.36885577042863
 20
-145.8904920425204
 10
95.37609047094765
 20
-145.8460503107607
 10
95.37609047094765
 20
-145.8376098268218
 10
95.38143036894977
 20
-145.763540273889
 10
95.38143036894977
 20
-145.763540273889
 10
94.50327552975961
 20
-145.763540273889
 10
94.50327552975961
 20
-145.763540273889
 10
94.50327552975961
 20
-145.7952351523533
 10
94.50327552975961
 20
-145.8503566801172
 10
94.5068928800191
 20
-145.8861856731639
 10
94.5068928800191
 20
-145.8861856731639
 10
94.3012206795497
 20
-145.8861856731639
 10
94.3012206795497
 20
-145.8861856731639
 10
94.30673283232611
 20
-145.8312364001741
 10
94.31569008058774
 20
-145.7402858793635
 10
94.31569008058774
 20
-145.6112670534409
 10
94.31758488310462
 20
-145.4061116172943
 10
94.31758488310462
 20
-145.3826849679946
 10
94.31758488310462
 20
-145.3594305734692
 10
94.31758488310462
 20
-145.3594305734692
 10
94.31758488310462
 20
-144.9194918800027
 10
94.31758488310462
 20
-144.9194918800027
 10
94.31758488310462
 20
-144.8538628110087
 10
94.31207273032823
 20
-144.5301960901695
 10
94.30845538006872
 20
-144.4752468171798
 10
94.41490883056294
 20
-144.487821415701
 10
94.64039033007255
 20
-144.4921277850575
 10
94.75218367856889
 20
-144.4921277850575
 10
94.75218367856889
 20
-144.4921277850575
 10
95.13975692065951
 20
-144.4921277850575
 10
95.13975692065951
 20
-144.4921277850575
 10
95.26791447271079
 20
-144.4921277850575
 10
95.45894501736791
 20
-144.4900607277664
 10
95.58348521915968
 20
-144.4816202438275
 10
95.57625051864066
 20
-144.591518789807
 10
95.57263316838115
 20
-144.8411159577133
 10
95.57263316838115
 20
-144.9596272424059
 10
95.57263316838115
 20
-144.9596272424059
 10
95.57263316838115
 20
-145.3785508534123
 10
95.57263316838115
 20
-145.3785508534123
 10
95.57263316838115
 20
-145.4209255278809
 10
95.57797306638329
 20
-145.602826569502
 10
95.57797306638329
 20
-145.640894874614
 10
95.57986786890017
 20
-145.7911010377709
 10
95.58710256941919
 20
-145.8417439414041
 10
95.59433726993821
 20
-145.8904920425204
 10
95.59433726993821
 20
-145.8904920425204
 10
95.36885577042863
 20
-145.8904920425204
 10
95.36885577042863
 20
-145.8904920425204
 97
        0
 97
        1
330
105
 75
     2
 76
     1
 98
        1
 10
0.0
 20
0.0
450
        0
451
        0
460
0.0
461
0.0
452
        0
462
0.0
453
        0
470

  0
SPLINE
  5
107
330
FE
100
AcDbEntity
  8
レイヤー 1
100
AcDbSpline
210
0.0
220
0.0
230
1.0
 70
     9
 71
     3
 72
    56
 73
    52
 74
     0
 42
0.0000000001
 43
0.0000000001
 40
0.0
 40
0.0
 40
0.0
 40
0.0
 40
1.0
 40
1.0
 40
1.0
 40
2.0
 40
2.0
 40
2.0
 40
3.0
 40
3.0
 40
3.0
 40
4.0
 40
4.0
 40
4.0
 40
5.0
 40
5.0
 40
5.0
 40
6.0
 40
6.0
 40
6.0
 40
7.0
 40
7.0
 40
7.0
 40
8.0
 40
8.0
 40
8.0
 40
9.0
 40
9.0
 40
9.0
 40
10.0
 40
10.0
 40
10.0
 40
11.0
 40
11.0
 40
11.0
 40
12.0
 40
12.0
 40
12.0
 40
13.0
 40
13.0
 40
13.0
 40
14.0
 40
14.0
 40
14.0
 40
15.0
 40
15.0
 40
15.0
 40
16.0
 40
16.0
 40
16.0
 40
17.0
 40
17.0
 40
17.0
 40
17.0
 10
97.08072371704927
 20
-145.9561211115144
 30
0.0
 10
96.91673717195138
 20
-145.6472683012618
 30
0.0
 10
96.69659557044392
 20
-145.4419406103409
 30
0.0
 10
96.6190809220258
 20
-145.3764837961211
 30
0.0
 10
96.36845022547387
 20
-145.7149644275469
 30
0.0
 10
96.12143687918145
 20
-145.867237647995
 30
0.0
 10
95.95193818130715
 20
-145.9602552260967
 30
0.0
 10
95.95193818130715
 20
-145.9602552260967
 30
0.0
 10
95.81671818351109
 20
-145.7719807578278
 30
0.0
 10
95.81671818351109
 20
-145.7719807578278
 30
0.0
 10
95.90508488270776
 20
-145.735979510007
 30
0.0
 10
96.08715817910322
 20
-145.6598428997829
 30
0.0
 10
96.28542342427934
 20
-145.4738077435794
 30
0.0
 10
96.51090492378894
 20
-145.2621066260109
 30
0.0
 10
96.66955157088471
 20
-144.9744411529925
 30
0.0
 10
96.77428247363629
 20
-144.6614542281575
 30
0.0
 10
96.77428247363629
 20
-144.6614542281575
 30
0.0
 10
96.45319957441103
 20
-144.6614542281575
 30
0.0
 10
96.45319957441103
 20
-144.6614542281575
 30
0.0
 10
96.32331947461709
 20
-144.6614542281575
 30
0.0
 10
96.14486352848116
 20
-144.6655883427398
 30
0.0
 10
96.01687823120412
 20
-144.684708622683
 30
0.0
 10
96.01687823120412
 20
-144.684708622683
 30
0.0
 10
96.01687823120412
 20
-144.4731797598886
 30
0.0
 10
96.01687823120412
 20
-144.4731797598886
 30
0.0
 10
96.07458358058206
 20
-144.4793809317621
 30
0.0
 10
96.29627547505789
 20
-144.4900607277664
 30
0.0
 10
96.37034502799075
 20
-144.4900607277664
 30
0.0
 10
96.37034502799075
 20
-144.4900607277664
 30
0.0
 10
96.63527287080647
 20
-144.4900607277664
 30
0.0
 10
96.63527287080647
 20
-144.4900607277664
 30
0.0
 10
96.81200626919979
 20
-144.4900607277664
 30
0.0
 10
96.83198782301424
 20
-144.4836873011186
 30
0.0
 10
96.85179712205442
 20
-144.4793809317621
 30
0.0
 10
96.88969317239218
 20
-144.4731797598886
 30
0.0
 10
96.92207706995352
 20
-144.4476860532978
 30
0.0
 10
96.94016382125107
 20
-144.4308050854201
 30
0.0
 10
96.94016382125107
 20
-144.4308050854201
 30
0.0
 10
97.07348901653025
 20
-144.6042656431024
 30
0.0
 10
97.07348901653025
 20
-144.6042656431024
 30
0.0
 10
97.03921031645201
 20
-144.6318264069844
 30
0.0
 10
97.02853052044773
 20
-144.6423339482144
 30
0.0
 10
96.98701711985048
 20
-144.6783351960353
 30
0.0
 10
96.87694631909675
 20
-144.9258653066505
 30
0.0
 10
96.80838891894026
 20
-145.0760714698073
 30
0.0
 10
96.72002221974361
 20
-145.2219712636077
 30
0.0
 10
96.98701711985048
 20
-145.4398735530497
 30
0.0
 10
97.18166501476709
 20
-145.7254719687769
 30
0.0
 10
97.22679576562386
 20
-145.8036756362921
 30
0.0
 10
97.22679576562386
 20
-145.8036756362921
 30
0.0
 10
97.08072371704927
 20
-145.9561211115144
 30
0.0
 10
97.08072371704927
 20
-145.9561211115144
 30
0.0
  0
HATCH
  5
108
330
FE
100
AcDbEntity
  8
レイヤー 1
 62
   250
420
  2299925
440
 33554687
100
AcDbHatch
 10
0.0
 20
0.0
 30
0.0
210
0.0
220
0.0
230
1.0
  2
SOLID
 70
     1
 71
     1
 91
        1
 92
        1
 93
        1
 72
     4
 94
        3
 73
     0
 74
     0
 95
       56
 96
       52
 40
0.0
 40
0.0
 40
0.0
 40
0.0
 40
1.0
 40
1.0
 40
1.0
 40
2.0
 40
2.0
 40
2.0
 40
3.0
 40
3.0
 40
3.0
 40
4.0
 40
4.0
 40
4.0
 40
5.0
 40
5.0
 40
5.0
 40
6.0
 40
6.0
 40
6.0
 40
7.0
 40
7.0
 40
7.0
 40
8.0
 40
8.0
 40
8.0
 40
9.0
 40
9.0
 40
9.0
 40
10.0
 40
10.0
 40
10.0
 40
11.0
 40
11.0
 40
11.0
 40
12.0
 40
12.0
 40
12.0
 40
13.0
 40
13.0
 40
13.0
 40
14.0
 40
14.0
 40
14.0
 40
15.0
 40
15.0
 40
15.0
 40
16.0
 40
16.0
 40
16.0
 40
17.0
 40
17.0
 40
17.0
 40
17.0
 10
97.08072371704927
 20
-145.9561211115144
 10
96.91673717195138
 20
-145.6472683012618
 10
96.69659557044392
 20
-145.4419406103409
 10
96.6190809220258
 20
-145.3764837961211
 10
96.36845022547387
 20
-145.7149644275469
 10
96.12143687918145
 20
-145.867237647995
 10
95.95193818130715
 20
-145.9602552260967
 10
95.95193818130715
 20
-145.9602552260967
 10
95.81671818351109
 20
-145.7719807578278
 10
95.81671818351109
 20
-145.7719807578278
 10
95.90508488270776
 20
-145.735979510007
 10
96.08715817910322
 20
-145.6598428997829
 10
96.28542342427934
 20
-145.4738077435794
 10
96.51090492378894
 20
-145.2621066260109
 10
96.66955157088471
 20
-144.9744411529925
 10
96.77428247363629
 20
-144.6614542281575
 10
96.77428247363629
 20
-144.6614542281575
 10
96.45319957441103
 20
-144.6614542281575
 10
96.45319957441103
 20
-144.6614542281575
 10
96.32331947461709
 20
-144.6614542281575
 10
96.14486352848116
 20
-144.6655883427398
 10
96.01687823120412
 20
-144.684708622683
 10
96.01687823120412
 20
-144.684708622683
 10
96.01687823120412
 20
-144.4731797598886
 10
96.01687823120412
 20
-144.4731797598886
 10
96.07458358058206
 20
-144.4793809317621
 10
96.29627547505789
 20
-144.4900607277664
 10
96.37034502799075
 20
-144.4900607277664
 10
96.37034502799075
 20
-144.4900607277664
 10
96.63527287080647
 20
-144.4900607277664
 10
96.63527287080647
 20
-144.4900607277664
 10
96.81200626919979
 20
-144.4900607277664
 10
96.83198782301424
 20
-144.4836873011186
 10
96.85179712205442
 20
-144.4793809317621
 10
96.88969317239218
 20
-144.4731797598886
 10
96.92207706995352
 20
-144.4476860532978
 10
96.94016382125107
 20
-144.4308050854201
 10
96.94016382125107
 20
-144.4308050854201
 10
97.07348901653025
 20
-144.6042656431024
 10
97.07348901653025
 20
-144.6042656431024
 10
97.03921031645201
 20
-144.6318264069844
 10
97.02853052044773
 20
-144.6423339482144
 10
96.98701711985048
 20
-144.6783351960353
 10
96.87694631909675
 20
-144.9258653066505
 10
96.80838891894026
 20
-145.0760714698073
 10
96.72002221974361
 20
-145.2219712636077
 10
96.98701711985048
 20
-145.4398735530497
 10
97.18166501476709
 20
-145.7254719687769
 10
97.22679576562386
 20
-145.8036756362921
 10
97.22679576562386
 20
-145.8036756362921
 10
97.08072371704927
 20
-145.9561211115144
 10
97.08072371704927
 20
-145.9561211115144
 97
        0
 97
        1
330
107
 75
     2
 76
     1
 98
        1
 10
0.0
 20
0.0
450
        0
451
        0
460
0.0
461
0.0
452
        0
462
0.0
453
        0
470

  0
SPLINE
  5
109
330
FE
100
AcDbEntity
  8
レイヤー 1
100
AcDbSpline
210
0.0
220
0.0
230
1.0
 70
    11
 71
     3
 72
    17
 73
    13
 74
     0
 42
0.0000000001
 43
0.0000000001
 40
0.0
 40
0.0
 40
0.0
 40
0.0
 40
1.0
 40
1.0
 40
1.0
 40
2.0
 40
2.0
 40
2.0
 40
3.0
 40
3.0
 40
3.0
 40
4.0
 40
4.0
 40
4.0
 40
4.0
 10
98.68269311769045
 20
-144.978747522349
 30
0.0
 10
98.68269311769045
 20
-144.978747522349
 30
0.0
 10
98.29133027056606
 20
-144.978747522349
 30
0.0
 10
98.29133027056606
 20
-144.978747522349
 30
0.0
 10
98.29133027056606
 20
-144.978747522349
 30
0.0
 10
98.29133027056606
 20
-145.2876003326017
 30
0.0
 10
98.29133027056606
 20
-145.2876003326017
 30
0.0
 10
98.29133027056606
 20
-145.2876003326017
 30
0.0
 10
98.68269311769045
 20
-145.2876003326017
 30
0.0
 10
98.68269311769045
 20
-145.2876003326017
 30
0.0
 10
98.68269311769045
 20
-145.2876003326017
 30
0.0
 10
98.68269311769045
 20
-144.978747522349
 30
0.0
 10
98.68269311769045
 20
-144.978747522349
 30
0.0
  0
SPLINE
  5
10A
330
FE
100
AcDbEntity
  8
レイヤー 1
100
AcDbSpline
210
0.0
220
0.0
230
1.0
 70
    11
 71
     3
 72
    17
 73
    13
 74
     0
 42
0.0000000001
 43
0.0000000001
 40
0.0
 40
0.0
 40
0.0
 40
0.0
 40
1.0
 40
1.0
 40
1.0
 40
2.0
 40
2.0
 40
2.0
 40
3.0
 40
3.0
 40
3.0
 40
4.0
 40
4.0
 40
4.0
 40
4.0
 10
98.68269311769045
 20
-144.5069416956441
 30
0.0
 10
98.68269311769045
 20
-144.5069416956441
 30
0.0
 10
98.29133027056606
 20
-144.5069416956441
 30
0.0
 10
98.29133027056606
 20
-144.5069416956441
 30
0.0
 10
98.29133027056606
 20
-144.5069416956441
 30
0.0
 10
98.29133027056606
 20
-144.8114881365402
 30
0.0
 10
98.29133027056606
 20
-144.8114881365402
 30
0.0
 10
98.29133027056606
 20
-144.8114881365402
 30
0.0
 10
98.68269311769045
 20
-144.8114881365402
 30
0.0
 10
98.68269311769045
 20
-144.8114881365402
 30
0.0
 10
98.68269311769045
 20
-144.8114881365402
 30
0.0
 10
98.68269311769045
 20
-144.5069416956441
 30
0.0
 10
98.68269311769045
 20
-144.5069416956441
 30
0.0
  0
SPLINE
  5
10B
330
FE
100
AcDbEntity
  8
レイヤー 1
100
AcDbSpline
210
0.0
220
0.0
230
1.0
 70
    11
 71
     3
 72
    17
 73
    13
 74
     0
 42
0.0000000001
 43
0.0000000001
 40
0.0
 40
0.0
 40
0.0
 40
0.0
 40
1.0
 40
1.0
 40
1.0
 40
2.0
 40
2.0
 40
2.0
 40
3.0
 40
3.0
 40
3.0
 40
4.0
 40
4.0
 40
4.0
 40
4.0
 10
98.1290662732108
 20
-144.978747522349
 30
0.0
 10
98.1290662732108
 20
-144.978747522349
 30
0.0
 10
97.75579017738397
 20
-144.978747522349
 30
0.0
 10
97.75579017738397
 20
-144.978747522349
 30
0.0
 10
97.75579017738397
 20
-144.978747522349
 30
0.0
 10
97.75579017738397
 20
-145.2876003326017
 30
0.0
 10
97.75579017738397
 20
-145.2876003326017
 30
0.0
 10
97.75579017738397
 20
-145.2876003326017
 30
0.0
 10
98.1290662732108
 20
-145.2876003326017
 30
0.0
 10
98.1290662732108
 20
-145.2876003326017
 30
0.0
 10
98.1290662732108
 20
-145.2876003326017
 30
0.0
 10
98.1290662732108
 20
-144.978747522349
 30
0.0
 10
98.1290662732108
 20
-144.978747522349
 30
0.0
  0
SPLINE
  5
10C
330
FE
100
AcDbEntity
  8
レイヤー 1
100
AcDbSpline
210
0.0
220
0.0
230
1.0
 70
    11
 71
     3
 72
    17
 73
    13
 74
     0
 42
0.0000000001
 43
0.0000000001
 40
0.0
 40
0.0
 40
0.0
 40
0.0
 40
1.0
 40
1.0
 40
1.0
 40
2.0
 40
2.0
 40
2.0
 40
3.0
 40
3.0
 40
3.0
 40
4.0
 40
4.0
 40
4.0
 40
4.0
 10
98.1290662732108
 20
-144.5069416956441
 30
0.0
 10
98.1290662732108
 20
-144.5069416956441
 30
0.0
 10
97.75579017738397
 20
-144.5069416956441
 30
0.0
 10
97.75579017738397
 20
-144.5069416956441
 30
0.0
 10
97.75579017738397
 20
-144.5069416956441
 30
0.0
 10
97.75579017738397
 20
-144.8114881365402
 30
0.0
 10
97.75579017738397
 20
-144.8114881365402
 30
0.0
 10
97.75579017738397
 20
-144.8114881365402
 30
0.0
 10
98.1290662732108
 20
-144.8114881365402
 30
0.0
 10
98.1290662732108
 20
-144.8114881365402
 30
0.0
 10
98.1290662732108
 20
-144.8114881365402
 30
0.0
 10
98.1290662732108
 20
-144.5069416956441
 30
0.0
 10
98.1290662732108
 20
-144.5069416956441
 30
0.0
  0
SPLINE
  5
10D
330
FE
100
AcDbEntity
  8
レイヤー 1
100
AcDbSpline
210
0.0
220
0.0
230
1.0
 70
     9
 71
     3
 72
    77
 73
    73
 74
     0
 42
0.0000000001
 43
0.0000000001
 40
0.0
 40
0.0
 40
0.0
 40
0.0
 40
1.0
 40
1.0
 40
1.0
 40
2.0
 40
2.0
 40
2.0
 40
3.0
 40
3.0
 40
3.0
 40
4.0
 40
4.0
 40
4.0
 40
5.0
 40
5.0
 40
5.0
 40
6.0
 40
6.0
 40
6.0
 40
7.0
 40
7.0
 40
7.0
 40
8.0
 40
8.0
 40
8.0
 40
9.0
 40
9.0
 40
9.0
 40
10.0
 40
10.0
 40
10.0
 40
11.0
 40
11.0
 40
11.0
 40
12.0
 40
12.0
 40
12.0
 40
13.0
 40
13.0
 40
13.0
 40
14.0
 40
14.0
 40
14.0
 40
15.0
 40
15.0
 40
15.0
 40
16.0
 40
16.0
 40
16.0
 40
17.0
 40
17.0
 40
17.0
 40
18.0
 40
18.0
 40
18.0
 40
19.0
 40
19.0
 40
19.0
 40
20.0
 40
20.0
 40
20.0
 40
21.0
 40
21.0
 40
21.0
 40
22.0
 40
22.0
 40
22.0
 40
23.0
 40
23.0
 40
23.0
 40
24.0
 40
24.0
 40
24.0
 40
24.0
 10
98.79810381644631
 20
-146.0935804213759
 30
0.0
 10
98.75848521836594
 20
-146.1189018731925
 30
0.0
 10
98.65203176787172
 20
-146.1316487264879
 30
0.0
 10
98.58536917023215
 20
-146.1316487264879
 30
0.0
 10
98.5745171194536
 20
-146.1316487264879
 30
0.0
 10
98.55281301789652
 20
-146.1316487264879
 30
0.0
 10
98.52404647059469
 20
-146.1273423571313
 30
0.0
 10
98.52404647059469
 20
-146.1273423571313
 30
0.0
 10
98.44101966940016
 20
-145.9009995837504
 30
0.0
 10
98.44101966940016
 20
-145.9009995837504
 30
0.0
 10
98.46634112121677
 20
-145.9073730103981
 30
0.0
 10
98.51491696755878
 20
-145.915813494337
 30
0.0
 10
98.61413571753397
 20
-145.915813494337
 30
0.0
 10
98.68097056994782
 20
-145.915813494337
 30
0.0
 10
98.68269311769045
 20
-145.8736110746427
 30
0.0
 10
98.68269311769045
 20
-145.8164224895876
 30
0.0
 10
98.68269311769045
 20
-145.8164224895876
 30
0.0
 10
98.68269311769045
 20
-145.4674343169317
 30
0.0
 10
98.68269311769045
 20
-145.4674343169317
 30
0.0
 10
98.68269311769045
 20
-145.4674343169317
 30
0.0
 10
98.29133027056606
 20
-145.4674343169317
 30
0.0
 10
98.29133027056606
 20
-145.4674343169317
 30
0.0
 10
98.29322507308296
 20
-145.6048936267932
 30
0.0
 10
98.29494762082557
 20
-145.8036756362921
 30
0.0
 10
98.30045977360198
 20
-145.9370008315713
 30
0.0
 10
98.30218232134461
 20
-145.9645615954533
 30
0.0
 10
98.30218232134461
 20
-146.009003327213
 30
0.0
 10
98.31303437212314
 20
-146.0703260268505
 30
0.0
 10
98.31303437212314
 20
-146.0703260268505
 30
0.0
 10
98.10736217165372
 20
-146.0703260268505
 30
0.0
 10
98.10736217165372
 20
-146.0703260268505
 30
0.0
 10
98.1290662732108
 20
-145.9454413155102
 30
0.0
 10
98.1290662732108
 20
-145.6048936267932
 30
0.0
 10
98.1290662732108
 20
-145.4674343169317
 30
0.0
 10
98.1290662732108
 20
-145.4674343169317
 30
0.0
 10
97.75217282712446
 20
-145.4674343169317
 30
0.0
 10
97.75217282712446
 20
-145.4674343169317
 30
0.0
 10
97.73236352808428
 20
-145.6746568103695
 30
0.0
 10
97.67638072644897
 20
-145.943374258219
 30
0.0
 10
97.50877683109157
 20
-146.1273423571313
 30
0.0
 10
97.50877683109157
 20
-146.1273423571313
 30
0.0
 10
97.34823538147892
 20
-146.0046969578565
 30
0.0
 10
97.34823538147892
 20
-146.0046969578565
 30
0.0
 10
97.56458737795261
 20
-145.7847276111232
 30
0.0
 10
97.59163137751182
 20
-145.4526204063451
 30
0.0
 10
97.59163137751182
 20
-145.1205132015671
 30
0.0
 10
97.59163137751182
 20
-145.1205132015671
 30
0.0
 10
97.59163137751182
 20
-144.684708622683
 30
0.0
 10
97.59163137751182
 20
-144.684708622683
 30
0.0
 10
97.59163137751182
 20
-144.6487073748621
 30
0.0
 10
97.5899088297692
 20
-144.4159911748335
 30
0.0
 10
97.58267412925016
 20
-144.3143608580186
 30
0.0
 10
97.70170217826555
 20
-144.3250406540229
 30
0.0
 10
97.9072021239607
 20
-144.3250406540229
 30
0.0
 10
98.0298475232356
 20
-144.3250406540229
 30
0.0
 10
98.0298475232356
 20
-144.3250406540229
 30
0.0
 10
98.42121037035999
 20
-144.3250406540229
 30
0.0
 10
98.42121037035999
 20
-144.3250406540229
 30
0.0
 10
98.43378496888114
 20
-144.3250406540229
 30
0.0
 10
98.73144121880672
 20
-144.3250406540229
 30
0.0
 10
98.86666121660278
 20
-144.3143608580186
 30
0.0
 10
98.8647664140859
 20
-144.3672430737172
 30
0.0
 10
98.85942651608376
 20
-144.5281290328784
 30
0.0
 10
98.85942651608376
 20
-144.5789441912858
 30
0.0
 10
98.85942651608376
 20
-144.5789441912858
 30
0.0
 10
98.85942651608376
 20
-145.1859700157868
 30
0.0
 10
98.85942651608376
 20
-145.1859700157868
 30
0.0
 10
98.85942651608376
 20
-145.2050902957299
 30
0.0
 10
98.86838376434541
 20
-145.7762871271844
 30
0.0
 10
98.86838376434541
 20
-145.8884249852292
 30
0.0
 10
98.86838376434541
 20
-145.9454413155102
 30
0.0
 10
98.86838376434541
 20
-146.047071632325
 30
0.0
 10
98.79810381644631
 20
-146.0935804213759
 30
0.0
  0
HATCH
  5
10E
330
FE
100
AcDbEntity
  8
レイヤー 1
 62
   250
420
  2299925
440
 33554687
100
AcDbHatch
 10
0.0
 20
0.0
 30
0.0
210
0.0
220
0.0
230
1.0
  2
SOLID
 70
     1
 71
     1
 91
        5
 92
        1
 93
        1
 72
     4
 94
        3
 73
     0
 74
     0
 95
       17
 96
       13
 40
0.0
 40
0.0
 40
0.0
 40
0.0
 40
1.0
 40
1.0
 40
1.0
 40
2.0
 40
2.0
 40
2.0
 40
3.0
 40
3.0
 40
3.0
 40
4.0
 40
4.0
 40
4.0
 40
4.0
 10
98.68269311769045
 20
-144.978747522349
 10
98.68269311769045
 20
-144.978747522349
 10
98.29133027056606
 20
-144.978747522349
 10
98.29133027056606
 20
-144.978747522349
 10
98.29133027056606
 20
-144.978747522349
 10
98.29133027056606
 20
-145.2876003326017
 10
98.29133027056606
 20
-145.2876003326017
 10
98.29133027056606
 20
-145.2876003326017
 10
98.68269311769045
 20
-145.2876003326017
 10
98.68269311769045
 20
-145.2876003326017
 10
98.68269311769045
 20
-145.2876003326017
 10
98.68269311769045
 20
-144.978747522349
 10
98.68269311769045
 20
-144.978747522349
 97
        0
 97
        1
330
109
 92
        1
 93
        1
 72
     4
 94
        3
 73
     0
 74
     0
 95
       17
 96
       13
 40
0.0
 40
0.0
 40
0.0
 40
0.0
 40
1.0
 40
1.0
 40
1.0
 40
2.0
 40
2.0
 40
2.0
 40
3.0
 40
3.0
 40
3.0
 40
4.0
 40
4.0
 40
4.0
 40
4.0
 10
98.68269311769045
 20
-144.5069416956441
 10
98.68269311769045
 20
-144.5069416956441
 10
98.29133027056606
 20
-144.5069416956441
 10
98.29133027056606
 20
-144.5069416956441
 10
98.29133027056606
 20
-144.5069416956441
 10
98.29133027056606
 20
-144.8114881365402
 10
98.29133027056606
 20
-144.8114881365402
 10
98.29133027056606
 20
-144.8114881365402
 10
98.68269311769045
 20
-144.8114881365402
 10
98.68269311769045
 20
-144.8114881365402
 10
98.68269311769045
 20
-144.8114881365402
 10
98.68269311769045
 20
-144.5069416956441
 10
98.68269311769045
 20
-144.5069416956441
 97
        0
 97
        1
330
10A
 92
        1
 93
        1
 72
     4
 94
        3
 73
     0
 74
     0
 95
       17
 96
       13
 40
0.0
 40
0.0
 40
0.0
 40
0.0
 40
1.0
 40
1.0
 40
1.0
 40
2.0
 40
2.0
 40
2.0
 40
3.0
 40
3.0
 40
3.0
 40
4.0
 40
4.0
 40
4.0
 40
4.0
 10
98.1290662732108
 20
-144.978747522349
 10
98.1290662732108
 20
-144.978747522349
 10
97.75579017738397
 20
-144.978747522349
 10
97.75579017738397
 20
-144.978747522349
 10
97.75579017738397
 20
-144.978747522349
 10
97.75579017738397
 20
-145.2876003326017
 10
97.75579017738397
 20
-145.2876003326017
 10
97.75579017738397
 20
-145.2876003326017
 10
98.1290662732108
 20
-145.2876003326017
 10
98.1290662732108
 20
-145.2876003326017
 10
98.1290662732108
 20
-145.2876003326017
 10
98.1290662732108
 20
-144.978747522349
 10
98.1290662732108
 20
-144.978747522349
 97
        0
 97
        1
330
10B
 92
        1
 93
        1
 72
     4
 94
        3
 73
     0
 74
     0
 95
       17
 96
       13
 40
0.0
 40
0.0
 40
0.0
 40
0.0
 40
1.0
 40
1.0
 40
1.0
 40
2.0
 40
2.0
 40
2.0
 40
3.0
 40
3.0
 40
3.0
 40
4.0
 40
4.0
 40
4.0
 40
4.0
 10
98.1290662732108
 20
-144.5069416956441
 10
98.1290662732108
 20
-144.5069416956441
 10
97.75579017738397
 20
-144.5069416956441
 10
97.75579017738397
 20
-144.5069416956441
 10
97.75579017738397
 20
-144.5069416956441
 10
97.75579017738397
 20
-144.8114881365402
 10
97.75579017738397
 20
-144.8114881365402
 10
97.75579017738397
 20
-144.8114881365402
 10
98.1290662732108
 20
-144.8114881365402
 10
98.1290662732108
 20
-144.8114881365402
 10
98.1290662732108
 20
-144.8114881365402
 10
98.1290662732108
 20
-144.5069416956441
 10
98.1290662732108
 20
-144.5069416956441
 97
        0
 97
        1
330
10C
 92
        1
 93
        1
 72
     4
 94
        3
 73
     0
 74
     0
 95
       77
 96
       73
 40
0.0
 40
0.0
 40
0.0
 40
0.0
 40
1.0
 40
1.0
 40
1.0
 40
2.0
 40
2.0
 40
2.0
 40
3.0
 40
3.0
 40
3.0
 40
4.0
 40
4.0
 40
4.0
 40
5.0
 40
5.0
 40
5.0
 40
6.0
 40
6.0
 40
6.0
 40
7.0
 40
7.0
 40
7.0
 40
8.0
 40
8.0
 40
8.0
 40
9.0
 40
9.0
 40
9.0
 40
10.0
 40
10.0
 40
10.0
 40
11.0
 40
11.0
 40
11.0
 40
12.0
 40
12.0
 40
12.0
 40
13.0
 40
13.0
 40
13.0
 40
14.0
 40
14.0
 40
14.0
 40
15.0
 40
15.0
 40
15.0
 40
16.0
 40
16.0
 40
16.0
 40
17.0
 40
17.0
 40
17.0
 40
18.0
 40
18.0
 40
18.0
 40
19.0
 40
19.0
 40
19.0
 40
20.0
 40
20.0
 40
20.0
 40
21.0
 40
21.0
 40
21.0
 40
22.0
 40
22.0
 40
22.0
 40
23.0
 40
23.0
 40
23.0
 40
24.0
 40
24.0
 40
24.0
 40
24.0
 10
98.79810381644631
 20
-146.0935804213759
 10
98.75848521836594
 20
-146.1189018731925
 10
98.65203176787172
 20
-146.1316487264879
 10
98.58536917023215
 20
-146.1316487264879
 10
98.5745171194536
 20
-146.1316487264879
 10
98.55281301789652
 20
-146.1316487264879
 10
98.52404647059469
 20
-146.1273423571313
 10
98.52404647059469
 20
-146.1273423571313
 10
98.44101966940016
 20
-145.9009995837504
 10
98.44101966940016
 20
-145.9009995837504
 10
98.46634112121677
 20
-145.9073730103981
 10
98.51491696755878
 20
-145.915813494337
 10
98.61413571753397
 20
-145.915813494337
 10
98.68097056994782
 20
-145.915813494337
 10
98.68269311769045
 20
-145.8736110746427
 10
98.68269311769045
 20
-145.8164224895876
 10
98.68269311769045
 20
-145.8164224895876
 10
98.68269311769045
 20
-145.4674343169317
 10
98.68269311769045
 20
-145.4674343169317
 10
98.68269311769045
 20
-145.4674343169317
 10
98.29133027056606
 20
-145.4674343169317
 10
98.29133027056606
 20
-145.4674343169317
 10
98.29322507308296
 20
-145.6048936267932
 10
98.29494762082557
 20
-145.8036756362921
 10
98.30045977360198
 20
-145.9370008315713
 10
98.30218232134461
 20
-145.9645615954533
 10
98.30218232134461
 20
-146.009003327213
 10
98.31303437212314
 20
-146.0703260268505
 10
98.31303437212314
 20
-146.0703260268505
 10
98.10736217165372
 20
-146.0703260268505
 10
98.10736217165372
 20
-146.0703260268505
 10
98.1290662732108
 20
-145.9454413155102
 10
98.1290662732108
 20
-145.6048936267932
 10
98.1290662732108
 20
-145.4674343169317
 10
98.1290662732108
 20
-145.4674343169317
 10
97.75217282712446
 20
-145.4674343169317
 10
97.75217282712446
 20
-145.4674343169317
 10
97.73236352808428
 20
-145.6746568103695
 10
97.67638072644897
 20
-145.943374258219
 10
97.50877683109157
 20
-146.1273423571313
 10
97.50877683109157
 20
-146.1273423571313
 10
97.34823538147892
 20
-146.0046969578565
 10
97.34823538147892
 20
-146.0046969578565
 10
97.56458737795261
 20
-145.7847276111232
 10
97.59163137751182
 20
-145.4526204063451
 10
97.59163137751182
 20
-145.1205132015671
 10
97.59163137751182
 20
-145.1205132015671
 10
97.59163137751182
 20
-144.684708622683
 10
97.59163137751182
 20
-144.684708622683
 10
97.59163137751182
 20
-144.6487073748621
 10
97.5899088297692
 20
-144.4159911748335
 10
97.58267412925016
 20
-144.3143608580186
 10
97.70170217826555
 20
-144.3250406540229
 10
97.9072021239607
 20
-144.3250406540229
 10
98.0298475232356
 20
-144.3250406540229
 10
98.0298475232356
 20
-144.3250406540229
 10
98.42121037035999
 20
-144.3250406540229
 10
98.42121037035999
 20
-144.3250406540229
 10
98.43378496888114
 20
-144.3250406540229
 10
98.73144121880672
 20
-144.3250406540229
 10
98.86666121660278
 20
-144.3143608580186
 10
98.8647664140859
 20
-144.3672430737172
 10
98.85942651608376
 20
-144.5281290328784
 10
98.85942651608376
 20
-144.5789441912858
 10
98.85942651608376
 20
-144.5789441912858
 10
98.85942651608376
 20
-145.1859700157868
 10
98.85942651608376
 20
-145.1859700157868
 10
98.85942651608376
 20
-145.2050902957299
 10
98.86838376434541
 20
-145.7762871271844
 10
98.86838376434541
 20
-145.8884249852292
 10
98.86838376434541
 20
-145.9454413155102
 10
98.86838376434541
 20
-146.047071632325
 10
98.79810381644631
 20
-146.0935804213759
 97
        0
 97
        1
330
10D
 75
     2
 76
     1
 98
        1
 10
0.0
 20
0.0
450
        0
451
        0
460
0.0
461
0.0
452
        0
462
0.0
453
        0
470

  0
ENDBLK
  5
101
330
FE
100
AcDbEntity
  8
0
100
AcDbBlockEnd
  0
BLOCK
  5
111
330
10F
100
AcDbEntity
  8
0
100
AcDbBlockBegin
  2
Block_18
 70
     0
 10
0.0
 20
0.0
 30
0.0
  3
Block_18
  1

  0
INSERT
  5
114
330
10F
100
AcDbEntity
  8
レイヤー 1
100
AcDbBlockReference
  2
Block_19
 10
0.0
 20
0.0
 30
0.0
  0
ENDBLK
  5
112
330
10F
100
AcDbEntity
  8
0
100
AcDbBlockEnd
  0
BLOCK
  5
115
330
113
100
AcDbEntity
  8
0
100
AcDbBlockBegin
  2
Block_19
 70
     0
 10
0.0
 20
0.0
 30
0.0
  3
Block_19
  1

  0
SPLINE
  5
117
330
113
100
AcDbEntity
  8
レイヤー 1
100
AcDbSpline
210
0.0
220
0.0
230
1.0
 70
     9
 71
     3
 72
    17
 73
    13
 74
     0
 42
0.0000000001
 43
0.0000000001
 40
0.0
 40
0.0
 40
0.0
 40
0.0
 40
1.0
 40
1.0
 40
1.0
 40
2.0
 40
2.0
 40
2.0
 40
3.0
 40
3.0
 40
3.0
 40
4.0
 40
4.0
 40
4.0
 40
4.0
 10
94.15463186665233
 20
-146.8644205362005
 30
0.0
 10
94.10777856805292
 20
-146.8644205362005
 30
0.0
 10
94.06988251771517
 20
-146.9088622679603
 30
0.0
 10
94.06988251771517
 20
-146.9639837957243
 30
0.0
 10
94.06988251771517
 20
-147.0210001260051
 30
0.0
 10
94.10777856805292
 20
-147.0697482271214
 30
0.0
 10
94.15824921691182
 20
-147.0697482271214
 30
0.0
 10
94.20871986577074
 20
-147.0697482271214
 30
0.0
 10
94.24299856584898
 20
-147.018933068714
 30
0.0
 10
94.24299856584898
 20
-146.9660508530154
 30
0.0
 10
94.24299856584898
 20
-146.9088622679603
 30
0.0
 10
94.2033799677686
 20
-146.8644205362005
 30
0.0
 10
94.15463186665233
 20
-146.8644205362005
 30
0.0
  0
SPLINE
  5
118
330
113
100
AcDbEntity
  8
レイヤー 1
100
AcDbSpline
210
0.0
220
0.0
230
1.0
 70
    11
 71
     3
 72
    17
 73
    13
 74
     0
 42
0.0000000001
 43
0.0000000001
 40
0.0
 40
0.0
 40
0.0
 40
0.0
 40
1.0
 40
1.0
 40
1.0
 40
2.0
 40
2.0
 40
2.0
 40
3.0
 40
3.0
 40
3.0
 40
4.0
 40
4.0
 40
4.0
 40
4.0
 10
94.15652666916921
 20
-147.1944606836875
 30
0.0
 10
94.04835067093236
 20
-147.1944606836875
 30
0.0
 10
93.96170651947832
 20
-147.0930026216469
 30
0.0
 10
93.96170651947832
 20
-146.9660508530154
 30
0.0
 10
93.96170651947832
 20
-146.8390990843839
 30
0.0
 10
94.04835067093236
 20
-146.7354017102779
 30
0.0
 10
94.15652666916921
 20
-146.7354017102779
 30
0.0
 10
94.26470266740606
 20
-146.7354017102779
 30
0.0
 10
94.35306936660271
 20
-146.8390990843839
 30
0.0
 10
94.35306936660271
 20
-146.9660508530154
 30
0.0
 10
94.35306936660271
 20
-147.0930026216469
 30
0.0
 10
94.26470266740606
 20
-147.1944606836875
 30
0.0
 10
94.15652666916921
 20
-147.1944606836875
 30
0.0
  0
SPLINE
  5
119
330
113
100
AcDbEntity
  8
レイヤー 1
100
AcDbSpline
210
0.0
220
0.0
230
1.0
 70
     9
 71
     3
 72
    44
 73
    40
 74
     0
 42
0.0000000001
 43
0.0000000001
 40
0.0
 40
0.0
 40
0.0
 40
0.0
 40
1.0
 40
1.0
 40
1.0
 40
2.0
 40
2.0
 40
2.0
 40
3.0
 40
3.0
 40
3.0
 40
4.0
 40
4.0
 40
4.0
 40
5.0
 40
5.0
 40
5.0
 40
6.0
 40
6.0
 40
6.0
 40
7.0
 40
7.0
 40
7.0
 40
8.0
 40
8.0
 40
8.0
 40
9.0
 40
9.0
 40
9.0
 40
10.0
 40
10.0
 40
10.0
 40
11.0
 40
11.0
 40
11.0
 40
12.0
 40
12.0
 40
12.0
 40
13.0
 40
13.0
 40
13.0
 40
13.0
 10
93.97789846825899
 20
-147.3934149479607
 30
0.0
 10
93.88246932331758
 20
-147.7615234005596
 30
0.0
 10
93.83906112020344
 20
-147.9201700476554
 30
0.0
 10
93.67145722484602
 20
-148.1697672155617
 30
0.0
 10
93.5145331254929
 20
-148.4002441035249
 30
0.0
 10
93.31247827528299
 20
-148.586623769277
 30
0.0
 10
93.07459443202651
 20
-148.6796413473787
 30
0.0
 10
93.07459443202651
 20
-148.6796413473787
 30
0.0
 10
92.91043563215435
 20
-148.4998073630486
 30
0.0
 10
92.91043563215435
 20
-148.4998073630486
 30
0.0
 10
93.45682777611497
 20
-148.3475341426006
 30
0.0
 10
93.73811982248561
 20
-147.7911512217328
 30
0.0
 10
93.79220782160404
 20
-147.3510402734921
 30
0.0
 10
93.79220782160404
 20
-147.3510402734921
 30
0.0
 10
93.1393622271492
 20
-147.3510402734921
 30
0.0
 10
93.1393622271492
 20
-147.3510402734921
 30
0.0
 10
93.06012503098845
 20
-147.3510402734921
 30
0.0
 10
92.90320093163531
 20
-147.3553466428487
 30
0.0
 10
92.76970348158188
 20
-147.3742946680175
 30
0.0
 10
92.76970348158188
 20
-147.3742946680175
 30
0.0
 10
92.76970348158188
 20
-147.1543253212843
 30
0.0
 10
92.76970348158188
 20
-147.1543253212843
 30
0.0
 10
92.84377303451476
 20
-147.1755126585186
 30
0.0
 10
93.05823022847155
 20
-147.1755126585186
 30
0.0
 10
93.14297957740871
 20
-147.1755126585186
 30
0.0
 10
93.14297957740871
 20
-147.1755126585186
 30
0.0
 10
93.51091577523339
 20
-147.1755126585186
 30
0.0
 10
93.51091577523339
 20
-147.1755126585186
 30
0.0
 10
93.54691702305425
 20
-147.1755126585186
 30
0.0
 10
93.74707707074726
 20
-147.1732733464532
 30
0.0
 10
93.77963322308287
 20
-147.1670721745798
 30
0.0
 10
93.81563447090373
 20
-147.160698747932
 30
0.0
 10
93.81752927342061
 20
-147.1586316906409
 30
0.0
 10
93.86972247002216
 20
-147.1183240734634
 30
0.0
 10
93.86972247002216
 20
-147.1183240734634
 30
0.0
 10
94.0302639196348
 20
-147.2728366059769
 30
0.0
 10
94.0302639196348
 20
-147.2728366059769
 30
0.0
 10
94.00494246781821
 20
-147.3024644271501
 30
0.0
 10
93.99236786929705
 20
-147.3341593056144
 30
0.0
 10
93.97789846825899
 20
-147.3934149479607
 30
0.0
  0
HATCH
  5
11A
330
113
100
AcDbEntity
  8
レイヤー 1
 62
   250
420
  2299925
440
 33554687
100
AcDbHatch
 10
0.0
 20
0.0
 30
0.0
210
0.0
220
0.0
230
1.0
  2
SOLID
 70
     1
 71
     1
 91
        3
 92
        1
 93
        1
 72
     4
 94
        3
 73
     0
 74
     0
 95
       17
 96
       13
 40
0.0
 40
0.0
 40
0.0
 40
0.0
 40
1.0
 40
1.0
 40
1.0
 40
2.0
 40
2.0
 40
2.0
 40
3.0
 40
3.0
 40
3.0
 40
4.0
 40
4.0
 40
4.0
 40
4.0
 10
94.15463186665233
 20
-146.8644205362005
 10
94.10777856805292
 20
-146.8644205362005
 10
94.06988251771517
 20
-146.9088622679603
 10
94.06988251771517
 20
-146.9639837957243
 10
94.06988251771517
 20
-147.0210001260051
 10
94.10777856805292
 20
-147.0697482271214
 10
94.15824921691182
 20
-147.0697482271214
 10
94.20871986577074
 20
-147.0697482271214
 10
94.24299856584898
 20
-147.018933068714
 10
94.24299856584898
 20
-146.9660508530154
 10
94.24299856584898
 20
-146.9088622679603
 10
94.2033799677686
 20
-146.8644205362005
 10
94.15463186665233
 20
-146.8644205362005
 97
        0
 97
        1
330
117
 92
        1
 93
        1
 72
     4
 94
        3
 73
     0
 74
     0
 95
       17
 96
       13
 40
0.0
 40
0.0
 40
0.0
 40
0.0
 40
1.0
 40
1.0
 40
1.0
 40
2.0
 40
2.0
 40
2.0
 40
3.0
 40
3.0
 40
3.0
 40
4.0
 40
4.0
 40
4.0
 40
4.0
 10
94.15652666916921
 20
-147.1944606836875
 10
94.04835067093236
 20
-147.1944606836875
 10
93.96170651947832
 20
-147.0930026216469
 10
93.96170651947832
 20
-146.9660508530154
 10
93.96170651947832
 20
-146.8390990843839
 10
94.04835067093236
 20
-146.7354017102779
 10
94.15652666916921
 20
-146.7354017102779
 10
94.26470266740606
 20
-146.7354017102779
 10
94.35306936660271
 20
-146.8390990843839
 10
94.35306936660271
 20
-146.9660508530154
 10
94.35306936660271
 20
-147.0930026216469
 10
94.26470266740606
 20
-147.1944606836875
 10
94.15652666916921
 20
-147.1944606836875
 97
        0
 97
        1
330
118
 92
        1
 93
        1
 72
     4
 94
        3
 73
     0
 74
     0
 95
       44
 96
       40
 40
0.0
 40
0.0
 40
0.0
 40
0.0
 40
1.0
 40
1.0
 40
1.0
 40
2.0
 40
2.0
 40
2.0
 40
3.0
 40
3.0
 40
3.0
 40
4.0
 40
4.0
 40
4.0
 40
5.0
 40
5.0
 40
5.0
 40
6.0
 40
6.0
 40
6.0
 40
7.0
 40
7.0
 40
7.0
 40
8.0
 40
8.0
 40
8.0
 40
9.0
 40
9.0
 40
9.0
 40
10.0
 40
10.0
 40
10.0
 40
11.0
 40
11.0
 40
11.0
 40
12.0
 40
12.0
 40
12.0
 40
13.0
 40
13.0
 40
13.0
 40
13.0
 10
93.97789846825899
 20
-147.3934149479607
 10
93.88246932331758
 20
-147.7615234005596
 10
93.83906112020344
 20
-147.9201700476554
 10
93.67145722484602
 20
-148.1697672155617
 10
93.5145331254929
 20
-148.4002441035249
 10
93.31247827528299
 20
-148.586623769277
 10
93.07459443202651
 20
-148.6796413473787
 10
93.07459443202651
 20
-148.6796413473787
 10
92.91043563215435
 20
-148.4998073630486
 10
92.91043563215435
 20
-148.4998073630486
 10
93.45682777611497
 20
-148.3475341426006
 10
93.73811982248561
 20
-147.7911512217328
 10
93.79220782160404
 20
-147.3510402734921
 10
93.79220782160404
 20
-147.3510402734921
 10
93.1393622271492
 20
-147.3510402734921
 10
93.1393622271492
 20
-147.3510402734921
 10
93.06012503098845
 20
-147.3510402734921
 10
92.90320093163531
 20
-147.3553466428487
 10
92.76970348158188
 20
-147.3742946680175
 10
92.76970348158188
 20
-147.3742946680175
 10
92.76970348158188
 20
-147.1543253212843
 10
92.76970348158188
 20
-147.1543253212843
 10
92.84377303451476
 20
-147.1755126585186
 10
93.05823022847155
 20
-147.1755126585186
 10
93.14297957740871
 20
-147.1755126585186
 10
93.14297957740871
 20
-147.1755126585186
 10
93.51091577523339
 20
-147.1755126585186
 10
93.51091577523339
 20
-147.1755126585186
 10
93.54691702305425
 20
-147.1755126585186
 10
93.74707707074726
 20
-147.1732733464532
 10
93.77963322308287
 20
-147.1670721745798
 10
93.81563447090373
 20
-147.160698747932
 10
93.81752927342061
 20
-147.1586316906409
 10
93.86972247002216
 20
-147.1183240734634
 10
93.86972247002216
 20
-147.1183240734634
 10
94.0302639196348
 20
-147.2728366059769
 10
94.0302639196348
 20
-147.2728366059769
 10
94.00494246781821
 20
-147.3024644271501
 10
93.99236786929705
 20
-147.3341593056144
 10
93.97789846825899
 20
-147.3934149479607
 97
        0
 97
        1
330
119
 75
     2
 76
     1
 98
        1
 10
0.0
 20
0.0
450
        0
451
        0
460
0.0
461
0.0
452
        0
462
0.0
453
        0
470

  0
SPLINE
  5
11B
330
113
100
AcDbEntity
  8
レイヤー 1
100
AcDbSpline
210
0.0
220
0.0
230
1.0
 70
     9
 71
     3
 72
    29
 73
    25
 74
     0
 42
0.0000000001
 43
0.0000000001
 40
0.0
 40
0.0
 40
0.0
 40
0.0
 40
1.0
 40
1.0
 40
1.0
 40
2.0
 40
2.0
 40
2.0
 40
3.0
 40
3.0
 40
3.0
 40
4.0
 40
4.0
 40
4.0
 40
5.0
 40
5.0
 40
5.0
 40
6.0
 40
6.0
 40
6.0
 40
7.0
 40
7.0
 40
7.0
 40
8.0
 40
8.0
 40
8.0
 40
8.0
 10
95.26412486767702
 20
-147.0761216537692
 30
0.0
 10
95.26412486767702
 20
-147.0761216537692
 30
0.0
 10
94.97370331827047
 20
-147.0761216537692
 30
0.0
 10
94.97370331827047
 20
-147.0761216537692
 30
0.0
 10
94.87637937081215
 20
-147.0761216537692
 30
0.0
 10
94.77716062083697
 20
-147.0802557683514
 30
0.0
 10
94.67983667337867
 20
-147.095069678938
 30
0.0
 10
94.67983667337867
 20
-147.095069678938
 30
0.0
 10
94.67983667337867
 20
-146.8856078734348
 30
0.0
 10
94.67983667337867
 20
-146.8856078734348
 30
0.0
 10
94.78077797109646
 20
-146.9004217840214
 30
0.0
 10
94.92874482218795
 20
-146.904728153378
 30
0.0
 10
94.97370331827047
 20
-146.904728153378
 30
0.0
 10
94.97370331827047
 20
-146.904728153378
 30
0.0
 10
95.26412486767702
 20
-146.904728153378
 30
0.0
 10
95.26412486767702
 20
-146.904728153378
 30
0.0
 10
95.36334361765222
 20
-146.904728153378
 30
0.0
 10
95.46239011285315
 20
-146.9004217840214
 30
0.0
 10
95.56160886282835
 20
-146.8856078734348
 30
0.0
 10
95.56160886282835
 20
-146.8856078734348
 30
0.0
 10
95.56160886282835
 20
-147.095069678938
 30
0.0
 10
95.56160886282835
 20
-147.095069678938
 30
0.0
 10
95.43362356555132
 20
-147.0761216537692
 30
0.0
 10
95.2766994661982
 20
-147.0761216537692
 30
0.0
 10
95.26412486767702
 20
-147.0761216537692
 30
0.0
  0
SPLINE
  5
11C
330
113
100
AcDbEntity
  8
レイヤー 1
100
AcDbSpline
210
0.0
220
0.0
230
1.0
 70
     9
 71
     3
 72
    50
 73
    46
 74
     0
 42
0.0000000001
 43
0.0000000001
 40
0.0
 40
0.0
 40
0.0
 40
0.0
 40
1.0
 40
1.0
 40
1.0
 40
2.0
 40
2.0
 40
2.0
 40
3.0
 40
3.0
 40
3.0
 40
4.0
 40
4.0
 40
4.0
 40
5.0
 40
5.0
 40
5.0
 40
6.0
 40
6.0
 40
6.0
 40
7.0
 40
7.0
 40
7.0
 40
8.0
 40
8.0
 40
8.0
 40
9.0
 40
9.0
 40
9.0
 40
10.0
 40
10.0
 40
10.0
 40
11.0
 40
11.0
 40
11.0
 40
12.0
 40
12.0
 40
12.0
 40
13.0
 40
13.0
 40
13.0
 40
14.0
 40
14.0
 40
14.0
 40
15.0
 40
15.0
 40
15.0
 40
15.0
 10
95.68425426210325
 20
-147.7022677582133
 30
0.0
 10
95.61759166446366
 20
-147.8798624304779
 30
0.0
 10
95.50218096570779
 20
-148.08725717869
 30
0.0
 10
95.38487546443503
 20
-148.2269558006169
 30
0.0
 10
95.24069821837732
 20
-148.3981770462338
 30
0.0
 10
95.10186087032176
 20
-148.4870605097532
 30
0.0
 10
94.82952607221276
 20
-148.628653934197
 30
0.0
 10
94.82952607221276
 20
-148.628653934197
 30
0.0
 10
94.68517657138079
 20
-148.4405517207023
 30
0.0
 10
94.68517657138079
 20
-148.4405517207023
 30
0.0
 10
94.84399547325081
 20
-148.4171250714027
 30
0.0
 10
94.99006752182541
 20
-148.3306531747229
 30
0.0
 10
95.11977536684506
 20
-148.2248887433257
 30
0.0
 10
95.34336206383777
 20
-148.0428154469302
 30
0.0
 10
95.50579831596731
 20
-147.7296562673211
 30
0.0
 10
95.54713946179031
 20
-147.5477552256999
 30
0.0
 10
95.54713946179031
 20
-147.5477552256999
 30
0.0
 10
94.97559812078735
 20
-147.5477552256999
 30
0.0
 10
94.97559812078735
 20
-147.5477552256999
 30
0.0
 10
94.8403781229913
 20
-147.5477552256999
 30
0.0
 10
94.591469974182
 20
-147.5561957096387
 30
0.0
 10
94.46158987438808
 20
-147.5732489322907
 30
0.0
 10
94.46158987438808
 20
-147.5732489322907
 30
0.0
 10
94.46158987438808
 20
-147.3446668468444
 30
0.0
 10
94.46158987438808
 20
-147.3446668468444
 30
0.0
 10
94.49052867646418
 20
-147.3510402734921
 30
0.0
 10
94.51206052324698
 20
-147.3574137001398
 30
0.0
 10
94.55719127410375
 20
-147.3615478147221
 30
0.0
 10
94.64383542555779
 20
-147.3679212413698
 30
0.0
 10
94.81143932091519
 20
-147.3701605534352
 30
0.0
 10
94.88361407133117
 20
-147.3701605534352
 30
0.0
 10
94.88361407133117
 20
-147.3701605534352
 30
0.0
 10
95.31459551653595
 20
-147.3701605534352
 30
0.0
 10
95.31459551653595
 20
-147.3701605534352
 30
0.0
 10
95.37230086591387
 20
-147.3701605534352
 30
0.0
 10
95.4966688129314
 20
-147.3658541840786
 30
0.0
 10
95.54903426430719
 20
-147.3594807574309
 30
0.0
 10
95.61035696394464
 20
-147.3510402734921
 30
0.0
 10
95.63378361324433
 20
-147.3362263629055
 30
0.0
 10
95.66255016054617
 20
-147.3129719683801
 30
0.0
 10
95.66255016054617
 20
-147.3129719683801
 30
0.0
 10
95.80328231111861
 20
-147.4800590994147
 30
0.0
 10
95.80328231111861
 20
-147.4800590994147
 30
0.0
 10
95.74385441399806
 20
-147.5477552256999
 30
0.0
 10
95.70406356114343
 20
-147.6514525998059
 30
0.0
 10
95.68425426210325
 20
-147.7022677582133
 30
0.0
  0
HATCH
  5
11D
330
113
100
AcDbEntity
  8
レイヤー 1
 62
   250
420
  2299925
440
 33554687
100
AcDbHatch
 10
0.0
 20
0.0
 30
0.0
210
0.0
220
0.0
230
1.0
  2
SOLID
 70
     1
 71
     1
 91
        2
 92
        1
 93
        1
 72
     4
 94
        3
 73
     0
 74
     0
 95
       29
 96
       25
 40
0.0
 40
0.0
 40
0.0
 40
0.0
 40
1.0
 40
1.0
 40
1.0
 40
2.0
 40
2.0
 40
2.0
 40
3.0
 40
3.0
 40
3.0
 40
4.0
 40
4.0
 40
4.0
 40
5.0
 40
5.0
 40
5.0
 40
6.0
 40
6.0
 40
6.0
 40
7.0
 40
7.0
 40
7.0
 40
8.0
 40
8.0
 40
8.0
 40
8.0
 10
95.26412486767702
 20
-147.0761216537692
 10
95.26412486767702
 20
-147.0761216537692
 10
94.97370331827047
 20
-147.0761216537692
 10
94.97370331827047
 20
-147.0761216537692
 10
94.87637937081215
 20
-147.0761216537692
 10
94.77716062083697
 20
-147.0802557683514
 10
94.67983667337867
 20
-147.095069678938
 10
94.67983667337867
 20
-147.095069678938
 10
94.67983667337867
 20
-146.8856078734348
 10
94.67983667337867
 20
-146.8856078734348
 10
94.78077797109646
 20
-146.9004217840214
 10
94.92874482218795
 20
-146.904728153378
 10
94.97370331827047
 20
-146.904728153378
 10
94.97370331827047
 20
-146.904728153378
 10
95.26412486767702
 20
-146.904728153378
 10
95.26412486767702
 20
-146.904728153378
 10
95.36334361765222
 20
-146.904728153378
 10
95.46239011285315
 20
-146.9004217840214
 10
95.56160886282835
 20
-146.8856078734348
 10
95.56160886282835
 20
-146.8856078734348
 10
95.56160886282835
 20
-147.095069678938
 10
95.56160886282835
 20
-147.095069678938
 10
95.43362356555132
 20
-147.0761216537692
 10
95.2766994661982
 20
-147.0761216537692
 10
95.26412486767702
 20
-147.0761216537692
 97
        0
 97
        1
330
11B
 92
        1
 93
        1
 72
     4
 94
        3
 73
     0
 74
     0
 95
       50
 96
       46
 40
0.0
 40
0.0
 40
0.0
 40
0.0
 40
1.0
 40
1.0
 40
1.0
 40
2.0
 40
2.0
 40
2.0
 40
3.0
 40
3.0
 40
3.0
 40
4.0
 40
4.0
 40
4.0
 40
5.0
 40
5.0
 40
5.0
 40
6.0
 40
6.0
 40
6.0
 40
7.0
 40
7.0
 40
7.0
 40
8.0
 40
8.0
 40
8.0
 40
9.0
 40
9.0
 40
9.0
 40
10.0
 40
10.0
 40
10.0
 40
11.0
 40
11.0
 40
11.0
 40
12.0
 40
12.0
 40
12.0
 40
13.0
 40
13.0
 40
13.0
 40
14.0
 40
14.0
 40
14.0
 40
15.0
 40
15.0
 40
15.0
 40
15.0
 10
95.68425426210325
 20
-147.7022677582133
 10
95.61759166446366
 20
-147.8798624304779
 10
95.50218096570779
 20
-148.08725717869
 10
95.38487546443503
 20
-148.2269558006169
 10
95.24069821837732
 20
-148.3981770462338
 10
95.10186087032176
 20
-148.4870605097532
 10
94.82952607221276
 20
-148.628653934197
 10
94.82952607221276
 20
-148.628653934197
 10
94.68517657138079
 20
-148.4405517207023
 10
94.68517657138079
 20
-148.4405517207023
 10
94.84399547325081
 20
-148.4171250714027
 10
94.99006752182541
 20
-148.3306531747229
 10
95.11977536684506
 20
-148.2248887433257
 10
95.34336206383777
 20
-148.0428154469302
 10
95.50579831596731
 20
-147.7296562673211
 10
95.54713946179031
 20
-147.5477552256999
 10
95.54713946179031
 20
-147.5477552256999
 10
94.97559812078735
 20
-147.5477552256999
 10
94.97559812078735
 20
-147.5477552256999
 10
94.8403781229913
 20
-147.5477552256999
 10
94.591469974182
 20
-147.5561957096387
 10
94.46158987438808
 20
-147.5732489322907
 10
94.46158987438808
 20
-147.5732489322907
 10
94.46158987438808
 20
-147.3446668468444
 10
94.46158987438808
 20
-147.3446668468444
 10
94.49052867646418
 20
-147.3510402734921
 10
94.51206052324698
 20
-147.3574137001398
 10
94.55719127410375
 20
-147.3615478147221
 10
94.64383542555779
 20
-147.3679212413698
 10
94.81143932091519
 20
-147.3701605534352
 10
94.88361407133117
 20
-147.3701605534352
 10
94.88361407133117
 20
-147.3701605534352
 10
95.31459551653595
 20
-147.3701605534352
 10
95.31459551653595
 20
-147.3701605534352
 10
95.37230086591387
 20
-147.3701605534352
 10
95.4966688129314
 20
-147.3658541840786
 10
95.54903426430719
 20
-147.3594807574309
 10
95.61035696394464
 20
-147.3510402734921
 10
95.63378361324433
 20
-147.3362263629055
 10
95.66255016054617
 20
-147.3129719683801
 10
95.66255016054617
 20
-147.3129719683801
 10
95.80328231111861
 20
-147.4800590994147
 10
95.80328231111861
 20
-147.4800590994147
 10
95.74385441399806
 20
-147.5477552256999
 10
95.70406356114343
 20
-147.6514525998059
 10
95.68425426210325
 20
-147.7022677582133
 97
        0
 97
        1
330
11C
 75
     2
 76
     1
 98
        1
 10
0.0
 20
0.0
450
        0
451
        0
460
0.0
461
0.0
452
        0
462
0.0
453
        0
470

  0
SPLINE
  5
11E
330
113
100
AcDbEntity
  8
レイヤー 1
100
AcDbSpline
210
0.0
220
0.0
230
1.0
 70
     9
 71
     3
 72
    50
 73
    46
 74
     0
 42
0.0000000001
 43
0.0000000001
 40
0.0
 40
0.0
 40
0.0
 40
0.0
 40
1.0
 40
1.0
 40
1.0
 40
2.0
 40
2.0
 40
2.0
 40
3.0
 40
3.0
 40
3.0
 40
4.0
 40
4.0
 40
4.0
 40
5.0
 40
5.0
 40
5.0
 40
6.0
 40
6.0
 40
6.0
 40
7.0
 40
7.0
 40
7.0
 40
8.0
 40
8.0
 40
8.0
 40
9.0
 40
9.0
 40
9.0
 40
10.0
 40
10.0
 40
10.0
 40
11.0
 40
11.0
 40
11.0
 40
12.0
 40
12.0
 40
12.0
 40
13.0
 40
13.0
 40
13.0
 40
14.0
 40
14.0
 40
14.0
 40
15.0
 40
15.0
 40
15.0
 40
15.0
 10
97.13997935939557
 20
-147.0613077431826
 30
0.0
 10
96.96152341325962
 20
-147.2749036632681
 30
0.0
 10
96.90020071362219
 20
-147.3469061589098
 30
0.0
 10
96.77927786208991
 20
-147.4652451888281
 30
0.0
 10
96.77927786208991
 20
-147.4652451888281
 30
0.0
 10
96.77927786208991
 20
-148.0323079057002
 30
0.0
 10
96.77927786208991
 20
-148.0323079057002
 30
0.0
 10
96.77927786208991
 20
-148.1825140688571
 30
0.0
 10
96.7847900148663
 20
-148.201462094026
 30
0.0
 10
96.78840736512583
 20
-148.3792290210649
 30
0.0
 10
96.79012991286844
 20
-148.5104871590529
 30
0.0
 10
96.79564206564485
 20
-148.5590630053949
 30
0.0
 10
96.80098196364697
 20
-148.6183186477412
 30
0.0
 10
96.80098196364697
 20
-148.6183186477412
 30
0.0
 10
96.608056616473
 20
-148.6183186477412
 30
0.0
 10
96.608056616473
 20
-148.6183186477412
 30
0.0
 10
96.61167396673249
 20
-148.5738769159815
 30
0.0
 10
96.61529131699202
 20
-148.5273681269307
 30
0.0
 10
96.61529131699202
 20
-148.5187553882175
 30
0.0
 10
96.61529131699202
 20
-148.4384846634112
 30
0.0
 10
96.61890866725153
 20
-148.08725717869
 30
0.0
 10
96.61890866725153
 20
-148.0152546830483
 30
0.0
 10
96.61890866725153
 20
-148.0152546830483
 30
0.0
 10
96.61890866725153
 20
-147.6090779253373
 30
0.0
 10
96.61890866725153
 20
-147.6090779253373
 30
0.0
 10
96.46370711564102
 20
-147.7339626366776
 30
0.0
 10
96.29782576802625
 20
-147.8440334374313
 30
0.0
 10
96.12470971989244
 20
-147.9306775888854
 30
0.0
 10
96.12470971989244
 20
-147.9306775888854
 30
0.0
 10
95.95159367175863
 20
-147.7677245724331
 30
0.0
 10
95.95159367175863
 20
-147.7677245724331
 30
0.0
 10
96.05632457451022
 20
-147.7318955793865
 30
0.0
 10
96.27439911872656
 20
-147.6578260264536
 30
0.0
 10
96.56843801839261
 20
-147.4018554318995
 30
0.0
 10
96.75223386253071
 20
-147.2432087848038
 30
0.0
 10
96.91639266240287
 20
-147.0549343165349
 30
0.0
 10
97.04627276219676
 20
-146.8347927150274
 30
0.0
 10
97.04627276219676
 20
-146.8347927150274
 30
0.0
 10
97.21043156206892
 20
-146.9787977063108
 30
0.0
 10
97.21043156206892
 20
-146.9787977063108
 30
0.0
 10
97.2211113580732
 20
-146.9893052475408
 30
0.0
 10
97.22834605859222
 20
-147.0041191581274
 30
0.0
 10
97.22834605859222
 20
-147.0168660114229
 30
0.0
 10
97.22834605859222
 20
-147.057001373826
 30
0.0
 10
97.19596216103088
 20
-147.057001373826
 30
0.0
 10
97.13997935939557
 20
-147.0613077431826
 30
0.0
  0
HATCH
  5
11F
330
113
100
AcDbEntity
  8
レイヤー 1
 62
   250
420
  2299925
440
 33554687
100
AcDbHatch
 10
0.0
 20
0.0
 30
0.0
210
0.0
220
0.0
230
1.0
  2
SOLID
 70
     1
 71
     1
 91
        1
 92
        1
 93
        1
 72
     4
 94
        3
 73
     0
 74
     0
 95
       50
 96
       46
 40
0.0
 40
0.0
 40
0.0
 40
0.0
 40
1.0
 40
1.0
 40
1.0
 40
2.0
 40
2.0
 40
2.0
 40
3.0
 40
3.0
 40
3.0
 40
4.0
 40
4.0
 40
4.0
 40
5.0
 40
5.0
 40
5.0
 40
6.0
 40
6.0
 40
6.0
 40
7.0
 40
7.0
 40
7.0
 40
8.0
 40
8.0
 40
8.0
 40
9.0
 40
9.0
 40
9.0
 40
10.0
 40
10.0
 40
10.0
 40
11.0
 40
11.0
 40
11.0
 40
12.0
 40
12.0
 40
12.0
 40
13.0
 40
13.0
 40
13.0
 40
14.0
 40
14.0
 40
14.0
 40
15.0
 40
15.0
 40
15.0
 40
15.0
 10
97.13997935939557
 20
-147.0613077431826
 10
96.96152341325962
 20
-147.2749036632681
 10
96.90020071362219
 20
-147.3469061589098
 10
96.77927786208991
 20
-147.4652451888281
 10
96.77927786208991
 20
-147.4652451888281
 10
96.77927786208991
 20
-148.0323079057002
 10
96.77927786208991
 20
-148.0323079057002
 10
96.77927786208991
 20
-148.1825140688571
 10
96.7847900148663
 20
-148.201462094026
 10
96.78840736512583
 20
-148.3792290210649
 10
96.79012991286844
 20
-148.5104871590529
 10
96.79564206564485
 20
-148.5590630053949
 10
96.80098196364697
 20
-148.6183186477412
 10
96.80098196364697
 20
-148.6183186477412
 10
96.608056616473
 20
-148.6183186477412
 10
96.608056616473
 20
-148.6183186477412
 10
96.61167396673249
 20
-148.5738769159815
 10
96.61529131699202
 20
-148.5273681269307
 10
96.61529131699202
 20
-148.5187553882175
 10
96.61529131699202
 20
-148.4384846634112
 10
96.61890866725153
 20
-148.08725717869
 10
96.61890866725153
 20
-148.0152546830483
 10
96.61890866725153
 20
-148.0152546830483
 10
96.61890866725153
 20
-147.6090779253373
 10
96.61890866725153
 20
-147.6090779253373
 10
96.46370711564102
 20
-147.7339626366776
 10
96.29782576802625
 20
-147.8440334374313
 10
96.12470971989244
 20
-147.9306775888854
 10
96.12470971989244
 20
-147.9306775888854
 10
95.95159367175863
 20
-147.7677245724331
 10
95.95159367175863
 20
-147.7677245724331
 10
96.05632457451022
 20
-147.7318955793865
 10
96.27439911872656
 20
-147.6578260264536
 10
96.56843801839261
 20
-147.4018554318995
 10
96.75223386253071
 20
-147.2432087848038
 10
96.91639266240287
 20
-147.0549343165349
 10
97.04627276219676
 20
-146.8347927150274
 10
97.04627276219676
 20
-146.8347927150274
 10
97.21043156206892
 20
-146.9787977063108
 10
97.21043156206892
 20
-146.9787977063108
 10
97.2211113580732
 20
-146.9893052475408
 10
97.22834605859222
 20
-147.0041191581274
 10
97.22834605859222
 20
-147.0168660114229
 10
97.22834605859222
 20
-147.057001373826
 10
97.19596216103088
 20
-147.057001373826
 10
97.13997935939557
 20
-147.0613077431826
 97
        0
 97
        1
330
11E
 75
     2
 76
     1
 98
        1
 10
0.0
 20
0.0
450
        0
451
        0
460
0.0
461
0.0
452
        0
462
0.0
453
        0
470

  0
SPLINE
  5
120
330
113
100
AcDbEntity
  8
レイヤー 1
100
AcDbSpline
210
0.0
220
0.0
230
1.0
 70
     9
 71
     3
 72
    50
 73
    46
 74
     0
 42
0.0000000001
 43
0.0000000001
 40
0.0
 40
0.0
 40
0.0
 40
0.0
 40
1.0
 40
1.0
 40
1.0
 40
2.0
 40
2.0
 40
2.0
 40
3.0
 40
3.0
 40
3.0
 40
4.0
 40
4.0
 40
4.0
 40
5.0
 40
5.0
 40
5.0
 40
6.0
 40
6.0
 40
6.0
 40
7.0
 40
7.0
 40
7.0
 40
8.0
 40
8.0
 40
8.0
 40
9.0
 40
9.0
 40
9.0
 40
10.0
 40
10.0
 40
10.0
 40
11.0
 40
11.0
 40
11.0
 40
12.0
 40
12.0
 40
12.0
 40
13.0
 40
13.0
 40
13.0
 40
14.0
 40
14.0
 40
14.0
 40
15.0
 40
15.0
 40
15.0
 40
15.0
 10
98.59415416371952
 20
-147.5880628428773
 30
0.0
 10
98.54196096711799
 20
-147.6598930837447
 30
0.0
 10
98.32009681786789
 20
-147.9771863779363
 30
0.0
 10
98.27134871675163
 20
-148.0407483896391
 30
0.0
 10
98.34352346716761
 20
-148.1380723370974
 30
0.0
 10
98.38675941550748
 20
-148.201462094026
 30
0.0
 10
98.44274221714279
 20
-148.2924126148366
 30
0.0
 10
98.44274221714279
 20
-148.2924126148366
 30
0.0
 10
98.28581811778967
 20
-148.4298719246981
 30
0.0
 10
98.28581811778967
 20
-148.4298719246981
 30
0.0
 10
98.1704074190338
 20
-148.2183430619038
 30
0.0
 10
98.02433537045921
 20
-147.9942396005882
 30
0.0
 10
97.77370467390728
 20
-147.795285336315
 30
0.0
 10
97.77370467390728
 20
-147.795285336315
 30
0.0
 10
97.89996742344168
 20
-147.6409450585759
 30
0.0
 10
97.89996742344168
 20
-147.6409450585759
 30
0.0
 10
97.99367402064047
 20
-147.7212157833822
 30
0.0
 10
98.08204071983714
 20
-147.8100992469016
 30
0.0
 10
98.16506752103165
 20
-147.9053561370688
 30
0.0
 10
98.22277287040959
 20
-147.8292195268448
 30
0.0
 10
98.3958889185434
 20
-147.5858235308119
 30
0.0
 10
98.50940481478238
 20
-147.3574137001398
 30
0.0
 10
98.50940481478238
 20
-147.3574137001398
 30
0.0
 10
97.93596867126254
 20
-147.3574137001398
 30
0.0
 10
97.93596867126254
 20
-147.3574137001398
 30
0.0
 10
97.82951522076832
 20
-147.3574137001398
 30
0.0
 10
97.61505802681151
 20
-147.3658541840786
 30
0.0
 10
97.43642982590131
 20
-147.3763617253087
 30
0.0
 10
97.43642982590131
 20
-147.3763617253087
 30
0.0
 10
97.43642982590131
 20
-147.1563923785755
 30
0.0
 10
97.43642982590131
 20
-147.1563923785755
 30
0.0
 10
97.59335392525445
 20
-147.1755126585186
 30
0.0
 10
97.76836477590514
 20
-147.1796467731009
 30
0.0
 10
97.92873397074352
 20
-147.1796467731009
 30
0.0
 10
97.92873397074352
 20
-147.1796467731009
 30
0.0
 10
98.35799286820565
 20
-147.1796467731009
 30
0.0
 10
98.35799286820565
 20
-147.1796467731009
 30
0.0
 10
98.64651961509531
 20
-147.1796467731009
 30
0.0
 10
98.68441566543307
 20
-147.1648328625143
 30
0.0
 10
98.75469561333217
 20
-147.1246975001112
 30
0.0
 10
98.75469561333217
 20
-147.1246975001112
 30
0.0
 10
98.89715031164724
 20
-147.2833441472069
 30
0.0
 10
98.89715031164724
 20
-147.2833441472069
 30
0.0
 10
98.76727021185333
 20
-147.3553466428487
 30
0.0
 10
98.64462481257843
 20
-147.5181274045267
 30
0.0
 10
98.59415416371952
 20
-147.5880628428773
 30
0.0
  0
HATCH
  5
121
330
113
100
AcDbEntity
  8
レイヤー 1
 62
   250
420
  2299925
440
 33554687
100
AcDbHatch
 10
0.0
 20
0.0
 30
0.0
210
0.0
220
0.0
230
1.0
  2
SOLID
 70
     1
 71
     1
 91
        1
 92
        1
 93
        1
 72
     4
 94
        3
 73
     0
 74
     0
 95
       50
 96
       46
 40
0.0
 40
0.0
 40
0.0
 40
0.0
 40
1.0
 40
1.0
 40
1.0
 40
2.0
 40
2.0
 40
2.0
 40
3.0
 40
3.0
 40
3.0
 40
4.0
 40
4.0
 40
4.0
 40
5.0
 40
5.0
 40
5.0
 40
6.0
 40
6.0
 40
6.0
 40
7.0
 40
7.0
 40
7.0
 40
8.0
 40
8.0
 40
8.0
 40
9.0
 40
9.0
 40
9.0
 40
10.0
 40
10.0
 40
10.0
 40
11.0
 40
11.0
 40
11.0
 40
12.0
 40
12.0
 40
12.0
 40
13.0
 40
13.0
 40
13.0
 40
14.0
 40
14.0
 40
14.0
 40
15.0
 40
15.0
 40
15.0
 40
15.0
 10
98.59415416371952
 20
-147.5880628428773
 10
98.54196096711799
 20
-147.6598930837447
 10
98.32009681786789
 20
-147.9771863779363
 10
98.27134871675163
 20
-148.0407483896391
 10
98.34352346716761
 20
-148.1380723370974
 10
98.38675941550748
 20
-148.201462094026
 10
98.44274221714279
 20
-148.2924126148366
 10
98.44274221714279
 20
-148.2924126148366
 10
98.28581811778967
 20
-148.4298719246981
 10
98.28581811778967
 20
-148.4298719246981
 10
98.1704074190338
 20
-148.2183430619038
 10
98.02433537045921
 20
-147.9942396005882
 10
97.77370467390728
 20
-147.795285336315
 10
97.77370467390728
 20
-147.795285336315
 10
97.89996742344168
 20
-147.6409450585759
 10
97.89996742344168
 20
-147.6409450585759
 10
97.99367402064047
 20
-147.7212157833822
 10
98.08204071983714
 20
-147.8100992469016
 10
98.16506752103165
 20
-147.9053561370688
 10
98.22277287040959
 20
-147.8292195268448
 10
98.3958889185434
 20
-147.5858235308119
 10
98.50940481478238
 20
-147.3574137001398
 10
98.50940481478238
 20
-147.3574137001398
 10
97.93596867126254
 20
-147.3574137001398
 10
97.93596867126254
 20
-147.3574137001398
 10
97.82951522076832
 20
-147.3574137001398
 10
97.61505802681151
 20
-147.3658541840786
 10
97.43642982590131
 20
-147.3763617253087
 10
97.43642982590131
 20
-147.3763617253087
 10
97.43642982590131
 20
-147.1563923785755
 10
97.43642982590131
 20
-147.1563923785755
 10
97.59335392525445
 20
-147.1755126585186
 10
97.76836477590514
 20
-147.1796467731009
 10
97.92873397074352
 20
-147.1796467731009
 10
97.92873397074352
 20
-147.1796467731009
 10
98.35799286820565
 20
-147.1796467731009
 10
98.35799286820565
 20
-147.1796467731009
 10
98.64651961509531
 20
-147.1796467731009
 10
98.68441566543307
 20
-147.1648328625143
 10
98.75469561333217
 20
-147.1246975001112
 10
98.75469561333217
 20
-147.1246975001112
 10
98.89715031164724
 20
-147.2833441472069
 10
98.89715031164724
 20
-147.2833441472069
 10
98.76727021185333
 20
-147.3553466428487
 10
98.64462481257843
 20
-147.5181274045267
 10
98.59415416371952
 20
-147.5880628428773
 97
        0
 97
        1
330
120
 75
     2
 76
     1
 98
        1
 10
0.0
 20
0.0
450
        0
451
        0
460
0.0
461
0.0
452
        0
462
0.0
453
        0
470

  0
SPLINE
  5
122
330
113
100
AcDbEntity
  8
レイヤー 1
100
AcDbSpline
210
0.0
220
0.0
230
1.0
 70
     9
 71
     3
 72
    29
 73
    25
 74
     0
 42
0.0000000001
 43
0.0000000001
 40
0.0
 40
0.0
 40
0.0
 40
0.0
 40
1.0
 40
1.0
 40
1.0
 40
2.0
 40
2.0
 40
2.0
 40
3.0
 40
3.0
 40
3.0
 40
4.0
 40
4.0
 40
4.0
 40
5.0
 40
5.0
 40
5.0
 40
6.0
 40
6.0
 40
6.0
 40
7.0
 40
7.0
 40
7.0
 40
8.0
 40
8.0
 40
8.0
 40
8.0
 10
99.97598196285323
 20
-147.8312865841359
 30
0.0
 10
99.97598196285323
 20
-147.8312865841359
 30
0.0
 10
99.56308726894604
 20
-147.8312865841359
 30
0.0
 10
99.56308726894604
 20
-147.8312865841359
 30
0.0
 10
99.53948836487207
 20
-147.8312865841359
 30
0.0
 10
99.26904836927997
 20
-147.8312865841359
 30
0.0
 10
99.08869762062714
 20
-147.8566080359525
 30
0.0
 10
99.08869762062714
 20
-147.8566080359525
 30
0.0
 10
99.08869762062714
 20
-147.6261311479893
 30
0.0
 10
99.08869762062714
 20
-147.6261311479893
 30
0.0
 10
99.2239176184232
 20
-147.6493855425147
 30
0.0
 10
99.38635387055272
 20
-147.6514525998059
 30
0.0
 10
99.56308726894604
 20
-147.6514525998059
 30
0.0
 10
99.56308726894604
 20
-147.6514525998059
 30
0.0
 10
99.97598196285323
 20
-147.6514525998059
 30
0.0
 10
99.97598196285323
 20
-147.6514525998059
 30
0.0
 10
100.134628609949
 20
-147.6514525998059
 30
0.0
 10
100.2932752570447
 20
-147.6493855425147
 30
0.0
 10
100.4501993563978
 20
-147.6261311479893
 30
0.0
 10
100.4501993563978
 20
-147.6261311479893
 30
0.0
 10
100.4501993563978
 20
-147.8566080359525
 30
0.0
 10
100.4501993563978
 20
-147.8566080359525
 30
0.0
 10
100.2932752570447
 20
-147.8333536414271
 30
0.0
 10
100.0824354133474
 20
-147.8312865841359
 30
0.0
 10
99.97598196285323
 20
-147.8312865841359
 30
0.0
  0
HATCH
  5
123
330
113
100
AcDbEntity
  8
レイヤー 1
 62
   250
420
  2299925
440
 33554687
100
AcDbHatch
 10
0.0
 20
0.0
 30
0.0
210
0.0
220
0.0
230
1.0
  2
SOLID
 70
     1
 71
     1
 91
        1
 92
        1
 93
        1
 72
     4
 94
        3
 73
     0
 74
     0
 95
       29
 96
       25
 40
0.0
 40
0.0
 40
0.0
 40
0.0
 40
1.0
 40
1.0
 40
1.0
 40
2.0
 40
2.0
 40
2.0
 40
3.0
 40
3.0
 40
3.0
 40
4.0
 40
4.0
 40
4.0
 40
5.0
 40
5.0
 40
5.0
 40
6.0
 40
6.0
 40
6.0
 40
7.0
 40
7.0
 40
7.0
 40
8.0
 40
8.0
 40
8.0
 40
8.0
 10
99.97598196285323
 20
-147.8312865841359
 10
99.97598196285323
 20
-147.8312865841359
 10
99.56308726894604
 20
-147.8312865841359
 10
99.56308726894604
 20
-147.8312865841359
 10
99.53948836487207
 20
-147.8312865841359
 10
99.26904836927997
 20
-147.8312865841359
 10
99.08869762062714
 20
-147.8566080359525
 10
99.08869762062714
 20
-147.8566080359525
 10
99.08869762062714
 20
-147.6261311479893
 10
99.08869762062714
 20
-147.6261311479893
 10
99.2239176184232
 20
-147.6493855425147
 10
99.38635387055272
 20
-147.6514525998059
 10
99.56308726894604
 20
-147.6514525998059
 10
99.56308726894604
 20
-147.6514525998059
 10
99.97598196285323
 20
-147.6514525998059
 10
99.97598196285323
 20
-147.6514525998059
 10
100.134628609949
 20
-147.6514525998059
 10
100.2932752570447
 20
-147.6493855425147
 10
100.4501993563978
 20
-147.6261311479893
 10
100.4501993563978
 20
-147.6261311479893
 10
100.4501993563978
 20
-147.8566080359525
 10
100.4501993563978
 20
-147.8566080359525
 10
100.2932752570447
 20
-147.8333536414271
 10
100.0824354133474
 20
-147.8312865841359
 10
99.97598196285323
 20
-147.8312865841359
 97
        0
 97
        1
330
122
 75
     2
 76
     1
 98
        1
 10
0.0
 20
0.0
450
        0
451
        0
460
0.0
461
0.0
452
        0
462
0.0
453
        0
470

  0
SPLINE
  5
124
330
113
100
AcDbEntity
  8
レイヤー 1
100
AcDbSpline
210
0.0
220
0.0
230
1.0
 70
     9
 71
     3
 72
    20
 73
    16
 74
     0
 42
0.0000000001
 43
0.0000000001
 40
0.0
 40
0.0
 40
0.0
 40
0.0
 40
1.0
 40
1.0
 40
1.0
 40
2.0
 40
2.0
 40
2.0
 40
3.0
 40
3.0
 40
3.0
 40
4.0
 40
4.0
 40
4.0
 40
5.0
 40
5.0
 40
5.0
 40
5.0
 10
101.5073269060468
 20
-148.1825140688571
 30
0.0
 10
101.4677083079664
 20
-148.0047471418182
 30
0.0
 10
101.3846815067719
 20
-147.8629814626002
 30
0.0
 10
101.2656534577565
 20
-147.7530829166207
 30
0.0
 10
101.2656534577565
 20
-147.7530829166207
 30
0.0
 10
101.4027682580694
 20
-147.6387057465105
 30
0.0
 10
101.4027682580694
 20
-147.6387057465105
 30
0.0
 10
101.454961454671
 20
-147.681080420979
 30
0.0
 10
101.4892401547492
 20
-147.7148423567345
 30
0.0
 10
101.5541802046462
 20
-147.822846100197
 30
0.0
 10
101.6227376048026
 20
-147.9391180728242
 30
0.0
 10
101.6408243561002
 20
-147.9920002885228
 30
0.0
 10
101.662356202883
 20
-148.0576293575168
 30
0.0
 10
101.662356202883
 20
-148.0576293575168
 30
0.0
 10
101.5073269060468
 20
-148.1825140688571
 30
0.0
 10
101.5073269060468
 20
-148.1825140688571
 30
0.0
  0
SPLINE
  5
125
330
113
100
AcDbEntity
  8
レイヤー 1
100
AcDbSpline
210
0.0
220
0.0
230
1.0
 70
     9
 71
     3
 72
    77
 73
    73
 74
     0
 42
0.0000000001
 43
0.0000000001
 40
0.0
 40
0.0
 40
0.0
 40
0.0
 40
1.0
 40
1.0
 40
1.0
 40
2.0
 40
2.0
 40
2.0
 40
3.0
 40
3.0
 40
3.0
 40
4.0
 40
4.0
 40
4.0
 40
5.0
 40
5.0
 40
5.0
 40
6.0
 40
6.0
 40
6.0
 40
7.0
 40
7.0
 40
7.0
 40
8.0
 40
8.0
 40
8.0
 40
9.0
 40
9.0
 40
9.0
 40
10.0
 40
10.0
 40
10.0
 40
11.0
 40
11.0
 40
11.0
 40
12.0
 40
12.0
 40
12.0
 40
13.0
 40
13.0
 40
13.0
 40
14.0
 40
14.0
 40
14.0
 40
15.0
 40
15.0
 40
15.0
 40
16.0
 40
16.0
 40
16.0
 40
17.0
 40
17.0
 40
17.0
 40
18.0
 40
18.0
 40
18.0
 40
19.0
 40
19.0
 40
19.0
 40
20.0
 40
20.0
 40
20.0
 40
21.0
 40
21.0
 40
21.0
 40
22.0
 40
22.0
 40
22.0
 40
23.0
 40
23.0
 40
23.0
 40
24.0
 40
24.0
 40
24.0
 40
24.0
 10
102.1637898507611
 20
-147.4568047048892
 30
0.0
 10
102.1041896988663
 20
-147.452670590307
 30
0.0
 10
102.0464843494883
 20
-147.452670590307
 30
0.0
 10
101.9887790001104
 20
-147.452670590307
 30
0.0
 10
101.9887790001104
 20
-147.452670590307
 30
0.0
 10
101.9887790001104
 20
-148.2269558006169
 30
0.0
 10
101.9887790001104
 20
-148.2269558006169
 30
0.0
 10
101.9887790001104
 20
-148.4911946243355
 30
0.0
 10
101.9870564523678
 20
-148.5208224455087
 30
0.0
 10
101.9815442995914
 20
-148.5504502666818
 30
0.0
 10
101.9527777522896
 20
-148.683775461961
 30
0.0
 10
101.8661336008355
 20
-148.6923882006741
 30
0.0
 10
101.7164442020014
 20
-148.6923882006741
 30
0.0
 10
101.6821655019232
 20
-148.6923882006741
 30
0.0
 10
101.6678683556594
 20
-148.6923882006741
 30
0.0
 10
101.6335896555812
 20
-148.6879095765433
 30
0.0
 10
101.6335896555812
 20
-148.6879095765433
 30
0.0
 10
101.5271362050869
 20
-148.4467528925758
 30
0.0
 10
101.5271362050869
 20
-148.4467528925758
 30
0.0
 10
101.6263549550622
 20
-148.4784477710401
 30
0.0
 10
101.6966349029612
 20
-148.4784477710401
 30
0.0
 10
101.7164442020014
 20
-148.4784477710401
 30
0.0
 10
101.7760443538962
 20
-148.4784477710401
 30
0.0
 10
101.8048109011981
 20
-148.4615668031624
 30
0.0
 10
101.8084282514576
 20
-148.4047227276558
 30
0.0
 10
101.8084282514576
 20
-148.3919758743603
 30
0.0
 10
101.8103230539745
 20
-148.2944796721278
 30
0.0
 10
101.8103230539745
 20
-148.2372910870726
 30
0.0
 10
101.8103230539745
 20
-148.2372910870726
 30
0.0
 10
101.8103230539745
 20
-147.4504312782415
 30
0.0
 10
101.8103230539745
 20
-147.4504312782415
 30
0.0
 10
101.8103230539745
 20
-147.4504312782415
 30
0.0
 10
101.5596923574225
 20
-147.4504312782415
 30
0.0
 10
101.5596923574225
 20
-147.4504312782415
 30
0.0
 10
101.4351521556308
 20
-147.4504312782415
 30
0.0
 10
101.3107842086133
 20
-147.4568047048892
 30
0.0
 10
101.1881388093384
 20
-147.4695515581847
 30
0.0
 10
101.1881388093384
 20
-147.4695515581847
 30
0.0
 10
101.1881388093384
 20
-147.2621568099726
 30
0.0
 10
101.1881388093384
 20
-147.2621568099726
 30
0.0
 10
101.3161241066154
 20
-147.2749036632681
 30
0.0
 10
101.5019870080446
 20
-147.2792100326246
 30
0.0
 10
101.5596923574225
 20
-147.2792100326246
 30
0.0
 10
101.5596923574225
 20
-147.2792100326246
 30
0.0
 10
101.8103230539745
 20
-147.2792100326246
 30
0.0
 10
101.8103230539745
 20
-147.2792100326246
 30
0.0
 10
101.8084282514576
 20
-147.0104925847751
 30
0.0
 10
101.8084282514576
 20
-146.9343559745511
 30
0.0
 10
101.8011935509386
 20
-146.7862168686854
 30
0.0
 10
101.8011935509386
 20
-146.7862168686854
 30
0.0
 10
102.021335152446
 20
-146.8242851737974
 30
0.0
 10
102.021335152446
 20
-146.8242851737974
 30
0.0
 10
102.0339097509672
 20
-146.8263522310885
 30
0.0
 10
102.0464843494883
 20
-146.8327256577362
 30
0.0
 10
102.0464843494883
 20
-146.8539129949705
 30
0.0
 10
102.0464843494883
 20
-146.8730332749137
 30
0.0
 10
102.0411444514862
 20
-146.8751003322048
 30
0.0
 10
101.9923963503699
 20
-146.9088622679603
 30
0.0
 10
101.9887790001104
 20
-146.9872381902497
 30
0.0
 10
101.9887790001104
 20
-147.0020521008363
 30
0.0
 10
101.9887790001104
 20
-147.2792100326246
 30
0.0
 10
102.1403632014614
 20
-147.2749036632681
 30
0.0
 10
102.1565551502421
 20
-147.2749036632681
 30
0.0
 10
102.1853216975439
 20
-147.2705972939115
 30
0.0
 10
102.2285576458838
 20
-147.2664631793292
 30
0.0
 10
102.2321749961433
 20
-147.2643961220381
 30
0.0
 10
102.2700710464811
 20
-147.2621568099726
 30
0.0
 10
102.2700710464811
 20
-147.2621568099726
 30
0.0
 10
102.2700710464811
 20
-147.4695515581847
 30
0.0
 10
102.2700710464811
 20
-147.4695515581847
 30
0.0
 10
102.2449218494387
 20
-147.4674845008935
 30
0.0
 10
102.1978962960651
 20
-147.4588717621804
 30
0.0
 10
102.1637898507611
 20
-147.4568047048892
 30
0.0
  0
SPLINE
  5
126
330
113
100
AcDbEntity
  8
レイヤー 1
100
AcDbSpline
210
0.0
220
0.0
230
1.0
 70
     9
 71
     3
 72
    53
 73
    49
 74
     0
 42
0.0000000001
 43
0.0000000001
 40
0.0
 40
0.0
 40
0.0
 40
0.0
 40
1.0
 40
1.0
 40
1.0
 40
2.0
 40
2.0
 40
2.0
 40
3.0
 40
3.0
 40
3.0
 40
4.0
 40
4.0
 40
4.0
 40
5.0
 40
5.0
 40
5.0
 40
6.0
 40
6.0
 40
6.0
 40
7.0
 40
7.0
 40
7.0
 40
8.0
 40
8.0
 40
8.0
 40
9.0
 40
9.0
 40
9.0
 40
10.0
 40
10.0
 40
10.0
 40
11.0
 40
11.0
 40
11.0
 40
12.0
 40
12.0
 40
12.0
 40
13.0
 40
13.0
 40
13.0
 40
14.0
 40
14.0
 40
14.0
 40
15.0
 40
15.0
 40
15.0
 40
16.0
 40
16.0
 40
16.0
 40
16.0
 10
101.1827989113362
 20
-146.9576103690766
 30
0.0
 10
101.1250935619583
 20
-147.1098835895246
 30
0.0
 10
101.0889200593632
 20
-147.1880872570398
 30
0.0
 10
101.0565361618018
 20
-147.2557833833249
 30
0.0
 10
101.0925374096227
 20
-147.2769707205592
 30
0.0
 10
101.0961547598822
 20
-147.2792100326246
 30
0.0
 10
101.0961547598822
 20
-147.2940239432112
 30
0.0
 10
101.0961547598822
 20
-147.3065985417324
 30
0.0
 10
101.0673882125804
 20
-147.3405327322621
 30
0.0
 10
101.0582587095444
 20
-147.3489732162009
 30
0.0
 10
101.0565361618018
 20
-147.5456881684087
 30
0.0
 10
101.0565361618018
 20
-147.566875505643
 30
0.0
 10
101.0565361618018
 20
-147.7002007009222
 30
0.0
 10
101.0546413592849
 20
-147.7127752994433
 30
0.0
 10
101.0546413592849
 20
-147.7275892100299
 30
0.0
 10
101.0546413592849
 20
-147.7424031206165
 30
0.0
 10
101.0546413592849
 20
-147.7424031206165
 30
0.0
 10
101.0546413592849
 20
-148.27759870425
 30
0.0
 10
101.0546413592849
 20
-148.27759870425
 30
0.0
 10
101.0546413592849
 20
-148.3496011998918
 30
0.0
 10
101.0582587095444
 20
-148.5845567119858
 30
0.0
 10
101.0654934100635
 20
-148.6944552579652
 30
0.0
 10
101.0654934100635
 20
-148.6944552579652
 30
0.0
 10
100.8580986618514
 20
-148.6944552579652
 30
0.0
 10
100.8580986618514
 20
-148.6944552579652
 30
0.0
 10
100.8779079608916
 20
-148.5356363560953
 30
0.0
 10
100.883420113668
 20
-148.2944796721278
 30
0.0
 10
100.883420113668
 20
-148.2734645896677
 30
0.0
 10
100.883420113668
 20
-148.2734645896677
 30
0.0
 10
100.883420113668
 20
-147.5561957096387
 30
0.0
 10
100.883420113668
 20
-147.5561957096387
 30
0.0
 10
100.8059054652499
 20
-147.670572879749
 30
0.0
 10
100.7535400138741
 20
-147.7296562673211
 30
0.0
 10
100.7175387660532
 20
-147.7720309417896
 30
0.0
 10
100.7175387660532
 20
-147.7720309417896
 30
0.0
 10
100.5551025139237
 20
-147.6345716319281
 30
0.0
 10
100.5551025139237
 20
-147.6345716319281
 30
0.0
 10
100.7950534144714
 20
-147.4187363997772
 30
0.0
 10
100.9590399595692
 20
-147.1098835895246
 30
0.0
 10
101.0546413592849
 20
-146.7734700153899
 30
0.0
 10
101.0546413592849
 20
-146.7734700153899
 30
0.0
 10
101.2422268084568
 20
-146.8878471855003
 30
0.0
 10
101.2422268084568
 20
-146.8878471855003
 30
0.0
 10
101.2530788592353
 20
-146.8940483573737
 30
0.0
 10
101.2603135597544
 20
-146.8983547267303
 30
0.0
 10
101.2603135597544
 20
-146.9131686373168
 30
0.0
 10
101.2603135597544
 20
-146.9384900891334
 30
0.0
 10
101.2458441587163
 20
-146.94279645849
 30
0.0
 10
101.1827989113362
 20
-146.9576103690766
 30
0.0
  0
HATCH
  5
127
330
113
100
AcDbEntity
  8
レイヤー 1
 62
   250
420
  2299925
440
 33554687
100
AcDbHatch
 10
0.0
 20
0.0
 30
0.0
210
0.0
220
0.0
230
1.0
  2
SOLID
 70
     1
 71
     1
 91
        3
 92
        1
 93
        1
 72
     4
 94
        3
 73
     0
 74
     0
 95
       20
 96
       16
 40
0.0
 40
0.0
 40
0.0
 40
0.0
 40
1.0
 40
1.0
 40
1.0
 40
2.0
 40
2.0
 40
2.0
 40
3.0
 40
3.0
 40
3.0
 40
4.0
 40
4.0
 40
4.0
 40
5.0
 40
5.0
 40
5.0
 40
5.0
 10
101.5073269060468
 20
-148.1825140688571
 10
101.4677083079664
 20
-148.0047471418182
 10
101.3846815067719
 20
-147.8629814626002
 10
101.2656534577565
 20
-147.7530829166207
 10
101.2656534577565
 20
-147.7530829166207
 10
101.4027682580694
 20
-147.6387057465105
 10
101.4027682580694
 20
-147.6387057465105
 10
101.454961454671
 20
-147.681080420979
 10
101.4892401547492
 20
-147.7148423567345
 10
101.5541802046462
 20
-147.822846100197
 10
101.6227376048026
 20
-147.9391180728242
 10
101.6408243561002
 20
-147.9920002885228
 10
101.662356202883
 20
-148.0576293575168
 10
101.662356202883
 20
-148.0576293575168
 10
101.5073269060468
 20
-148.1825140688571
 10
101.5073269060468
 20
-148.1825140688571
 97
        0
 97
        1
330
124
 92
        1
 93
        1
 72
     4
 94
        3
 73
     0
 74
     0
 95
       77
 96
       73
 40
0.0
 40
0.0
 40
0.0
 40
0.0
 40
1.0
 40
1.0
 40
1.0
 40
2.0
 40
2.0
 40
2.0
 40
3.0
 40
3.0
 40
3.0
 40
4.0
 40
4.0
 40
4.0
 40
5.0
 40
5.0
 40
5.0
 40
6.0
 40
6.0
 40
6.0
 40
7.0
 40
7.0
 40
7.0
 40
8.0
 40
8.0
 40
8.0
 40
9.0
 40
9.0
 40
9.0
 40
10.0
 40
10.0
 40
10.0
 40
11.0
 40
11.0
 40
11.0
 40
12.0
 40
12.0
 40
12.0
 40
13.0
 40
13.0
 40
13.0
 40
14.0
 40
14.0
 40
14.0
 40
15.0
 40
15.0
 40
15.0
 40
16.0
 40
16.0
 40
16.0
 40
17.0
 40
17.0
 40
17.0
 40
18.0
 40
18.0
 40
18.0
 40
19.0
 40
19.0
 40
19.0
 40
20.0
 40
20.0
 40
20.0
 40
21.0
 40
21.0
 40
21.0
 40
22.0
 40
22.0
 40
22.0
 40
23.0
 40
23.0
 40
23.0
 40
24.0
 40
24.0
 40
24.0
 40
24.0
 10
102.1637898507611
 20
-147.4568047048892
 10
102.1041896988663
 20
-147.452670590307
 10
102.0464843494883
 20
-147.452670590307
 10
101.9887790001104
 20
-147.452670590307
 10
101.9887790001104
 20
-147.452670590307
 10
101.9887790001104
 20
-148.2269558006169
 10
101.9887790001104
 20
-148.2269558006169
 10
101.9887790001104
 20
-148.4911946243355
 10
101.9870564523678
 20
-148.5208224455087
 10
101.9815442995914
 20
-148.5504502666818
 10
101.9527777522896
 20
-148.683775461961
 10
101.8661336008355
 20
-148.6923882006741
 10
101.7164442020014
 20
-148.6923882006741
 10
101.6821655019232
 20
-148.6923882006741
 10
101.6678683556594
 20
-148.6923882006741
 10
101.6335896555812
 20
-148.6879095765433
 10
101.6335896555812
 20
-148.6879095765433
 10
101.5271362050869
 20
-148.4467528925758
 10
101.5271362050869
 20
-148.4467528925758
 10
101.6263549550622
 20
-148.4784477710401
 10
101.6966349029612
 20
-148.4784477710401
 10
101.7164442020014
 20
-148.4784477710401
 10
101.7760443538962
 20
-148.4784477710401
 10
101.8048109011981
 20
-148.4615668031624
 10
101.8084282514576
 20
-148.4047227276558
 10
101.8084282514576
 20
-148.3919758743603
 10
101.8103230539745
 20
-148.2944796721278
 10
101.8103230539745
 20
-148.2372910870726
 10
101.8103230539745
 20
-148.2372910870726
 10
101.8103230539745
 20
-147.4504312782415
 10
101.8103230539745
 20
-147.4504312782415
 10
101.8103230539745
 20
-147.4504312782415
 10
101.5596923574225
 20
-147.4504312782415
 10
101.5596923574225
 20
-147.4504312782415
 10
101.4351521556308
 20
-147.4504312782415
 10
101.3107842086133
 20
-147.4568047048892
 10
101.1881388093384
 20
-147.4695515581847
 10
101.1881388093384
 20
-147.4695515581847
 10
101.1881388093384
 20
-147.2621568099726
 10
101.1881388093384
 20
-147.2621568099726
 10
101.3161241066154
 20
-147.2749036632681
 10
101.5019870080446
 20
-147.2792100326246
 10
101.5596923574225
 20
-147.2792100326246
 10
101.5596923574225
 20
-147.2792100326246
 10
101.8103230539745
 20
-147.2792100326246
 10
101.8103230539745
 20
-147.2792100326246
 10
101.8084282514576
 20
-147.0104925847751
 10
101.8084282514576
 20
-146.9343559745511
 10
101.8011935509386
 20
-146.7862168686854
 10
101.8011935509386
 20
-146.7862168686854
 10
102.021335152446
 20
-146.8242851737974
 10
102.021335152446
 20
-146.8242851737974
 10
102.0339097509672
 20
-146.8263522310885
 10
102.0464843494883
 20
-146.8327256577362
 10
102.0464843494883
 20
-146.8539129949705
 10
102.0464843494883
 20
-146.8730332749137
 10
102.0411444514862
 20
-146.8751003322048
 10
101.9923963503699
 20
-146.9088622679603
 10
101.9887790001104
 20
-146.9872381902497
 10
101.9887790001104
 20
-147.0020521008363
 10
101.9887790001104
 20
-147.2792100326246
 10
102.1403632014614
 20
-147.2749036632681
 10
102.1565551502421
 20
-147.2749036632681
 10
102.1853216975439
 20
-147.2705972939115
 10
102.2285576458838
 20
-147.2664631793292
 10
102.2321749961433
 20
-147.2643961220381
 10
102.2700710464811
 20
-147.2621568099726
 10
102.2700710464811
 20
-147.2621568099726
 10
102.2700710464811
 20
-147.4695515581847
 10
102.2700710464811
 20
-147.4695515581847
 10
102.2449218494387
 20
-147.4674845008935
 10
102.1978962960651
 20
-147.4588717621804
 10
102.1637898507611
 20
-147.4568047048892
 97
        0
 97
        1
330
125
 92
        1
 93
        1
 72
     4
 94
        3
 73
     0
 74
     0
 95
       53
 96
       49
 40
0.0
 40
0.0
 40
0.0
 40
0.0
 40
1.0
 40
1.0
 40
1.0
 40
2.0
 40
2.0
 40
2.0
 40
3.0
 40
3.0
 40
3.0
 40
4.0
 40
4.0
 40
4.0
 40
5.0
 40
5.0
 40
5.0
 40
6.0
 40
6.0
 40
6.0
 40
7.0
 40
7.0
 40
7.0
 40
8.0
 40
8.0
 40
8.0
 40
9.0
 40
9.0
 40
9.0
 40
10.0
 40
10.0
 40
10.0
 40
11.0
 40
11.0
 40
11.0
 40
12.0
 40
12.0
 40
12.0
 40
13.0
 40
13.0
 40
13.0
 40
14.0
 40
14.0
 40
14.0
 40
15.0
 40
15.0
 40
15.0
 40
16.0
 40
16.0
 40
16.0
 40
16.0
 10
101.1827989113362
 20
-146.9576103690766
 10
101.1250935619583
 20
-147.1098835895246
 10
101.0889200593632
 20
-147.1880872570398
 10
101.0565361618018
 20
-147.2557833833249
 10
101.0925374096227
 20
-147.2769707205592
 10
101.0961547598822
 20
-147.2792100326246
 10
101.0961547598822
 20
-147.2940239432112
 10
101.0961547598822
 20
-147.3065985417324
 10
101.0673882125804
 20
-147.3405327322621
 10
101.0582587095444
 20
-147.3489732162009
 10
101.0565361618018
 20
-147.5456881684087
 10
101.0565361618018
 20
-147.566875505643
 10
101.0565361618018
 20
-147.7002007009222
 10
101.0546413592849
 20
-147.7127752994433
 10
101.0546413592849
 20
-147.7275892100299
 10
101.0546413592849
 20
-147.7424031206165
 10
101.0546413592849
 20
-147.7424031206165
 10
101.0546413592849
 20
-148.27759870425
 10
101.0546413592849
 20
-148.27759870425
 10
101.0546413592849
 20
-148.3496011998918
 10
101.0582587095444
 20
-148.5845567119858
 10
101.0654934100635
 20
-148.6944552579652
 10
101.0654934100635
 20
-148.6944552579652
 10
100.8580986618514
 20
-148.6944552579652
 10
100.8580986618514
 20
-148.6944552579652
 10
100.8779079608916
 20
-148.5356363560953
 10
100.883420113668
 20
-148.2944796721278
 10
100.883420113668
 20
-148.2734645896677
 10
100.883420113668
 20
-148.2734645896677
 10
100.883420113668
 20
-147.5561957096387
 10
100.883420113668
 20
-147.5561957096387
 10
100.8059054652499
 20
-147.670572879749
 10
100.7535400138741
 20
-147.7296562673211
 10
100.7175387660532
 20
-147.7720309417896
 10
100.7175387660532
 20
-147.7720309417896
 10
100.5551025139237
 20
-147.6345716319281
 10
100.5551025139237
 20
-147.6345716319281
 10
100.7950534144714
 20
-147.4187363997772
 10
100.9590399595692
 20
-147.1098835895246
 10
101.0546413592849
 20
-146.7734700153899
 10
101.0546413592849
 20
-146.7734700153899
 10
101.2422268084568
 20
-146.8878471855003
 10
101.2422268084568
 20
-146.8878471855003
 10
101.2530788592353
 20
-146.8940483573737
 10
101.2603135597544
 20
-146.8983547267303
 10
101.2603135597544
 20
-146.9131686373168
 10
101.2603135597544
 20
-146.9384900891334
 10
101.2458441587163
 20
-146.94279645849
 10
101.1827989113362
 20
-146.9576103690766
 97
        0
 97
        1
330
126
 75
     2
 76
     1
 98
        1
 10
0.0
 20
0.0
450
        0
451
        0
460
0.0
461
0.0
452
        0
462
0.0
453
        0
470

  0
ENDBLK
  5
116
330
113
100
AcDbEntity
  8
0
100
AcDbBlockEnd
  0
ENDSEC
  0
SECTION
  2
ENTITIES
  0
INSERT
  5
7A
330
70
100
AcDbEntity
  8
レイヤー 1
100
AcDbBlockReference
  2
Block_0
 10
0.0
 20
0.0
 30
0.0
  0
INSERT
  5
FB
330
70
100
AcDbEntity
  8
レイヤー 1
100
AcDbBlockReference
  2
Block_16
 10
0.0
 20
0.0
 30
0.0
  0
INSERT
  5
110
330
70
100
AcDbEntity
  8
レイヤー 1
100
AcDbBlockReference
  2
Block_18
 10
0.0
 20
0.0
 30
0.0
  0
ENDSEC
  0
SECTION
  2
OBJECTS
  0
DICTIONARY
  5
C
330
0
100
AcDbDictionary
281
     1
  3
ACAD_COLOR
350
63
  3
ACAD_DETAILVIEWSTYLE
350
6A
  3
ACAD_GROUP
350
D
  3
ACAD_LAYOUT
350
62
  3
ACAD_MATERIAL
350
10
  3
ACAD_MLEADERSTYLE
350
66
  3
ACAD_MLINESTYLE
350
5F
  3
ACAD_PLOTSETTINGS
350
61
  3
ACAD_PLOTSTYLENAME
350
E
  3
ACAD_SCALELIST
350
42
  3
ACAD_SECTIONVIEWSTYLE
350
68
  3
ACAD_TABLESTYLE
350
64
  3
ACAD_VISUALSTYLE
350
29
  3
ACDB_RECOMPOSE_DATA
350
130
  3
AcDbVariableDictionary
350
128
  0
DICTIONARY
  5
63
102
{ACAD_REACTORS
330
C
102
}
330
C
100
AcDbDictionary
281
     1
  0
DICTIONARY
  5
6A
102
{ACAD_REACTORS
330
C
102
}
330
C
100
AcDbDictionary
281
     1
  3
Imperial24
350
6B
  0
DICTIONARY
  5
D
102
{ACAD_REACTORS
330
C
102
}
330
C
100
AcDbDictionary
281
     1
  0
DICTIONARY
  5
62
102
{ACAD_REACTORS
330
C
102
}
330
C
100
AcDbDictionary
281
     1
  3
Layout1
350
6F
  3
Layout2
350
77
  3
Model
350
73
  0
DICTIONARY
  5
10
102
{ACAD_REACTORS
330
C
102
}
330
C
100
AcDbDictionary
281
     1
  3
ByBlock
350
19
  3
ByLayer
350
11
  3
Global
350
21
  0
DICTIONARY
  5
66
102
{ACAD_REACTORS
330
C
102
}
330
C
100
AcDbDictionary
281
     1
  3
Standard
350
67
  0
DICTIONARY
  5
5F
102
{ACAD_REACTORS
330
C
102
}
330
C
100
AcDbDictionary
281
     1
  3
Standard
350
60
  0
DICTIONARY
  5
61
102
{ACAD_REACTORS
330
C
102
}
330
C
100
AcDbDictionary
281
     1
  0
ACDBDICTIONARYWDFLT
  5
E
102
{ACAD_REACTORS
330
C
102
}
330
C
100
AcDbDictionary
281
     1
  3
Normal
350
F
100
AcDbDictionaryWithDefault
340
F
  0
DICTIONARY
  5
42
102
{ACAD_REACTORS
330
C
102
}
330
C
100
AcDbDictionary
281
     1
  3
A0
350
43
  3
A1
350
44
  3
A2
350
45
  3
A3
350
46
  3
A4
350
47
  3
A5
350
48
  3
A6
350
49
  3
A7
350
4A
  3
A8
350
4B
  3
A9
350
4C
  3
B0
350
4D
  3
B1
350
4E
  3
B2
350
4F
  3
B3
350
50
  3
B4
350
51
  3
B5
350
52
  3
B6
350
53
  0
DICTIONARY
  5
68
102
{ACAD_REACTORS
330
C
102
}
330
C
100
AcDbDictionary
281
     1
  3
Imperial24
350
69
  0
DICTIONARY
  5
64
102
{ACAD_REACTORS
330
C
102
}
330
C
100
AcDbDictionary
281
     1
  3
Standard
350
65
  0
DICTIONARY
  5
29
102
{ACAD_REACTORS
330
C
102
}
330
C
100
AcDbDictionary
281
     1
  3
2dWireframe
350
2F
  3
Basic
350
2E
  3
Brighten
350
35
  3
ColorChange
350
39
  3
Conceptual
350
32
  3
Dim
350
34
  3
EdgeColorOff
350
41
  3
Facepattern
350
38
  3
Flat
350
2A
  3
FlatWithEdges
350
2B
  3
Gouraud
350
2C
  3
GouraudWithEdges
350
2D
  3
Hidden
350
31
  3
JitterOff
350
3F
  3
Linepattern
350
37
  3
OverhangOff
350
40
  3
Realistic
350
33
  3
Shaded
350
3E
  3
Shaded with edges
350
3D
  3
Shades of Gray
350
3A
  3
Sketchy
350
3B
  3
Thicken
350
36
  3
Wireframe
350
30
  3
X-Ray
350
3C
  0
XRECORD
  5
130
102
{ACAD_REACTORS
330
C
102
}
330
C
100
AcDbXrecord
280
     1
 90
        1
330
65
  0
DICTIONARY
  5
128
102
{ACAD_REACTORS
330
C
102
}
330
C
100
AcDbDictionary
281
     1
  3
CANNOSCALE
350
12D
  3
CMLEADERSTYLE
350
12A
  3
CTABLESTYLE
350
129
  3
CVIEWDETAILSTYLE
350
12B
  3
CVIEWSECTIONSTYLE
350
12C
  0
ACDBDETAILVIEWSTYLE
  5
6B
102
{ACAD_XDICTIONARY
360
165
102
}
102
{ACAD_REACTORS
330
6A
102
}
330
6A
100
AcDbModelDocViewStyle
 70
     0
  3
Imperial24
290
     0
100
AcDbDetailViewStyle
 70
     0
 71
     0
 90
        3
 71
     1
340
55
 62
   256
 40
0.24
340
0
 62
   256
 40
0.24
300

 40
0.36
280
     3
 71
     2
340
5D
 90
       25
 62
   256
 71
     3
340
55
 62
   256
 40
0.24
 90
        1
 40
0.75
 90
        1
300
%<\AcVar ViewType \f "%tc1">% %<\AcVar ViewDetailId>%\PSCALE %<\AcVar ViewScale \f "%sn">%
 71
     4
340
5D
 90
       25
 62
   256
340
5D
 90
       25
 62
   256
280
     0
  0
LAYOUT
  5
6F
102
{ACAD_REACTORS
330
62
102
}
330
62
100
AcDbPlotSettings
  1

  2

  4

  6

 40
0.0
 41
0.0
 42
0.0
 43
0.0
 44
0.0
 45
0.0
 46
0.0
 47
0.0
 48
0.0
 49
0.0
140
0.0
141
0.0
142
1.0
143
1.0
 70
   688
 72
     0
 73
     0
 74
     5
  7

 75
    16
147
1.0
 76
     0
 77
     2
 78
   300
148
0.0
149
0.0
100
AcDbLayout
  1
Layout1
 70
     1
 71
     1
 10
0.0
 20
0.0
 11
12.0
 21
9.0
 12
0.0
 22
0.0
 32
0.0
 14
0.0
 24
0.0
 34
0.0
 15
0.0
 25
0.0
 35
0.0
146
0.0
 13
0.0
 23
0.0
 33
0.0
 16
1.0
 26
0.0
 36
0.0
 17
0.0
 27
1.0
 37
0.0
 76
     0
330
6C
  0
LAYOUT
  5
77
102
{ACAD_REACTORS
330
62
102
}
330
62
100
AcDbPlotSettings
  1

  2

  4

  6

 40
0.0
 41
0.0
 42
0.0
 43
0.0
 44
0.0
 45
0.0
 46
0.0
 47
0.0
 48
0.0
 49
0.0
140
0.0
141
0.0
142
1.0
143
1.0
 70
   688
 72
     0
 73
     0
 74
     5
  7

 75
    16
147
1.0
 76
     0
 77
     2
 78
   300
148
0.0
149
0.0
100
AcDbLayout
  1
Layout2
 70
     1
 71
     2
 10
0.0
 20
0.0
 11
12.0
 21
9.0
 12
0.0
 22
0.0
 32
0.0
 14
0.0
 24
0.0
 34
0.0
 15
0.0
 25
0.0
 35
0.0
146
0.0
 13
0.0
 23
0.0
 33
0.0
 16
1.0
 26
0.0
 36
0.0
 17
0.0
 27
1.0
 37
0.0
 76
     0
330
74
  0
LAYOUT
  5
73
102
{ACAD_REACTORS
330
62
102
}
330
62
100
AcDbPlotSettings
  1

  2

  4

  6

 40
0.0
 41
0.0
 42
0.0
 43
0.0
 44
0.0
 45
0.0
 46
0.0
 47
0.0
 48
0.0
 49
0.0
140
0.0
141
0.0
142
1.0
143
1.0
 70
  1712
 72
     0
 73
     0
 74
     0
  7

 75
     0
147
1.0
 76
     0
 77
     2
 78
   300
148
0.0
149
0.0
100
AcDbLayout
  1
Model
 70
     1
 71
     0
 10
0.0
 20
0.0
 11
12.0
 21
9.0
 12
0.0
 22
0.0
 32
0.0
 14
0.0
 24
0.0
 34
0.0
 15
0.0
 25
0.0
 35
0.0
146
0.0
 13
0.0
 23
0.0
 33
0.0
 16
1.0
 26
0.0
 36
0.0
 17
0.0
 27
1.0
 37
0.0
 76
     0
330
70
  0
MATERIAL
  5
19
102
{ACAD_XDICTIONARY
360
1A
102
}
102
{ACAD_REACTORS
330
10
102
}
330
10
100
AcDbMaterial
  1
ByBlock
 72
     0
 43
0.0208333333333333
 43
0.0
 43
0.0
 43
0.0
 43
0.0
 43
0.0208333333333333
 43
0.0
 43
0.0
 43
0.0
 43
0.0
 43
1.0
 43
0.0
 43
0.0
 43
0.0
 43
0.0
 43
1.0
 77
     0
 47
0.0208333333333333
 47
0.0
 47
0.0
 47
0.0
 47
0.0
 47
0.0208333333333333
 47
0.0
 47
0.0
 47
0.0
 47
0.0
 47
1.0
 47
0.0
 47
0.0
 47
0.0
 47
0.0
 47
1.0
171
     0
 49
0.0208333333333333
 49
0.0
 49
0.0
 49
0.0
 49
0.0
 49
0.0208333333333333
 49
0.0
 49
0.0
 49
0.0
 49
0.0
 49
1.0
 49
0.0
 49
0.0
 49
0.0
 49
0.0
 49
1.0
175
     0
142
0.0208333333333333
142
0.0
142
0.0
142
0.0
142
0.0
142
0.0208333333333333
142
0.0
142
0.0
142
0.0
142
0.0
142
1.0
142
0.0
142
0.0
142
0.0
142
0.0
142
1.0
179
     0
144
0.0208333333333333
144
0.0
144
0.0
144
0.0
144
0.0
144
0.0208333333333333
144
0.0
144
0.0
144
0.0
144
0.0
144
1.0
144
0.0
144
0.0
144
0.0
144
0.0
144
1.0
147
0.0208333333333333
147
0.0
147
0.0
147
0.0
147
0.0
147
0.0208333333333333
147
0.0
147
0.0
147
0.0
147
0.0
147
1.0
147
0.0
147
0.0
147
0.0
147
0.0
147
1.0
  0
MATERIAL
  5
11
102
{ACAD_XDICTIONARY
360
12
102
}
102
{ACAD_REACTORS
330
10
102
}
330
10
100
AcDbMaterial
  1
ByLayer
 72
     0
 43
0.0208333333333333
 43
0.0
 43
0.0
 43
0.0
 43
0.0
 43
0.0208333333333333
 43
0.0
 43
0.0
 43
0.0
 43
0.0
 43
1.0
 43
0.0
 43
0.0
 43
0.0
 43
0.0
 43
1.0
 77
     0
 47
0.0208333333333333
 47
0.0
 47
0.0
 47
0.0
 47
0.0
 47
0.0208333333333333
 47
0.0
 47
0.0
 47
0.0
 47
0.0
 47
1.0
 47
0.0
 47
0.0
 47
0.0
 47
0.0
 47
1.0
171
     0
 49
0.0208333333333333
 49
0.0
 49
0.0
 49
0.0
 49
0.0
 49
0.0208333333333333
 49
0.0
 49
0.0
 49
0.0
 49
0.0
 49
1.0
 49
0.0
 49
0.0
 49
0.0
 49
0.0
 49
1.0
175
     0
142
0.0208333333333333
142
0.0
142
0.0
142
0.0
142
0.0
142
0.0208333333333333
142
0.0
142
0.0
142
0.0
142
0.0
142
1.0
142
0.0
142
0.0
142
0.0
142
0.0
142
1.0
179
     0
144
0.0208333333333333
144
0.0
144
0.0
144
0.0
144
0.0
144
0.0208333333333333
144
0.0
144
0.0
144
0.0
144
0.0
144
1.0
144
0.0
144
0.0
144
0.0
144
0.0
144
1.0
147
0.0208333333333333
147
0.0
147
0.0
147
0.0
147
0.0
147
0.0208333333333333
147
0.0
147
0.0
147
0.0
147
0.0
147
1.0
147
0.0
147
0.0
147
0.0
147
0.0
147
1.0
  0
MATERIAL
  5
21
102
{ACAD_XDICTIONARY
360
22
102
}
102
{ACAD_REACTORS
330
10
102
}
330
10
100
AcDbMaterial
  1
Global
 72
     0
 43
0.0208333333333333
 43
0.0
 43
0.0
 43
0.0
 43
0.0
 43
0.0208333333333333
 43
0.0
 43
0.0
 43
0.0
 43
0.0
 43
1.0
 43
0.0
 43
0.0
 43
0.0
 43
0.0
 43
1.0
 77
     0
 47
0.0208333333333333
 47
0.0
 47
0.0
 47
0.0
 47
0.0
 47
0.0208333333333333
 47
0.0
 47
0.0
 47
0.0
 47
0.0
 47
1.0
 47
0.0
 47
0.0
 47
0.0
 47
0.0
 47
1.0
171
     0
 49
0.0208333333333333
 49
0.0
 49
0.0
 49
0.0
 49
0.0
 49
0.0208333333333333
 49
0.0
 49
0.0
 49
0.0
 49
0.0
 49
1.0
 49
0.0
 49
0.0
 49
0.0
 49
0.0
 49
1.0
175
     0
142
0.0208333333333333
142
0.0
142
0.0
142
0.0
142
0.0
142
0.0208333333333333
142
0.0
142
0.0
142
0.0
142
0.0
142
1.0
142
0.0
142
0.0
142
0.0
142
0.0
142
1.0
179
     0
144
0.0208333333333333
144
0.0
144
0.0
144
0.0
144
0.0
144
0.0208333333333333
144
0.0
144
0.0
144
0.0
144
0.0
144
1.0
144
0.0
144
0.0
144
0.0
144
0.0
144
1.0
147
0.0208333333333333
147
0.0
147
0.0
147
0.0
147
0.0
147
0.0208333333333333
147
0.0
147
0.0
147
0.0
147
0.0
147
1.0
147
0.0
147
0.0
147
0.0
147
0.0
147
1.0
  0
MLEADERSTYLE
  5
67
102
{ACAD_XDICTIONARY
360
161
102
}
102
{ACAD_REACTORS
330
66
102
}
330
66
100
AcDbMLeaderStyle
179
     2
170
     2
171
     1
172
     0
 90
        2
 40
0.0
 41
0.0
173
     1
 91
-1056964608
340
5B
 92
       -2
290
     1
 42
0.09
291
     1
 43
0.36
  3
Standard
 44
0.18
300

342
55
174
     1
178
     6
175
     1
176
     0
 93
-1056964608
 45
0.18
292
     0
297
     0
 46
0.18
 94
-1056964608
 47
1.0
 49
1.0
140
1.0
293
     1
141
0.0
294
     1
177
     0
142
1.0
295
     0
296
     0
143
0.125
271
     0
272
     9
273
     9
  0
MLINESTYLE
  5
60
102
{ACAD_REACTORS
330
5F
102
}
330
5F
100
AcDbMlineStyle
  2
STANDARD
 70
     0
  3

 62
   256
 51
90.0
 52
90.0
 71
     2
 49
0.5
 62
   256
  6
BYLAYER
 49
-0.5
 62
   256
  6
BYLAYER
  0
ACDBPLACEHOLDER
  5
F
102
{ACAD_REACTORS
330
E
102
}
330
E
  0
SCALE
  5
43
102
{ACAD_REACTORS
330
42
102
}
330
42
100
AcDbScale
 70
     0
300
1:1
140
1.0
141
1.0
290
     1
  0
SCALE
  5
44
102
{ACAD_REACTORS
330
42
102
}
330
42
100
AcDbScale
 70
     0
300
1/128" = 1'-0"
140
0.0078125
141
12.0
290
     0
  0
SCALE
  5
45
102
{ACAD_REACTORS
330
42
102
}
330
42
100
AcDbScale
 70
     0
300
1/64" = 1'-0"
140
0.015625
141
12.0
290
     0
  0
SCALE
  5
46
102
{ACAD_REACTORS
330
42
102
}
330
42
100
AcDbScale
 70
     0
300
1/32" = 1'-0"
140
0.03125
141
12.0
290
     0
  0
SCALE
  5
47
102
{ACAD_REACTORS
330
42
102
}
330
42
100
AcDbScale
 70
     0
300
1/16" = 1'-0"
140
0.0625
141
12.0
290
     0
  0
SCALE
  5
48
102
{ACAD_REACTORS
330
42
102
}
330
42
100
AcDbScale
 70
     0
300
3/32" = 1'-0"
140
0.09375
141
12.0
290
     0
  0
SCALE
  5
49
102
{ACAD_REACTORS
330
42
102
}
330
42
100
AcDbScale
 70
     0
300
1/8" = 1'-0"
140
0.125
141
12.0
290
     0
  0
SCALE
  5
4A
102
{ACAD_REACTORS
330
42
102
}
330
42
100
AcDbScale
 70
     0
300
3/16" = 1'-0"
140
0.1875
141
12.0
290
     0
  0
SCALE
  5
4B
102
{ACAD_REACTORS
330
42
102
}
330
42
100
AcDbScale
 70
     0
300
1/4" = 1'-0"
140
0.25
141
12.0
290
     0
  0
SCALE
  5
4C
102
{ACAD_REACTORS
330
42
102
}
330
42
100
AcDbScale
 70
     0
300
3/8" = 1'-0"
140
0.375
141
12.0
290
     0
  0
SCALE
  5
4D
102
{ACAD_REACTORS
330
42
102
}
330
42
100
AcDbScale
 70
     0
300
1/2" = 1'-0"
140
0.5
141
12.0
290
     0
  0
SCALE
  5
4E
102
{ACAD_REACTORS
330
42
102
}
330
42
100
AcDbScale
 70
     0
300
3/4" = 1'-0"
140
0.75
141
12.0
290
     0
  0
SCALE
  5
4F
102
{ACAD_REACTORS
330
42
102
}
330
42
100
AcDbScale
 70
     0
300
1" = 1'-0"
140
1.0
141
12.0
290
     0
  0
SCALE
  5
50
102
{ACAD_REACTORS
330
42
102
}
330
42
100
AcDbScale
 70
     0
300
1-1/2" = 1'-0"
140
1.5
141
12.0
290
     0
  0
SCALE
  5
51
102
{ACAD_REACTORS
330
42
102
}
330
42
100
AcDbScale
 70
     0
300
3" = 1'-0"
140
3.0
141
12.0
290
     0
  0
SCALE
  5
52
102
{ACAD_REACTORS
330
42
102
}
330
42
100
AcDbScale
 70
     0
300
6" = 1'-0"
140
6.0
141
12.0
290
     0
  0
SCALE
  5
53
102
{ACAD_REACTORS
330
42
102
}
330
42
100
AcDbScale
 70
     0
300
1'-0" = 1'-0"
140
12.0
141
12.0
290
     0
  0
ACDBSECTIONVIEWSTYLE
  5
69
102
{ACAD_XDICTIONARY
360
163
102
}
102
{ACAD_REACTORS
330
68
102
}
330
68
100
AcDbModelDocViewStyle
 70
     0
  3
Imperial24
290
     0
100
AcDbSectionViewStyle
 70
     0
 71
     0
 90
       78
 71
     1
340
55
 62
   256
 40
0.24
340
0
340
0
 62
   256
 40
0.24
300
I, O, Q, S, X, Z
 40
0.48
 90
        3
 40
0.18
 90
        1
 71
     2
340
5D
 90
       25
 62
   256
340
5D
 90
       50
 62
   256
 40
0.24
 40
0.0
 40
0.24
 71
     3
340
55
 62
   256
 40
0.24
 90
        1
 40
0.75
 90
        1
300
%<\AcVar ViewType \f "%tc1">% %<\AcVar ViewSectionStartId>%-%<\AcVar ViewSectionEndId>%\PSCALE %<\AcVar ViewScale \f "%sn">%
 71
     4
 62
   256
 62
   257
300
ANSI31
 40
1.0
 90
        0
290
     0
290
     0
 90
        6
 40
0.0
 40
1.570796326794896
 40
0.2617993877991494
 40
1.308996938995747
 40
-0.2617993877991494
 40
1.832595714594046
  0
TABLESTYLE
  5
65
102
{ACAD_XDICTIONARY
360
12E
102
}
102
{ACAD_REACTORS
330
64
102
}
330
64
100
AcDbTableStyle
280
     0
  3
Standard
 70
     0
 71
     0
 40
0.06
 41
0.06
280
     0
281
     0
  7
Standard
140
0.18
170
     2
 62
     0
 63
     7
283
     0
 90
      512
 91
        0
  1

274
    -2
284
     1
 64
     0
275
    -2
285
     1
 65
     0
276
    -2
286
     1
 66
     0
277
    -2
287
     1
 67
     0
278
    -2
288
     1
 68
     0
279
    -2
289
     1
 69
     0
  7
Standard
140
0.25
170
     5
 62
     0
 63
     7
283
     0
 90
      512
 91
        0
  1

274
    -2
284
     1
 64
     0
275
    -2
285
     1
 65
     0
276
    -2
286
     1
 66
     0
277
    -2
287
     1
 67
     0
278
    -2
288
     1
 68
     0
279
    -2
289
     1
 69
     0
  7
Standard
140
0.18
170
     5
 62
     0
 63
     7
283
     0
 90
      512
 91
        0
  1

274
    -2
284
     1
 64
     0
275
    -2
285
     1
 65
     0
276
    -2
286
     1
 66
     0
277
    -2
287
     1
 67
     0
278
    -2
288
     1
 68
     0
279
    -2
289
     1
 69
     0
  0
VISUALSTYLE
  5
2F
102
{ACAD_XDICTIONARY
360
13B
102
}
102
{ACAD_REACTORS
330
29
102
}
330
29
100
AcDbVisualStyle
  2
2dWireframe
 70
     4
177
     2
291
     0
 71
     0
176
     1
 72
     2
176
     1
 73
     0
176
     1
 90
        0
176
     1
 40
0.6
176
     1
 41
30.0
176
     1
 63
     7
421
 16777215
176
     1
 74
     1
176
     1
 91
        4
176
     1
 64
     7
176
     1
 65
   257
176
     1
 75
     1
176
     1
175
     1
176
     1
 42
1.0
176
     1
 92
        0
176
     1
 66
   257
176
     1
 43
1.0
176
     1
 76
     1
176
     1
 77
     6
176
     1
 78
     2
176
     1
 67
     7
176
     1
 79
     5
176
     1
170
     0
176
     1
171
     0
176
     1
290
     0
176
     1
 93
        1
176
     1
 44
0.0
176
     1
173
     0
176
     1
1001
ACAD
1000
AcDbSavedByObjectVersion
1070
     0
  0
VISUALSTYLE
  5
2E
102
{ACAD_XDICTIONARY
360
139
102
}
102
{ACAD_REACTORS
330
29
102
}
330
29
100
AcDbVisualStyle
  2
Basic
 70
     7
177
     2
291
     1
 71
     1
176
     1
 72
     0
176
     1
 73
     1
176
     1
 90
        0
176
     1
 40
0.6
176
     1
 41
30.0
176
     1
 63
     7
421
 16777215
176
     1
 74
     0
176
     1
 91
        4
176
     1
 64
     7
176
     1
 65
   257
176
     1
 75
     1
176
     1
175
     1
176
     1
 42
1.0
176
     1
 92
        8
176
     1
 66
     7
176
     1
 43
1.0
176
     1
 76
     1
176
     1
 77
     6
176
     1
 78
     2
176
     1
 67
     7
176
     1
 79
     5
176
     1
170
     0
176
     1
171
     0
176
     1
290
     0
176
     1
 93
        1
176
     1
 44
0.0
176
     1
173
     0
176
     1
1001
ACAD
1000
AcDbSavedByObjectVersion
1070
     0
  0
VISUALSTYLE
  5
35
102
{ACAD_XDICTIONARY
360
147
102
}
102
{ACAD_REACTORS
330
29
102
}
330
29
100
AcDbVisualStyle
  2
Brighten
 70
    12
177
     2
291
     1
 71
     2
176
     1
 72
     2
176
     1
 73
     0
176
     1
 90
        0
176
     1
 40
0.6
176
     1
 41
30.0
176
     1
 63
     7
421
 16777215
176
     1
 74
     1
176
     1
 91
        4
176
     1
 64
     7
176
     1
 65
   257
176
     1
 75
     1
176
     1
175
     1
176
     1
 42
1.0
176
     1
 92
        8
176
     1
 66
     7
176
     1
 43
1.0
176
     1
 76
     1
176
     1
 77
     6
176
     1
 78
     2
176
     1
 67
     7
176
     1
 79
     5
176
     1
170
     0
176
     1
171
     0
176
     1
290
     0
176
     1
 93
        1
176
     1
 44
50.0
176
     1
173
     0
176
     1
1001
ACAD
1000
AcDbSavedByObjectVersion
1070
     0
  0
VISUALSTYLE
  5
39
102
{ACAD_XDICTIONARY
360
14F
102
}
102
{ACAD_REACTORS
330
29
102
}
330
29
100
AcDbVisualStyle
  2
ColorChange
 70
    16
177
     2
291
     1
 71
     2
176
     1
 72
     2
176
     1
 73
     3
176
     1
 90
        0
176
     1
 40
0.6
176
     1
 41
30.0
176
     1
 63
     8
421
  8421504
176
     1
 74
     1
176
     1
 91
        4
176
     1
 64
     7
176
     1
 65
   257
176
     1
 75
     1
176
     1
175
     1
176
     1
 42
1.0
176
     1
 92
        8
176
     1
 66
     8
424
  8421504
176
     1
 43
1.0
176
     1
 76
     1
176
     1
 77
     6
176
     1
 78
     2
176
     1
 67
     7
176
     1
 79
     5
176
     1
170
     0
176
     1
171
     0
176
     1
290
     0
176
     1
 93
        1
176
     1
 44
0.0
176
     1
173
     0
176
     1
1001
ACAD
1000
AcDbSavedByObjectVersion
1070
     0
  0
VISUALSTYLE
  5
32
102
{ACAD_XDICTIONARY
360
141
102
}
102
{ACAD_REACTORS
330
29
102
}
330
29
100
AcDbVisualStyle
  2
Conceptual
 70
     9
177
     2
291
     0
 71
     3
176
     1
 72
     2
176
     1
 73
     0
176
     1
 90
        0
176
     1
 40
0.6
176
     1
 41
30.0
176
     1
 63
     7
421
 16777215
176
     1
 74
     2
176
     1
 91
        2
176
     1
 64
     7
176
     1
 65
   257
176
     1
 75
     1
176
     1
175
     1
176
     1
 42
179.0
176
     1
 92
        8
176
     1
 66
     7
176
     1
 43
1.0
176
     1
 76
     1
176
     1
 77
     6
176
     1
 78
     2
176
     1
 67
     7
176
     1
 79
     3
176
     1
170
     0
176
     1
171
     0
176
     1
290
     0
176
     1
 93
        1
176
     1
 44
0.0
176
     1
173
     0
176
     1
1001
ACAD
1000
AcDbSavedByObjectVersion
1070
     0
  0
VISUALSTYLE
  5
34
102
{ACAD_XDICTIONARY
360
145
102
}
102
{ACAD_REACTORS
330
29
102
}
330
29
100
AcDbVisualStyle
  2
Dim
 70
    11
177
     2
291
     1
 71
     2
176
     1
 72
     2
176
     1
 73
     0
176
     1
 90
        0
176
     1
 40
0.6
176
     1
 41
30.0
176
     1
 63
     7
421
 16777215
176
     1
 74
     1
176
     1
 91
        4
176
     1
 64
     7
176
     1
 65
   257
176
     1
 75
     1
176
     1
175
     1
176
     1
 42
1.0
176
     1
 92
        8
176
     1
 66
     7
176
     1
 43
1.0
176
     1
 76
     1
176
     1
 77
     6
176
     1
 78
     2
176
     1
 67
     7
176
     1
 79
     5
176
     1
170
     0
176
     1
171
     0
176
     1
290
     0
176
     1
 93
        1
176
     1
 44
-50.0
176
     1
173
     0
176
     1
1001
ACAD
1000
AcDbSavedByObjectVersion
1070
     0
  0
VISUALSTYLE
  5
41
102
{ACAD_XDICTIONARY
360
15F
102
}
102
{ACAD_REACTORS
330
29
102
}
330
29
100
AcDbVisualStyle
  2
EdgeColorOff
 70
    22
177
     2
291
     1
 71
     2
176
     0
 72
     2
176
     0
 73
     0
176
     0
 90
        0
176
     0
 40
0.6
176
     0
 41
30.0
176
     0
 63
     7
421
 16777215
176
     0
 74
     1
176
     0
 91
        4
176
     0
 64
     7
176
     0
 65
   257
176
     0
 75
     1
176
     0
175
     1
176
     0
 42
1.0
176
     0
 92
        8
176
     2
 66
     7
176
     0
 43
1.0
176
     0
 76
     1
176
     0
 77
     6
176
     0
 78
     2
176
     0
 67
     7
176
     0
 79
     5
176
     0
170
     0
176
     0
171
     0
176
     0
290
     0
176
     0
 93
        1
176
     0
 44
0.0
176
     0
173
     0
176
     0
1001
ACAD
1000
AcDbSavedByObjectVersion
1070
     0
  0
VISUALSTYLE
  5
38
102
{ACAD_XDICTIONARY
360
14D
102
}
102
{ACAD_REACTORS
330
29
102
}
330
29
100
AcDbVisualStyle
  2
Facepattern
 70
    15
177
     2
291
     1
 71
     2
176
     1
 72
     2
176
     1
 73
     0
176
     1
 90
        0
176
     1
 40
0.6
176
     1
 41
30.0
176
     1
 63
     7
421
 16777215
176
     1
 74
     1
176
     1
 91
        4
176
     1
 64
     7
176
     1
 65
   257
176
     1
 75
     1
176
     1
175
     1
176
     1
 42
1.0
176
     1
 92
        8
176
     1
 66
     7
176
     1
 43
1.0
176
     1
 76
     1
176
     1
 77
     6
176
     1
 78
     2
176
     1
 67
     7
176
     1
 79
     5
176
     1
170
     0
176
     1
171
     0
176
     1
290
     0
176
     1
 93
        1
176
     1
 44
0.0
176
     1
173
     0
176
     1
1001
ACAD
1000
AcDbSavedByObjectVersion
1070
     0
  0
VISUALSTYLE
  5
2A
102
{ACAD_XDICTIONARY
360
131
102
}
102
{ACAD_REACTORS
330
29
102
}
330
29
100
AcDbVisualStyle
  2
Flat
 70
     0
177
     2
291
     1
 71
     2
176
     1
 72
     1
176
     1
 73
     1
176
     1
 90
        2
176
     1
 40
0.6
176
     1
 41
30.0
176
     1
 63
     7
421
 16777215
176
     1
 74
     0
176
     1
 91
        0
176
     1
 64
     7
176
     1
 65
   257
176
     1
 75
     1
176
     1
175
     1
176
     1
 42
1.0
176
     1
 92
        8
176
     1
 66
     7
176
     1
 43
1.0
176
     1
 76
     1
176
     1
 77
     6
176
     1
 78
     2
176
     1
 67
     7
176
     1
 79
     5
176
     1
170
     0
176
     1
171
     0
176
     1
290
     0
176
     1
 93
       13
176
     1
 44
0.0
176
     1
173
     0
176
     1
1001
ACAD
1000
AcDbSavedByObjectVersion
1070
     0
  0
VISUALSTYLE
  5
2B
102
{ACAD_XDICTIONARY
360
133
102
}
102
{ACAD_REACTORS
330
29
102
}
330
29
100
AcDbVisualStyle
  2
FlatWithEdges
 70
     1
177
     2
291
     1
 71
     2
176
     1
 72
     1
176
     1
 73
     1
176
     1
 90
        2
176
     1
 40
0.6
176
     1
 41
30.0
176
     1
 63
     7
421
 16777215
176
     1
 74
     1
176
     1
 91
        0
176
     1
 64
     7
176
     1
 65
   257
176
     1
 75
     1
176
     1
175
     1
176
     1
 42
1.0
176
     1
 92
        0
176
     1
 66
   257
176
     1
 43
1.0
176
     1
 76
     1
176
     1
 77
     6
176
     1
 78
     2
176
     1
 67
     7
176
     1
 79
     5
176
     1
170
     0
176
     1
171
     0
176
     1
290
     0
176
     1
 93
       13
176
     1
 44
0.0
176
     1
173
     0
176
     1
1001
ACAD
1000
AcDbSavedByObjectVersion
1070
     0
  0
VISUALSTYLE
  5
2C
102
{ACAD_XDICTIONARY
360
135
102
}
102
{ACAD_REACTORS
330
29
102
}
330
29
100
AcDbVisualStyle
  2
Gouraud
 70
     2
177
     2
291
     1
 71
     2
176
     1
 72
     2
176
     1
 73
     1
176
     1
 90
        2
176
     1
 40
0.6
176
     1
 41
30.0
176
     1
 63
     7
421
 16777215
176
     1
 74
     0
176
     1
 91
        0
176
     1
 64
     7
176
     1
 65
   257
176
     1
 75
     1
176
     1
175
     1
176
     1
 42
1.0
176
     1
 92
        0
176
     1
 66
     7
176
     1
 43
1.0
176
     1
 76
     1
176
     1
 77
     6
176
     1
 78
     2
176
     1
 67
     7
176
     1
 79
     5
176
     1
170
     0
176
     1
171
     0
176
     1
290
     0
176
     1
 93
       13
176
     1
 44
0.0
176
     1
173
     0
176
     1
1001
ACAD
1000
AcDbSavedByObjectVersion
1070
     0
  0
VISUALSTYLE
  5
2D
102
{ACAD_XDICTIONARY
360
137
102
}
102
{ACAD_REACTORS
330
29
102
}
330
29
100
AcDbVisualStyle
  2
GouraudWithEdges
 70
     3
177
     2
291
     1
 71
     2
176
     1
 72
     2
176
     1
 73
     1
176
     1
 90
        2
176
     1
 40
0.6
176
     1
 41
30.0
176
     1
 63
     7
421
 16777215
176
     1
 74
     1
176
     1
 91
        0
176
     1
 64
     7
176
     1
 65
   257
176
     1
 75
     1
176
     1
175
     1
176
     1
 42
1.0
176
     1
 92
        0
176
     1
 66
   257
176
     1
 43
1.0
176
     1
 76
     1
176
     1
 77
     6
176
     1
 78
     2
176
     1
 67
     7
176
     1
 79
     5
176
     1
170
     0
176
     1
171
     0
176
     1
290
     0
176
     1
 93
       13
176
     1
 44
0.0
176
     1
173
     0
176
     1
1001
ACAD
1000
AcDbSavedByObjectVersion
1070
     0
  0
VISUALSTYLE
  5
31
102
{ACAD_XDICTIONARY
360
13F
102
}
102
{ACAD_REACTORS
330
29
102
}
330
29
100
AcDbVisualStyle
  2
Hidden
 70
     6
177
     2
291
     0
 71
     1
176
     1
 72
     2
176
     1
 73
     2
176
     1
 90
        0
176
     1
 40
0.6
176
     1
 41
30.0
176
     1
 63
     7
421
 16777215
176
     1
 74
     2
176
     1
 91
        2
176
     1
 64
     7
176
     1
 65
   257
176
     1
 75
     2
176
     1
175
     1
176
     1
 42
40.0
176
     1
 92
        0
176
     1
 66
   257
176
     1
 43
1.0
176
     1
 76
     1
176
     1
 77
     6
176
     1
 78
     2
176
     1
 67
     7
176
     1
 79
     3
176
     1
170
     0
176
     1
171
     0
176
     1
290
     0
176
     1
 93
        1
176
     1
 44
0.0
176
     1
173
     0
176
     1
1001
ACAD
1000
AcDbSavedByObjectVersion
1070
     0
  0
VISUALSTYLE
  5
3F
102
{ACAD_XDICTIONARY
360
15B
102
}
102
{ACAD_REACTORS
330
29
102
}
330
29
100
AcDbVisualStyle
  2
JitterOff
 70
    20
177
     2
291
     1
 71
     2
176
     0
 72
     2
176
     0
 73
     0
176
     0
 90
        0
176
     0
 40
0.6
176
     0
 41
30.0
176
     0
 63
     7
421
 16777215
176
     0
 74
     1
176
     0
 91
        4
176
     0
 64
     7
176
     0
 65
   257
176
     0
 75
     1
176
     0
175
     1
176
     0
 42
1.0
176
     0
 92
       10
176
     2
 66
     7
176
     0
 43
1.0
176
     0
 76
     1
176
     0
 77
     6
176
     0
 78
     2
176
     0
 67
     7
176
     0
 79
     5
176
     0
170
     0
176
     0
171
     0
176
     0
290
     0
176
     0
 93
        1
176
     0
 44
0.0
176
     0
173
     0
176
     0
1001
ACAD
1000
AcDbSavedByObjectVersion
1070
     0
  0
VISUALSTYLE
  5
37
102
{ACAD_XDICTIONARY
360
14B
102
}
102
{ACAD_REACTORS
330
29
102
}
330
29
100
AcDbVisualStyle
  2
Linepattern
 70
    14
177
     2
291
     1
 71
     2
176
     1
 72
     2
176
     1
 73
     0
176
     1
 90
        0
176
     1
 40
0.6
176
     1
 41
30.0
176
     1
 63
     7
421
 16777215
176
     1
 74
     1
176
     1
 91
        4
176
     1
 64
     7
176
     1
 65
   257
176
     1
 75
     7
176
     1
175
     7
176
     1
 42
1.0
176
     1
 92
        8
176
     1
 66
     7
176
     1
 43
1.0
176
     1
 76
     1
176
     1
 77
     6
176
     1
 78
     2
176
     1
 67
     7
176
     1
 79
     5
176
     1
170
     0
176
     1
171
     0
176
     1
290
     0
176
     1
 93
        1
176
     1
 44
0.0
176
     1
173
     0
176
     1
1001
ACAD
1000
AcDbSavedByObjectVersion
1070
     0
  0
VISUALSTYLE
  5
40
102
{ACAD_XDICTIONARY
360
15D
102
}
102
{ACAD_REACTORS
330
29
102
}
330
29
100
AcDbVisualStyle
  2
OverhangOff
 70
    21
177
     2
291
     1
 71
     2
176
     0
 72
     2
176
     0
 73
     0
176
     0
 90
        0
176
     0
 40
0.6
176
     0
 41
30.0
176
     0
 63
     7
421
 16777215
176
     0
 74
     1
176
     0
 91
        4
176
     0
 64
     7
176
     0
 65
   257
176
     0
 75
     1
176
     0
175
     1
176
     0
 42
1.0
176
     0
 92
        9
176
     2
 66
     7
176
     0
 43
1.0
176
     0
 76
     1
176
     0
 77
     6
176
     0
 78
     2
176
     0
 67
     7
176
     0
 79
     5
176
     0
170
     0
176
     0
171
     0
176
     0
290
     0
176
     0
 93
        1
176
     0
 44
0.0
176
     0
173
     0
176
     0
1001
ACAD
1000
AcDbSavedByObjectVersion
1070
     0
  0
VISUALSTYLE
  5
33
102
{ACAD_XDICTIONARY
360
143
102
}
102
{ACAD_REACTORS
330
29
102
}
330
29
100
AcDbVisualStyle
  2
Realistic
 70
     8
177
     2
291
     0
 71
     2
176
     1
 72
     3
176
     1
 73
     0
176
     1
 90
        2
176
     1
 40
0.6
176
     1
 41
30.0
176
     1
 63
     7
421
 16777215
176
     1
 74
     0
176
     1
 91
        0
176
     1
 64
     7
176
     1
 65
   257
176
     1
 75
     1
176
     1
175
     1
176
     1
 42
1.0
176
     1
 92
        8
176
     1
 66
   257
176
     1
 43
1.0
176
     1
 76
     1
176
     1
 77
     6
176
     1
 78
     2
176
     1
 67
     7
176
     1
 79
     3
176
     1
170
     0
176
     1
171
     0
176
     1
290
     0
176
     1
 93
       13
176
     1
 44
0.0
176
     1
173
     0
176
     1
1001
ACAD
1000
AcDbSavedByObjectVersion
1070
     0
  0
VISUALSTYLE
  5
3E
102
{ACAD_XDICTIONARY
360
159
102
}
102
{ACAD_REACTORS
330
29
102
}
330
29
100
AcDbVisualStyle
  2
Shaded
 70
    27
177
     2
291
     0
 71
     2
176
     1
 72
     2
176
     1
 73
     1
176
     1
 90
        2
176
     1
 40
0.6
176
     1
 41
30.0
176
     1
 63
     7
421
 16777215
176
     1
 74
     0
176
     1
 91
        4
176
     1
 64
     7
176
     1
 65
   257
176
     1
 75
     1
176
     1
175
     1
176
     1
 42
1.0
176
     1
 92
        8
176
     1
 66
   257
176
     1
 43
1.0
176
     1
 76
     1
176
     1
 77
     6
176
     1
 78
     2
176
     1
 67
     8
425
  7895160
176
     1
 79
     3
176
     1
170
     0
176
     1
171
     0
176
     1
290
     0
176
     1
 93
        5
176
     1
 44
0.0
176
     1
173
     0
176
     1
1001
ACAD
1000
AcDbSavedByObjectVersion
1070
     0
  0
VISUALSTYLE
  5
3D
102
{ACAD_XDICTIONARY
360
157
102
}
102
{ACAD_REACTORS
330
29
102
}
330
29
100
AcDbVisualStyle
  2
Shaded with edges
 70
    26
177
     2
291
     0
 71
     2
176
     1
 72
     2
176
     1
 73
     1
176
     1
 90
        2
176
     1
 40
0.6
176
     1
 41
30.0
176
     1
 63
     7
421
 16777215
176
     1
 74
     1
176
     1
 91
        2
176
     1
 64
     7
176
     1
 65
   257
176
     1
 75
     2
176
     1
175
     1
176
     1
 42
1.0
176
     1
 92
        8
176
     1
 66
   257
176
     1
 43
1.0
176
     1
 76
     1
176
     1
 77
     6
176
     1
 78
     2
176
     1
 67
     7
176
     1
 79
     3
176
     1
170
     0
176
     1
171
     0
176
     1
290
     0
176
     1
 93
        5
176
     1
 44
0.0
176
     1
173
     0
176
     1
1001
ACAD
1000
AcDbSavedByObjectVersion
1070
     0
  0
VISUALSTYLE
  5
3A
102
{ACAD_XDICTIONARY
360
151
102
}
102
{ACAD_REACTORS
330
29
102
}
330
29
100
AcDbVisualStyle
  2
Shades of Gray
 70
    23
177
     2
291
     0
 71
     2
176
     1
 72
     2
176
     1
 73
     3
176
     1
 90
        0
176
     1
 40
0.6
176
     1
 41
30.0
176
     1
 63
     7
421
 16777215
176
     1
 74
     2
176
     1
 91
        2
176
     1
 64
     7
176
     1
 65
     7
176
     1
 75
     1
176
     1
175
     1
176
     1
 42
40.0
176
     1
 92
        8
176
     1
 66
     7
176
     1
 43
1.0
176
     1
 76
     1
176
     1
 77
     6
176
     1
 78
     2
176
     1
 67
     7
176
     1
 79
     3
176
     1
170
     0
176
     1
171
     0
176
     1
290
     0
176
     1
 93
        1
176
     1
 44
0.0
176
     1
173
     0
176
     1
1001
ACAD
1000
AcDbSavedByObjectVersion
1070
     0
  0
VISUALSTYLE
  5
3B
102
{ACAD_XDICTIONARY
360
153
102
}
102
{ACAD_REACTORS
330
29
102
}
330
29
100
AcDbVisualStyle
  2
Sketchy
 70
    24
177
     2
291
     0
 71
     1
176
     1
 72
     2
176
     1
 73
     2
176
     1
 90
        0
176
     1
 40
0.6
176
     1
 41
30.0
176
     1
 63
     7
421
 16777215
176
     1
 74
     2
176
     1
 91
        2
176
     1
 64
     7
176
     1
 65
     7
176
     1
 75
     1
176
     1
175
     1
176
     1
 42
40.0
176
     1
 92
       11
176
     1
 66
     7
176
     1
 43
1.0
176
     1
 76
     1
176
     1
 77
     6
176
     1
 78
     2
176
     1
 67
     7
176
     1
 79
     6
176
     1
170
     0
176
     1
171
     0
176
     1
290
     0
176
     1
 93
        1
176
     1
 44
0.0
176
     1
173
     0
176
     1
1001
ACAD
1000
AcDbSavedByObjectVersion
1070
     0
  0
VISUALSTYLE
  5
36
102
{ACAD_XDICTIONARY
360
149
102
}
102
{ACAD_REACTORS
330
29
102
}
330
29
100
AcDbVisualStyle
  2
Thicken
 70
    13
177
     2
291
     1
 71
     2
176
     1
 72
     2
176
     1
 73
     0
176
     1
 90
        0
176
     1
 40
0.6
176
     1
 41
30.0
176
     1
 63
     7
421
 16777215
176
     1
 74
     1
176
     1
 91
        4
176
     1
 64
     7
176
     1
 65
   257
176
     1
 75
     1
176
     1
175
     1
176
     1
 42
1.0
176
     1
 92
       12
176
     1
 66
     7
176
     1
 43
1.0
176
     1
 76
     1
176
     1
 77
     6
176
     1
 78
     2
176
     1
 67
     7
176
     1
 79
     5
176
     1
170
     0
176
     1
171
     0
176
     1
290
     0
176
     1
 93
        1
176
     1
 44
0.0
176
     1
173
     0
176
     1
1001
ACAD
1000
AcDbSavedByObjectVersion
1070
     0
  0
VISUALSTYLE
  5
30
102
{ACAD_XDICTIONARY
360
13D
102
}
102
{ACAD_REACTORS
330
29
102
}
330
29
100
AcDbVisualStyle
  2
Wireframe
 70
     5
177
     2
291
     0
 71
     0
176
     1
 72
     2
176
     1
 73
     0
176
     1
 90
        0
176
     1
 40
0.6
176
     1
 41
30.0
176
     1
 63
     7
421
 16777215
176
     1
 74
     1
176
     1
 91
        4
176
     1
 64
     7
176
     1
 65
   257
176
     1
 75
     1
176
     1
175
     1
176
     1
 42
1.0
176
     1
 92
        0
176
     1
 66
   257
176
     1
 43
1.0
176
     1
 76
     1
176
     1
 77
     6
176
     1
 78
     2
176
     1
 67
     7
176
     1
 79
     3
176
     1
170
     0
176
     1
171
     0
176
     1
290
     0
176
     1
 93
        1
176
     1
 44
0.0
176
     1
173
     0
176
     1
1001
ACAD
1000
AcDbSavedByObjectVersion
1070
     0
  0
VISUALSTYLE
  5
3C
102
{ACAD_XDICTIONARY
360
155
102
}
102
{ACAD_REACTORS
330
29
102
}
330
29
100
AcDbVisualStyle
  2
X-Ray
 70
    25
177
     2
291
     0
 71
     2
176
     1
 72
     2
176
     1
 73
     1
176
     1
 90
        1
176
     1
 40
0.5
176
     1
 41
30.0
176
     1
 63
     7
421
 16777215
176
     1
 74
     1
176
     1
 91
        0
176
     1
 64
     7
176
     1
 65
   257
176
     1
 75
     1
176
     1
175
     1
176
     1
 42
1.0
176
     1
 92
        8
176
     1
 66
     7
176
     1
 43
1.0
176
     1
 76
     1
176
     1
 77
     6
176
     1
 78
     2
176
     1
 67
     7
176
     1
 79
     3
176
     1
170
     0
176
     1
171
     0
176
     1
290
     0
176
     1
 93
       13
176
     1
 44
0.0
176
     1
173
     0
176
     1
1001
ACAD
1000
AcDbSavedByObjectVersion
1070
     0
  0
DICTIONARYVAR
  5
12D
102
{ACAD_REACTORS
330
128
102
}
330
128
100
DictionaryVariables
280
     0
  1
1:1
  0
DICTIONARYVAR
  5
12A
102
{ACAD_REACTORS
330
128
102
}
330
128
100
DictionaryVariables
280
     0
  1
STANDARD
  0
DICTIONARYVAR
  5
129
102
{ACAD_REACTORS
330
128
102
}
330
128
100
DictionaryVariables
280
     0
  1
STANDARD
  0
DICTIONARYVAR
  5
12B
102
{ACAD_REACTORS
330
128
102
}
330
128
100
DictionaryVariables
280
     0
  1
Imperial24
  0
DICTIONARYVAR
  5
12C
102
{ACAD_REACTORS
330
128
102
}
330
128
100
DictionaryVariables
280
     0
  1
Imperial24
  0
DICTIONARY
  5
165
330
6B
100
AcDbDictionary
280
     1
281
     1
  3
ACAD_XREC_ROUNDTRIP
360
166
  0
DICTIONARY
  5
1A
330
19
100
AcDbDictionary
280
     1
281
     1
  3
BUMPTILE
360
1C
  3
DIFFUSETILE
360
1B
  3
OPACITYTILE
360
1F
  3
REFLECTIONTILE
360
1E
  3
REFRACTIONTILE
360
20
  3
SPECULARTILE
360
1D
  0
DICTIONARY
  5
12
330
11
100
AcDbDictionary
280
     1
281
     1
  3
BUMPTILE
360
14
  3
DIFFUSETILE
360
13
  3
OPACITYTILE
360
17
  3
REFLECTIONTILE
360
16
  3
REFRACTIONTILE
360
18
  3
SPECULARTILE
360
15
  0
DICTIONARY
  5
22
330
21
100
AcDbDictionary
280
     1
281
     1
  3
BUMPTILE
360
24
  3
DIFFUSETILE
360
23
  3
OPACITYTILE
360
27
  3
REFLECTIONTILE
360
26
  3
REFRACTIONTILE
360
28
  3
SPECULARTILE
360
25
  0
DICTIONARY
  5
161
330
67
100
AcDbDictionary
280
     1
281
     1
  3
ACAD_XREC_ROUNDTRIP
360
162
  0
DICTIONARY
  5
163
330
69
100
AcDbDictionary
280
     1
281
     1
  3
ACAD_XREC_ROUNDTRIP
360
164
  0
DICTIONARY
  5
12E
330
65
100
AcDbDictionary
280
     1
281
     1
  3
ACAD_ROUNDTRIP_2008_TABLESTYLE_CELLSTYLEMAP
360
12F
  0
DICTIONARY
  5
13B
330
2F
100
AcDbDictionary
280
     1
281
     1
  3
ACAD_XREC_ROUNDTRIP
360
13C
  0
DICTIONARY
  5
139
330
2E
100
AcDbDictionary
280
     1
281
     1
  3
ACAD_XREC_ROUNDTRIP
360
13A
  0
DICTIONARY
  5
147
330
35
100
AcDbDictionary
280
     1
281
     1
  3
ACAD_XREC_ROUNDTRIP
360
148
  0
DICTIONARY
  5
14F
330
39
100
AcDbDictionary
280
     1
281
     1
  3
ACAD_XREC_ROUNDTRIP
360
150
  0
DICTIONARY
  5
141
330
32
100
AcDbDictionary
280
     1
281
     1
  3
ACAD_XREC_ROUNDTRIP
360
142
  0
DICTIONARY
  5
145
330
34
100
AcDbDictionary
280
     1
281
     1
  3
ACAD_XREC_ROUNDTRIP
360
146
  0
DICTIONARY
  5
15F
330
41
100
AcDbDictionary
280
     1
281
     1
  3
ACAD_XREC_ROUNDTRIP
360
160
  0
DICTIONARY
  5
14D
330
38
100
AcDbDictionary
280
     1
281
     1
  3
ACAD_XREC_ROUNDTRIP
360
14E
  0
DICTIONARY
  5
131
330
2A
100
AcDbDictionary
280
     1
281
     1
  3
ACAD_XREC_ROUNDTRIP
360
132
  0
DICTIONARY
  5
133
330
2B
100
AcDbDictionary
280
     1
281
     1
  3
ACAD_XREC_ROUNDTRIP
360
134
  0
DICTIONARY
  5
135
330
2C
100
AcDbDictionary
280
     1
281
     1
  3
ACAD_XREC_ROUNDTRIP
360
136
  0
DICTIONARY
  5
137
330
2D
100
AcDbDictionary
280
     1
281
     1
  3
ACAD_XREC_ROUNDTRIP
360
138
  0
DICTIONARY
  5
13F
330
31
100
AcDbDictionary
280
     1
281
     1
  3
ACAD_XREC_ROUNDTRIP
360
140
  0
DICTIONARY
  5
15B
330
3F
100
AcDbDictionary
280
     1
281
     1
  3
ACAD_XREC_ROUNDTRIP
360
15C
  0
DICTIONARY
  5
14B
330
37
100
AcDbDictionary
280
     1
281
     1
  3
ACAD_XREC_ROUNDTRIP
360
14C
  0
DICTIONARY
  5
15D
330
40
100
AcDbDictionary
280
     1
281
     1
  3
ACAD_XREC_ROUNDTRIP
360
15E
  0
DICTIONARY
  5
143
330
33
100
AcDbDictionary
280
     1
281
     1
  3
ACAD_XREC_ROUNDTRIP
360
144
  0
DICTIONARY
  5
159
330
3E
100
AcDbDictionary
280
     1
281
     1
  3
ACAD_XREC_ROUNDTRIP
360
15A
  0
DICTIONARY
  5
157
330
3D
100
AcDbDictionary
280
     1
281
     1
  3
ACAD_XREC_ROUNDTRIP
360
158
  0
DICTIONARY
  5
151
330
3A
100
AcDbDictionary
280
     1
281
     1
  3
ACAD_XREC_ROUNDTRIP
360
152
  0
DICTIONARY
  5
153
330
3B
100
AcDbDictionary
280
     1
281
     1
  3
ACAD_XREC_ROUNDTRIP
360
154
  0
DICTIONARY
  5
149
330
36
100
AcDbDictionary
280
     1
281
     1
  3
ACAD_XREC_ROUNDTRIP
360
14A
  0
DICTIONARY
  5
13D
330
30
100
AcDbDictionary
280
     1
281
     1
  3
ACAD_XREC_ROUNDTRIP
360
13E
  0
DICTIONARY
  5
155
330
3C
100
AcDbDictionary
280
     1
281
     1
  3
ACAD_XREC_ROUNDTRIP
360
156
  0
XRECORD
  5
166
102
{ACAD_REACTORS
330
165
102
}
330
165
100
AcDbXrecord
280
     1
102
DISPLAYNAME
  1
Imperial24
102
FLAGS
 90
        0
  0
XRECORD
  5
1C
102
{ACAD_REACTORS
330
1A
102
}
330
1A
100
AcDbXrecord
280
     1
270
     1
271
     1
  0
XRECORD
  5
1B
102
{ACAD_REACTORS
330
1A
102
}
330
1A
100
AcDbXrecord
280
     1
270
     1
271
     1
  0
XRECORD
  5
1F
102
{ACAD_REACTORS
330
1A
102
}
330
1A
100
AcDbXrecord
280
     1
270
     1
271
     1
  0
XRECORD
  5
1E
102
{ACAD_REACTORS
330
1A
102
}
330
1A
100
AcDbXrecord
280
     1
270
     1
271
     1
  0
XRECORD
  5
20
102
{ACAD_REACTORS
330
1A
102
}
330
1A
100
AcDbXrecord
280
     1
270
     1
271
     1
  0
XRECORD
  5
1D
102
{ACAD_REACTORS
330
1A
102
}
330
1A
100
AcDbXrecord
280
     1
270
     1
271
     1
  0
XRECORD
  5
14
102
{ACAD_REACTORS
330
12
102
}
330
12
100
AcDbXrecord
280
     1
270
     1
271
     1
  0
XRECORD
  5
13
102
{ACAD_REACTORS
330
12
102
}
330
12
100
AcDbXrecord
280
     1
270
     1
271
     1
  0
XRECORD
  5
17
102
{ACAD_REACTORS
330
12
102
}
330
12
100
AcDbXrecord
280
     1
270
     1
271
     1
  0
XRECORD
  5
16
102
{ACAD_REACTORS
330
12
102
}
330
12
100
AcDbXrecord
280
     1
270
     1
271
     1
  0
XRECORD
  5
18
102
{ACAD_REACTORS
330
12
102
}
330
12
100
AcDbXrecord
280
     1
270
     1
271
     1
  0
XRECORD
  5
15
102
{ACAD_REACTORS
330
12
102
}
330
12
100
AcDbXrecord
280
     1
270
     1
271
     1
  0
XRECORD
  5
24
102
{ACAD_REACTORS
330
22
102
}
330
22
100
AcDbXrecord
280
     1
270
     1
271
     1
  0
XRECORD
  5
23
102
{ACAD_REACTORS
330
22
102
}
330
22
100
AcDbXrecord
280
     1
270
     1
271
     1
  0
XRECORD
  5
27
102
{ACAD_REACTORS
330
22
102
}
330
22
100
AcDbXrecord
280
     1
270
     1
271
     1
  0
XRECORD
  5
26
102
{ACAD_REACTORS
330
22
102
}
330
22
100
AcDbXrecord
280
     1
270
     1
271
     1
  0
XRECORD
  5
28
102
{ACAD_REACTORS
330
22
102
}
330
22
100
AcDbXrecord
280
     1
270
     1
271
     1
  0
XRECORD
  5
25
102
{ACAD_REACTORS
330
22
102
}
330
22
100
AcDbXrecord
280
     1
270
     1
271
     1
  0
XRECORD
  5
162
102
{ACAD_REACTORS
330
161
102
}
330
161
100
AcDbXrecord
280
     1
102
ACAD_ROUNDTRIP_2012_MLEADER_STYLE
298
     1
  0
XRECORD
  5
164
102
{ACAD_REACTORS
330
163
102
}
330
163
100
AcDbXrecord
280
     1
102
DISPLAYNAME
  1
Imperial24
102
FLAGS
 90
        0
  0
CELLSTYLEMAP
  5
12F
102
{ACAD_REACTORS
330
12E
102
}
330
12E
100
AcDbCellStyleMap
 90
        3
300
CELLSTYLE
  1
TABLEFORMAT_BEGIN
 90
        5
170
     1
 91
        0
 92
    32768
 62
   257
 93
        1
300
CONTENTFORMAT
  1
CONTENTFORMAT_BEGIN
 90
        0
 91
        0
 92
      512
 93
        0
300

 40
0.0
140
1.0
 94
        5
 62
     0
340
55
144
0.25
309
CONTENTFORMAT_END
171
     0
 94
        0
309
TABLEFORMAT_END
  1
CELLSTYLE_BEGIN
 90
        1
 91
        1
300
_TITLE
309
CELLSTYLE_END
300
CELLSTYLE
  1
TABLEFORMAT_BEGIN
 90
        5
170
     1
 91
        0
 92
        0
 62
   257
 93
        1
300
CONTENTFORMAT
  1
CONTENTFORMAT_BEGIN
 90
        0
 91
        0
 92
      512
 93
        0
300

 40
0.0
140
1.0
 94
        5
 62
     0
340
55
144
0.18
309
CONTENTFORMAT_END
171
     0
 94
        0
309
TABLEFORMAT_END
  1
CELLSTYLE_BEGIN
 90
        2
 91
        1
300
_HEADER
309
CELLSTYLE_END
300
CELLSTYLE
  1
TABLEFORMAT_BEGIN
 90
        5
170
     1
 91
        0
 92
        0
 62
   257
 93
        1
300
CONTENTFORMAT
  1
CONTENTFORMAT_BEGIN
 90
        0
 91
        0
 92
      512
 93
        0
300

 40
0.0
140
1.0
 94
        2
 62
     0
340
55
144
0.18
309
CONTENTFORMAT_END
171
     0
 94
        0
309
TABLEFORMAT_END
  1
CELLSTYLE_BEGIN
 90
        3
 91
        2
300
_DATA
309
CELLSTYLE_END
  0
XRECORD
  5
13C
102
{ACAD_REACTORS
330
13B
102
}
330
13B
100
AcDbXrecord
280
     1
102
RTVSPost2010Prop28
280
     1
102
RTVSPost2010PropOp28
 70
     1
102
RTVSPost2010Prop29
280
     1
102
RTVSPost2010PropOp29
 70
     1
102
RTVSPost2010Prop30
280
     0
102
RTVSPost2010PropOp30
 70
     1
102
RTVSPost2010Prop31
280
     0
102
RTVSPost2010PropOp31
 70
     1
102
RTVSPost2010Prop32
280
     0
102
RTVSPost2010PropOp32
 70
     1
102
RTVSPost2010Prop33
280
     0
102
RTVSPost2010PropOp33
 70
     1
102
RTVSPost2010Prop34
280
     0
102
RTVSPost2010PropOp34
 70
     1
102
RTVSPost2010Prop35
280
     0
102
RTVSPost2010PropOp35
 70
     1
102
RTVSPost2010Prop36
280
     0
102
RTVSPost2010PropOp36
 70
     1
102
RTVSPost2010Prop37
 90
       50
102
RTVSPost2010PropOp37
 70
     1
102
RTVSPost2010Prop38
140
0.0
102
RTVSPost2010PropOp38
 70
     1
102
RTVSPost2010Prop39
140
1.0
102
RTVSPost2010PropOp39
 70
     1
102
RTVSPost2010Prop40
 90
        0
102
RTVSPost2010PropOp40
 70
     1
102
RTVSPost2010Prop41ColorIndex
 90
       18
102
RTVSPost2010Prop41ColorRGB
 90
        0
102
RTVSPost2010PropOp41
 70
     1
102
RTVSPost2010Prop42
 90
       50
102
RTVSPost2010PropOp42
 70
     1
102
RTVSPost2010Prop43
 90
        3
102
RTVSPost2010PropOp43
 70
     1
102
RTVSPost2010Prop44ColorIndex
 90
        5
102
RTVSPost2010Prop44ColorRGB
 90
      255
102
RTVSPost2010PropOp44
 70
     1
102
RTVSPost2010Prop45
280
     0
102
RTVSPost2010PropOp45
 70
     1
102
RTVSPost2010Prop46
 90
       50
102
RTVSPost2010PropOp46
 70
     1
102
RTVSPost2010Prop47
 90
       50
102
RTVSPost2010PropOp47
 70
     1
102
RTVSPost2010Prop48
 90
       50
102
RTVSPost2010PropOp48
 70
     1
102
RTVSPost2010Prop49
280
     0
102
RTVSPost2010PropOp49
 70
     1
102
RTVSPost2010Prop50
 90
       50
102
RTVSPost2010PropOp50
 70
     1
102
RTVSPost2010Prop51ColorIndex
 90
      256
102
RTVSPost2010Prop51ColorRGB
 90
-16777216
102
RTVSPost2010PropOp51
 70
     0
102
RTVSPost2010Prop52
140
1.0
102
RTVSPost2010PropOp52
 70
     0
102
RTVSPost2010Prop53
 90
        2
102
RTVSPost2010PropOp53
 70
     1
102
RTVSPost2010Prop54
  1
strokes_ogs.tif
102
RTVSPost2010PropOp54
 70
     1
102
RTVSPost2010Prop55
280
     0
102
RTVSPost2010PropOp55
 70
     1
102
RTVSPost2010Prop56
140
1.0
102
RTVSPost2010PropOp56
 70
     1
102
RTVSPost2010Prop57
140
1.0
102
RTVSPost2010PropOp57
 70
     1
  0
XRECORD
  5
13A
102
{ACAD_REACTORS
330
139
102
}
330
139
100
AcDbXrecord
280
     1
102
RTVSPost2010Prop28
280
     0
102
RTVSPost2010PropOp28
 70
     1
102
RTVSPost2010Prop29
280
     1
102
RTVSPost2010PropOp29
 70
     1
102
RTVSPost2010Prop30
280
     1
102
RTVSPost2010PropOp30
 70
     1
102
RTVSPost2010Prop31
280
     0
102
RTVSPost2010PropOp31
 70
     1
102
RTVSPost2010Prop32
280
     0
102
RTVSPost2010PropOp32
 70
     1
102
RTVSPost2010Prop33
280
     0
102
RTVSPost2010PropOp33
 70
     1
102
RTVSPost2010Prop34
280
     0
102
RTVSPost2010PropOp34
 70
     1
102
RTVSPost2010Prop35
280
     0
102
RTVSPost2010PropOp35
 70
     1
102
RTVSPost2010Prop36
280
     0
102
RTVSPost2010PropOp36
 70
     1
102
RTVSPost2010Prop37
 90
       50
102
RTVSPost2010PropOp37
 70
     1
102
RTVSPost2010Prop38
140
0.0
102
RTVSPost2010PropOp38
 70
     1
102
RTVSPost2010Prop39
140
1.0
102
RTVSPost2010PropOp39
 70
     1
102
RTVSPost2010Prop40
 90
        0
102
RTVSPost2010PropOp40
 70
     1
102
RTVSPost2010Prop41ColorIndex
 90
       18
102
RTVSPost2010Prop41ColorRGB
 90
        0
102
RTVSPost2010PropOp41
 70
     1
102
RTVSPost2010Prop42
 90
       50
102
RTVSPost2010PropOp42
 70
     1
102
RTVSPost2010Prop43
 90
        3
102
RTVSPost2010PropOp43
 70
     1
102
RTVSPost2010Prop44ColorIndex
 90
        5
102
RTVSPost2010Prop44ColorRGB
 90
      255
102
RTVSPost2010PropOp44
 70
     1
102
RTVSPost2010Prop45
280
     0
102
RTVSPost2010PropOp45
 70
     1
102
RTVSPost2010Prop46
 90
       50
102
RTVSPost2010PropOp46
 70
     1
102
RTVSPost2010Prop47
 90
       50
102
RTVSPost2010PropOp47
 70
     1
102
RTVSPost2010Prop48
 90
       50
102
RTVSPost2010PropOp48
 70
     1
102
RTVSPost2010Prop49
280
     0
102
RTVSPost2010PropOp49
 70
     1
102
RTVSPost2010Prop50
 90
       50
102
RTVSPost2010PropOp50
 70
     1
102
RTVSPost2010Prop51ColorIndex
 90
      256
102
RTVSPost2010Prop51ColorRGB
 90
-16777216
102
RTVSPost2010PropOp51
 70
     0
102
RTVSPost2010Prop52
140
1.0
102
RTVSPost2010PropOp52
 70
     0
102
RTVSPost2010Prop53
 90
        2
102
RTVSPost2010PropOp53
 70
     1
102
RTVSPost2010Prop54
  1
strokes_ogs.tif
102
RTVSPost2010PropOp54
 70
     1
102
RTVSPost2010Prop55
280
     0
102
RTVSPost2010PropOp55
 70
     1
102
RTVSPost2010Prop56
140
1.0
102
RTVSPost2010PropOp56
 70
     1
102
RTVSPost2010Prop57
140
1.0
102
RTVSPost2010PropOp57
 70
     1
  0
XRECORD
  5
148
102
{ACAD_REACTORS
330
147
102
}
330
147
100
AcDbXrecord
280
     1
102
RTVSPost2010Prop28
280
     0
102
RTVSPost2010PropOp28
 70
     1
102
RTVSPost2010Prop29
280
     1
102
RTVSPost2010PropOp29
 70
     1
102
RTVSPost2010Prop30
280
     1
102
RTVSPost2010PropOp30
 70
     1
102
RTVSPost2010Prop31
280
     0
102
RTVSPost2010PropOp31
 70
     1
102
RTVSPost2010Prop32
280
     0
102
RTVSPost2010PropOp32
 70
     1
102
RTVSPost2010Prop33
280
     0
102
RTVSPost2010PropOp33
 70
     1
102
RTVSPost2010Prop34
280
     0
102
RTVSPost2010PropOp34
 70
     1
102
RTVSPost2010Prop35
280
     0
102
RTVSPost2010PropOp35
 70
     1
102
RTVSPost2010Prop36
280
     0
102
RTVSPost2010PropOp36
 70
     1
102
RTVSPost2010Prop37
 90
       50
102
RTVSPost2010PropOp37
 70
     1
102
RTVSPost2010Prop38
140
0.0
102
RTVSPost2010PropOp38
 70
     1
102
RTVSPost2010Prop39
140
1.0
102
RTVSPost2010PropOp39
 70
     1
102
RTVSPost2010Prop40
 90
        0
102
RTVSPost2010PropOp40
 70
     1
102
RTVSPost2010Prop41ColorIndex
 90
       18
102
RTVSPost2010Prop41ColorRGB
 90
        0
102
RTVSPost2010PropOp41
 70
     1
102
RTVSPost2010Prop42
 90
       50
102
RTVSPost2010PropOp42
 70
     1
102
RTVSPost2010Prop43
 90
        3
102
RTVSPost2010PropOp43
 70
     1
102
RTVSPost2010Prop44ColorIndex
 90
        5
102
RTVSPost2010Prop44ColorRGB
 90
      255
102
RTVSPost2010PropOp44
 70
     1
102
RTVSPost2010Prop45
280
     0
102
RTVSPost2010PropOp45
 70
     1
102
RTVSPost2010Prop46
 90
       50
102
RTVSPost2010PropOp46
 70
     1
102
RTVSPost2010Prop47
 90
       50
102
RTVSPost2010PropOp47
 70
     1
102
RTVSPost2010Prop48
 90
       50
102
RTVSPost2010PropOp48
 70
     1
102
RTVSPost2010Prop49
280
     0
102
RTVSPost2010PropOp49
 70
     1
102
RTVSPost2010Prop50
 90
       50
102
RTVSPost2010PropOp50
 70
     1
102
RTVSPost2010Prop51ColorIndex
 90
      256
102
RTVSPost2010Prop51ColorRGB
 90
-16777216
102
RTVSPost2010PropOp51
 70
     0
102
RTVSPost2010Prop52
140
1.0
102
RTVSPost2010PropOp52
 70
     0
102
RTVSPost2010Prop53
 90
        2
102
RTVSPost2010PropOp53
 70
     1
102
RTVSPost2010Prop54
  1
strokes_ogs.tif
102
RTVSPost2010PropOp54
 70
     1
102
RTVSPost2010Prop55
280
     0
102
RTVSPost2010PropOp55
 70
     1
102
RTVSPost2010Prop56
140
1.0
102
RTVSPost2010PropOp56
 70
     1
102
RTVSPost2010Prop57
140
1.0
102
RTVSPost2010PropOp57
 70
     1
  0
XRECORD
  5
150
102
{ACAD_REACTORS
330
14F
102
}
330
14F
100
AcDbXrecord
280
     1
102
RTVSPost2010Prop28
280
     0
102
RTVSPost2010PropOp28
 70
     1
102
RTVSPost2010Prop29
280
     1
102
RTVSPost2010PropOp29
 70
     1
102
RTVSPost2010Prop30
280
     1
102
RTVSPost2010PropOp30
 70
     1
102
RTVSPost2010Prop31
280
     0
102
RTVSPost2010PropOp31
 70
     1
102
RTVSPost2010Prop32
280
     0
102
RTVSPost2010PropOp32
 70
     1
102
RTVSPost2010Prop33
280
     0
102
RTVSPost2010PropOp33
 70
     1
102
RTVSPost2010Prop34
280
     0
102
RTVSPost2010PropOp34
 70
     1
102
RTVSPost2010Prop35
280
     0
102
RTVSPost2010PropOp35
 70
     1
102
RTVSPost2010Prop36
280
     0
102
RTVSPost2010PropOp36
 70
     1
102
RTVSPost2010Prop37
 90
       50
102
RTVSPost2010PropOp37
 70
     1
102
RTVSPost2010Prop38
140
0.0
102
RTVSPost2010PropOp38
 70
     1
102
RTVSPost2010Prop39
140
1.0
102
RTVSPost2010PropOp39
 70
     1
102
RTVSPost2010Prop40
 90
        0
102
RTVSPost2010PropOp40
 70
     1
102
RTVSPost2010Prop41ColorIndex
 90
       18
102
RTVSPost2010Prop41ColorRGB
 90
        0
102
RTVSPost2010PropOp41
 70
     1
102
RTVSPost2010Prop42
 90
       50
102
RTVSPost2010PropOp42
 70
     1
102
RTVSPost2010Prop43
 90
        3
102
RTVSPost2010PropOp43
 70
     1
102
RTVSPost2010Prop44ColorIndex
 90
        5
102
RTVSPost2010Prop44ColorRGB
 90
      255
102
RTVSPost2010PropOp44
 70
     1
102
RTVSPost2010Prop45
280
     0
102
RTVSPost2010PropOp45
 70
     1
102
RTVSPost2010Prop46
 90
       50
102
RTVSPost2010PropOp46
 70
     1
102
RTVSPost2010Prop47
 90
       50
102
RTVSPost2010PropOp47
 70
     1
102
RTVSPost2010Prop48
 90
       50
102
RTVSPost2010PropOp48
 70
     1
102
RTVSPost2010Prop49
280
     0
102
RTVSPost2010PropOp49
 70
     1
102
RTVSPost2010Prop50
 90
       50
102
RTVSPost2010PropOp50
 70
     1
102
RTVSPost2010Prop51ColorIndex
 90
      256
102
RTVSPost2010Prop51ColorRGB
 90
-16777216
102
RTVSPost2010PropOp51
 70
     0
102
RTVSPost2010Prop52
140
1.0
102
RTVSPost2010PropOp52
 70
     0
102
RTVSPost2010Prop53
 90
        2
102
RTVSPost2010PropOp53
 70
     1
102
RTVSPost2010Prop54
  1
strokes_ogs.tif
102
RTVSPost2010PropOp54
 70
     1
102
RTVSPost2010Prop55
280
     0
102
RTVSPost2010PropOp55
 70
     1
102
RTVSPost2010Prop56
140
1.0
102
RTVSPost2010PropOp56
 70
     1
102
RTVSPost2010Prop57
140
1.0
102
RTVSPost2010PropOp57
 70
     1
  0
XRECORD
  5
142
102
{ACAD_REACTORS
330
141
102
}
330
141
100
AcDbXrecord
280
     1
102
RTVSPost2010Prop28
280
     0
102
RTVSPost2010PropOp28
 70
     1
102
RTVSPost2010Prop29
280
     1
102
RTVSPost2010PropOp29
 70
     1
102
RTVSPost2010Prop30
280
     1
102
RTVSPost2010PropOp30
 70
     1
102
RTVSPost2010Prop31
280
     0
102
RTVSPost2010PropOp31
 70
     1
102
RTVSPost2010Prop32
280
     0
102
RTVSPost2010PropOp32
 70
     1
102
RTVSPost2010Prop33
280
     0
102
RTVSPost2010PropOp33
 70
     1
102
RTVSPost2010Prop34
280
     0
102
RTVSPost2010PropOp34
 70
     1
102
RTVSPost2010Prop35
280
     0
102
RTVSPost2010PropOp35
 70
     1
102
RTVSPost2010Prop36
280
     0
102
RTVSPost2010PropOp36
 70
     1
102
RTVSPost2010Prop37
 90
       50
102
RTVSPost2010PropOp37
 70
     1
102
RTVSPost2010Prop38
140
0.0
102
RTVSPost2010PropOp38
 70
     1
102
RTVSPost2010Prop39
140
1.0
102
RTVSPost2010PropOp39
 70
     1
102
RTVSPost2010Prop40
 90
        0
102
RTVSPost2010PropOp40
 70
     1
102
RTVSPost2010Prop41ColorIndex
 90
       18
102
RTVSPost2010Prop41ColorRGB
 90
        0
102
RTVSPost2010PropOp41
 70
     1
102
RTVSPost2010Prop42
 90
       50
102
RTVSPost2010PropOp42
 70
     1
102
RTVSPost2010Prop43
 90
        3
102
RTVSPost2010PropOp43
 70
     1
102
RTVSPost2010Prop44ColorIndex
 90
        5
102
RTVSPost2010Prop44ColorRGB
 90
      255
102
RTVSPost2010PropOp44
 70
     1
102
RTVSPost2010Prop45
280
     0
102
RTVSPost2010PropOp45
 70
     1
102
RTVSPost2010Prop46
 90
       50
102
RTVSPost2010PropOp46
 70
     1
102
RTVSPost2010Prop47
 90
       50
102
RTVSPost2010PropOp47
 70
     1
102
RTVSPost2010Prop48
 90
       50
102
RTVSPost2010PropOp48
 70
     1
102
RTVSPost2010Prop49
280
     0
102
RTVSPost2010PropOp49
 70
     1
102
RTVSPost2010Prop50
 90
       50
102
RTVSPost2010PropOp50
 70
     1
102
RTVSPost2010Prop51ColorIndex
 90
      256
102
RTVSPost2010Prop51ColorRGB
 90
-16777216
102
RTVSPost2010PropOp51
 70
     0
102
RTVSPost2010Prop52
140
1.0
102
RTVSPost2010PropOp52
 70
     0
102
RTVSPost2010Prop53
 90
        2
102
RTVSPost2010PropOp53
 70
     1
102
RTVSPost2010Prop54
  1
strokes_ogs.tif
102
RTVSPost2010PropOp54
 70
     1
102
RTVSPost2010Prop55
280
     0
102
RTVSPost2010PropOp55
 70
     1
102
RTVSPost2010Prop56
140
1.0
102
RTVSPost2010PropOp56
 70
     1
102
RTVSPost2010Prop57
140
1.0
102
RTVSPost2010PropOp57
 70
     1
  0
XRECORD
  5
146
102
{ACAD_REACTORS
330
145
102
}
330
145
100
AcDbXrecord
280
     1
102
RTVSPost2010Prop28
280
     0
102
RTVSPost2010PropOp28
 70
     1
102
RTVSPost2010Prop29
280
     1
102
RTVSPost2010PropOp29
 70
     1
102
RTVSPost2010Prop30
280
     1
102
RTVSPost2010PropOp30
 70
     1
102
RTVSPost2010Prop31
280
     0
102
RTVSPost2010PropOp31
 70
     1
102
RTVSPost2010Prop32
280
     0
102
RTVSPost2010PropOp32
 70
     1
102
RTVSPost2010Prop33
280
     0
102
RTVSPost2010PropOp33
 70
     1
102
RTVSPost2010Prop34
280
     0
102
RTVSPost2010PropOp34
 70
     1
102
RTVSPost2010Prop35
280
     0
102
RTVSPost2010PropOp35
 70
     1
102
RTVSPost2010Prop36
280
     0
102
RTVSPost2010PropOp36
 70
     1
102
RTVSPost2010Prop37
 90
       50
102
RTVSPost2010PropOp37
 70
     1
102
RTVSPost2010Prop38
140
0.0
102
RTVSPost2010PropOp38
 70
     1
102
RTVSPost2010Prop39
140
1.0
102
RTVSPost2010PropOp39
 70
     1
102
RTVSPost2010Prop40
 90
        0
102
RTVSPost2010PropOp40
 70
     1
102
RTVSPost2010Prop41ColorIndex
 90
       18
102
RTVSPost2010Prop41ColorRGB
 90
        0
102
RTVSPost2010PropOp41
 70
     1
102
RTVSPost2010Prop42
 90
       50
102
RTVSPost2010PropOp42
 70
     1
102
RTVSPost2010Prop43
 90
        3
102
RTVSPost2010PropOp43
 70
     1
102
RTVSPost2010Prop44ColorIndex
 90
        5
102
RTVSPost2010Prop44ColorRGB
 90
      255
102
RTVSPost2010PropOp44
 70
     1
102
RTVSPost2010Prop45
280
     0
102
RTVSPost2010PropOp45
 70
     1
102
RTVSPost2010Prop46
 90
       50
102
RTVSPost2010PropOp46
 70
     1
102
RTVSPost2010Prop47
 90
       50
102
RTVSPost2010PropOp47
 70
     1
102
RTVSPost2010Prop48
 90
       50
102
RTVSPost2010PropOp48
 70
     1
102
RTVSPost2010Prop49
280
     0
102
RTVSPost2010PropOp49
 70
     1
102
RTVSPost2010Prop50
 90
       50
102
RTVSPost2010PropOp50
 70
     1
102
RTVSPost2010Prop51ColorIndex
 90
      256
102
RTVSPost2010Prop51ColorRGB
 90
-16777216
102
RTVSPost2010PropOp51
 70
     0
102
RTVSPost2010Prop52
140
1.0
102
RTVSPost2010PropOp52
 70
     0
102
RTVSPost2010Prop53
 90
        2
102
RTVSPost2010PropOp53
 70
     1
102
RTVSPost2010Prop54
  1
strokes_ogs.tif
102
RTVSPost2010PropOp54
 70
     1
102
RTVSPost2010Prop55
280
     0
102
RTVSPost2010PropOp55
 70
     1
102
RTVSPost2010Prop56
140
1.0
102
RTVSPost2010PropOp56
 70
     1
102
RTVSPost2010Prop57
140
1.0
102
RTVSPost2010PropOp57
 70
     1
  0
XRECORD
  5
160
102
{ACAD_REACTORS
330
15F
102
}
330
15F
100
AcDbXrecord
280
     1
102
RTVSPost2010Prop28
280
     0
102
RTVSPost2010PropOp28
 70
     0
102
RTVSPost2010Prop29
280
     1
102
RTVSPost2010PropOp29
 70
     0
102
RTVSPost2010Prop30
280
     1
102
RTVSPost2010PropOp30
 70
     0
102
RTVSPost2010Prop31
280
     0
102
RTVSPost2010PropOp31
 70
     0
102
RTVSPost2010Prop32
280
     0
102
RTVSPost2010PropOp32
 70
     0
102
RTVSPost2010Prop33
280
     0
102
RTVSPost2010PropOp33
 70
     0
102
RTVSPost2010Prop34
280
     0
102
RTVSPost2010PropOp34
 70
     0
102
RTVSPost2010Prop35
280
     0
102
RTVSPost2010PropOp35
 70
     0
102
RTVSPost2010Prop36
280
     0
102
RTVSPost2010PropOp36
 70
     0
102
RTVSPost2010Prop37
 90
       50
102
RTVSPost2010PropOp37
 70
     0
102
RTVSPost2010Prop38
140
0.0
102
RTVSPost2010PropOp38
 70
     0
102
RTVSPost2010Prop39
140
1.0
102
RTVSPost2010PropOp39
 70
     0
102
RTVSPost2010Prop40
 90
        0
102
RTVSPost2010PropOp40
 70
     0
102
RTVSPost2010Prop41ColorIndex
 90
       18
102
RTVSPost2010Prop41ColorRGB
 90
        0
102
RTVSPost2010PropOp41
 70
     0
102
RTVSPost2010Prop42
 90
       50
102
RTVSPost2010PropOp42
 70
     0
102
RTVSPost2010Prop43
 90
        3
102
RTVSPost2010PropOp43
 70
     0
102
RTVSPost2010Prop44ColorIndex
 90
        5
102
RTVSPost2010Prop44ColorRGB
 90
      255
102
RTVSPost2010PropOp44
 70
     0
102
RTVSPost2010Prop45
280
     0
102
RTVSPost2010PropOp45
 70
     0
102
RTVSPost2010Prop46
 90
       50
102
RTVSPost2010PropOp46
 70
     0
102
RTVSPost2010Prop47
 90
       50
102
RTVSPost2010PropOp47
 70
     0
102
RTVSPost2010Prop48
 90
       50
102
RTVSPost2010PropOp48
 70
     0
102
RTVSPost2010Prop49
280
     0
102
RTVSPost2010PropOp49
 70
     0
102
RTVSPost2010Prop50
 90
       50
102
RTVSPost2010PropOp50
 70
     0
102
RTVSPost2010Prop51ColorIndex
 90
      256
102
RTVSPost2010Prop51ColorRGB
 90
-16777216
102
RTVSPost2010PropOp51
 70
     0
102
RTVSPost2010Prop52
140
1.0
102
RTVSPost2010PropOp52
 70
     0
102
RTVSPost2010Prop53
 90
        2
102
RTVSPost2010PropOp53
 70
     0
102
RTVSPost2010Prop54
  1
strokes_ogs.tif
102
RTVSPost2010PropOp54
 70
     0
102
RTVSPost2010Prop55
280
     0
102
RTVSPost2010PropOp55
 70
     0
102
RTVSPost2010Prop56
140
1.0
102
RTVSPost2010PropOp56
 70
     0
102
RTVSPost2010Prop57
140
1.0
102
RTVSPost2010PropOp57
 70
     0
  0
XRECORD
  5
14E
102
{ACAD_REACTORS
330
14D
102
}
330
14D
100
AcDbXrecord
280
     1
102
RTVSPost2010Prop28
280
     0
102
RTVSPost2010PropOp28
 70
     1
102
RTVSPost2010Prop29
280
     1
102
RTVSPost2010PropOp29
 70
     1
102
RTVSPost2010Prop30
280
     1
102
RTVSPost2010PropOp30
 70
     1
102
RTVSPost2010Prop31
280
     0
102
RTVSPost2010PropOp31
 70
     1
102
RTVSPost2010Prop32
280
     0
102
RTVSPost2010PropOp32
 70
     1
102
RTVSPost2010Prop33
280
     0
102
RTVSPost2010PropOp33
 70
     1
102
RTVSPost2010Prop34
280
     0
102
RTVSPost2010PropOp34
 70
     1
102
RTVSPost2010Prop35
280
     0
102
RTVSPost2010PropOp35
 70
     1
102
RTVSPost2010Prop36
280
     0
102
RTVSPost2010PropOp36
 70
     1
102
RTVSPost2010Prop37
 90
       50
102
RTVSPost2010PropOp37
 70
     1
102
RTVSPost2010Prop38
140
0.0
102
RTVSPost2010PropOp38
 70
     1
102
RTVSPost2010Prop39
140
1.0
102
RTVSPost2010PropOp39
 70
     1
102
RTVSPost2010Prop40
 90
        0
102
RTVSPost2010PropOp40
 70
     1
102
RTVSPost2010Prop41ColorIndex
 90
       18
102
RTVSPost2010Prop41ColorRGB
 90
        0
102
RTVSPost2010PropOp41
 70
     1
102
RTVSPost2010Prop42
 90
       50
102
RTVSPost2010PropOp42
 70
     1
102
RTVSPost2010Prop43
 90
        3
102
RTVSPost2010PropOp43
 70
     1
102
RTVSPost2010Prop44ColorIndex
 90
        5
102
RTVSPost2010Prop44ColorRGB
 90
      255
102
RTVSPost2010PropOp44
 70
     1
102
RTVSPost2010Prop45
280
     0
102
RTVSPost2010PropOp45
 70
     1
102
RTVSPost2010Prop46
 90
       50
102
RTVSPost2010PropOp46
 70
     1
102
RTVSPost2010Prop47
 90
       50
102
RTVSPost2010PropOp47
 70
     1
102
RTVSPost2010Prop48
 90
       50
102
RTVSPost2010PropOp48
 70
     1
102
RTVSPost2010Prop49
280
     0
102
RTVSPost2010PropOp49
 70
     1
102
RTVSPost2010Prop50
 90
       50
102
RTVSPost2010PropOp50
 70
     1
102
RTVSPost2010Prop51ColorIndex
 90
      256
102
RTVSPost2010Prop51ColorRGB
 90
-16777216
102
RTVSPost2010PropOp51
 70
     0
102
RTVSPost2010Prop52
140
1.0
102
RTVSPost2010PropOp52
 70
     0
102
RTVSPost2010Prop53
 90
        2
102
RTVSPost2010PropOp53
 70
     1
102
RTVSPost2010Prop54
  1
strokes_ogs.tif
102
RTVSPost2010PropOp54
 70
     1
102
RTVSPost2010Prop55
280
     0
102
RTVSPost2010PropOp55
 70
     1
102
RTVSPost2010Prop56
140
1.0
102
RTVSPost2010PropOp56
 70
     1
102
RTVSPost2010Prop57
140
1.0
102
RTVSPost2010PropOp57
 70
     1
  0
XRECORD
  5
132
102
{ACAD_REACTORS
330
131
102
}
330
131
100
AcDbXrecord
280
     1
102
RTVSPost2010Prop28
280
     0
102
RTVSPost2010PropOp28
 70
     1
102
RTVSPost2010Prop29
280
     1
102
RTVSPost2010PropOp29
 70
     1
102
RTVSPost2010Prop30
280
     1
102
RTVSPost2010PropOp30
 70
     1
102
RTVSPost2010Prop31
280
     0
102
RTVSPost2010PropOp31
 70
     1
102
RTVSPost2010Prop32
280
     0
102
RTVSPost2010PropOp32
 70
     1
102
RTVSPost2010Prop33
280
     0
102
RTVSPost2010PropOp33
 70
     1
102
RTVSPost2010Prop34
280
     0
102
RTVSPost2010PropOp34
 70
     1
102
RTVSPost2010Prop35
280
     0
102
RTVSPost2010PropOp35
 70
     1
102
RTVSPost2010Prop36
280
     0
102
RTVSPost2010PropOp36
 70
     1
102
RTVSPost2010Prop37
 90
       50
102
RTVSPost2010PropOp37
 70
     1
102
RTVSPost2010Prop38
140
0.0
102
RTVSPost2010PropOp38
 70
     1
102
RTVSPost2010Prop39
140
1.0
102
RTVSPost2010PropOp39
 70
     1
102
RTVSPost2010Prop40
 90
        0
102
RTVSPost2010PropOp40
 70
     1
102
RTVSPost2010Prop41ColorIndex
 90
       18
102
RTVSPost2010Prop41ColorRGB
 90
        0
102
RTVSPost2010PropOp41
 70
     1
102
RTVSPost2010Prop42
 90
       50
102
RTVSPost2010PropOp42
 70
     1
102
RTVSPost2010Prop43
 90
        3
102
RTVSPost2010PropOp43
 70
     1
102
RTVSPost2010Prop44ColorIndex
 90
        5
102
RTVSPost2010Prop44ColorRGB
 90
      255
102
RTVSPost2010PropOp44
 70
     1
102
RTVSPost2010Prop45
280
     0
102
RTVSPost2010PropOp45
 70
     1
102
RTVSPost2010Prop46
 90
       50
102
RTVSPost2010PropOp46
 70
     1
102
RTVSPost2010Prop47
 90
       50
102
RTVSPost2010PropOp47
 70
     1
102
RTVSPost2010Prop48
 90
       50
102
RTVSPost2010PropOp48
 70
     1
102
RTVSPost2010Prop49
280
     0
102
RTVSPost2010PropOp49
 70
     1
102
RTVSPost2010Prop50
 90
       50
102
RTVSPost2010PropOp50
 70
     1
102
RTVSPost2010Prop51ColorIndex
 90
      256
102
RTVSPost2010Prop51ColorRGB
 90
-16777216
102
RTVSPost2010PropOp51
 70
     0
102
RTVSPost2010Prop52
140
1.0
102
RTVSPost2010PropOp52
 70
     0
102
RTVSPost2010Prop53
 90
        2
102
RTVSPost2010PropOp53
 70
     1
102
RTVSPost2010Prop54
  1
strokes_ogs.tif
102
RTVSPost2010PropOp54
 70
     1
102
RTVSPost2010Prop55
280
     0
102
RTVSPost2010PropOp55
 70
     1
102
RTVSPost2010Prop56
140
1.0
102
RTVSPost2010PropOp56
 70
     1
102
RTVSPost2010Prop57
140
1.0
102
RTVSPost2010PropOp57
 70
     1
  0
XRECORD
  5
134
102
{ACAD_REACTORS
330
133
102
}
330
133
100
AcDbXrecord
280
     1
102
RTVSPost2010Prop28
280
     0
102
RTVSPost2010PropOp28
 70
     1
102
RTVSPost2010Prop29
280
     1
102
RTVSPost2010PropOp29
 70
     1
102
RTVSPost2010Prop30
280
     1
102
RTVSPost2010PropOp30
 70
     1
102
RTVSPost2010Prop31
280
     0
102
RTVSPost2010PropOp31
 70
     1
102
RTVSPost2010Prop32
280
     0
102
RTVSPost2010PropOp32
 70
     1
102
RTVSPost2010Prop33
280
     0
102
RTVSPost2010PropOp33
 70
     1
102
RTVSPost2010Prop34
280
     0
102
RTVSPost2010PropOp34
 70
     1
102
RTVSPost2010Prop35
280
     0
102
RTVSPost2010PropOp35
 70
     1
102
RTVSPost2010Prop36
280
     0
102
RTVSPost2010PropOp36
 70
     1
102
RTVSPost2010Prop37
 90
       50
102
RTVSPost2010PropOp37
 70
     1
102
RTVSPost2010Prop38
140
0.0
102
RTVSPost2010PropOp38
 70
     1
102
RTVSPost2010Prop39
140
1.0
102
RTVSPost2010PropOp39
 70
     1
102
RTVSPost2010Prop40
 90
        0
102
RTVSPost2010PropOp40
 70
     1
102
RTVSPost2010Prop41ColorIndex
 90
       18
102
RTVSPost2010Prop41ColorRGB
 90
        0
102
RTVSPost2010PropOp41
 70
     1
102
RTVSPost2010Prop42
 90
       50
102
RTVSPost2010PropOp42
 70
     1
102
RTVSPost2010Prop43
 90
        3
102
RTVSPost2010PropOp43
 70
     1
102
RTVSPost2010Prop44ColorIndex
 90
        5
102
RTVSPost2010Prop44ColorRGB
 90
      255
102
RTVSPost2010PropOp44
 70
     1
102
RTVSPost2010Prop45
280
     0
102
RTVSPost2010PropOp45
 70
     1
102
RTVSPost2010Prop46
 90
       50
102
RTVSPost2010PropOp46
 70
     1
102
RTVSPost2010Prop47
 90
       50
102
RTVSPost2010PropOp47
 70
     1
102
RTVSPost2010Prop48
 90
       50
102
RTVSPost2010PropOp48
 70
     1
102
RTVSPost2010Prop49
280
     0
102
RTVSPost2010PropOp49
 70
     1
102
RTVSPost2010Prop50
 90
       50
102
RTVSPost2010PropOp50
 70
     1
102
RTVSPost2010Prop51ColorIndex
 90
      256
102
RTVSPost2010Prop51ColorRGB
 90
-16777216
102
RTVSPost2010PropOp51
 70
     0
102
RTVSPost2010Prop52
140
1.0
102
RTVSPost2010PropOp52
 70
     0
102
RTVSPost2010Prop53
 90
        2
102
RTVSPost2010PropOp53
 70
     1
102
RTVSPost2010Prop54
  1
strokes_ogs.tif
102
RTVSPost2010PropOp54
 70
     1
102
RTVSPost2010Prop55
280
     0
102
RTVSPost2010PropOp55
 70
     1
102
RTVSPost2010Prop56
140
1.0
102
RTVSPost2010PropOp56
 70
     1
102
RTVSPost2010Prop57
140
1.0
102
RTVSPost2010PropOp57
 70
     1
  0
XRECORD
  5
136
102
{ACAD_REACTORS
330
135
102
}
330
135
100
AcDbXrecord
280
     1
102
RTVSPost2010Prop28
280
     0
102
RTVSPost2010PropOp28
 70
     1
102
RTVSPost2010Prop29
280
     1
102
RTVSPost2010PropOp29
 70
     1
102
RTVSPost2010Prop30
280
     1
102
RTVSPost2010PropOp30
 70
     1
102
RTVSPost2010Prop31
280
     0
102
RTVSPost2010PropOp31
 70
     1
102
RTVSPost2010Prop32
280
     0
102
RTVSPost2010PropOp32
 70
     1
102
RTVSPost2010Prop33
280
     0
102
RTVSPost2010PropOp33
 70
     1
102
RTVSPost2010Prop34
280
     0
102
RTVSPost2010PropOp34
 70
     1
102
RTVSPost2010Prop35
280
     0
102
RTVSPost2010PropOp35
 70
     1
102
RTVSPost2010Prop36
280
     0
102
RTVSPost2010PropOp36
 70
     1
102
RTVSPost2010Prop37
 90
       50
102
RTVSPost2010PropOp37
 70
     1
102
RTVSPost2010Prop38
140
0.0
102
RTVSPost2010PropOp38
 70
     1
102
RTVSPost2010Prop39
140
1.0
102
RTVSPost2010PropOp39
 70
     1
102
RTVSPost2010Prop40
 90
        0
102
RTVSPost2010PropOp40
 70
     1
102
RTVSPost2010Prop41ColorIndex
 90
       18
102
RTVSPost2010Prop41ColorRGB
 90
        0
102
RTVSPost2010PropOp41
 70
     1
102
RTVSPost2010Prop42
 90
       50
102
RTVSPost2010PropOp42
 70
     1
102
RTVSPost2010Prop43
 90
        3
102
RTVSPost2010PropOp43
 70
     1
102
RTVSPost2010Prop44ColorIndex
 90
        5
102
RTVSPost2010Prop44ColorRGB
 90
      255
102
RTVSPost2010PropOp44
 70
     1
102
RTVSPost2010Prop45
280
     0
102
RTVSPost2010PropOp45
 70
     1
102
RTVSPost2010Prop46
 90
       50
102
RTVSPost2010PropOp46
 70
     1
102
RTVSPost2010Prop47
 90
       50
102
RTVSPost2010PropOp47
 70
     1
102
RTVSPost2010Prop48
 90
       50
102
RTVSPost2010PropOp48
 70
     1
102
RTVSPost2010Prop49
280
     0
102
RTVSPost2010PropOp49
 70
     1
102
RTVSPost2010Prop50
 90
       50
102
RTVSPost2010PropOp50
 70
     1
102
RTVSPost2010Prop51ColorIndex
 90
      256
102
RTVSPost2010Prop51ColorRGB
 90
-16777216
102
RTVSPost2010PropOp51
 70
     0
102
RTVSPost2010Prop52
140
1.0
102
RTVSPost2010PropOp52
 70
     0
102
RTVSPost2010Prop53
 90
        2
102
RTVSPost2010PropOp53
 70
     1
102
RTVSPost2010Prop54
  1
strokes_ogs.tif
102
RTVSPost2010PropOp54
 70
     1
102
RTVSPost2010Prop55
280
     0
102
RTVSPost2010PropOp55
 70
     1
102
RTVSPost2010Prop56
140
1.0
102
RTVSPost2010PropOp56
 70
     1
102
RTVSPost2010Prop57
140
1.0
102
RTVSPost2010PropOp57
 70
     1
  0
XRECORD
  5
138
102
{ACAD_REACTORS
330
137
102
}
330
137
100
AcDbXrecord
280
     1
102
RTVSPost2010Prop28
280
     0
102
RTVSPost2010PropOp28
 70
     1
102
RTVSPost2010Prop29
280
     1
102
RTVSPost2010PropOp29
 70
     1
102
RTVSPost2010Prop30
280
     1
102
RTVSPost2010PropOp30
 70
     1
102
RTVSPost2010Prop31
280
     0
102
RTVSPost2010PropOp31
 70
     1
102
RTVSPost2010Prop32
280
     0
102
RTVSPost2010PropOp32
 70
     1
102
RTVSPost2010Prop33
280
     0
102
RTVSPost2010PropOp33
 70
     1
102
RTVSPost2010Prop34
280
     0
102
RTVSPost2010PropOp34
 70
     1
102
RTVSPost2010Prop35
280
     0
102
RTVSPost2010PropOp35
 70
     1
102
RTVSPost2010Prop36
280
     0
102
RTVSPost2010PropOp36
 70
     1
102
RTVSPost2010Prop37
 90
       50
102
RTVSPost2010PropOp37
 70
     1
102
RTVSPost2010Prop38
140
0.0
102
RTVSPost2010PropOp38
 70
     1
102
RTVSPost2010Prop39
140
1.0
102
RTVSPost2010PropOp39
 70
     1
102
RTVSPost2010Prop40
 90
        0
102
RTVSPost2010PropOp40
 70
     1
102
RTVSPost2010Prop41ColorIndex
 90
       18
102
RTVSPost2010Prop41ColorRGB
 90
        0
102
RTVSPost2010PropOp41
 70
     1
102
RTVSPost2010Prop42
 90
       50
102
RTVSPost2010PropOp42
 70
     1
102
RTVSPost2010Prop43
 90
        3
102
RTVSPost2010PropOp43
 70
     1
102
RTVSPost2010Prop44ColorIndex
 90
        5
102
RTVSPost2010Prop44ColorRGB
 90
      255
102
RTVSPost2010PropOp44
 70
     1
102
RTVSPost2010Prop45
280
     0
102
RTVSPost2010PropOp45
 70
     1
102
RTVSPost2010Prop46
 90
       50
102
RTVSPost2010PropOp46
 70
     1
102
RTVSPost2010Prop47
 90
       50
102
RTVSPost2010PropOp47
 70
     1
102
RTVSPost2010Prop48
 90
       50
102
RTVSPost2010PropOp48
 70
     1
102
RTVSPost2010Prop49
280
     0
102
RTVSPost2010PropOp49
 70
     1
102
RTVSPost2010Prop50
 90
       50
102
RTVSPost2010PropOp50
 70
     1
102
RTVSPost2010Prop51ColorIndex
 90
      256
102
RTVSPost2010Prop51ColorRGB
 90
-16777216
102
RTVSPost2010PropOp51
 70
     0
102
RTVSPost2010Prop52
140
1.0
102
RTVSPost2010PropOp52
 70
     0
102
RTVSPost2010Prop53
 90
        2
102
RTVSPost2010PropOp53
 70
     1
102
RTVSPost2010Prop54
  1
strokes_ogs.tif
102
RTVSPost2010PropOp54
 70
     1
102
RTVSPost2010Prop55
280
     0
102
RTVSPost2010PropOp55
 70
     1
102
RTVSPost2010Prop56
140
1.0
102
RTVSPost2010PropOp56
 70
     1
102
RTVSPost2010Prop57
140
1.0
102
RTVSPost2010PropOp57
 70
     1
  0
XRECORD
  5
140
102
{ACAD_REACTORS
330
13F
102
}
330
13F
100
AcDbXrecord
280
     1
102
RTVSPost2010Prop28
280
     0
102
RTVSPost2010PropOp28
 70
     1
102
RTVSPost2010Prop29
280
     1
102
RTVSPost2010PropOp29
 70
     1
102
RTVSPost2010Prop30
280
     1
102
RTVSPost2010PropOp30
 70
     1
102
RTVSPost2010Prop31
280
     0
102
RTVSPost2010PropOp31
 70
     1
102
RTVSPost2010Prop32
280
     0
102
RTVSPost2010PropOp32
 70
     1
102
RTVSPost2010Prop33
280
     0
102
RTVSPost2010PropOp33
 70
     1
102
RTVSPost2010Prop34
280
     0
102
RTVSPost2010PropOp34
 70
     1
102
RTVSPost2010Prop35
280
     0
102
RTVSPost2010PropOp35
 70
     1
102
RTVSPost2010Prop36
280
     0
102
RTVSPost2010PropOp36
 70
     1
102
RTVSPost2010Prop37
 90
       50
102
RTVSPost2010PropOp37
 70
     1
102
RTVSPost2010Prop38
140
0.0
102
RTVSPost2010PropOp38
 70
     1
102
RTVSPost2010Prop39
140
1.0
102
RTVSPost2010PropOp39
 70
     1
102
RTVSPost2010Prop40
 90
        0
102
RTVSPost2010PropOp40
 70
     1
102
RTVSPost2010Prop41ColorIndex
 90
       18
102
RTVSPost2010Prop41ColorRGB
 90
        0
102
RTVSPost2010PropOp41
 70
     1
102
RTVSPost2010Prop42
 90
       50
102
RTVSPost2010PropOp42
 70
     1
102
RTVSPost2010Prop43
 90
        3
102
RTVSPost2010PropOp43
 70
     1
102
RTVSPost2010Prop44ColorIndex
 90
        5
102
RTVSPost2010Prop44ColorRGB
 90
      255
102
RTVSPost2010PropOp44
 70
     1
102
RTVSPost2010Prop45
280
     0
102
RTVSPost2010PropOp45
 70
     1
102
RTVSPost2010Prop46
 90
       50
102
RTVSPost2010PropOp46
 70
     1
102
RTVSPost2010Prop47
 90
       50
102
RTVSPost2010PropOp47
 70
     1
102
RTVSPost2010Prop48
 90
       50
102
RTVSPost2010PropOp48
 70
     1
102
RTVSPost2010Prop49
280
     0
102
RTVSPost2010PropOp49
 70
     1
102
RTVSPost2010Prop50
 90
       50
102
RTVSPost2010PropOp50
 70
     1
102
RTVSPost2010Prop51ColorIndex
 90
      256
102
RTVSPost2010Prop51ColorRGB
 90
-16777216
102
RTVSPost2010PropOp51
 70
     0
102
RTVSPost2010Prop52
140
1.0
102
RTVSPost2010PropOp52
 70
     0
102
RTVSPost2010Prop53
 90
        2
102
RTVSPost2010PropOp53
 70
     1
102
RTVSPost2010Prop54
  1
strokes_ogs.tif
102
RTVSPost2010PropOp54
 70
     1
102
RTVSPost2010Prop55
280
     0
102
RTVSPost2010PropOp55
 70
     1
102
RTVSPost2010Prop56
140
1.0
102
RTVSPost2010PropOp56
 70
     1
102
RTVSPost2010Prop57
140
1.0
102
RTVSPost2010PropOp57
 70
     1
  0
XRECORD
  5
15C
102
{ACAD_REACTORS
330
15B
102
}
330
15B
100
AcDbXrecord
280
     1
102
RTVSPost2010Prop28
280
     0
102
RTVSPost2010PropOp28
 70
     0
102
RTVSPost2010Prop29
280
     1
102
RTVSPost2010PropOp29
 70
     0
102
RTVSPost2010Prop30
280
     1
102
RTVSPost2010PropOp30
 70
     0
102
RTVSPost2010Prop31
280
     0
102
RTVSPost2010PropOp31
 70
     0
102
RTVSPost2010Prop32
280
     0
102
RTVSPost2010PropOp32
 70
     0
102
RTVSPost2010Prop33
280
     0
102
RTVSPost2010PropOp33
 70
     0
102
RTVSPost2010Prop34
280
     0
102
RTVSPost2010PropOp34
 70
     0
102
RTVSPost2010Prop35
280
     0
102
RTVSPost2010PropOp35
 70
     0
102
RTVSPost2010Prop36
280
     0
102
RTVSPost2010PropOp36
 70
     0
102
RTVSPost2010Prop37
 90
       50
102
RTVSPost2010PropOp37
 70
     0
102
RTVSPost2010Prop38
140
0.0
102
RTVSPost2010PropOp38
 70
     0
102
RTVSPost2010Prop39
140
1.0
102
RTVSPost2010PropOp39
 70
     0
102
RTVSPost2010Prop40
 90
        0
102
RTVSPost2010PropOp40
 70
     0
102
RTVSPost2010Prop41ColorIndex
 90
       18
102
RTVSPost2010Prop41ColorRGB
 90
        0
102
RTVSPost2010PropOp41
 70
     0
102
RTVSPost2010Prop42
 90
       50
102
RTVSPost2010PropOp42
 70
     0
102
RTVSPost2010Prop43
 90
        3
102
RTVSPost2010PropOp43
 70
     0
102
RTVSPost2010Prop44ColorIndex
 90
        5
102
RTVSPost2010Prop44ColorRGB
 90
      255
102
RTVSPost2010PropOp44
 70
     0
102
RTVSPost2010Prop45
280
     0
102
RTVSPost2010PropOp45
 70
     0
102
RTVSPost2010Prop46
 90
       50
102
RTVSPost2010PropOp46
 70
     0
102
RTVSPost2010Prop47
 90
       50
102
RTVSPost2010PropOp47
 70
     0
102
RTVSPost2010Prop48
 90
       50
102
RTVSPost2010PropOp48
 70
     0
102
RTVSPost2010Prop49
280
     0
102
RTVSPost2010PropOp49
 70
     0
102
RTVSPost2010Prop50
 90
       50
102
RTVSPost2010PropOp50
 70
     0
102
RTVSPost2010Prop51ColorIndex
 90
      256
102
RTVSPost2010Prop51ColorRGB
 90
-16777216
102
RTVSPost2010PropOp51
 70
     0
102
RTVSPost2010Prop52
140
1.0
102
RTVSPost2010PropOp52
 70
     0
102
RTVSPost2010Prop53
 90
        2
102
RTVSPost2010PropOp53
 70
     0
102
RTVSPost2010Prop54
  1
strokes_ogs.tif
102
RTVSPost2010PropOp54
 70
     0
102
RTVSPost2010Prop55
280
     0
102
RTVSPost2010PropOp55
 70
     0
102
RTVSPost2010Prop56
140
1.0
102
RTVSPost2010PropOp56
 70
     0
102
RTVSPost2010Prop57
140
1.0
102
RTVSPost2010PropOp57
 70
     0
  0
XRECORD
  5
14C
102
{ACAD_REACTORS
330
14B
102
}
330
14B
100
AcDbXrecord
280
     1
102
RTVSPost2010Prop28
280
     0
102
RTVSPost2010PropOp28
 70
     1
102
RTVSPost2010Prop29
280
     1
102
RTVSPost2010PropOp29
 70
     1
102
RTVSPost2010Prop30
280
     1
102
RTVSPost2010PropOp30
 70
     1
102
RTVSPost2010Prop31
280
     0
102
RTVSPost2010PropOp31
 70
     1
102
RTVSPost2010Prop32
280
     0
102
RTVSPost2010PropOp32
 70
     1
102
RTVSPost2010Prop33
280
     0
102
RTVSPost2010PropOp33
 70
     1
102
RTVSPost2010Prop34
280
     0
102
RTVSPost2010PropOp34
 70
     1
102
RTVSPost2010Prop35
280
     0
102
RTVSPost2010PropOp35
 70
     1
102
RTVSPost2010Prop36
280
     0
102
RTVSPost2010PropOp36
 70
     1
102
RTVSPost2010Prop37
 90
       50
102
RTVSPost2010PropOp37
 70
     1
102
RTVSPost2010Prop38
140
0.0
102
RTVSPost2010PropOp38
 70
     1
102
RTVSPost2010Prop39
140
1.0
102
RTVSPost2010PropOp39
 70
     1
102
RTVSPost2010Prop40
 90
        0
102
RTVSPost2010PropOp40
 70
     1
102
RTVSPost2010Prop41ColorIndex
 90
       18
102
RTVSPost2010Prop41ColorRGB
 90
        0
102
RTVSPost2010PropOp41
 70
     1
102
RTVSPost2010Prop42
 90
       50
102
RTVSPost2010PropOp42
 70
     1
102
RTVSPost2010Prop43
 90
        3
102
RTVSPost2010PropOp43
 70
     1
102
RTVSPost2010Prop44ColorIndex
 90
        5
102
RTVSPost2010Prop44ColorRGB
 90
      255
102
RTVSPost2010PropOp44
 70
     1
102
RTVSPost2010Prop45
280
     0
102
RTVSPost2010PropOp45
 70
     1
102
RTVSPost2010Prop46
 90
       50
102
RTVSPost2010PropOp46
 70
     1
102
RTVSPost2010Prop47
 90
       50
102
RTVSPost2010PropOp47
 70
     1
102
RTVSPost2010Prop48
 90
       50
102
RTVSPost2010PropOp48
 70
     1
102
RTVSPost2010Prop49
280
     0
102
RTVSPost2010PropOp49
 70
     1
102
RTVSPost2010Prop50
 90
       50
102
RTVSPost2010PropOp50
 70
     1
102
RTVSPost2010Prop51ColorIndex
 90
      256
102
RTVSPost2010Prop51ColorRGB
 90
-16777216
102
RTVSPost2010PropOp51
 70
     0
102
RTVSPost2010Prop52
140
1.0
102
RTVSPost2010PropOp52
 70
     0
102
RTVSPost2010Prop53
 90
        2
102
RTVSPost2010PropOp53
 70
     1
102
RTVSPost2010Prop54
  1
strokes_ogs.tif
102
RTVSPost2010PropOp54
 70
     1
102
RTVSPost2010Prop55
280
     0
102
RTVSPost2010PropOp55
 70
     1
102
RTVSPost2010Prop56
140
1.0
102
RTVSPost2010PropOp56
 70
     1
102
RTVSPost2010Prop57
140
1.0
102
RTVSPost2010PropOp57
 70
     1
  0
XRECORD
  5
15E
102
{ACAD_REACTORS
330
15D
102
}
330
15D
100
AcDbXrecord
280
     1
102
RTVSPost2010Prop28
280
     0
102
RTVSPost2010PropOp28
 70
     0
102
RTVSPost2010Prop29
280
     1
102
RTVSPost2010PropOp29
 70
     0
102
RTVSPost2010Prop30
280
     1
102
RTVSPost2010PropOp30
 70
     0
102
RTVSPost2010Prop31
280
     0
102
RTVSPost2010PropOp31
 70
     0
102
RTVSPost2010Prop32
280
     0
102
RTVSPost2010PropOp32
 70
     0
102
RTVSPost2010Prop33
280
     0
102
RTVSPost2010PropOp33
 70
     0
102
RTVSPost2010Prop34
280
     0
102
RTVSPost2010PropOp34
 70
     0
102
RTVSPost2010Prop35
280
     0
102
RTVSPost2010PropOp35
 70
     0
102
RTVSPost2010Prop36
280
     0
102
RTVSPost2010PropOp36
 70
     0
102
RTVSPost2010Prop37
 90
       50
102
RTVSPost2010PropOp37
 70
     0
102
RTVSPost2010Prop38
140
0.0
102
RTVSPost2010PropOp38
 70
     0
102
RTVSPost2010Prop39
140
1.0
102
RTVSPost2010PropOp39
 70
     0
102
RTVSPost2010Prop40
 90
        0
102
RTVSPost2010PropOp40
 70
     0
102
RTVSPost2010Prop41ColorIndex
 90
       18
102
RTVSPost2010Prop41ColorRGB
 90
        0
102
RTVSPost2010PropOp41
 70
     0
102
RTVSPost2010Prop42
 90
       50
102
RTVSPost2010PropOp42
 70
     0
102
RTVSPost2010Prop43
 90
        3
102
RTVSPost2010PropOp43
 70
     0
102
RTVSPost2010Prop44ColorIndex
 90
        5
102
RTVSPost2010Prop44ColorRGB
 90
      255
102
RTVSPost2010PropOp44
 70
     0
102
RTVSPost2010Prop45
280
     0
102
RTVSPost2010PropOp45
 70
     0
102
RTVSPost2010Prop46
 90
       50
102
RTVSPost2010PropOp46
 70
     0
102
RTVSPost2010Prop47
 90
       50
102
RTVSPost2010PropOp47
 70
     0
102
RTVSPost2010Prop48
 90
       50
102
RTVSPost2010PropOp48
 70
     0
102
RTVSPost2010Prop49
280
     0
102
RTVSPost2010PropOp49
 70
     0
102
RTVSPost2010Prop50
 90
       50
102
RTVSPost2010PropOp50
 70
     0
102
RTVSPost2010Prop51ColorIndex
 90
      256
102
RTVSPost2010Prop51ColorRGB
 90
-16777216
102
RTVSPost2010PropOp51
 70
     0
102
RTVSPost2010Prop52
140
1.0
102
RTVSPost2010PropOp52
 70
     0
102
RTVSPost2010Prop53
 90
        2
102
RTVSPost2010PropOp53
 70
     0
102
RTVSPost2010Prop54
  1
strokes_ogs.tif
102
RTVSPost2010PropOp54
 70
     0
102
RTVSPost2010Prop55
280
     0
102
RTVSPost2010PropOp55
 70
     0
102
RTVSPost2010Prop56
140
1.0
102
RTVSPost2010PropOp56
 70
     0
102
RTVSPost2010Prop57
140
1.0
102
RTVSPost2010PropOp57
 70
     0
  0
XRECORD
  5
144
102
{ACAD_REACTORS
330
143
102
}
330
143
100
AcDbXrecord
280
     1
102
RTVSPost2010Prop28
280
     0
102
RTVSPost2010PropOp28
 70
     1
102
RTVSPost2010Prop29
280
     1
102
RTVSPost2010PropOp29
 70
     1
102
RTVSPost2010Prop30
280
     1
102
RTVSPost2010PropOp30
 70
     1
102
RTVSPost2010Prop31
280
     0
102
RTVSPost2010PropOp31
 70
     1
102
RTVSPost2010Prop32
280
     0
102
RTVSPost2010PropOp32
 70
     1
102
RTVSPost2010Prop33
280
     0
102
RTVSPost2010PropOp33
 70
     1
102
RTVSPost2010Prop34
280
     0
102
RTVSPost2010PropOp34
 70
     1
102
RTVSPost2010Prop35
280
     0
102
RTVSPost2010PropOp35
 70
     1
102
RTVSPost2010Prop36
280
     0
102
RTVSPost2010PropOp36
 70
     1
102
RTVSPost2010Prop37
 90
       50
102
RTVSPost2010PropOp37
 70
     1
102
RTVSPost2010Prop38
140
0.0
102
RTVSPost2010PropOp38
 70
     1
102
RTVSPost2010Prop39
140
1.0
102
RTVSPost2010PropOp39
 70
     1
102
RTVSPost2010Prop40
 90
        0
102
RTVSPost2010PropOp40
 70
     1
102
RTVSPost2010Prop41ColorIndex
 90
       18
102
RTVSPost2010Prop41ColorRGB
 90
        0
102
RTVSPost2010PropOp41
 70
     1
102
RTVSPost2010Prop42
 90
       50
102
RTVSPost2010PropOp42
 70
     1
102
RTVSPost2010Prop43
 90
        3
102
RTVSPost2010PropOp43
 70
     1
102
RTVSPost2010Prop44ColorIndex
 90
        5
102
RTVSPost2010Prop44ColorRGB
 90
      255
102
RTVSPost2010PropOp44
 70
     1
102
RTVSPost2010Prop45
280
     0
102
RTVSPost2010PropOp45
 70
     1
102
RTVSPost2010Prop46
 90
       50
102
RTVSPost2010PropOp46
 70
     1
102
RTVSPost2010Prop47
 90
       50
102
RTVSPost2010PropOp47
 70
     1
102
RTVSPost2010Prop48
 90
       50
102
RTVSPost2010PropOp48
 70
     1
102
RTVSPost2010Prop49
280
     0
102
RTVSPost2010PropOp49
 70
     1
102
RTVSPost2010Prop50
 90
       50
102
RTVSPost2010PropOp50
 70
     1
102
RTVSPost2010Prop51ColorIndex
 90
      256
102
RTVSPost2010Prop51ColorRGB
 90
-16777216
102
RTVSPost2010PropOp51
 70
     0
102
RTVSPost2010Prop52
140
1.0
102
RTVSPost2010PropOp52
 70
     0
102
RTVSPost2010Prop53
 90
        2
102
RTVSPost2010PropOp53
 70
     1
102
RTVSPost2010Prop54
  1
strokes_ogs.tif
102
RTVSPost2010PropOp54
 70
     1
102
RTVSPost2010Prop55
280
     0
102
RTVSPost2010PropOp55
 70
     1
102
RTVSPost2010Prop56
140
1.0
102
RTVSPost2010PropOp56
 70
     1
102
RTVSPost2010Prop57
140
1.0
102
RTVSPost2010PropOp57
 70
     1
  0
XRECORD
  5
15A
102
{ACAD_REACTORS
330
159
102
}
330
159
100
AcDbXrecord
280
     1
102
RTVSPost2010Prop28
280
     0
102
RTVSPost2010PropOp28
 70
     1
102
RTVSPost2010Prop29
280
     1
102
RTVSPost2010PropOp29
 70
     1
102
RTVSPost2010Prop30
280
     1
102
RTVSPost2010PropOp30
 70
     1
102
RTVSPost2010Prop31
280
     0
102
RTVSPost2010PropOp31
 70
     1
102
RTVSPost2010Prop32
280
     0
102
RTVSPost2010PropOp32
 70
     1
102
RTVSPost2010Prop33
280
     0
102
RTVSPost2010PropOp33
 70
     1
102
RTVSPost2010Prop34
280
     0
102
RTVSPost2010PropOp34
 70
     1
102
RTVSPost2010Prop35
280
     0
102
RTVSPost2010PropOp35
 70
     1
102
RTVSPost2010Prop36
280
     0
102
RTVSPost2010PropOp36
 70
     1
102
RTVSPost2010Prop37
 90
       50
102
RTVSPost2010PropOp37
 70
     1
102
RTVSPost2010Prop38
140
0.0
102
RTVSPost2010PropOp38
 70
     1
102
RTVSPost2010Prop39
140
1.0
102
RTVSPost2010PropOp39
 70
     1
102
RTVSPost2010Prop40
 90
        0
102
RTVSPost2010PropOp40
 70
     1
102
RTVSPost2010Prop41ColorIndex
 90
       18
102
RTVSPost2010Prop41ColorRGB
 90
        0
102
RTVSPost2010PropOp41
 70
     1
102
RTVSPost2010Prop42
 90
       50
102
RTVSPost2010PropOp42
 70
     1
102
RTVSPost2010Prop43
 90
        3
102
RTVSPost2010PropOp43
 70
     1
102
RTVSPost2010Prop44ColorIndex
 90
        5
102
RTVSPost2010Prop44ColorRGB
 90
      255
102
RTVSPost2010PropOp44
 70
     1
102
RTVSPost2010Prop45
280
     0
102
RTVSPost2010PropOp45
 70
     1
102
RTVSPost2010Prop46
 90
       50
102
RTVSPost2010PropOp46
 70
     1
102
RTVSPost2010Prop47
 90
       50
102
RTVSPost2010PropOp47
 70
     1
102
RTVSPost2010Prop48
 90
       50
102
RTVSPost2010PropOp48
 70
     1
102
RTVSPost2010Prop49
280
     0
102
RTVSPost2010PropOp49
 70
     1
102
RTVSPost2010Prop50
 90
       50
102
RTVSPost2010PropOp50
 70
     1
102
RTVSPost2010Prop51ColorIndex
 90
      256
102
RTVSPost2010Prop51ColorRGB
 90
-16777216
102
RTVSPost2010PropOp51
 70
     0
102
RTVSPost2010Prop52
140
1.0
102
RTVSPost2010PropOp52
 70
     0
102
RTVSPost2010Prop53
 90
        2
102
RTVSPost2010PropOp53
 70
     1
102
RTVSPost2010Prop54
  1
strokes_ogs.tif
102
RTVSPost2010PropOp54
 70
     1
102
RTVSPost2010Prop55
280
     0
102
RTVSPost2010PropOp55
 70
     1
102
RTVSPost2010Prop56
140
1.0
102
RTVSPost2010PropOp56
 70
     1
102
RTVSPost2010Prop57
140
1.0
102
RTVSPost2010PropOp57
 70
     1
  0
XRECORD
  5
158
102
{ACAD_REACTORS
330
157
102
}
330
157
100
AcDbXrecord
280
     1
102
RTVSPost2010Prop28
280
     0
102
RTVSPost2010PropOp28
 70
     1
102
RTVSPost2010Prop29
280
     1
102
RTVSPost2010PropOp29
 70
     1
102
RTVSPost2010Prop30
280
     1
102
RTVSPost2010PropOp30
 70
     1
102
RTVSPost2010Prop31
280
     0
102
RTVSPost2010PropOp31
 70
     1
102
RTVSPost2010Prop32
280
     0
102
RTVSPost2010PropOp32
 70
     1
102
RTVSPost2010Prop33
280
     0
102
RTVSPost2010PropOp33
 70
     1
102
RTVSPost2010Prop34
280
     0
102
RTVSPost2010PropOp34
 70
     1
102
RTVSPost2010Prop35
280
     0
102
RTVSPost2010PropOp35
 70
     1
102
RTVSPost2010Prop36
280
     0
102
RTVSPost2010PropOp36
 70
     1
102
RTVSPost2010Prop37
 90
       50
102
RTVSPost2010PropOp37
 70
     1
102
RTVSPost2010Prop38
140
0.0
102
RTVSPost2010PropOp38
 70
     1
102
RTVSPost2010Prop39
140
1.0
102
RTVSPost2010PropOp39
 70
     1
102
RTVSPost2010Prop40
 90
        0
102
RTVSPost2010PropOp40
 70
     1
102
RTVSPost2010Prop41ColorIndex
 90
       18
102
RTVSPost2010Prop41ColorRGB
 90
        0
102
RTVSPost2010PropOp41
 70
     1
102
RTVSPost2010Prop42
 90
       50
102
RTVSPost2010PropOp42
 70
     1
102
RTVSPost2010Prop43
 90
        3
102
RTVSPost2010PropOp43
 70
     1
102
RTVSPost2010Prop44ColorIndex
 90
        5
102
RTVSPost2010Prop44ColorRGB
 90
      255
102
RTVSPost2010PropOp44
 70
     1
102
RTVSPost2010Prop45
280
     0
102
RTVSPost2010PropOp45
 70
     1
102
RTVSPost2010Prop46
 90
       50
102
RTVSPost2010PropOp46
 70
     1
102
RTVSPost2010Prop47
 90
       50
102
RTVSPost2010PropOp47
 70
     1
102
RTVSPost2010Prop48
 90
       50
102
RTVSPost2010PropOp48
 70
     1
102
RTVSPost2010Prop49
280
     0
102
RTVSPost2010PropOp49
 70
     1
102
RTVSPost2010Prop50
 90
       50
102
RTVSPost2010PropOp50
 70
     1
102
RTVSPost2010Prop51ColorIndex
 90
      256
102
RTVSPost2010Prop51ColorRGB
 90
-16777216
102
RTVSPost2010PropOp51
 70
     0
102
RTVSPost2010Prop52
140
1.0
102
RTVSPost2010PropOp52
 70
     0
102
RTVSPost2010Prop53
 90
        2
102
RTVSPost2010PropOp53
 70
     1
102
RTVSPost2010Prop54
  1
strokes_ogs.tif
102
RTVSPost2010PropOp54
 70
     1
102
RTVSPost2010Prop55
280
     0
102
RTVSPost2010PropOp55
 70
     1
102
RTVSPost2010Prop56
140
1.0
102
RTVSPost2010PropOp56
 70
     1
102
RTVSPost2010Prop57
140
1.0
102
RTVSPost2010PropOp57
 70
     1
  0
XRECORD
  5
152
102
{ACAD_REACTORS
330
151
102
}
330
151
100
AcDbXrecord
280
     1
102
RTVSPost2010Prop28
280
     0
102
RTVSPost2010PropOp28
 70
     1
102
RTVSPost2010Prop29
280
     1
102
RTVSPost2010PropOp29
 70
     1
102
RTVSPost2010Prop30
280
     1
102
RTVSPost2010PropOp30
 70
     1
102
RTVSPost2010Prop31
280
     0
102
RTVSPost2010PropOp31
 70
     1
102
RTVSPost2010Prop32
280
     0
102
RTVSPost2010PropOp32
 70
     1
102
RTVSPost2010Prop33
280
     0
102
RTVSPost2010PropOp33
 70
     1
102
RTVSPost2010Prop34
280
     0
102
RTVSPost2010PropOp34
 70
     1
102
RTVSPost2010Prop35
280
     0
102
RTVSPost2010PropOp35
 70
     1
102
RTVSPost2010Prop36
280
     0
102
RTVSPost2010PropOp36
 70
     1
102
RTVSPost2010Prop37
 90
       50
102
RTVSPost2010PropOp37
 70
     1
102
RTVSPost2010Prop38
140
0.0
102
RTVSPost2010PropOp38
 70
     1
102
RTVSPost2010Prop39
140
1.0
102
RTVSPost2010PropOp39
 70
     1
102
RTVSPost2010Prop40
 90
        0
102
RTVSPost2010PropOp40
 70
     1
102
RTVSPost2010Prop41ColorIndex
 90
       18
102
RTVSPost2010Prop41ColorRGB
 90
        0
102
RTVSPost2010PropOp41
 70
     1
102
RTVSPost2010Prop42
 90
       50
102
RTVSPost2010PropOp42
 70
     1
102
RTVSPost2010Prop43
 90
        3
102
RTVSPost2010PropOp43
 70
     1
102
RTVSPost2010Prop44ColorIndex
 90
        5
102
RTVSPost2010Prop44ColorRGB
 90
      255
102
RTVSPost2010PropOp44
 70
     1
102
RTVSPost2010Prop45
280
     0
102
RTVSPost2010PropOp45
 70
     1
102
RTVSPost2010Prop46
 90
       50
102
RTVSPost2010PropOp46
 70
     1
102
RTVSPost2010Prop47
 90
       50
102
RTVSPost2010PropOp47
 70
     1
102
RTVSPost2010Prop48
 90
       50
102
RTVSPost2010PropOp48
 70
     1
102
RTVSPost2010Prop49
280
     0
102
RTVSPost2010PropOp49
 70
     1
102
RTVSPost2010Prop50
 90
       50
102
RTVSPost2010PropOp50
 70
     1
102
RTVSPost2010Prop51ColorIndex
 90
      256
102
RTVSPost2010Prop51ColorRGB
 90
-16777216
102
RTVSPost2010PropOp51
 70
     0
102
RTVSPost2010Prop52
140
1.0
102
RTVSPost2010PropOp52
 70
     0
102
RTVSPost2010Prop53
 90
        2
102
RTVSPost2010PropOp53
 70
     1
102
RTVSPost2010Prop54
  1
strokes_ogs.tif
102
RTVSPost2010PropOp54
 70
     1
102
RTVSPost2010Prop55
280
     0
102
RTVSPost2010PropOp55
 70
     1
102
RTVSPost2010Prop56
140
1.0
102
RTVSPost2010PropOp56
 70
     1
102
RTVSPost2010Prop57
140
1.0
102
RTVSPost2010PropOp57
 70
     1
  0
XRECORD
  5
154
102
{ACAD_REACTORS
330
153
102
}
330
153
100
AcDbXrecord
280
     1
102
RTVSPost2010Prop28
280
     0
102
RTVSPost2010PropOp28
 70
     1
102
RTVSPost2010Prop29
280
     1
102
RTVSPost2010PropOp29
 70
     1
102
RTVSPost2010Prop30
280
     1
102
RTVSPost2010PropOp30
 70
     1
102
RTVSPost2010Prop31
280
     0
102
RTVSPost2010PropOp31
 70
     1
102
RTVSPost2010Prop32
280
     0
102
RTVSPost2010PropOp32
 70
     1
102
RTVSPost2010Prop33
280
     0
102
RTVSPost2010PropOp33
 70
     1
102
RTVSPost2010Prop34
280
     0
102
RTVSPost2010PropOp34
 70
     1
102
RTVSPost2010Prop35
280
     0
102
RTVSPost2010PropOp35
 70
     1
102
RTVSPost2010Prop36
280
     0
102
RTVSPost2010PropOp36
 70
     1
102
RTVSPost2010Prop37
 90
       50
102
RTVSPost2010PropOp37
 70
     1
102
RTVSPost2010Prop38
140
0.0
102
RTVSPost2010PropOp38
 70
     1
102
RTVSPost2010Prop39
140
1.0
102
RTVSPost2010PropOp39
 70
     1
102
RTVSPost2010Prop40
 90
        0
102
RTVSPost2010PropOp40
 70
     1
102
RTVSPost2010Prop41ColorIndex
 90
       18
102
RTVSPost2010Prop41ColorRGB
 90
        0
102
RTVSPost2010PropOp41
 70
     1
102
RTVSPost2010Prop42
 90
       50
102
RTVSPost2010PropOp42
 70
     1
102
RTVSPost2010Prop43
 90
        3
102
RTVSPost2010PropOp43
 70
     1
102
RTVSPost2010Prop44ColorIndex
 90
        5
102
RTVSPost2010Prop44ColorRGB
 90
      255
102
RTVSPost2010PropOp44
 70
     1
102
RTVSPost2010Prop45
280
     0
102
RTVSPost2010PropOp45
 70
     1
102
RTVSPost2010Prop46
 90
       50
102
RTVSPost2010PropOp46
 70
     1
102
RTVSPost2010Prop47
 90
       50
102
RTVSPost2010PropOp47
 70
     1
102
RTVSPost2010Prop48
 90
       50
102
RTVSPost2010PropOp48
 70
     1
102
RTVSPost2010Prop49
280
     0
102
RTVSPost2010PropOp49
 70
     1
102
RTVSPost2010Prop50
 90
       50
102
RTVSPost2010PropOp50
 70
     1
102
RTVSPost2010Prop51ColorIndex
 90
      256
102
RTVSPost2010Prop51ColorRGB
 90
-16777216
102
RTVSPost2010PropOp51
 70
     0
102
RTVSPost2010Prop52
140
1.0
102
RTVSPost2010PropOp52
 70
     0
102
RTVSPost2010Prop53
 90
        2
102
RTVSPost2010PropOp53
 70
     1
102
RTVSPost2010Prop54
  1
strokes_ogs.tif
102
RTVSPost2010PropOp54
 70
     1
102
RTVSPost2010Prop55
280
     0
102
RTVSPost2010PropOp55
 70
     1
102
RTVSPost2010Prop56
140
1.0
102
RTVSPost2010PropOp56
 70
     1
102
RTVSPost2010Prop57
140
1.0
102
RTVSPost2010PropOp57
 70
     1
  0
XRECORD
  5
14A
102
{ACAD_REACTORS
330
149
102
}
330
149
100
AcDbXrecord
280
     1
102
RTVSPost2010Prop28
280
     0
102
RTVSPost2010PropOp28
 70
     1
102
RTVSPost2010Prop29
280
     1
102
RTVSPost2010PropOp29
 70
     1
102
RTVSPost2010Prop30
280
     1
102
RTVSPost2010PropOp30
 70
     1
102
RTVSPost2010Prop31
280
     0
102
RTVSPost2010PropOp31
 70
     1
102
RTVSPost2010Prop32
280
     0
102
RTVSPost2010PropOp32
 70
     1
102
RTVSPost2010Prop33
280
     0
102
RTVSPost2010PropOp33
 70
     1
102
RTVSPost2010Prop34
280
     0
102
RTVSPost2010PropOp34
 70
     1
102
RTVSPost2010Prop35
280
     0
102
RTVSPost2010PropOp35
 70
     1
102
RTVSPost2010Prop36
280
     0
102
RTVSPost2010PropOp36
 70
     1
102
RTVSPost2010Prop37
 90
       50
102
RTVSPost2010PropOp37
 70
     1
102
RTVSPost2010Prop38
140
0.0
102
RTVSPost2010PropOp38
 70
     1
102
RTVSPost2010Prop39
140
1.0
102
RTVSPost2010PropOp39
 70
     1
102
RTVSPost2010Prop40
 90
        0
102
RTVSPost2010PropOp40
 70
     1
102
RTVSPost2010Prop41ColorIndex
 90
       18
102
RTVSPost2010Prop41ColorRGB
 90
        0
102
RTVSPost2010PropOp41
 70
     1
102
RTVSPost2010Prop42
 90
       50
102
RTVSPost2010PropOp42
 70
     1
102
RTVSPost2010Prop43
 90
        3
102
RTVSPost2010PropOp43
 70
     1
102
RTVSPost2010Prop44ColorIndex
 90
        5
102
RTVSPost2010Prop44ColorRGB
 90
      255
102
RTVSPost2010PropOp44
 70
     1
102
RTVSPost2010Prop45
280
     0
102
RTVSPost2010PropOp45
 70
     1
102
RTVSPost2010Prop46
 90
       50
102
RTVSPost2010PropOp46
 70
     1
102
RTVSPost2010Prop47
 90
       50
102
RTVSPost2010PropOp47
 70
     1
102
RTVSPost2010Prop48
 90
       50
102
RTVSPost2010PropOp48
 70
     1
102
RTVSPost2010Prop49
280
     0
102
RTVSPost2010PropOp49
 70
     1
102
RTVSPost2010Prop50
 90
       50
102
RTVSPost2010PropOp50
 70
     1
102
RTVSPost2010Prop51ColorIndex
 90
      256
102
RTVSPost2010Prop51ColorRGB
 90
-16777216
102
RTVSPost2010PropOp51
 70
     0
102
RTVSPost2010Prop52
140
1.0
102
RTVSPost2010PropOp52
 70
     0
102
RTVSPost2010Prop53
 90
        2
102
RTVSPost2010PropOp53
 70
     1
102
RTVSPost2010Prop54
  1
strokes_ogs.tif
102
RTVSPost2010PropOp54
 70
     1
102
RTVSPost2010Prop55
280
     0
102
RTVSPost2010PropOp55
 70
     1
102
RTVSPost2010Prop56
140
1.0
102
RTVSPost2010PropOp56
 70
     1
102
RTVSPost2010Prop57
140
1.0
102
RTVSPost2010PropOp57
 70
     1
  0
XRECORD
  5
13E
102
{ACAD_REACTORS
330
13D
102
}
330
13D
100
AcDbXrecord
280
     1
102
RTVSPost2010Prop28
280
     0
102
RTVSPost2010PropOp28
 70
     1
102
RTVSPost2010Prop29
280
     1
102
RTVSPost2010PropOp29
 70
     1
102
RTVSPost2010Prop30
280
     1
102
RTVSPost2010PropOp30
 70
     1
102
RTVSPost2010Prop31
280
     0
102
RTVSPost2010PropOp31
 70
     1
102
RTVSPost2010Prop32
280
     0
102
RTVSPost2010PropOp32
 70
     1
102
RTVSPost2010Prop33
280
     0
102
RTVSPost2010PropOp33
 70
     1
102
RTVSPost2010Prop34
280
     0
102
RTVSPost2010PropOp34
 70
     1
102
RTVSPost2010Prop35
280
     0
102
RTVSPost2010PropOp35
 70
     1
102
RTVSPost2010Prop36
280
     0
102
RTVSPost2010PropOp36
 70
     1
102
RTVSPost2010Prop37
 90
       50
102
RTVSPost2010PropOp37
 70
     1
102
RTVSPost2010Prop38
140
0.0
102
RTVSPost2010PropOp38
 70
     1
102
RTVSPost2010Prop39
140
1.0
102
RTVSPost2010PropOp39
 70
     1
102
RTVSPost2010Prop40
 90
        0
102
RTVSPost2010PropOp40
 70
     1
102
RTVSPost2010Prop41ColorIndex
 90
       18
102
RTVSPost2010Prop41ColorRGB
 90
        0
102
RTVSPost2010PropOp41
 70
     1
102
RTVSPost2010Prop42
 90
       50
102
RTVSPost2010PropOp42
 70
     1
102
RTVSPost2010Prop43
 90
        3
102
RTVSPost2010PropOp43
 70
     1
102
RTVSPost2010Prop44ColorIndex
 90
        5
102
RTVSPost2010Prop44ColorRGB
 90
      255
102
RTVSPost2010PropOp44
 70
     1
102
RTVSPost2010Prop45
280
     0
102
RTVSPost2010PropOp45
 70
     1
102
RTVSPost2010Prop46
 90
       50
102
RTVSPost2010PropOp46
 70
     1
102
RTVSPost2010Prop47
 90
       50
102
RTVSPost2010PropOp47
 70
     1
102
RTVSPost2010Prop48
 90
       50
102
RTVSPost2010PropOp48
 70
     1
102
RTVSPost2010Prop49
280
     0
102
RTVSPost2010PropOp49
 70
     1
102
RTVSPost2010Prop50
 90
       50
102
RTVSPost2010PropOp50
 70
     1
102
RTVSPost2010Prop51ColorIndex
 90
      256
102
RTVSPost2010Prop51ColorRGB
 90
-16777216
102
RTVSPost2010PropOp51
 70
     0
102
RTVSPost2010Prop52
140
1.0
102
RTVSPost2010PropOp52
 70
     0
102
RTVSPost2010Prop53
 90
        2
102
RTVSPost2010PropOp53
 70
     1
102
RTVSPost2010Prop54
  1
strokes_ogs.tif
102
RTVSPost2010PropOp54
 70
     1
102
RTVSPost2010Prop55
280
     0
102
RTVSPost2010PropOp55
 70
     1
102
RTVSPost2010Prop56
140
1.0
102
RTVSPost2010PropOp56
 70
     1
102
RTVSPost2010Prop57
140
1.0
102
RTVSPost2010PropOp57
 70
     1
  0
XRECORD
  5
156
102
{ACAD_REACTORS
330
155
102
}
330
155
100
AcDbXrecord
280
     1
102
RTVSPost2010Prop28
280
     0
102
RTVSPost2010PropOp28
 70
     1
102
RTVSPost2010Prop29
280
     1
102
RTVSPost2010PropOp29
 70
     1
102
RTVSPost2010Prop30
280
     1
102
RTVSPost2010PropOp30
 70
     1
102
RTVSPost2010Prop31
280
     0
102
RTVSPost2010PropOp31
 70
     1
102
RTVSPost2010Prop32
280
     0
102
RTVSPost2010PropOp32
 70
     1
102
RTVSPost2010Prop33
280
     0
102
RTVSPost2010PropOp33
 70
     1
102
RTVSPost2010Prop34
280
     0
102
RTVSPost2010PropOp34
 70
     1
102
RTVSPost2010Prop35
280
     0
102
RTVSPost2010PropOp35
 70
     1
102
RTVSPost2010Prop36
280
     0
102
RTVSPost2010PropOp36
 70
     1
102
RTVSPost2010Prop37
 90
       50
102
RTVSPost2010PropOp37
 70
     1
102
RTVSPost2010Prop38
140
0.0
102
RTVSPost2010PropOp38
 70
     1
102
RTVSPost2010Prop39
140
1.0
102
RTVSPost2010PropOp39
 70
     1
102
RTVSPost2010Prop40
 90
        0
102
RTVSPost2010PropOp40
 70
     1
102
RTVSPost2010Prop41ColorIndex
 90
       18
102
RTVSPost2010Prop41ColorRGB
 90
        0
102
RTVSPost2010PropOp41
 70
     1
102
RTVSPost2010Prop42
 90
       50
102
RTVSPost2010PropOp42
 70
     1
102
RTVSPost2010Prop43
 90
        3
102
RTVSPost2010PropOp43
 70
     1
102
RTVSPost2010Prop44ColorIndex
 90
        5
102
RTVSPost2010Prop44ColorRGB
 90
      255
102
RTVSPost2010PropOp44
 70
     1
102
RTVSPost2010Prop45
280
     0
102
RTVSPost2010PropOp45
 70
     1
102
RTVSPost2010Prop46
 90
       50
102
RTVSPost2010PropOp46
 70
     1
102
RTVSPost2010Prop47
 90
       50
102
RTVSPost2010PropOp47
 70
     1
102
RTVSPost2010Prop48
 90
       50
102
RTVSPost2010PropOp48
 70
     1
102
RTVSPost2010Prop49
280
     0
102
RTVSPost2010PropOp49
 70
     1
102
RTVSPost2010Prop50
 90
       50
102
RTVSPost2010PropOp50
 70
     1
102
RTVSPost2010Prop51ColorIndex
 90
      256
102
RTVSPost2010Prop51ColorRGB
 90
-16777216
102
RTVSPost2010PropOp51
 70
     0
102
RTVSPost2010Prop52
140
1.0
102
RTVSPost2010PropOp52
 70
     0
102
RTVSPost2010Prop53
 90
        2
102
RTVSPost2010PropOp53
 70
     1
102
RTVSPost2010Prop54
  1
strokes_ogs.tif
102
RTVSPost2010PropOp54
 70
     1
102
RTVSPost2010Prop55
280
     0
102
RTVSPost2010PropOp55
 70
     1
102
RTVSPost2010Prop56
140
1.0
102
RTVSPost2010PropOp56
 70
     1
102
RTVSPost2010Prop57
140
1.0
102
RTVSPost2010PropOp57
 70
     1
  0
ENDSEC
  0
EOF
