  0
SECTION
  2
HEADER
  9
$ACADVER
  1
AC1024
  9
$ACADMAINTVER
 70
   226
  9
$DWGCODEPAGE
  3
ANSI_932
  9
$INSBASE
 10
0.0
 20
0.0
 30
0.0
  9
$EXTMIN
 10
1.000000000000000E+20
 20
1.000000000000000E+20
 30
1.000000000000000E+20
  9
$EXTMAX
 10
-1.000000000000000E+20
 20
-1.000000000000000E+20
 30
-1.000000000000000E+20
  9
$LIMMIN
 10
0.0
 20
0.0
  9
$LIMMAX
 10
12.0
 20
9.0
  9
$ORTHOMODE
 70
     0
  9
$REGENMODE
 70
     1
  9
$FILLMODE
 70
     1
  9
$QTEXTMODE
 70
     0
  9
$MIRRTEXT
 70
     0
  9
$LTSCALE
 40
1.0
  9
$ATTMODE
 70
     1
  9
$TEXTSIZE
 40
0.2
  9
$TRACEWID
 40
0.05
  9
$TEXTSTYLE
  7
Standard
  9
$CLAYER
  8
0
  9
$CELTYPE
  6
ByLayer
  9
$CECOLOR
 62
   256
  9
$CELTSCALE
 40
1.0
  9
$DISPSILH
 70
     0
  9
$DIMSCALE
 40
1.0
  9
$DIMASZ
 40
0.18
  9
$DIMEXO
 40
0.0625
  9
$DIMDLI
 40
0.38
  9
$DIMRND
 40
0.0
  9
$DIMDLE
 40
0.0
  9
$DIMEXE
 40
0.18
  9
$DIMTP
 40
0.0
  9
$DIMTM
 40
0.0
  9
$DIMTXT
 40
0.18
  9
$DIMCEN
 40
0.09
  9
$DIMTSZ
 40
0.0
  9
$DIMTOL
 70
     0
  9
$DIMLIM
 70
     0
  9
$DIMTIH
 70
     1
  9
$DIMTOH
 70
     1
  9
$DIMSE1
 70
     0
  9
$DIMSE2
 70
     0
  9
$DIMTAD
 70
     0
  9
$DIMZIN
 70
     0
  9
$DIMBLK
  1

  9
$DIMASO
 70
     1
  9
$DIMSHO
 70
     1
  9
$DIMPOST
  1

  9
$DIMAPOST
  1

  9
$DIMALT
 70
     0
  9
$DIMALTD
 70
     2
  9
$DIMALTF
 40
25.4
  9
$DIMLFAC
 40
1.0
  9
$DIMTOFL
 70
     0
  9
$DIMTVP
 40
0.0
  9
$DIMTIX
 70
     0
  9
$DIMSOXD
 70
     0
  9
$DIMSAH
 70
     0
  9
$DIMBLK1
  1

  9
$DIMBLK2
  1

  9
$DIMSTYLE
  2
Standard
  9
$DIMCLRD
 70
     0
  9
$DIMCLRE
 70
     0
  9
$DIMCLRT
 70
     0
  9
$DIMTFAC
 40
1.0
  9
$DIMGAP
 40
0.09
  9
$DIMJUST
 70
     0
  9
$DIMSD1
 70
     0
  9
$DIMSD2
 70
     0
  9
$DIMTOLJ
 70
     1
  9
$DIMTZIN
 70
     0
  9
$DIMALTZ
 70
     0
  9
$DIMALTTZ
 70
     0
  9
$DIMUPT
 70
     0
  9
$DIMDEC
 70
     4
  9
$DIMTDEC
 70
     4
  9
$DIMALTU
 70
     2
  9
$DIMALTTD
 70
     2
  9
$DIMTXSTY
  7
Standard
  9
$DIMAUNIT
 70
     0
  9
$DIMADEC
 70
     0
  9
$DIMALTRND
 40
0.0
  9
$DIMAZIN
 70
     0
  9
$DIMDSEP
 70
    46
  9
$DIMATFIT
 70
     3
  9
$DIMFRAC
 70
     0
  9
$DIMLDRBLK
  1

  9
$DIMLUNIT
 70
     2
  9
$DIMLWD
 70
    -2
  9
$DIMLWE
 70
    -2
  9
$DIMTMOVE
 70
     0
  9
$DIMFXL
 40
1.0
  9
$DIMFXLON
 70
     0
  9
$DIMJOGANG
 40
0.7853981633974483
  9
$DIMTFILL
 70
     0
  9
$DIMTFILLCLR
 70
     0
  9
$DIMARCSYM
 70
     0
  9
$DIMLTYPE
  6

  9
$DIMLTEX1
  6

  9
$DIMLTEX2
  6

  9
$DIMTXTDIRECTION
 70
     0
  9
$LUNITS
 70
     2
  9
$LUPREC
 70
     4
  9
$SKETCHINC
 40
0.1
  9
$FILLETRAD
 40
0.0
  9
$AUNITS
 70
     0
  9
$AUPREC
 70
     0
  9
$MENU
  1
.
  9
$ELEVATION
 40
0.0
  9
$PELEVATION
 40
0.0
  9
$THICKNESS
 40
0.0
  9
$LIMCHECK
 70
     0
  9
$CHAMFERA
 40
0.0
  9
$CHAMFERB
 40
0.0
  9
$CHAMFERC
 40
0.0
  9
$CHAMFERD
 40
0.0
  9
$SKPOLY
 70
     0
  9
$TDCREATE
 40
2459569.502592592
  9
$TDUCREATE
 40
2459569.127592593
  9
$TDUPDATE
 40
2459569.502592592
  9
$TDUUPDATE
 40
2459569.127592593
  9
$TDINDWG
 40
0.0000000000
  9
$TDUSRTIMER
 40
0.0000000000
  9
$USRTIMER
 70
     1
  9
$ANGBASE
 50
0.0
  9
$ANGDIR
 70
     0
  9
$PDMODE
 70
     0
  9
$PDSIZE
 40
0.0
  9
$PLINEWID
 40
0.0
  9
$SPLFRAME
 70
     0
  9
$SPLINETYPE
 70
     6
  9
$SPLINESEGS
 70
     8
  9
$HANDSEED
  5
162
  9
$SURFTAB1
 70
     6
  9
$SURFTAB2
 70
     6
  9
$SURFTYPE
 70
     6
  9
$SURFU
 70
     6
  9
$SURFV
 70
     6
  9
$UCSBASE
  2

  9
$UCSNAME
  2

  9
$UCSORG
 10
0.0
 20
0.0
 30
0.0
  9
$UCSXDIR
 10
1.0
 20
0.0
 30
0.0
  9
$UCSYDIR
 10
0.0
 20
1.0
 30
0.0
  9
$UCSORTHOREF
  2

  9
$UCSORTHOVIEW
 70
     0
  9
$UCSORGTOP
 10
0.0
 20
0.0
 30
0.0
  9
$UCSORGBOTTOM
 10
0.0
 20
0.0
 30
0.0
  9
$UCSORGLEFT
 10
0.0
 20
0.0
 30
0.0
  9
$UCSORGRIGHT
 10
0.0
 20
0.0
 30
0.0
  9
$UCSORGFRONT
 10
0.0
 20
0.0
 30
0.0
  9
$UCSORGBACK
 10
0.0
 20
0.0
 30
0.0
  9
$PUCSBASE
  2

  9
$PUCSNAME
  2

  9
$PUCSORG
 10
0.0
 20
0.0
 30
0.0
  9
$PUCSXDIR
 10
1.0
 20
0.0
 30
0.0
  9
$PUCSYDIR
 10
0.0
 20
1.0
 30
0.0
  9
$PUCSORTHOREF
  2

  9
$PUCSORTHOVIEW
 70
     0
  9
$PUCSORGTOP
 10
0.0
 20
0.0
 30
0.0
  9
$PUCSORGBOTTOM
 10
0.0
 20
0.0
 30
0.0
  9
$PUCSORGLEFT
 10
0.0
 20
0.0
 30
0.0
  9
$PUCSORGRIGHT
 10
0.0
 20
0.0
 30
0.0
  9
$PUCSORGFRONT
 10
0.0
 20
0.0
 30
0.0
  9
$PUCSORGBACK
 10
0.0
 20
0.0
 30
0.0
  9
$USERI1
 70
     0
  9
$USERI2
 70
     0
  9
$USERI3
 70
     0
  9
$USERI4
 70
     0
  9
$USERI5
 70
     0
  9
$USERR1
 40
0.0
  9
$USERR2
 40
0.0
  9
$USERR3
 40
0.0
  9
$USERR4
 40
0.0
  9
$USERR5
 40
0.0
  9
$WORLDVIEW
 70
     1
  9
$SHADEDGE
 70
     3
  9
$SHADEDIF
 70
    70
  9
$TILEMODE
 70
     1
  9
$MAXACTVP
 70
    64
  9
$PINSBASE
 10
0.0
 20
0.0
 30
0.0
  9
$PLIMCHECK
 70
     0
  9
$PEXTMIN
 10
1.000000000000000E+20
 20
1.000000000000000E+20
 30
1.000000000000000E+20
  9
$PEXTMAX
 10
-1.000000000000000E+20
 20
-1.000000000000000E+20
 30
-1.000000000000000E+20
  9
$PLIMMIN
 10
0.0
 20
0.0
  9
$PLIMMAX
 10
12.0
 20
9.0
  9
$UNITMODE
 70
     0
  9
$VISRETAIN
 70
     1
  9
$PLINEGEN
 70
     0
  9
$PSLTSCALE
 70
     1
  9
$TREEDEPTH
 70
  3020
  9
$CMLSTYLE
  2
Standard
  9
$CMLJUST
 70
     0
  9
$CMLSCALE
 40
1.0
  9
$PROXYGRAPHICS
 70
     1
  9
$MEASUREMENT
 70
     0
  9
$CELWEIGHT
370
    -1
  9
$ENDCAPS
280
     0
  9
$JOINSTYLE
280
     0
  9
$LWDISPLAY
290
     1
  9
$INSUNITS
 70
     4
  9
$HYPERLINKBASE
  1

  9
$STYLESHEET
  1

  9
$XEDIT
290
     1
  9
$CEPSNTYPE
380
     0
  9
$PSTYLEMODE
290
     1
  9
$FINGERPRINTGUID
  2
{B2AEC7A5-EAAC-4546-A622-6FEE6369FBDC}
  9
$VERSIONGUID
  2
{BEC280EA-6BA5-254B-A4FA-10D657237235}
  9
$EXTNAMES
290
     1
  9
$PSVPSCALE
 40
0.0
  9
$OLESTARTUP
290
     0
  9
$SORTENTS
280
   127
  9
$INDEXCTL
280
     0
  9
$HIDETEXT
280
     1
  9
$XCLIPFRAME
280
     2
  9
$HALOGAP
280
     0
  9
$OBSCOLOR
 70
   257
  9
$OBSLTYPE
280
     0
  9
$INTERSECTIONDISPLAY
280
     0
  9
$INTERSECTIONCOLOR
 70
   257
  9
$DIMASSOC
280
     2
  9
$PROJECTNAME
  1

  9
$CAMERADISPLAY
290
     0
  9
$LENSLENGTH
 40
50.0
  9
$CAMERAHEIGHT
 40
0.0
  9
$STEPSPERSEC
 40
2.0
  9
$STEPSIZE
 40
6.0
  9
$3DDWFPREC
 40
2.0
  9
$PSOLWIDTH
 40
0.25
  9
$PSOLHEIGHT
 40
4.0
  9
$LOFTANG1
 40
1.570796326794896
  9
$LOFTANG2
 40
1.570796326794896
  9
$LOFTMAG1
 40
0.0
  9
$LOFTMAG2
 40
0.0
  9
$LOFTPARAM
 70
     7
  9
$LOFTNORMALS
280
     1
  9
$LATITUDE
 40
37.795
  9
$LONGITUDE
 40
-122.394
  9
$NORTHDIRECTION
 40
0.0
  9
$TIMEZONE
 70
 -8000
  9
$LIGHTGLYPHDISPLAY
280
     1
  9
$TILEMODELIGHTSYNCH
280
     1
  9
$CMATERIAL
347
11
  9
$SOLIDHIST
280
     0
  9
$SHOWHIST
280
     1
  9
$DWFFRAME
280
     2
  9
$DGNFRAME
280
     0
  9
$REALWORLDSCALE
290
     1
  9
$INTERFERECOLOR
 62
     1
  9
$INTERFEREOBJVS
345
33
  9
$INTERFEREVPVS
346
30
  9
$CSHADOW
280
     0
  9
$SHADOWPLANELOCATION
 40
0.0
  0
ENDSEC
  0
SECTION
  2
CLASSES
  0
CLASS
  1
ACDBDICTIONARYWDFLT
  2
AcDbDictionaryWithDefault
  3
ObjectDBX Classes
 90
        0
 91
        1
280
     0
281
     0
  0
CLASS
  1
MATERIAL
  2
AcDbMaterial
  3
ObjectDBX Classes
 90
     1153
 91
        3
280
     0
281
     0
  0
CLASS
  1
VISUALSTYLE
  2
AcDbVisualStyle
  3
ObjectDBX Classes
 90
     4095
 91
       24
280
     0
281
     0
  0
CLASS
  1
SCALE
  2
AcDbScale
  3
ObjectDBX Classes
 90
     1153
 91
       17
280
     0
281
     0
  0
CLASS
  1
TABLESTYLE
  2
AcDbTableStyle
  3
ObjectDBX Classes
 90
     4095
 91
        1
280
     0
281
     0
  0
CLASS
  1
MLEADERSTYLE
  2
AcDbMLeaderStyle
  3
ACDB_MLEADERSTYLE_CLASS
 90
     4095
 91
        1
280
     0
281
     0
  0
CLASS
  1
ACDBSECTIONVIEWSTYLE
  2
AcDbSectionViewStyle
  3
ObjectDBX Classes
 90
     1025
 91
        1
280
     0
281
     0
  0
CLASS
  1
ACDBDETAILVIEWSTYLE
  2
AcDbDetailViewStyle
  3
ObjectDBX Classes
 90
     1025
 91
        1
280
     0
281
     0
  0
CLASS
  1
DICTIONARYVAR
  2
AcDbDictionaryVar
  3
ObjectDBX Classes
 90
        0
 91
        5
280
     0
281
     0
  0
CLASS
  1
CELLSTYLEMAP
  2
AcDbCellStyleMap
  3
ObjectDBX Classes
 90
     1152
 91
        1
280
     0
281
     0
  0
ENDSEC
  0
SECTION
  2
TABLES
  0
TABLE
  2
VPORT
  5
8
330
0
100
AcDbSymbolTable
 70
     1
  0
VPORT
  5
57
330
8
100
AcDbSymbolTableRecord
100
AcDbViewportTableRecord
  2
*Active
 70
     0
 10
0.0
 20
0.0
 11
1.0
 21
1.0
 12
0.0
 22
0.0
 13
0.0
 23
0.0
 14
1.0
 24
1.0
 15
0.0
 25
0.0
 16
0.0
 26
0.0
 36
1.0
 17
104.9999999737534
 27
-148.4999999628701
 37
0.0
 40
302.939999924255
 41
0.7070707070707534
 42
50.0
 43
0.0
 44
0.0
 50
0.0
 51
0.0
 71
     0
 72
   100
 73
     1
 74
     0
 75
     1
 76
     0
 77
     0
 78
     0
281
     0
 65
     1
110
0.0
120
0.0
130
0.0
111
1.0
121
0.0
131
0.0
112
0.0
122
1.0
132
0.0
 79
     0
146
0.0
 60
     3
 61
     5
292
     1
282
     1
141
0.0
142
0.0
 63
   250
421
  3355443
  0
ENDTAB
  0
TABLE
  2
LTYPE
  5
5
330
0
100
AcDbSymbolTable
 70
     3
  0
LTYPE
  5
5B
330
5
100
AcDbSymbolTableRecord
100
AcDbLinetypeTableRecord
  2
ByBlock
 70
     0
  3

 72
    65
 73
     0
 40
0.0
  0
LTYPE
  5
5C
330
5
100
AcDbSymbolTableRecord
100
AcDbLinetypeTableRecord
  2
ByLayer
 70
     0
  3

 72
    65
 73
     0
 40
0.0
  0
LTYPE
  5
5D
330
5
100
AcDbSymbolTableRecord
100
AcDbLinetypeTableRecord
  2
Continuous
 70
     0
  3
Solid line
 72
    65
 73
     0
 40
0.0
  0
LTYPE
  5
82
330
5
100
AcDbSymbolTableRecord
100
AcDbLinetypeTableRecord
  2
AI-Linetype-0
 70
     0
  3
Adobe Illustrator Linetype No. 0
 72
    65
 73
     2
 40
1.411111110758333
 49
0.7055555553791667
 74
     0
 49
-0.7055555553791667
 74
     0
  0
LTYPE
  5
84
330
5
100
AcDbSymbolTableRecord
100
AcDbLinetypeTableRecord
  2
AI-Linetype-1
 70
     0
  3
Adobe Illustrator Linetype No. 1
 72
    65
 73
     2
 40
1.411111110758333
 49
0.7055555553791667
 74
     0
 49
-0.7055555553791667
 74
     0
  0
ENDTAB
  0
TABLE
  2
LAYER
  5
2
330
0
100
AcDbSymbolTable
 70
     2
  0
LAYER
  5
54
330
2
100
AcDbSymbolTableRecord
100
AcDbLayerTableRecord
  2
0
 70
     0
 62
     7
  6
Continuous
370
    -3
390
F
347
21
  0
LAYER
  5
78
330
2
100
AcDbSymbolTableRecord
100
AcDbLayerTableRecord
  2
レイヤー 1
 70
     0
 62
     7
  6
Continuous
370
     0
390
F
347
21
  0
ENDTAB
  0
TABLE
  2
STYLE
  5
3
330
0
100
AcDbSymbolTable
 70
     2
  0
STYLE
  5
55
330
3
100
AcDbSymbolTableRecord
100
AcDbTextStyleTableRecord
  2
Standard
 70
     0
 40
0.0
 41
1.0
 50
0.0
 71
     0
 42
0.2
  3
txt
  4

  0
STYLE
  5
5A
330
3
100
AcDbSymbolTableRecord
100
AcDbTextStyleTableRecord
  2
Annotative
 70
     0
 40
0.0
 41
1.0
 50
0.0
 71
     0
 42
0.2
  3
txt
  4

1001
AcadAnnotative
1000
AnnotativeData
1002
{
1070
     1
1070
     1
1002
}
  0
ENDTAB
  0
TABLE
  2
VIEW
  5
6
330
0
100
AcDbSymbolTable
 70
     0
  0
ENDTAB
  0
TABLE
  2
UCS
  5
7
330
0
100
AcDbSymbolTable
 70
     0
  0
ENDTAB
  0
TABLE
  2
APPID
  5
9
330
0
100
AcDbSymbolTable
 70
     2
  0
APPID
  5
56
330
9
100
AcDbSymbolTableRecord
100
AcDbRegAppTableRecord
  2
ACAD
 70
     0
  0
APPID
  5
5E
330
9
100
AcDbSymbolTableRecord
100
AcDbRegAppTableRecord
  2
AcadAnnotative
 70
     0
  0
ENDTAB
  0
TABLE
  2
DIMSTYLE
  5
A
330
0
100
AcDbSymbolTable
 70
     2
100
AcDbDimStyleTable
 71
     0
  0
DIMSTYLE
105
58
330
A
100
AcDbSymbolTableRecord
100
AcDbDimStyleTableRecord
  2
Standard
 70
     0
340
55
  0
DIMSTYLE
105
59
330
A
100
AcDbSymbolTableRecord
100
AcDbDimStyleTableRecord
  2
Annotative
 70
     0
340
55
1001
AcadAnnotative
1000
AnnotativeData
1002
{
1070
     1
1070
     1
1002
}
  0
ENDTAB
  0
TABLE
  2
BLOCK_RECORD
  5
1
330
0
100
AcDbSymbolTable
 70
    20
  0
BLOCK_RECORD
  5
70
330
1
100
AcDbSymbolTableRecord
100
AcDbBlockTableRecord
  2
*Model_Space
340
73
 70
     0
280
     1
281
     0
  0
BLOCK_RECORD
  5
6C
330
1
100
AcDbSymbolTableRecord
100
AcDbBlockTableRecord
  2
*Paper_Space
340
6F
 70
     0
280
     1
281
     0
  0
BLOCK_RECORD
  5
74
330
1
100
AcDbSymbolTableRecord
100
AcDbBlockTableRecord
  2
*Paper_Space0
340
77
 70
     0
280
     1
281
     0
  0
BLOCK_RECORD
  5
8D
330
1
100
AcDbSymbolTableRecord
100
AcDbBlockTableRecord
  2
Block_0
340
0
102
{BLKREFS
331
8E
102
}
 70
     0
280
     1
281
     0
  0
BLOCK_RECORD
  5
93
330
1
100
AcDbSymbolTableRecord
100
AcDbBlockTableRecord
  2
Block_1
340
0
102
{BLKREFS
331
94
102
}
 70
     0
280
     1
281
     0
  0
BLOCK_RECORD
  5
97
330
1
100
AcDbSymbolTableRecord
100
AcDbBlockTableRecord
  2
Block_2
340
0
102
{BLKREFS
331
98
102
}
 70
     0
280
     1
281
     0
  0
BLOCK_RECORD
  5
9F
330
1
100
AcDbSymbolTableRecord
100
AcDbBlockTableRecord
  2
Block_3
340
0
102
{BLKREFS
331
A0
102
}
 70
     0
280
     1
281
     0
  0
BLOCK_RECORD
  5
A7
330
1
100
AcDbSymbolTableRecord
100
AcDbBlockTableRecord
  2
Block_4
340
0
102
{BLKREFS
331
A8
102
}
 70
     0
280
     1
281
     0
  0
BLOCK_RECORD
  5
AB
330
1
100
AcDbSymbolTableRecord
100
AcDbBlockTableRecord
  2
Block_5
340
0
102
{BLKREFS
331
AC
102
}
 70
     0
280
     1
281
     0
  0
BLOCK_RECORD
  5
B5
330
1
100
AcDbSymbolTableRecord
100
AcDbBlockTableRecord
  2
Block_6
340
0
102
{BLKREFS
331
B6
102
}
 70
     0
280
     1
281
     0
  0
BLOCK_RECORD
  5
BD
330
1
100
AcDbSymbolTableRecord
100
AcDbBlockTableRecord
  2
Block_7
340
0
102
{BLKREFS
331
BE
102
}
 70
     0
280
     1
281
     0
  0
BLOCK_RECORD
  5
C1
330
1
100
AcDbSymbolTableRecord
100
AcDbBlockTableRecord
  2
Block_8
340
0
102
{BLKREFS
331
C2
102
}
 70
     0
280
     1
281
     0
  0
BLOCK_RECORD
  5
CD
330
1
100
AcDbSymbolTableRecord
100
AcDbBlockTableRecord
  2
Block_9
340
0
102
{BLKREFS
331
CE
102
}
 70
     0
280
     1
281
     0
  0
BLOCK_RECORD
  5
D4
330
1
100
AcDbSymbolTableRecord
100
AcDbBlockTableRecord
  2
Block_10
340
0
102
{BLKREFS
331
D5
102
}
 70
     0
280
     1
281
     0
  0
BLOCK_RECORD
  5
D8
330
1
100
AcDbSymbolTableRecord
100
AcDbBlockTableRecord
  2
Block_11
340
0
102
{BLKREFS
331
D9
102
}
 70
     0
280
     1
281
     0
  0
BLOCK_RECORD
  5
E0
330
1
100
AcDbSymbolTableRecord
100
AcDbBlockTableRecord
  2
Block_12
340
0
102
{BLKREFS
331
E1
102
}
 70
     0
280
     1
281
     0
  0
BLOCK_RECORD
  5
E6
330
1
100
AcDbSymbolTableRecord
100
AcDbBlockTableRecord
  2
Block_13
340
0
102
{BLKREFS
331
E7
102
}
 70
     0
280
     1
281
     0
  0
BLOCK_RECORD
  5
EA
330
1
100
AcDbSymbolTableRecord
100
AcDbBlockTableRecord
  2
Block_14
340
0
102
{BLKREFS
331
EB
102
}
 70
     0
280
     1
281
     0
  0
BLOCK_RECORD
  5
F5
330
1
100
AcDbSymbolTableRecord
100
AcDbBlockTableRecord
  2
Block_15
340
0
102
{BLKREFS
331
F6
102
}
 70
     0
280
     1
281
     0
  0
BLOCK_RECORD
  5
F9
330
1
100
AcDbSymbolTableRecord
100
AcDbBlockTableRecord
  2
Block_16
340
0
102
{BLKREFS
331
FA
102
}
 70
     0
280
     1
281
     0
  0
BLOCK_RECORD
  5
10A
330
1
100
AcDbSymbolTableRecord
100
AcDbBlockTableRecord
  2
Block_17
340
0
102
{BLKREFS
331
10B
102
}
 70
     0
280
     1
281
     0
  0
BLOCK_RECORD
  5
10E
330
1
100
AcDbSymbolTableRecord
100
AcDbBlockTableRecord
  2
Block_18
340
0
102
{BLKREFS
331
10F
102
}
 70
     0
280
     1
281
     0
  0
ENDTAB
  0
ENDSEC
  0
SECTION
  2
BLOCKS
  0
BLOCK
  5
71
330
70
100
AcDbEntity
  8
0
100
AcDbBlockBegin
  2
*Model_Space
 70
     0
 10
0.0
 20
0.0
 30
0.0
  3
*Model_Space
  1

  0
ENDBLK
  5
72
330
70
100
AcDbEntity
  8
0
100
AcDbBlockEnd
  0
BLOCK
  5
6D
330
6C
100
AcDbEntity
 67
     1
  8
0
100
AcDbBlockBegin
  2
*Paper_Space
 70
     0
 10
0.0
 20
0.0
 30
0.0
  3
*Paper_Space
  1

  0
ENDBLK
  5
6E
330
6C
100
AcDbEntity
 67
     1
  8
0
100
AcDbBlockEnd
  0
BLOCK
  5
75
330
74
100
AcDbEntity
 67
     1
  8
0
100
AcDbBlockBegin
  2
*Paper_Space0
 70
     0
 10
0.0
 20
0.0
 30
0.0
  3
*Paper_Space0
  1

  0
ENDBLK
  5
76
330
74
100
AcDbEntity
 67
     1
  8
0
100
AcDbBlockEnd
  0
BLOCK
  5
8F
330
8D
100
AcDbEntity
  8
0
100
AcDbBlockBegin
  2
Block_0
 70
     0
 10
0.0
 20
0.0
 30
0.0
  3
Block_0
  1

  0
LINE
  5
91
330
8D
100
AcDbEntity
  8
レイヤー 1
 62
   250
420
  2299925
370
     9
100
AcDbLine
 10
104.2123266108907
 20
-158.2210255473179
 30
0.0
 11
121.2124756216252
 21
-158.2210255473179
 31
0.0
  0
LINE
  5
92
330
8D
100
AcDbEntity
  8
レイヤー 1
 62
   250
420
  2299925
370
     9
100
AcDbLine
 10
121.2124756216252
 20
-156.0609319913154
 30
0.0
 11
121.2124756216252
 21
-159.2214680217945
 31
0.0
  0
INSERT
  5
94
330
8D
100
AcDbEntity
  8
レイヤー 1
100
AcDbBlockReference
  2
Block_1
 10
0.0
 20
0.0
 30
0.0
  0
ENDBLK
  5
90
330
8D
100
AcDbEntity
  8
0
100
AcDbBlockEnd
  0
BLOCK
  5
95
330
93
100
AcDbEntity
  8
0
100
AcDbBlockBegin
  2
Block_1
 70
     0
 10
0.0
 20
0.0
 30
0.0
  3
Block_1
  1

  0
INSERT
  5
98
330
93
100
AcDbEntity
  8
レイヤー 1
100
AcDbBlockReference
  2
Block_2
 10
0.0
 20
0.0
 30
0.0
  0
ENDBLK
  5
96
330
93
100
AcDbEntity
  8
0
100
AcDbBlockEnd
  0
BLOCK
  5
99
330
97
100
AcDbEntity
  8
0
100
AcDbBlockBegin
  2
Block_2
 70
     0
 10
0.0
 20
0.0
 30
0.0
  3
Block_2
  1

  0
SPLINE
  5
9B
330
97
100
AcDbEntity
  8
レイヤー 1
100
AcDbSpline
210
0.0
220
0.0
230
1.0
 70
    11
 71
     3
 72
    26
 73
    22
 74
     0
 42
0.0000000001
 43
0.0000000001
 40
0.0
 40
0.0
 40
0.0
 40
0.0
 40
1.0
 40
1.0
 40
1.0
 40
2.0
 40
2.0
 40
2.0
 40
3.0
 40
3.0
 40
3.0
 40
4.0
 40
4.0
 40
4.0
 40
5.0
 40
5.0
 40
5.0
 40
6.0
 40
6.0
 40
6.0
 40
7.0
 40
7.0
 40
7.0
 40
7.0
 10
112.170586451992
 20
-157.5755669093908
 30
0.0
 10
112.170586451992
 20
-157.5755669093908
 30
0.0
 10
112.170586451992
 20
-156.4714138063683
 30
0.0
 10
112.170586451992
 20
-156.4714138063683
 30
0.0
 10
112.170586451992
 20
-156.4714138063683
 30
0.0
 10
111.8891221508471
 20
-156.4714138063683
 30
0.0
 10
111.8891221508471
 20
-156.4714138063683
 30
0.0
 10
111.8891221508471
 20
-156.4714138063683
 30
0.0
 10
111.8891221508471
 20
-156.3232747005025
 30
0.0
 10
111.8891221508471
 20
-156.3232747005025
 30
0.0
 10
112.1723089997347
 20
-156.3084607899159
 30
0.0
 10
112.2119275978151
 20
-156.1455077734636
 30
0.0
 10
112.2370767948574
 20
-156.0311306033533
 30
0.0
 10
112.2370767948574
 20
-156.0311306033533
 30
0.0
 10
112.3617892514234
 20
-156.0311306033533
 30
0.0
 10
112.3617892514234
 20
-156.0311306033533
 30
0.0
 10
112.3617892514234
 20
-156.0311306033533
 30
0.0
 10
112.3617892514234
 20
-157.5755669093908
 30
0.0
 10
112.3617892514234
 20
-157.5755669093908
 30
0.0
 10
112.3617892514234
 20
-157.5755669093908
 30
0.0
 10
112.170586451992
 20
-157.5755669093908
 30
0.0
 10
112.170586451992
 20
-157.5755669093908
 30
0.0
  0
HATCH
  5
9C
330
97
100
AcDbEntity
  8
レイヤー 1
 62
   250
420
  2299925
440
 33554687
100
AcDbHatch
 10
0.0
 20
0.0
 30
0.0
210
0.0
220
0.0
230
1.0
  2
SOLID
 70
     1
 71
     1
 91
        1
 92
        1
 93
        1
 72
     4
 94
        3
 73
     0
 74
     0
 95
       26
 96
       22
 40
0.0
 40
0.0
 40
0.0
 40
0.0
 40
1.0
 40
1.0
 40
1.0
 40
2.0
 40
2.0
 40
2.0
 40
3.0
 40
3.0
 40
3.0
 40
4.0
 40
4.0
 40
4.0
 40
5.0
 40
5.0
 40
5.0
 40
6.0
 40
6.0
 40
6.0
 40
7.0
 40
7.0
 40
7.0
 40
7.0
 10
112.170586451992
 20
-157.5755669093908
 10
112.170586451992
 20
-157.5755669093908
 10
112.170586451992
 20
-156.4714138063683
 10
112.170586451992
 20
-156.4714138063683
 10
112.170586451992
 20
-156.4714138063683
 10
111.8891221508471
 20
-156.4714138063683
 10
111.8891221508471
 20
-156.4714138063683
 10
111.8891221508471
 20
-156.4714138063683
 10
111.8891221508471
 20
-156.3232747005025
 10
111.8891221508471
 20
-156.3232747005025
 10
112.1723089997347
 20
-156.3084607899159
 10
112.2119275978151
 20
-156.1455077734636
 10
112.2370767948574
 20
-156.0311306033533
 10
112.2370767948574
 20
-156.0311306033533
 10
112.3617892514234
 20
-156.0311306033533
 10
112.3617892514234
 20
-156.0311306033533
 10
112.3617892514234
 20
-156.0311306033533
 10
112.3617892514234
 20
-157.5755669093908
 10
112.3617892514234
 20
-157.5755669093908
 10
112.3617892514234
 20
-157.5755669093908
 10
112.170586451992
 20
-157.5755669093908
 10
112.170586451992
 20
-157.5755669093908
 97
        0
 97
        1
330
9B
 75
     2
 76
     1
 98
        1
 10
0.0
 20
0.0
450
        0
451
        0
460
0.0
461
0.0
452
        0
462
0.0
453
        0
470

  0
SPLINE
  5
9D
330
97
100
AcDbEntity
  8
レイヤー 1
100
AcDbSpline
210
0.0
220
0.0
230
1.0
 70
     9
 71
     3
 72
    26
 73
    22
 74
     0
 42
0.0000000001
 43
0.0000000001
 40
0.0
 40
0.0
 40
0.0
 40
0.0
 40
1.0
 40
1.0
 40
1.0
 40
2.0
 40
2.0
 40
2.0
 40
3.0
 40
3.0
 40
3.0
 40
4.0
 40
4.0
 40
4.0
 40
5.0
 40
5.0
 40
5.0
 40
6.0
 40
6.0
 40
6.0
 40
7.0
 40
7.0
 40
7.0
 40
7.0
 10
113.1379692642502
 20
-157.5755669093908
 30
0.0
 10
113.1379692642502
 20
-157.5755669093908
 30
0.0
 10
112.9360866688146
 20
-157.5755669093908
 30
0.0
 10
112.9360866688146
 20
-157.5755669093908
 30
0.0
 10
112.9577907703716
 20
-157.2665418443639
 30
0.0
 10
113.1217773154695
 20
-156.7483994833823
 30
0.0
 10
113.4680094117372
 20
-156.2426594661476
 30
0.0
 10
113.4680094117372
 20
-156.2426594661476
 30
0.0
 10
112.7538411176449
 20
-156.2426594661476
 30
0.0
 10
112.7538411176449
 20
-156.2426594661476
 30
0.0
 10
112.7538411176449
 20
-156.2426594661476
 30
0.0
 10
112.7538411176449
 20
-156.0311306033533
 30
0.0
 10
112.7538411176449
 20
-156.0311306033533
 30
0.0
 10
112.7538411176449
 20
-156.0311306033533
 30
0.0
 10
113.6698920071728
 20
-156.0311306033533
 30
0.0
 10
113.6698920071728
 20
-156.0311306033533
 30
0.0
 10
113.6698920071728
 20
-156.0311306033533
 30
0.0
 10
113.6698920071728
 20
-156.2426594661476
 30
0.0
 10
113.6698920071728
 20
-156.2426594661476
 30
0.0
 10
113.3942843683528
 20
-156.5327365060057
 30
0.0
 10
113.1669080663263
 20
-157.1249484199201
 30
0.0
 10
113.1379692642502
 20
-157.5755669093908
 30
0.0
  0
HATCH
  5
9E
330
97
100
AcDbEntity
  8
レイヤー 1
 62
   250
420
  2299925
440
 33554687
100
AcDbHatch
 10
0.0
 20
0.0
 30
0.0
210
0.0
220
0.0
230
1.0
  2
SOLID
 70
     1
 71
     1
 91
        1
 92
        1
 93
        1
 72
     4
 94
        3
 73
     0
 74
     0
 95
       26
 96
       22
 40
0.0
 40
0.0
 40
0.0
 40
0.0
 40
1.0
 40
1.0
 40
1.0
 40
2.0
 40
2.0
 40
2.0
 40
3.0
 40
3.0
 40
3.0
 40
4.0
 40
4.0
 40
4.0
 40
5.0
 40
5.0
 40
5.0
 40
6.0
 40
6.0
 40
6.0
 40
7.0
 40
7.0
 40
7.0
 40
7.0
 10
113.1379692642502
 20
-157.5755669093908
 10
113.1379692642502
 20
-157.5755669093908
 10
112.9360866688146
 20
-157.5755669093908
 10
112.9360866688146
 20
-157.5755669093908
 10
112.9577907703716
 20
-157.2665418443639
 10
113.1217773154695
 20
-156.7483994833823
 10
113.4680094117372
 20
-156.2426594661476
 10
113.4680094117372
 20
-156.2426594661476
 10
112.7538411176449
 20
-156.2426594661476
 10
112.7538411176449
 20
-156.2426594661476
 10
112.7538411176449
 20
-156.2426594661476
 10
112.7538411176449
 20
-156.0311306033533
 10
112.7538411176449
 20
-156.0311306033533
 10
112.7538411176449
 20
-156.0311306033533
 10
113.6698920071728
 20
-156.0311306033533
 10
113.6698920071728
 20
-156.0311306033533
 10
113.6698920071728
 20
-156.0311306033533
 10
113.6698920071728
 20
-156.2426594661476
 10
113.6698920071728
 20
-156.2426594661476
 10
113.3942843683528
 20
-156.5327365060057
 10
113.1669080663263
 20
-157.1249484199201
 10
113.1379692642502
 20
-157.5755669093908
 97
        0
 97
        1
330
9D
 75
     2
 76
     1
 98
        1
 10
0.0
 20
0.0
450
        0
451
        0
460
0.0
461
0.0
452
        0
462
0.0
453
        0
470

  0
ENDBLK
  5
9A
330
97
100
AcDbEntity
  8
0
100
AcDbBlockEnd
  0
BLOCK
  5
A1
330
9F
100
AcDbEntity
  8
0
100
AcDbBlockBegin
  2
Block_3
 70
     0
 10
0.0
 20
0.0
 30
0.0
  3
Block_3
  1

  0
LINE
  5
A3
330
9F
100
AcDbEntity
  8
レイヤー 1
 62
   250
420
  2299925
370
     9
100
AcDbLine
 10
88.21244368574836
 20
-143.6213881420079
 30
0.0
 11
88.21244368574836
 21
-142.620942812011
 31
0.0
  0
LINE
  5
A4
330
9F
100
AcDbEntity
  8
レイヤー 1
 62
   250
420
  2299925
370
     9
100
AcDbLine
 10
88.21244368574836
 20
-143.6213881420079
 30
0.0
 11
88.21244368574836
 21
-145.7208391995576
 31
0.0
  0
LINE
  5
A5
330
9F
100
AcDbEntity
  8
レイヤー 1
 62
   250
420
  2299925
370
     9
100
AcDbLine
 10
89.67227552108349
 20
-143.6213881420079
 30
0.0
 11
87.21231871126368
 21
-143.6213881420079
 31
0.0
  0
LINE
  5
A6
330
9F
100
AcDbEntity
  8
レイヤー 1
 62
   250
420
  2299925
370
     9
100
AcDbLine
 10
89.67227552108349
 20
-144.7210670028416
 30
0.0
 11
87.21231871126368
 21
-144.7210670028416
 31
0.0
  0
INSERT
  5
A8
330
9F
100
AcDbEntity
  8
レイヤー 1
100
AcDbBlockReference
  2
Block_4
 10
0.0
 20
0.0
 30
0.0
  0
ENDBLK
  5
A2
330
9F
100
AcDbEntity
  8
0
100
AcDbBlockEnd
  0
BLOCK
  5
A9
330
A7
100
AcDbEntity
  8
0
100
AcDbBlockBegin
  2
Block_4
 70
     0
 10
0.0
 20
0.0
 30
0.0
  3
Block_4
  1

  0
INSERT
  5
AC
330
A7
100
AcDbEntity
  8
レイヤー 1
100
AcDbBlockReference
  2
Block_5
 10
0.0
 20
0.0
 30
0.0
  0
ENDBLK
  5
AA
330
A7
100
AcDbEntity
  8
0
100
AcDbBlockEnd
  0
BLOCK
  5
AD
330
AB
100
AcDbEntity
  8
0
100
AcDbBlockBegin
  2
Block_5
 70
     0
 10
0.0
 20
0.0
 30
0.0
  3
Block_5
  1

  0
SPLINE
  5
AF
330
AB
100
AcDbEntity
  8
レイヤー 1
100
AcDbSpline
210
0.0
220
0.0
230
1.0
 70
    11
 71
     3
 72
    26
 73
    22
 74
     0
 42
0.0000000001
 43
0.0000000001
 40
0.0
 40
0.0
 40
0.0
 40
0.0
 40
1.0
 40
1.0
 40
1.0
 40
2.0
 40
2.0
 40
2.0
 40
3.0
 40
3.0
 40
3.0
 40
4.0
 40
4.0
 40
4.0
 40
5.0
 40
5.0
 40
5.0
 40
6.0
 40
6.0
 40
6.0
 40
7.0
 40
7.0
 40
7.0
 40
7.0
 10
87.56588675111201
 20
-142.3961316918315
 30
0.0
 10
87.56588675111201
 20
-142.3961316918315
 30
0.0
 10
86.46173364808943
 20
-142.3961316918315
 30
0.0
 10
86.46173364808943
 20
-142.3961316918315
 30
0.0
 10
86.46173364808943
 20
-142.3961316918315
 30
0.0
 10
86.46173364808943
 20
-142.6775959929764
 30
0.0
 10
86.46173364808943
 20
-142.6775959929764
 30
0.0
 10
86.46173364808943
 20
-142.6775959929764
 30
0.0
 10
86.31359454222367
 20
-142.6775959929764
 30
0.0
 10
86.31359454222367
 20
-142.6775959929764
 30
0.0
 10
86.29878063163712
 20
-142.3944091440889
 30
0.0
 10
86.13582761518479
 20
-142.3547905460085
 30
0.0
 10
86.0214504450745
 20
-142.3296413489662
 30
0.0
 10
86.0214504450745
 20
-142.3296413489662
 30
0.0
 10
86.0214504450745
 20
-142.2049288924001
 30
0.0
 10
86.0214504450745
 20
-142.2049288924001
 30
0.0
 10
86.0214504450745
 20
-142.2049288924001
 30
0.0
 10
87.56588675111201
 20
-142.2049288924001
 30
0.0
 10
87.56588675111201
 20
-142.2049288924001
 30
0.0
 10
87.56588675111201
 20
-142.2049288924001
 30
0.0
 10
87.56588675111201
 20
-142.3961316918315
 30
0.0
 10
87.56588675111201
 20
-142.3961316918315
 30
0.0
  0
HATCH
  5
B0
330
AB
100
AcDbEntity
  8
レイヤー 1
 62
   250
420
  2299925
440
 33554687
100
AcDbHatch
 10
0.0
 20
0.0
 30
0.0
210
0.0
220
0.0
230
1.0
  2
SOLID
 70
     1
 71
     1
 91
        1
 92
        1
 93
        1
 72
     4
 94
        3
 73
     0
 74
     0
 95
       26
 96
       22
 40
0.0
 40
0.0
 40
0.0
 40
0.0
 40
1.0
 40
1.0
 40
1.0
 40
2.0
 40
2.0
 40
2.0
 40
3.0
 40
3.0
 40
3.0
 40
4.0
 40
4.0
 40
4.0
 40
5.0
 40
5.0
 40
5.0
 40
6.0
 40
6.0
 40
6.0
 40
7.0
 40
7.0
 40
7.0
 40
7.0
 10
87.56588675111201
 20
-142.3961316918315
 10
87.56588675111201
 20
-142.3961316918315
 10
86.46173364808943
 20
-142.3961316918315
 10
86.46173364808943
 20
-142.3961316918315
 10
86.46173364808943
 20
-142.3961316918315
 10
86.46173364808943
 20
-142.6775959929764
 10
86.46173364808943
 20
-142.6775959929764
 10
86.46173364808943
 20
-142.6775959929764
 10
86.31359454222367
 20
-142.6775959929764
 10
86.31359454222367
 20
-142.6775959929764
 10
86.29878063163712
 20
-142.3944091440889
 10
86.13582761518479
 20
-142.3547905460085
 10
86.0214504450745
 20
-142.3296413489662
 10
86.0214504450745
 20
-142.3296413489662
 10
86.0214504450745
 20
-142.2049288924001
 10
86.0214504450745
 20
-142.2049288924001
 10
86.0214504450745
 20
-142.2049288924001
 10
87.56588675111201
 20
-142.2049288924001
 10
87.56588675111201
 20
-142.2049288924001
 10
87.56588675111201
 20
-142.2049288924001
 10
87.56588675111201
 20
-142.3961316918315
 10
87.56588675111201
 20
-142.3961316918315
 97
        0
 97
        1
330
AF
 75
     2
 76
     1
 98
        1
 10
0.0
 20
0.0
450
        0
451
        0
460
0.0
461
0.0
452
        0
462
0.0
453
        0
470

  0
SPLINE
  5
B1
330
AB
100
AcDbEntity
  8
レイヤー 1
100
AcDbSpline
210
0.0
220
0.0
230
1.0
 70
    11
 71
     3
 72
    17
 73
    13
 74
     0
 42
0.0000000001
 43
0.0000000001
 40
0.0
 40
0.0
 40
0.0
 40
0.0
 40
1.0
 40
1.0
 40
1.0
 40
2.0
 40
2.0
 40
2.0
 40
3.0
 40
3.0
 40
3.0
 40
4.0
 40
4.0
 40
4.0
 40
4.0
 10
87.56588675111201
 20
-141.7281276772416
 30
0.0
 10
87.56588675111201
 20
-141.7281276772416
 30
0.0
 10
87.31405027114025
 20
-141.7281276772416
 30
0.0
 10
87.31405027114025
 20
-141.7281276772416
 30
0.0
 10
87.31405027114025
 20
-141.7281276772416
 30
0.0
 10
87.31405027114025
 20
-141.5134982285105
 30
0.0
 10
87.31405027114025
 20
-141.5134982285105
 30
0.0
 10
87.31405027114025
 20
-141.5134982285105
 30
0.0
 10
87.56588675111201
 20
-141.5134982285105
 30
0.0
 10
87.56588675111201
 20
-141.5134982285105
 30
0.0
 10
87.56588675111201
 20
-141.5134982285105
 30
0.0
 10
87.56588675111201
 20
-141.7281276772416
 30
0.0
 10
87.56588675111201
 20
-141.7281276772416
 30
0.0
  0
HATCH
  5
B2
330
AB
100
AcDbEntity
  8
レイヤー 1
 62
   250
420
  2299925
440
 33554687
100
AcDbHatch
 10
0.0
 20
0.0
 30
0.0
210
0.0
220
0.0
230
1.0
  2
SOLID
 70
     1
 71
     1
 91
        1
 92
        1
 93
        1
 72
     4
 94
        3
 73
     0
 74
     0
 95
       17
 96
       13
 40
0.0
 40
0.0
 40
0.0
 40
0.0
 40
1.0
 40
1.0
 40
1.0
 40
2.0
 40
2.0
 40
2.0
 40
3.0
 40
3.0
 40
3.0
 40
4.0
 40
4.0
 40
4.0
 40
4.0
 10
87.56588675111201
 20
-141.7281276772416
 10
87.56588675111201
 20
-141.7281276772416
 10
87.31405027114025
 20
-141.7281276772416
 10
87.31405027114025
 20
-141.7281276772416
 10
87.31405027114025
 20
-141.7281276772416
 10
87.31405027114025
 20
-141.5134982285105
 10
87.31405027114025
 20
-141.5134982285105
 10
87.31405027114025
 20
-141.5134982285105
 10
87.56588675111201
 20
-141.5134982285105
 10
87.56588675111201
 20
-141.5134982285105
 10
87.56588675111201
 20
-141.5134982285105
 10
87.56588675111201
 20
-141.7281276772416
 10
87.56588675111201
 20
-141.7281276772416
 97
        0
 97
        1
330
B1
 75
     2
 76
     1
 98
        1
 10
0.0
 20
0.0
450
        0
451
        0
460
0.0
461
0.0
452
        0
462
0.0
453
        0
470

  0
SPLINE
  5
B3
330
AB
100
AcDbEntity
  8
レイヤー 1
100
AcDbSpline
210
0.0
220
0.0
230
1.0
 70
    11
 71
     3
 72
    26
 73
    22
 74
     0
 42
0.0000000001
 43
0.0000000001
 40
0.0
 40
0.0
 40
0.0
 40
0.0
 40
1.0
 40
1.0
 40
1.0
 40
2.0
 40
2.0
 40
2.0
 40
3.0
 40
3.0
 40
3.0
 40
4.0
 40
4.0
 40
4.0
 40
5.0
 40
5.0
 40
5.0
 40
6.0
 40
6.0
 40
6.0
 40
7.0
 40
7.0
 40
7.0
 40
7.0
 10
87.56588675111201
 20
-140.9274874864695
 30
0.0
 10
87.56588675111201
 20
-140.9274874864695
 30
0.0
 10
86.46173364808943
 20
-140.9274874864695
 30
0.0
 10
86.46173364808943
 20
-140.9274874864695
 30
0.0
 10
86.46173364808943
 20
-140.9274874864695
 30
0.0
 10
86.46173364808943
 20
-141.2089517876144
 30
0.0
 10
86.46173364808943
 20
-141.2089517876144
 30
0.0
 10
86.46173364808943
 20
-141.2089517876144
 30
0.0
 10
86.31359454222367
 20
-141.2089517876144
 30
0.0
 10
86.31359454222367
 20
-141.2089517876144
 30
0.0
 10
86.29878063163712
 20
-140.9257649387269
 30
0.0
 10
86.13582761518479
 20
-140.8861463406465
 30
0.0
 10
86.0214504450745
 20
-140.8609971436042
 30
0.0
 10
86.0214504450745
 20
-140.8609971436042
 30
0.0
 10
86.0214504450745
 20
-140.7362846870381
 30
0.0
 10
86.0214504450745
 20
-140.7362846870381
 30
0.0
 10
86.0214504450745
 20
-140.7362846870381
 30
0.0
 10
87.56588675111201
 20
-140.7362846870381
 30
0.0
 10
87.56588675111201
 20
-140.7362846870381
 30
0.0
 10
87.56588675111201
 20
-140.7362846870381
 30
0.0
 10
87.56588675111201
 20
-140.9274874864695
 30
0.0
 10
87.56588675111201
 20
-140.9274874864695
 30
0.0
  0
HATCH
  5
B4
330
AB
100
AcDbEntity
  8
レイヤー 1
 62
   250
420
  2299925
440
 33554687
100
AcDbHatch
 10
0.0
 20
0.0
 30
0.0
210
0.0
220
0.0
230
1.0
  2
SOLID
 70
     1
 71
     1
 91
        1
 92
        1
 93
        1
 72
     4
 94
        3
 73
     0
 74
     0
 95
       26
 96
       22
 40
0.0
 40
0.0
 40
0.0
 40
0.0
 40
1.0
 40
1.0
 40
1.0
 40
2.0
 40
2.0
 40
2.0
 40
3.0
 40
3.0
 40
3.0
 40
4.0
 40
4.0
 40
4.0
 40
5.0
 40
5.0
 40
5.0
 40
6.0
 40
6.0
 40
6.0
 40
7.0
 40
7.0
 40
7.0
 40
7.0
 10
87.56588675111201
 20
-140.9274874864695
 10
87.56588675111201
 20
-140.9274874864695
 10
86.46173364808943
 20
-140.9274874864695
 10
86.46173364808943
 20
-140.9274874864695
 10
86.46173364808943
 20
-140.9274874864695
 10
86.46173364808943
 20
-141.2089517876144
 10
86.46173364808943
 20
-141.2089517876144
 10
86.46173364808943
 20
-141.2089517876144
 10
86.31359454222367
 20
-141.2089517876144
 10
86.31359454222367
 20
-141.2089517876144
 10
86.29878063163712
 20
-140.9257649387269
 10
86.13582761518479
 20
-140.8861463406465
 10
86.0214504450745
 20
-140.8609971436042
 10
86.0214504450745
 20
-140.8609971436042
 10
86.0214504450745
 20
-140.7362846870381
 10
86.0214504450745
 20
-140.7362846870381
 10
86.0214504450745
 20
-140.7362846870381
 10
87.56588675111201
 20
-140.7362846870381
 10
87.56588675111201
 20
-140.7362846870381
 10
87.56588675111201
 20
-140.7362846870381
 10
87.56588675111201
 20
-140.9274874864695
 10
87.56588675111201
 20
-140.9274874864695
 97
        0
 97
        1
330
B3
 75
     2
 76
     1
 98
        1
 10
0.0
 20
0.0
450
        0
451
        0
460
0.0
461
0.0
452
        0
462
0.0
453
        0
470

  0
ENDBLK
  5
AE
330
AB
100
AcDbEntity
  8
0
100
AcDbBlockEnd
  0
BLOCK
  5
B7
330
B5
100
AcDbEntity
  8
0
100
AcDbBlockBegin
  2
Block_6
 70
     0
 10
0.0
 20
0.0
 30
0.0
  3
Block_6
  1

  0
LINE
  5
B9
330
B5
100
AcDbEntity
  8
レイヤー 1
 62
   250
420
  2299925
370
     9
100
AcDbLine
 10
125.2122346862495
 20
-153.5212142783312
 30
0.0
 11
125.2122346862495
 21
-154.5209864750471
 31
0.0
  0
LINE
  5
BA
330
B5
100
AcDbEntity
  8
レイヤー 1
 62
   250
420
  2299925
370
     9
100
AcDbLine
 10
125.2122346862495
 20
-153.1215876218599
 30
0.0
 11
125.2122346862495
 21
-153.5212142783312
 31
0.0
  0
LINE
  5
BB
330
B5
100
AcDbEntity
  8
レイヤー 1
 62
   250
420
  2299925
370
     9
100
AcDbLine
 10
123.7521933346094
 20
-153.1215876218599
 30
0.0
 11
126.2123596607342
 21
-153.1215876218599
 31
0.0
  0
LINE
  5
BC
330
B5
100
AcDbEntity
  8
レイヤー 1
 62
   250
420
  2299925
370
     9
100
AcDbLine
 10
123.7521933346094
 20
-153.5212142783312
 30
0.0
 11
126.2123596607342
 21
-153.5212142783312
 31
0.0
  0
INSERT
  5
BE
330
B5
100
AcDbEntity
  8
レイヤー 1
100
AcDbBlockReference
  2
Block_7
 10
0.0
 20
0.0
 30
0.0
  0
ENDBLK
  5
B8
330
B5
100
AcDbEntity
  8
0
100
AcDbBlockEnd
  0
BLOCK
  5
BF
330
BD
100
AcDbEntity
  8
0
100
AcDbBlockBegin
  2
Block_7
 70
     0
 10
0.0
 20
0.0
 30
0.0
  3
Block_7
  1

  0
INSERT
  5
C2
330
BD
100
AcDbEntity
  8
レイヤー 1
100
AcDbBlockReference
  2
Block_8
 10
0.0
 20
0.0
 30
0.0
  0
ENDBLK
  5
C0
330
BD
100
AcDbEntity
  8
0
100
AcDbBlockEnd
  0
BLOCK
  5
C3
330
C1
100
AcDbEntity
  8
0
100
AcDbBlockBegin
  2
Block_8
 70
     0
 10
0.0
 20
0.0
 30
0.0
  3
Block_8
  1

  0
SPLINE
  5
C5
330
C1
100
AcDbEntity
  8
レイヤー 1
100
AcDbSpline
210
0.0
220
0.0
230
1.0
 70
     9
 71
     3
 72
    17
 73
    13
 74
     0
 42
0.0000000001
 43
0.0000000001
 40
0.0
 40
0.0
 40
0.0
 40
0.0
 40
1.0
 40
1.0
 40
1.0
 40
2.0
 40
2.0
 40
2.0
 40
3.0
 40
3.0
 40
3.0
 40
4.0
 40
4.0
 40
4.0
 40
4.0
 10
122.6371310457296
 20
-154.1683674744787
 30
0.0
 10
122.6371310457296
 20
-154.3809298659186
 30
0.0
 10
122.9206624041657
 20
-154.4208929735475
 30
0.0
 10
123.2655164622391
 20
-154.4208929735475
 30
0.0
 10
123.5848768137218
 20
-154.4208929735475
 30
0.0
 10
123.8935573692002
 20
-154.3902316237288
 30
0.0
 10
123.8935573692002
 20
-154.1683674744787
 30
0.0
 10
123.8935573692002
 20
-153.9571831212329
 30
0.0
 10
123.6124375776038
 20
-153.9158419754099
 30
0.0
 10
123.2655164622391
 20
-153.9158419754099
 30
0.0
 10
122.945811601208
 20
-153.9158419754099
 30
0.0
 10
122.6371310457296
 20
-153.9482258729712
 30
0.0
 10
122.6371310457296
 20
-154.1683674744787
 30
0.0
  0
SPLINE
  5
C6
330
C1
100
AcDbEntity
  8
レイヤー 1
100
AcDbSpline
210
0.0
220
0.0
230
1.0
 70
     9
 71
     3
 72
    29
 73
    25
 74
     0
 42
0.0000000001
 43
0.0000000001
 40
0.0
 40
0.0
 40
0.0
 40
0.0
 40
1.0
 40
1.0
 40
1.0
 40
2.0
 40
2.0
 40
2.0
 40
3.0
 40
3.0
 40
3.0
 40
4.0
 40
4.0
 40
4.0
 40
5.0
 40
5.0
 40
5.0
 40
6.0
 40
6.0
 40
6.0
 40
7.0
 40
7.0
 40
7.0
 40
8.0
 40
8.0
 40
8.0
 40
8.0
 10
123.8597954334448
 20
-153.8293700787301
 30
0.0
 10
124.0692572389479
 20
-153.9213541281863
 30
0.0
 10
124.0882052641168
 20
-154.0691487245035
 30
0.0
 10
124.0882052641168
 20
-154.1683674744787
 30
0.0
 10
124.0882052641168
 20
-154.3054822747917
 30
0.0
 10
124.0416964750659
 20
-154.4260606167754
 30
0.0
 10
123.8597954334448
 20
-154.5073648702273
 30
0.0
 10
123.6651475385281
 20
-154.5955593146497
 30
0.0
 10
123.4284694786915
 20
-154.6117512634304
 30
0.0
 10
123.2655164622391
 20
-154.6117512634304
 30
0.0
 10
123.1215114709557
 20
-154.6117512634304
 30
0.0
 10
122.869674990984
 20
-154.5976263719409
 30
0.0
 10
122.670892981485
 20
-154.5073648702273
 30
0.0
 10
122.4679768574038
 20
-154.4153808207711
 30
0.0
 10
122.4445502081041
 20
-154.2782660204582
 30
0.0
 10
122.4445502081041
 20
-154.1683674744787
 30
0.0
 10
122.4445502081041
 20
-154.0329752219084
 30
0.0
 10
122.4889919398638
 20
-153.9103298226335
 30
0.0
 10
122.670892981485
 20
-153.8293700787301
 30
0.0
 10
122.8634738191105
 20
-153.744620729793
 30
0.0
 10
123.0918836497826
 20
-153.7246391759786
 30
0.0
 10
123.2655164622391
 20
-153.7246391759786
 30
0.0
 10
123.4367377078561
 20
-153.7246391759786
 30
0.0
 10
123.6672145958193
 20
-153.7428981820504
 30
0.0
 10
123.8597954334448
 20
-153.8293700787301
 30
0.0
  0
HATCH
  5
C7
330
C1
100
AcDbEntity
  8
レイヤー 1
 62
   250
420
  2299925
440
 33554687
100
AcDbHatch
 10
0.0
 20
0.0
 30
0.0
210
0.0
220
0.0
230
1.0
  2
SOLID
 70
     1
 71
     1
 91
        2
 92
        1
 93
        1
 72
     4
 94
        3
 73
     0
 74
     0
 95
       17
 96
       13
 40
0.0
 40
0.0
 40
0.0
 40
0.0
 40
1.0
 40
1.0
 40
1.0
 40
2.0
 40
2.0
 40
2.0
 40
3.0
 40
3.0
 40
3.0
 40
4.0
 40
4.0
 40
4.0
 40
4.0
 10
122.6371310457296
 20
-154.1683674744787
 10
122.6371310457296
 20
-154.3809298659186
 10
122.9206624041657
 20
-154.4208929735475
 10
123.2655164622391
 20
-154.4208929735475
 10
123.5848768137218
 20
-154.4208929735475
 10
123.8935573692002
 20
-154.3902316237288
 10
123.8935573692002
 20
-154.1683674744787
 10
123.8935573692002
 20
-153.9571831212329
 10
123.6124375776038
 20
-153.9158419754099
 10
123.2655164622391
 20
-153.9158419754099
 10
122.945811601208
 20
-153.9158419754099
 10
122.6371310457296
 20
-153.9482258729712
 10
122.6371310457296
 20
-154.1683674744787
 97
        0
 97
        1
330
C5
 92
        1
 93
        1
 72
     4
 94
        3
 73
     0
 74
     0
 95
       29
 96
       25
 40
0.0
 40
0.0
 40
0.0
 40
0.0
 40
1.0
 40
1.0
 40
1.0
 40
2.0
 40
2.0
 40
2.0
 40
3.0
 40
3.0
 40
3.0
 40
4.0
 40
4.0
 40
4.0
 40
5.0
 40
5.0
 40
5.0
 40
6.0
 40
6.0
 40
6.0
 40
7.0
 40
7.0
 40
7.0
 40
8.0
 40
8.0
 40
8.0
 40
8.0
 10
123.8597954334448
 20
-153.8293700787301
 10
124.0692572389479
 20
-153.9213541281863
 10
124.0882052641168
 20
-154.0691487245035
 10
124.0882052641168
 20
-154.1683674744787
 10
124.0882052641168
 20
-154.3054822747917
 10
124.0416964750659
 20
-154.4260606167754
 10
123.8597954334448
 20
-154.5073648702273
 10
123.6651475385281
 20
-154.5955593146497
 10
123.4284694786915
 20
-154.6117512634304
 10
123.2655164622391
 20
-154.6117512634304
 10
123.1215114709557
 20
-154.6117512634304
 10
122.869674990984
 20
-154.5976263719409
 10
122.670892981485
 20
-154.5073648702273
 10
122.4679768574038
 20
-154.4153808207711
 10
122.4445502081041
 20
-154.2782660204582
 10
122.4445502081041
 20
-154.1683674744787
 10
122.4445502081041
 20
-154.0329752219084
 10
122.4889919398638
 20
-153.9103298226335
 10
122.670892981485
 20
-153.8293700787301
 10
122.8634738191105
 20
-153.744620729793
 10
123.0918836497826
 20
-153.7246391759786
 10
123.2655164622391
 20
-153.7246391759786
 10
123.4367377078561
 20
-153.7246391759786
 10
123.6672145958193
 20
-153.7428981820504
 10
123.8597954334448
 20
-153.8293700787301
 97
        0
 97
        1
330
C6
 75
     2
 76
     1
 98
        1
 10
0.0
 20
0.0
450
        0
451
        0
460
0.0
461
0.0
452
        0
462
0.0
453
        0
470

  0
SPLINE
  5
C8
330
C1
100
AcDbEntity
  8
レイヤー 1
100
AcDbSpline
210
0.0
220
0.0
230
1.0
 70
    11
 71
     3
 72
    17
 73
    13
 74
     0
 42
0.0000000001
 43
0.0000000001
 40
0.0
 40
0.0
 40
0.0
 40
0.0
 40
1.0
 40
1.0
 40
1.0
 40
2.0
 40
2.0
 40
2.0
 40
3.0
 40
3.0
 40
3.0
 40
4.0
 40
4.0
 40
4.0
 40
4.0
 10
124.0375623604837
 20
-153.5417046057118
 30
0.0
 10
124.0375623604837
 20
-153.5417046057118
 30
0.0
 10
123.7857258805119
 20
-153.5417046057118
 30
0.0
 10
123.7857258805119
 20
-153.5417046057118
 30
0.0
 10
123.7857258805119
 20
-153.5417046057118
 30
0.0
 10
123.7857258805119
 20
-153.3270751569807
 30
0.0
 10
123.7857258805119
 20
-153.3270751569807
 30
0.0
 10
123.7857258805119
 20
-153.3270751569807
 30
0.0
 10
124.0375623604837
 20
-153.3270751569807
 30
0.0
 10
124.0375623604837
 20
-153.3270751569807
 30
0.0
 10
124.0375623604837
 20
-153.3270751569807
 30
0.0
 10
124.0375623604837
 20
-153.5417046057118
 30
0.0
 10
124.0375623604837
 20
-153.5417046057118
 30
0.0
  0
HATCH
  5
C9
330
C1
100
AcDbEntity
  8
レイヤー 1
 62
   250
420
  2299925
440
 33554687
100
AcDbHatch
 10
0.0
 20
0.0
 30
0.0
210
0.0
220
0.0
230
1.0
  2
SOLID
 70
     1
 71
     1
 91
        1
 92
        1
 93
        1
 72
     4
 94
        3
 73
     0
 74
     0
 95
       17
 96
       13
 40
0.0
 40
0.0
 40
0.0
 40
0.0
 40
1.0
 40
1.0
 40
1.0
 40
2.0
 40
2.0
 40
2.0
 40
3.0
 40
3.0
 40
3.0
 40
4.0
 40
4.0
 40
4.0
 40
4.0
 10
124.0375623604837
 20
-153.5417046057118
 10
124.0375623604837
 20
-153.5417046057118
 10
123.7857258805119
 20
-153.5417046057118
 10
123.7857258805119
 20
-153.5417046057118
 10
123.7857258805119
 20
-153.5417046057118
 10
123.7857258805119
 20
-153.3270751569807
 10
123.7857258805119
 20
-153.3270751569807
 10
123.7857258805119
 20
-153.3270751569807
 10
124.0375623604837
 20
-153.3270751569807
 10
124.0375623604837
 20
-153.3270751569807
 10
124.0375623604837
 20
-153.3270751569807
 10
124.0375623604837
 20
-153.5417046057118
 10
124.0375623604837
 20
-153.5417046057118
 97
        0
 97
        1
330
C8
 75
     2
 76
     1
 98
        1
 10
0.0
 20
0.0
450
        0
451
        0
460
0.0
461
0.0
452
        0
462
0.0
453
        0
470

  0
SPLINE
  5
CA
330
C1
100
AcDbEntity
  8
レイヤー 1
100
AcDbSpline
210
0.0
220
0.0
230
1.0
 70
    11
 71
     3
 72
    14
 73
    10
 74
     0
 42
0.0000000001
 43
0.0000000001
 40
0.0
 40
0.0
 40
0.0
 40
0.0
 40
1.0
 40
1.0
 40
1.0
 40
2.0
 40
2.0
 40
2.0
 40
3.0
 40
3.0
 40
3.0
 40
3.0
 10
122.8359130552285
 20
-152.6022270668842
 30
0.0
 10
122.8359130552285
 20
-152.6022270668842
 30
0.0
 10
123.4918592356201
 20
-152.9918673662659
 30
0.0
 10
123.4918592356201
 20
-152.9918673662659
 30
0.0
 10
123.4918592356201
 20
-152.9918673662659
 30
0.0
 10
123.4918592356201
 20
-152.6022270668842
 30
0.0
 10
123.4918592356201
 20
-152.6022270668842
 30
0.0
 10
123.4918592356201
 20
-152.6022270668842
 30
0.0
 10
122.8359130552285
 20
-152.6022270668842
 30
0.0
 10
122.8359130552285
 20
-152.6022270668842
 30
0.0
  0
SPLINE
  5
CB
330
C1
100
AcDbEntity
  8
レイヤー 1
100
AcDbSpline
210
0.0
220
0.0
230
1.0
 70
    11
 71
     3
 72
    38
 73
    34
 74
     0
 42
0.0000000001
 43
0.0000000001
 40
0.0
 40
0.0
 40
0.0
 40
0.0
 40
1.0
 40
1.0
 40
1.0
 40
2.0
 40
2.0
 40
2.0
 40
3.0
 40
3.0
 40
3.0
 40
4.0
 40
4.0
 40
4.0
 40
5.0
 40
5.0
 40
5.0
 40
6.0
 40
6.0
 40
6.0
 40
7.0
 40
7.0
 40
7.0
 40
8.0
 40
8.0
 40
8.0
 40
9.0
 40
9.0
 40
9.0
 40
10.0
 40
10.0
 40
10.0
 40
11.0
 40
11.0
 40
11.0
 40
11.0
 10
123.690641245119
 20
-152.4165364202292
 30
0.0
 10
123.690641245119
 20
-152.4165364202292
 30
0.0
 10
124.0375623604837
 20
-152.4165364202292
 30
0.0
 10
124.0375623604837
 20
-152.4165364202292
 30
0.0
 10
124.0375623604837
 20
-152.4165364202292
 30
0.0
 10
124.0375623604837
 20
-152.6022270668842
 30
0.0
 10
124.0375623604837
 20
-152.6022270668842
 30
0.0
 10
124.0375623604837
 20
-152.6022270668842
 30
0.0
 10
123.690641245119
 20
-152.6022270668842
 30
0.0
 10
123.690641245119
 20
-152.6022270668842
 30
0.0
 10
123.690641245119
 20
-152.6022270668842
 30
0.0
 10
123.690641245119
 20
-153.1613660641402
 30
0.0
 10
123.690641245119
 20
-153.1613660641402
 30
0.0
 10
123.690641245119
 20
-153.1613660641402
 30
0.0
 10
123.4663655290292
 20
-153.1613660641402
 30
0.0
 10
123.4663655290292
 20
-153.1613660641402
 30
0.0
 10
123.4663655290292
 20
-153.1613660641402
 30
0.0
 10
122.4931260544461
 20
-152.5825900226182
 30
0.0
 10
122.4931260544461
 20
-152.5825900226182
 30
0.0
 10
122.4931260544461
 20
-152.5825900226182
 30
0.0
 10
122.4931260544461
 20
-152.4165364202292
 30
0.0
 10
122.4931260544461
 20
-152.4165364202292
 30
0.0
 10
122.4931260544461
 20
-152.4165364202292
 30
0.0
 10
123.4918592356201
 20
-152.4165364202292
 30
0.0
 10
123.4918592356201
 20
-152.4165364202292
 30
0.0
 10
123.4918592356201
 20
-152.4165364202292
 30
0.0
 10
123.4918592356201
 20
-152.2398030218359
 30
0.0
 10
123.4918592356201
 20
-152.2398030218359
 30
0.0
 10
123.4918592356201
 20
-152.2398030218359
 30
0.0
 10
123.690641245119
 20
-152.2398030218359
 30
0.0
 10
123.690641245119
 20
-152.2398030218359
 30
0.0
 10
123.690641245119
 20
-152.2398030218359
 30
0.0
 10
123.690641245119
 20
-152.4165364202292
 30
0.0
 10
123.690641245119
 20
-152.4165364202292
 30
0.0
  0
HATCH
  5
CC
330
C1
100
AcDbEntity
  8
レイヤー 1
 62
   250
420
  2299925
440
 33554687
100
AcDbHatch
 10
0.0
 20
0.0
 30
0.0
210
0.0
220
0.0
230
1.0
  2
SOLID
 70
     1
 71
     1
 91
        2
 92
        1
 93
        1
 72
     4
 94
        3
 73
     0
 74
     0
 95
       14
 96
       10
 40
0.0
 40
0.0
 40
0.0
 40
0.0
 40
1.0
 40
1.0
 40
1.0
 40
2.0
 40
2.0
 40
2.0
 40
3.0
 40
3.0
 40
3.0
 40
3.0
 10
122.8359130552285
 20
-152.6022270668842
 10
122.8359130552285
 20
-152.6022270668842
 10
123.4918592356201
 20
-152.9918673662659
 10
123.4918592356201
 20
-152.9918673662659
 10
123.4918592356201
 20
-152.9918673662659
 10
123.4918592356201
 20
-152.6022270668842
 10
123.4918592356201
 20
-152.6022270668842
 10
123.4918592356201
 20
-152.6022270668842
 10
122.8359130552285
 20
-152.6022270668842
 10
122.8359130552285
 20
-152.6022270668842
 97
        0
 97
        1
330
CA
 92
        1
 93
        1
 72
     4
 94
        3
 73
     0
 74
     0
 95
       38
 96
       34
 40
0.0
 40
0.0
 40
0.0
 40
0.0
 40
1.0
 40
1.0
 40
1.0
 40
2.0
 40
2.0
 40
2.0
 40
3.0
 40
3.0
 40
3.0
 40
4.0
 40
4.0
 40
4.0
 40
5.0
 40
5.0
 40
5.0
 40
6.0
 40
6.0
 40
6.0
 40
7.0
 40
7.0
 40
7.0
 40
8.0
 40
8.0
 40
8.0
 40
9.0
 40
9.0
 40
9.0
 40
10.0
 40
10.0
 40
10.0
 40
11.0
 40
11.0
 40
11.0
 40
11.0
 10
123.690641245119
 20
-152.4165364202292
 10
123.690641245119
 20
-152.4165364202292
 10
124.0375623604837
 20
-152.4165364202292
 10
124.0375623604837
 20
-152.4165364202292
 10
124.0375623604837
 20
-152.4165364202292
 10
124.0375623604837
 20
-152.6022270668842
 10
124.0375623604837
 20
-152.6022270668842
 10
124.0375623604837
 20
-152.6022270668842
 10
123.690641245119
 20
-152.6022270668842
 10
123.690641245119
 20
-152.6022270668842
 10
123.690641245119
 20
-152.6022270668842
 10
123.690641245119
 20
-153.1613660641402
 10
123.690641245119
 20
-153.1613660641402
 10
123.690641245119
 20
-153.1613660641402
 10
123.4663655290292
 20
-153.1613660641402
 10
123.4663655290292
 20
-153.1613660641402
 10
123.4663655290292
 20
-153.1613660641402
 10
122.4931260544461
 20
-152.5825900226182
 10
122.4931260544461
 20
-152.5825900226182
 10
122.4931260544461
 20
-152.5825900226182
 10
122.4931260544461
 20
-152.4165364202292
 10
122.4931260544461
 20
-152.4165364202292
 10
122.4931260544461
 20
-152.4165364202292
 10
123.4918592356201
 20
-152.4165364202292
 10
123.4918592356201
 20
-152.4165364202292
 10
123.4918592356201
 20
-152.4165364202292
 10
123.4918592356201
 20
-152.2398030218359
 10
123.4918592356201
 20
-152.2398030218359
 10
123.4918592356201
 20
-152.2398030218359
 10
123.690641245119
 20
-152.2398030218359
 10
123.690641245119
 20
-152.2398030218359
 10
123.690641245119
 20
-152.2398030218359
 10
123.690641245119
 20
-152.4165364202292
 10
123.690641245119
 20
-152.4165364202292
 97
        0
 97
        1
330
CB
 75
     2
 76
     1
 98
        1
 10
0.0
 20
0.0
450
        0
451
        0
460
0.0
461
0.0
452
        0
462
0.0
453
        0
470

  0
ENDBLK
  5
C4
330
C1
100
AcDbEntity
  8
0
100
AcDbBlockEnd
  0
BLOCK
  5
CF
330
CD
100
AcDbEntity
  8
0
100
AcDbBlockBegin
  2
Block_9
 70
     0
 10
0.0
 20
0.0
 30
0.0
  3
Block_9
  1

  0
LINE
  5
D1
330
CD
100
AcDbEntity
  8
レイヤー 1
 62
   250
420
  2299925
370
     9
100
AcDbLine
 10
92.21234386148019
 20
-158.2210255473179
 30
0.0
 11
104.2123266108907
 21
-158.2210255473179
 31
0.0
  0
LINE
  5
D2
330
CD
100
AcDbEntity
  8
レイヤー 1
 62
   250
420
  2299925
370
     9
100
AcDbLine
 10
92.21234386148019
 20
-147.2614902713634
 30
0.0
 11
92.21234386148019
 21
-159.2214680217945
 31
0.0
  0
LINE
  5
D3
330
CD
100
AcDbEntity
  8
レイヤー 1
 62
   250
420
  2299925
370
     9
100
AcDbLine
 10
104.2123266108907
 20
-156.7609816973644
 30
0.0
 11
104.2123266108907
 21
-159.2214680217945
 31
0.0
  0
INSERT
  5
D5
330
CD
100
AcDbEntity
  8
レイヤー 1
100
AcDbBlockReference
  2
Block_10
 10
0.0
 20
0.0
 30
0.0
  0
ENDBLK
  5
D0
330
CD
100
AcDbEntity
  8
0
100
AcDbBlockEnd
  0
BLOCK
  5
D6
330
D4
100
AcDbEntity
  8
0
100
AcDbBlockBegin
  2
Block_10
 70
     0
 10
0.0
 20
0.0
 30
0.0
  3
Block_10
  1

  0
INSERT
  5
D9
330
D4
100
AcDbEntity
  8
レイヤー 1
100
AcDbBlockReference
  2
Block_11
 10
0.0
 20
0.0
 30
0.0
  0
ENDBLK
  5
D7
330
D4
100
AcDbEntity
  8
0
100
AcDbBlockEnd
  0
BLOCK
  5
DA
330
D8
100
AcDbEntity
  8
0
100
AcDbBlockBegin
  2
Block_11
 70
     0
 10
0.0
 20
0.0
 30
0.0
  3
Block_11
  1

  0
SPLINE
  5
DC
330
D8
100
AcDbEntity
  8
レイヤー 1
100
AcDbSpline
210
0.0
220
0.0
230
1.0
 70
    11
 71
     3
 72
    26
 73
    22
 74
     0
 42
0.0000000001
 43
0.0000000001
 40
0.0
 40
0.0
 40
0.0
 40
0.0
 40
1.0
 40
1.0
 40
1.0
 40
2.0
 40
2.0
 40
2.0
 40
3.0
 40
3.0
 40
3.0
 40
4.0
 40
4.0
 40
4.0
 40
5.0
 40
5.0
 40
5.0
 40
6.0
 40
6.0
 40
6.0
 40
7.0
 40
7.0
 40
7.0
 40
7.0
 10
97.67035180934978
 20
-157.5755669093908
 30
0.0
 10
97.67035180934978
 20
-157.5755669093908
 30
0.0
 10
97.67035180934978
 20
-156.4714138063683
 30
0.0
 10
97.67035180934978
 20
-156.4714138063683
 30
0.0
 10
97.67035180934978
 20
-156.4714138063683
 30
0.0
 10
97.38888750820485
 20
-156.4714138063683
 30
0.0
 10
97.38888750820485
 20
-156.4714138063683
 30
0.0
 10
97.38888750820485
 20
-156.4714138063683
 30
0.0
 10
97.38888750820485
 20
-156.3232747005025
 30
0.0
 10
97.38888750820485
 20
-156.3232747005025
 30
0.0
 10
97.6720743570924
 20
-156.3084607899159
 30
0.0
 10
97.71169295517278
 20
-156.1455077734636
 30
0.0
 10
97.73701440698935
 20
-156.0311306033533
 30
0.0
 10
97.73701440698935
 20
-156.0311306033533
 30
0.0
 10
97.86138235400688
 20
-156.0311306033533
 30
0.0
 10
97.86138235400688
 20
-156.0311306033533
 30
0.0
 10
97.86138235400688
 20
-156.0311306033533
 30
0.0
 10
97.86138235400688
 20
-157.5755669093908
 30
0.0
 10
97.86138235400688
 20
-157.5755669093908
 30
0.0
 10
97.86138235400688
 20
-157.5755669093908
 30
0.0
 10
97.67035180934978
 20
-157.5755669093908
 30
0.0
 10
97.67035180934978
 20
-157.5755669093908
 30
0.0
  0
HATCH
  5
DD
330
D8
100
AcDbEntity
  8
レイヤー 1
 62
   250
420
  2299925
440
 33554687
100
AcDbHatch
 10
0.0
 20
0.0
 30
0.0
210
0.0
220
0.0
230
1.0
  2
SOLID
 70
     1
 71
     1
 91
        1
 92
        1
 93
        1
 72
     4
 94
        3
 73
     0
 74
     0
 95
       26
 96
       22
 40
0.0
 40
0.0
 40
0.0
 40
0.0
 40
1.0
 40
1.0
 40
1.0
 40
2.0
 40
2.0
 40
2.0
 40
3.0
 40
3.0
 40
3.0
 40
4.0
 40
4.0
 40
4.0
 40
5.0
 40
5.0
 40
5.0
 40
6.0
 40
6.0
 40
6.0
 40
7.0
 40
7.0
 40
7.0
 40
7.0
 10
97.67035180934978
 20
-157.5755669093908
 10
97.67035180934978
 20
-157.5755669093908
 10
97.67035180934978
 20
-156.4714138063683
 10
97.67035180934978
 20
-156.4714138063683
 10
97.67035180934978
 20
-156.4714138063683
 10
97.38888750820485
 20
-156.4714138063683
 10
97.38888750820485
 20
-156.4714138063683
 10
97.38888750820485
 20
-156.4714138063683
 10
97.38888750820485
 20
-156.3232747005025
 10
97.38888750820485
 20
-156.3232747005025
 10
97.6720743570924
 20
-156.3084607899159
 10
97.71169295517278
 20
-156.1455077734636
 10
97.73701440698935
 20
-156.0311306033533
 10
97.73701440698935
 20
-156.0311306033533
 10
97.86138235400688
 20
-156.0311306033533
 10
97.86138235400688
 20
-156.0311306033533
 10
97.86138235400688
 20
-156.0311306033533
 10
97.86138235400688
 20
-157.5755669093908
 10
97.86138235400688
 20
-157.5755669093908
 10
97.86138235400688
 20
-157.5755669093908
 10
97.67035180934978
 20
-157.5755669093908
 10
97.67035180934978
 20
-157.5755669093908
 97
        0
 97
        1
330
DC
 75
     2
 76
     1
 98
        1
 10
0.0
 20
0.0
450
        0
451
        0
460
0.0
461
0.0
452
        0
462
0.0
453
        0
470

  0
SPLINE
  5
DE
330
D8
100
AcDbEntity
  8
レイヤー 1
100
AcDbSpline
210
0.0
220
0.0
230
1.0
 70
     9
 71
     3
 72
    44
 73
    40
 74
     0
 42
0.0000000001
 43
0.0000000001
 40
0.0
 40
0.0
 40
0.0
 40
0.0
 40
1.0
 40
1.0
 40
1.0
 40
2.0
 40
2.0
 40
2.0
 40
3.0
 40
3.0
 40
3.0
 40
4.0
 40
4.0
 40
4.0
 40
5.0
 40
5.0
 40
5.0
 40
6.0
 40
6.0
 40
6.0
 40
7.0
 40
7.0
 40
7.0
 40
8.0
 40
8.0
 40
8.0
 40
9.0
 40
9.0
 40
9.0
 40
10.0
 40
10.0
 40
10.0
 40
11.0
 40
11.0
 40
11.0
 40
12.0
 40
12.0
 40
12.0
 40
13.0
 40
13.0
 40
13.0
 40
13.0
 10
98.79293617321843
 20
-156.9936902819321
 30
0.0
 10
98.60724552656348
 20
-157.1525091838021
 30
0.0
 10
98.52783607562846
 20
-157.226578736735
 30
0.0
 10
98.4863226750312
 20
-157.3702392184699
 30
0.0
 10
98.4863226750312
 20
-157.3702392184699
 30
0.0
 10
99.15002032026459
 20
-157.3702392184699
 30
0.0
 10
99.15002032026459
 20
-157.3702392184699
 30
0.0
 10
99.15002032026459
 20
-157.3702392184699
 30
0.0
 10
99.15002032026459
 20
-157.5755669093908
 30
0.0
 10
99.15002032026459
 20
-157.5755669093908
 30
0.0
 10
99.15002032026459
 20
-157.5755669093908
 30
0.0
 10
98.27358802881704
 20
-157.5755669093908
 30
0.0
 10
98.27358802881704
 20
-157.5755669093908
 30
0.0
 10
98.30063202837624
 20
-157.2179659980219
 30
0.0
 10
98.35661483001155
 20
-157.1397623305067
 30
0.0
 10
98.6847601749816
 20
-156.8414170614841
 30
0.0
 10
98.90300697397217
 20
-156.6426350519852
 30
0.0
 10
98.95881752083322
 20
-156.5747666709257
 30
0.0
 10
98.95881752083322
 20
-156.4373073610643
 30
0.0
 10
98.95881752083322
 20
-156.3187960763717
 30
0.0
 10
98.89749482119576
 20
-156.1878824479322
 30
0.0
 10
98.72989092583836
 20
-156.1878824479322
 30
0.0
 10
98.50802677658828
 20
-156.1878824479322
 30
0.0
 10
98.50079207606924
 20
-156.4183593358954
 30
0.0
 10
98.49717472580975
 20
-156.5348035632968
 30
0.0
 10
98.49717472580975
 20
-156.5348035632968
 30
0.0
 10
98.30597192637839
 20
-156.5348035632968
 30
0.0
 10
98.30597192637839
 20
-156.5348035632968
 30
0.0
 10
98.31320662689741
 20
-156.4076795398911
 30
0.0
 10
98.32233612993331
 20
-156.2957139366205
 30
0.0
 10
98.39072127531551
 20
-156.1772026519279
 30
0.0
 10
98.48460012728857
 20
-156.0163166927667
 30
0.0
 10
98.64324677438434
 20
-155.9825547570113
 30
0.0
 10
98.74246552435954
 20
-155.9825547570113
 30
0.0
 10
98.97862681987341
 20
-155.9825547570113
 30
0.0
 10
99.15536021826673
 20
-156.1665228559236
 30
0.0
 10
99.15536021826673
 20
-156.4393744183554
 30
0.0
 10
99.15536021826673
 20
-156.668128758576
 30
0.0
 10
99.05614146829153
 20
-156.7673475085512
 30
0.0
 10
98.79293617321843
 20
-156.9936902819321
 30
0.0
  0
HATCH
  5
DF
330
D8
100
AcDbEntity
  8
レイヤー 1
 62
   250
420
  2299925
440
 33554687
100
AcDbHatch
 10
0.0
 20
0.0
 30
0.0
210
0.0
220
0.0
230
1.0
  2
SOLID
 70
     1
 71
     1
 91
        1
 92
        1
 93
        1
 72
     4
 94
        3
 73
     0
 74
     0
 95
       44
 96
       40
 40
0.0
 40
0.0
 40
0.0
 40
0.0
 40
1.0
 40
1.0
 40
1.0
 40
2.0
 40
2.0
 40
2.0
 40
3.0
 40
3.0
 40
3.0
 40
4.0
 40
4.0
 40
4.0
 40
5.0
 40
5.0
 40
5.0
 40
6.0
 40
6.0
 40
6.0
 40
7.0
 40
7.0
 40
7.0
 40
8.0
 40
8.0
 40
8.0
 40
9.0
 40
9.0
 40
9.0
 40
10.0
 40
10.0
 40
10.0
 40
11.0
 40
11.0
 40
11.0
 40
12.0
 40
12.0
 40
12.0
 40
13.0
 40
13.0
 40
13.0
 40
13.0
 10
98.79293617321843
 20
-156.9936902819321
 10
98.60724552656348
 20
-157.1525091838021
 10
98.52783607562846
 20
-157.226578736735
 10
98.4863226750312
 20
-157.3702392184699
 10
98.4863226750312
 20
-157.3702392184699
 10
99.15002032026459
 20
-157.3702392184699
 10
99.15002032026459
 20
-157.3702392184699
 10
99.15002032026459
 20
-157.3702392184699
 10
99.15002032026459
 20
-157.5755669093908
 10
99.15002032026459
 20
-157.5755669093908
 10
99.15002032026459
 20
-157.5755669093908
 10
98.27358802881704
 20
-157.5755669093908
 10
98.27358802881704
 20
-157.5755669093908
 10
98.30063202837624
 20
-157.2179659980219
 10
98.35661483001155
 20
-157.1397623305067
 10
98.6847601749816
 20
-156.8414170614841
 10
98.90300697397217
 20
-156.6426350519852
 10
98.95881752083322
 20
-156.5747666709257
 10
98.95881752083322
 20
-156.4373073610643
 10
98.95881752083322
 20
-156.3187960763717
 10
98.89749482119576
 20
-156.1878824479322
 10
98.72989092583836
 20
-156.1878824479322
 10
98.50802677658828
 20
-156.1878824479322
 10
98.50079207606924
 20
-156.4183593358954
 10
98.49717472580975
 20
-156.5348035632968
 10
98.49717472580975
 20
-156.5348035632968
 10
98.30597192637839
 20
-156.5348035632968
 10
98.30597192637839
 20
-156.5348035632968
 10
98.31320662689741
 20
-156.4076795398911
 10
98.32233612993331
 20
-156.2957139366205
 10
98.39072127531551
 20
-156.1772026519279
 10
98.48460012728857
 20
-156.0163166927667
 10
98.64324677438434
 20
-155.9825547570113
 10
98.74246552435954
 20
-155.9825547570113
 10
98.97862681987341
 20
-155.9825547570113
 10
99.15536021826673
 20
-156.1665228559236
 10
99.15536021826673
 20
-156.4393744183554
 10
99.15536021826673
 20
-156.668128758576
 10
99.05614146829153
 20
-156.7673475085512
 10
98.79293617321843
 20
-156.9936902819321
 97
        0
 97
        1
330
DE
 75
     2
 76
     1
 98
        1
 10
0.0
 20
0.0
450
        0
451
        0
460
0.0
461
0.0
452
        0
462
0.0
453
        0
470

  0
ENDBLK
  5
DB
330
D8
100
AcDbEntity
  8
0
100
AcDbBlockEnd
  0
BLOCK
  5
E2
330
E0
100
AcDbEntity
  8
0
100
AcDbBlockBegin
  2
Block_12
 70
     0
 10
0.0
 20
0.0
 30
0.0
  3
Block_12
  1

  0
LINE
  5
E4
330
E0
100
AcDbEntity
  8
レイヤー 1
 62
   250
420
  2299925
370
     9
100
AcDbLine
 10
125.2122346862495
 20
-143.6213881420079
 30
0.0
 11
125.2122346862495
 21
-153.1215876218599
 31
0.0
  0
LINE
  5
E5
330
E0
100
AcDbEntity
  8
レイヤー 1
 62
   250
420
  2299925
370
     9
100
AcDbLine
 10
107.8523934624693
 20
-143.6213881420079
 30
0.0
 11
126.2123596607342
 21
-143.6213881420079
 31
0.0
  0
INSERT
  5
E7
330
E0
100
AcDbEntity
  8
レイヤー 1
100
AcDbBlockReference
  2
Block_13
 10
0.0
 20
0.0
 30
0.0
  0
ENDBLK
  5
E3
330
E0
100
AcDbEntity
  8
0
100
AcDbBlockEnd
  0
BLOCK
  5
E8
330
E6
100
AcDbEntity
  8
0
100
AcDbBlockBegin
  2
Block_13
 70
     0
 10
0.0
 20
0.0
 30
0.0
  3
Block_13
  1

  0
INSERT
  5
EB
330
E6
100
AcDbEntity
  8
レイヤー 1
100
AcDbBlockReference
  2
Block_14
 10
0.0
 20
0.0
 30
0.0
  0
ENDBLK
  5
E9
330
E6
100
AcDbEntity
  8
0
100
AcDbBlockEnd
  0
BLOCK
  5
EC
330
EA
100
AcDbEntity
  8
0
100
AcDbBlockBegin
  2
Block_14
 70
     0
 10
0.0
 20
0.0
 30
0.0
  3
Block_14
  1

  0
SPLINE
  5
EE
330
EA
100
AcDbEntity
  8
レイヤー 1
100
AcDbSpline
210
0.0
220
0.0
230
1.0
 70
     9
 71
     3
 72
    17
 73
    13
 74
     0
 42
0.0000000001
 43
0.0000000001
 40
0.0
 40
0.0
 40
0.0
 40
0.0
 40
1.0
 40
1.0
 40
1.0
 40
2.0
 40
2.0
 40
2.0
 40
3.0
 40
3.0
 40
3.0
 40
4.0
 40
4.0
 40
4.0
 40
4.0
 10
122.6371310457296
 20
-149.1950276319721
 30
0.0
 10
122.6371310457296
 20
-149.2959689296899
 30
0.0
 10
122.6943196307847
 20
-149.4458305832982
 30
0.0
 10
122.979918046512
 20
-149.4458305832982
 30
0.0
 10
123.2062608198929
 20
-149.4458305832982
 30
0.0
 10
123.3013454552858
 20
-149.3266302795086
 30
0.0
 10
123.3013454552858
 20
-149.2112195807527
 30
0.0
 10
123.3013454552858
 20
-148.98763288376
 30
0.0
 10
123.0918836497826
 20
-148.9552489861987
 30
0.0
 10
122.9754394223811
 20
-148.9552489861987
 30
0.0
 10
122.8000840621819
 20
-148.9552489861987
 30
0.0
 10
122.6371310457296
 20
-149.036208730102
 30
0.0
 10
122.6371310457296
 20
-149.1950276319721
 30
0.0
  0
SPLINE
  5
EF
330
EA
100
AcDbEntity
  8
レイヤー 1
100
AcDbSpline
210
0.0
220
0.0
230
1.0
 70
     9
 71
     3
 72
    32
 73
    28
 74
     0
 42
0.0000000001
 43
0.0000000001
 40
0.0
 40
0.0
 40
0.0
 40
0.0
 40
1.0
 40
1.0
 40
1.0
 40
2.0
 40
2.0
 40
2.0
 40
3.0
 40
3.0
 40
3.0
 40
4.0
 40
4.0
 40
4.0
 40
5.0
 40
5.0
 40
5.0
 40
6.0
 40
6.0
 40
6.0
 40
7.0
 40
7.0
 40
7.0
 40
8.0
 40
8.0
 40
8.0
 40
9.0
 40
9.0
 40
9.0
 40
9.0
 10
124.0882052641168
 20
-149.2294785868246
 30
0.0
 10
124.0882052641168
 20
-149.3772731831418
 30
0.0
 10
124.0186143353148
 20
-149.5863904790964
 30
0.0
 10
123.6865071305367
 20
-149.6187743766578
 30
0.0
 10
123.6865071305367
 20
-149.6187743766578
 30
0.0
 10
123.6865071305367
 20
-149.4365288254881
 30
0.0
 10
123.6865071305367
 20
-149.4365288254881
 30
0.0
 10
123.745762772883
 20
-149.4275715772264
 30
0.0
 10
123.8935573692002
 20
-149.4006998324415
 30
0.0
 10
123.8935573692002
 20
-149.2274115295334
 30
0.0
 10
123.8935573692002
 20
-148.9786756354984
 30
0.0
 10
123.5635172217133
 20
-148.946291737937
 30
0.0
 10
123.3585340403409
 20
-148.9352674323842
 30
0.0
 10
123.4388047651472
 20
-149.0127820808023
 30
0.0
 10
123.4959933502024
 20
-149.0706596849545
 30
0.0
 10
123.4959933502024
 20
-149.2256889817908
 30
0.0
 10
123.4959933502024
 20
-149.3789957308844
 30
0.0
 10
123.3902289188052
 20
-149.6370333827296
 30
0.0
 10
122.9840521610942
 20
-149.6370333827296
 30
0.0
 10
122.6646918096116
 20
-149.6370333827296
 30
0.0
 10
122.4445502081041
 20
-149.4671901753068
 30
0.0
 10
122.4445502081041
 20
-149.1967501797147
 30
0.0
 10
122.4445502081041
 20
-148.7585340339909
 30
0.0
 10
122.9988660716808
 20
-148.7495767857293
 30
0.0
 10
123.2124619917663
 20
-148.7495767857293
 30
0.0
 10
123.4429388797295
 20
-148.7495767857293
 30
0.0
 10
124.0882052641168
 20
-148.7657687345099
 30
0.0
 10
124.0882052641168
 20
-149.2294785868246
 30
0.0
  0
HATCH
  5
F0
330
EA
100
AcDbEntity
  8
レイヤー 1
 62
   250
420
  2299925
440
 33554687
100
AcDbHatch
 10
0.0
 20
0.0
 30
0.0
210
0.0
220
0.0
230
1.0
  2
SOLID
 70
     1
 71
     1
 91
        2
 92
        1
 93
        1
 72
     4
 94
        3
 73
     0
 74
     0
 95
       17
 96
       13
 40
0.0
 40
0.0
 40
0.0
 40
0.0
 40
1.0
 40
1.0
 40
1.0
 40
2.0
 40
2.0
 40
2.0
 40
3.0
 40
3.0
 40
3.0
 40
4.0
 40
4.0
 40
4.0
 40
4.0
 10
122.6371310457296
 20
-149.1950276319721
 10
122.6371310457296
 20
-149.2959689296899
 10
122.6943196307847
 20
-149.4458305832982
 10
122.979918046512
 20
-149.4458305832982
 10
123.2062608198929
 20
-149.4458305832982
 10
123.3013454552858
 20
-149.3266302795086
 10
123.3013454552858
 20
-149.2112195807527
 10
123.3013454552858
 20
-148.98763288376
 10
123.0918836497826
 20
-148.9552489861987
 10
122.9754394223811
 20
-148.9552489861987
 10
122.8000840621819
 20
-148.9552489861987
 10
122.6371310457296
 20
-149.036208730102
 10
122.6371310457296
 20
-149.1950276319721
 97
        0
 97
        1
330
EE
 92
        1
 93
        1
 72
     4
 94
        3
 73
     0
 74
     0
 95
       32
 96
       28
 40
0.0
 40
0.0
 40
0.0
 40
0.0
 40
1.0
 40
1.0
 40
1.0
 40
2.0
 40
2.0
 40
2.0
 40
3.0
 40
3.0
 40
3.0
 40
4.0
 40
4.0
 40
4.0
 40
5.0
 40
5.0
 40
5.0
 40
6.0
 40
6.0
 40
6.0
 40
7.0
 40
7.0
 40
7.0
 40
8.0
 40
8.0
 40
8.0
 40
9.0
 40
9.0
 40
9.0
 40
9.0
 10
124.0882052641168
 20
-149.2294785868246
 10
124.0882052641168
 20
-149.3772731831418
 10
124.0186143353148
 20
-149.5863904790964
 10
123.6865071305367
 20
-149.6187743766578
 10
123.6865071305367
 20
-149.6187743766578
 10
123.6865071305367
 20
-149.4365288254881
 10
123.6865071305367
 20
-149.4365288254881
 10
123.745762772883
 20
-149.4275715772264
 10
123.8935573692002
 20
-149.4006998324415
 10
123.8935573692002
 20
-149.2274115295334
 10
123.8935573692002
 20
-148.9786756354984
 10
123.5635172217133
 20
-148.946291737937
 10
123.3585340403409
 20
-148.9352674323842
 10
123.4388047651472
 20
-149.0127820808023
 10
123.4959933502024
 20
-149.0706596849545
 10
123.4959933502024
 20
-149.2256889817908
 10
123.4959933502024
 20
-149.3789957308844
 10
123.3902289188052
 20
-149.6370333827296
 10
122.9840521610942
 20
-149.6370333827296
 10
122.6646918096116
 20
-149.6370333827296
 10
122.4445502081041
 20
-149.4671901753068
 10
122.4445502081041
 20
-149.1967501797147
 10
122.4445502081041
 20
-148.7585340339909
 10
122.9988660716808
 20
-148.7495767857293
 10
123.2124619917663
 20
-148.7495767857293
 10
123.4429388797295
 20
-148.7495767857293
 10
124.0882052641168
 20
-148.7657687345099
 10
124.0882052641168
 20
-149.2294785868246
 97
        0
 97
        1
330
EF
 75
     2
 76
     1
 98
        1
 10
0.0
 20
0.0
450
        0
451
        0
460
0.0
461
0.0
452
        0
462
0.0
453
        0
470

  0
SPLINE
  5
F1
330
EA
100
AcDbEntity
  8
レイヤー 1
100
AcDbSpline
210
0.0
220
0.0
230
1.0
 70
    11
 71
     3
 72
    17
 73
    13
 74
     0
 42
0.0000000001
 43
0.0000000001
 40
0.0
 40
0.0
 40
0.0
 40
0.0
 40
1.0
 40
1.0
 40
1.0
 40
2.0
 40
2.0
 40
2.0
 40
3.0
 40
3.0
 40
3.0
 40
4.0
 40
4.0
 40
4.0
 40
4.0
 10
124.0375623604837
 20
-148.5666422154625
 30
0.0
 10
124.0375623604837
 20
-148.5666422154625
 30
0.0
 10
123.7857258805119
 20
-148.5666422154625
 30
0.0
 10
123.7857258805119
 20
-148.5666422154625
 30
0.0
 10
123.7857258805119
 20
-148.5666422154625
 30
0.0
 10
123.7857258805119
 20
-148.3520127667314
 30
0.0
 10
123.7857258805119
 20
-148.3520127667314
 30
0.0
 10
123.7857258805119
 20
-148.3520127667314
 30
0.0
 10
124.0375623604837
 20
-148.3520127667314
 30
0.0
 10
124.0375623604837
 20
-148.3520127667314
 30
0.0
 10
124.0375623604837
 20
-148.3520127667314
 30
0.0
 10
124.0375623604837
 20
-148.5666422154625
 30
0.0
 10
124.0375623604837
 20
-148.5666422154625
 30
0.0
  0
HATCH
  5
F2
330
EA
100
AcDbEntity
  8
レイヤー 1
 62
   250
420
  2299925
440
 33554687
100
AcDbHatch
 10
0.0
 20
0.0
 30
0.0
210
0.0
220
0.0
230
1.0
  2
SOLID
 70
     1
 71
     1
 91
        1
 92
        1
 93
        1
 72
     4
 94
        3
 73
     0
 74
     0
 95
       17
 96
       13
 40
0.0
 40
0.0
 40
0.0
 40
0.0
 40
1.0
 40
1.0
 40
1.0
 40
2.0
 40
2.0
 40
2.0
 40
3.0
 40
3.0
 40
3.0
 40
4.0
 40
4.0
 40
4.0
 40
4.0
 10
124.0375623604837
 20
-148.5666422154625
 10
124.0375623604837
 20
-148.5666422154625
 10
123.7857258805119
 20
-148.5666422154625
 10
123.7857258805119
 20
-148.5666422154625
 10
123.7857258805119
 20
-148.5666422154625
 10
123.7857258805119
 20
-148.3520127667314
 10
123.7857258805119
 20
-148.3520127667314
 10
123.7857258805119
 20
-148.3520127667314
 10
124.0375623604837
 20
-148.3520127667314
 10
124.0375623604837
 20
-148.3520127667314
 10
124.0375623604837
 20
-148.3520127667314
 10
124.0375623604837
 20
-148.5666422154625
 10
124.0375623604837
 20
-148.5666422154625
 97
        0
 97
        1
330
F1
 75
     2
 76
     1
 98
        1
 10
0.0
 20
0.0
450
        0
451
        0
460
0.0
461
0.0
452
        0
462
0.0
453
        0
470

  0
SPLINE
  5
F3
330
EA
100
AcDbEntity
  8
レイヤー 1
100
AcDbSpline
210
0.0
220
0.0
230
1.0
 70
     9
 71
     3
 72
    53
 73
    49
 74
     0
 42
0.0000000001
 43
0.0000000001
 40
0.0
 40
0.0
 40
0.0
 40
0.0
 40
1.0
 40
1.0
 40
1.0
 40
2.0
 40
2.0
 40
2.0
 40
3.0
 40
3.0
 40
3.0
 40
4.0
 40
4.0
 40
4.0
 40
5.0
 40
5.0
 40
5.0
 40
6.0
 40
6.0
 40
6.0
 40
7.0
 40
7.0
 40
7.0
 40
8.0
 40
8.0
 40
8.0
 40
9.0
 40
9.0
 40
9.0
 40
10.0
 40
10.0
 40
10.0
 40
11.0
 40
11.0
 40
11.0
 40
12.0
 40
12.0
 40
12.0
 40
13.0
 40
13.0
 40
13.0
 40
14.0
 40
14.0
 40
14.0
 40
15.0
 40
15.0
 40
15.0
 40
16.0
 40
16.0
 40
16.0
 40
16.0
 10
124.0882052641168
 20
-147.7408528276481
 30
0.0
 10
124.0882052641168
 20
-147.807687680062
 30
0.0
 10
124.0713242962391
 20
-147.8941595767417
 30
0.0
 10
124.0079345393105
 20
-147.9806314734215
 30
0.0
 10
123.898035993331
 20
-148.1284260697387
 30
0.0
 10
123.766777855343
 20
-148.1466850758105
 30
0.0
 10
123.6589463666547
 20
-148.1628770245912
 30
0.0
 10
123.6589463666547
 20
-148.1628770245912
 30
0.0
 10
123.6589463666547
 20
-147.9733967729025
 30
0.0
 10
123.6589463666547
 20
-147.9733967729025
 30
0.0
 10
123.8577283761536
 20
-147.9265434743031
 30
0.0
 10
123.8873561973268
 20
-147.8183674760662
 30
0.0
 10
123.8873561973268
 20
-147.7391302799055
 30
0.0
 10
123.8873561973268
 20
-147.6199299761158
 30
0.0
 10
123.787792937803
 20
-147.4900498763219
 30
0.0
 10
123.5552489925487
 20
-147.4900498763219
 30
0.0
 10
123.2992783979946
 20
-147.4900498763219
 30
0.0
 10
123.229342959644
 20
-147.6433566254155
 30
0.0
 10
123.229342959644
 20
-147.7463649804245
 30
0.0
 10
123.229342959644
 20
-147.7732367252095
 30
0.0
 10
123.229342959644
 20
-147.8941595767417
 30
0.0
 10
123.3585340403409
 20
-147.9699516774172
 30
0.0
 10
123.3585340403409
 20
-147.9699516774172
 30
0.0
 10
123.339586015172
 20
-148.1194688214771
 30
0.0
 10
123.339586015172
 20
-148.1194688214771
 30
0.0
 10
123.339586015172
 20
-148.1194688214771
 30
0.0
 10
122.4931260544461
 20
-148.0168049760166
 30
0.0
 10
122.4931260544461
 20
-148.0168049760166
 30
0.0
 10
122.4931260544461
 20
-148.0168049760166
 30
0.0
 10
122.4931260544461
 20
-147.3532795855575
 30
0.0
 10
122.4931260544461
 20
-147.3532795855575
 30
0.0
 10
122.4931260544461
 20
-147.3532795855575
 30
0.0
 10
122.6877739493628
 20
-147.3532795855575
 30
0.0
 10
122.6877739493628
 20
-147.3532795855575
 30
0.0
 10
122.6877739493628
 20
-147.3532795855575
 30
0.0
 10
122.6877739493628
 20
-147.8779676279611
 30
0.0
 10
122.6877739493628
 20
-147.8779676279611
 30
0.0
 10
122.6877739493628
 20
-147.8779676279611
 30
0.0
 10
123.1108316749514
 20
-147.9337781748221
 30
0.0
 10
123.1108316749514
 20
-147.9337781748221
 30
0.0
 10
123.077069739196
 20
-147.8814127234463
 30
0.0
 10
123.0367621220186
 20
-147.8111327755472
 30
0.0
 10
123.0367621220186
 20
-147.7101914778294
 30
0.0
 10
123.0367621220186
 20
-147.4938394813557
 30
0.0
 10
123.2231417877706
 20
-147.2919568859201
 30
0.0
 10
123.5363009673798
 20
-147.2919568859201
 30
0.0
 10
123.8535942615713
 20
-147.2919568859201
 30
0.0
 10
124.0882052641168
 20
-147.4828151758029
 30
0.0
 10
124.0882052641168
 20
-147.7408528276481
 30
0.0
  0
HATCH
  5
F4
330
EA
100
AcDbEntity
  8
レイヤー 1
 62
   250
420
  2299925
440
 33554687
100
AcDbHatch
 10
0.0
 20
0.0
 30
0.0
210
0.0
220
0.0
230
1.0
  2
SOLID
 70
     1
 71
     1
 91
        1
 92
        1
 93
        1
 72
     4
 94
        3
 73
     0
 74
     0
 95
       53
 96
       49
 40
0.0
 40
0.0
 40
0.0
 40
0.0
 40
1.0
 40
1.0
 40
1.0
 40
2.0
 40
2.0
 40
2.0
 40
3.0
 40
3.0
 40
3.0
 40
4.0
 40
4.0
 40
4.0
 40
5.0
 40
5.0
 40
5.0
 40
6.0
 40
6.0
 40
6.0
 40
7.0
 40
7.0
 40
7.0
 40
8.0
 40
8.0
 40
8.0
 40
9.0
 40
9.0
 40
9.0
 40
10.0
 40
10.0
 40
10.0
 40
11.0
 40
11.0
 40
11.0
 40
12.0
 40
12.0
 40
12.0
 40
13.0
 40
13.0
 40
13.0
 40
14.0
 40
14.0
 40
14.0
 40
15.0
 40
15.0
 40
15.0
 40
16.0
 40
16.0
 40
16.0
 40
16.0
 10
124.0882052641168
 20
-147.7408528276481
 10
124.0882052641168
 20
-147.807687680062
 10
124.0713242962391
 20
-147.8941595767417
 10
124.0079345393105
 20
-147.9806314734215
 10
123.898035993331
 20
-148.1284260697387
 10
123.766777855343
 20
-148.1466850758105
 10
123.6589463666547
 20
-148.1628770245912
 10
123.6589463666547
 20
-148.1628770245912
 10
123.6589463666547
 20
-147.9733967729025
 10
123.6589463666547
 20
-147.9733967729025
 10
123.8577283761536
 20
-147.9265434743031
 10
123.8873561973268
 20
-147.8183674760662
 10
123.8873561973268
 20
-147.7391302799055
 10
123.8873561973268
 20
-147.6199299761158
 10
123.787792937803
 20
-147.4900498763219
 10
123.5552489925487
 20
-147.4900498763219
 10
123.2992783979946
 20
-147.4900498763219
 10
123.229342959644
 20
-147.6433566254155
 10
123.229342959644
 20
-147.7463649804245
 10
123.229342959644
 20
-147.7732367252095
 10
123.229342959644
 20
-147.8941595767417
 10
123.3585340403409
 20
-147.9699516774172
 10
123.3585340403409
 20
-147.9699516774172
 10
123.339586015172
 20
-148.1194688214771
 10
123.339586015172
 20
-148.1194688214771
 10
123.339586015172
 20
-148.1194688214771
 10
122.4931260544461
 20
-148.0168049760166
 10
122.4931260544461
 20
-148.0168049760166
 10
122.4931260544461
 20
-148.0168049760166
 10
122.4931260544461
 20
-147.3532795855575
 10
122.4931260544461
 20
-147.3532795855575
 10
122.4931260544461
 20
-147.3532795855575
 10
122.6877739493628
 20
-147.3532795855575
 10
122.6877739493628
 20
-147.3532795855575
 10
122.6877739493628
 20
-147.3532795855575
 10
122.6877739493628
 20
-147.8779676279611
 10
122.6877739493628
 20
-147.8779676279611
 10
122.6877739493628
 20
-147.8779676279611
 10
123.1108316749514
 20
-147.9337781748221
 10
123.1108316749514
 20
-147.9337781748221
 10
123.077069739196
 20
-147.8814127234463
 10
123.0367621220186
 20
-147.8111327755472
 10
123.0367621220186
 20
-147.7101914778294
 10
123.0367621220186
 20
-147.4938394813557
 10
123.2231417877706
 20
-147.2919568859201
 10
123.5363009673798
 20
-147.2919568859201
 10
123.8535942615713
 20
-147.2919568859201
 10
124.0882052641168
 20
-147.4828151758029
 10
124.0882052641168
 20
-147.7408528276481
 97
        0
 97
        1
330
F3
 75
     2
 76
     1
 98
        1
 10
0.0
 20
0.0
450
        0
451
        0
460
0.0
461
0.0
452
        0
462
0.0
453
        0
470

  0
ENDBLK
  5
ED
330
EA
100
AcDbEntity
  8
0
100
AcDbBlockEnd
  0
BLOCK
  5
F7
330
F5
100
AcDbEntity
  8
0
100
AcDbBlockBegin
  2
Block_15
 70
     0
 10
0.0
 20
0.0
 30
0.0
  3
Block_15
  1

  0
INSERT
  5
FA
330
F5
100
AcDbEntity
  8
レイヤー 1
100
AcDbBlockReference
  2
Block_16
 10
0.0
 20
0.0
 30
0.0
  0
ENDBLK
  5
F8
330
F5
100
AcDbEntity
  8
0
100
AcDbBlockEnd
  0
BLOCK
  5
FB
330
F9
100
AcDbEntity
  8
0
100
AcDbBlockBegin
  2
Block_16
 70
     0
 10
0.0
 20
0.0
 30
0.0
  3
Block_16
  1

  0
SPLINE
  5
FD
330
F9
100
AcDbEntity
  8
レイヤー 1
100
AcDbSpline
210
0.0
220
0.0
230
1.0
 70
     9
 71
     3
 72
    59
 73
    55
 74
     0
 42
0.0000000001
 43
0.0000000001
 40
0.0
 40
0.0
 40
0.0
 40
0.0
 40
1.0
 40
1.0
 40
1.0
 40
2.0
 40
2.0
 40
2.0
 40
3.0
 40
3.0
 40
3.0
 40
4.0
 40
4.0
 40
4.0
 40
5.0
 40
5.0
 40
5.0
 40
6.0
 40
6.0
 40
6.0
 40
7.0
 40
7.0
 40
7.0
 40
8.0
 40
8.0
 40
8.0
 40
9.0
 40
9.0
 40
9.0
 40
10.0
 40
10.0
 40
10.0
 40
11.0
 40
11.0
 40
11.0
 40
12.0
 40
12.0
 40
12.0
 40
13.0
 40
13.0
 40
13.0
 40
14.0
 40
14.0
 40
14.0
 40
15.0
 40
15.0
 40
15.0
 40
16.0
 40
16.0
 40
16.0
 40
17.0
 40
17.0
 40
17.0
 40
18.0
 40
18.0
 40
18.0
 40
18.0
 10
94.29484725290199
 20
-146.7304063218243
 30
0.0
 10
94.15239255458692
 20
-147.2170260591159
 30
0.0
 10
93.93965790837272
 20
-147.739474789454
 30
0.0
 10
93.42926701223296
 20
-148.0567680836455
 30
0.0
 10
93.42926701223296
 20
-148.0567680836455
 30
0.0
 10
93.26889781739458
 20
-147.9044948631975
 30
0.0
 10
93.26889781739458
 20
-147.9044948631975
 30
0.0
 10
93.40584036293327
 20
-147.8347316796211
 30
0.0
 10
93.61512991366218
 20
-147.7246608788674
 30
0.0
 10
93.82958710761899
 20
-147.3946207313805
 30
0.0
 10
94.0316419578289
 20
-147.0816338065455
 30
0.0
 10
94.08039005894519
 20
-146.8256632119915
 30
0.0
 10
94.10381670824488
 20
-146.69871144336
 30
0.0
 10
94.10381670824488
 20
-146.69871144336
 30
0.0
 10
93.55191241150786
 20
-146.69871144336
 30
0.0
 10
93.55191241150786
 20
-146.69871144336
 30
0.0
 10
93.4635457123112
 20
-146.8594251477469
 30
0.0
 10
93.36088186685076
 20
-147.0265122787816
 30
0.0
 10
93.1967230669786
 20
-147.1979057791727
 30
0.0
 10
93.1967230669786
 20
-147.1979057791727
 30
0.0
 10
93.04875621588712
 20
-147.0752603798978
 30
0.0
 10
93.04875621588712
 20
-147.0752603798978
 30
0.0
 10
93.0993991195203
 20
-147.028751590847
 30
0.0
 10
93.22548961428044
 20
-146.9166137328021
 30
0.0
 10
93.3662217648529
 20
-146.6670165648957
 30
0.0
 10
93.43116181474986
 20
-146.5485052802031
 30
0.0
 10
93.51952851394651
 20
-146.3791788371031
 30
0.0
 10
93.54106036072932
 20
-146.2565334378282
 30
0.0
 10
93.54106036072932
 20
-146.2565334378282
 30
0.0
 10
93.73777531293709
 20
-146.3579914998688
 30
0.0
 10
93.73777531293709
 20
-146.3579914998688
 30
0.0
 10
93.75034991145824
 20
-146.3643649265165
 30
0.0
 10
93.76292450997942
 20
-146.3728054104554
 30
0.0
 10
93.76292450997942
 20
-146.387619321042
 30
0.0
 10
93.76292450997942
 20
-146.4088066582763
 30
0.0
 10
93.74122040842234
 20
-146.4215535115717
 30
0.0
 10
93.73415796267757
 20
-146.4236205688628
 30
0.0
 10
93.71055905860362
 20
-146.4320610528017
 30
0.0
 10
93.70349661285885
 20
-146.4299939955105
 30
0.0
 10
93.68179251130177
 20
-146.4553154473271
 30
0.0
 10
93.66008840974471
 20
-146.480809153918
 30
0.0
 10
93.66198321226159
 20
-146.4892496378568
 30
0.0
 10
93.63493921270238
 20
-146.5421318535554
 30
0.0
 10
93.63493921270238
 20
-146.5421318535554
 30
0.0
 10
93.91984860933254
 20
-146.5421318535554
 30
0.0
 10
93.91984860933254
 20
-146.5421318535554
 30
0.0
 10
94.13809540832312
 20
-146.5421318535554
 30
0.0
 10
94.16513940788233
 20
-146.52938500026
 30
0.0
 10
94.21371525422435
 20
-146.4997571790869
 30
0.0
 10
94.21371525422435
 20
-146.4997571790869
 30
0.0
 10
94.34721270427777
 20
-146.6647772528303
 30
0.0
 10
94.34721270427777
 20
-146.6647772528303
 30
0.0
 10
94.31827390220169
 20
-146.7007785006512
 30
0.0
 10
94.31655135445906
 20
-146.7028455579423
 30
0.0
 10
94.29484725290199
 20
-146.7304063218243
 30
0.0
  0
HATCH
  5
FE
330
F9
100
AcDbEntity
  8
レイヤー 1
 62
   250
420
  2299925
440
 33554687
100
AcDbHatch
 10
0.0
 20
0.0
 30
0.0
210
0.0
220
0.0
230
1.0
  2
SOLID
 70
     1
 71
     1
 91
        1
 92
        1
 93
        1
 72
     4
 94
        3
 73
     0
 74
     0
 95
       59
 96
       55
 40
0.0
 40
0.0
 40
0.0
 40
0.0
 40
1.0
 40
1.0
 40
1.0
 40
2.0
 40
2.0
 40
2.0
 40
3.0
 40
3.0
 40
3.0
 40
4.0
 40
4.0
 40
4.0
 40
5.0
 40
5.0
 40
5.0
 40
6.0
 40
6.0
 40
6.0
 40
7.0
 40
7.0
 40
7.0
 40
8.0
 40
8.0
 40
8.0
 40
9.0
 40
9.0
 40
9.0
 40
10.0
 40
10.0
 40
10.0
 40
11.0
 40
11.0
 40
11.0
 40
12.0
 40
12.0
 40
12.0
 40
13.0
 40
13.0
 40
13.0
 40
14.0
 40
14.0
 40
14.0
 40
15.0
 40
15.0
 40
15.0
 40
16.0
 40
16.0
 40
16.0
 40
17.0
 40
17.0
 40
17.0
 40
18.0
 40
18.0
 40
18.0
 40
18.0
 10
94.29484725290199
 20
-146.7304063218243
 10
94.15239255458692
 20
-147.2170260591159
 10
93.93965790837272
 20
-147.739474789454
 10
93.42926701223296
 20
-148.0567680836455
 10
93.42926701223296
 20
-148.0567680836455
 10
93.26889781739458
 20
-147.9044948631975
 10
93.26889781739458
 20
-147.9044948631975
 10
93.40584036293327
 20
-147.8347316796211
 10
93.61512991366218
 20
-147.7246608788674
 10
93.82958710761899
 20
-147.3946207313805
 10
94.0316419578289
 20
-147.0816338065455
 10
94.08039005894519
 20
-146.8256632119915
 10
94.10381670824488
 20
-146.69871144336
 10
94.10381670824488
 20
-146.69871144336
 10
93.55191241150786
 20
-146.69871144336
 10
93.55191241150786
 20
-146.69871144336
 10
93.4635457123112
 20
-146.8594251477469
 10
93.36088186685076
 20
-147.0265122787816
 10
93.1967230669786
 20
-147.1979057791727
 10
93.1967230669786
 20
-147.1979057791727
 10
93.04875621588712
 20
-147.0752603798978
 10
93.04875621588712
 20
-147.0752603798978
 10
93.0993991195203
 20
-147.028751590847
 10
93.22548961428044
 20
-146.9166137328021
 10
93.3662217648529
 20
-146.6670165648957
 10
93.43116181474986
 20
-146.5485052802031
 10
93.51952851394651
 20
-146.3791788371031
 10
93.54106036072932
 20
-146.2565334378282
 10
93.54106036072932
 20
-146.2565334378282
 10
93.73777531293709
 20
-146.3579914998688
 10
93.73777531293709
 20
-146.3579914998688
 10
93.75034991145824
 20
-146.3643649265165
 10
93.76292450997942
 20
-146.3728054104554
 10
93.76292450997942
 20
-146.387619321042
 10
93.76292450997942
 20
-146.4088066582763
 10
93.74122040842234
 20
-146.4215535115717
 10
93.73415796267757
 20
-146.4236205688628
 10
93.71055905860362
 20
-146.4320610528017
 10
93.70349661285885
 20
-146.4299939955105
 10
93.68179251130177
 20
-146.4553154473271
 10
93.66008840974471
 20
-146.480809153918
 10
93.66198321226159
 20
-146.4892496378568
 10
93.63493921270238
 20
-146.5421318535554
 10
93.63493921270238
 20
-146.5421318535554
 10
93.91984860933254
 20
-146.5421318535554
 10
93.91984860933254
 20
-146.5421318535554
 10
94.13809540832312
 20
-146.5421318535554
 10
94.16513940788233
 20
-146.52938500026
 10
94.21371525422435
 20
-146.4997571790869
 10
94.21371525422435
 20
-146.4997571790869
 10
94.34721270427777
 20
-146.6647772528303
 10
94.34721270427777
 20
-146.6647772528303
 10
94.31827390220169
 20
-146.7007785006512
 10
94.31655135445906
 20
-146.7028455579423
 10
94.29484725290199
 20
-146.7304063218243
 97
        0
 97
        1
330
FD
 75
     2
 76
     1
 98
        1
 10
0.0
 20
0.0
450
        0
451
        0
460
0.0
461
0.0
452
        0
462
0.0
453
        0
470

  0
SPLINE
  5
FF
330
F9
100
AcDbEntity
  8
レイヤー 1
100
AcDbSpline
210
0.0
220
0.0
230
1.0
 70
    11
 71
     3
 72
    17
 73
    13
 74
     0
 42
0.0000000001
 43
0.0000000001
 40
0.0
 40
0.0
 40
0.0
 40
0.0
 40
1.0
 40
1.0
 40
1.0
 40
2.0
 40
2.0
 40
2.0
 40
3.0
 40
3.0
 40
3.0
 40
4.0
 40
4.0
 40
4.0
 40
4.0
 10
95.69286700081638
 20
-146.6394558010137
 30
0.0
 10
95.69286700081638
 20
-146.6394558010137
 30
0.0
 10
94.80558265859029
 20
-146.6394558010137
 30
0.0
 10
94.80558265859029
 20
-146.6394558010137
 30
0.0
 10
94.80558265859029
 20
-146.6394558010137
 30
0.0
 10
94.80558265859029
 20
-147.5279459266597
 30
0.0
 10
94.80558265859029
 20
-147.5279459266597
 30
0.0
 10
94.80558265859029
 20
-147.5279459266597
 30
0.0
 10
95.69286700081638
 20
-147.5279459266597
 30
0.0
 10
95.69286700081638
 20
-147.5279459266597
 30
0.0
 10
95.69286700081638
 20
-147.5279459266597
 30
0.0
 10
95.69286700081638
 20
-146.6394558010137
 30
0.0
 10
95.69286700081638
 20
-146.6394558010137
 30
0.0
  0
SPLINE
  5
100
330
F9
100
AcDbEntity
  8
レイヤー 1
100
AcDbSpline
210
0.0
220
0.0
230
1.0
 70
     9
 71
     3
 72
    53
 73
    49
 74
     0
 42
0.0000000001
 43
0.0000000001
 40
0.0
 40
0.0
 40
0.0
 40
0.0
 40
1.0
 40
1.0
 40
1.0
 40
2.0
 40
2.0
 40
2.0
 40
3.0
 40
3.0
 40
3.0
 40
4.0
 40
4.0
 40
4.0
 40
5.0
 40
5.0
 40
5.0
 40
6.0
 40
6.0
 40
6.0
 40
7.0
 40
7.0
 40
7.0
 40
8.0
 40
8.0
 40
8.0
 40
9.0
 40
9.0
 40
9.0
 40
10.0
 40
10.0
 40
10.0
 40
11.0
 40
11.0
 40
11.0
 40
12.0
 40
12.0
 40
12.0
 40
13.0
 40
13.0
 40
13.0
 40
14.0
 40
14.0
 40
14.0
 40
15.0
 40
15.0
 40
15.0
 40
16.0
 40
16.0
 40
16.0
 40
16.0
 10
95.67305770177618
 20
-147.84317216356
 30
0.0
 10
95.6802924022952
 20
-147.7987304318003
 30
0.0
 10
95.6802924022952
 20
-147.7902899478614
 30
0.0
 10
95.68563230029734
 20
-147.7162203949286
 30
0.0
 10
95.68563230029734
 20
-147.7162203949286
 30
0.0
 10
94.80747746110717
 20
-147.7162203949286
 30
0.0
 10
94.80747746110717
 20
-147.7162203949286
 30
0.0
 10
94.80747746110717
 20
-147.7479152733929
 30
0.0
 10
94.80747746110717
 20
-147.8030368011568
 30
0.0
 10
94.81109481136668
 20
-147.8388657942035
 30
0.0
 10
94.81109481136668
 20
-147.8388657942035
 30
0.0
 10
94.60542261089726
 20
-147.8388657942035
 30
0.0
 10
94.60542261089726
 20
-147.8388657942035
 30
0.0
 10
94.61093476367365
 20
-147.7839165212137
 30
0.0
 10
94.6198920119353
 20
-147.6929660004031
 30
0.0
 10
94.6198920119353
 20
-147.5639471744805
 30
0.0
 10
94.6217868144522
 20
-147.3587917383339
 30
0.0
 10
94.6217868144522
 20
-147.3353650890342
 30
0.0
 10
94.6217868144522
 20
-147.3121106945088
 30
0.0
 10
94.6217868144522
 20
-147.3121106945088
 30
0.0
 10
94.6217868144522
 20
-146.8721720010423
 30
0.0
 10
94.6217868144522
 20
-146.8721720010423
 30
0.0
 10
94.6217868144522
 20
-146.8065429320483
 30
0.0
 10
94.6162746616758
 20
-146.4828762112091
 30
0.0
 10
94.61265731141628
 20
-146.4279269382194
 30
0.0
 10
94.7191107619105
 20
-146.4405015367406
 30
0.0
 10
94.9445922614201
 20
-146.4448079060971
 30
0.0
 10
95.05638560991647
 20
-146.4448079060971
 30
0.0
 10
95.05638560991647
 20
-146.4448079060971
 30
0.0
 10
95.44395885200707
 20
-146.4448079060971
 30
0.0
 10
95.44395885200707
 20
-146.4448079060971
 30
0.0
 10
95.57211640405837
 20
-146.4448079060971
 30
0.0
 10
95.76314694871546
 20
-146.4427408488059
 30
0.0
 10
95.88768715050724
 20
-146.4343003648671
 30
0.0
 10
95.88045244998822
 20
-146.5441989108466
 30
0.0
 10
95.87683509972871
 20
-146.7937960787529
 30
0.0
 10
95.87683509972871
 20
-146.9123073634455
 30
0.0
 10
95.87683509972871
 20
-146.9123073634455
 30
0.0
 10
95.87683509972871
 20
-147.3312309744519
 30
0.0
 10
95.87683509972871
 20
-147.3312309744519
 30
0.0
 10
95.87683509972871
 20
-147.3736056489205
 30
0.0
 10
95.88217499773085
 20
-147.5555066905416
 30
0.0
 10
95.88217499773085
 20
-147.5935749956537
 30
0.0
 10
95.88406980024775
 20
-147.7437811588105
 30
0.0
 10
95.89130450076677
 20
-147.7944240624437
 30
0.0
 10
95.89853920128579
 20
-147.84317216356
 30
0.0
 10
95.89853920128579
 20
-147.84317216356
 30
0.0
 10
95.67305770177618
 20
-147.84317216356
 30
0.0
 10
95.67305770177618
 20
-147.84317216356
 30
0.0
  0
HATCH
  5
101
330
F9
100
AcDbEntity
  8
レイヤー 1
 62
   250
420
  2299925
440
 33554687
100
AcDbHatch
 10
0.0
 20
0.0
 30
0.0
210
0.0
220
0.0
230
1.0
  2
SOLID
 70
     1
 71
     1
 91
        2
 92
        1
 93
        1
 72
     4
 94
        3
 73
     0
 74
     0
 95
       17
 96
       13
 40
0.0
 40
0.0
 40
0.0
 40
0.0
 40
1.0
 40
1.0
 40
1.0
 40
2.0
 40
2.0
 40
2.0
 40
3.0
 40
3.0
 40
3.0
 40
4.0
 40
4.0
 40
4.0
 40
4.0
 10
95.69286700081638
 20
-146.6394558010137
 10
95.69286700081638
 20
-146.6394558010137
 10
94.80558265859029
 20
-146.6394558010137
 10
94.80558265859029
 20
-146.6394558010137
 10
94.80558265859029
 20
-146.6394558010137
 10
94.80558265859029
 20
-147.5279459266597
 10
94.80558265859029
 20
-147.5279459266597
 10
94.80558265859029
 20
-147.5279459266597
 10
95.69286700081638
 20
-147.5279459266597
 10
95.69286700081638
 20
-147.5279459266597
 10
95.69286700081638
 20
-147.5279459266597
 10
95.69286700081638
 20
-146.6394558010137
 10
95.69286700081638
 20
-146.6394558010137
 97
        0
 97
        1
330
FF
 92
        1
 93
        1
 72
     4
 94
        3
 73
     0
 74
     0
 95
       53
 96
       49
 40
0.0
 40
0.0
 40
0.0
 40
0.0
 40
1.0
 40
1.0
 40
1.0
 40
2.0
 40
2.0
 40
2.0
 40
3.0
 40
3.0
 40
3.0
 40
4.0
 40
4.0
 40
4.0
 40
5.0
 40
5.0
 40
5.0
 40
6.0
 40
6.0
 40
6.0
 40
7.0
 40
7.0
 40
7.0
 40
8.0
 40
8.0
 40
8.0
 40
9.0
 40
9.0
 40
9.0
 40
10.0
 40
10.0
 40
10.0
 40
11.0
 40
11.0
 40
11.0
 40
12.0
 40
12.0
 40
12.0
 40
13.0
 40
13.0
 40
13.0
 40
14.0
 40
14.0
 40
14.0
 40
15.0
 40
15.0
 40
15.0
 40
16.0
 40
16.0
 40
16.0
 40
16.0
 10
95.67305770177618
 20
-147.84317216356
 10
95.6802924022952
 20
-147.7987304318003
 10
95.6802924022952
 20
-147.7902899478614
 10
95.68563230029734
 20
-147.7162203949286
 10
95.68563230029734
 20
-147.7162203949286
 10
94.80747746110717
 20
-147.7162203949286
 10
94.80747746110717
 20
-147.7162203949286
 10
94.80747746110717
 20
-147.7479152733929
 10
94.80747746110717
 20
-147.8030368011568
 10
94.81109481136668
 20
-147.8388657942035
 10
94.81109481136668
 20
-147.8388657942035
 10
94.60542261089726
 20
-147.8388657942035
 10
94.60542261089726
 20
-147.8388657942035
 10
94.61093476367365
 20
-147.7839165212137
 10
94.6198920119353
 20
-147.6929660004031
 10
94.6198920119353
 20
-147.5639471744805
 10
94.6217868144522
 20
-147.3587917383339
 10
94.6217868144522
 20
-147.3353650890342
 10
94.6217868144522
 20
-147.3121106945088
 10
94.6217868144522
 20
-147.3121106945088
 10
94.6217868144522
 20
-146.8721720010423
 10
94.6217868144522
 20
-146.8721720010423
 10
94.6217868144522
 20
-146.8065429320483
 10
94.6162746616758
 20
-146.4828762112091
 10
94.61265731141628
 20
-146.4279269382194
 10
94.7191107619105
 20
-146.4405015367406
 10
94.9445922614201
 20
-146.4448079060971
 10
95.05638560991647
 20
-146.4448079060971
 10
95.05638560991647
 20
-146.4448079060971
 10
95.44395885200707
 20
-146.4448079060971
 10
95.44395885200707
 20
-146.4448079060971
 10
95.57211640405837
 20
-146.4448079060971
 10
95.76314694871546
 20
-146.4427408488059
 10
95.88768715050724
 20
-146.4343003648671
 10
95.88045244998822
 20
-146.5441989108466
 10
95.87683509972871
 20
-146.7937960787529
 10
95.87683509972871
 20
-146.9123073634455
 10
95.87683509972871
 20
-146.9123073634455
 10
95.87683509972871
 20
-147.3312309744519
 10
95.87683509972871
 20
-147.3312309744519
 10
95.87683509972871
 20
-147.3736056489205
 10
95.88217499773085
 20
-147.5555066905416
 10
95.88217499773085
 20
-147.5935749956537
 10
95.88406980024775
 20
-147.7437811588105
 10
95.89130450076677
 20
-147.7944240624437
 10
95.89853920128579
 20
-147.84317216356
 10
95.89853920128579
 20
-147.84317216356
 10
95.67305770177618
 20
-147.84317216356
 10
95.67305770177618
 20
-147.84317216356
 97
        0
 97
        1
330
100
 75
     2
 76
     1
 98
        1
 10
0.0
 20
0.0
450
        0
451
        0
460
0.0
461
0.0
452
        0
462
0.0
453
        0
470

  0
SPLINE
  5
102
330
F9
100
AcDbEntity
  8
レイヤー 1
100
AcDbSpline
210
0.0
220
0.0
230
1.0
 70
     9
 71
     3
 72
    56
 73
    52
 74
     0
 42
0.0000000001
 43
0.0000000001
 40
0.0
 40
0.0
 40
0.0
 40
0.0
 40
1.0
 40
1.0
 40
1.0
 40
2.0
 40
2.0
 40
2.0
 40
3.0
 40
3.0
 40
3.0
 40
4.0
 40
4.0
 40
4.0
 40
5.0
 40
5.0
 40
5.0
 40
6.0
 40
6.0
 40
6.0
 40
7.0
 40
7.0
 40
7.0
 40
8.0
 40
8.0
 40
8.0
 40
9.0
 40
9.0
 40
9.0
 40
10.0
 40
10.0
 40
10.0
 40
11.0
 40
11.0
 40
11.0
 40
12.0
 40
12.0
 40
12.0
 40
13.0
 40
13.0
 40
13.0
 40
14.0
 40
14.0
 40
14.0
 40
15.0
 40
15.0
 40
15.0
 40
16.0
 40
16.0
 40
16.0
 40
17.0
 40
17.0
 40
17.0
 40
17.0
 10
97.38492564839683
 20
-147.908801232554
 30
0.0
 10
97.22093910329894
 20
-147.5999484223014
 30
0.0
 10
97.00079750179147
 20
-147.3946207313805
 30
0.0
 10
96.92328285337335
 20
-147.3291639171607
 30
0.0
 10
96.67265215682142
 20
-147.6676445485865
 30
0.0
 10
96.425638810529
 20
-147.8199177690346
 30
0.0
 10
96.25614011265472
 20
-147.9129353471363
 30
0.0
 10
96.25614011265472
 20
-147.9129353471363
 30
0.0
 10
96.12092011485867
 20
-147.7246608788674
 30
0.0
 10
96.12092011485867
 20
-147.7246608788674
 30
0.0
 10
96.20928681405532
 20
-147.6886596310466
 30
0.0
 10
96.39136011045078
 20
-147.6125230208225
 30
0.0
 10
96.58962535562691
 20
-147.426487864619
 30
0.0
 10
96.8151068551365
 20
-147.2147867470505
 30
0.0
 10
96.97375350223225
 20
-146.9271212740321
 30
0.0
 10
97.07848440498386
 20
-146.6141343491971
 30
0.0
 10
97.07848440498386
 20
-146.6141343491971
 30
0.0
 10
96.75740150575856
 20
-146.6141343491971
 30
0.0
 10
96.75740150575856
 20
-146.6141343491971
 30
0.0
 10
96.62752140596467
 20
-146.6141343491971
 30
0.0
 10
96.44906545982872
 20
-146.6182684637794
 30
0.0
 10
96.32108016255168
 20
-146.6373887437226
 30
0.0
 10
96.32108016255168
 20
-146.6373887437226
 30
0.0
 10
96.32108016255168
 20
-146.4258598809282
 30
0.0
 10
96.32108016255168
 20
-146.4258598809282
 30
0.0
 10
96.37878551192962
 20
-146.4320610528017
 30
0.0
 10
96.60047740640544
 20
-146.4427408488059
 30
0.0
 10
96.67454695933832
 20
-146.4427408488059
 30
0.0
 10
96.67454695933832
 20
-146.4427408488059
 30
0.0
 10
96.93947480215403
 20
-146.4427408488059
 30
0.0
 10
96.93947480215403
 20
-146.4427408488059
 30
0.0
 10
97.11620820054735
 20
-146.4427408488059
 30
0.0
 10
97.1361897543618
 20
-146.4363674221582
 30
0.0
 10
97.15599905340198
 20
-146.4320610528017
 30
0.0
 10
97.19389510373972
 20
-146.4258598809282
 30
0.0
 10
97.22627900130108
 20
-146.4003661743374
 30
0.0
 10
97.24436575259865
 20
-146.3834852064596
 30
0.0
 10
97.24436575259865
 20
-146.3834852064596
 30
0.0
 10
97.37769094787781
 20
-146.556945764142
 30
0.0
 10
97.37769094787781
 20
-146.556945764142
 30
0.0
 10
97.34341224779957
 20
-146.584506528024
 30
0.0
 10
97.3327324517953
 20
-146.595014069254
 30
0.0
 10
97.29121905119804
 20
-146.6310153170748
 30
0.0
 10
97.1811482504443
 20
-146.87854542769
 30
0.0
 10
97.11259085028784
 20
-147.028751590847
 30
0.0
 10
97.02422415109118
 20
-147.1746513846473
 30
0.0
 10
97.29121905119804
 20
-147.3925536740893
 30
0.0
 10
97.48586694611466
 20
-147.6781520898166
 30
0.0
 10
97.53099769697143
 20
-147.7563557573317
 30
0.0
 10
97.53099769697143
 20
-147.7563557573317
 30
0.0
 10
97.38492564839683
 20
-147.908801232554
 30
0.0
 10
97.38492564839683
 20
-147.908801232554
 30
0.0
  0
HATCH
  5
103
330
F9
100
AcDbEntity
  8
レイヤー 1
 62
   250
420
  2299925
440
 33554687
100
AcDbHatch
 10
0.0
 20
0.0
 30
0.0
210
0.0
220
0.0
230
1.0
  2
SOLID
 70
     1
 71
     1
 91
        1
 92
        1
 93
        1
 72
     4
 94
        3
 73
     0
 74
     0
 95
       56
 96
       52
 40
0.0
 40
0.0
 40
0.0
 40
0.0
 40
1.0
 40
1.0
 40
1.0
 40
2.0
 40
2.0
 40
2.0
 40
3.0
 40
3.0
 40
3.0
 40
4.0
 40
4.0
 40
4.0
 40
5.0
 40
5.0
 40
5.0
 40
6.0
 40
6.0
 40
6.0
 40
7.0
 40
7.0
 40
7.0
 40
8.0
 40
8.0
 40
8.0
 40
9.0
 40
9.0
 40
9.0
 40
10.0
 40
10.0
 40
10.0
 40
11.0
 40
11.0
 40
11.0
 40
12.0
 40
12.0
 40
12.0
 40
13.0
 40
13.0
 40
13.0
 40
14.0
 40
14.0
 40
14.0
 40
15.0
 40
15.0
 40
15.0
 40
16.0
 40
16.0
 40
16.0
 40
17.0
 40
17.0
 40
17.0
 40
17.0
 10
97.38492564839683
 20
-147.908801232554
 10
97.22093910329894
 20
-147.5999484223014
 10
97.00079750179147
 20
-147.3946207313805
 10
96.92328285337335
 20
-147.3291639171607
 10
96.67265215682142
 20
-147.6676445485865
 10
96.425638810529
 20
-147.8199177690346
 10
96.25614011265472
 20
-147.9129353471363
 10
96.25614011265472
 20
-147.9129353471363
 10
96.12092011485867
 20
-147.7246608788674
 10
96.12092011485867
 20
-147.7246608788674
 10
96.20928681405532
 20
-147.6886596310466
 10
96.39136011045078
 20
-147.6125230208225
 10
96.58962535562691
 20
-147.426487864619
 10
96.8151068551365
 20
-147.2147867470505
 10
96.97375350223225
 20
-146.9271212740321
 10
97.07848440498386
 20
-146.6141343491971
 10
97.07848440498386
 20
-146.6141343491971
 10
96.75740150575856
 20
-146.6141343491971
 10
96.75740150575856
 20
-146.6141343491971
 10
96.62752140596467
 20
-146.6141343491971
 10
96.44906545982872
 20
-146.6182684637794
 10
96.32108016255168
 20
-146.6373887437226
 10
96.32108016255168
 20
-146.6373887437226
 10
96.32108016255168
 20
-146.4258598809282
 10
96.32108016255168
 20
-146.4258598809282
 10
96.37878551192962
 20
-146.4320610528017
 10
96.60047740640544
 20
-146.4427408488059
 10
96.67454695933832
 20
-146.4427408488059
 10
96.67454695933832
 20
-146.4427408488059
 10
96.93947480215403
 20
-146.4427408488059
 10
96.93947480215403
 20
-146.4427408488059
 10
97.11620820054735
 20
-146.4427408488059
 10
97.1361897543618
 20
-146.4363674221582
 10
97.15599905340198
 20
-146.4320610528017
 10
97.19389510373972
 20
-146.4258598809282
 10
97.22627900130108
 20
-146.4003661743374
 10
97.24436575259865
 20
-146.3834852064596
 10
97.24436575259865
 20
-146.3834852064596
 10
97.37769094787781
 20
-146.556945764142
 10
97.37769094787781
 20
-146.556945764142
 10
97.34341224779957
 20
-146.584506528024
 10
97.3327324517953
 20
-146.595014069254
 10
97.29121905119804
 20
-146.6310153170748
 10
97.1811482504443
 20
-146.87854542769
 10
97.11259085028784
 20
-147.028751590847
 10
97.02422415109118
 20
-147.1746513846473
 10
97.29121905119804
 20
-147.3925536740893
 10
97.48586694611466
 20
-147.6781520898166
 10
97.53099769697143
 20
-147.7563557573317
 10
97.53099769697143
 20
-147.7563557573317
 10
97.38492564839683
 20
-147.908801232554
 10
97.38492564839683
 20
-147.908801232554
 97
        0
 97
        1
330
102
 75
     2
 76
     1
 98
        1
 10
0.0
 20
0.0
450
        0
451
        0
460
0.0
461
0.0
452
        0
462
0.0
453
        0
470

  0
SPLINE
  5
104
330
F9
100
AcDbEntity
  8
レイヤー 1
100
AcDbSpline
210
0.0
220
0.0
230
1.0
 70
    11
 71
     3
 72
    17
 73
    13
 74
     0
 42
0.0000000001
 43
0.0000000001
 40
0.0
 40
0.0
 40
0.0
 40
0.0
 40
1.0
 40
1.0
 40
1.0
 40
2.0
 40
2.0
 40
2.0
 40
3.0
 40
3.0
 40
3.0
 40
4.0
 40
4.0
 40
4.0
 40
4.0
 10
98.98689504903799
 20
-146.9314276433886
 30
0.0
 10
98.98689504903799
 20
-146.9314276433886
 30
0.0
 10
98.59553220191363
 20
-146.9314276433886
 30
0.0
 10
98.59553220191363
 20
-146.9314276433886
 30
0.0
 10
98.59553220191363
 20
-146.9314276433886
 30
0.0
 10
98.59553220191363
 20
-147.2402804536413
 30
0.0
 10
98.59553220191363
 20
-147.2402804536413
 30
0.0
 10
98.59553220191363
 20
-147.2402804536413
 30
0.0
 10
98.98689504903799
 20
-147.2402804536413
 30
0.0
 10
98.98689504903799
 20
-147.2402804536413
 30
0.0
 10
98.98689504903799
 20
-147.2402804536413
 30
0.0
 10
98.98689504903799
 20
-146.9314276433886
 30
0.0
 10
98.98689504903799
 20
-146.9314276433886
 30
0.0
  0
SPLINE
  5
105
330
F9
100
AcDbEntity
  8
レイヤー 1
100
AcDbSpline
210
0.0
220
0.0
230
1.0
 70
    11
 71
     3
 72
    17
 73
    13
 74
     0
 42
0.0000000001
 43
0.0000000001
 40
0.0
 40
0.0
 40
0.0
 40
0.0
 40
1.0
 40
1.0
 40
1.0
 40
2.0
 40
2.0
 40
2.0
 40
3.0
 40
3.0
 40
3.0
 40
4.0
 40
4.0
 40
4.0
 40
4.0
 10
98.98689504903799
 20
-146.4596218166837
 30
0.0
 10
98.98689504903799
 20
-146.4596218166837
 30
0.0
 10
98.59553220191363
 20
-146.4596218166837
 30
0.0
 10
98.59553220191363
 20
-146.4596218166837
 30
0.0
 10
98.59553220191363
 20
-146.4596218166837
 30
0.0
 10
98.59553220191363
 20
-146.7641682575798
 30
0.0
 10
98.59553220191363
 20
-146.7641682575798
 30
0.0
 10
98.59553220191363
 20
-146.7641682575798
 30
0.0
 10
98.98689504903799
 20
-146.7641682575798
 30
0.0
 10
98.98689504903799
 20
-146.7641682575798
 30
0.0
 10
98.98689504903799
 20
-146.7641682575798
 30
0.0
 10
98.98689504903799
 20
-146.4596218166837
 30
0.0
 10
98.98689504903799
 20
-146.4596218166837
 30
0.0
  0
SPLINE
  5
106
330
F9
100
AcDbEntity
  8
レイヤー 1
100
AcDbSpline
210
0.0
220
0.0
230
1.0
 70
    11
 71
     3
 72
    17
 73
    13
 74
     0
 42
0.0000000001
 43
0.0000000001
 40
0.0
 40
0.0
 40
0.0
 40
0.0
 40
1.0
 40
1.0
 40
1.0
 40
2.0
 40
2.0
 40
2.0
 40
3.0
 40
3.0
 40
3.0
 40
4.0
 40
4.0
 40
4.0
 40
4.0
 10
98.43326820455835
 20
-146.9314276433886
 30
0.0
 10
98.43326820455835
 20
-146.9314276433886
 30
0.0
 10
98.05999210873153
 20
-146.9314276433886
 30
0.0
 10
98.05999210873153
 20
-146.9314276433886
 30
0.0
 10
98.05999210873153
 20
-146.9314276433886
 30
0.0
 10
98.05999210873153
 20
-147.2402804536413
 30
0.0
 10
98.05999210873153
 20
-147.2402804536413
 30
0.0
 10
98.05999210873153
 20
-147.2402804536413
 30
0.0
 10
98.43326820455835
 20
-147.2402804536413
 30
0.0
 10
98.43326820455835
 20
-147.2402804536413
 30
0.0
 10
98.43326820455835
 20
-147.2402804536413
 30
0.0
 10
98.43326820455835
 20
-146.9314276433886
 30
0.0
 10
98.43326820455835
 20
-146.9314276433886
 30
0.0
  0
SPLINE
  5
107
330
F9
100
AcDbEntity
  8
レイヤー 1
100
AcDbSpline
210
0.0
220
0.0
230
1.0
 70
    11
 71
     3
 72
    17
 73
    13
 74
     0
 42
0.0000000001
 43
0.0000000001
 40
0.0
 40
0.0
 40
0.0
 40
0.0
 40
1.0
 40
1.0
 40
1.0
 40
2.0
 40
2.0
 40
2.0
 40
3.0
 40
3.0
 40
3.0
 40
4.0
 40
4.0
 40
4.0
 40
4.0
 10
98.43326820455835
 20
-146.4596218166837
 30
0.0
 10
98.43326820455835
 20
-146.4596218166837
 30
0.0
 10
98.05999210873153
 20
-146.4596218166837
 30
0.0
 10
98.05999210873153
 20
-146.4596218166837
 30
0.0
 10
98.05999210873153
 20
-146.4596218166837
 30
0.0
 10
98.05999210873153
 20
-146.7641682575798
 30
0.0
 10
98.05999210873153
 20
-146.7641682575798
 30
0.0
 10
98.05999210873153
 20
-146.7641682575798
 30
0.0
 10
98.43326820455835
 20
-146.7641682575798
 30
0.0
 10
98.43326820455835
 20
-146.7641682575798
 30
0.0
 10
98.43326820455835
 20
-146.7641682575798
 30
0.0
 10
98.43326820455835
 20
-146.4596218166837
 30
0.0
 10
98.43326820455835
 20
-146.4596218166837
 30
0.0
  0
SPLINE
  5
108
330
F9
100
AcDbEntity
  8
レイヤー 1
100
AcDbSpline
210
0.0
220
0.0
230
1.0
 70
     9
 71
     3
 72
    77
 73
    73
 74
     0
 42
0.0000000001
 43
0.0000000001
 40
0.0
 40
0.0
 40
0.0
 40
0.0
 40
1.0
 40
1.0
 40
1.0
 40
2.0
 40
2.0
 40
2.0
 40
3.0
 40
3.0
 40
3.0
 40
4.0
 40
4.0
 40
4.0
 40
5.0
 40
5.0
 40
5.0
 40
6.0
 40
6.0
 40
6.0
 40
7.0
 40
7.0
 40
7.0
 40
8.0
 40
8.0
 40
8.0
 40
9.0
 40
9.0
 40
9.0
 40
10.0
 40
10.0
 40
10.0
 40
11.0
 40
11.0
 40
11.0
 40
12.0
 40
12.0
 40
12.0
 40
13.0
 40
13.0
 40
13.0
 40
14.0
 40
14.0
 40
14.0
 40
15.0
 40
15.0
 40
15.0
 40
16.0
 40
16.0
 40
16.0
 40
17.0
 40
17.0
 40
17.0
 40
18.0
 40
18.0
 40
18.0
 40
19.0
 40
19.0
 40
19.0
 40
20.0
 40
20.0
 40
20.0
 40
21.0
 40
21.0
 40
21.0
 40
22.0
 40
22.0
 40
22.0
 40
23.0
 40
23.0
 40
23.0
 40
24.0
 40
24.0
 40
24.0
 40
24.0
 10
99.10230574779388
 20
-148.0462605424155
 30
0.0
 10
99.0626871497135
 20
-148.0715819942321
 30
0.0
 10
98.95623369921928
 20
-148.0843288475275
 30
0.0
 10
98.88957110157969
 20
-148.0843288475275
 30
0.0
 10
98.87871905080116
 20
-148.0843288475275
 30
0.0
 10
98.85701494924409
 20
-148.0843288475275
 30
0.0
 10
98.82824840194224
 20
-148.080022478171
 30
0.0
 10
98.82824840194224
 20
-148.080022478171
 30
0.0
 10
98.74522160074773
 20
-147.85367970479
 30
0.0
 10
98.74522160074773
 20
-147.85367970479
 30
0.0
 10
98.77054305256431
 20
-147.8600531314377
 30
0.0
 10
98.81911889890634
 20
-147.8684936153766
 30
0.0
 10
98.91833764888154
 20
-147.8684936153766
 30
0.0
 10
98.98517250129538
 20
-147.8684936153766
 30
0.0
 10
98.98689504903799
 20
-147.8262911956823
 30
0.0
 10
98.98689504903799
 20
-147.7691026106272
 30
0.0
 10
98.98689504903799
 20
-147.7691026106272
 30
0.0
 10
98.98689504903799
 20
-147.4201144379713
 30
0.0
 10
98.98689504903799
 20
-147.4201144379713
 30
0.0
 10
98.98689504903799
 20
-147.4201144379713
 30
0.0
 10
98.59553220191363
 20
-147.4201144379713
 30
0.0
 10
98.59553220191363
 20
-147.4201144379713
 30
0.0
 10
98.59742700443051
 20
-147.5575737478328
 30
0.0
 10
98.59914955217313
 20
-147.7563557573317
 30
0.0
 10
98.60466170494953
 20
-147.8896809526109
 30
0.0
 10
98.60638425269215
 20
-147.9172417164929
 30
0.0
 10
98.60638425269215
 20
-147.9616834482526
 30
0.0
 10
98.6172363034707
 20
-148.0230061478901
 30
0.0
 10
98.6172363034707
 20
-148.0230061478901
 30
0.0
 10
98.41156410300129
 20
-148.0230061478901
 30
0.0
 10
98.41156410300129
 20
-148.0230061478901
 30
0.0
 10
98.43326820455835
 20
-147.8981214365498
 30
0.0
 10
98.43326820455835
 20
-147.5575737478328
 30
0.0
 10
98.43326820455835
 20
-147.4201144379713
 30
0.0
 10
98.43326820455835
 20
-147.4201144379713
 30
0.0
 10
98.05637475847202
 20
-147.4201144379713
 30
0.0
 10
98.05637475847202
 20
-147.4201144379713
 30
0.0
 10
98.03656545943184
 20
-147.6273369314091
 30
0.0
 10
97.98058265779653
 20
-147.8960543792586
 30
0.0
 10
97.81297876243911
 20
-148.080022478171
 30
0.0
 10
97.81297876243911
 20
-148.080022478171
 30
0.0
 10
97.65243731282648
 20
-147.9573770788961
 30
0.0
 10
97.65243731282648
 20
-147.9573770788961
 30
0.0
 10
97.86878930930017
 20
-147.7374077321628
 30
0.0
 10
97.89583330885939
 20
-147.4053005273848
 30
0.0
 10
97.89583330885939
 20
-147.0731933226067
 30
0.0
 10
97.89583330885939
 20
-147.0731933226067
 30
0.0
 10
97.89583330885939
 20
-146.6373887437226
 30
0.0
 10
97.89583330885939
 20
-146.6373887437226
 30
0.0
 10
97.89583330885939
 20
-146.6013874959017
 30
0.0
 10
97.89411076111676
 20
-146.3686712958731
 30
0.0
 10
97.88687606059774
 20
-146.2670409790582
 30
0.0
 10
98.00590410961312
 20
-146.2777207750625
 30
0.0
 10
98.21140405530826
 20
-146.2777207750625
 30
0.0
 10
98.33404945458315
 20
-146.2777207750625
 30
0.0
 10
98.33404945458315
 20
-146.2777207750625
 30
0.0
 10
98.72541230170753
 20
-146.2777207750625
 30
0.0
 10
98.72541230170753
 20
-146.2777207750625
 30
0.0
 10
98.73798690022871
 20
-146.2777207750625
 30
0.0
 10
99.03564315015429
 20
-146.2777207750625
 30
0.0
 10
99.17086314795035
 20
-146.2670409790582
 30
0.0
 10
99.16896834543345
 20
-146.3199231947568
 30
0.0
 10
99.16362844743133
 20
-146.480809153918
 30
0.0
 10
99.16362844743133
 20
-146.5316243123254
 30
0.0
 10
99.16362844743133
 20
-146.5316243123254
 30
0.0
 10
99.16362844743133
 20
-147.1386501368264
 30
0.0
 10
99.16362844743133
 20
-147.1386501368264
 30
0.0
 10
99.16362844743133
 20
-147.1577704167696
 30
0.0
 10
99.17258569569298
 20
-147.728967248224
 30
0.0
 10
99.17258569569298
 20
-147.8411051062689
 30
0.0
 10
99.17258569569298
 20
-147.8981214365498
 30
0.0
 10
99.17258569569298
 20
-147.9997517533646
 30
0.0
 10
99.10230574779388
 20
-148.0462605424155
 30
0.0
  0
HATCH
  5
109
330
F9
100
AcDbEntity
  8
レイヤー 1
 62
   250
420
  2299925
440
 33554687
100
AcDbHatch
 10
0.0
 20
0.0
 30
0.0
210
0.0
220
0.0
230
1.0
  2
SOLID
 70
     1
 71
     1
 91
        5
 92
        1
 93
        1
 72
     4
 94
        3
 73
     0
 74
     0
 95
       17
 96
       13
 40
0.0
 40
0.0
 40
0.0
 40
0.0
 40
1.0
 40
1.0
 40
1.0
 40
2.0
 40
2.0
 40
2.0
 40
3.0
 40
3.0
 40
3.0
 40
4.0
 40
4.0
 40
4.0
 40
4.0
 10
98.98689504903799
 20
-146.9314276433886
 10
98.98689504903799
 20
-146.9314276433886
 10
98.59553220191363
 20
-146.9314276433886
 10
98.59553220191363
 20
-146.9314276433886
 10
98.59553220191363
 20
-146.9314276433886
 10
98.59553220191363
 20
-147.2402804536413
 10
98.59553220191363
 20
-147.2402804536413
 10
98.59553220191363
 20
-147.2402804536413
 10
98.98689504903799
 20
-147.2402804536413
 10
98.98689504903799
 20
-147.2402804536413
 10
98.98689504903799
 20
-147.2402804536413
 10
98.98689504903799
 20
-146.9314276433886
 10
98.98689504903799
 20
-146.9314276433886
 97
        0
 97
        1
330
104
 92
        1
 93
        1
 72
     4
 94
        3
 73
     0
 74
     0
 95
       17
 96
       13
 40
0.0
 40
0.0
 40
0.0
 40
0.0
 40
1.0
 40
1.0
 40
1.0
 40
2.0
 40
2.0
 40
2.0
 40
3.0
 40
3.0
 40
3.0
 40
4.0
 40
4.0
 40
4.0
 40
4.0
 10
98.98689504903799
 20
-146.4596218166837
 10
98.98689504903799
 20
-146.4596218166837
 10
98.59553220191363
 20
-146.4596218166837
 10
98.59553220191363
 20
-146.4596218166837
 10
98.59553220191363
 20
-146.4596218166837
 10
98.59553220191363
 20
-146.7641682575798
 10
98.59553220191363
 20
-146.7641682575798
 10
98.59553220191363
 20
-146.7641682575798
 10
98.98689504903799
 20
-146.7641682575798
 10
98.98689504903799
 20
-146.7641682575798
 10
98.98689504903799
 20
-146.7641682575798
 10
98.98689504903799
 20
-146.4596218166837
 10
98.98689504903799
 20
-146.4596218166837
 97
        0
 97
        1
330
105
 92
        1
 93
        1
 72
     4
 94
        3
 73
     0
 74
     0
 95
       17
 96
       13
 40
0.0
 40
0.0
 40
0.0
 40
0.0
 40
1.0
 40
1.0
 40
1.0
 40
2.0
 40
2.0
 40
2.0
 40
3.0
 40
3.0
 40
3.0
 40
4.0
 40
4.0
 40
4.0
 40
4.0
 10
98.43326820455835
 20
-146.9314276433886
 10
98.43326820455835
 20
-146.9314276433886
 10
98.05999210873153
 20
-146.9314276433886
 10
98.05999210873153
 20
-146.9314276433886
 10
98.05999210873153
 20
-146.9314276433886
 10
98.05999210873153
 20
-147.2402804536413
 10
98.05999210873153
 20
-147.2402804536413
 10
98.05999210873153
 20
-147.2402804536413
 10
98.43326820455835
 20
-147.2402804536413
 10
98.43326820455835
 20
-147.2402804536413
 10
98.43326820455835
 20
-147.2402804536413
 10
98.43326820455835
 20
-146.9314276433886
 10
98.43326820455835
 20
-146.9314276433886
 97
        0
 97
        1
330
106
 92
        1
 93
        1
 72
     4
 94
        3
 73
     0
 74
     0
 95
       17
 96
       13
 40
0.0
 40
0.0
 40
0.0
 40
0.0
 40
1.0
 40
1.0
 40
1.0
 40
2.0
 40
2.0
 40
2.0
 40
3.0
 40
3.0
 40
3.0
 40
4.0
 40
4.0
 40
4.0
 40
4.0
 10
98.43326820455835
 20
-146.4596218166837
 10
98.43326820455835
 20
-146.4596218166837
 10
98.05999210873153
 20
-146.4596218166837
 10
98.05999210873153
 20
-146.4596218166837
 10
98.05999210873153
 20
-146.4596218166837
 10
98.05999210873153
 20
-146.7641682575798
 10
98.05999210873153
 20
-146.7641682575798
 10
98.05999210873153
 20
-146.7641682575798
 10
98.43326820455835
 20
-146.7641682575798
 10
98.43326820455835
 20
-146.7641682575798
 10
98.43326820455835
 20
-146.7641682575798
 10
98.43326820455835
 20
-146.4596218166837
 10
98.43326820455835
 20
-146.4596218166837
 97
        0
 97
        1
330
107
 92
        1
 93
        1
 72
     4
 94
        3
 73
     0
 74
     0
 95
       77
 96
       73
 40
0.0
 40
0.0
 40
0.0
 40
0.0
 40
1.0
 40
1.0
 40
1.0
 40
2.0
 40
2.0
 40
2.0
 40
3.0
 40
3.0
 40
3.0
 40
4.0
 40
4.0
 40
4.0
 40
5.0
 40
5.0
 40
5.0
 40
6.0
 40
6.0
 40
6.0
 40
7.0
 40
7.0
 40
7.0
 40
8.0
 40
8.0
 40
8.0
 40
9.0
 40
9.0
 40
9.0
 40
10.0
 40
10.0
 40
10.0
 40
11.0
 40
11.0
 40
11.0
 40
12.0
 40
12.0
 40
12.0
 40
13.0
 40
13.0
 40
13.0
 40
14.0
 40
14.0
 40
14.0
 40
15.0
 40
15.0
 40
15.0
 40
16.0
 40
16.0
 40
16.0
 40
17.0
 40
17.0
 40
17.0
 40
18.0
 40
18.0
 40
18.0
 40
19.0
 40
19.0
 40
19.0
 40
20.0
 40
20.0
 40
20.0
 40
21.0
 40
21.0
 40
21.0
 40
22.0
 40
22.0
 40
22.0
 40
23.0
 40
23.0
 40
23.0
 40
24.0
 40
24.0
 40
24.0
 40
24.0
 10
99.10230574779388
 20
-148.0462605424155
 10
99.0626871497135
 20
-148.0715819942321
 10
98.95623369921928
 20
-148.0843288475275
 10
98.88957110157969
 20
-148.0843288475275
 10
98.87871905080116
 20
-148.0843288475275
 10
98.85701494924409
 20
-148.0843288475275
 10
98.82824840194224
 20
-148.080022478171
 10
98.82824840194224
 20
-148.080022478171
 10
98.74522160074773
 20
-147.85367970479
 10
98.74522160074773
 20
-147.85367970479
 10
98.77054305256431
 20
-147.8600531314377
 10
98.81911889890634
 20
-147.8684936153766
 10
98.91833764888154
 20
-147.8684936153766
 10
98.98517250129538
 20
-147.8684936153766
 10
98.98689504903799
 20
-147.8262911956823
 10
98.98689504903799
 20
-147.7691026106272
 10
98.98689504903799
 20
-147.7691026106272
 10
98.98689504903799
 20
-147.4201144379713
 10
98.98689504903799
 20
-147.4201144379713
 10
98.98689504903799
 20
-147.4201144379713
 10
98.59553220191363
 20
-147.4201144379713
 10
98.59553220191363
 20
-147.4201144379713
 10
98.59742700443051
 20
-147.5575737478328
 10
98.59914955217313
 20
-147.7563557573317
 10
98.60466170494953
 20
-147.8896809526109
 10
98.60638425269215
 20
-147.9172417164929
 10
98.60638425269215
 20
-147.9616834482526
 10
98.6172363034707
 20
-148.0230061478901
 10
98.6172363034707
 20
-148.0230061478901
 10
98.41156410300129
 20
-148.0230061478901
 10
98.41156410300129
 20
-148.0230061478901
 10
98.43326820455835
 20
-147.8981214365498
 10
98.43326820455835
 20
-147.5575737478328
 10
98.43326820455835
 20
-147.4201144379713
 10
98.43326820455835
 20
-147.4201144379713
 10
98.05637475847202
 20
-147.4201144379713
 10
98.05637475847202
 20
-147.4201144379713
 10
98.03656545943184
 20
-147.6273369314091
 10
97.98058265779653
 20
-147.8960543792586
 10
97.81297876243911
 20
-148.080022478171
 10
97.81297876243911
 20
-148.080022478171
 10
97.65243731282648
 20
-147.9573770788961
 10
97.65243731282648
 20
-147.9573770788961
 10
97.86878930930017
 20
-147.7374077321628
 10
97.89583330885939
 20
-147.4053005273848
 10
97.89583330885939
 20
-147.0731933226067
 10
97.89583330885939
 20
-147.0731933226067
 10
97.89583330885939
 20
-146.6373887437226
 10
97.89583330885939
 20
-146.6373887437226
 10
97.89583330885939
 20
-146.6013874959017
 10
97.89411076111676
 20
-146.3686712958731
 10
97.88687606059774
 20
-146.2670409790582
 10
98.00590410961312
 20
-146.2777207750625
 10
98.21140405530826
 20
-146.2777207750625
 10
98.33404945458315
 20
-146.2777207750625
 10
98.33404945458315
 20
-146.2777207750625
 10
98.72541230170753
 20
-146.2777207750625
 10
98.72541230170753
 20
-146.2777207750625
 10
98.73798690022871
 20
-146.2777207750625
 10
99.03564315015429
 20
-146.2777207750625
 10
99.17086314795035
 20
-146.2670409790582
 10
99.16896834543345
 20
-146.3199231947568
 10
99.16362844743133
 20
-146.480809153918
 10
99.16362844743133
 20
-146.5316243123254
 10
99.16362844743133
 20
-146.5316243123254
 10
99.16362844743133
 20
-147.1386501368264
 10
99.16362844743133
 20
-147.1386501368264
 10
99.16362844743133
 20
-147.1577704167696
 10
99.17258569569298
 20
-147.728967248224
 10
99.17258569569298
 20
-147.8411051062689
 10
99.17258569569298
 20
-147.8981214365498
 10
99.17258569569298
 20
-147.9997517533646
 10
99.10230574779388
 20
-148.0462605424155
 97
        0
 97
        1
330
108
 75
     2
 76
     1
 98
        1
 10
0.0
 20
0.0
450
        0
451
        0
460
0.0
461
0.0
452
        0
462
0.0
453
        0
470

  0
ENDBLK
  5
FC
330
F9
100
AcDbEntity
  8
0
100
AcDbBlockEnd
  0
BLOCK
  5
10C
330
10A
100
AcDbEntity
  8
0
100
AcDbBlockBegin
  2
Block_17
 70
     0
 10
0.0
 20
0.0
 30
0.0
  3
Block_17
  1

  0
INSERT
  5
10F
330
10A
100
AcDbEntity
  8
レイヤー 1
100
AcDbBlockReference
  2
Block_18
 10
0.0
 20
0.0
 30
0.0
  0
ENDBLK
  5
10D
330
10A
100
AcDbEntity
  8
0
100
AcDbBlockEnd
  0
BLOCK
  5
110
330
10E
100
AcDbEntity
  8
0
100
AcDbBlockBegin
  2
Block_18
 70
     0
 10
0.0
 20
0.0
 30
0.0
  3
Block_18
  1

  0
SPLINE
  5
112
330
10E
100
AcDbEntity
  8
レイヤー 1
100
AcDbSpline
210
0.0
220
0.0
230
1.0
 70
     9
 71
     3
 72
    17
 73
    13
 74
     0
 42
0.0000000001
 43
0.0000000001
 40
0.0
 40
0.0
 40
0.0
 40
0.0
 40
1.0
 40
1.0
 40
1.0
 40
2.0
 40
2.0
 40
2.0
 40
3.0
 40
3.0
 40
3.0
 40
4.0
 40
4.0
 40
4.0
 40
4.0
 10
94.45883379799987
 20
-148.8171006572402
 30
0.0
 10
94.41198049940048
 20
-148.8171006572402
 30
0.0
 10
94.37408444906273
 20
-148.8615423889999
 30
0.0
 10
94.37408444906273
 20
-148.9166639167639
 30
0.0
 10
94.37408444906273
 20
-148.9735079922705
 30
0.0
 10
94.41198049940048
 20
-149.0224283481611
 30
0.0
 10
94.4624511482594
 20
-149.0224283481611
 30
0.0
 10
94.51292179711829
 20
-149.0224283481611
 30
0.0
 10
94.54720049719654
 20
-148.9714409349794
 30
0.0
 10
94.54720049719654
 20
-148.918730974055
 30
0.0
 10
94.54720049719654
 20
-148.8615423889999
 30
0.0
 10
94.50758189911615
 20
-148.8171006572402
 30
0.0
 10
94.45883379799987
 20
-148.8171006572402
 30
0.0
  0
SPLINE
  5
113
330
10E
100
AcDbEntity
  8
レイヤー 1
100
AcDbSpline
210
0.0
220
0.0
230
1.0
 70
    11
 71
     3
 72
    17
 73
    13
 74
     0
 42
0.0000000001
 43
0.0000000001
 40
0.0
 40
0.0
 40
0.0
 40
0.0
 40
1.0
 40
1.0
 40
1.0
 40
2.0
 40
2.0
 40
2.0
 40
3.0
 40
3.0
 40
3.0
 40
4.0
 40
4.0
 40
4.0
 40
4.0
 10
94.46072860051677
 20
-149.1471408047271
 30
0.0
 10
94.35255260227993
 20
-149.1471408047271
 30
0.0
 10
94.26590845082589
 20
-149.0455104879122
 30
0.0
 10
94.26590845082589
 20
-148.918730974055
 30
0.0
 10
94.26590845082589
 20
-148.7917792054236
 30
0.0
 10
94.35255260227993
 20
-148.6880818313175
 30
0.0
 10
94.46072860051677
 20
-148.6880818313175
 30
0.0
 10
94.5689045987536
 20
-148.6880818313175
 30
0.0
 10
94.65727129795027
 20
-148.7917792054236
 30
0.0
 10
94.65727129795027
 20
-148.918730974055
 30
0.0
 10
94.65727129795027
 20
-149.0455104879122
 30
0.0
 10
94.5689045987536
 20
-149.1471408047271
 30
0.0
 10
94.46072860051677
 20
-149.1471408047271
 30
0.0
  0
SPLINE
  5
114
330
10E
100
AcDbEntity
  8
レイヤー 1
100
AcDbSpline
210
0.0
220
0.0
230
1.0
 70
     9
 71
     3
 72
    44
 73
    40
 74
     0
 42
0.0000000001
 43
0.0000000001
 40
0.0
 40
0.0
 40
0.0
 40
0.0
 40
1.0
 40
1.0
 40
1.0
 40
2.0
 40
2.0
 40
2.0
 40
3.0
 40
3.0
 40
3.0
 40
4.0
 40
4.0
 40
4.0
 40
5.0
 40
5.0
 40
5.0
 40
6.0
 40
6.0
 40
6.0
 40
7.0
 40
7.0
 40
7.0
 40
8.0
 40
8.0
 40
8.0
 40
9.0
 40
9.0
 40
9.0
 40
10.0
 40
10.0
 40
10.0
 40
11.0
 40
11.0
 40
11.0
 40
12.0
 40
12.0
 40
12.0
 40
13.0
 40
13.0
 40
13.0
 40
13.0
 10
94.28210039960656
 20
-149.345922814226
 30
0.0
 10
94.18667125466514
 20
-149.7142035215992
 30
0.0
 10
94.14326305155098
 20
-149.8726779139207
 30
0.0
 10
93.97565915619358
 20
-150.1224473366013
 30
0.0
 10
93.81873505684046
 20
-150.3529242245645
 30
0.0
 10
93.61668020663056
 20
-150.5393038903165
 30
0.0
 10
93.37879636337405
 20
-150.6323214684183
 30
0.0
 10
93.37879636337405
 20
-150.6323214684183
 30
0.0
 10
93.21463756350189
 20
-150.4524874840882
 30
0.0
 10
93.21463756350189
 20
-150.4524874840882
 30
0.0
 10
93.76102970746252
 20
-150.3002142636402
 30
0.0
 10
94.04232175383318
 20
-149.7438313427724
 30
0.0
 10
94.09640975295159
 20
-149.3035481397574
 30
0.0
 10
94.09640975295159
 20
-149.3035481397574
 30
0.0
 10
93.44356415849675
 20
-149.3035481397574
 30
0.0
 10
93.44356415849675
 20
-149.3035481397574
 30
0.0
 10
93.364326962336
 20
-149.3035481397574
 30
0.0
 10
93.20740286298287
 20
-149.3080267638883
 30
0.0
 10
93.07390541292944
 20
-149.3269747890571
 30
0.0
 10
93.07390541292944
 20
-149.3269747890571
 30
0.0
 10
93.07390541292944
 20
-149.1068331875497
 30
0.0
 10
93.07390541292944
 20
-149.1068331875497
 30
0.0
 10
93.14797496586232
 20
-149.1281927795582
 30
0.0
 10
93.36243215981912
 20
-149.1281927795582
 30
0.0
 10
93.44718150875626
 20
-149.1281927795582
 30
0.0
 10
93.44718150875626
 20
-149.1281927795582
 30
0.0
 10
93.81511770658095
 20
-149.1281927795582
 30
0.0
 10
93.81511770658095
 20
-149.1281927795582
 30
0.0
 10
93.8511189544018
 20
-149.1281927795582
 30
0.0
 10
94.05127900209484
 20
-149.1257812127185
 30
0.0
 10
94.08383515443043
 20
-149.1195800408451
 30
0.0
 10
94.11983640225129
 20
-149.1133788689716
 30
0.0
 10
94.12173120476818
 20
-149.1113118116805
 30
0.0
 10
94.17392440136971
 20
-149.071004194503
 30
0.0
 10
94.17392440136971
 20
-149.071004194503
 30
0.0
 10
94.33446585098236
 20
-149.2253444722423
 30
0.0
 10
94.33446585098236
 20
-149.2253444722423
 30
0.0
 10
94.30914439916577
 20
-149.2549722934154
 30
0.0
 10
94.29656980064462
 20
-149.2866671718797
 30
0.0
 10
94.28210039960656
 20
-149.345922814226
 30
0.0
  0
HATCH
  5
115
330
10E
100
AcDbEntity
  8
レイヤー 1
 62
   250
420
  2299925
440
 33554687
100
AcDbHatch
 10
0.0
 20
0.0
 30
0.0
210
0.0
220
0.0
230
1.0
  2
SOLID
 70
     1
 71
     1
 91
        3
 92
        1
 93
        1
 72
     4
 94
        3
 73
     0
 74
     0
 95
       17
 96
       13
 40
0.0
 40
0.0
 40
0.0
 40
0.0
 40
1.0
 40
1.0
 40
1.0
 40
2.0
 40
2.0
 40
2.0
 40
3.0
 40
3.0
 40
3.0
 40
4.0
 40
4.0
 40
4.0
 40
4.0
 10
94.45883379799987
 20
-148.8171006572402
 10
94.41198049940048
 20
-148.8171006572402
 10
94.37408444906273
 20
-148.8615423889999
 10
94.37408444906273
 20
-148.9166639167639
 10
94.37408444906273
 20
-148.9735079922705
 10
94.41198049940048
 20
-149.0224283481611
 10
94.4624511482594
 20
-149.0224283481611
 10
94.51292179711829
 20
-149.0224283481611
 10
94.54720049719654
 20
-148.9714409349794
 10
94.54720049719654
 20
-148.918730974055
 10
94.54720049719654
 20
-148.8615423889999
 10
94.50758189911615
 20
-148.8171006572402
 10
94.45883379799987
 20
-148.8171006572402
 97
        0
 97
        1
330
112
 92
        1
 93
        1
 72
     4
 94
        3
 73
     0
 74
     0
 95
       17
 96
       13
 40
0.0
 40
0.0
 40
0.0
 40
0.0
 40
1.0
 40
1.0
 40
1.0
 40
2.0
 40
2.0
 40
2.0
 40
3.0
 40
3.0
 40
3.0
 40
4.0
 40
4.0
 40
4.0
 40
4.0
 10
94.46072860051677
 20
-149.1471408047271
 10
94.35255260227993
 20
-149.1471408047271
 10
94.26590845082589
 20
-149.0455104879122
 10
94.26590845082589
 20
-148.918730974055
 10
94.26590845082589
 20
-148.7917792054236
 10
94.35255260227993
 20
-148.6880818313175
 10
94.46072860051677
 20
-148.6880818313175
 10
94.5689045987536
 20
-148.6880818313175
 10
94.65727129795027
 20
-148.7917792054236
 10
94.65727129795027
 20
-148.918730974055
 10
94.65727129795027
 20
-149.0455104879122
 10
94.5689045987536
 20
-149.1471408047271
 10
94.46072860051677
 20
-149.1471408047271
 97
        0
 97
        1
330
113
 92
        1
 93
        1
 72
     4
 94
        3
 73
     0
 74
     0
 95
       44
 96
       40
 40
0.0
 40
0.0
 40
0.0
 40
0.0
 40
1.0
 40
1.0
 40
1.0
 40
2.0
 40
2.0
 40
2.0
 40
3.0
 40
3.0
 40
3.0
 40
4.0
 40
4.0
 40
4.0
 40
5.0
 40
5.0
 40
5.0
 40
6.0
 40
6.0
 40
6.0
 40
7.0
 40
7.0
 40
7.0
 40
8.0
 40
8.0
 40
8.0
 40
9.0
 40
9.0
 40
9.0
 40
10.0
 40
10.0
 40
10.0
 40
11.0
 40
11.0
 40
11.0
 40
12.0
 40
12.0
 40
12.0
 40
13.0
 40
13.0
 40
13.0
 40
13.0
 10
94.28210039960656
 20
-149.345922814226
 10
94.18667125466514
 20
-149.7142035215992
 10
94.14326305155098
 20
-149.8726779139207
 10
93.97565915619358
 20
-150.1224473366013
 10
93.81873505684046
 20
-150.3529242245645
 10
93.61668020663056
 20
-150.5393038903165
 10
93.37879636337405
 20
-150.6323214684183
 10
93.37879636337405
 20
-150.6323214684183
 10
93.21463756350189
 20
-150.4524874840882
 10
93.21463756350189
 20
-150.4524874840882
 10
93.76102970746252
 20
-150.3002142636402
 10
94.04232175383318
 20
-149.7438313427724
 10
94.09640975295159
 20
-149.3035481397574
 10
94.09640975295159
 20
-149.3035481397574
 10
93.44356415849675
 20
-149.3035481397574
 10
93.44356415849675
 20
-149.3035481397574
 10
93.364326962336
 20
-149.3035481397574
 10
93.20740286298287
 20
-149.3080267638883
 10
93.07390541292944
 20
-149.3269747890571
 10
93.07390541292944
 20
-149.3269747890571
 10
93.07390541292944
 20
-149.1068331875497
 10
93.07390541292944
 20
-149.1068331875497
 10
93.14797496586232
 20
-149.1281927795582
 10
93.36243215981912
 20
-149.1281927795582
 10
93.44718150875626
 20
-149.1281927795582
 10
93.44718150875626
 20
-149.1281927795582
 10
93.81511770658095
 20
-149.1281927795582
 10
93.81511770658095
 20
-149.1281927795582
 10
93.8511189544018
 20
-149.1281927795582
 10
94.05127900209484
 20
-149.1257812127185
 10
94.08383515443043
 20
-149.1195800408451
 10
94.11983640225129
 20
-149.1133788689716
 10
94.12173120476818
 20
-149.1113118116805
 10
94.17392440136971
 20
-149.071004194503
 10
94.17392440136971
 20
-149.071004194503
 10
94.33446585098236
 20
-149.2253444722423
 10
94.33446585098236
 20
-149.2253444722423
 10
94.30914439916577
 20
-149.2549722934154
 10
94.29656980064462
 20
-149.2866671718797
 10
94.28210039960656
 20
-149.345922814226
 97
        0
 97
        1
330
114
 75
     2
 76
     1
 98
        1
 10
0.0
 20
0.0
450
        0
451
        0
460
0.0
461
0.0
452
        0
462
0.0
453
        0
470

  0
SPLINE
  5
116
330
10E
100
AcDbEntity
  8
レイヤー 1
100
AcDbSpline
210
0.0
220
0.0
230
1.0
 70
     9
 71
     3
 72
    29
 73
    25
 74
     0
 42
0.0000000001
 43
0.0000000001
 40
0.0
 40
0.0
 40
0.0
 40
0.0
 40
1.0
 40
1.0
 40
1.0
 40
2.0
 40
2.0
 40
2.0
 40
3.0
 40
3.0
 40
3.0
 40
4.0
 40
4.0
 40
4.0
 40
5.0
 40
5.0
 40
5.0
 40
6.0
 40
6.0
 40
6.0
 40
7.0
 40
7.0
 40
7.0
 40
8.0
 40
8.0
 40
8.0
 40
8.0
 10
95.56832679902459
 20
-149.0286295200345
 30
0.0
 10
95.56832679902459
 20
-149.0286295200345
 30
0.0
 10
95.27790524961803
 20
-149.0286295200345
 30
0.0
 10
95.27790524961803
 20
-149.0286295200345
 30
0.0
 10
95.18058130215973
 20
-149.0286295200345
 30
0.0
 10
95.08136255218452
 20
-149.0327636346168
 30
0.0
 10
94.98403860472622
 20
-149.0475775452034
 30
0.0
 10
94.98403860472622
 20
-149.0475775452034
 30
0.0
 10
94.98403860472622
 20
-148.8382879944744
 30
0.0
 10
94.98403860472622
 20
-148.8382879944744
 30
0.0
 10
95.08497990244404
 20
-148.853101905061
 30
0.0
 10
95.23294675353552
 20
-148.8574082744176
 30
0.0
 10
95.27790524961803
 20
-148.8574082744176
 30
0.0
 10
95.27790524961803
 20
-148.8574082744176
 30
0.0
 10
95.56832679902459
 20
-148.8574082744176
 30
0.0
 10
95.56832679902459
 20
-148.8574082744176
 30
0.0
 10
95.66754554899977
 20
-148.8574082744176
 30
0.0
 10
95.76659204420073
 20
-148.853101905061
 30
0.0
 10
95.86581079417591
 20
-148.8382879944744
 30
0.0
 10
95.86581079417591
 20
-148.8382879944744
 30
0.0
 10
95.86581079417591
 20
-149.0475775452034
 30
0.0
 10
95.86581079417591
 20
-149.0475775452034
 30
0.0
 10
95.73782549689887
 20
-149.0286295200345
 30
0.0
 10
95.58090139754574
 20
-149.0286295200345
 30
0.0
 10
95.56832679902459
 20
-149.0286295200345
 30
0.0
  0
SPLINE
  5
117
330
10E
100
AcDbEntity
  8
レイヤー 1
100
AcDbSpline
210
0.0
220
0.0
230
1.0
 70
     9
 71
     3
 72
    50
 73
    46
 74
     0
 42
0.0000000001
 43
0.0000000001
 40
0.0
 40
0.0
 40
0.0
 40
0.0
 40
1.0
 40
1.0
 40
1.0
 40
2.0
 40
2.0
 40
2.0
 40
3.0
 40
3.0
 40
3.0
 40
4.0
 40
4.0
 40
4.0
 40
5.0
 40
5.0
 40
5.0
 40
6.0
 40
6.0
 40
6.0
 40
7.0
 40
7.0
 40
7.0
 40
8.0
 40
8.0
 40
8.0
 40
9.0
 40
9.0
 40
9.0
 40
10.0
 40
10.0
 40
10.0
 40
11.0
 40
11.0
 40
11.0
 40
12.0
 40
12.0
 40
12.0
 40
13.0
 40
13.0
 40
13.0
 40
14.0
 40
14.0
 40
14.0
 40
15.0
 40
15.0
 40
15.0
 40
15.0
 10
95.9884561934508
 20
-149.6549478792529
 30
0.0
 10
95.92179359581122
 20
-149.8323702967433
 30
0.0
 10
95.80638289705536
 20
-150.0397650449553
 30
0.0
 10
95.68907739578259
 20
-150.1796359216565
 30
0.0
 10
95.5449001497249
 20
-150.3508571672734
 30
0.0
 10
95.40606280166931
 20
-150.4397406307928
 30
0.0
 10
95.13372800356032
 20
-150.5813340552366
 30
0.0
 10
95.13372800356032
 20
-150.5813340552366
 30
0.0
 10
94.98937850272836
 20
-150.3932318417419
 30
0.0
 10
94.98937850272836
 20
-150.3932318417419
 30
0.0
 10
95.14819740459838
 20
-150.3698051924422
 30
0.0
 10
95.29426945317295
 20
-150.2833332957625
 30
0.0
 10
95.42397729819262
 20
-150.1775688643653
 30
0.0
 10
95.64756399518534
 20
-149.9953233131956
 30
0.0
 10
95.81000024731485
 20
-149.6821641335864
 30
0.0
 10
95.85134139313785
 20
-149.5002630919652
 30
0.0
 10
95.85134139313785
 20
-149.5002630919652
 30
0.0
 10
95.27980005213491
 20
-149.5002630919652
 30
0.0
 10
95.27980005213491
 20
-149.5002630919652
 30
0.0
 10
95.14458005433885
 20
-149.5002630919652
 30
0.0
 10
94.89567190552955
 20
-149.5088758306783
 30
0.0
 10
94.76579180573564
 20
-149.5257567985561
 30
0.0
 10
94.76579180573564
 20
-149.5257567985561
 30
0.0
 10
94.76579180573564
 20
-149.297346967884
 30
0.0
 10
94.76579180573564
 20
-149.297346967884
 30
0.0
 10
94.79473060781174
 20
-149.3035481397574
 30
0.0
 10
94.81626245459455
 20
-149.3100938211794
 30
0.0
 10
94.86139320545133
 20
-149.3142279357617
 30
0.0
 10
94.94803735690537
 20
-149.3204291076351
 30
0.0
 10
95.11564125226277
 20
-149.3228406744748
 30
0.0
 10
95.18781600267875
 20
-149.3228406744748
 30
0.0
 10
95.18781600267875
 20
-149.3228406744748
 30
0.0
 10
95.61879744788349
 20
-149.3228406744748
 30
0.0
 10
95.61879744788349
 20
-149.3228406744748
 30
0.0
 10
95.67650279726143
 20
-149.3228406744748
 30
0.0
 10
95.80087074427895
 20
-149.318362050344
 30
0.0
 10
95.85323619565475
 20
-149.3121608784705
 30
0.0
 10
95.91455889529219
 20
-149.3035481397574
 30
0.0
 10
95.93798554459189
 20
-149.2887342291709
 30
0.0
 10
95.96675209189374
 20
-149.2656520894197
 30
0.0
 10
95.96675209189374
 20
-149.2656520894197
 30
0.0
 10
96.10748424246619
 20
-149.4327392204543
 30
0.0
 10
96.10748424246619
 20
-149.4327392204543
 30
0.0
 10
96.04805634534564
 20
-149.5002630919652
 30
0.0
 10
96.00826549249099
 20
-149.6039604660712
 30
0.0
 10
95.9884561934508
 20
-149.6549478792529
 30
0.0
  0
HATCH
  5
118
330
10E
100
AcDbEntity
  8
レイヤー 1
 62
   250
420
  2299925
440
 33554687
100
AcDbHatch
 10
0.0
 20
0.0
 30
0.0
210
0.0
220
0.0
230
1.0
  2
SOLID
 70
     1
 71
     1
 91
        2
 92
        1
 93
        1
 72
     4
 94
        3
 73
     0
 74
     0
 95
       29
 96
       25
 40
0.0
 40
0.0
 40
0.0
 40
0.0
 40
1.0
 40
1.0
 40
1.0
 40
2.0
 40
2.0
 40
2.0
 40
3.0
 40
3.0
 40
3.0
 40
4.0
 40
4.0
 40
4.0
 40
5.0
 40
5.0
 40
5.0
 40
6.0
 40
6.0
 40
6.0
 40
7.0
 40
7.0
 40
7.0
 40
8.0
 40
8.0
 40
8.0
 40
8.0
 10
95.56832679902459
 20
-149.0286295200345
 10
95.56832679902459
 20
-149.0286295200345
 10
95.27790524961803
 20
-149.0286295200345
 10
95.27790524961803
 20
-149.0286295200345
 10
95.18058130215973
 20
-149.0286295200345
 10
95.08136255218452
 20
-149.0327636346168
 10
94.98403860472622
 20
-149.0475775452034
 10
94.98403860472622
 20
-149.0475775452034
 10
94.98403860472622
 20
-148.8382879944744
 10
94.98403860472622
 20
-148.8382879944744
 10
95.08497990244404
 20
-148.853101905061
 10
95.23294675353552
 20
-148.8574082744176
 10
95.27790524961803
 20
-148.8574082744176
 10
95.27790524961803
 20
-148.8574082744176
 10
95.56832679902459
 20
-148.8574082744176
 10
95.56832679902459
 20
-148.8574082744176
 10
95.66754554899977
 20
-148.8574082744176
 10
95.76659204420073
 20
-148.853101905061
 10
95.86581079417591
 20
-148.8382879944744
 10
95.86581079417591
 20
-148.8382879944744
 10
95.86581079417591
 20
-149.0475775452034
 10
95.86581079417591
 20
-149.0475775452034
 10
95.73782549689887
 20
-149.0286295200345
 10
95.58090139754574
 20
-149.0286295200345
 10
95.56832679902459
 20
-149.0286295200345
 97
        0
 97
        1
330
116
 92
        1
 93
        1
 72
     4
 94
        3
 73
     0
 74
     0
 95
       50
 96
       46
 40
0.0
 40
0.0
 40
0.0
 40
0.0
 40
1.0
 40
1.0
 40
1.0
 40
2.0
 40
2.0
 40
2.0
 40
3.0
 40
3.0
 40
3.0
 40
4.0
 40
4.0
 40
4.0
 40
5.0
 40
5.0
 40
5.0
 40
6.0
 40
6.0
 40
6.0
 40
7.0
 40
7.0
 40
7.0
 40
8.0
 40
8.0
 40
8.0
 40
9.0
 40
9.0
 40
9.0
 40
10.0
 40
10.0
 40
10.0
 40
11.0
 40
11.0
 40
11.0
 40
12.0
 40
12.0
 40
12.0
 40
13.0
 40
13.0
 40
13.0
 40
14.0
 40
14.0
 40
14.0
 40
15.0
 40
15.0
 40
15.0
 40
15.0
 10
95.9884561934508
 20
-149.6549478792529
 10
95.92179359581122
 20
-149.8323702967433
 10
95.80638289705536
 20
-150.0397650449553
 10
95.68907739578259
 20
-150.1796359216565
 10
95.5449001497249
 20
-150.3508571672734
 10
95.40606280166931
 20
-150.4397406307928
 10
95.13372800356032
 20
-150.5813340552366
 10
95.13372800356032
 20
-150.5813340552366
 10
94.98937850272836
 20
-150.3932318417419
 10
94.98937850272836
 20
-150.3932318417419
 10
95.14819740459838
 20
-150.3698051924422
 10
95.29426945317295
 20
-150.2833332957625
 10
95.42397729819262
 20
-150.1775688643653
 10
95.64756399518534
 20
-149.9953233131956
 10
95.81000024731485
 20
-149.6821641335864
 10
95.85134139313785
 20
-149.5002630919652
 10
95.85134139313785
 20
-149.5002630919652
 10
95.27980005213491
 20
-149.5002630919652
 10
95.27980005213491
 20
-149.5002630919652
 10
95.14458005433885
 20
-149.5002630919652
 10
94.89567190552955
 20
-149.5088758306783
 10
94.76579180573564
 20
-149.5257567985561
 10
94.76579180573564
 20
-149.5257567985561
 10
94.76579180573564
 20
-149.297346967884
 10
94.76579180573564
 20
-149.297346967884
 10
94.79473060781174
 20
-149.3035481397574
 10
94.81626245459455
 20
-149.3100938211794
 10
94.86139320545133
 20
-149.3142279357617
 10
94.94803735690537
 20
-149.3204291076351
 10
95.11564125226277
 20
-149.3228406744748
 10
95.18781600267875
 20
-149.3228406744748
 10
95.18781600267875
 20
-149.3228406744748
 10
95.61879744788349
 20
-149.3228406744748
 10
95.61879744788349
 20
-149.3228406744748
 10
95.67650279726143
 20
-149.3228406744748
 10
95.80087074427895
 20
-149.318362050344
 10
95.85323619565475
 20
-149.3121608784705
 10
95.91455889529219
 20
-149.3035481397574
 10
95.93798554459189
 20
-149.2887342291709
 10
95.96675209189374
 20
-149.2656520894197
 10
95.96675209189374
 20
-149.2656520894197
 10
96.10748424246619
 20
-149.4327392204543
 10
96.10748424246619
 20
-149.4327392204543
 10
96.04805634534564
 20
-149.5002630919652
 10
96.00826549249099
 20
-149.6039604660712
 10
95.9884561934508
 20
-149.6549478792529
 97
        0
 97
        1
330
117
 75
     2
 76
     1
 98
        1
 10
0.0
 20
0.0
450
        0
451
        0
460
0.0
461
0.0
452
        0
462
0.0
453
        0
470

  0
SPLINE
  5
119
330
10E
100
AcDbEntity
  8
レイヤー 1
100
AcDbSpline
210
0.0
220
0.0
230
1.0
 70
     9
 71
     3
 72
    50
 73
    46
 74
     0
 42
0.0000000001
 43
0.0000000001
 40
0.0
 40
0.0
 40
0.0
 40
0.0
 40
1.0
 40
1.0
 40
1.0
 40
2.0
 40
2.0
 40
2.0
 40
3.0
 40
3.0
 40
3.0
 40
4.0
 40
4.0
 40
4.0
 40
5.0
 40
5.0
 40
5.0
 40
6.0
 40
6.0
 40
6.0
 40
7.0
 40
7.0
 40
7.0
 40
8.0
 40
8.0
 40
8.0
 40
9.0
 40
9.0
 40
9.0
 40
10.0
 40
10.0
 40
10.0
 40
11.0
 40
11.0
 40
11.0
 40
12.0
 40
12.0
 40
12.0
 40
13.0
 40
13.0
 40
13.0
 40
14.0
 40
14.0
 40
14.0
 40
15.0
 40
15.0
 40
15.0
 40
15.0
 10
97.44418129074313
 20
-149.0138156094479
 30
0.0
 10
97.2657253446072
 20
-149.2274115295334
 30
0.0
 10
97.20440264496973
 20
-149.2994140251751
 30
0.0
 10
97.08347979343747
 20
-149.4179253098677
 30
0.0
 10
97.08347979343747
 20
-149.4179253098677
 30
0.0
 10
97.08347979343747
 20
-149.9849880267398
 30
0.0
 10
97.08347979343747
 20
-149.9849880267398
 30
0.0
 10
97.08347979343747
 20
-150.1351941898967
 30
0.0
 10
97.08899194621388
 20
-150.1541422150656
 30
0.0
 10
97.09260929647339
 20
-150.3319091421045
 30
0.0
 10
97.094331844216
 20
-150.4631672800925
 30
0.0
 10
97.09984399699241
 20
-150.5117431264345
 30
0.0
 10
97.10518389499455
 20
-150.5709987687808
 30
0.0
 10
97.10518389499455
 20
-150.5709987687808
 30
0.0
 10
96.91225854782056
 20
-150.5709987687808
 30
0.0
 10
96.91225854782056
 20
-150.5709987687808
 30
0.0
 10
96.91587589808007
 20
-150.5265570370211
 30
0.0
 10
96.91949324833958
 20
-150.4800482479702
 30
0.0
 10
96.91949324833958
 20
-150.4714355092571
 30
0.0
 10
96.91949324833958
 20
-150.3911647844508
 30
0.0
 10
96.92311059859909
 20
-150.0397650449553
 30
0.0
 10
96.92311059859909
 20
-149.9677625493136
 30
0.0
 10
96.92311059859909
 20
-149.9677625493136
 30
0.0
 10
96.92311059859909
 20
-149.5615857916026
 30
0.0
 10
96.92311059859909
 20
-149.5615857916026
 30
0.0
 10
96.76790904698858
 20
-149.6866427577172
 30
0.0
 10
96.60202769937381
 20
-149.7965413036967
 30
0.0
 10
96.42891165124
 20
-149.883357709925
 30
0.0
 10
96.42891165124
 20
-149.883357709925
 30
0.0
 10
96.25579560310619
 20
-149.7204046934727
 30
0.0
 10
96.25579560310619
 20
-149.7204046934727
 30
0.0
 10
96.3605265058578
 20
-149.6845757004261
 30
0.0
 10
96.5786010500741
 20
-149.6105061474932
 30
0.0
 10
96.87263994974017
 20
-149.3545355529391
 30
0.0
 10
97.05643579387825
 20
-149.1957166510691
 30
0.0
 10
97.2205945937504
 20
-149.0076144375745
 30
0.0
 10
97.35047469354434
 20
-148.787472836067
 30
0.0
 10
97.35047469354434
 20
-148.787472836067
 30
0.0
 10
97.51463349341648
 20
-148.9314778273505
 30
0.0
 10
97.51463349341648
 20
-148.9314778273505
 30
0.0
 10
97.52531328942076
 20
-148.9418131138062
 30
0.0
 10
97.53254798993978
 20
-148.9566270243928
 30
0.0
 10
97.53254798993978
 20
-148.9693738776882
 30
0.0
 10
97.53254798993978
 20
-149.0096814948656
 30
0.0
 10
97.50016409237844
 20
-149.0096814948656
 30
0.0
 10
97.44418129074313
 20
-149.0138156094479
 30
0.0
  0
HATCH
  5
11A
330
10E
100
AcDbEntity
  8
レイヤー 1
 62
   250
420
  2299925
440
 33554687
100
AcDbHatch
 10
0.0
 20
0.0
 30
0.0
210
0.0
220
0.0
230
1.0
  2
SOLID
 70
     1
 71
     1
 91
        1
 92
        1
 93
        1
 72
     4
 94
        3
 73
     0
 74
     0
 95
       50
 96
       46
 40
0.0
 40
0.0
 40
0.0
 40
0.0
 40
1.0
 40
1.0
 40
1.0
 40
2.0
 40
2.0
 40
2.0
 40
3.0
 40
3.0
 40
3.0
 40
4.0
 40
4.0
 40
4.0
 40
5.0
 40
5.0
 40
5.0
 40
6.0
 40
6.0
 40
6.0
 40
7.0
 40
7.0
 40
7.0
 40
8.0
 40
8.0
 40
8.0
 40
9.0
 40
9.0
 40
9.0
 40
10.0
 40
10.0
 40
10.0
 40
11.0
 40
11.0
 40
11.0
 40
12.0
 40
12.0
 40
12.0
 40
13.0
 40
13.0
 40
13.0
 40
14.0
 40
14.0
 40
14.0
 40
15.0
 40
15.0
 40
15.0
 40
15.0
 10
97.44418129074313
 20
-149.0138156094479
 10
97.2657253446072
 20
-149.2274115295334
 10
97.20440264496973
 20
-149.2994140251751
 10
97.08347979343747
 20
-149.4179253098677
 10
97.08347979343747
 20
-149.4179253098677
 10
97.08347979343747
 20
-149.9849880267398
 10
97.08347979343747
 20
-149.9849880267398
 10
97.08347979343747
 20
-150.1351941898967
 10
97.08899194621388
 20
-150.1541422150656
 10
97.09260929647339
 20
-150.3319091421045
 10
97.094331844216
 20
-150.4631672800925
 10
97.09984399699241
 20
-150.5117431264345
 10
97.10518389499455
 20
-150.5709987687808
 10
97.10518389499455
 20
-150.5709987687808
 10
96.91225854782056
 20
-150.5709987687808
 10
96.91225854782056
 20
-150.5709987687808
 10
96.91587589808007
 20
-150.5265570370211
 10
96.91949324833958
 20
-150.4800482479702
 10
96.91949324833958
 20
-150.4714355092571
 10
96.91949324833958
 20
-150.3911647844508
 10
96.92311059859909
 20
-150.0397650449553
 10
96.92311059859909
 20
-149.9677625493136
 10
96.92311059859909
 20
-149.9677625493136
 10
96.92311059859909
 20
-149.5615857916026
 10
96.92311059859909
 20
-149.5615857916026
 10
96.76790904698858
 20
-149.6866427577172
 10
96.60202769937381
 20
-149.7965413036967
 10
96.42891165124
 20
-149.883357709925
 10
96.42891165124
 20
-149.883357709925
 10
96.25579560310619
 20
-149.7204046934727
 10
96.25579560310619
 20
-149.7204046934727
 10
96.3605265058578
 20
-149.6845757004261
 10
96.5786010500741
 20
-149.6105061474932
 10
96.87263994974017
 20
-149.3545355529391
 10
97.05643579387825
 20
-149.1957166510691
 10
97.2205945937504
 20
-149.0076144375745
 10
97.35047469354434
 20
-148.787472836067
 10
97.35047469354434
 20
-148.787472836067
 10
97.51463349341648
 20
-148.9314778273505
 10
97.51463349341648
 20
-148.9314778273505
 10
97.52531328942076
 20
-148.9418131138062
 10
97.53254798993978
 20
-148.9566270243928
 10
97.53254798993978
 20
-148.9693738776882
 10
97.53254798993978
 20
-149.0096814948656
 10
97.50016409237844
 20
-149.0096814948656
 10
97.44418129074313
 20
-149.0138156094479
 97
        0
 97
        1
330
119
 75
     2
 76
     1
 98
        1
 10
0.0
 20
0.0
450
        0
451
        0
460
0.0
461
0.0
452
        0
462
0.0
453
        0
470

  0
SPLINE
  5
11B
330
10E
100
AcDbEntity
  8
レイヤー 1
100
AcDbSpline
210
0.0
220
0.0
230
1.0
 70
     9
 71
     3
 72
    50
 73
    46
 74
     0
 42
0.0000000001
 43
0.0000000001
 40
0.0
 40
0.0
 40
0.0
 40
0.0
 40
1.0
 40
1.0
 40
1.0
 40
2.0
 40
2.0
 40
2.0
 40
3.0
 40
3.0
 40
3.0
 40
4.0
 40
4.0
 40
4.0
 40
5.0
 40
5.0
 40
5.0
 40
6.0
 40
6.0
 40
6.0
 40
7.0
 40
7.0
 40
7.0
 40
8.0
 40
8.0
 40
8.0
 40
9.0
 40
9.0
 40
9.0
 40
10.0
 40
10.0
 40
10.0
 40
11.0
 40
11.0
 40
11.0
 40
12.0
 40
12.0
 40
12.0
 40
13.0
 40
13.0
 40
13.0
 40
14.0
 40
14.0
 40
14.0
 40
15.0
 40
15.0
 40
15.0
 40
15.0
 10
98.89835609506709
 20
-149.5405707091426
 30
0.0
 10
98.84616289846555
 20
-149.6125732047843
 30
0.0
 10
98.62429874921545
 20
-149.9298664989759
 30
0.0
 10
98.57555064809917
 20
-149.9932562559044
 30
0.0
 10
98.64772539851516
 20
-150.090752458137
 30
0.0
 10
98.69096134685506
 20
-150.1541422150656
 30
0.0
 10
98.74694414849036
 20
-150.2450927358762
 30
0.0
 10
98.74694414849036
 20
-150.2450927358762
 30
0.0
 10
98.59002004913723
 20
-150.3825520457377
 30
0.0
 10
98.59002004913723
 20
-150.3825520457377
 30
0.0
 10
98.47460935038135
 20
-150.1710231829433
 30
0.0
 10
98.32853730180676
 20
-149.9467474668536
 30
0.0
 10
98.07790660525483
 20
-149.7479654573547
 30
0.0
 10
98.07790660525483
 20
-149.7479654573547
 30
0.0
 10
98.20416935478924
 20
-149.5936251796155
 30
0.0
 10
98.20416935478924
 20
-149.5936251796155
 30
0.0
 10
98.29787595198803
 20
-149.6738959044218
 30
0.0
 10
98.38624265118468
 20
-149.7627793679412
 30
0.0
 10
98.46926945237921
 20
-149.8578640033341
 30
0.0
 10
98.52697480175715
 20
-149.7817273931101
 30
0.0
 10
98.70009084989096
 20
-149.5385036518515
 30
0.0
 10
98.81360674612993
 20
-149.3100938211794
 30
0.0
 10
98.81360674612993
 20
-149.3100938211794
 30
0.0
 10
98.24017060261011
 20
-149.3100938211794
 30
0.0
 10
98.24017060261011
 20
-149.3100938211794
 30
0.0
 10
98.13371715211587
 20
-149.3100938211794
 30
0.0
 10
97.91925995815908
 20
-149.318362050344
 30
0.0
 10
97.74063175724888
 20
-149.3290418463483
 30
0.0
 10
97.74063175724888
 20
-149.3290418463483
 30
0.0
 10
97.74063175724888
 20
-149.1089002448408
 30
0.0
 10
97.74063175724888
 20
-149.1089002448408
 30
0.0
 10
97.89755585660202
 20
-149.1281927795582
 30
0.0
 10
98.07256670725269
 20
-149.1323268941405
 30
0.0
 10
98.23293590209107
 20
-149.1323268941405
 30
0.0
 10
98.23293590209107
 20
-149.1323268941405
 30
0.0
 10
98.6621947995532
 20
-149.1323268941405
 30
0.0
 10
98.6621947995532
 20
-149.1323268941405
 30
0.0
 10
98.95072154644289
 20
-149.1323268941405
 30
0.0
 10
98.98861759678062
 20
-149.1175129835539
 30
0.0
 10
99.05889754467972
 20
-149.0772053663765
 30
0.0
 10
99.05889754467972
 20
-149.0772053663765
 30
0.0
 10
99.2013522429948
 20
-149.2360242682465
 30
0.0
 10
99.2013522429948
 20
-149.2360242682465
 30
0.0
 10
99.0714721432009
 20
-149.3080267638883
 30
0.0
 10
98.94882674392599
 20
-149.470635270792
 30
0.0
 10
98.89835609506709
 20
-149.5405707091426
 30
0.0
  0
HATCH
  5
11C
330
10E
100
AcDbEntity
  8
レイヤー 1
 62
   250
420
  2299925
440
 33554687
100
AcDbHatch
 10
0.0
 20
0.0
 30
0.0
210
0.0
220
0.0
230
1.0
  2
SOLID
 70
     1
 71
     1
 91
        1
 92
        1
 93
        1
 72
     4
 94
        3
 73
     0
 74
     0
 95
       50
 96
       46
 40
0.0
 40
0.0
 40
0.0
 40
0.0
 40
1.0
 40
1.0
 40
1.0
 40
2.0
 40
2.0
 40
2.0
 40
3.0
 40
3.0
 40
3.0
 40
4.0
 40
4.0
 40
4.0
 40
5.0
 40
5.0
 40
5.0
 40
6.0
 40
6.0
 40
6.0
 40
7.0
 40
7.0
 40
7.0
 40
8.0
 40
8.0
 40
8.0
 40
9.0
 40
9.0
 40
9.0
 40
10.0
 40
10.0
 40
10.0
 40
11.0
 40
11.0
 40
11.0
 40
12.0
 40
12.0
 40
12.0
 40
13.0
 40
13.0
 40
13.0
 40
14.0
 40
14.0
 40
14.0
 40
15.0
 40
15.0
 40
15.0
 40
15.0
 10
98.89835609506709
 20
-149.5405707091426
 10
98.84616289846555
 20
-149.6125732047843
 10
98.62429874921545
 20
-149.9298664989759
 10
98.57555064809917
 20
-149.9932562559044
 10
98.64772539851516
 20
-150.090752458137
 10
98.69096134685506
 20
-150.1541422150656
 10
98.74694414849036
 20
-150.2450927358762
 10
98.74694414849036
 20
-150.2450927358762
 10
98.59002004913723
 20
-150.3825520457377
 10
98.59002004913723
 20
-150.3825520457377
 10
98.47460935038135
 20
-150.1710231829433
 10
98.32853730180676
 20
-149.9467474668536
 10
98.07790660525483
 20
-149.7479654573547
 10
98.07790660525483
 20
-149.7479654573547
 10
98.20416935478924
 20
-149.5936251796155
 10
98.20416935478924
 20
-149.5936251796155
 10
98.29787595198803
 20
-149.6738959044218
 10
98.38624265118468
 20
-149.7627793679412
 10
98.46926945237921
 20
-149.8578640033341
 10
98.52697480175715
 20
-149.7817273931101
 10
98.70009084989096
 20
-149.5385036518515
 10
98.81360674612993
 20
-149.3100938211794
 10
98.81360674612993
 20
-149.3100938211794
 10
98.24017060261011
 20
-149.3100938211794
 10
98.24017060261011
 20
-149.3100938211794
 10
98.13371715211587
 20
-149.3100938211794
 10
97.91925995815908
 20
-149.318362050344
 10
97.74063175724888
 20
-149.3290418463483
 10
97.74063175724888
 20
-149.3290418463483
 10
97.74063175724888
 20
-149.1089002448408
 10
97.74063175724888
 20
-149.1089002448408
 10
97.89755585660202
 20
-149.1281927795582
 10
98.07256670725269
 20
-149.1323268941405
 10
98.23293590209107
 20
-149.1323268941405
 10
98.23293590209107
 20
-149.1323268941405
 10
98.6621947995532
 20
-149.1323268941405
 10
98.6621947995532
 20
-149.1323268941405
 10
98.95072154644289
 20
-149.1323268941405
 10
98.98861759678062
 20
-149.1175129835539
 10
99.05889754467972
 20
-149.0772053663765
 10
99.05889754467972
 20
-149.0772053663765
 10
99.2013522429948
 20
-149.2360242682465
 10
99.2013522429948
 20
-149.2360242682465
 10
99.0714721432009
 20
-149.3080267638883
 10
98.94882674392599
 20
-149.470635270792
 10
98.89835609506709
 20
-149.5405707091426
 97
        0
 97
        1
330
11B
 75
     2
 76
     1
 98
        1
 10
0.0
 20
0.0
450
        0
451
        0
460
0.0
461
0.0
452
        0
462
0.0
453
        0
470

  0
SPLINE
  5
11D
330
10E
100
AcDbEntity
  8
レイヤー 1
100
AcDbSpline
210
0.0
220
0.0
230
1.0
 70
     9
 71
     3
 72
    29
 73
    25
 74
     0
 42
0.0000000001
 43
0.0000000001
 40
0.0
 40
0.0
 40
0.0
 40
0.0
 40
1.0
 40
1.0
 40
1.0
 40
2.0
 40
2.0
 40
2.0
 40
3.0
 40
3.0
 40
3.0
 40
4.0
 40
4.0
 40
4.0
 40
5.0
 40
5.0
 40
5.0
 40
6.0
 40
6.0
 40
6.0
 40
7.0
 40
7.0
 40
7.0
 40
8.0
 40
8.0
 40
8.0
 40
8.0
 10
100.2801838942008
 20
-149.7837944504013
 30
0.0
 10
100.2801838942008
 20
-149.7837944504013
 30
0.0
 10
99.8672892002936
 20
-149.7837944504013
 30
0.0
 10
99.8672892002936
 20
-149.7837944504013
 30
0.0
 10
99.84369029621964
 20
-149.7837944504013
 30
0.0
 10
99.57325030062753
 20
-149.7837944504013
 30
0.0
 10
99.3928995519747
 20
-149.8092881569921
 30
0.0
 10
99.3928995519747
 20
-149.8092881569921
 30
0.0
 10
99.3928995519747
 20
-149.5788112690289
 30
0.0
 10
99.3928995519747
 20
-149.5788112690289
 30
0.0
 10
99.52811954977075
 20
-149.6018934087801
 30
0.0
 10
99.6905558019003
 20
-149.6039604660712
 30
0.0
 10
99.8672892002936
 20
-149.6039604660712
 30
0.0
 10
99.8672892002936
 20
-149.6039604660712
 30
0.0
 10
100.2801838942008
 20
-149.6039604660712
 30
0.0
 10
100.2801838942008
 20
-149.6039604660712
 30
0.0
 10
100.4388305412965
 20
-149.6039604660712
 30
0.0
 10
100.5974771883923
 20
-149.6018934087801
 30
0.0
 10
100.7544012877454
 20
-149.5788112690289
 30
0.0
 10
100.7544012877454
 20
-149.5788112690289
 30
0.0
 10
100.7544012877454
 20
-149.8092881569921
 30
0.0
 10
100.7544012877454
 20
-149.8092881569921
 30
0.0
 10
100.5974771883923
 20
-149.7858615076924
 30
0.0
 10
100.386637344695
 20
-149.7837944504013
 30
0.0
 10
100.2801838942008
 20
-149.7837944504013
 30
0.0
  0
HATCH
  5
11E
330
10E
100
AcDbEntity
  8
レイヤー 1
 62
   250
420
  2299925
440
 33554687
100
AcDbHatch
 10
0.0
 20
0.0
 30
0.0
210
0.0
220
0.0
230
1.0
  2
SOLID
 70
     1
 71
     1
 91
        1
 92
        1
 93
        1
 72
     4
 94
        3
 73
     0
 74
     0
 95
       29
 96
       25
 40
0.0
 40
0.0
 40
0.0
 40
0.0
 40
1.0
 40
1.0
 40
1.0
 40
2.0
 40
2.0
 40
2.0
 40
3.0
 40
3.0
 40
3.0
 40
4.0
 40
4.0
 40
4.0
 40
5.0
 40
5.0
 40
5.0
 40
6.0
 40
6.0
 40
6.0
 40
7.0
 40
7.0
 40
7.0
 40
8.0
 40
8.0
 40
8.0
 40
8.0
 10
100.2801838942008
 20
-149.7837944504013
 10
100.2801838942008
 20
-149.7837944504013
 10
99.8672892002936
 20
-149.7837944504013
 10
99.8672892002936
 20
-149.7837944504013
 10
99.84369029621964
 20
-149.7837944504013
 10
99.57325030062753
 20
-149.7837944504013
 10
99.3928995519747
 20
-149.8092881569921
 10
99.3928995519747
 20
-149.8092881569921
 10
99.3928995519747
 20
-149.5788112690289
 10
99.3928995519747
 20
-149.5788112690289
 10
99.52811954977075
 20
-149.6018934087801
 10
99.6905558019003
 20
-149.6039604660712
 10
99.8672892002936
 20
-149.6039604660712
 10
99.8672892002936
 20
-149.6039604660712
 10
100.2801838942008
 20
-149.6039604660712
 10
100.2801838942008
 20
-149.6039604660712
 10
100.4388305412965
 20
-149.6039604660712
 10
100.5974771883923
 20
-149.6018934087801
 10
100.7544012877454
 20
-149.5788112690289
 10
100.7544012877454
 20
-149.5788112690289
 10
100.7544012877454
 20
-149.8092881569921
 10
100.7544012877454
 20
-149.8092881569921
 10
100.5974771883923
 20
-149.7858615076924
 10
100.386637344695
 20
-149.7837944504013
 10
100.2801838942008
 20
-149.7837944504013
 97
        0
 97
        1
330
11D
 75
     2
 76
     1
 98
        1
 10
0.0
 20
0.0
450
        0
451
        0
460
0.0
461
0.0
452
        0
462
0.0
453
        0
470

  0
SPLINE
  5
11F
330
10E
100
AcDbEntity
  8
レイヤー 1
100
AcDbSpline
210
0.0
220
0.0
230
1.0
 70
     9
 71
     3
 72
    20
 73
    16
 74
     0
 42
0.0000000001
 43
0.0000000001
 40
0.0
 40
0.0
 40
0.0
 40
0.0
 40
1.0
 40
1.0
 40
1.0
 40
2.0
 40
2.0
 40
2.0
 40
3.0
 40
3.0
 40
3.0
 40
4.0
 40
4.0
 40
4.0
 40
5.0
 40
5.0
 40
5.0
 40
5.0
 10
101.8115288373943
 20
-150.1351941898967
 30
0.0
 10
101.771910239314
 20
-149.9574272628578
 30
0.0
 10
101.6888834381194
 20
-149.8154893288655
 30
0.0
 10
101.569855389104
 20
-149.7055907828861
 30
0.0
 10
101.569855389104
 20
-149.7055907828861
 30
0.0
 10
101.706970189417
 20
-149.5912136127758
 30
0.0
 10
101.706970189417
 20
-149.5912136127758
 30
0.0
 10
101.7591633860185
 20
-149.6335882872443
 30
0.0
 10
101.7934420860968
 20
-149.6673502229998
 30
0.0
 10
101.8583821359937
 20
-149.7755262212367
 30
0.0
 10
101.9269395361502
 20
-149.8916259390896
 30
0.0
 10
101.9450262874477
 20
-149.9446804095624
 30
0.0
 10
101.9665581342306
 20
-150.0101372237821
 30
0.0
 10
101.9665581342306
 20
-150.0101372237821
 30
0.0
 10
101.8115288373943
 20
-150.1351941898967
 30
0.0
 10
101.8115288373943
 20
-150.1351941898967
 30
0.0
  0
SPLINE
  5
120
330
10E
100
AcDbEntity
  8
レイヤー 1
100
AcDbSpline
210
0.0
220
0.0
230
1.0
 70
     9
 71
     3
 72
    77
 73
    73
 74
     0
 42
0.0000000001
 43
0.0000000001
 40
0.0
 40
0.0
 40
0.0
 40
0.0
 40
1.0
 40
1.0
 40
1.0
 40
2.0
 40
2.0
 40
2.0
 40
3.0
 40
3.0
 40
3.0
 40
4.0
 40
4.0
 40
4.0
 40
5.0
 40
5.0
 40
5.0
 40
6.0
 40
6.0
 40
6.0
 40
7.0
 40
7.0
 40
7.0
 40
8.0
 40
8.0
 40
8.0
 40
9.0
 40
9.0
 40
9.0
 40
10.0
 40
10.0
 40
10.0
 40
11.0
 40
11.0
 40
11.0
 40
12.0
 40
12.0
 40
12.0
 40
13.0
 40
13.0
 40
13.0
 40
14.0
 40
14.0
 40
14.0
 40
15.0
 40
15.0
 40
15.0
 40
16.0
 40
16.0
 40
16.0
 40
17.0
 40
17.0
 40
17.0
 40
18.0
 40
18.0
 40
18.0
 40
19.0
 40
19.0
 40
19.0
 40
20.0
 40
20.0
 40
20.0
 40
21.0
 40
21.0
 40
21.0
 40
22.0
 40
22.0
 40
22.0
 40
23.0
 40
23.0
 40
23.0
 40
24.0
 40
24.0
 40
24.0
 40
24.0
 10
102.4679917821087
 20
-149.4093125711546
 30
0.0
 10
102.4083916302139
 20
-149.4051784565723
 30
0.0
 10
102.3506862808359
 20
-149.4051784565723
 30
0.0
 10
102.292980931458
 20
-149.4051784565723
 30
0.0
 10
102.292980931458
 20
-149.4051784565723
 30
0.0
 10
102.292980931458
 20
-150.1796359216565
 30
0.0
 10
102.292980931458
 20
-150.1796359216565
 30
0.0
 10
102.292980931458
 20
-150.4438747453751
 30
0.0
 10
102.2912583837154
 20
-150.4735025665483
 30
0.0
 10
102.285746230939
 20
-150.5031303877214
 30
0.0
 10
102.2569796836371
 20
-150.6364555830006
 30
0.0
 10
102.1703355321831
 20
-150.6450683217137
 30
0.0
 10
102.020646133349
 20
-150.6450683217137
 30
0.0
 10
101.9863674332707
 20
-150.6450683217137
 30
0.0
 10
101.972070287007
 20
-150.6450683217137
 30
0.0
 10
101.9377915869287
 20
-150.6405896975829
 30
0.0
 10
101.9377915869287
 20
-150.6405896975829
 30
0.0
 10
101.8313381364345
 20
-150.3994330136154
 30
0.0
 10
101.8313381364345
 20
-150.3994330136154
 30
0.0
 10
101.9305568864097
 20
-150.4311278920797
 30
0.0
 10
102.0008368343088
 20
-150.4311278920797
 30
0.0
 10
102.020646133349
 20
-150.4311278920797
 30
0.0
 10
102.0802462852438
 20
-150.4311278920797
 30
0.0
 10
102.1090128325456
 20
-150.414246924202
 30
0.0
 10
102.1126301828052
 20
-150.3574028486954
 30
0.0
 10
102.1126301828052
 20
-150.3446559953999
 30
0.0
 10
102.114524985322
 20
-150.2471597931674
 30
0.0
 10
102.114524985322
 20
-150.1899712081122
 30
0.0
 10
102.114524985322
 20
-150.1899712081122
 30
0.0
 10
102.114524985322
 20
-149.4031113992812
 30
0.0
 10
102.114524985322
 20
-149.4031113992812
 30
0.0
 10
102.114524985322
 20
-149.4031113992812
 30
0.0
 10
101.8638942887701
 20
-149.4031113992812
 30
0.0
 10
101.8638942887701
 20
-149.4031113992812
 30
0.0
 10
101.7393540869783
 20
-149.4031113992812
 30
0.0
 10
101.6149861399608
 20
-149.4093125711546
 30
0.0
 10
101.4923407406859
 20
-149.42205942445
 30
0.0
 10
101.4923407406859
 20
-149.42205942445
 30
0.0
 10
101.4923407406859
 20
-149.214664676238
 30
0.0
 10
101.4923407406859
 20
-149.214664676238
 30
0.0
 10
101.620326037963
 20
-149.2274115295334
 30
0.0
 10
101.8061889393922
 20
-149.2318901536642
 30
0.0
 10
101.8638942887701
 20
-149.2318901536642
 30
0.0
 10
101.8638942887701
 20
-149.2318901536642
 30
0.0
 10
102.114524985322
 20
-149.2318901536642
 30
0.0
 10
102.114524985322
 20
-149.2318901536642
 30
0.0
 10
102.1126301828052
 20
-148.9631727058148
 30
0.0
 10
102.1126301828052
 20
-148.8870360955907
 30
0.0
 10
102.1053954822861
 20
-148.738896989725
 30
0.0
 10
102.1053954822861
 20
-148.738896989725
 30
0.0
 10
102.3255370837936
 20
-148.776965294837
 30
0.0
 10
102.3255370837936
 20
-148.776965294837
 30
0.0
 10
102.3381116823148
 20
-148.7790323521281
 30
0.0
 10
102.3506862808359
 20
-148.7854057787759
 30
0.0
 10
102.3506862808359
 20
-148.8065931160101
 30
0.0
 10
102.3506862808359
 20
-148.8257133959533
 30
0.0
 10
102.3453463828338
 20
-148.8277804532444
 30
0.0
 10
102.2965982817175
 20
-148.8615423889999
 30
0.0
 10
102.292980931458
 20
-148.939746056515
 30
0.0
 10
102.292980931458
 20
-148.9545599671016
 30
0.0
 10
102.292980931458
 20
-149.2318901536642
 30
0.0
 10
102.444565132809
 20
-149.2274115295334
 30
0.0
 10
102.4607570815897
 20
-149.2274115295334
 30
0.0
 10
102.4895236288915
 20
-149.2232774149511
 30
0.0
 10
102.5327595772314
 20
-149.2191433003688
 30
0.0
 10
102.5363769274909
 20
-149.2170762430777
 30
0.0
 10
102.5742729778286
 20
-149.214664676238
 30
0.0
 10
102.5742729778286
 20
-149.214664676238
 30
0.0
 10
102.5742729778286
 20
-149.42205942445
 30
0.0
 10
102.5742729778286
 20
-149.42205942445
 30
0.0
 10
102.5491237807863
 20
-149.4199923671589
 30
0.0
 10
102.5020982274126
 20
-149.4113796284458
 30
0.0
 10
102.4679917821087
 20
-149.4093125711546
 30
0.0
  0
SPLINE
  5
121
330
10E
100
AcDbEntity
  8
レイヤー 1
100
AcDbSpline
210
0.0
220
0.0
230
1.0
 70
     9
 71
     3
 72
    53
 73
    49
 74
     0
 42
0.0000000001
 43
0.0000000001
 40
0.0
 40
0.0
 40
0.0
 40
0.0
 40
1.0
 40
1.0
 40
1.0
 40
2.0
 40
2.0
 40
2.0
 40
3.0
 40
3.0
 40
3.0
 40
4.0
 40
4.0
 40
4.0
 40
5.0
 40
5.0
 40
5.0
 40
6.0
 40
6.0
 40
6.0
 40
7.0
 40
7.0
 40
7.0
 40
8.0
 40
8.0
 40
8.0
 40
9.0
 40
9.0
 40
9.0
 40
10.0
 40
10.0
 40
10.0
 40
11.0
 40
11.0
 40
11.0
 40
12.0
 40
12.0
 40
12.0
 40
13.0
 40
13.0
 40
13.0
 40
14.0
 40
14.0
 40
14.0
 40
15.0
 40
15.0
 40
15.0
 40
16.0
 40
16.0
 40
16.0
 40
16.0
 10
101.4870008426838
 20
-148.9101182353419
 30
0.0
 10
101.4292954933059
 20
-149.0623914557899
 30
0.0
 10
101.3931219907107
 20
-149.1405951233051
 30
0.0
 10
101.3607380931494
 20
-149.2084635043645
 30
0.0
 10
101.3967393409702
 20
-149.2294785868246
 30
0.0
 10
101.4003566912297
 20
-149.2318901536642
 30
0.0
 10
101.4003566912297
 20
-149.2467040642508
 30
0.0
 10
101.4003566912297
 20
-149.2591064079977
 30
0.0
 10
101.3715901439279
 20
-149.2932128533017
 30
0.0
 10
101.362460640892
 20
-149.3014810824663
 30
0.0
 10
101.3607380931494
 20
-149.498196034674
 30
0.0
 10
101.3607380931494
 20
-149.5195556266826
 30
0.0
 10
101.3607380931494
 20
-149.6528808219618
 30
0.0
 10
101.3588432906325
 20
-149.6652831657087
 30
0.0
 10
101.3588432906325
 20
-149.6800970762952
 30
0.0
 10
101.3588432906325
 20
-149.6949109868818
 30
0.0
 10
101.3588432906325
 20
-149.6949109868818
 30
0.0
 10
101.3588432906325
 20
-150.2302788252896
 30
0.0
 10
101.3588432906325
 20
-150.2302788252896
 30
0.0
 10
101.3588432906325
 20
-150.3022813209313
 30
0.0
 10
101.362460640892
 20
-150.5372368330254
 30
0.0
 10
101.369695341411
 20
-150.6471353790049
 30
0.0
 10
101.369695341411
 20
-150.6471353790049
 30
0.0
 10
101.162300593199
 20
-150.6471353790049
 30
0.0
 10
101.162300593199
 20
-150.6471353790049
 30
0.0
 10
101.1821098922392
 20
-150.4883164771348
 30
0.0
 10
101.1876220450156
 20
-150.2471597931674
 30
0.0
 10
101.1876220450156
 20
-150.2261447107073
 30
0.0
 10
101.1876220450156
 20
-150.2261447107073
 30
0.0
 10
101.1876220450156
 20
-149.5088758306783
 30
0.0
 10
101.1876220450156
 20
-149.5088758306783
 30
0.0
 10
101.1101073965975
 20
-149.6232530007886
 30
0.0
 10
101.0577419452217
 20
-149.6821641335864
 30
0.0
 10
101.0217406974008
 20
-149.724538808055
 30
0.0
 10
101.0217406974008
 20
-149.724538808055
 30
0.0
 10
100.8593044452713
 20
-149.5870794981935
 30
0.0
 10
100.8593044452713
 20
-149.5870794981935
 30
0.0
 10
101.0992553458189
 20
-149.3714165208168
 30
0.0
 10
101.2632418909168
 20
-149.0623914557899
 30
0.0
 10
101.3588432906325
 20
-148.7261501364296
 30
0.0
 10
101.3588432906325
 20
-148.7261501364296
 30
0.0
 10
101.5464287398043
 20
-148.8405273065399
 30
0.0
 10
101.5464287398043
 20
-148.8405273065399
 30
0.0
 10
101.5572807905829
 20
-148.8467284784133
 30
0.0
 10
101.5645154911019
 20
-148.8510348477699
 30
0.0
 10
101.5645154911019
 20
-148.8658487583564
 30
0.0
 10
101.5645154911019
 20
-148.891170210173
 30
0.0
 10
101.5500460900639
 20
-148.8953043247553
 30
0.0
 10
101.4870008426838
 20
-148.9101182353419
 30
0.0
  0
HATCH
  5
122
330
10E
100
AcDbEntity
  8
レイヤー 1
 62
   250
420
  2299925
440
 33554687
100
AcDbHatch
 10
0.0
 20
0.0
 30
0.0
210
0.0
220
0.0
230
1.0
  2
SOLID
 70
     1
 71
     1
 91
        3
 92
        1
 93
        1
 72
     4
 94
        3
 73
     0
 74
     0
 95
       20
 96
       16
 40
0.0
 40
0.0
 40
0.0
 40
0.0
 40
1.0
 40
1.0
 40
1.0
 40
2.0
 40
2.0
 40
2.0
 40
3.0
 40
3.0
 40
3.0
 40
4.0
 40
4.0
 40
4.0
 40
5.0
 40
5.0
 40
5.0
 40
5.0
 10
101.8115288373943
 20
-150.1351941898967
 10
101.771910239314
 20
-149.9574272628578
 10
101.6888834381194
 20
-149.8154893288655
 10
101.569855389104
 20
-149.7055907828861
 10
101.569855389104
 20
-149.7055907828861
 10
101.706970189417
 20
-149.5912136127758
 10
101.706970189417
 20
-149.5912136127758
 10
101.7591633860185
 20
-149.6335882872443
 10
101.7934420860968
 20
-149.6673502229998
 10
101.8583821359937
 20
-149.7755262212367
 10
101.9269395361502
 20
-149.8916259390896
 10
101.9450262874477
 20
-149.9446804095624
 10
101.9665581342306
 20
-150.0101372237821
 10
101.9665581342306
 20
-150.0101372237821
 10
101.8115288373943
 20
-150.1351941898967
 10
101.8115288373943
 20
-150.1351941898967
 97
        0
 97
        1
330
11F
 92
        1
 93
        1
 72
     4
 94
        3
 73
     0
 74
     0
 95
       77
 96
       73
 40
0.0
 40
0.0
 40
0.0
 40
0.0
 40
1.0
 40
1.0
 40
1.0
 40
2.0
 40
2.0
 40
2.0
 40
3.0
 40
3.0
 40
3.0
 40
4.0
 40
4.0
 40
4.0
 40
5.0
 40
5.0
 40
5.0
 40
6.0
 40
6.0
 40
6.0
 40
7.0
 40
7.0
 40
7.0
 40
8.0
 40
8.0
 40
8.0
 40
9.0
 40
9.0
 40
9.0
 40
10.0
 40
10.0
 40
10.0
 40
11.0
 40
11.0
 40
11.0
 40
12.0
 40
12.0
 40
12.0
 40
13.0
 40
13.0
 40
13.0
 40
14.0
 40
14.0
 40
14.0
 40
15.0
 40
15.0
 40
15.0
 40
16.0
 40
16.0
 40
16.0
 40
17.0
 40
17.0
 40
17.0
 40
18.0
 40
18.0
 40
18.0
 40
19.0
 40
19.0
 40
19.0
 40
20.0
 40
20.0
 40
20.0
 40
21.0
 40
21.0
 40
21.0
 40
22.0
 40
22.0
 40
22.0
 40
23.0
 40
23.0
 40
23.0
 40
24.0
 40
24.0
 40
24.0
 40
24.0
 10
102.4679917821087
 20
-149.4093125711546
 10
102.4083916302139
 20
-149.4051784565723
 10
102.3506862808359
 20
-149.4051784565723
 10
102.292980931458
 20
-149.4051784565723
 10
102.292980931458
 20
-149.4051784565723
 10
102.292980931458
 20
-150.1796359216565
 10
102.292980931458
 20
-150.1796359216565
 10
102.292980931458
 20
-150.4438747453751
 10
102.2912583837154
 20
-150.4735025665483
 10
102.285746230939
 20
-150.5031303877214
 10
102.2569796836371
 20
-150.6364555830006
 10
102.1703355321831
 20
-150.6450683217137
 10
102.020646133349
 20
-150.6450683217137
 10
101.9863674332707
 20
-150.6450683217137
 10
101.972070287007
 20
-150.6450683217137
 10
101.9377915869287
 20
-150.6405896975829
 10
101.9377915869287
 20
-150.6405896975829
 10
101.8313381364345
 20
-150.3994330136154
 10
101.8313381364345
 20
-150.3994330136154
 10
101.9305568864097
 20
-150.4311278920797
 10
102.0008368343088
 20
-150.4311278920797
 10
102.020646133349
 20
-150.4311278920797
 10
102.0802462852438
 20
-150.4311278920797
 10
102.1090128325456
 20
-150.414246924202
 10
102.1126301828052
 20
-150.3574028486954
 10
102.1126301828052
 20
-150.3446559953999
 10
102.114524985322
 20
-150.2471597931674
 10
102.114524985322
 20
-150.1899712081122
 10
102.114524985322
 20
-150.1899712081122
 10
102.114524985322
 20
-149.4031113992812
 10
102.114524985322
 20
-149.4031113992812
 10
102.114524985322
 20
-149.4031113992812
 10
101.8638942887701
 20
-149.4031113992812
 10
101.8638942887701
 20
-149.4031113992812
 10
101.7393540869783
 20
-149.4031113992812
 10
101.6149861399608
 20
-149.4093125711546
 10
101.4923407406859
 20
-149.42205942445
 10
101.4923407406859
 20
-149.42205942445
 10
101.4923407406859
 20
-149.214664676238
 10
101.4923407406859
 20
-149.214664676238
 10
101.620326037963
 20
-149.2274115295334
 10
101.8061889393922
 20
-149.2318901536642
 10
101.8638942887701
 20
-149.2318901536642
 10
101.8638942887701
 20
-149.2318901536642
 10
102.114524985322
 20
-149.2318901536642
 10
102.114524985322
 20
-149.2318901536642
 10
102.1126301828052
 20
-148.9631727058148
 10
102.1126301828052
 20
-148.8870360955907
 10
102.1053954822861
 20
-148.738896989725
 10
102.1053954822861
 20
-148.738896989725
 10
102.3255370837936
 20
-148.776965294837
 10
102.3255370837936
 20
-148.776965294837
 10
102.3381116823148
 20
-148.7790323521281
 10
102.3506862808359
 20
-148.7854057787759
 10
102.3506862808359
 20
-148.8065931160101
 10
102.3506862808359
 20
-148.8257133959533
 10
102.3453463828338
 20
-148.8277804532444
 10
102.2965982817175
 20
-148.8615423889999
 10
102.292980931458
 20
-148.939746056515
 10
102.292980931458
 20
-148.9545599671016
 10
102.292980931458
 20
-149.2318901536642
 10
102.444565132809
 20
-149.2274115295334
 10
102.4607570815897
 20
-149.2274115295334
 10
102.4895236288915
 20
-149.2232774149511
 10
102.5327595772314
 20
-149.2191433003688
 10
102.5363769274909
 20
-149.2170762430777
 10
102.5742729778286
 20
-149.214664676238
 10
102.5742729778286
 20
-149.214664676238
 10
102.5742729778286
 20
-149.42205942445
 10
102.5742729778286
 20
-149.42205942445
 10
102.5491237807863
 20
-149.4199923671589
 10
102.5020982274126
 20
-149.4113796284458
 10
102.4679917821087
 20
-149.4093125711546
 97
        0
 97
        1
330
120
 92
        1
 93
        1
 72
     4
 94
        3
 73
     0
 74
     0
 95
       53
 96
       49
 40
0.0
 40
0.0
 40
0.0
 40
0.0
 40
1.0
 40
1.0
 40
1.0
 40
2.0
 40
2.0
 40
2.0
 40
3.0
 40
3.0
 40
3.0
 40
4.0
 40
4.0
 40
4.0
 40
5.0
 40
5.0
 40
5.0
 40
6.0
 40
6.0
 40
6.0
 40
7.0
 40
7.0
 40
7.0
 40
8.0
 40
8.0
 40
8.0
 40
9.0
 40
9.0
 40
9.0
 40
10.0
 40
10.0
 40
10.0
 40
11.0
 40
11.0
 40
11.0
 40
12.0
 40
12.0
 40
12.0
 40
13.0
 40
13.0
 40
13.0
 40
14.0
 40
14.0
 40
14.0
 40
15.0
 40
15.0
 40
15.0
 40
16.0
 40
16.0
 40
16.0
 40
16.0
 10
101.4870008426838
 20
-148.9101182353419
 10
101.4292954933059
 20
-149.0623914557899
 10
101.3931219907107
 20
-149.1405951233051
 10
101.3607380931494
 20
-149.2084635043645
 10
101.3967393409702
 20
-149.2294785868246
 10
101.4003566912297
 20
-149.2318901536642
 10
101.4003566912297
 20
-149.2467040642508
 10
101.4003566912297
 20
-149.2591064079977
 10
101.3715901439279
 20
-149.2932128533017
 10
101.362460640892
 20
-149.3014810824663
 10
101.3607380931494
 20
-149.498196034674
 10
101.3607380931494
 20
-149.5195556266826
 10
101.3607380931494
 20
-149.6528808219618
 10
101.3588432906325
 20
-149.6652831657087
 10
101.3588432906325
 20
-149.6800970762952
 10
101.3588432906325
 20
-149.6949109868818
 10
101.3588432906325
 20
-149.6949109868818
 10
101.3588432906325
 20
-150.2302788252896
 10
101.3588432906325
 20
-150.2302788252896
 10
101.3588432906325
 20
-150.3022813209313
 10
101.362460640892
 20
-150.5372368330254
 10
101.369695341411
 20
-150.6471353790049
 10
101.369695341411
 20
-150.6471353790049
 10
101.162300593199
 20
-150.6471353790049
 10
101.162300593199
 20
-150.6471353790049
 10
101.1821098922392
 20
-150.4883164771348
 10
101.1876220450156
 20
-150.2471597931674
 10
101.1876220450156
 20
-150.2261447107073
 10
101.1876220450156
 20
-150.2261447107073
 10
101.1876220450156
 20
-149.5088758306783
 10
101.1876220450156
 20
-149.5088758306783
 10
101.1101073965975
 20
-149.6232530007886
 10
101.0577419452217
 20
-149.6821641335864
 10
101.0217406974008
 20
-149.724538808055
 10
101.0217406974008
 20
-149.724538808055
 10
100.8593044452713
 20
-149.5870794981935
 10
100.8593044452713
 20
-149.5870794981935
 10
101.0992553458189
 20
-149.3714165208168
 10
101.2632418909168
 20
-149.0623914557899
 10
101.3588432906325
 20
-148.7261501364296
 10
101.3588432906325
 20
-148.7261501364296
 10
101.5464287398043
 20
-148.8405273065399
 10
101.5464287398043
 20
-148.8405273065399
 10
101.5572807905829
 20
-148.8467284784133
 10
101.5645154911019
 20
-148.8510348477699
 10
101.5645154911019
 20
-148.8658487583564
 10
101.5645154911019
 20
-148.891170210173
 10
101.5500460900639
 20
-148.8953043247553
 10
101.4870008426838
 20
-148.9101182353419
 97
        0
 97
        1
330
121
 75
     2
 76
     1
 98
        1
 10
0.0
 20
0.0
450
        0
451
        0
460
0.0
461
0.0
452
        0
462
0.0
453
        0
470

  0
ENDBLK
  5
111
330
10E
100
AcDbEntity
  8
0
100
AcDbBlockEnd
  0
ENDSEC
  0
SECTION
  2
ENTITIES
  0
LINE
  5
79
330
70
100
AcDbEntity
  8
レイヤー 1
 62
   250
420
  2299925
370
    25
100
AcDbLine
 10
92.21234386148019
 20
-143.6213881420079
 30
0.0
 11
105.3123255171734
 21
-143.6213881420079
 31
0.0
  0
LINE
  5
7A
330
70
100
AcDbEntity
  8
レイヤー 1
 62
   250
420
  2299925
370
    25
100
AcDbLine
 10
104.2123266108907
 20
-144.7210670028416
 30
0.0
 11
104.2123266108907
 21
-154.2212664826936
 31
0.0
  0
LINE
  5
7B
330
70
100
AcDbEntity
  8
レイヤー 1
 62
   250
420
  2299925
370
    25
100
AcDbLine
 10
92.21234386148019
 20
-144.7210670028416
 30
0.0
 11
104.2123266108907
 21
-144.7210670028416
 31
0.0
  0
LINE
  5
7C
330
70
100
AcDbEntity
  8
レイヤー 1
 62
   250
420
  2299925
370
    25
100
AcDbLine
 10
92.21234386148019
 20
-143.6213881420079
 30
0.0
 11
92.21234386148019
 21
-144.7210670028416
 31
0.0
  0
LINE
  5
7D
330
70
100
AcDbEntity
  8
レイヤー 1
 62
   250
420
  2299925
370
    25
100
AcDbLine
 10
105.3123255171734
 20
-143.6213881420079
 30
0.0
 11
105.3123255171734
 21
-153.1215876218599
 31
0.0
  0
LINE
  5
7E
330
70
100
AcDbEntity
  8
レイヤー 1
 62
   250
420
  2299925
370
    25
100
AcDbLine
 10
121.2124756216252
 20
-153.1215876218599
 30
0.0
 11
121.2124756216252
 21
-153.5212142783312
 31
0.0
  0
LINE
  5
7F
330
70
100
AcDbEntity
  8
レイヤー 1
 62
   250
420
  2299925
370
    25
100
AcDbLine
 10
105.3123255171734
 20
-153.1215876218599
 30
0.0
 11
121.2124756216252
 21
-153.1215876218599
 31
0.0
  0
LINE
  5
80
330
70
100
AcDbEntity
  8
レイヤー 1
 62
   250
420
  2299925
370
    25
100
AcDbLine
 10
121.2124756216252
 20
-153.5212142783312
 30
0.0
 11
104.2123266108907
 21
-154.2212664826936
 31
0.0
  0
LINE
  5
81
330
70
100
AcDbEntity
  8
レイヤー 1
  6
AI-Linetype-0
 62
   154
420
    23468
370
    25
100
AcDbLine
 10
92.21234386148019
 20
-145.2213058789684
 30
0.0
 11
103.712440512533
 21
-145.2213058789684
 31
0.0
  0
LINE
  5
83
330
70
100
AcDbEntity
  8
レイヤー 1
  6
AI-Linetype-1
 62
   154
420
    23468
370
    25
100
AcDbLine
 10
103.712440512533
 20
-145.2213058789684
 30
0.0
 11
103.712440512533
 21
-153.1215876218599
 31
0.0
  0
SPLINE
  5
85
330
70
100
AcDbEntity
  8
レイヤー 1
 62
   250
420
  2299925
370
     9
100
AcDbSpline
210
0.0
220
0.0
230
1.0
 70
     9
 71
     3
 72
    17
 73
    13
 74
     0
 42
0.0000000001
 43
0.0000000001
 40
0.0
 40
0.0
 40
0.0
 40
0.0
 40
1.0
 40
1.0
 40
1.0
 40
2.0
 40
2.0
 40
2.0
 40
3.0
 40
3.0
 40
3.0
 40
4.0
 40
4.0
 40
4.0
 40
4.0
 10
125.3124941281361
 20
-143.6213881420079
 30
0.0
 10
125.3124941281361
 20
-143.5662842545248
 30
0.0
 10
125.2676913515013
 20
-143.5214814778901
 30
0.0
 10
125.2122346862495
 20
-143.5214814778901
 30
0.0
 10
125.1571338455457
 20
-143.5214814778901
 30
0.0
 10
125.112331067779
 20
-143.5662842545248
 30
0.0
 10
125.112331067779
 20
-143.6213881420079
 30
0.0
 10
125.112331067779
 20
-143.6765273072679
 30
0.0
 10
125.1571338455457
 20
-143.7212948061257
 30
0.0
 10
125.2122346862495
 20
-143.7212948061257
 30
0.0
 10
125.2676913515013
 20
-143.7212948061257
 30
0.0
 10
125.3124941281361
 20
-143.6765273072679
 30
0.0
 10
125.3124941281361
 20
-143.6213881420079
 30
0.0
  0
SPLINE
  5
86
330
70
100
AcDbEntity
  8
レイヤー 1
 62
   250
420
  2299925
370
     9
100
AcDbSpline
210
0.0
220
0.0
230
1.0
 70
     9
 71
     3
 72
    17
 73
    13
 74
     0
 42
0.0000000001
 43
0.0000000001
 40
0.0
 40
0.0
 40
0.0
 40
0.0
 40
1.0
 40
1.0
 40
1.0
 40
2.0
 40
2.0
 40
2.0
 40
3.0
 40
3.0
 40
3.0
 40
4.0
 40
4.0
 40
4.0
 40
4.0
 10
125.3124941281361
 20
-153.1215876218599
 30
0.0
 10
125.3124941281361
 20
-153.0657781788392
 30
0.0
 10
125.2676913515013
 20
-153.0210106799813
 30
0.0
 10
125.2122346862495
 20
-153.0210106799813
 30
0.0
 10
125.1571338455457
 20
-153.0210106799813
 30
0.0
 10
125.112331067779
 20
-153.0657781788392
 30
0.0
 10
125.112331067779
 20
-153.1215876218599
 30
0.0
 10
125.112331067779
 20
-153.1767267871198
 30
0.0
 10
125.1571338455457
 20
-153.2214942859777
 30
0.0
 10
125.2122346862495
 20
-153.2214942859777
 30
0.0
 10
125.2676913515013
 20
-153.2214942859777
 30
0.0
 10
125.3124941281361
 20
-153.1767267871198
 30
0.0
 10
125.3124941281361
 20
-153.1215876218599
 30
0.0
  0
SPLINE
  5
87
330
70
100
AcDbEntity
  8
レイヤー 1
 62
   250
420
  2299925
370
     9
100
AcDbSpline
210
0.0
220
0.0
230
1.0
 70
     9
 71
     3
 72
    17
 73
    13
 74
     0
 42
0.0000000001
 43
0.0000000001
 40
0.0
 40
0.0
 40
0.0
 40
0.0
 40
1.0
 40
1.0
 40
1.0
 40
2.0
 40
2.0
 40
2.0
 40
3.0
 40
3.0
 40
3.0
 40
4.0
 40
4.0
 40
4.0
 40
4.0
 10
125.3124941281361
 20
-153.5212142783312
 30
0.0
 10
125.3124941281361
 20
-153.4661103908481
 30
0.0
 10
125.2676913515013
 20
-153.4213076142134
 30
0.0
 10
125.2122346862495
 20
-153.4213076142134
 30
0.0
 10
125.1571338455457
 20
-153.4213076142134
 30
0.0
 10
125.112331067779
 20
-153.4661103908481
 30
0.0
 10
125.112331067779
 20
-153.5212142783312
 30
0.0
 10
125.112331067779
 20
-153.5763534435911
 30
0.0
 10
125.1571338455457
 20
-153.621120942449
 30
0.0
 10
125.2122346862495
 20
-153.621120942449
 30
0.0
 10
125.2676913515013
 20
-153.621120942449
 30
0.0
 10
125.3124941281361
 20
-153.5763534435911
 30
0.0
 10
125.3124941281361
 20
-153.5212142783312
 30
0.0
  0
SPLINE
  5
88
330
70
100
AcDbEntity
  8
レイヤー 1
 62
   250
420
  2299925
370
     9
100
AcDbSpline
210
0.0
220
0.0
230
1.0
 70
     9
 71
     3
 72
    17
 73
    13
 74
     0
 42
0.0000000001
 43
0.0000000001
 40
0.0
 40
0.0
 40
0.0
 40
0.0
 40
1.0
 40
1.0
 40
1.0
 40
2.0
 40
2.0
 40
2.0
 40
3.0
 40
3.0
 40
3.0
 40
4.0
 40
4.0
 40
4.0
 40
4.0
 10
121.312382285743
 20
-158.2210255473179
 30
0.0
 10
121.312382285743
 20
-158.1658863820579
 30
0.0
 10
121.2676147868851
 20
-158.1211188832001
 30
0.0
 10
121.2124756216252
 20
-158.1211188832001
 30
0.0
 10
121.1570189563733
 20
-158.1211188832001
 30
0.0
 10
121.1122161797385
 20
-158.1658863820579
 30
0.0
 10
121.1122161797385
 20
-158.2210255473179
 30
0.0
 10
121.1122161797385
 20
-158.276129434801
 30
0.0
 10
121.1570189563733
 20
-158.3209322114357
 30
0.0
 10
121.2124756216252
 20
-158.3209322114357
 30
0.0
 10
121.2676147868851
 20
-158.3209322114357
 30
0.0
 10
121.312382285743
 20
-158.276129434801
 30
0.0
 10
121.312382285743
 20
-158.2210255473179
 30
0.0
  0
SPLINE
  5
89
330
70
100
AcDbEntity
  8
レイヤー 1
 62
   250
420
  2299925
370
     9
100
AcDbSpline
210
0.0
220
0.0
230
1.0
 70
     9
 71
     3
 72
    17
 73
    13
 74
     0
 42
0.0000000001
 43
0.0000000001
 40
0.0
 40
0.0
 40
0.0
 40
0.0
 40
1.0
 40
1.0
 40
1.0
 40
2.0
 40
2.0
 40
2.0
 40
3.0
 40
3.0
 40
3.0
 40
4.0
 40
4.0
 40
4.0
 40
4.0
 10
92.31225052559803
 20
-158.2210255473179
 30
0.0
 10
92.31225052559803
 20
-158.1658863820579
 30
0.0
 10
92.26766163154575
 20
-158.1211188832001
 30
0.0
 10
92.21234386148019
 20
-158.1211188832001
 30
0.0
 10
92.15706358511274
 20
-158.1211188832001
 30
0.0
 10
92.11226080847797
 20
-158.1658863820579
 30
0.0
 10
92.11226080847797
 20
-158.2210255473179
 30
0.0
 10
92.11226080847797
 20
-158.276129434801
 30
0.0
 10
92.15706358511274
 20
-158.3209322114357
 30
0.0
 10
92.21234386148019
 20
-158.3209322114357
 30
0.0
 10
92.26766163154575
 20
-158.3209322114357
 30
0.0
 10
92.31225052559803
 20
-158.276129434801
 30
0.0
 10
92.31225052559803
 20
-158.2210255473179
 30
0.0
  0
SPLINE
  5
8A
330
70
100
AcDbEntity
  8
レイヤー 1
 62
   250
420
  2299925
370
     9
100
AcDbSpline
210
0.0
220
0.0
230
1.0
 70
     9
 71
     3
 72
    17
 73
    13
 74
     0
 42
0.0000000001
 43
0.0000000001
 40
0.0
 40
0.0
 40
0.0
 40
0.0
 40
1.0
 40
1.0
 40
1.0
 40
2.0
 40
2.0
 40
2.0
 40
3.0
 40
3.0
 40
3.0
 40
4.0
 40
4.0
 40
4.0
 40
4.0
 10
88.31235034986621
 20
-143.6213881420079
 30
0.0
 10
88.31235034986621
 20
-143.5662842545248
 30
0.0
 10
88.26754757323177
 20
-143.5214814778901
 30
0.0
 10
88.21244368574836
 20
-143.5214814778901
 30
0.0
 10
88.15712813160404
 20
-143.5214814778901
 30
0.0
 10
88.11236063274614
 20
-143.5662842545248
 30
0.0
 10
88.11236063274614
 20
-143.6213881420079
 30
0.0
 10
88.11236063274614
 20
-143.6765273072679
 30
0.0
 10
88.15712813160404
 20
-143.7212948061257
 30
0.0
 10
88.21244368574836
 20
-143.7212948061257
 30
0.0
 10
88.26754757323177
 20
-143.7212948061257
 30
0.0
 10
88.31235034986621
 20
-143.6765273072679
 30
0.0
 10
88.31235034986621
 20
-143.6213881420079
 30
0.0
  0
SPLINE
  5
8B
330
70
100
AcDbEntity
  8
レイヤー 1
 62
   250
420
  2299925
370
     9
100
AcDbSpline
210
0.0
220
0.0
230
1.0
 70
     9
 71
     3
 72
    17
 73
    13
 74
     0
 42
0.0000000001
 43
0.0000000001
 40
0.0
 40
0.0
 40
0.0
 40
0.0
 40
1.0
 40
1.0
 40
1.0
 40
2.0
 40
2.0
 40
2.0
 40
3.0
 40
3.0
 40
3.0
 40
4.0
 40
4.0
 40
4.0
 40
4.0
 10
88.31235034986621
 20
-144.7210670028416
 30
0.0
 10
88.31235034986621
 20
-144.6659631153586
 30
0.0
 10
88.26754757323177
 20
-144.6211603387238
 30
0.0
 10
88.21244368574836
 20
-144.6211603387238
 30
0.0
 10
88.15712813160404
 20
-144.6211603387238
 30
0.0
 10
88.11236063274614
 20
-144.6659631153586
 30
0.0
 10
88.11236063274614
 20
-144.7210670028416
 30
0.0
 10
88.11236063274614
 20
-144.7762061681016
 30
0.0
 10
88.15712813160404
 20
-144.8209736669595
 30
0.0
 10
88.21244368574836
 20
-144.8209736669595
 30
0.0
 10
88.26754757323177
 20
-144.8209736669595
 30
0.0
 10
88.31235034986621
 20
-144.7762061681016
 30
0.0
 10
88.31235034986621
 20
-144.7210670028416
 30
0.0
  0
SPLINE
  5
8C
330
70
100
AcDbEntity
  8
レイヤー 1
 62
   250
420
  2299925
370
     9
100
AcDbSpline
210
0.0
220
0.0
230
1.0
 70
     9
 71
     3
 72
    17
 73
    13
 74
     0
 42
0.0000000001
 43
0.0000000001
 40
0.0
 40
0.0
 40
0.0
 40
0.0
 40
1.0
 40
1.0
 40
1.0
 40
2.0
 40
2.0
 40
2.0
 40
3.0
 40
3.0
 40
3.0
 40
4.0
 40
4.0
 40
4.0
 40
4.0
 10
104.3125532952015
 20
-158.2210255473179
 30
0.0
 10
104.3125532952015
 20
-158.1658863820579
 30
0.0
 10
104.2677832761428
 20
-158.1211188832001
 30
0.0
 10
104.2123266108907
 20
-158.1211188832001
 30
0.0
 10
104.157187445631
 20
-158.1211188832001
 30
0.0
 10
104.1124199467728
 20
-158.1658863820579
 30
0.0
 10
104.1124199467728
 20
-158.2210255473179
 30
0.0
 10
104.1124199467728
 20
-158.276129434801
 30
0.0
 10
104.157187445631
 20
-158.3209322114357
 30
0.0
 10
104.2123266108907
 20
-158.3209322114357
 30
0.0
 10
104.2677832761428
 20
-158.3209322114357
 30
0.0
 10
104.3125532952015
 20
-158.276129434801
 30
0.0
 10
104.3125532952015
 20
-158.2210255473179
 30
0.0
  0
INSERT
  5
8E
330
70
100
AcDbEntity
  8
レイヤー 1
100
AcDbBlockReference
  2
Block_0
 10
0.0
 20
0.0
 30
0.0
  0
INSERT
  5
A0
330
70
100
AcDbEntity
  8
レイヤー 1
100
AcDbBlockReference
  2
Block_3
 10
0.0
 20
0.0
 30
0.0
  0
INSERT
  5
B6
330
70
100
AcDbEntity
  8
レイヤー 1
100
AcDbBlockReference
  2
Block_6
 10
0.0
 20
0.0
 30
0.0
  0
INSERT
  5
CE
330
70
100
AcDbEntity
  8
レイヤー 1
100
AcDbBlockReference
  2
Block_9
 10
0.0
 20
0.0
 30
0.0
  0
INSERT
  5
E1
330
70
100
AcDbEntity
  8
レイヤー 1
100
AcDbBlockReference
  2
Block_12
 10
0.0
 20
0.0
 30
0.0
  0
INSERT
  5
F6
330
70
100
AcDbEntity
  8
レイヤー 1
100
AcDbBlockReference
  2
Block_15
 10
0.0
 20
0.0
 30
0.0
  0
INSERT
  5
10B
330
70
100
AcDbEntity
  8
レイヤー 1
100
AcDbBlockReference
  2
Block_17
 10
0.0
 20
0.0
 30
0.0
  0
ENDSEC
  0
SECTION
  2
OBJECTS
  0
DICTIONARY
  5
C
330
0
100
AcDbDictionary
281
     1
  3
ACAD_COLOR
350
63
  3
ACAD_DETAILVIEWSTYLE
350
6A
  3
ACAD_GROUP
350
D
  3
ACAD_LAYOUT
350
62
  3
ACAD_MATERIAL
350
10
  3
ACAD_MLEADERSTYLE
350
66
  3
ACAD_MLINESTYLE
350
5F
  3
ACAD_PLOTSETTINGS
350
61
  3
ACAD_PLOTSTYLENAME
350
E
  3
ACAD_SCALELIST
350
42
  3
ACAD_SECTIONVIEWSTYLE
350
68
  3
ACAD_TABLESTYLE
350
64
  3
ACAD_VISUALSTYLE
350
29
  3
ACDB_RECOMPOSE_DATA
350
12B
  3
AcDbVariableDictionary
350
123
  0
DICTIONARY
  5
63
102
{ACAD_REACTORS
330
C
102
}
330
C
100
AcDbDictionary
281
     1
  0
DICTIONARY
  5
6A
102
{ACAD_REACTORS
330
C
102
}
330
C
100
AcDbDictionary
281
     1
  3
Imperial24
350
6B
  0
DICTIONARY
  5
D
102
{ACAD_REACTORS
330
C
102
}
330
C
100
AcDbDictionary
281
     1
  0
DICTIONARY
  5
62
102
{ACAD_REACTORS
330
C
102
}
330
C
100
AcDbDictionary
281
     1
  3
Layout1
350
6F
  3
Layout2
350
77
  3
Model
350
73
  0
DICTIONARY
  5
10
102
{ACAD_REACTORS
330
C
102
}
330
C
100
AcDbDictionary
281
     1
  3
ByBlock
350
19
  3
ByLayer
350
11
  3
Global
350
21
  0
DICTIONARY
  5
66
102
{ACAD_REACTORS
330
C
102
}
330
C
100
AcDbDictionary
281
     1
  3
Standard
350
67
  0
DICTIONARY
  5
5F
102
{ACAD_REACTORS
330
C
102
}
330
C
100
AcDbDictionary
281
     1
  3
Standard
350
60
  0
DICTIONARY
  5
61
102
{ACAD_REACTORS
330
C
102
}
330
C
100
AcDbDictionary
281
     1
  0
ACDBDICTIONARYWDFLT
  5
E
102
{ACAD_REACTORS
330
C
102
}
330
C
100
AcDbDictionary
281
     1
  3
Normal
350
F
100
AcDbDictionaryWithDefault
340
F
  0
DICTIONARY
  5
42
102
{ACAD_REACTORS
330
C
102
}
330
C
100
AcDbDictionary
281
     1
  3
A0
350
43
  3
A1
350
44
  3
A2
350
45
  3
A3
350
46
  3
A4
350
47
  3
A5
350
48
  3
A6
350
49
  3
A7
350
4A
  3
A8
350
4B
  3
A9
350
4C
  3
B0
350
4D
  3
B1
350
4E
  3
B2
350
4F
  3
B3
350
50
  3
B4
350
51
  3
B5
350
52
  3
B6
350
53
  0
DICTIONARY
  5
68
102
{ACAD_REACTORS
330
C
102
}
330
C
100
AcDbDictionary
281
     1
  3
Imperial24
350
69
  0
DICTIONARY
  5
64
102
{ACAD_REACTORS
330
C
102
}
330
C
100
AcDbDictionary
281
     1
  3
Standard
350
65
  0
DICTIONARY
  5
29
102
{ACAD_REACTORS
330
C
102
}
330
C
100
AcDbDictionary
281
     1
  3
2dWireframe
350
2F
  3
Basic
350
2E
  3
Brighten
350
35
  3
ColorChange
350
39
  3
Conceptual
350
32
  3
Dim
350
34
  3
EdgeColorOff
350
41
  3
Facepattern
350
38
  3
Flat
350
2A
  3
FlatWithEdges
350
2B
  3
Gouraud
350
2C
  3
GouraudWithEdges
350
2D
  3
Hidden
350
31
  3
JitterOff
350
3F
  3
Linepattern
350
37
  3
OverhangOff
350
40
  3
Realistic
350
33
  3
Shaded
350
3E
  3
Shaded with edges
350
3D
  3
Shades of Gray
350
3A
  3
Sketchy
350
3B
  3
Thicken
350
36
  3
Wireframe
350
30
  3
X-Ray
350
3C
  0
XRECORD
  5
12B
102
{ACAD_REACTORS
330
C
102
}
330
C
100
AcDbXrecord
280
     1
 90
        1
330
65
  0
DICTIONARY
  5
123
102
{ACAD_REACTORS
330
C
102
}
330
C
100
AcDbDictionary
281
     1
  3
CANNOSCALE
350
128
  3
CMLEADERSTYLE
350
125
  3
CTABLESTYLE
350
124
  3
CVIEWDETAILSTYLE
350
126
  3
CVIEWSECTIONSTYLE
350
127
  0
ACDBDETAILVIEWSTYLE
  5
6B
102
{ACAD_XDICTIONARY
360
160
102
}
102
{ACAD_REACTORS
330
6A
102
}
330
6A
100
AcDbModelDocViewStyle
 70
     0
  3
Imperial24
290
     0
100
AcDbDetailViewStyle
 70
     0
 71
     0
 90
        3
 71
     1
340
55
 62
   256
 40
0.24
340
0
 62
   256
 40
0.24
300

 40
0.36
280
     3
 71
     2
340
5D
 90
       25
 62
   256
 71
     3
340
55
 62
   256
 40
0.24
 90
        1
 40
0.75
 90
        1
300
%<\AcVar ViewType \f "%tc1">% %<\AcVar ViewDetailId>%\PSCALE %<\AcVar ViewScale \f "%sn">%
 71
     4
340
5D
 90
       25
 62
   256
340
5D
 90
       25
 62
   256
280
     0
  0
LAYOUT
  5
6F
102
{ACAD_REACTORS
330
62
102
}
330
62
100
AcDbPlotSettings
  1

  2

  4

  6

 40
0.0
 41
0.0
 42
0.0
 43
0.0
 44
0.0
 45
0.0
 46
0.0
 47
0.0
 48
0.0
 49
0.0
140
0.0
141
0.0
142
1.0
143
1.0
 70
   688
 72
     0
 73
     0
 74
     5
  7

 75
    16
147
1.0
 76
     0
 77
     2
 78
   300
148
0.0
149
0.0
100
AcDbLayout
  1
Layout1
 70
     1
 71
     1
 10
0.0
 20
0.0
 11
12.0
 21
9.0
 12
0.0
 22
0.0
 32
0.0
 14
0.0
 24
0.0
 34
0.0
 15
0.0
 25
0.0
 35
0.0
146
0.0
 13
0.0
 23
0.0
 33
0.0
 16
1.0
 26
0.0
 36
0.0
 17
0.0
 27
1.0
 37
0.0
 76
     0
330
6C
  0
LAYOUT
  5
77
102
{ACAD_REACTORS
330
62
102
}
330
62
100
AcDbPlotSettings
  1

  2

  4

  6

 40
0.0
 41
0.0
 42
0.0
 43
0.0
 44
0.0
 45
0.0
 46
0.0
 47
0.0
 48
0.0
 49
0.0
140
0.0
141
0.0
142
1.0
143
1.0
 70
   688
 72
     0
 73
     0
 74
     5
  7

 75
    16
147
1.0
 76
     0
 77
     2
 78
   300
148
0.0
149
0.0
100
AcDbLayout
  1
Layout2
 70
     1
 71
     2
 10
0.0
 20
0.0
 11
12.0
 21
9.0
 12
0.0
 22
0.0
 32
0.0
 14
0.0
 24
0.0
 34
0.0
 15
0.0
 25
0.0
 35
0.0
146
0.0
 13
0.0
 23
0.0
 33
0.0
 16
1.0
 26
0.0
 36
0.0
 17
0.0
 27
1.0
 37
0.0
 76
     0
330
74
  0
LAYOUT
  5
73
102
{ACAD_REACTORS
330
62
102
}
330
62
100
AcDbPlotSettings
  1

  2

  4

  6

 40
0.0
 41
0.0
 42
0.0
 43
0.0
 44
0.0
 45
0.0
 46
0.0
 47
0.0
 48
0.0
 49
0.0
140
0.0
141
0.0
142
1.0
143
1.0
 70
  1712
 72
     0
 73
     0
 74
     0
  7

 75
     0
147
1.0
 76
     0
 77
     2
 78
   300
148
0.0
149
0.0
100
AcDbLayout
  1
Model
 70
     1
 71
     0
 10
0.0
 20
0.0
 11
12.0
 21
9.0
 12
0.0
 22
0.0
 32
0.0
 14
0.0
 24
0.0
 34
0.0
 15
0.0
 25
0.0
 35
0.0
146
0.0
 13
0.0
 23
0.0
 33
0.0
 16
1.0
 26
0.0
 36
0.0
 17
0.0
 27
1.0
 37
0.0
 76
     0
330
70
  0
MATERIAL
  5
19
102
{ACAD_XDICTIONARY
360
1A
102
}
102
{ACAD_REACTORS
330
10
102
}
330
10
100
AcDbMaterial
  1
ByBlock
 72
     0
 43
0.0208333333333333
 43
0.0
 43
0.0
 43
0.0
 43
0.0
 43
0.0208333333333333
 43
0.0
 43
0.0
 43
0.0
 43
0.0
 43
1.0
 43
0.0
 43
0.0
 43
0.0
 43
0.0
 43
1.0
 77
     0
 47
0.0208333333333333
 47
0.0
 47
0.0
 47
0.0
 47
0.0
 47
0.0208333333333333
 47
0.0
 47
0.0
 47
0.0
 47
0.0
 47
1.0
 47
0.0
 47
0.0
 47
0.0
 47
0.0
 47
1.0
171
     0
 49
0.0208333333333333
 49
0.0
 49
0.0
 49
0.0
 49
0.0
 49
0.0208333333333333
 49
0.0
 49
0.0
 49
0.0
 49
0.0
 49
1.0
 49
0.0
 49
0.0
 49
0.0
 49
0.0
 49
1.0
175
     0
142
0.0208333333333333
142
0.0
142
0.0
142
0.0
142
0.0
142
0.0208333333333333
142
0.0
142
0.0
142
0.0
142
0.0
142
1.0
142
0.0
142
0.0
142
0.0
142
0.0
142
1.0
179
     0
144
0.0208333333333333
144
0.0
144
0.0
144
0.0
144
0.0
144
0.0208333333333333
144
0.0
144
0.0
144
0.0
144
0.0
144
1.0
144
0.0
144
0.0
144
0.0
144
0.0
144
1.0
147
0.0208333333333333
147
0.0
147
0.0
147
0.0
147
0.0
147
0.0208333333333333
147
0.0
147
0.0
147
0.0
147
0.0
147
1.0
147
0.0
147
0.0
147
0.0
147
0.0
147
1.0
  0
MATERIAL
  5
11
102
{ACAD_XDICTIONARY
360
12
102
}
102
{ACAD_REACTORS
330
10
102
}
330
10
100
AcDbMaterial
  1
ByLayer
 72
     0
 43
0.0208333333333333
 43
0.0
 43
0.0
 43
0.0
 43
0.0
 43
0.0208333333333333
 43
0.0
 43
0.0
 43
0.0
 43
0.0
 43
1.0
 43
0.0
 43
0.0
 43
0.0
 43
0.0
 43
1.0
 77
     0
 47
0.0208333333333333
 47
0.0
 47
0.0
 47
0.0
 47
0.0
 47
0.0208333333333333
 47
0.0
 47
0.0
 47
0.0
 47
0.0
 47
1.0
 47
0.0
 47
0.0
 47
0.0
 47
0.0
 47
1.0
171
     0
 49
0.0208333333333333
 49
0.0
 49
0.0
 49
0.0
 49
0.0
 49
0.0208333333333333
 49
0.0
 49
0.0
 49
0.0
 49
0.0
 49
1.0
 49
0.0
 49
0.0
 49
0.0
 49
0.0
 49
1.0
175
     0
142
0.0208333333333333
142
0.0
142
0.0
142
0.0
142
0.0
142
0.0208333333333333
142
0.0
142
0.0
142
0.0
142
0.0
142
1.0
142
0.0
142
0.0
142
0.0
142
0.0
142
1.0
179
     0
144
0.0208333333333333
144
0.0
144
0.0
144
0.0
144
0.0
144
0.0208333333333333
144
0.0
144
0.0
144
0.0
144
0.0
144
1.0
144
0.0
144
0.0
144
0.0
144
0.0
144
1.0
147
0.0208333333333333
147
0.0
147
0.0
147
0.0
147
0.0
147
0.0208333333333333
147
0.0
147
0.0
147
0.0
147
0.0
147
1.0
147
0.0
147
0.0
147
0.0
147
0.0
147
1.0
  0
MATERIAL
  5
21
102
{ACAD_XDICTIONARY
360
22
102
}
102
{ACAD_REACTORS
330
10
102
}
330
10
100
AcDbMaterial
  1
Global
 72
     0
 43
0.0208333333333333
 43
0.0
 43
0.0
 43
0.0
 43
0.0
 43
0.0208333333333333
 43
0.0
 43
0.0
 43
0.0
 43
0.0
 43
1.0
 43
0.0
 43
0.0
 43
0.0
 43
0.0
 43
1.0
 77
     0
 47
0.0208333333333333
 47
0.0
 47
0.0
 47
0.0
 47
0.0
 47
0.0208333333333333
 47
0.0
 47
0.0
 47
0.0
 47
0.0
 47
1.0
 47
0.0
 47
0.0
 47
0.0
 47
0.0
 47
1.0
171
     0
 49
0.0208333333333333
 49
0.0
 49
0.0
 49
0.0
 49
0.0
 49
0.0208333333333333
 49
0.0
 49
0.0
 49
0.0
 49
0.0
 49
1.0
 49
0.0
 49
0.0
 49
0.0
 49
0.0
 49
1.0
175
     0
142
0.0208333333333333
142
0.0
142
0.0
142
0.0
142
0.0
142
0.0208333333333333
142
0.0
142
0.0
142
0.0
142
0.0
142
1.0
142
0.0
142
0.0
142
0.0
142
0.0
142
1.0
179
     0
144
0.0208333333333333
144
0.0
144
0.0
144
0.0
144
0.0
144
0.0208333333333333
144
0.0
144
0.0
144
0.0
144
0.0
144
1.0
144
0.0
144
0.0
144
0.0
144
0.0
144
1.0
147
0.0208333333333333
147
0.0
147
0.0
147
0.0
147
0.0
147
0.0208333333333333
147
0.0
147
0.0
147
0.0
147
0.0
147
1.0
147
0.0
147
0.0
147
0.0
147
0.0
147
1.0
  0
MLEADERSTYLE
  5
67
102
{ACAD_XDICTIONARY
360
15C
102
}
102
{ACAD_REACTORS
330
66
102
}
330
66
100
AcDbMLeaderStyle
179
     2
170
     2
171
     1
172
     0
 90
        2
 40
0.0
 41
0.0
173
     1
 91
-1056964608
340
5B
 92
       -2
290
     1
 42
0.09
291
     1
 43
0.36
  3
Standard
 44
0.18
300

342
55
174
     1
178
     6
175
     1
176
     0
 93
-1056964608
 45
0.18
292
     0
297
     0
 46
0.18
 94
-1056964608
 47
1.0
 49
1.0
140
1.0
293
     1
141
0.0
294
     1
177
     0
142
1.0
295
     0
296
     0
143
0.125
271
     0
272
     9
273
     9
  0
MLINESTYLE
  5
60
102
{ACAD_REACTORS
330
5F
102
}
330
5F
100
AcDbMlineStyle
  2
STANDARD
 70
     0
  3

 62
   256
 51
90.0
 52
90.0
 71
     2
 49
0.5
 62
   256
  6
BYLAYER
 49
-0.5
 62
   256
  6
BYLAYER
  0
ACDBPLACEHOLDER
  5
F
102
{ACAD_REACTORS
330
E
102
}
330
E
  0
SCALE
  5
43
102
{ACAD_REACTORS
330
42
102
}
330
42
100
AcDbScale
 70
     0
300
1:1
140
1.0
141
1.0
290
     1
  0
SCALE
  5
44
102
{ACAD_REACTORS
330
42
102
}
330
42
100
AcDbScale
 70
     0
300
1/128" = 1'-0"
140
0.0078125
141
12.0
290
     0
  0
SCALE
  5
45
102
{ACAD_REACTORS
330
42
102
}
330
42
100
AcDbScale
 70
     0
300
1/64" = 1'-0"
140
0.015625
141
12.0
290
     0
  0
SCALE
  5
46
102
{ACAD_REACTORS
330
42
102
}
330
42
100
AcDbScale
 70
     0
300
1/32" = 1'-0"
140
0.03125
141
12.0
290
     0
  0
SCALE
  5
47
102
{ACAD_REACTORS
330
42
102
}
330
42
100
AcDbScale
 70
     0
300
1/16" = 1'-0"
140
0.0625
141
12.0
290
     0
  0
SCALE
  5
48
102
{ACAD_REACTORS
330
42
102
}
330
42
100
AcDbScale
 70
     0
300
3/32" = 1'-0"
140
0.09375
141
12.0
290
     0
  0
SCALE
  5
49
102
{ACAD_REACTORS
330
42
102
}
330
42
100
AcDbScale
 70
     0
300
1/8" = 1'-0"
140
0.125
141
12.0
290
     0
  0
SCALE
  5
4A
102
{ACAD_REACTORS
330
42
102
}
330
42
100
AcDbScale
 70
     0
300
3/16" = 1'-0"
140
0.1875
141
12.0
290
     0
  0
SCALE
  5
4B
102
{ACAD_REACTORS
330
42
102
}
330
42
100
AcDbScale
 70
     0
300
1/4" = 1'-0"
140
0.25
141
12.0
290
     0
  0
SCALE
  5
4C
102
{ACAD_REACTORS
330
42
102
}
330
42
100
AcDbScale
 70
     0
300
3/8" = 1'-0"
140
0.375
141
12.0
290
     0
  0
SCALE
  5
4D
102
{ACAD_REACTORS
330
42
102
}
330
42
100
AcDbScale
 70
     0
300
1/2" = 1'-0"
140
0.5
141
12.0
290
     0
  0
SCALE
  5
4E
102
{ACAD_REACTORS
330
42
102
}
330
42
100
AcDbScale
 70
     0
300
3/4" = 1'-0"
140
0.75
141
12.0
290
     0
  0
SCALE
  5
4F
102
{ACAD_REACTORS
330
42
102
}
330
42
100
AcDbScale
 70
     0
300
1" = 1'-0"
140
1.0
141
12.0
290
     0
  0
SCALE
  5
50
102
{ACAD_REACTORS
330
42
102
}
330
42
100
AcDbScale
 70
     0
300
1-1/2" = 1'-0"
140
1.5
141
12.0
290
     0
  0
SCALE
  5
51
102
{ACAD_REACTORS
330
42
102
}
330
42
100
AcDbScale
 70
     0
300
3" = 1'-0"
140
3.0
141
12.0
290
     0
  0
SCALE
  5
52
102
{ACAD_REACTORS
330
42
102
}
330
42
100
AcDbScale
 70
     0
300
6" = 1'-0"
140
6.0
141
12.0
290
     0
  0
SCALE
  5
53
102
{ACAD_REACTORS
330
42
102
}
330
42
100
AcDbScale
 70
     0
300
1'-0" = 1'-0"
140
12.0
141
12.0
290
     0
  0
ACDBSECTIONVIEWSTYLE
  5
69
102
{ACAD_XDICTIONARY
360
15E
102
}
102
{ACAD_REACTORS
330
68
102
}
330
68
100
AcDbModelDocViewStyle
 70
     0
  3
Imperial24
290
     0
100
AcDbSectionViewStyle
 70
     0
 71
     0
 90
       78
 71
     1
340
55
 62
   256
 40
0.24
340
0
340
0
 62
   256
 40
0.24
300
I, O, Q, S, X, Z
 40
0.48
 90
        3
 40
0.18
 90
        1
 71
     2
340
5D
 90
       25
 62
   256
340
5D
 90
       50
 62
   256
 40
0.24
 40
0.0
 40
0.24
 71
     3
340
55
 62
   256
 40
0.24
 90
        1
 40
0.75
 90
        1
300
%<\AcVar ViewType \f "%tc1">% %<\AcVar ViewSectionStartId>%-%<\AcVar ViewSectionEndId>%\PSCALE %<\AcVar ViewScale \f "%sn">%
 71
     4
 62
   256
 62
   257
300
ANSI31
 40
1.0
 90
        0
290
     0
290
     0
 90
        6
 40
0.0
 40
1.570796326794896
 40
0.2617993877991494
 40
1.308996938995747
 40
-0.2617993877991494
 40
1.832595714594046
  0
TABLESTYLE
  5
65
102
{ACAD_XDICTIONARY
360
129
102
}
102
{ACAD_REACTORS
330
64
102
}
330
64
100
AcDbTableStyle
280
     0
  3
Standard
 70
     0
 71
     0
 40
0.06
 41
0.06
280
     0
281
     0
  7
Standard
140
0.18
170
     2
 62
     0
 63
     7
283
     0
 90
      512
 91
        0
  1

274
    -2
284
     1
 64
     0
275
    -2
285
     1
 65
     0
276
    -2
286
     1
 66
     0
277
    -2
287
     1
 67
     0
278
    -2
288
     1
 68
     0
279
    -2
289
     1
 69
     0
  7
Standard
140
0.25
170
     5
 62
     0
 63
     7
283
     0
 90
      512
 91
        0
  1

274
    -2
284
     1
 64
     0
275
    -2
285
     1
 65
     0
276
    -2
286
     1
 66
     0
277
    -2
287
     1
 67
     0
278
    -2
288
     1
 68
     0
279
    -2
289
     1
 69
     0
  7
Standard
140
0.18
170
     5
 62
     0
 63
     7
283
     0
 90
      512
 91
        0
  1

274
    -2
284
     1
 64
     0
275
    -2
285
     1
 65
     0
276
    -2
286
     1
 66
     0
277
    -2
287
     1
 67
     0
278
    -2
288
     1
 68
     0
279
    -2
289
     1
 69
     0
  0
VISUALSTYLE
  5
2F
102
{ACAD_XDICTIONARY
360
136
102
}
102
{ACAD_REACTORS
330
29
102
}
330
29
100
AcDbVisualStyle
  2
2dWireframe
 70
     4
177
     2
291
     0
 71
     0
176
     1
 72
     2
176
     1
 73
     0
176
     1
 90
        0
176
     1
 40
0.6
176
     1
 41
30.0
176
     1
 63
     7
421
 16777215
176
     1
 74
     1
176
     1
 91
        4
176
     1
 64
     7
176
     1
 65
   257
176
     1
 75
     1
176
     1
175
     1
176
     1
 42
1.0
176
     1
 92
        0
176
     1
 66
   257
176
     1
 43
1.0
176
     1
 76
     1
176
     1
 77
     6
176
     1
 78
     2
176
     1
 67
     7
176
     1
 79
     5
176
     1
170
     0
176
     1
171
     0
176
     1
290
     0
176
     1
 93
        1
176
     1
 44
0.0
176
     1
173
     0
176
     1
1001
ACAD
1000
AcDbSavedByObjectVersion
1070
     0
  0
VISUALSTYLE
  5
2E
102
{ACAD_XDICTIONARY
360
134
102
}
102
{ACAD_REACTORS
330
29
102
}
330
29
100
AcDbVisualStyle
  2
Basic
 70
     7
177
     2
291
     1
 71
     1
176
     1
 72
     0
176
     1
 73
     1
176
     1
 90
        0
176
     1
 40
0.6
176
     1
 41
30.0
176
     1
 63
     7
421
 16777215
176
     1
 74
     0
176
     1
 91
        4
176
     1
 64
     7
176
     1
 65
   257
176
     1
 75
     1
176
     1
175
     1
176
     1
 42
1.0
176
     1
 92
        8
176
     1
 66
     7
176
     1
 43
1.0
176
     1
 76
     1
176
     1
 77
     6
176
     1
 78
     2
176
     1
 67
     7
176
     1
 79
     5
176
     1
170
     0
176
     1
171
     0
176
     1
290
     0
176
     1
 93
        1
176
     1
 44
0.0
176
     1
173
     0
176
     1
1001
ACAD
1000
AcDbSavedByObjectVersion
1070
     0
  0
VISUALSTYLE
  5
35
102
{ACAD_XDICTIONARY
360
142
102
}
102
{ACAD_REACTORS
330
29
102
}
330
29
100
AcDbVisualStyle
  2
Brighten
 70
    12
177
     2
291
     1
 71
     2
176
     1
 72
     2
176
     1
 73
     0
176
     1
 90
        0
176
     1
 40
0.6
176
     1
 41
30.0
176
     1
 63
     7
421
 16777215
176
     1
 74
     1
176
     1
 91
        4
176
     1
 64
     7
176
     1
 65
   257
176
     1
 75
     1
176
     1
175
     1
176
     1
 42
1.0
176
     1
 92
        8
176
     1
 66
     7
176
     1
 43
1.0
176
     1
 76
     1
176
     1
 77
     6
176
     1
 78
     2
176
     1
 67
     7
176
     1
 79
     5
176
     1
170
     0
176
     1
171
     0
176
     1
290
     0
176
     1
 93
        1
176
     1
 44
50.0
176
     1
173
     0
176
     1
1001
ACAD
1000
AcDbSavedByObjectVersion
1070
     0
  0
VISUALSTYLE
  5
39
102
{ACAD_XDICTIONARY
360
14A
102
}
102
{ACAD_REACTORS
330
29
102
}
330
29
100
AcDbVisualStyle
  2
ColorChange
 70
    16
177
     2
291
     1
 71
     2
176
     1
 72
     2
176
     1
 73
     3
176
     1
 90
        0
176
     1
 40
0.6
176
     1
 41
30.0
176
     1
 63
     8
421
  8421504
176
     1
 74
     1
176
     1
 91
        4
176
     1
 64
     7
176
     1
 65
   257
176
     1
 75
     1
176
     1
175
     1
176
     1
 42
1.0
176
     1
 92
        8
176
     1
 66
     8
424
  8421504
176
     1
 43
1.0
176
     1
 76
     1
176
     1
 77
     6
176
     1
 78
     2
176
     1
 67
     7
176
     1
 79
     5
176
     1
170
     0
176
     1
171
     0
176
     1
290
     0
176
     1
 93
        1
176
     1
 44
0.0
176
     1
173
     0
176
     1
1001
ACAD
1000
AcDbSavedByObjectVersion
1070
     0
  0
VISUALSTYLE
  5
32
102
{ACAD_XDICTIONARY
360
13C
102
}
102
{ACAD_REACTORS
330
29
102
}
330
29
100
AcDbVisualStyle
  2
Conceptual
 70
     9
177
     2
291
     0
 71
     3
176
     1
 72
     2
176
     1
 73
     0
176
     1
 90
        0
176
     1
 40
0.6
176
     1
 41
30.0
176
     1
 63
     7
421
 16777215
176
     1
 74
     2
176
     1
 91
        2
176
     1
 64
     7
176
     1
 65
   257
176
     1
 75
     1
176
     1
175
     1
176
     1
 42
179.0
176
     1
 92
        8
176
     1
 66
     7
176
     1
 43
1.0
176
     1
 76
     1
176
     1
 77
     6
176
     1
 78
     2
176
     1
 67
     7
176
     1
 79
     3
176
     1
170
     0
176
     1
171
     0
176
     1
290
     0
176
     1
 93
        1
176
     1
 44
0.0
176
     1
173
     0
176
     1
1001
ACAD
1000
AcDbSavedByObjectVersion
1070
     0
  0
VISUALSTYLE
  5
34
102
{ACAD_XDICTIONARY
360
140
102
}
102
{ACAD_REACTORS
330
29
102
}
330
29
100
AcDbVisualStyle
  2
Dim
 70
    11
177
     2
291
     1
 71
     2
176
     1
 72
     2
176
     1
 73
     0
176
     1
 90
        0
176
     1
 40
0.6
176
     1
 41
30.0
176
     1
 63
     7
421
 16777215
176
     1
 74
     1
176
     1
 91
        4
176
     1
 64
     7
176
     1
 65
   257
176
     1
 75
     1
176
     1
175
     1
176
     1
 42
1.0
176
     1
 92
        8
176
     1
 66
     7
176
     1
 43
1.0
176
     1
 76
     1
176
     1
 77
     6
176
     1
 78
     2
176
     1
 67
     7
176
     1
 79
     5
176
     1
170
     0
176
     1
171
     0
176
     1
290
     0
176
     1
 93
        1
176
     1
 44
-50.0
176
     1
173
     0
176
     1
1001
ACAD
1000
AcDbSavedByObjectVersion
1070
     0
  0
VISUALSTYLE
  5
41
102
{ACAD_XDICTIONARY
360
15A
102
}
102
{ACAD_REACTORS
330
29
102
}
330
29
100
AcDbVisualStyle
  2
EdgeColorOff
 70
    22
177
     2
291
     1
 71
     2
176
     0
 72
     2
176
     0
 73
     0
176
     0
 90
        0
176
     0
 40
0.6
176
     0
 41
30.0
176
     0
 63
     7
421
 16777215
176
     0
 74
     1
176
     0
 91
        4
176
     0
 64
     7
176
     0
 65
   257
176
     0
 75
     1
176
     0
175
     1
176
     0
 42
1.0
176
     0
 92
        8
176
     2
 66
     7
176
     0
 43
1.0
176
     0
 76
     1
176
     0
 77
     6
176
     0
 78
     2
176
     0
 67
     7
176
     0
 79
     5
176
     0
170
     0
176
     0
171
     0
176
     0
290
     0
176
     0
 93
        1
176
     0
 44
0.0
176
     0
173
     0
176
     0
1001
ACAD
1000
AcDbSavedByObjectVersion
1070
     0
  0
VISUALSTYLE
  5
38
102
{ACAD_XDICTIONARY
360
148
102
}
102
{ACAD_REACTORS
330
29
102
}
330
29
100
AcDbVisualStyle
  2
Facepattern
 70
    15
177
     2
291
     1
 71
     2
176
     1
 72
     2
176
     1
 73
     0
176
     1
 90
        0
176
     1
 40
0.6
176
     1
 41
30.0
176
     1
 63
     7
421
 16777215
176
     1
 74
     1
176
     1
 91
        4
176
     1
 64
     7
176
     1
 65
   257
176
     1
 75
     1
176
     1
175
     1
176
     1
 42
1.0
176
     1
 92
        8
176
     1
 66
     7
176
     1
 43
1.0
176
     1
 76
     1
176
     1
 77
     6
176
     1
 78
     2
176
     1
 67
     7
176
     1
 79
     5
176
     1
170
     0
176
     1
171
     0
176
     1
290
     0
176
     1
 93
        1
176
     1
 44
0.0
176
     1
173
     0
176
     1
1001
ACAD
1000
AcDbSavedByObjectVersion
1070
     0
  0
VISUALSTYLE
  5
2A
102
{ACAD_XDICTIONARY
360
12C
102
}
102
{ACAD_REACTORS
330
29
102
}
330
29
100
AcDbVisualStyle
  2
Flat
 70
     0
177
     2
291
     1
 71
     2
176
     1
 72
     1
176
     1
 73
     1
176
     1
 90
        2
176
     1
 40
0.6
176
     1
 41
30.0
176
     1
 63
     7
421
 16777215
176
     1
 74
     0
176
     1
 91
        0
176
     1
 64
     7
176
     1
 65
   257
176
     1
 75
     1
176
     1
175
     1
176
     1
 42
1.0
176
     1
 92
        8
176
     1
 66
     7
176
     1
 43
1.0
176
     1
 76
     1
176
     1
 77
     6
176
     1
 78
     2
176
     1
 67
     7
176
     1
 79
     5
176
     1
170
     0
176
     1
171
     0
176
     1
290
     0
176
     1
 93
       13
176
     1
 44
0.0
176
     1
173
     0
176
     1
1001
ACAD
1000
AcDbSavedByObjectVersion
1070
     0
  0
VISUALSTYLE
  5
2B
102
{ACAD_XDICTIONARY
360
12E
102
}
102
{ACAD_REACTORS
330
29
102
}
330
29
100
AcDbVisualStyle
  2
FlatWithEdges
 70
     1
177
     2
291
     1
 71
     2
176
     1
 72
     1
176
     1
 73
     1
176
     1
 90
        2
176
     1
 40
0.6
176
     1
 41
30.0
176
     1
 63
     7
421
 16777215
176
     1
 74
     1
176
     1
 91
        0
176
     1
 64
     7
176
     1
 65
   257
176
     1
 75
     1
176
     1
175
     1
176
     1
 42
1.0
176
     1
 92
        0
176
     1
 66
   257
176
     1
 43
1.0
176
     1
 76
     1
176
     1
 77
     6
176
     1
 78
     2
176
     1
 67
     7
176
     1
 79
     5
176
     1
170
     0
176
     1
171
     0
176
     1
290
     0
176
     1
 93
       13
176
     1
 44
0.0
176
     1
173
     0
176
     1
1001
ACAD
1000
AcDbSavedByObjectVersion
1070
     0
  0
VISUALSTYLE
  5
2C
102
{ACAD_XDICTIONARY
360
130
102
}
102
{ACAD_REACTORS
330
29
102
}
330
29
100
AcDbVisualStyle
  2
Gouraud
 70
     2
177
     2
291
     1
 71
     2
176
     1
 72
     2
176
     1
 73
     1
176
     1
 90
        2
176
     1
 40
0.6
176
     1
 41
30.0
176
     1
 63
     7
421
 16777215
176
     1
 74
     0
176
     1
 91
        0
176
     1
 64
     7
176
     1
 65
   257
176
     1
 75
     1
176
     1
175
     1
176
     1
 42
1.0
176
     1
 92
        0
176
     1
 66
     7
176
     1
 43
1.0
176
     1
 76
     1
176
     1
 77
     6
176
     1
 78
     2
176
     1
 67
     7
176
     1
 79
     5
176
     1
170
     0
176
     1
171
     0
176
     1
290
     0
176
     1
 93
       13
176
     1
 44
0.0
176
     1
173
     0
176
     1
1001
ACAD
1000
AcDbSavedByObjectVersion
1070
     0
  0
VISUALSTYLE
  5
2D
102
{ACAD_XDICTIONARY
360
132
102
}
102
{ACAD_REACTORS
330
29
102
}
330
29
100
AcDbVisualStyle
  2
GouraudWithEdges
 70
     3
177
     2
291
     1
 71
     2
176
     1
 72
     2
176
     1
 73
     1
176
     1
 90
        2
176
     1
 40
0.6
176
     1
 41
30.0
176
     1
 63
     7
421
 16777215
176
     1
 74
     1
176
     1
 91
        0
176
     1
 64
     7
176
     1
 65
   257
176
     1
 75
     1
176
     1
175
     1
176
     1
 42
1.0
176
     1
 92
        0
176
     1
 66
   257
176
     1
 43
1.0
176
     1
 76
     1
176
     1
 77
     6
176
     1
 78
     2
176
     1
 67
     7
176
     1
 79
     5
176
     1
170
     0
176
     1
171
     0
176
     1
290
     0
176
     1
 93
       13
176
     1
 44
0.0
176
     1
173
     0
176
     1
1001
ACAD
1000
AcDbSavedByObjectVersion
1070
     0
  0
VISUALSTYLE
  5
31
102
{ACAD_XDICTIONARY
360
13A
102
}
102
{ACAD_REACTORS
330
29
102
}
330
29
100
AcDbVisualStyle
  2
Hidden
 70
     6
177
     2
291
     0
 71
     1
176
     1
 72
     2
176
     1
 73
     2
176
     1
 90
        0
176
     1
 40
0.6
176
     1
 41
30.0
176
     1
 63
     7
421
 16777215
176
     1
 74
     2
176
     1
 91
        2
176
     1
 64
     7
176
     1
 65
   257
176
     1
 75
     2
176
     1
175
     1
176
     1
 42
40.0
176
     1
 92
        0
176
     1
 66
   257
176
     1
 43
1.0
176
     1
 76
     1
176
     1
 77
     6
176
     1
 78
     2
176
     1
 67
     7
176
     1
 79
     3
176
     1
170
     0
176
     1
171
     0
176
     1
290
     0
176
     1
 93
        1
176
     1
 44
0.0
176
     1
173
     0
176
     1
1001
ACAD
1000
AcDbSavedByObjectVersion
1070
     0
  0
VISUALSTYLE
  5
3F
102
{ACAD_XDICTIONARY
360
156
102
}
102
{ACAD_REACTORS
330
29
102
}
330
29
100
AcDbVisualStyle
  2
JitterOff
 70
    20
177
     2
291
     1
 71
     2
176
     0
 72
     2
176
     0
 73
     0
176
     0
 90
        0
176
     0
 40
0.6
176
     0
 41
30.0
176
     0
 63
     7
421
 16777215
176
     0
 74
     1
176
     0
 91
        4
176
     0
 64
     7
176
     0
 65
   257
176
     0
 75
     1
176
     0
175
     1
176
     0
 42
1.0
176
     0
 92
       10
176
     2
 66
     7
176
     0
 43
1.0
176
     0
 76
     1
176
     0
 77
     6
176
     0
 78
     2
176
     0
 67
     7
176
     0
 79
     5
176
     0
170
     0
176
     0
171
     0
176
     0
290
     0
176
     0
 93
        1
176
     0
 44
0.0
176
     0
173
     0
176
     0
1001
ACAD
1000
AcDbSavedByObjectVersion
1070
     0
  0
VISUALSTYLE
  5
37
102
{ACAD_XDICTIONARY
360
146
102
}
102
{ACAD_REACTORS
330
29
102
}
330
29
100
AcDbVisualStyle
  2
Linepattern
 70
    14
177
     2
291
     1
 71
     2
176
     1
 72
     2
176
     1
 73
     0
176
     1
 90
        0
176
     1
 40
0.6
176
     1
 41
30.0
176
     1
 63
     7
421
 16777215
176
     1
 74
     1
176
     1
 91
        4
176
     1
 64
     7
176
     1
 65
   257
176
     1
 75
     7
176
     1
175
     7
176
     1
 42
1.0
176
     1
 92
        8
176
     1
 66
     7
176
     1
 43
1.0
176
     1
 76
     1
176
     1
 77
     6
176
     1
 78
     2
176
     1
 67
     7
176
     1
 79
     5
176
     1
170
     0
176
     1
171
     0
176
     1
290
     0
176
     1
 93
        1
176
     1
 44
0.0
176
     1
173
     0
176
     1
1001
ACAD
1000
AcDbSavedByObjectVersion
1070
     0
  0
VISUALSTYLE
  5
40
102
{ACAD_XDICTIONARY
360
158
102
}
102
{ACAD_REACTORS
330
29
102
}
330
29
100
AcDbVisualStyle
  2
OverhangOff
 70
    21
177
     2
291
     1
 71
     2
176
     0
 72
     2
176
     0
 73
     0
176
     0
 90
        0
176
     0
 40
0.6
176
     0
 41
30.0
176
     0
 63
     7
421
 16777215
176
     0
 74
     1
176
     0
 91
        4
176
     0
 64
     7
176
     0
 65
   257
176
     0
 75
     1
176
     0
175
     1
176
     0
 42
1.0
176
     0
 92
        9
176
     2
 66
     7
176
     0
 43
1.0
176
     0
 76
     1
176
     0
 77
     6
176
     0
 78
     2
176
     0
 67
     7
176
     0
 79
     5
176
     0
170
     0
176
     0
171
     0
176
     0
290
     0
176
     0
 93
        1
176
     0
 44
0.0
176
     0
173
     0
176
     0
1001
ACAD
1000
AcDbSavedByObjectVersion
1070
     0
  0
VISUALSTYLE
  5
33
102
{ACAD_XDICTIONARY
360
13E
102
}
102
{ACAD_REACTORS
330
29
102
}
330
29
100
AcDbVisualStyle
  2
Realistic
 70
     8
177
     2
291
     0
 71
     2
176
     1
 72
     3
176
     1
 73
     0
176
     1
 90
        2
176
     1
 40
0.6
176
     1
 41
30.0
176
     1
 63
     7
421
 16777215
176
     1
 74
     0
176
     1
 91
        0
176
     1
 64
     7
176
     1
 65
   257
176
     1
 75
     1
176
     1
175
     1
176
     1
 42
1.0
176
     1
 92
        8
176
     1
 66
   257
176
     1
 43
1.0
176
     1
 76
     1
176
     1
 77
     6
176
     1
 78
     2
176
     1
 67
     7
176
     1
 79
     3
176
     1
170
     0
176
     1
171
     0
176
     1
290
     0
176
     1
 93
       13
176
     1
 44
0.0
176
     1
173
     0
176
     1
1001
ACAD
1000
AcDbSavedByObjectVersion
1070
     0
  0
VISUALSTYLE
  5
3E
102
{ACAD_XDICTIONARY
360
154
102
}
102
{ACAD_REACTORS
330
29
102
}
330
29
100
AcDbVisualStyle
  2
Shaded
 70
    27
177
     2
291
     0
 71
     2
176
     1
 72
     2
176
     1
 73
     1
176
     1
 90
        2
176
     1
 40
0.6
176
     1
 41
30.0
176
     1
 63
     7
421
 16777215
176
     1
 74
     0
176
     1
 91
        4
176
     1
 64
     7
176
     1
 65
   257
176
     1
 75
     1
176
     1
175
     1
176
     1
 42
1.0
176
     1
 92
        8
176
     1
 66
   257
176
     1
 43
1.0
176
     1
 76
     1
176
     1
 77
     6
176
     1
 78
     2
176
     1
 67
     8
425
  7895160
176
     1
 79
     3
176
     1
170
     0
176
     1
171
     0
176
     1
290
     0
176
     1
 93
        5
176
     1
 44
0.0
176
     1
173
     0
176
     1
1001
ACAD
1000
AcDbSavedByObjectVersion
1070
     0
  0
VISUALSTYLE
  5
3D
102
{ACAD_XDICTIONARY
360
152
102
}
102
{ACAD_REACTORS
330
29
102
}
330
29
100
AcDbVisualStyle
  2
Shaded with edges
 70
    26
177
     2
291
     0
 71
     2
176
     1
 72
     2
176
     1
 73
     1
176
     1
 90
        2
176
     1
 40
0.6
176
     1
 41
30.0
176
     1
 63
     7
421
 16777215
176
     1
 74
     1
176
     1
 91
        2
176
     1
 64
     7
176
     1
 65
   257
176
     1
 75
     2
176
     1
175
     1
176
     1
 42
1.0
176
     1
 92
        8
176
     1
 66
   257
176
     1
 43
1.0
176
     1
 76
     1
176
     1
 77
     6
176
     1
 78
     2
176
     1
 67
     7
176
     1
 79
     3
176
     1
170
     0
176
     1
171
     0
176
     1
290
     0
176
     1
 93
        5
176
     1
 44
0.0
176
     1
173
     0
176
     1
1001
ACAD
1000
AcDbSavedByObjectVersion
1070
     0
  0
VISUALSTYLE
  5
3A
102
{ACAD_XDICTIONARY
360
14C
102
}
102
{ACAD_REACTORS
330
29
102
}
330
29
100
AcDbVisualStyle
  2
Shades of Gray
 70
    23
177
     2
291
     0
 71
     2
176
     1
 72
     2
176
     1
 73
     3
176
     1
 90
        0
176
     1
 40
0.6
176
     1
 41
30.0
176
     1
 63
     7
421
 16777215
176
     1
 74
     2
176
     1
 91
        2
176
     1
 64
     7
176
     1
 65
     7
176
     1
 75
     1
176
     1
175
     1
176
     1
 42
40.0
176
     1
 92
        8
176
     1
 66
     7
176
     1
 43
1.0
176
     1
 76
     1
176
     1
 77
     6
176
     1
 78
     2
176
     1
 67
     7
176
     1
 79
     3
176
     1
170
     0
176
     1
171
     0
176
     1
290
     0
176
     1
 93
        1
176
     1
 44
0.0
176
     1
173
     0
176
     1
1001
ACAD
1000
AcDbSavedByObjectVersion
1070
     0
  0
VISUALSTYLE
  5
3B
102
{ACAD_XDICTIONARY
360
14E
102
}
102
{ACAD_REACTORS
330
29
102
}
330
29
100
AcDbVisualStyle
  2
Sketchy
 70
    24
177
     2
291
     0
 71
     1
176
     1
 72
     2
176
     1
 73
     2
176
     1
 90
        0
176
     1
 40
0.6
176
     1
 41
30.0
176
     1
 63
     7
421
 16777215
176
     1
 74
     2
176
     1
 91
        2
176
     1
 64
     7
176
     1
 65
     7
176
     1
 75
     1
176
     1
175
     1
176
     1
 42
40.0
176
     1
 92
       11
176
     1
 66
     7
176
     1
 43
1.0
176
     1
 76
     1
176
     1
 77
     6
176
     1
 78
     2
176
     1
 67
     7
176
     1
 79
     6
176
     1
170
     0
176
     1
171
     0
176
     1
290
     0
176
     1
 93
        1
176
     1
 44
0.0
176
     1
173
     0
176
     1
1001
ACAD
1000
AcDbSavedByObjectVersion
1070
     0
  0
VISUALSTYLE
  5
36
102
{ACAD_XDICTIONARY
360
144
102
}
102
{ACAD_REACTORS
330
29
102
}
330
29
100
AcDbVisualStyle
  2
Thicken
 70
    13
177
     2
291
     1
 71
     2
176
     1
 72
     2
176
     1
 73
     0
176
     1
 90
        0
176
     1
 40
0.6
176
     1
 41
30.0
176
     1
 63
     7
421
 16777215
176
     1
 74
     1
176
     1
 91
        4
176
     1
 64
     7
176
     1
 65
   257
176
     1
 75
     1
176
     1
175
     1
176
     1
 42
1.0
176
     1
 92
       12
176
     1
 66
     7
176
     1
 43
1.0
176
     1
 76
     1
176
     1
 77
     6
176
     1
 78
     2
176
     1
 67
     7
176
     1
 79
     5
176
     1
170
     0
176
     1
171
     0
176
     1
290
     0
176
     1
 93
        1
176
     1
 44
0.0
176
     1
173
     0
176
     1
1001
ACAD
1000
AcDbSavedByObjectVersion
1070
     0
  0
VISUALSTYLE
  5
30
102
{ACAD_XDICTIONARY
360
138
102
}
102
{ACAD_REACTORS
330
29
102
}
330
29
100
AcDbVisualStyle
  2
Wireframe
 70
     5
177
     2
291
     0
 71
     0
176
     1
 72
     2
176
     1
 73
     0
176
     1
 90
        0
176
     1
 40
0.6
176
     1
 41
30.0
176
     1
 63
     7
421
 16777215
176
     1
 74
     1
176
     1
 91
        4
176
     1
 64
     7
176
     1
 65
   257
176
     1
 75
     1
176
     1
175
     1
176
     1
 42
1.0
176
     1
 92
        0
176
     1
 66
   257
176
     1
 43
1.0
176
     1
 76
     1
176
     1
 77
     6
176
     1
 78
     2
176
     1
 67
     7
176
     1
 79
     3
176
     1
170
     0
176
     1
171
     0
176
     1
290
     0
176
     1
 93
        1
176
     1
 44
0.0
176
     1
173
     0
176
     1
1001
ACAD
1000
AcDbSavedByObjectVersion
1070
     0
  0
VISUALSTYLE
  5
3C
102
{ACAD_XDICTIONARY
360
150
102
}
102
{ACAD_REACTORS
330
29
102
}
330
29
100
AcDbVisualStyle
  2
X-Ray
 70
    25
177
     2
291
     0
 71
     2
176
     1
 72
     2
176
     1
 73
     1
176
     1
 90
        1
176
     1
 40
0.5
176
     1
 41
30.0
176
     1
 63
     7
421
 16777215
176
     1
 74
     1
176
     1
 91
        0
176
     1
 64
     7
176
     1
 65
   257
176
     1
 75
     1
176
     1
175
     1
176
     1
 42
1.0
176
     1
 92
        8
176
     1
 66
     7
176
     1
 43
1.0
176
     1
 76
     1
176
     1
 77
     6
176
     1
 78
     2
176
     1
 67
     7
176
     1
 79
     3
176
     1
170
     0
176
     1
171
     0
176
     1
290
     0
176
     1
 93
       13
176
     1
 44
0.0
176
     1
173
     0
176
     1
1001
ACAD
1000
AcDbSavedByObjectVersion
1070
     0
  0
DICTIONARYVAR
  5
128
102
{ACAD_REACTORS
330
123
102
}
330
123
100
DictionaryVariables
280
     0
  1
1:1
  0
DICTIONARYVAR
  5
125
102
{ACAD_REACTORS
330
123
102
}
330
123
100
DictionaryVariables
280
     0
  1
STANDARD
  0
DICTIONARYVAR
  5
124
102
{ACAD_REACTORS
330
123
102
}
330
123
100
DictionaryVariables
280
     0
  1
STANDARD
  0
DICTIONARYVAR
  5
126
102
{ACAD_REACTORS
330
123
102
}
330
123
100
DictionaryVariables
280
     0
  1
Imperial24
  0
DICTIONARYVAR
  5
127
102
{ACAD_REACTORS
330
123
102
}
330
123
100
DictionaryVariables
280
     0
  1
Imperial24
  0
DICTIONARY
  5
160
330
6B
100
AcDbDictionary
280
     1
281
     1
  3
ACAD_XREC_ROUNDTRIP
360
161
  0
DICTIONARY
  5
1A
330
19
100
AcDbDictionary
280
     1
281
     1
  3
BUMPTILE
360
1C
  3
DIFFUSETILE
360
1B
  3
OPACITYTILE
360
1F
  3
REFLECTIONTILE
360
1E
  3
REFRACTIONTILE
360
20
  3
SPECULARTILE
360
1D
  0
DICTIONARY
  5
12
330
11
100
AcDbDictionary
280
     1
281
     1
  3
BUMPTILE
360
14
  3
DIFFUSETILE
360
13
  3
OPACITYTILE
360
17
  3
REFLECTIONTILE
360
16
  3
REFRACTIONTILE
360
18
  3
SPECULARTILE
360
15
  0
DICTIONARY
  5
22
330
21
100
AcDbDictionary
280
     1
281
     1
  3
BUMPTILE
360
24
  3
DIFFUSETILE
360
23
  3
OPACITYTILE
360
27
  3
REFLECTIONTILE
360
26
  3
REFRACTIONTILE
360
28
  3
SPECULARTILE
360
25
  0
DICTIONARY
  5
15C
330
67
100
AcDbDictionary
280
     1
281
     1
  3
ACAD_XREC_ROUNDTRIP
360
15D
  0
DICTIONARY
  5
15E
330
69
100
AcDbDictionary
280
     1
281
     1
  3
ACAD_XREC_ROUNDTRIP
360
15F
  0
DICTIONARY
  5
129
330
65
100
AcDbDictionary
280
     1
281
     1
  3
ACAD_ROUNDTRIP_2008_TABLESTYLE_CELLSTYLEMAP
360
12A
  0
DICTIONARY
  5
136
330
2F
100
AcDbDictionary
280
     1
281
     1
  3
ACAD_XREC_ROUNDTRIP
360
137
  0
DICTIONARY
  5
134
330
2E
100
AcDbDictionary
280
     1
281
     1
  3
ACAD_XREC_ROUNDTRIP
360
135
  0
DICTIONARY
  5
142
330
35
100
AcDbDictionary
280
     1
281
     1
  3
ACAD_XREC_ROUNDTRIP
360
143
  0
DICTIONARY
  5
14A
330
39
100
AcDbDictionary
280
     1
281
     1
  3
ACAD_XREC_ROUNDTRIP
360
14B
  0
DICTIONARY
  5
13C
330
32
100
AcDbDictionary
280
     1
281
     1
  3
ACAD_XREC_ROUNDTRIP
360
13D
  0
DICTIONARY
  5
140
330
34
100
AcDbDictionary
280
     1
281
     1
  3
ACAD_XREC_ROUNDTRIP
360
141
  0
DICTIONARY
  5
15A
330
41
100
AcDbDictionary
280
     1
281
     1
  3
ACAD_XREC_ROUNDTRIP
360
15B
  0
DICTIONARY
  5
148
330
38
100
AcDbDictionary
280
     1
281
     1
  3
ACAD_XREC_ROUNDTRIP
360
149
  0
DICTIONARY
  5
12C
330
2A
100
AcDbDictionary
280
     1
281
     1
  3
ACAD_XREC_ROUNDTRIP
360
12D
  0
DICTIONARY
  5
12E
330
2B
100
AcDbDictionary
280
     1
281
     1
  3
ACAD_XREC_ROUNDTRIP
360
12F
  0
DICTIONARY
  5
130
330
2C
100
AcDbDictionary
280
     1
281
     1
  3
ACAD_XREC_ROUNDTRIP
360
131
  0
DICTIONARY
  5
132
330
2D
100
AcDbDictionary
280
     1
281
     1
  3
ACAD_XREC_ROUNDTRIP
360
133
  0
DICTIONARY
  5
13A
330
31
100
AcDbDictionary
280
     1
281
     1
  3
ACAD_XREC_ROUNDTRIP
360
13B
  0
DICTIONARY
  5
156
330
3F
100
AcDbDictionary
280
     1
281
     1
  3
ACAD_XREC_ROUNDTRIP
360
157
  0
DICTIONARY
  5
146
330
37
100
AcDbDictionary
280
     1
281
     1
  3
ACAD_XREC_ROUNDTRIP
360
147
  0
DICTIONARY
  5
158
330
40
100
AcDbDictionary
280
     1
281
     1
  3
ACAD_XREC_ROUNDTRIP
360
159
  0
DICTIONARY
  5
13E
330
33
100
AcDbDictionary
280
     1
281
     1
  3
ACAD_XREC_ROUNDTRIP
360
13F
  0
DICTIONARY
  5
154
330
3E
100
AcDbDictionary
280
     1
281
     1
  3
ACAD_XREC_ROUNDTRIP
360
155
  0
DICTIONARY
  5
152
330
3D
100
AcDbDictionary
280
     1
281
     1
  3
ACAD_XREC_ROUNDTRIP
360
153
  0
DICTIONARY
  5
14C
330
3A
100
AcDbDictionary
280
     1
281
     1
  3
ACAD_XREC_ROUNDTRIP
360
14D
  0
DICTIONARY
  5
14E
330
3B
100
AcDbDictionary
280
     1
281
     1
  3
ACAD_XREC_ROUNDTRIP
360
14F
  0
DICTIONARY
  5
144
330
36
100
AcDbDictionary
280
     1
281
     1
  3
ACAD_XREC_ROUNDTRIP
360
145
  0
DICTIONARY
  5
138
330
30
100
AcDbDictionary
280
     1
281
     1
  3
ACAD_XREC_ROUNDTRIP
360
139
  0
DICTIONARY
  5
150
330
3C
100
AcDbDictionary
280
     1
281
     1
  3
ACAD_XREC_ROUNDTRIP
360
151
  0
XRECORD
  5
161
102
{ACAD_REACTORS
330
160
102
}
330
160
100
AcDbXrecord
280
     1
102
DISPLAYNAME
  1
Imperial24
102
FLAGS
 90
        0
  0
XRECORD
  5
1C
102
{ACAD_REACTORS
330
1A
102
}
330
1A
100
AcDbXrecord
280
     1
270
     1
271
     1
  0
XRECORD
  5
1B
102
{ACAD_REACTORS
330
1A
102
}
330
1A
100
AcDbXrecord
280
     1
270
     1
271
     1
  0
XRECORD
  5
1F
102
{ACAD_REACTORS
330
1A
102
}
330
1A
100
AcDbXrecord
280
     1
270
     1
271
     1
  0
XRECORD
  5
1E
102
{ACAD_REACTORS
330
1A
102
}
330
1A
100
AcDbXrecord
280
     1
270
     1
271
     1
  0
XRECORD
  5
20
102
{ACAD_REACTORS
330
1A
102
}
330
1A
100
AcDbXrecord
280
     1
270
     1
271
     1
  0
XRECORD
  5
1D
102
{ACAD_REACTORS
330
1A
102
}
330
1A
100
AcDbXrecord
280
     1
270
     1
271
     1
  0
XRECORD
  5
14
102
{ACAD_REACTORS
330
12
102
}
330
12
100
AcDbXrecord
280
     1
270
     1
271
     1
  0
XRECORD
  5
13
102
{ACAD_REACTORS
330
12
102
}
330
12
100
AcDbXrecord
280
     1
270
     1
271
     1
  0
XRECORD
  5
17
102
{ACAD_REACTORS
330
12
102
}
330
12
100
AcDbXrecord
280
     1
270
     1
271
     1
  0
XRECORD
  5
16
102
{ACAD_REACTORS
330
12
102
}
330
12
100
AcDbXrecord
280
     1
270
     1
271
     1
  0
XRECORD
  5
18
102
{ACAD_REACTORS
330
12
102
}
330
12
100
AcDbXrecord
280
     1
270
     1
271
     1
  0
XRECORD
  5
15
102
{ACAD_REACTORS
330
12
102
}
330
12
100
AcDbXrecord
280
     1
270
     1
271
     1
  0
XRECORD
  5
24
102
{ACAD_REACTORS
330
22
102
}
330
22
100
AcDbXrecord
280
     1
270
     1
271
     1
  0
XRECORD
  5
23
102
{ACAD_REACTORS
330
22
102
}
330
22
100
AcDbXrecord
280
     1
270
     1
271
     1
  0
XRECORD
  5
27
102
{ACAD_REACTORS
330
22
102
}
330
22
100
AcDbXrecord
280
     1
270
     1
271
     1
  0
XRECORD
  5
26
102
{ACAD_REACTORS
330
22
102
}
330
22
100
AcDbXrecord
280
     1
270
     1
271
     1
  0
XRECORD
  5
28
102
{ACAD_REACTORS
330
22
102
}
330
22
100
AcDbXrecord
280
     1
270
     1
271
     1
  0
XRECORD
  5
25
102
{ACAD_REACTORS
330
22
102
}
330
22
100
AcDbXrecord
280
     1
270
     1
271
     1
  0
XRECORD
  5
15D
102
{ACAD_REACTORS
330
15C
102
}
330
15C
100
AcDbXrecord
280
     1
102
ACAD_ROUNDTRIP_2012_MLEADER_STYLE
298
     1
  0
XRECORD
  5
15F
102
{ACAD_REACTORS
330
15E
102
}
330
15E
100
AcDbXrecord
280
     1
102
DISPLAYNAME
  1
Imperial24
102
FLAGS
 90
        0
  0
CELLSTYLEMAP
  5
12A
102
{ACAD_REACTORS
330
129
102
}
330
129
100
AcDbCellStyleMap
 90
        3
300
CELLSTYLE
  1
TABLEFORMAT_BEGIN
 90
        5
170
     1
 91
        0
 92
    32768
 62
   257
 93
        1
300
CONTENTFORMAT
  1
CONTENTFORMAT_BEGIN
 90
        0
 91
        0
 92
      512
 93
        0
300

 40
0.0
140
1.0
 94
        5
 62
     0
340
55
144
0.25
309
CONTENTFORMAT_END
171
     0
 94
        0
309
TABLEFORMAT_END
  1
CELLSTYLE_BEGIN
 90
        1
 91
        1
300
_TITLE
309
CELLSTYLE_END
300
CELLSTYLE
  1
TABLEFORMAT_BEGIN
 90
        5
170
     1
 91
        0
 92
        0
 62
   257
 93
        1
300
CONTENTFORMAT
  1
CONTENTFORMAT_BEGIN
 90
        0
 91
        0
 92
      512
 93
        0
300

 40
0.0
140
1.0
 94
        5
 62
     0
340
55
144
0.18
309
CONTENTFORMAT_END
171
     0
 94
        0
309
TABLEFORMAT_END
  1
CELLSTYLE_BEGIN
 90
        2
 91
        1
300
_HEADER
309
CELLSTYLE_END
300
CELLSTYLE
  1
TABLEFORMAT_BEGIN
 90
        5
170
     1
 91
        0
 92
        0
 62
   257
 93
        1
300
CONTENTFORMAT
  1
CONTENTFORMAT_BEGIN
 90
        0
 91
        0
 92
      512
 93
        0
300

 40
0.0
140
1.0
 94
        2
 62
     0
340
55
144
0.18
309
CONTENTFORMAT_END
171
     0
 94
        0
309
TABLEFORMAT_END
  1
CELLSTYLE_BEGIN
 90
        3
 91
        2
300
_DATA
309
CELLSTYLE_END
  0
XRECORD
  5
137
102
{ACAD_REACTORS
330
136
102
}
330
136
100
AcDbXrecord
280
     1
102
RTVSPost2010Prop28
280
     1
102
RTVSPost2010PropOp28
 70
     1
102
RTVSPost2010Prop29
280
     1
102
RTVSPost2010PropOp29
 70
     1
102
RTVSPost2010Prop30
280
     0
102
RTVSPost2010PropOp30
 70
     1
102
RTVSPost2010Prop31
280
     0
102
RTVSPost2010PropOp31
 70
     1
102
RTVSPost2010Prop32
280
     0
102
RTVSPost2010PropOp32
 70
     1
102
RTVSPost2010Prop33
280
     0
102
RTVSPost2010PropOp33
 70
     1
102
RTVSPost2010Prop34
280
     0
102
RTVSPost2010PropOp34
 70
     1
102
RTVSPost2010Prop35
280
     0
102
RTVSPost2010PropOp35
 70
     1
102
RTVSPost2010Prop36
280
     0
102
RTVSPost2010PropOp36
 70
     1
102
RTVSPost2010Prop37
 90
       50
102
RTVSPost2010PropOp37
 70
     1
102
RTVSPost2010Prop38
140
0.0
102
RTVSPost2010PropOp38
 70
     1
102
RTVSPost2010Prop39
140
1.0
102
RTVSPost2010PropOp39
 70
     1
102
RTVSPost2010Prop40
 90
        0
102
RTVSPost2010PropOp40
 70
     1
102
RTVSPost2010Prop41ColorIndex
 90
       18
102
RTVSPost2010Prop41ColorRGB
 90
        0
102
RTVSPost2010PropOp41
 70
     1
102
RTVSPost2010Prop42
 90
       50
102
RTVSPost2010PropOp42
 70
     1
102
RTVSPost2010Prop43
 90
        3
102
RTVSPost2010PropOp43
 70
     1
102
RTVSPost2010Prop44ColorIndex
 90
        5
102
RTVSPost2010Prop44ColorRGB
 90
      255
102
RTVSPost2010PropOp44
 70
     1
102
RTVSPost2010Prop45
280
     0
102
RTVSPost2010PropOp45
 70
     1
102
RTVSPost2010Prop46
 90
       50
102
RTVSPost2010PropOp46
 70
     1
102
RTVSPost2010Prop47
 90
       50
102
RTVSPost2010PropOp47
 70
     1
102
RTVSPost2010Prop48
 90
       50
102
RTVSPost2010PropOp48
 70
     1
102
RTVSPost2010Prop49
280
     0
102
RTVSPost2010PropOp49
 70
     1
102
RTVSPost2010Prop50
 90
       50
102
RTVSPost2010PropOp50
 70
     1
102
RTVSPost2010Prop51ColorIndex
 90
      256
102
RTVSPost2010Prop51ColorRGB
 90
-16777216
102
RTVSPost2010PropOp51
 70
     0
102
RTVSPost2010Prop52
140
1.0
102
RTVSPost2010PropOp52
 70
     0
102
RTVSPost2010Prop53
 90
        2
102
RTVSPost2010PropOp53
 70
     1
102
RTVSPost2010Prop54
  1
strokes_ogs.tif
102
RTVSPost2010PropOp54
 70
     1
102
RTVSPost2010Prop55
280
     0
102
RTVSPost2010PropOp55
 70
     1
102
RTVSPost2010Prop56
140
1.0
102
RTVSPost2010PropOp56
 70
     1
102
RTVSPost2010Prop57
140
1.0
102
RTVSPost2010PropOp57
 70
     1
  0
XRECORD
  5
135
102
{ACAD_REACTORS
330
134
102
}
330
134
100
AcDbXrecord
280
     1
102
RTVSPost2010Prop28
280
     0
102
RTVSPost2010PropOp28
 70
     1
102
RTVSPost2010Prop29
280
     1
102
RTVSPost2010PropOp29
 70
     1
102
RTVSPost2010Prop30
280
     1
102
RTVSPost2010PropOp30
 70
     1
102
RTVSPost2010Prop31
280
     0
102
RTVSPost2010PropOp31
 70
     1
102
RTVSPost2010Prop32
280
     0
102
RTVSPost2010PropOp32
 70
     1
102
RTVSPost2010Prop33
280
     0
102
RTVSPost2010PropOp33
 70
     1
102
RTVSPost2010Prop34
280
     0
102
RTVSPost2010PropOp34
 70
     1
102
RTVSPost2010Prop35
280
     0
102
RTVSPost2010PropOp35
 70
     1
102
RTVSPost2010Prop36
280
     0
102
RTVSPost2010PropOp36
 70
     1
102
RTVSPost2010Prop37
 90
       50
102
RTVSPost2010PropOp37
 70
     1
102
RTVSPost2010Prop38
140
0.0
102
RTVSPost2010PropOp38
 70
     1
102
RTVSPost2010Prop39
140
1.0
102
RTVSPost2010PropOp39
 70
     1
102
RTVSPost2010Prop40
 90
        0
102
RTVSPost2010PropOp40
 70
     1
102
RTVSPost2010Prop41ColorIndex
 90
       18
102
RTVSPost2010Prop41ColorRGB
 90
        0
102
RTVSPost2010PropOp41
 70
     1
102
RTVSPost2010Prop42
 90
       50
102
RTVSPost2010PropOp42
 70
     1
102
RTVSPost2010Prop43
 90
        3
102
RTVSPost2010PropOp43
 70
     1
102
RTVSPost2010Prop44ColorIndex
 90
        5
102
RTVSPost2010Prop44ColorRGB
 90
      255
102
RTVSPost2010PropOp44
 70
     1
102
RTVSPost2010Prop45
280
     0
102
RTVSPost2010PropOp45
 70
     1
102
RTVSPost2010Prop46
 90
       50
102
RTVSPost2010PropOp46
 70
     1
102
RTVSPost2010Prop47
 90
       50
102
RTVSPost2010PropOp47
 70
     1
102
RTVSPost2010Prop48
 90
       50
102
RTVSPost2010PropOp48
 70
     1
102
RTVSPost2010Prop49
280
     0
102
RTVSPost2010PropOp49
 70
     1
102
RTVSPost2010Prop50
 90
       50
102
RTVSPost2010PropOp50
 70
     1
102
RTVSPost2010Prop51ColorIndex
 90
      256
102
RTVSPost2010Prop51ColorRGB
 90
-16777216
102
RTVSPost2010PropOp51
 70
     0
102
RTVSPost2010Prop52
140
1.0
102
RTVSPost2010PropOp52
 70
     0
102
RTVSPost2010Prop53
 90
        2
102
RTVSPost2010PropOp53
 70
     1
102
RTVSPost2010Prop54
  1
strokes_ogs.tif
102
RTVSPost2010PropOp54
 70
     1
102
RTVSPost2010Prop55
280
     0
102
RTVSPost2010PropOp55
 70
     1
102
RTVSPost2010Prop56
140
1.0
102
RTVSPost2010PropOp56
 70
     1
102
RTVSPost2010Prop57
140
1.0
102
RTVSPost2010PropOp57
 70
     1
  0
XRECORD
  5
143
102
{ACAD_REACTORS
330
142
102
}
330
142
100
AcDbXrecord
280
     1
102
RTVSPost2010Prop28
280
     0
102
RTVSPost2010PropOp28
 70
     1
102
RTVSPost2010Prop29
280
     1
102
RTVSPost2010PropOp29
 70
     1
102
RTVSPost2010Prop30
280
     1
102
RTVSPost2010PropOp30
 70
     1
102
RTVSPost2010Prop31
280
     0
102
RTVSPost2010PropOp31
 70
     1
102
RTVSPost2010Prop32
280
     0
102
RTVSPost2010PropOp32
 70
     1
102
RTVSPost2010Prop33
280
     0
102
RTVSPost2010PropOp33
 70
     1
102
RTVSPost2010Prop34
280
     0
102
RTVSPost2010PropOp34
 70
     1
102
RTVSPost2010Prop35
280
     0
102
RTVSPost2010PropOp35
 70
     1
102
RTVSPost2010Prop36
280
     0
102
RTVSPost2010PropOp36
 70
     1
102
RTVSPost2010Prop37
 90
       50
102
RTVSPost2010PropOp37
 70
     1
102
RTVSPost2010Prop38
140
0.0
102
RTVSPost2010PropOp38
 70
     1
102
RTVSPost2010Prop39
140
1.0
102
RTVSPost2010PropOp39
 70
     1
102
RTVSPost2010Prop40
 90
        0
102
RTVSPost2010PropOp40
 70
     1
102
RTVSPost2010Prop41ColorIndex
 90
       18
102
RTVSPost2010Prop41ColorRGB
 90
        0
102
RTVSPost2010PropOp41
 70
     1
102
RTVSPost2010Prop42
 90
       50
102
RTVSPost2010PropOp42
 70
     1
102
RTVSPost2010Prop43
 90
        3
102
RTVSPost2010PropOp43
 70
     1
102
RTVSPost2010Prop44ColorIndex
 90
        5
102
RTVSPost2010Prop44ColorRGB
 90
      255
102
RTVSPost2010PropOp44
 70
     1
102
RTVSPost2010Prop45
280
     0
102
RTVSPost2010PropOp45
 70
     1
102
RTVSPost2010Prop46
 90
       50
102
RTVSPost2010PropOp46
 70
     1
102
RTVSPost2010Prop47
 90
       50
102
RTVSPost2010PropOp47
 70
     1
102
RTVSPost2010Prop48
 90
       50
102
RTVSPost2010PropOp48
 70
     1
102
RTVSPost2010Prop49
280
     0
102
RTVSPost2010PropOp49
 70
     1
102
RTVSPost2010Prop50
 90
       50
102
RTVSPost2010PropOp50
 70
     1
102
RTVSPost2010Prop51ColorIndex
 90
      256
102
RTVSPost2010Prop51ColorRGB
 90
-16777216
102
RTVSPost2010PropOp51
 70
     0
102
RTVSPost2010Prop52
140
1.0
102
RTVSPost2010PropOp52
 70
     0
102
RTVSPost2010Prop53
 90
        2
102
RTVSPost2010PropOp53
 70
     1
102
RTVSPost2010Prop54
  1
strokes_ogs.tif
102
RTVSPost2010PropOp54
 70
     1
102
RTVSPost2010Prop55
280
     0
102
RTVSPost2010PropOp55
 70
     1
102
RTVSPost2010Prop56
140
1.0
102
RTVSPost2010PropOp56
 70
     1
102
RTVSPost2010Prop57
140
1.0
102
RTVSPost2010PropOp57
 70
     1
  0
XRECORD
  5
14B
102
{ACAD_REACTORS
330
14A
102
}
330
14A
100
AcDbXrecord
280
     1
102
RTVSPost2010Prop28
280
     0
102
RTVSPost2010PropOp28
 70
     1
102
RTVSPost2010Prop29
280
     1
102
RTVSPost2010PropOp29
 70
     1
102
RTVSPost2010Prop30
280
     1
102
RTVSPost2010PropOp30
 70
     1
102
RTVSPost2010Prop31
280
     0
102
RTVSPost2010PropOp31
 70
     1
102
RTVSPost2010Prop32
280
     0
102
RTVSPost2010PropOp32
 70
     1
102
RTVSPost2010Prop33
280
     0
102
RTVSPost2010PropOp33
 70
     1
102
RTVSPost2010Prop34
280
     0
102
RTVSPost2010PropOp34
 70
     1
102
RTVSPost2010Prop35
280
     0
102
RTVSPost2010PropOp35
 70
     1
102
RTVSPost2010Prop36
280
     0
102
RTVSPost2010PropOp36
 70
     1
102
RTVSPost2010Prop37
 90
       50
102
RTVSPost2010PropOp37
 70
     1
102
RTVSPost2010Prop38
140
0.0
102
RTVSPost2010PropOp38
 70
     1
102
RTVSPost2010Prop39
140
1.0
102
RTVSPost2010PropOp39
 70
     1
102
RTVSPost2010Prop40
 90
        0
102
RTVSPost2010PropOp40
 70
     1
102
RTVSPost2010Prop41ColorIndex
 90
       18
102
RTVSPost2010Prop41ColorRGB
 90
        0
102
RTVSPost2010PropOp41
 70
     1
102
RTVSPost2010Prop42
 90
       50
102
RTVSPost2010PropOp42
 70
     1
102
RTVSPost2010Prop43
 90
        3
102
RTVSPost2010PropOp43
 70
     1
102
RTVSPost2010Prop44ColorIndex
 90
        5
102
RTVSPost2010Prop44ColorRGB
 90
      255
102
RTVSPost2010PropOp44
 70
     1
102
RTVSPost2010Prop45
280
     0
102
RTVSPost2010PropOp45
 70
     1
102
RTVSPost2010Prop46
 90
       50
102
RTVSPost2010PropOp46
 70
     1
102
RTVSPost2010Prop47
 90
       50
102
RTVSPost2010PropOp47
 70
     1
102
RTVSPost2010Prop48
 90
       50
102
RTVSPost2010PropOp48
 70
     1
102
RTVSPost2010Prop49
280
     0
102
RTVSPost2010PropOp49
 70
     1
102
RTVSPost2010Prop50
 90
       50
102
RTVSPost2010PropOp50
 70
     1
102
RTVSPost2010Prop51ColorIndex
 90
      256
102
RTVSPost2010Prop51ColorRGB
 90
-16777216
102
RTVSPost2010PropOp51
 70
     0
102
RTVSPost2010Prop52
140
1.0
102
RTVSPost2010PropOp52
 70
     0
102
RTVSPost2010Prop53
 90
        2
102
RTVSPost2010PropOp53
 70
     1
102
RTVSPost2010Prop54
  1
strokes_ogs.tif
102
RTVSPost2010PropOp54
 70
     1
102
RTVSPost2010Prop55
280
     0
102
RTVSPost2010PropOp55
 70
     1
102
RTVSPost2010Prop56
140
1.0
102
RTVSPost2010PropOp56
 70
     1
102
RTVSPost2010Prop57
140
1.0
102
RTVSPost2010PropOp57
 70
     1
  0
XRECORD
  5
13D
102
{ACAD_REACTORS
330
13C
102
}
330
13C
100
AcDbXrecord
280
     1
102
RTVSPost2010Prop28
280
     0
102
RTVSPost2010PropOp28
 70
     1
102
RTVSPost2010Prop29
280
     1
102
RTVSPost2010PropOp29
 70
     1
102
RTVSPost2010Prop30
280
     1
102
RTVSPost2010PropOp30
 70
     1
102
RTVSPost2010Prop31
280
     0
102
RTVSPost2010PropOp31
 70
     1
102
RTVSPost2010Prop32
280
     0
102
RTVSPost2010PropOp32
 70
     1
102
RTVSPost2010Prop33
280
     0
102
RTVSPost2010PropOp33
 70
     1
102
RTVSPost2010Prop34
280
     0
102
RTVSPost2010PropOp34
 70
     1
102
RTVSPost2010Prop35
280
     0
102
RTVSPost2010PropOp35
 70
     1
102
RTVSPost2010Prop36
280
     0
102
RTVSPost2010PropOp36
 70
     1
102
RTVSPost2010Prop37
 90
       50
102
RTVSPost2010PropOp37
 70
     1
102
RTVSPost2010Prop38
140
0.0
102
RTVSPost2010PropOp38
 70
     1
102
RTVSPost2010Prop39
140
1.0
102
RTVSPost2010PropOp39
 70
     1
102
RTVSPost2010Prop40
 90
        0
102
RTVSPost2010PropOp40
 70
     1
102
RTVSPost2010Prop41ColorIndex
 90
       18
102
RTVSPost2010Prop41ColorRGB
 90
        0
102
RTVSPost2010PropOp41
 70
     1
102
RTVSPost2010Prop42
 90
       50
102
RTVSPost2010PropOp42
 70
     1
102
RTVSPost2010Prop43
 90
        3
102
RTVSPost2010PropOp43
 70
     1
102
RTVSPost2010Prop44ColorIndex
 90
        5
102
RTVSPost2010Prop44ColorRGB
 90
      255
102
RTVSPost2010PropOp44
 70
     1
102
RTVSPost2010Prop45
280
     0
102
RTVSPost2010PropOp45
 70
     1
102
RTVSPost2010Prop46
 90
       50
102
RTVSPost2010PropOp46
 70
     1
102
RTVSPost2010Prop47
 90
       50
102
RTVSPost2010PropOp47
 70
     1
102
RTVSPost2010Prop48
 90
       50
102
RTVSPost2010PropOp48
 70
     1
102
RTVSPost2010Prop49
280
     0
102
RTVSPost2010PropOp49
 70
     1
102
RTVSPost2010Prop50
 90
       50
102
RTVSPost2010PropOp50
 70
     1
102
RTVSPost2010Prop51ColorIndex
 90
      256
102
RTVSPost2010Prop51ColorRGB
 90
-16777216
102
RTVSPost2010PropOp51
 70
     0
102
RTVSPost2010Prop52
140
1.0
102
RTVSPost2010PropOp52
 70
     0
102
RTVSPost2010Prop53
 90
        2
102
RTVSPost2010PropOp53
 70
     1
102
RTVSPost2010Prop54
  1
strokes_ogs.tif
102
RTVSPost2010PropOp54
 70
     1
102
RTVSPost2010Prop55
280
     0
102
RTVSPost2010PropOp55
 70
     1
102
RTVSPost2010Prop56
140
1.0
102
RTVSPost2010PropOp56
 70
     1
102
RTVSPost2010Prop57
140
1.0
102
RTVSPost2010PropOp57
 70
     1
  0
XRECORD
  5
141
102
{ACAD_REACTORS
330
140
102
}
330
140
100
AcDbXrecord
280
     1
102
RTVSPost2010Prop28
280
     0
102
RTVSPost2010PropOp28
 70
     1
102
RTVSPost2010Prop29
280
     1
102
RTVSPost2010PropOp29
 70
     1
102
RTVSPost2010Prop30
280
     1
102
RTVSPost2010PropOp30
 70
     1
102
RTVSPost2010Prop31
280
     0
102
RTVSPost2010PropOp31
 70
     1
102
RTVSPost2010Prop32
280
     0
102
RTVSPost2010PropOp32
 70
     1
102
RTVSPost2010Prop33
280
     0
102
RTVSPost2010PropOp33
 70
     1
102
RTVSPost2010Prop34
280
     0
102
RTVSPost2010PropOp34
 70
     1
102
RTVSPost2010Prop35
280
     0
102
RTVSPost2010PropOp35
 70
     1
102
RTVSPost2010Prop36
280
     0
102
RTVSPost2010PropOp36
 70
     1
102
RTVSPost2010Prop37
 90
       50
102
RTVSPost2010PropOp37
 70
     1
102
RTVSPost2010Prop38
140
0.0
102
RTVSPost2010PropOp38
 70
     1
102
RTVSPost2010Prop39
140
1.0
102
RTVSPost2010PropOp39
 70
     1
102
RTVSPost2010Prop40
 90
        0
102
RTVSPost2010PropOp40
 70
     1
102
RTVSPost2010Prop41ColorIndex
 90
       18
102
RTVSPost2010Prop41ColorRGB
 90
        0
102
RTVSPost2010PropOp41
 70
     1
102
RTVSPost2010Prop42
 90
       50
102
RTVSPost2010PropOp42
 70
     1
102
RTVSPost2010Prop43
 90
        3
102
RTVSPost2010PropOp43
 70
     1
102
RTVSPost2010Prop44ColorIndex
 90
        5
102
RTVSPost2010Prop44ColorRGB
 90
      255
102
RTVSPost2010PropOp44
 70
     1
102
RTVSPost2010Prop45
280
     0
102
RTVSPost2010PropOp45
 70
     1
102
RTVSPost2010Prop46
 90
       50
102
RTVSPost2010PropOp46
 70
     1
102
RTVSPost2010Prop47
 90
       50
102
RTVSPost2010PropOp47
 70
     1
102
RTVSPost2010Prop48
 90
       50
102
RTVSPost2010PropOp48
 70
     1
102
RTVSPost2010Prop49
280
     0
102
RTVSPost2010PropOp49
 70
     1
102
RTVSPost2010Prop50
 90
       50
102
RTVSPost2010PropOp50
 70
     1
102
RTVSPost2010Prop51ColorIndex
 90
      256
102
RTVSPost2010Prop51ColorRGB
 90
-16777216
102
RTVSPost2010PropOp51
 70
     0
102
RTVSPost2010Prop52
140
1.0
102
RTVSPost2010PropOp52
 70
     0
102
RTVSPost2010Prop53
 90
        2
102
RTVSPost2010PropOp53
 70
     1
102
RTVSPost2010Prop54
  1
strokes_ogs.tif
102
RTVSPost2010PropOp54
 70
     1
102
RTVSPost2010Prop55
280
     0
102
RTVSPost2010PropOp55
 70
     1
102
RTVSPost2010Prop56
140
1.0
102
RTVSPost2010PropOp56
 70
     1
102
RTVSPost2010Prop57
140
1.0
102
RTVSPost2010PropOp57
 70
     1
  0
XRECORD
  5
15B
102
{ACAD_REACTORS
330
15A
102
}
330
15A
100
AcDbXrecord
280
     1
102
RTVSPost2010Prop28
280
     0
102
RTVSPost2010PropOp28
 70
     0
102
RTVSPost2010Prop29
280
     1
102
RTVSPost2010PropOp29
 70
     0
102
RTVSPost2010Prop30
280
     1
102
RTVSPost2010PropOp30
 70
     0
102
RTVSPost2010Prop31
280
     0
102
RTVSPost2010PropOp31
 70
     0
102
RTVSPost2010Prop32
280
     0
102
RTVSPost2010PropOp32
 70
     0
102
RTVSPost2010Prop33
280
     0
102
RTVSPost2010PropOp33
 70
     0
102
RTVSPost2010Prop34
280
     0
102
RTVSPost2010PropOp34
 70
     0
102
RTVSPost2010Prop35
280
     0
102
RTVSPost2010PropOp35
 70
     0
102
RTVSPost2010Prop36
280
     0
102
RTVSPost2010PropOp36
 70
     0
102
RTVSPost2010Prop37
 90
       50
102
RTVSPost2010PropOp37
 70
     0
102
RTVSPost2010Prop38
140
0.0
102
RTVSPost2010PropOp38
 70
     0
102
RTVSPost2010Prop39
140
1.0
102
RTVSPost2010PropOp39
 70
     0
102
RTVSPost2010Prop40
 90
        0
102
RTVSPost2010PropOp40
 70
     0
102
RTVSPost2010Prop41ColorIndex
 90
       18
102
RTVSPost2010Prop41ColorRGB
 90
        0
102
RTVSPost2010PropOp41
 70
     0
102
RTVSPost2010Prop42
 90
       50
102
RTVSPost2010PropOp42
 70
     0
102
RTVSPost2010Prop43
 90
        3
102
RTVSPost2010PropOp43
 70
     0
102
RTVSPost2010Prop44ColorIndex
 90
        5
102
RTVSPost2010Prop44ColorRGB
 90
      255
102
RTVSPost2010PropOp44
 70
     0
102
RTVSPost2010Prop45
280
     0
102
RTVSPost2010PropOp45
 70
     0
102
RTVSPost2010Prop46
 90
       50
102
RTVSPost2010PropOp46
 70
     0
102
RTVSPost2010Prop47
 90
       50
102
RTVSPost2010PropOp47
 70
     0
102
RTVSPost2010Prop48
 90
       50
102
RTVSPost2010PropOp48
 70
     0
102
RTVSPost2010Prop49
280
     0
102
RTVSPost2010PropOp49
 70
     0
102
RTVSPost2010Prop50
 90
       50
102
RTVSPost2010PropOp50
 70
     0
102
RTVSPost2010Prop51ColorIndex
 90
      256
102
RTVSPost2010Prop51ColorRGB
 90
-16777216
102
RTVSPost2010PropOp51
 70
     0
102
RTVSPost2010Prop52
140
1.0
102
RTVSPost2010PropOp52
 70
     0
102
RTVSPost2010Prop53
 90
        2
102
RTVSPost2010PropOp53
 70
     0
102
RTVSPost2010Prop54
  1
strokes_ogs.tif
102
RTVSPost2010PropOp54
 70
     0
102
RTVSPost2010Prop55
280
     0
102
RTVSPost2010PropOp55
 70
     0
102
RTVSPost2010Prop56
140
1.0
102
RTVSPost2010PropOp56
 70
     0
102
RTVSPost2010Prop57
140
1.0
102
RTVSPost2010PropOp57
 70
     0
  0
XRECORD
  5
149
102
{ACAD_REACTORS
330
148
102
}
330
148
100
AcDbXrecord
280
     1
102
RTVSPost2010Prop28
280
     0
102
RTVSPost2010PropOp28
 70
     1
102
RTVSPost2010Prop29
280
     1
102
RTVSPost2010PropOp29
 70
     1
102
RTVSPost2010Prop30
280
     1
102
RTVSPost2010PropOp30
 70
     1
102
RTVSPost2010Prop31
280
     0
102
RTVSPost2010PropOp31
 70
     1
102
RTVSPost2010Prop32
280
     0
102
RTVSPost2010PropOp32
 70
     1
102
RTVSPost2010Prop33
280
     0
102
RTVSPost2010PropOp33
 70
     1
102
RTVSPost2010Prop34
280
     0
102
RTVSPost2010PropOp34
 70
     1
102
RTVSPost2010Prop35
280
     0
102
RTVSPost2010PropOp35
 70
     1
102
RTVSPost2010Prop36
280
     0
102
RTVSPost2010PropOp36
 70
     1
102
RTVSPost2010Prop37
 90
       50
102
RTVSPost2010PropOp37
 70
     1
102
RTVSPost2010Prop38
140
0.0
102
RTVSPost2010PropOp38
 70
     1
102
RTVSPost2010Prop39
140
1.0
102
RTVSPost2010PropOp39
 70
     1
102
RTVSPost2010Prop40
 90
        0
102
RTVSPost2010PropOp40
 70
     1
102
RTVSPost2010Prop41ColorIndex
 90
       18
102
RTVSPost2010Prop41ColorRGB
 90
        0
102
RTVSPost2010PropOp41
 70
     1
102
RTVSPost2010Prop42
 90
       50
102
RTVSPost2010PropOp42
 70
     1
102
RTVSPost2010Prop43
 90
        3
102
RTVSPost2010PropOp43
 70
     1
102
RTVSPost2010Prop44ColorIndex
 90
        5
102
RTVSPost2010Prop44ColorRGB
 90
      255
102
RTVSPost2010PropOp44
 70
     1
102
RTVSPost2010Prop45
280
     0
102
RTVSPost2010PropOp45
 70
     1
102
RTVSPost2010Prop46
 90
       50
102
RTVSPost2010PropOp46
 70
     1
102
RTVSPost2010Prop47
 90
       50
102
RTVSPost2010PropOp47
 70
     1
102
RTVSPost2010Prop48
 90
       50
102
RTVSPost2010PropOp48
 70
     1
102
RTVSPost2010Prop49
280
     0
102
RTVSPost2010PropOp49
 70
     1
102
RTVSPost2010Prop50
 90
       50
102
RTVSPost2010PropOp50
 70
     1
102
RTVSPost2010Prop51ColorIndex
 90
      256
102
RTVSPost2010Prop51ColorRGB
 90
-16777216
102
RTVSPost2010PropOp51
 70
     0
102
RTVSPost2010Prop52
140
1.0
102
RTVSPost2010PropOp52
 70
     0
102
RTVSPost2010Prop53
 90
        2
102
RTVSPost2010PropOp53
 70
     1
102
RTVSPost2010Prop54
  1
strokes_ogs.tif
102
RTVSPost2010PropOp54
 70
     1
102
RTVSPost2010Prop55
280
     0
102
RTVSPost2010PropOp55
 70
     1
102
RTVSPost2010Prop56
140
1.0
102
RTVSPost2010PropOp56
 70
     1
102
RTVSPost2010Prop57
140
1.0
102
RTVSPost2010PropOp57
 70
     1
  0
XRECORD
  5
12D
102
{ACAD_REACTORS
330
12C
102
}
330
12C
100
AcDbXrecord
280
     1
102
RTVSPost2010Prop28
280
     0
102
RTVSPost2010PropOp28
 70
     1
102
RTVSPost2010Prop29
280
     1
102
RTVSPost2010PropOp29
 70
     1
102
RTVSPost2010Prop30
280
     1
102
RTVSPost2010PropOp30
 70
     1
102
RTVSPost2010Prop31
280
     0
102
RTVSPost2010PropOp31
 70
     1
102
RTVSPost2010Prop32
280
     0
102
RTVSPost2010PropOp32
 70
     1
102
RTVSPost2010Prop33
280
     0
102
RTVSPost2010PropOp33
 70
     1
102
RTVSPost2010Prop34
280
     0
102
RTVSPost2010PropOp34
 70
     1
102
RTVSPost2010Prop35
280
     0
102
RTVSPost2010PropOp35
 70
     1
102
RTVSPost2010Prop36
280
     0
102
RTVSPost2010PropOp36
 70
     1
102
RTVSPost2010Prop37
 90
       50
102
RTVSPost2010PropOp37
 70
     1
102
RTVSPost2010Prop38
140
0.0
102
RTVSPost2010PropOp38
 70
     1
102
RTVSPost2010Prop39
140
1.0
102
RTVSPost2010PropOp39
 70
     1
102
RTVSPost2010Prop40
 90
        0
102
RTVSPost2010PropOp40
 70
     1
102
RTVSPost2010Prop41ColorIndex
 90
       18
102
RTVSPost2010Prop41ColorRGB
 90
        0
102
RTVSPost2010PropOp41
 70
     1
102
RTVSPost2010Prop42
 90
       50
102
RTVSPost2010PropOp42
 70
     1
102
RTVSPost2010Prop43
 90
        3
102
RTVSPost2010PropOp43
 70
     1
102
RTVSPost2010Prop44ColorIndex
 90
        5
102
RTVSPost2010Prop44ColorRGB
 90
      255
102
RTVSPost2010PropOp44
 70
     1
102
RTVSPost2010Prop45
280
     0
102
RTVSPost2010PropOp45
 70
     1
102
RTVSPost2010Prop46
 90
       50
102
RTVSPost2010PropOp46
 70
     1
102
RTVSPost2010Prop47
 90
       50
102
RTVSPost2010PropOp47
 70
     1
102
RTVSPost2010Prop48
 90
       50
102
RTVSPost2010PropOp48
 70
     1
102
RTVSPost2010Prop49
280
     0
102
RTVSPost2010PropOp49
 70
     1
102
RTVSPost2010Prop50
 90
       50
102
RTVSPost2010PropOp50
 70
     1
102
RTVSPost2010Prop51ColorIndex
 90
      256
102
RTVSPost2010Prop51ColorRGB
 90
-16777216
102
RTVSPost2010PropOp51
 70
     0
102
RTVSPost2010Prop52
140
1.0
102
RTVSPost2010PropOp52
 70
     0
102
RTVSPost2010Prop53
 90
        2
102
RTVSPost2010PropOp53
 70
     1
102
RTVSPost2010Prop54
  1
strokes_ogs.tif
102
RTVSPost2010PropOp54
 70
     1
102
RTVSPost2010Prop55
280
     0
102
RTVSPost2010PropOp55
 70
     1
102
RTVSPost2010Prop56
140
1.0
102
RTVSPost2010PropOp56
 70
     1
102
RTVSPost2010Prop57
140
1.0
102
RTVSPost2010PropOp57
 70
     1
  0
XRECORD
  5
12F
102
{ACAD_REACTORS
330
12E
102
}
330
12E
100
AcDbXrecord
280
     1
102
RTVSPost2010Prop28
280
     0
102
RTVSPost2010PropOp28
 70
     1
102
RTVSPost2010Prop29
280
     1
102
RTVSPost2010PropOp29
 70
     1
102
RTVSPost2010Prop30
280
     1
102
RTVSPost2010PropOp30
 70
     1
102
RTVSPost2010Prop31
280
     0
102
RTVSPost2010PropOp31
 70
     1
102
RTVSPost2010Prop32
280
     0
102
RTVSPost2010PropOp32
 70
     1
102
RTVSPost2010Prop33
280
     0
102
RTVSPost2010PropOp33
 70
     1
102
RTVSPost2010Prop34
280
     0
102
RTVSPost2010PropOp34
 70
     1
102
RTVSPost2010Prop35
280
     0
102
RTVSPost2010PropOp35
 70
     1
102
RTVSPost2010Prop36
280
     0
102
RTVSPost2010PropOp36
 70
     1
102
RTVSPost2010Prop37
 90
       50
102
RTVSPost2010PropOp37
 70
     1
102
RTVSPost2010Prop38
140
0.0
102
RTVSPost2010PropOp38
 70
     1
102
RTVSPost2010Prop39
140
1.0
102
RTVSPost2010PropOp39
 70
     1
102
RTVSPost2010Prop40
 90
        0
102
RTVSPost2010PropOp40
 70
     1
102
RTVSPost2010Prop41ColorIndex
 90
       18
102
RTVSPost2010Prop41ColorRGB
 90
        0
102
RTVSPost2010PropOp41
 70
     1
102
RTVSPost2010Prop42
 90
       50
102
RTVSPost2010PropOp42
 70
     1
102
RTVSPost2010Prop43
 90
        3
102
RTVSPost2010PropOp43
 70
     1
102
RTVSPost2010Prop44ColorIndex
 90
        5
102
RTVSPost2010Prop44ColorRGB
 90
      255
102
RTVSPost2010PropOp44
 70
     1
102
RTVSPost2010Prop45
280
     0
102
RTVSPost2010PropOp45
 70
     1
102
RTVSPost2010Prop46
 90
       50
102
RTVSPost2010PropOp46
 70
     1
102
RTVSPost2010Prop47
 90
       50
102
RTVSPost2010PropOp47
 70
     1
102
RTVSPost2010Prop48
 90
       50
102
RTVSPost2010PropOp48
 70
     1
102
RTVSPost2010Prop49
280
     0
102
RTVSPost2010PropOp49
 70
     1
102
RTVSPost2010Prop50
 90
       50
102
RTVSPost2010PropOp50
 70
     1
102
RTVSPost2010Prop51ColorIndex
 90
      256
102
RTVSPost2010Prop51ColorRGB
 90
-16777216
102
RTVSPost2010PropOp51
 70
     0
102
RTVSPost2010Prop52
140
1.0
102
RTVSPost2010PropOp52
 70
     0
102
RTVSPost2010Prop53
 90
        2
102
RTVSPost2010PropOp53
 70
     1
102
RTVSPost2010Prop54
  1
strokes_ogs.tif
102
RTVSPost2010PropOp54
 70
     1
102
RTVSPost2010Prop55
280
     0
102
RTVSPost2010PropOp55
 70
     1
102
RTVSPost2010Prop56
140
1.0
102
RTVSPost2010PropOp56
 70
     1
102
RTVSPost2010Prop57
140
1.0
102
RTVSPost2010PropOp57
 70
     1
  0
XRECORD
  5
131
102
{ACAD_REACTORS
330
130
102
}
330
130
100
AcDbXrecord
280
     1
102
RTVSPost2010Prop28
280
     0
102
RTVSPost2010PropOp28
 70
     1
102
RTVSPost2010Prop29
280
     1
102
RTVSPost2010PropOp29
 70
     1
102
RTVSPost2010Prop30
280
     1
102
RTVSPost2010PropOp30
 70
     1
102
RTVSPost2010Prop31
280
     0
102
RTVSPost2010PropOp31
 70
     1
102
RTVSPost2010Prop32
280
     0
102
RTVSPost2010PropOp32
 70
     1
102
RTVSPost2010Prop33
280
     0
102
RTVSPost2010PropOp33
 70
     1
102
RTVSPost2010Prop34
280
     0
102
RTVSPost2010PropOp34
 70
     1
102
RTVSPost2010Prop35
280
     0
102
RTVSPost2010PropOp35
 70
     1
102
RTVSPost2010Prop36
280
     0
102
RTVSPost2010PropOp36
 70
     1
102
RTVSPost2010Prop37
 90
       50
102
RTVSPost2010PropOp37
 70
     1
102
RTVSPost2010Prop38
140
0.0
102
RTVSPost2010PropOp38
 70
     1
102
RTVSPost2010Prop39
140
1.0
102
RTVSPost2010PropOp39
 70
     1
102
RTVSPost2010Prop40
 90
        0
102
RTVSPost2010PropOp40
 70
     1
102
RTVSPost2010Prop41ColorIndex
 90
       18
102
RTVSPost2010Prop41ColorRGB
 90
        0
102
RTVSPost2010PropOp41
 70
     1
102
RTVSPost2010Prop42
 90
       50
102
RTVSPost2010PropOp42
 70
     1
102
RTVSPost2010Prop43
 90
        3
102
RTVSPost2010PropOp43
 70
     1
102
RTVSPost2010Prop44ColorIndex
 90
        5
102
RTVSPost2010Prop44ColorRGB
 90
      255
102
RTVSPost2010PropOp44
 70
     1
102
RTVSPost2010Prop45
280
     0
102
RTVSPost2010PropOp45
 70
     1
102
RTVSPost2010Prop46
 90
       50
102
RTVSPost2010PropOp46
 70
     1
102
RTVSPost2010Prop47
 90
       50
102
RTVSPost2010PropOp47
 70
     1
102
RTVSPost2010Prop48
 90
       50
102
RTVSPost2010PropOp48
 70
     1
102
RTVSPost2010Prop49
280
     0
102
RTVSPost2010PropOp49
 70
     1
102
RTVSPost2010Prop50
 90
       50
102
RTVSPost2010PropOp50
 70
     1
102
RTVSPost2010Prop51ColorIndex
 90
      256
102
RTVSPost2010Prop51ColorRGB
 90
-16777216
102
RTVSPost2010PropOp51
 70
     0
102
RTVSPost2010Prop52
140
1.0
102
RTVSPost2010PropOp52
 70
     0
102
RTVSPost2010Prop53
 90
        2
102
RTVSPost2010PropOp53
 70
     1
102
RTVSPost2010Prop54
  1
strokes_ogs.tif
102
RTVSPost2010PropOp54
 70
     1
102
RTVSPost2010Prop55
280
     0
102
RTVSPost2010PropOp55
 70
     1
102
RTVSPost2010Prop56
140
1.0
102
RTVSPost2010PropOp56
 70
     1
102
RTVSPost2010Prop57
140
1.0
102
RTVSPost2010PropOp57
 70
     1
  0
XRECORD
  5
133
102
{ACAD_REACTORS
330
132
102
}
330
132
100
AcDbXrecord
280
     1
102
RTVSPost2010Prop28
280
     0
102
RTVSPost2010PropOp28
 70
     1
102
RTVSPost2010Prop29
280
     1
102
RTVSPost2010PropOp29
 70
     1
102
RTVSPost2010Prop30
280
     1
102
RTVSPost2010PropOp30
 70
     1
102
RTVSPost2010Prop31
280
     0
102
RTVSPost2010PropOp31
 70
     1
102
RTVSPost2010Prop32
280
     0
102
RTVSPost2010PropOp32
 70
     1
102
RTVSPost2010Prop33
280
     0
102
RTVSPost2010PropOp33
 70
     1
102
RTVSPost2010Prop34
280
     0
102
RTVSPost2010PropOp34
 70
     1
102
RTVSPost2010Prop35
280
     0
102
RTVSPost2010PropOp35
 70
     1
102
RTVSPost2010Prop36
280
     0
102
RTVSPost2010PropOp36
 70
     1
102
RTVSPost2010Prop37
 90
       50
102
RTVSPost2010PropOp37
 70
     1
102
RTVSPost2010Prop38
140
0.0
102
RTVSPost2010PropOp38
 70
     1
102
RTVSPost2010Prop39
140
1.0
102
RTVSPost2010PropOp39
 70
     1
102
RTVSPost2010Prop40
 90
        0
102
RTVSPost2010PropOp40
 70
     1
102
RTVSPost2010Prop41ColorIndex
 90
       18
102
RTVSPost2010Prop41ColorRGB
 90
        0
102
RTVSPost2010PropOp41
 70
     1
102
RTVSPost2010Prop42
 90
       50
102
RTVSPost2010PropOp42
 70
     1
102
RTVSPost2010Prop43
 90
        3
102
RTVSPost2010PropOp43
 70
     1
102
RTVSPost2010Prop44ColorIndex
 90
        5
102
RTVSPost2010Prop44ColorRGB
 90
      255
102
RTVSPost2010PropOp44
 70
     1
102
RTVSPost2010Prop45
280
     0
102
RTVSPost2010PropOp45
 70
     1
102
RTVSPost2010Prop46
 90
       50
102
RTVSPost2010PropOp46
 70
     1
102
RTVSPost2010Prop47
 90
       50
102
RTVSPost2010PropOp47
 70
     1
102
RTVSPost2010Prop48
 90
       50
102
RTVSPost2010PropOp48
 70
     1
102
RTVSPost2010Prop49
280
     0
102
RTVSPost2010PropOp49
 70
     1
102
RTVSPost2010Prop50
 90
       50
102
RTVSPost2010PropOp50
 70
     1
102
RTVSPost2010Prop51ColorIndex
 90
      256
102
RTVSPost2010Prop51ColorRGB
 90
-16777216
102
RTVSPost2010PropOp51
 70
     0
102
RTVSPost2010Prop52
140
1.0
102
RTVSPost2010PropOp52
 70
     0
102
RTVSPost2010Prop53
 90
        2
102
RTVSPost2010PropOp53
 70
     1
102
RTVSPost2010Prop54
  1
strokes_ogs.tif
102
RTVSPost2010PropOp54
 70
     1
102
RTVSPost2010Prop55
280
     0
102
RTVSPost2010PropOp55
 70
     1
102
RTVSPost2010Prop56
140
1.0
102
RTVSPost2010PropOp56
 70
     1
102
RTVSPost2010Prop57
140
1.0
102
RTVSPost2010PropOp57
 70
     1
  0
XRECORD
  5
13B
102
{ACAD_REACTORS
330
13A
102
}
330
13A
100
AcDbXrecord
280
     1
102
RTVSPost2010Prop28
280
     0
102
RTVSPost2010PropOp28
 70
     1
102
RTVSPost2010Prop29
280
     1
102
RTVSPost2010PropOp29
 70
     1
102
RTVSPost2010Prop30
280
     1
102
RTVSPost2010PropOp30
 70
     1
102
RTVSPost2010Prop31
280
     0
102
RTVSPost2010PropOp31
 70
     1
102
RTVSPost2010Prop32
280
     0
102
RTVSPost2010PropOp32
 70
     1
102
RTVSPost2010Prop33
280
     0
102
RTVSPost2010PropOp33
 70
     1
102
RTVSPost2010Prop34
280
     0
102
RTVSPost2010PropOp34
 70
     1
102
RTVSPost2010Prop35
280
     0
102
RTVSPost2010PropOp35
 70
     1
102
RTVSPost2010Prop36
280
     0
102
RTVSPost2010PropOp36
 70
     1
102
RTVSPost2010Prop37
 90
       50
102
RTVSPost2010PropOp37
 70
     1
102
RTVSPost2010Prop38
140
0.0
102
RTVSPost2010PropOp38
 70
     1
102
RTVSPost2010Prop39
140
1.0
102
RTVSPost2010PropOp39
 70
     1
102
RTVSPost2010Prop40
 90
        0
102
RTVSPost2010PropOp40
 70
     1
102
RTVSPost2010Prop41ColorIndex
 90
       18
102
RTVSPost2010Prop41ColorRGB
 90
        0
102
RTVSPost2010PropOp41
 70
     1
102
RTVSPost2010Prop42
 90
       50
102
RTVSPost2010PropOp42
 70
     1
102
RTVSPost2010Prop43
 90
        3
102
RTVSPost2010PropOp43
 70
     1
102
RTVSPost2010Prop44ColorIndex
 90
        5
102
RTVSPost2010Prop44ColorRGB
 90
      255
102
RTVSPost2010PropOp44
 70
     1
102
RTVSPost2010Prop45
280
     0
102
RTVSPost2010PropOp45
 70
     1
102
RTVSPost2010Prop46
 90
       50
102
RTVSPost2010PropOp46
 70
     1
102
RTVSPost2010Prop47
 90
       50
102
RTVSPost2010PropOp47
 70
     1
102
RTVSPost2010Prop48
 90
       50
102
RTVSPost2010PropOp48
 70
     1
102
RTVSPost2010Prop49
280
     0
102
RTVSPost2010PropOp49
 70
     1
102
RTVSPost2010Prop50
 90
       50
102
RTVSPost2010PropOp50
 70
     1
102
RTVSPost2010Prop51ColorIndex
 90
      256
102
RTVSPost2010Prop51ColorRGB
 90
-16777216
102
RTVSPost2010PropOp51
 70
     0
102
RTVSPost2010Prop52
140
1.0
102
RTVSPost2010PropOp52
 70
     0
102
RTVSPost2010Prop53
 90
        2
102
RTVSPost2010PropOp53
 70
     1
102
RTVSPost2010Prop54
  1
strokes_ogs.tif
102
RTVSPost2010PropOp54
 70
     1
102
RTVSPost2010Prop55
280
     0
102
RTVSPost2010PropOp55
 70
     1
102
RTVSPost2010Prop56
140
1.0
102
RTVSPost2010PropOp56
 70
     1
102
RTVSPost2010Prop57
140
1.0
102
RTVSPost2010PropOp57
 70
     1
  0
XRECORD
  5
157
102
{ACAD_REACTORS
330
156
102
}
330
156
100
AcDbXrecord
280
     1
102
RTVSPost2010Prop28
280
     0
102
RTVSPost2010PropOp28
 70
     0
102
RTVSPost2010Prop29
280
     1
102
RTVSPost2010PropOp29
 70
     0
102
RTVSPost2010Prop30
280
     1
102
RTVSPost2010PropOp30
 70
     0
102
RTVSPost2010Prop31
280
     0
102
RTVSPost2010PropOp31
 70
     0
102
RTVSPost2010Prop32
280
     0
102
RTVSPost2010PropOp32
 70
     0
102
RTVSPost2010Prop33
280
     0
102
RTVSPost2010PropOp33
 70
     0
102
RTVSPost2010Prop34
280
     0
102
RTVSPost2010PropOp34
 70
     0
102
RTVSPost2010Prop35
280
     0
102
RTVSPost2010PropOp35
 70
     0
102
RTVSPost2010Prop36
280
     0
102
RTVSPost2010PropOp36
 70
     0
102
RTVSPost2010Prop37
 90
       50
102
RTVSPost2010PropOp37
 70
     0
102
RTVSPost2010Prop38
140
0.0
102
RTVSPost2010PropOp38
 70
     0
102
RTVSPost2010Prop39
140
1.0
102
RTVSPost2010PropOp39
 70
     0
102
RTVSPost2010Prop40
 90
        0
102
RTVSPost2010PropOp40
 70
     0
102
RTVSPost2010Prop41ColorIndex
 90
       18
102
RTVSPost2010Prop41ColorRGB
 90
        0
102
RTVSPost2010PropOp41
 70
     0
102
RTVSPost2010Prop42
 90
       50
102
RTVSPost2010PropOp42
 70
     0
102
RTVSPost2010Prop43
 90
        3
102
RTVSPost2010PropOp43
 70
     0
102
RTVSPost2010Prop44ColorIndex
 90
        5
102
RTVSPost2010Prop44ColorRGB
 90
      255
102
RTVSPost2010PropOp44
 70
     0
102
RTVSPost2010Prop45
280
     0
102
RTVSPost2010PropOp45
 70
     0
102
RTVSPost2010Prop46
 90
       50
102
RTVSPost2010PropOp46
 70
     0
102
RTVSPost2010Prop47
 90
       50
102
RTVSPost2010PropOp47
 70
     0
102
RTVSPost2010Prop48
 90
       50
102
RTVSPost2010PropOp48
 70
     0
102
RTVSPost2010Prop49
280
     0
102
RTVSPost2010PropOp49
 70
     0
102
RTVSPost2010Prop50
 90
       50
102
RTVSPost2010PropOp50
 70
     0
102
RTVSPost2010Prop51ColorIndex
 90
      256
102
RTVSPost2010Prop51ColorRGB
 90
-16777216
102
RTVSPost2010PropOp51
 70
     0
102
RTVSPost2010Prop52
140
1.0
102
RTVSPost2010PropOp52
 70
     0
102
RTVSPost2010Prop53
 90
        2
102
RTVSPost2010PropOp53
 70
     0
102
RTVSPost2010Prop54
  1
strokes_ogs.tif
102
RTVSPost2010PropOp54
 70
     0
102
RTVSPost2010Prop55
280
     0
102
RTVSPost2010PropOp55
 70
     0
102
RTVSPost2010Prop56
140
1.0
102
RTVSPost2010PropOp56
 70
     0
102
RTVSPost2010Prop57
140
1.0
102
RTVSPost2010PropOp57
 70
     0
  0
XRECORD
  5
147
102
{ACAD_REACTORS
330
146
102
}
330
146
100
AcDbXrecord
280
     1
102
RTVSPost2010Prop28
280
     0
102
RTVSPost2010PropOp28
 70
     1
102
RTVSPost2010Prop29
280
     1
102
RTVSPost2010PropOp29
 70
     1
102
RTVSPost2010Prop30
280
     1
102
RTVSPost2010PropOp30
 70
     1
102
RTVSPost2010Prop31
280
     0
102
RTVSPost2010PropOp31
 70
     1
102
RTVSPost2010Prop32
280
     0
102
RTVSPost2010PropOp32
 70
     1
102
RTVSPost2010Prop33
280
     0
102
RTVSPost2010PropOp33
 70
     1
102
RTVSPost2010Prop34
280
     0
102
RTVSPost2010PropOp34
 70
     1
102
RTVSPost2010Prop35
280
     0
102
RTVSPost2010PropOp35
 70
     1
102
RTVSPost2010Prop36
280
     0
102
RTVSPost2010PropOp36
 70
     1
102
RTVSPost2010Prop37
 90
       50
102
RTVSPost2010PropOp37
 70
     1
102
RTVSPost2010Prop38
140
0.0
102
RTVSPost2010PropOp38
 70
     1
102
RTVSPost2010Prop39
140
1.0
102
RTVSPost2010PropOp39
 70
     1
102
RTVSPost2010Prop40
 90
        0
102
RTVSPost2010PropOp40
 70
     1
102
RTVSPost2010Prop41ColorIndex
 90
       18
102
RTVSPost2010Prop41ColorRGB
 90
        0
102
RTVSPost2010PropOp41
 70
     1
102
RTVSPost2010Prop42
 90
       50
102
RTVSPost2010PropOp42
 70
     1
102
RTVSPost2010Prop43
 90
        3
102
RTVSPost2010PropOp43
 70
     1
102
RTVSPost2010Prop44ColorIndex
 90
        5
102
RTVSPost2010Prop44ColorRGB
 90
      255
102
RTVSPost2010PropOp44
 70
     1
102
RTVSPost2010Prop45
280
     0
102
RTVSPost2010PropOp45
 70
     1
102
RTVSPost2010Prop46
 90
       50
102
RTVSPost2010PropOp46
 70
     1
102
RTVSPost2010Prop47
 90
       50
102
RTVSPost2010PropOp47
 70
     1
102
RTVSPost2010Prop48
 90
       50
102
RTVSPost2010PropOp48
 70
     1
102
RTVSPost2010Prop49
280
     0
102
RTVSPost2010PropOp49
 70
     1
102
RTVSPost2010Prop50
 90
       50
102
RTVSPost2010PropOp50
 70
     1
102
RTVSPost2010Prop51ColorIndex
 90
      256
102
RTVSPost2010Prop51ColorRGB
 90
-16777216
102
RTVSPost2010PropOp51
 70
     0
102
RTVSPost2010Prop52
140
1.0
102
RTVSPost2010PropOp52
 70
     0
102
RTVSPost2010Prop53
 90
        2
102
RTVSPost2010PropOp53
 70
     1
102
RTVSPost2010Prop54
  1
strokes_ogs.tif
102
RTVSPost2010PropOp54
 70
     1
102
RTVSPost2010Prop55
280
     0
102
RTVSPost2010PropOp55
 70
     1
102
RTVSPost2010Prop56
140
1.0
102
RTVSPost2010PropOp56
 70
     1
102
RTVSPost2010Prop57
140
1.0
102
RTVSPost2010PropOp57
 70
     1
  0
XRECORD
  5
159
102
{ACAD_REACTORS
330
158
102
}
330
158
100
AcDbXrecord
280
     1
102
RTVSPost2010Prop28
280
     0
102
RTVSPost2010PropOp28
 70
     0
102
RTVSPost2010Prop29
280
     1
102
RTVSPost2010PropOp29
 70
     0
102
RTVSPost2010Prop30
280
     1
102
RTVSPost2010PropOp30
 70
     0
102
RTVSPost2010Prop31
280
     0
102
RTVSPost2010PropOp31
 70
     0
102
RTVSPost2010Prop32
280
     0
102
RTVSPost2010PropOp32
 70
     0
102
RTVSPost2010Prop33
280
     0
102
RTVSPost2010PropOp33
 70
     0
102
RTVSPost2010Prop34
280
     0
102
RTVSPost2010PropOp34
 70
     0
102
RTVSPost2010Prop35
280
     0
102
RTVSPost2010PropOp35
 70
     0
102
RTVSPost2010Prop36
280
     0
102
RTVSPost2010PropOp36
 70
     0
102
RTVSPost2010Prop37
 90
       50
102
RTVSPost2010PropOp37
 70
     0
102
RTVSPost2010Prop38
140
0.0
102
RTVSPost2010PropOp38
 70
     0
102
RTVSPost2010Prop39
140
1.0
102
RTVSPost2010PropOp39
 70
     0
102
RTVSPost2010Prop40
 90
        0
102
RTVSPost2010PropOp40
 70
     0
102
RTVSPost2010Prop41ColorIndex
 90
       18
102
RTVSPost2010Prop41ColorRGB
 90
        0
102
RTVSPost2010PropOp41
 70
     0
102
RTVSPost2010Prop42
 90
       50
102
RTVSPost2010PropOp42
 70
     0
102
RTVSPost2010Prop43
 90
        3
102
RTVSPost2010PropOp43
 70
     0
102
RTVSPost2010Prop44ColorIndex
 90
        5
102
RTVSPost2010Prop44ColorRGB
 90
      255
102
RTVSPost2010PropOp44
 70
     0
102
RTVSPost2010Prop45
280
     0
102
RTVSPost2010PropOp45
 70
     0
102
RTVSPost2010Prop46
 90
       50
102
RTVSPost2010PropOp46
 70
     0
102
RTVSPost2010Prop47
 90
       50
102
RTVSPost2010PropOp47
 70
     0
102
RTVSPost2010Prop48
 90
       50
102
RTVSPost2010PropOp48
 70
     0
102
RTVSPost2010Prop49
280
     0
102
RTVSPost2010PropOp49
 70
     0
102
RTVSPost2010Prop50
 90
       50
102
RTVSPost2010PropOp50
 70
     0
102
RTVSPost2010Prop51ColorIndex
 90
      256
102
RTVSPost2010Prop51ColorRGB
 90
-16777216
102
RTVSPost2010PropOp51
 70
     0
102
RTVSPost2010Prop52
140
1.0
102
RTVSPost2010PropOp52
 70
     0
102
RTVSPost2010Prop53
 90
        2
102
RTVSPost2010PropOp53
 70
     0
102
RTVSPost2010Prop54
  1
strokes_ogs.tif
102
RTVSPost2010PropOp54
 70
     0
102
RTVSPost2010Prop55
280
     0
102
RTVSPost2010PropOp55
 70
     0
102
RTVSPost2010Prop56
140
1.0
102
RTVSPost2010PropOp56
 70
     0
102
RTVSPost2010Prop57
140
1.0
102
RTVSPost2010PropOp57
 70
     0
  0
XRECORD
  5
13F
102
{ACAD_REACTORS
330
13E
102
}
330
13E
100
AcDbXrecord
280
     1
102
RTVSPost2010Prop28
280
     0
102
RTVSPost2010PropOp28
 70
     1
102
RTVSPost2010Prop29
280
     1
102
RTVSPost2010PropOp29
 70
     1
102
RTVSPost2010Prop30
280
     1
102
RTVSPost2010PropOp30
 70
     1
102
RTVSPost2010Prop31
280
     0
102
RTVSPost2010PropOp31
 70
     1
102
RTVSPost2010Prop32
280
     0
102
RTVSPost2010PropOp32
 70
     1
102
RTVSPost2010Prop33
280
     0
102
RTVSPost2010PropOp33
 70
     1
102
RTVSPost2010Prop34
280
     0
102
RTVSPost2010PropOp34
 70
     1
102
RTVSPost2010Prop35
280
     0
102
RTVSPost2010PropOp35
 70
     1
102
RTVSPost2010Prop36
280
     0
102
RTVSPost2010PropOp36
 70
     1
102
RTVSPost2010Prop37
 90
       50
102
RTVSPost2010PropOp37
 70
     1
102
RTVSPost2010Prop38
140
0.0
102
RTVSPost2010PropOp38
 70
     1
102
RTVSPost2010Prop39
140
1.0
102
RTVSPost2010PropOp39
 70
     1
102
RTVSPost2010Prop40
 90
        0
102
RTVSPost2010PropOp40
 70
     1
102
RTVSPost2010Prop41ColorIndex
 90
       18
102
RTVSPost2010Prop41ColorRGB
 90
        0
102
RTVSPost2010PropOp41
 70
     1
102
RTVSPost2010Prop42
 90
       50
102
RTVSPost2010PropOp42
 70
     1
102
RTVSPost2010Prop43
 90
        3
102
RTVSPost2010PropOp43
 70
     1
102
RTVSPost2010Prop44ColorIndex
 90
        5
102
RTVSPost2010Prop44ColorRGB
 90
      255
102
RTVSPost2010PropOp44
 70
     1
102
RTVSPost2010Prop45
280
     0
102
RTVSPost2010PropOp45
 70
     1
102
RTVSPost2010Prop46
 90
       50
102
RTVSPost2010PropOp46
 70
     1
102
RTVSPost2010Prop47
 90
       50
102
RTVSPost2010PropOp47
 70
     1
102
RTVSPost2010Prop48
 90
       50
102
RTVSPost2010PropOp48
 70
     1
102
RTVSPost2010Prop49
280
     0
102
RTVSPost2010PropOp49
 70
     1
102
RTVSPost2010Prop50
 90
       50
102
RTVSPost2010PropOp50
 70
     1
102
RTVSPost2010Prop51ColorIndex
 90
      256
102
RTVSPost2010Prop51ColorRGB
 90
-16777216
102
RTVSPost2010PropOp51
 70
     0
102
RTVSPost2010Prop52
140
1.0
102
RTVSPost2010PropOp52
 70
     0
102
RTVSPost2010Prop53
 90
        2
102
RTVSPost2010PropOp53
 70
     1
102
RTVSPost2010Prop54
  1
strokes_ogs.tif
102
RTVSPost2010PropOp54
 70
     1
102
RTVSPost2010Prop55
280
     0
102
RTVSPost2010PropOp55
 70
     1
102
RTVSPost2010Prop56
140
1.0
102
RTVSPost2010PropOp56
 70
     1
102
RTVSPost2010Prop57
140
1.0
102
RTVSPost2010PropOp57
 70
     1
  0
XRECORD
  5
155
102
{ACAD_REACTORS
330
154
102
}
330
154
100
AcDbXrecord
280
     1
102
RTVSPost2010Prop28
280
     0
102
RTVSPost2010PropOp28
 70
     1
102
RTVSPost2010Prop29
280
     1
102
RTVSPost2010PropOp29
 70
     1
102
RTVSPost2010Prop30
280
     1
102
RTVSPost2010PropOp30
 70
     1
102
RTVSPost2010Prop31
280
     0
102
RTVSPost2010PropOp31
 70
     1
102
RTVSPost2010Prop32
280
     0
102
RTVSPost2010PropOp32
 70
     1
102
RTVSPost2010Prop33
280
     0
102
RTVSPost2010PropOp33
 70
     1
102
RTVSPost2010Prop34
280
     0
102
RTVSPost2010PropOp34
 70
     1
102
RTVSPost2010Prop35
280
     0
102
RTVSPost2010PropOp35
 70
     1
102
RTVSPost2010Prop36
280
     0
102
RTVSPost2010PropOp36
 70
     1
102
RTVSPost2010Prop37
 90
       50
102
RTVSPost2010PropOp37
 70
     1
102
RTVSPost2010Prop38
140
0.0
102
RTVSPost2010PropOp38
 70
     1
102
RTVSPost2010Prop39
140
1.0
102
RTVSPost2010PropOp39
 70
     1
102
RTVSPost2010Prop40
 90
        0
102
RTVSPost2010PropOp40
 70
     1
102
RTVSPost2010Prop41ColorIndex
 90
       18
102
RTVSPost2010Prop41ColorRGB
 90
        0
102
RTVSPost2010PropOp41
 70
     1
102
RTVSPost2010Prop42
 90
       50
102
RTVSPost2010PropOp42
 70
     1
102
RTVSPost2010Prop43
 90
        3
102
RTVSPost2010PropOp43
 70
     1
102
RTVSPost2010Prop44ColorIndex
 90
        5
102
RTVSPost2010Prop44ColorRGB
 90
      255
102
RTVSPost2010PropOp44
 70
     1
102
RTVSPost2010Prop45
280
     0
102
RTVSPost2010PropOp45
 70
     1
102
RTVSPost2010Prop46
 90
       50
102
RTVSPost2010PropOp46
 70
     1
102
RTVSPost2010Prop47
 90
       50
102
RTVSPost2010PropOp47
 70
     1
102
RTVSPost2010Prop48
 90
       50
102
RTVSPost2010PropOp48
 70
     1
102
RTVSPost2010Prop49
280
     0
102
RTVSPost2010PropOp49
 70
     1
102
RTVSPost2010Prop50
 90
       50
102
RTVSPost2010PropOp50
 70
     1
102
RTVSPost2010Prop51ColorIndex
 90
      256
102
RTVSPost2010Prop51ColorRGB
 90
-16777216
102
RTVSPost2010PropOp51
 70
     0
102
RTVSPost2010Prop52
140
1.0
102
RTVSPost2010PropOp52
 70
     0
102
RTVSPost2010Prop53
 90
        2
102
RTVSPost2010PropOp53
 70
     1
102
RTVSPost2010Prop54
  1
strokes_ogs.tif
102
RTVSPost2010PropOp54
 70
     1
102
RTVSPost2010Prop55
280
     0
102
RTVSPost2010PropOp55
 70
     1
102
RTVSPost2010Prop56
140
1.0
102
RTVSPost2010PropOp56
 70
     1
102
RTVSPost2010Prop57
140
1.0
102
RTVSPost2010PropOp57
 70
     1
  0
XRECORD
  5
153
102
{ACAD_REACTORS
330
152
102
}
330
152
100
AcDbXrecord
280
     1
102
RTVSPost2010Prop28
280
     0
102
RTVSPost2010PropOp28
 70
     1
102
RTVSPost2010Prop29
280
     1
102
RTVSPost2010PropOp29
 70
     1
102
RTVSPost2010Prop30
280
     1
102
RTVSPost2010PropOp30
 70
     1
102
RTVSPost2010Prop31
280
     0
102
RTVSPost2010PropOp31
 70
     1
102
RTVSPost2010Prop32
280
     0
102
RTVSPost2010PropOp32
 70
     1
102
RTVSPost2010Prop33
280
     0
102
RTVSPost2010PropOp33
 70
     1
102
RTVSPost2010Prop34
280
     0
102
RTVSPost2010PropOp34
 70
     1
102
RTVSPost2010Prop35
280
     0
102
RTVSPost2010PropOp35
 70
     1
102
RTVSPost2010Prop36
280
     0
102
RTVSPost2010PropOp36
 70
     1
102
RTVSPost2010Prop37
 90
       50
102
RTVSPost2010PropOp37
 70
     1
102
RTVSPost2010Prop38
140
0.0
102
RTVSPost2010PropOp38
 70
     1
102
RTVSPost2010Prop39
140
1.0
102
RTVSPost2010PropOp39
 70
     1
102
RTVSPost2010Prop40
 90
        0
102
RTVSPost2010PropOp40
 70
     1
102
RTVSPost2010Prop41ColorIndex
 90
       18
102
RTVSPost2010Prop41ColorRGB
 90
        0
102
RTVSPost2010PropOp41
 70
     1
102
RTVSPost2010Prop42
 90
       50
102
RTVSPost2010PropOp42
 70
     1
102
RTVSPost2010Prop43
 90
        3
102
RTVSPost2010PropOp43
 70
     1
102
RTVSPost2010Prop44ColorIndex
 90
        5
102
RTVSPost2010Prop44ColorRGB
 90
      255
102
RTVSPost2010PropOp44
 70
     1
102
RTVSPost2010Prop45
280
     0
102
RTVSPost2010PropOp45
 70
     1
102
RTVSPost2010Prop46
 90
       50
102
RTVSPost2010PropOp46
 70
     1
102
RTVSPost2010Prop47
 90
       50
102
RTVSPost2010PropOp47
 70
     1
102
RTVSPost2010Prop48
 90
       50
102
RTVSPost2010PropOp48
 70
     1
102
RTVSPost2010Prop49
280
     0
102
RTVSPost2010PropOp49
 70
     1
102
RTVSPost2010Prop50
 90
       50
102
RTVSPost2010PropOp50
 70
     1
102
RTVSPost2010Prop51ColorIndex
 90
      256
102
RTVSPost2010Prop51ColorRGB
 90
-16777216
102
RTVSPost2010PropOp51
 70
     0
102
RTVSPost2010Prop52
140
1.0
102
RTVSPost2010PropOp52
 70
     0
102
RTVSPost2010Prop53
 90
        2
102
RTVSPost2010PropOp53
 70
     1
102
RTVSPost2010Prop54
  1
strokes_ogs.tif
102
RTVSPost2010PropOp54
 70
     1
102
RTVSPost2010Prop55
280
     0
102
RTVSPost2010PropOp55
 70
     1
102
RTVSPost2010Prop56
140
1.0
102
RTVSPost2010PropOp56
 70
     1
102
RTVSPost2010Prop57
140
1.0
102
RTVSPost2010PropOp57
 70
     1
  0
XRECORD
  5
14D
102
{ACAD_REACTORS
330
14C
102
}
330
14C
100
AcDbXrecord
280
     1
102
RTVSPost2010Prop28
280
     0
102
RTVSPost2010PropOp28
 70
     1
102
RTVSPost2010Prop29
280
     1
102
RTVSPost2010PropOp29
 70
     1
102
RTVSPost2010Prop30
280
     1
102
RTVSPost2010PropOp30
 70
     1
102
RTVSPost2010Prop31
280
     0
102
RTVSPost2010PropOp31
 70
     1
102
RTVSPost2010Prop32
280
     0
102
RTVSPost2010PropOp32
 70
     1
102
RTVSPost2010Prop33
280
     0
102
RTVSPost2010PropOp33
 70
     1
102
RTVSPost2010Prop34
280
     0
102
RTVSPost2010PropOp34
 70
     1
102
RTVSPost2010Prop35
280
     0
102
RTVSPost2010PropOp35
 70
     1
102
RTVSPost2010Prop36
280
     0
102
RTVSPost2010PropOp36
 70
     1
102
RTVSPost2010Prop37
 90
       50
102
RTVSPost2010PropOp37
 70
     1
102
RTVSPost2010Prop38
140
0.0
102
RTVSPost2010PropOp38
 70
     1
102
RTVSPost2010Prop39
140
1.0
102
RTVSPost2010PropOp39
 70
     1
102
RTVSPost2010Prop40
 90
        0
102
RTVSPost2010PropOp40
 70
     1
102
RTVSPost2010Prop41ColorIndex
 90
       18
102
RTVSPost2010Prop41ColorRGB
 90
        0
102
RTVSPost2010PropOp41
 70
     1
102
RTVSPost2010Prop42
 90
       50
102
RTVSPost2010PropOp42
 70
     1
102
RTVSPost2010Prop43
 90
        3
102
RTVSPost2010PropOp43
 70
     1
102
RTVSPost2010Prop44ColorIndex
 90
        5
102
RTVSPost2010Prop44ColorRGB
 90
      255
102
RTVSPost2010PropOp44
 70
     1
102
RTVSPost2010Prop45
280
     0
102
RTVSPost2010PropOp45
 70
     1
102
RTVSPost2010Prop46
 90
       50
102
RTVSPost2010PropOp46
 70
     1
102
RTVSPost2010Prop47
 90
       50
102
RTVSPost2010PropOp47
 70
     1
102
RTVSPost2010Prop48
 90
       50
102
RTVSPost2010PropOp48
 70
     1
102
RTVSPost2010Prop49
280
     0
102
RTVSPost2010PropOp49
 70
     1
102
RTVSPost2010Prop50
 90
       50
102
RTVSPost2010PropOp50
 70
     1
102
RTVSPost2010Prop51ColorIndex
 90
      256
102
RTVSPost2010Prop51ColorRGB
 90
-16777216
102
RTVSPost2010PropOp51
 70
     0
102
RTVSPost2010Prop52
140
1.0
102
RTVSPost2010PropOp52
 70
     0
102
RTVSPost2010Prop53
 90
        2
102
RTVSPost2010PropOp53
 70
     1
102
RTVSPost2010Prop54
  1
strokes_ogs.tif
102
RTVSPost2010PropOp54
 70
     1
102
RTVSPost2010Prop55
280
     0
102
RTVSPost2010PropOp55
 70
     1
102
RTVSPost2010Prop56
140
1.0
102
RTVSPost2010PropOp56
 70
     1
102
RTVSPost2010Prop57
140
1.0
102
RTVSPost2010PropOp57
 70
     1
  0
XRECORD
  5
14F
102
{ACAD_REACTORS
330
14E
102
}
330
14E
100
AcDbXrecord
280
     1
102
RTVSPost2010Prop28
280
     0
102
RTVSPost2010PropOp28
 70
     1
102
RTVSPost2010Prop29
280
     1
102
RTVSPost2010PropOp29
 70
     1
102
RTVSPost2010Prop30
280
     1
102
RTVSPost2010PropOp30
 70
     1
102
RTVSPost2010Prop31
280
     0
102
RTVSPost2010PropOp31
 70
     1
102
RTVSPost2010Prop32
280
     0
102
RTVSPost2010PropOp32
 70
     1
102
RTVSPost2010Prop33
280
     0
102
RTVSPost2010PropOp33
 70
     1
102
RTVSPost2010Prop34
280
     0
102
RTVSPost2010PropOp34
 70
     1
102
RTVSPost2010Prop35
280
     0
102
RTVSPost2010PropOp35
 70
     1
102
RTVSPost2010Prop36
280
     0
102
RTVSPost2010PropOp36
 70
     1
102
RTVSPost2010Prop37
 90
       50
102
RTVSPost2010PropOp37
 70
     1
102
RTVSPost2010Prop38
140
0.0
102
RTVSPost2010PropOp38
 70
     1
102
RTVSPost2010Prop39
140
1.0
102
RTVSPost2010PropOp39
 70
     1
102
RTVSPost2010Prop40
 90
        0
102
RTVSPost2010PropOp40
 70
     1
102
RTVSPost2010Prop41ColorIndex
 90
       18
102
RTVSPost2010Prop41ColorRGB
 90
        0
102
RTVSPost2010PropOp41
 70
     1
102
RTVSPost2010Prop42
 90
       50
102
RTVSPost2010PropOp42
 70
     1
102
RTVSPost2010Prop43
 90
        3
102
RTVSPost2010PropOp43
 70
     1
102
RTVSPost2010Prop44ColorIndex
 90
        5
102
RTVSPost2010Prop44ColorRGB
 90
      255
102
RTVSPost2010PropOp44
 70
     1
102
RTVSPost2010Prop45
280
     0
102
RTVSPost2010PropOp45
 70
     1
102
RTVSPost2010Prop46
 90
       50
102
RTVSPost2010PropOp46
 70
     1
102
RTVSPost2010Prop47
 90
       50
102
RTVSPost2010PropOp47
 70
     1
102
RTVSPost2010Prop48
 90
       50
102
RTVSPost2010PropOp48
 70
     1
102
RTVSPost2010Prop49
280
     0
102
RTVSPost2010PropOp49
 70
     1
102
RTVSPost2010Prop50
 90
       50
102
RTVSPost2010PropOp50
 70
     1
102
RTVSPost2010Prop51ColorIndex
 90
      256
102
RTVSPost2010Prop51ColorRGB
 90
-16777216
102
RTVSPost2010PropOp51
 70
     0
102
RTVSPost2010Prop52
140
1.0
102
RTVSPost2010PropOp52
 70
     0
102
RTVSPost2010Prop53
 90
        2
102
RTVSPost2010PropOp53
 70
     1
102
RTVSPost2010Prop54
  1
strokes_ogs.tif
102
RTVSPost2010PropOp54
 70
     1
102
RTVSPost2010Prop55
280
     0
102
RTVSPost2010PropOp55
 70
     1
102
RTVSPost2010Prop56
140
1.0
102
RTVSPost2010PropOp56
 70
     1
102
RTVSPost2010Prop57
140
1.0
102
RTVSPost2010PropOp57
 70
     1
  0
XRECORD
  5
145
102
{ACAD_REACTORS
330
144
102
}
330
144
100
AcDbXrecord
280
     1
102
RTVSPost2010Prop28
280
     0
102
RTVSPost2010PropOp28
 70
     1
102
RTVSPost2010Prop29
280
     1
102
RTVSPost2010PropOp29
 70
     1
102
RTVSPost2010Prop30
280
     1
102
RTVSPost2010PropOp30
 70
     1
102
RTVSPost2010Prop31
280
     0
102
RTVSPost2010PropOp31
 70
     1
102
RTVSPost2010Prop32
280
     0
102
RTVSPost2010PropOp32
 70
     1
102
RTVSPost2010Prop33
280
     0
102
RTVSPost2010PropOp33
 70
     1
102
RTVSPost2010Prop34
280
     0
102
RTVSPost2010PropOp34
 70
     1
102
RTVSPost2010Prop35
280
     0
102
RTVSPost2010PropOp35
 70
     1
102
RTVSPost2010Prop36
280
     0
102
RTVSPost2010PropOp36
 70
     1
102
RTVSPost2010Prop37
 90
       50
102
RTVSPost2010PropOp37
 70
     1
102
RTVSPost2010Prop38
140
0.0
102
RTVSPost2010PropOp38
 70
     1
102
RTVSPost2010Prop39
140
1.0
102
RTVSPost2010PropOp39
 70
     1
102
RTVSPost2010Prop40
 90
        0
102
RTVSPost2010PropOp40
 70
     1
102
RTVSPost2010Prop41ColorIndex
 90
       18
102
RTVSPost2010Prop41ColorRGB
 90
        0
102
RTVSPost2010PropOp41
 70
     1
102
RTVSPost2010Prop42
 90
       50
102
RTVSPost2010PropOp42
 70
     1
102
RTVSPost2010Prop43
 90
        3
102
RTVSPost2010PropOp43
 70
     1
102
RTVSPost2010Prop44ColorIndex
 90
        5
102
RTVSPost2010Prop44ColorRGB
 90
      255
102
RTVSPost2010PropOp44
 70
     1
102
RTVSPost2010Prop45
280
     0
102
RTVSPost2010PropOp45
 70
     1
102
RTVSPost2010Prop46
 90
       50
102
RTVSPost2010PropOp46
 70
     1
102
RTVSPost2010Prop47
 90
       50
102
RTVSPost2010PropOp47
 70
     1
102
RTVSPost2010Prop48
 90
       50
102
RTVSPost2010PropOp48
 70
     1
102
RTVSPost2010Prop49
280
     0
102
RTVSPost2010PropOp49
 70
     1
102
RTVSPost2010Prop50
 90
       50
102
RTVSPost2010PropOp50
 70
     1
102
RTVSPost2010Prop51ColorIndex
 90
      256
102
RTVSPost2010Prop51ColorRGB
 90
-16777216
102
RTVSPost2010PropOp51
 70
     0
102
RTVSPost2010Prop52
140
1.0
102
RTVSPost2010PropOp52
 70
     0
102
RTVSPost2010Prop53
 90
        2
102
RTVSPost2010PropOp53
 70
     1
102
RTVSPost2010Prop54
  1
strokes_ogs.tif
102
RTVSPost2010PropOp54
 70
     1
102
RTVSPost2010Prop55
280
     0
102
RTVSPost2010PropOp55
 70
     1
102
RTVSPost2010Prop56
140
1.0
102
RTVSPost2010PropOp56
 70
     1
102
RTVSPost2010Prop57
140
1.0
102
RTVSPost2010PropOp57
 70
     1
  0
XRECORD
  5
139
102
{ACAD_REACTORS
330
138
102
}
330
138
100
AcDbXrecord
280
     1
102
RTVSPost2010Prop28
280
     0
102
RTVSPost2010PropOp28
 70
     1
102
RTVSPost2010Prop29
280
     1
102
RTVSPost2010PropOp29
 70
     1
102
RTVSPost2010Prop30
280
     1
102
RTVSPost2010PropOp30
 70
     1
102
RTVSPost2010Prop31
280
     0
102
RTVSPost2010PropOp31
 70
     1
102
RTVSPost2010Prop32
280
     0
102
RTVSPost2010PropOp32
 70
     1
102
RTVSPost2010Prop33
280
     0
102
RTVSPost2010PropOp33
 70
     1
102
RTVSPost2010Prop34
280
     0
102
RTVSPost2010PropOp34
 70
     1
102
RTVSPost2010Prop35
280
     0
102
RTVSPost2010PropOp35
 70
     1
102
RTVSPost2010Prop36
280
     0
102
RTVSPost2010PropOp36
 70
     1
102
RTVSPost2010Prop37
 90
       50
102
RTVSPost2010PropOp37
 70
     1
102
RTVSPost2010Prop38
140
0.0
102
RTVSPost2010PropOp38
 70
     1
102
RTVSPost2010Prop39
140
1.0
102
RTVSPost2010PropOp39
 70
     1
102
RTVSPost2010Prop40
 90
        0
102
RTVSPost2010PropOp40
 70
     1
102
RTVSPost2010Prop41ColorIndex
 90
       18
102
RTVSPost2010Prop41ColorRGB
 90
        0
102
RTVSPost2010PropOp41
 70
     1
102
RTVSPost2010Prop42
 90
       50
102
RTVSPost2010PropOp42
 70
     1
102
RTVSPost2010Prop43
 90
        3
102
RTVSPost2010PropOp43
 70
     1
102
RTVSPost2010Prop44ColorIndex
 90
        5
102
RTVSPost2010Prop44ColorRGB
 90
      255
102
RTVSPost2010PropOp44
 70
     1
102
RTVSPost2010Prop45
280
     0
102
RTVSPost2010PropOp45
 70
     1
102
RTVSPost2010Prop46
 90
       50
102
RTVSPost2010PropOp46
 70
     1
102
RTVSPost2010Prop47
 90
       50
102
RTVSPost2010PropOp47
 70
     1
102
RTVSPost2010Prop48
 90
       50
102
RTVSPost2010PropOp48
 70
     1
102
RTVSPost2010Prop49
280
     0
102
RTVSPost2010PropOp49
 70
     1
102
RTVSPost2010Prop50
 90
       50
102
RTVSPost2010PropOp50
 70
     1
102
RTVSPost2010Prop51ColorIndex
 90
      256
102
RTVSPost2010Prop51ColorRGB
 90
-16777216
102
RTVSPost2010PropOp51
 70
     0
102
RTVSPost2010Prop52
140
1.0
102
RTVSPost2010PropOp52
 70
     0
102
RTVSPost2010Prop53
 90
        2
102
RTVSPost2010PropOp53
 70
     1
102
RTVSPost2010Prop54
  1
strokes_ogs.tif
102
RTVSPost2010PropOp54
 70
     1
102
RTVSPost2010Prop55
280
     0
102
RTVSPost2010PropOp55
 70
     1
102
RTVSPost2010Prop56
140
1.0
102
RTVSPost2010PropOp56
 70
     1
102
RTVSPost2010Prop57
140
1.0
102
RTVSPost2010PropOp57
 70
     1
  0
XRECORD
  5
151
102
{ACAD_REACTORS
330
150
102
}
330
150
100
AcDbXrecord
280
     1
102
RTVSPost2010Prop28
280
     0
102
RTVSPost2010PropOp28
 70
     1
102
RTVSPost2010Prop29
280
     1
102
RTVSPost2010PropOp29
 70
     1
102
RTVSPost2010Prop30
280
     1
102
RTVSPost2010PropOp30
 70
     1
102
RTVSPost2010Prop31
280
     0
102
RTVSPost2010PropOp31
 70
     1
102
RTVSPost2010Prop32
280
     0
102
RTVSPost2010PropOp32
 70
     1
102
RTVSPost2010Prop33
280
     0
102
RTVSPost2010PropOp33
 70
     1
102
RTVSPost2010Prop34
280
     0
102
RTVSPost2010PropOp34
 70
     1
102
RTVSPost2010Prop35
280
     0
102
RTVSPost2010PropOp35
 70
     1
102
RTVSPost2010Prop36
280
     0
102
RTVSPost2010PropOp36
 70
     1
102
RTVSPost2010Prop37
 90
       50
102
RTVSPost2010PropOp37
 70
     1
102
RTVSPost2010Prop38
140
0.0
102
RTVSPost2010PropOp38
 70
     1
102
RTVSPost2010Prop39
140
1.0
102
RTVSPost2010PropOp39
 70
     1
102
RTVSPost2010Prop40
 90
        0
102
RTVSPost2010PropOp40
 70
     1
102
RTVSPost2010Prop41ColorIndex
 90
       18
102
RTVSPost2010Prop41ColorRGB
 90
        0
102
RTVSPost2010PropOp41
 70
     1
102
RTVSPost2010Prop42
 90
       50
102
RTVSPost2010PropOp42
 70
     1
102
RTVSPost2010Prop43
 90
        3
102
RTVSPost2010PropOp43
 70
     1
102
RTVSPost2010Prop44ColorIndex
 90
        5
102
RTVSPost2010Prop44ColorRGB
 90
      255
102
RTVSPost2010PropOp44
 70
     1
102
RTVSPost2010Prop45
280
     0
102
RTVSPost2010PropOp45
 70
     1
102
RTVSPost2010Prop46
 90
       50
102
RTVSPost2010PropOp46
 70
     1
102
RTVSPost2010Prop47
 90
       50
102
RTVSPost2010PropOp47
 70
     1
102
RTVSPost2010Prop48
 90
       50
102
RTVSPost2010PropOp48
 70
     1
102
RTVSPost2010Prop49
280
     0
102
RTVSPost2010PropOp49
 70
     1
102
RTVSPost2010Prop50
 90
       50
102
RTVSPost2010PropOp50
 70
     1
102
RTVSPost2010Prop51ColorIndex
 90
      256
102
RTVSPost2010Prop51ColorRGB
 90
-16777216
102
RTVSPost2010PropOp51
 70
     0
102
RTVSPost2010Prop52
140
1.0
102
RTVSPost2010PropOp52
 70
     0
102
RTVSPost2010Prop53
 90
        2
102
RTVSPost2010PropOp53
 70
     1
102
RTVSPost2010Prop54
  1
strokes_ogs.tif
102
RTVSPost2010PropOp54
 70
     1
102
RTVSPost2010Prop55
280
     0
102
RTVSPost2010PropOp55
 70
     1
102
RTVSPost2010Prop56
140
1.0
102
RTVSPost2010PropOp56
 70
     1
102
RTVSPost2010Prop57
140
1.0
102
RTVSPost2010PropOp57
 70
     1
  0
ENDSEC
  0
EOF
