  0
SECTION
  2
HEADER
  9
$ACADVER
  1
AC1024
  9
$ACADMAINTVER
 70
     6
  9
$DWGCODEPAGE
  3
UNDEFINED
  9
$INSBASE
 10
0.0
 20
0.0
 30
0.0
  9
$EXTMIN
 10
1.000000000000000E+20
 20
1.000000000000000E+20
 30
1.000000000000000E+20
  9
$EXTMAX
 10
-1.000000000000000E+20
 20
-1.000000000000000E+20
 30
-1.000000000000000E+20
  9
$LIMMIN
 10
0.0
 20
0.0
  9
$LIMMAX
 10
12.0
 20
9.0
  9
$ORTHOMODE
 70
     0
  9
$REGENMODE
 70
     1
  9
$FILLMODE
 70
     1
  9
$QTEXTMODE
 70
     0
  9
$MIRRTEXT
 70
     1
  9
$LTSCALE
 40
1.0
  9
$ATTMODE
 70
     1
  9
$TEXTSIZE
 40
0.2
  9
$TRACEWID
 40
0.05
  9
$TEXTSTYLE
  7
Standard
  9
$CLAYER
  8
0
  9
$CELTYPE
  6
ByLayer
  9
$CECOLOR
 62
   256
  9
$CELTSCALE
 40
1.0
  9
$DISPSILH
 70
     0
  9
$DIMSCALE
 40
1.0
  9
$DIMASZ
 40
0.18
  9
$DIMEXO
 40
0.0625
  9
$DIMDLI
 40
0.38
  9
$DIMRND
 40
0.0
  9
$DIMDLE
 40
0.0
  9
$DIMEXE
 40
0.18
  9
$DIMTP
 40
0.0
  9
$DIMTM
 40
0.0
  9
$DIMTXT
 40
0.18
  9
$DIMCEN
 40
0.09
  9
$DIMTSZ
 40
0.0
  9
$DIMTOL
 70
     0
  9
$DIMLIM
 70
     0
  9
$DIMTIH
 70
     1
  9
$DIMTOH
 70
     1
  9
$DIMSE1
 70
     0
  9
$DIMSE2
 70
     0
  9
$DIMTAD
 70
     0
  9
$DIMZIN
 70
     0
  9
$DIMBLK
  1

  9
$DIMASO
 70
     1
  9
$DIMSHO
 70
     1
  9
$DIMPOST
  1

  9
$DIMAPOST
  1

  9
$DIMALT
 70
     0
  9
$DIMALTD
 70
     2
  9
$DIMALTF
 40
25.4
  9
$DIMLFAC
 40
1.0
  9
$DIMTOFL
 70
     0
  9
$DIMTVP
 40
0.0
  9
$DIMTIX
 70
     0
  9
$DIMSOXD
 70
     0
  9
$DIMSAH
 70
     0
  9
$DIMBLK1
  1

  9
$DIMBLK2
  1

  9
$DIMSTYLE
  2
Standard
  9
$DIMCLRD
 70
     0
  9
$DIMCLRE
 70
     0
  9
$DIMCLRT
 70
     0
  9
$DIMTFAC
 40
1.0
  9
$DIMGAP
 40
0.09
  9
$DIMJUST
 70
     0
  9
$DIMSD1
 70
     0
  9
$DIMSD2
 70
     0
  9
$DIMTOLJ
 70
     1
  9
$DIMTZIN
 70
     0
  9
$DIMALTZ
 70
     0
  9
$DIMALTTZ
 70
     0
  9
$DIMUPT
 70
     0
  9
$DIMDEC
 70
     4
  9
$DIMTDEC
 70
     4
  9
$DIMALTU
 70
     2
  9
$DIMALTTD
 70
     2
  9
$DIMTXSTY
  7
Standard
  9
$DIMAUNIT
 70
     0
  9
$DIMADEC
 70
     0
  9
$DIMALTRND
 40
0.0
  9
$DIMAZIN
 70
     0
  9
$DIMDSEP
 70
    46
  9
$DIMATFIT
 70
     3
  9
$DIMFRAC
 70
     0
  9
$DIMLDRBLK
  1

  9
$DIMLUNIT
 70
     2
  9
$DIMLWD
 70
    -2
  9
$DIMLWE
 70
    -2
  9
$DIMTMOVE
 70
     0
  9
$DIMFXL
 40
1.0
  9
$DIMFXLON
 70
     0
  9
$DIMJOGANG
 40
0.7853981633974483
  9
$DIMTFILL
 70
     0
  9
$DIMTFILLCLR
 70
     0
  9
$DIMARCSYM
 70
     0
  9
$DIMLTYPE
  6

  9
$DIMLTEX1
  6

  9
$DIMLTEX2
  6

  9
$DIMTXTDIRECTION
 70
     0
  9
$LUNITS
 70
     2
  9
$LUPREC
 70
     4
  9
$SKETCHINC
 40
0.1
  9
$FILLETRAD
 40
0.5
  9
$AUNITS
 70
     0
  9
$AUPREC
 70
     0
  9
$MENU
  1
.
  9
$ELEVATION
 40
0.0
  9
$PELEVATION
 40
0.0
  9
$THICKNESS
 40
0.0
  9
$LIMCHECK
 70
     0
  9
$CHAMFERA
 40
0.5
  9
$CHAMFERB
 40
0.5
  9
$CHAMFERC
 40
1.0
  9
$CHAMFERD
 40
0.0
  9
$SKPOLY
 70
     0
  9
$TDCREATE
 40
2457917.586296285
  9
$TDUCREATE
 40
2457917.211296296
  9
$TDUPDATE
 40
2457917.586296285
  9
$TDUUPDATE
 40
2457917.211296296
  9
$TDINDWG
 40
0.0000000116
  9
$TDUSRTIMER
 40
0.0000000116
  9
$USRTIMER
 70
     1
  9
$ANGBASE
 50
0.0
  9
$ANGDIR
 70
     0
  9
$PDMODE
 70
     0
  9
$PDSIZE
 40
0.0
  9
$PLINEWID
 40
0.0
  9
$SPLFRAME
 70
     0
  9
$SPLINETYPE
 70
     6
  9
$SPLINESEGS
 70
     8
  9
$HANDSEED
  5
130
  9
$SURFTAB1
 70
     6
  9
$SURFTAB2
 70
     6
  9
$SURFTYPE
 70
     6
  9
$SURFU
 70
     6
  9
$SURFV
 70
     6
  9
$UCSBASE
  2

  9
$UCSNAME
  2

  9
$UCSORG
 10
0.0
 20
0.0
 30
0.0
  9
$UCSXDIR
 10
1.0
 20
0.0
 30
0.0
  9
$UCSYDIR
 10
0.0
 20
1.0
 30
0.0
  9
$UCSORTHOREF
  2

  9
$UCSORTHOVIEW
 70
     0
  9
$UCSORGTOP
 10
0.0
 20
0.0
 30
0.0
  9
$UCSORGBOTTOM
 10
0.0
 20
0.0
 30
0.0
  9
$UCSORGLEFT
 10
0.0
 20
0.0
 30
0.0
  9
$UCSORGRIGHT
 10
0.0
 20
0.0
 30
0.0
  9
$UCSORGFRONT
 10
0.0
 20
0.0
 30
0.0
  9
$UCSORGBACK
 10
0.0
 20
0.0
 30
0.0
  9
$PUCSBASE
  2

  9
$PUCSNAME
  2

  9
$PUCSORG
 10
0.0
 20
0.0
 30
0.0
  9
$PUCSXDIR
 10
1.0
 20
0.0
 30
0.0
  9
$PUCSYDIR
 10
0.0
 20
1.0
 30
0.0
  9
$PUCSORTHOREF
  2

  9
$PUCSORTHOVIEW
 70
     0
  9
$PUCSORGTOP
 10
0.0
 20
0.0
 30
0.0
  9
$PUCSORGBOTTOM
 10
0.0
 20
0.0
 30
0.0
  9
$PUCSORGLEFT
 10
0.0
 20
0.0
 30
0.0
  9
$PUCSORGRIGHT
 10
0.0
 20
0.0
 30
0.0
  9
$PUCSORGFRONT
 10
0.0
 20
0.0
 30
0.0
  9
$PUCSORGBACK
 10
0.0
 20
0.0
 30
0.0
  9
$USERI1
 70
     0
  9
$USERI2
 70
     0
  9
$USERI3
 70
     0
  9
$USERI4
 70
     0
  9
$USERI5
 70
     0
  9
$USERR1
 40
0.0
  9
$USERR2
 40
0.0
  9
$USERR3
 40
0.0
  9
$USERR4
 40
0.0
  9
$USERR5
 40
0.0
  9
$WORLDVIEW
 70
     1
  9
$SHADEDGE
 70
     3
  9
$SHADEDIF
 70
    70
  9
$TILEMODE
 70
     1
  9
$MAXACTVP
 70
    64
  9
$PINSBASE
 10
0.0
 20
0.0
 30
0.0
  9
$PLIMCHECK
 70
     0
  9
$PEXTMIN
 10
1.000000000000000E+20
 20
1.000000000000000E+20
 30
1.000000000000000E+20
  9
$PEXTMAX
 10
-1.000000000000000E+20
 20
-1.000000000000000E+20
 30
-1.000000000000000E+20
  9
$PLIMMIN
 10
0.0
 20
0.0
  9
$PLIMMAX
 10
12.0
 20
9.0
  9
$UNITMODE
 70
     0
  9
$VISRETAIN
 70
     1
  9
$PLINEGEN
 70
     0
  9
$PSLTSCALE
 70
     1
  9
$TREEDEPTH
 70
  3020
  9
$CMLSTYLE
  2
Standard
  9
$CMLJUST
 70
     0
  9
$CMLSCALE
 40
1.0
  9
$PROXYGRAPHICS
 70
     1
  9
$MEASUREMENT
 70
     0
  9
$CELWEIGHT
370
    -1
  9
$ENDCAPS
280
     0
  9
$JOINSTYLE
280
     0
  9
$LWDISPLAY
290
     1
  9
$INSUNITS
 70
     1
  9
$HYPERLINKBASE
  1

  9
$STYLESHEET
  1

  9
$XEDIT
290
     1
  9
$CEPSNTYPE
380
     0
  9
$PSTYLEMODE
290
     1
  9
$FINGERPRINTGUID
  2
{D9C70FC3-13A6-706C-D22B-63946970EDFB}
  9
$VERSIONGUID
  2
{FAEB1C32-E019-11D5-929B-00C0DF256EC4}
  9
$EXTNAMES
290
     1
  9
$PSVPSCALE
 40
0.0
  9
$OLESTARTUP
290
     0
  9
$SORTENTS
280
   127
  9
$INDEXCTL
280
     0
  9
$HIDETEXT
280
     1
  9
$XCLIPFRAME
280
     2
  9
$HALOGAP
280
     0
  9
$OBSCOLOR
 70
   257
  9
$OBSLTYPE
280
     0
  9
$INTERSECTIONDISPLAY
280
     0
  9
$INTERSECTIONCOLOR
 70
   257
  9
$DIMASSOC
280
     2
  9
$PROJECTNAME
  1

  9
$CAMERADISPLAY
290
     0
  9
$LENSLENGTH
 40
50.0
  9
$CAMERAHEIGHT
 40
0.0
  9
$STEPSPERSEC
 40
2.0
  9
$STEPSIZE
 40
6.0
  9
$3DDWFPREC
 40
2.0
  9
$PSOLWIDTH
 40
0.25
  9
$PSOLHEIGHT
 40
4.0
  9
$LOFTANG1
 40
1.570796326794897
  9
$LOFTANG2
 40
1.570796326794897
  9
$LOFTMAG1
 40
0.0
  9
$LOFTMAG2
 40
0.0
  9
$LOFTPARAM
 70
     7
  9
$LOFTNORMALS
280
     1
  9
$LATITUDE
 40
37.795
  9
$LONGITUDE
 40
-122.394
  9
$NORTHDIRECTION
 40
0.0
  9
$TIMEZONE
 70
 -8000
  9
$LIGHTGLYPHDISPLAY
280
     1
  9
$TILEMODELIGHTSYNCH
280
     1
  9
$CMATERIAL
347
3C
  9
$SOLIDHIST
280
     1
  9
$SHOWHIST
280
     1
  9
$DWFFRAME
280
     2
  9
$DGNFRAME
280
     2
  9
$REALWORLDSCALE
290
     1
  9
$INTERFERECOLOR
 62
   256
  9
$CSHADOW
280
     0
  9
$SHADOWPLANELOCATION
 40
0.0
  0
ENDSEC
  0
SECTION
  2
CLASSES
  0
CLASS
  1
ACDBDICTIONARYWDFLT
  2
AcDbDictionaryWithDefault
  3
ObjectDBX Classes
 90
        0
 91
        4
280
     0
281
     0
  0
CLASS
  1
VISUALSTYLE
  2
AcDbVisualStyle
  3
ObjectDBX Classes
 90
     4095
 91
        4
280
     0
281
     0
  0
CLASS
  1
MATERIAL
  2
AcDbMaterial
  3
ObjectDBX Classes
 90
     1153
 91
        4
280
     0
281
     0
  0
CLASS
  1
SUN
  2
AcDbSun
  3
SCENEOE
 90
     1024
 91
        4
280
     0
281
     0
  0
ENDSEC
  0
SECTION
  2
TABLES
  0
TABLE
  2
VPORT
  5
8
330
0
100
AcDbSymbolTable
 70
     1
  0
VPORT
  5
29
330
8
100
AcDbSymbolTableRecord
100
AcDbViewportTableRecord
  2
*Active
 70
     0
 10
0.0
 20
0.0
 11
1.0
 21
1.0
 12
0.0
 22
0.0
 13
0.0
 23
0.0
 14
0.5
 24
0.5
 15
0.5
 25
0.5
 16
0.0
 26
0.0
 36
1.0
 17
105.0008280156501
 27
-148.4999710739862
 37
0.0
 40
296.9999421479724
 41
0.7070764206636528
 42
50.0
 43
0.0
 44
0.0
 50
0.0
 51
0.0
 71
     0
 72
   100
 73
     1
 74
     3
 75
     0
 76
     0
 77
     0
 78
     0
281
     0
 65
     1
110
0.0
120
0.0
130
0.0
111
1.0
121
0.0
131
0.0
112
0.0
122
1.0
132
0.0
 79
     0
146
0.0
 60
     3
 61
     5
292
     1
282
     1
141
0.0
142
0.0
 63
   250
361
3F
  0
ENDTAB
  0
TABLE
  2
LTYPE
  5
5
330
0
100
AcDbSymbolTable
 70
     1
  0
LTYPE
  5
14
330
5
100
AcDbSymbolTableRecord
100
AcDbLinetypeTableRecord
  2
ByBlock
 70
     0
  3

 72
    65
 73
     0
 40
0.0
  0
LTYPE
  5
15
330
5
100
AcDbSymbolTableRecord
100
AcDbLinetypeTableRecord
  2
ByLayer
 70
     0
  3

 72
    65
 73
     0
 40
0.0
  0
LTYPE
  5
16
330
5
100
AcDbSymbolTableRecord
100
AcDbLinetypeTableRecord
  2
Continuous
 70
     0
  3
Solid line
 72
    65
 73
     0
 40
0.0
  0
ENDTAB
  0
TABLE
  2
LAYER
  5
2
330
0
100
AcDbSymbolTable
 70
     2
  0
LAYER
  5
10
330
2
100
AcDbSymbolTableRecord
100
AcDbLayerTableRecord
  2
0
 70
     0
 62
     7
  6
Continuous
370
    -3
390
F
347
3E
  0
LAYER
  5
40
330
2
100
AcDbSymbolTableRecord
100
AcDbLayerTableRecord
  2
_U+30EC_U+30A4_U+30E4_U+30FC 1
 70
     0
 62
     7
  6
Continuous
370
    -3
390
F
347
3E
  0
ENDTAB
  0
TABLE
  2
STYLE
  5
3
330
0
100
AcDbSymbolTable
 70
     1
  0
STYLE
  5
11
330
3
100
AcDbSymbolTableRecord
100
AcDbTextStyleTableRecord
  2
Standard
 70
     0
 40
0.0
 41
1.0
 50
0.0
 71
     0
 42
0.2
  3
txt
  4

  0
ENDTAB
  0
TABLE
  2
VIEW
  5
6
330
0
100
AcDbSymbolTable
 70
     0
  0
ENDTAB
  0
TABLE
  2
UCS
  5
7
330
0
100
AcDbSymbolTable
 70
     0
  0
ENDTAB
  0
TABLE
  2
APPID
  5
9
330
0
100
AcDbSymbolTable
 70
     1
  0
APPID
  5
12
330
9
100
AcDbSymbolTableRecord
100
AcDbRegAppTableRecord
  2
ACAD
 70
     0
  0
ENDTAB
  0
TABLE
  2
DIMSTYLE
  5
A
330
0
100
AcDbSymbolTable
 70
     1
100
AcDbDimStyleTable
  0
DIMSTYLE
105
27
330
A
100
AcDbSymbolTableRecord
100
AcDbDimStyleTableRecord
  2
Standard
 70
     0
178
     0
340
11
  0
ENDTAB
  0
TABLE
  2
BLOCK_RECORD
  5
1
330
0
100
AcDbSymbolTable
 70
    10
  0
BLOCK_RECORD
  5
1F
330
1
100
AcDbSymbolTableRecord
100
AcDbBlockTableRecord
  2
*Model_Space
340
22
 70
     0
280
     1
281
     0
  0
BLOCK_RECORD
  5
1B
330
1
100
AcDbSymbolTableRecord
100
AcDbBlockTableRecord
  2
*Paper_Space
340
1E
 70
     0
280
     1
281
     0
  0
BLOCK_RECORD
  5
23
330
1
100
AcDbSymbolTableRecord
100
AcDbBlockTableRecord
  2
*Paper_Space0
340
26
 70
     0
280
     1
281
     0
  0
BLOCK_RECORD
  5
90
330
1
100
AcDbSymbolTableRecord
100
AcDbBlockTableRecord
  2
block 2
340
0
102
{BLKREFS
331
91
102
}
 70
     0
280
     1
281
     0
  0
BLOCK_RECORD
  5
A8
330
1
100
AcDbSymbolTableRecord
100
AcDbBlockTableRecord
  2
block 3
340
0
102
{BLKREFS
331
A9
102
}
 70
     0
280
     1
281
     0
  0
BLOCK_RECORD
  5
B8
330
1
100
AcDbSymbolTableRecord
100
AcDbBlockTableRecord
  2
block 4
340
0
102
{BLKREFS
331
B9
102
}
 70
     0
280
     1
281
     0
  0
BLOCK_RECORD
  5
CA
330
1
100
AcDbSymbolTableRecord
100
AcDbBlockTableRecord
  2
block 5
340
0
102
{BLKREFS
331
CB
102
}
 70
     0
280
     1
281
     0
  0
BLOCK_RECORD
  5
E7
330
1
100
AcDbSymbolTableRecord
100
AcDbBlockTableRecord
  2
block 6
340
0
102
{BLKREFS
331
E8
102
}
 70
     0
280
     1
281
     0
  0
BLOCK_RECORD
  5
F9
330
1
100
AcDbSymbolTableRecord
100
AcDbBlockTableRecord
  2
block 7
340
0
102
{BLKREFS
331
FA
102
}
 70
     0
280
     1
281
     0
  0
BLOCK_RECORD
  5
10E
330
1
100
AcDbSymbolTableRecord
100
AcDbBlockTableRecord
  2
block 8
340
0
102
{BLKREFS
331
10F
102
}
 70
     0
280
     1
281
     0
  0
BLOCK_RECORD
  5
117
330
1
100
AcDbSymbolTableRecord
100
AcDbBlockTableRecord
  2
block 9
340
0
102
{BLKREFS
331
118
102
}
 70
     0
280
     1
281
     0
  0
BLOCK_RECORD
  5
128
330
1
100
AcDbSymbolTableRecord
100
AcDbBlockTableRecord
  2
block 10
340
0
102
{BLKREFS
331
129
102
}
 70
     0
280
     1
281
     0
  0
ENDTAB
  0
ENDSEC
  0
SECTION
  2
BLOCKS
  0
BLOCK
  5
20
330
1F
100
AcDbEntity
  8
0
100
AcDbBlockBegin
  2
*Model_Space
 70
     0
 10
0.0
 20
0.0
 30
0.0
  3
*Model_Space
  1

  0
ENDBLK
  5
21
330
1F
100
AcDbEntity
  8
0
100
AcDbBlockEnd
  0
BLOCK
  5
1C
330
1B
100
AcDbEntity
 67
     1
  8
0
100
AcDbBlockBegin
  2
*Paper_Space
 70
     0
 10
0.0
 20
0.0
 30
0.0
  3
*Paper_Space
  1

  0
ENDBLK
  5
1D
330
1B
100
AcDbEntity
 67
     1
  8
0
100
AcDbBlockEnd
  0
BLOCK
  5
24
330
23
100
AcDbEntity
  8
0
100
AcDbBlockBegin
  2
*Paper_Space0
 70
     0
 10
0.0
 20
0.0
 30
0.0
  3
*Paper_Space0
  1

  0
ENDBLK
  5
25
330
23
100
AcDbEntity
  8
0
100
AcDbBlockEnd
  0
BLOCK
  5
92
330
90
100
AcDbEntity
  8
0
100
AcDbBlockBegin
  2
block 2
 70
     0
 10
0.0
 20
0.0
 30
0.0
  3
block 2
  1

  0
SPLINE
  5
94
330
90
100
AcDbEntity
  8
_U+30EC_U+30A4_U+30E4_U+30FC 1
370
     0
100
AcDbSpline
210
0.0
220
0.0
230
1.0
 70
    11
 71
     3
 72
    56
 73
    52
 74
     0
 42
0.0000000001
 43
0.0000000001
 12
1.0
 22
0.0
 32
0.0
 13
1.0
 23
0.0
 33
0.0
 40
0.0
 40
0.0
 40
0.0
 40
0.0
 40
1.0
 40
1.0
 40
1.0
 40
2.0
 40
2.0
 40
2.0
 40
3.0
 40
3.0
 40
3.0
 40
4.0
 40
4.0
 40
4.0
 40
5.0
 40
5.0
 40
5.0
 40
6.0
 40
6.0
 40
6.0
 40
7.0
 40
7.0
 40
7.0
 40
8.0
 40
8.0
 40
8.0
 40
9.0
 40
9.0
 40
9.0
 40
10.0
 40
10.0
 40
10.0
 40
11.0
 40
11.0
 40
11.0
 40
12.0
 40
12.0
 40
12.0
 40
13.0
 40
13.0
 40
13.0
 40
14.0
 40
14.0
 40
14.0
 40
15.0
 40
15.0
 40
15.0
 40
16.0
 40
16.0
 40
16.0
 40
17.0
 40
17.0
 40
17.0
 40
17.0
 10
88.9316948562393
 20
-159.8293483758413
 30
0.0
 10
88.72602265576988
 20
-159.5206678203629
 30
0.0
 10
88.45007050740138
 20
-159.315340129442
 30
0.0
 10
88.35291881471733
 20
-159.2498833152223
 30
0.0
 10
88.03872610646255
 20
-159.5881916918738
 30
0.0
 10
87.72901202233858
 20
-159.7404649123218
 30
0.0
 10
87.51644963089866
 20
-159.8338269999721
 30
0.0
 10
87.51644963089866
 20
-159.8338269999721
 30
0.0
 10
87.34695093302437
 20
-159.6453802769289
 30
0.0
 10
87.34695093302437
 20
-159.6453802769289
 30
0.0
 10
87.45771075287516
 20
-159.6095512838824
 30
0.0
 10
87.68594832877297
 20
-159.5334146736583
 30
0.0
 10
87.934684222808
 20
-159.3470350079063
 30
0.0
 10
88.21735430737274
 20
-159.135506145112
 30
0.0
 10
88.41630857164593
 20
-158.8478406720936
 30
0.0
 10
88.54739445485968
 20
-158.5346814924844
 30
0.0
 10
88.54739445485968
 20
-158.5346814924844
 30
0.0
 10
88.1450073021825
 20
-158.5346814924844
 30
0.0
 10
88.1450073021825
 20
-158.5346814924844
 30
0.0
 10
87.98222654050444
 20
-158.5346814924844
 30
0.0
 10
87.7582953339632
 20
-158.5391601166152
 30
0.0
 10
87.59775388435057
 20
-158.5581081417841
 30
0.0
 10
87.59775388435057
 20
-158.5581081417841
 30
0.0
 10
87.59775388435057
 20
-158.3465792789898
 30
0.0
 10
87.59775388435057
 20
-158.3465792789898
 30
0.0
 10
87.6701008895408
 20
-158.3527804508632
 30
0.0
 10
87.94829234997474
 20
-158.3634602468675
 30
0.0
 10
88.04096541852796
 20
-158.3634602468675
 30
0.0
 10
88.04096541852796
 20
-158.3634602468675
 30
0.0
 10
88.3732448780803
 20
-158.3634602468675
 30
0.0
 10
88.3732448780803
 20
-158.3634602468675
 30
0.0
 10
88.59476451778187
 20
-158.3634602468675
 30
0.0
 10
88.61974146004992
 20
-158.3569145654455
 30
0.0
 10
88.64454614754374
 20
-158.3527804508632
 30
0.0
 10
88.69208846524018
 20
-158.3465792789898
 30
0.0
 10
88.73274059196612
 20
-158.3210855723989
 30
0.0
 10
88.7553059673945
 20
-158.3042046045212
 30
0.0
 10
88.7553059673945
 20
-158.3042046045212
 30
0.0
 10
88.92273760797765
 20
-158.4774929074293
 30
0.0
 10
88.92273760797765
 20
-158.4774929074293
 30
0.0
 10
88.87967391441202
 20
-158.5050536713112
 30
0.0
 10
88.86623804201956
 20
-158.5157334673155
 30
0.0
 10
88.81421710019228
 20
-158.5515624603621
 30
0.0
 10
88.67624102600803
 20
-158.7992648257516
 30
0.0
 10
88.59028589365104
 20
-158.9494709889085
 30
0.0
 10
88.47952607380026
 20
-159.0955430374831
 30
0.0
 10
88.81421710019228
 20
-159.3132730721508
 30
0.0
 10
89.05830211532223
 20
-159.5988714878781
 30
0.0
 10
89.11480168128033
 20
-159.6770751553932
 30
0.0
 10
89.11480168128033
 20
-159.6770751553932
 30
0.0
 10
88.9316948562393
 20
-159.8293483758413
 30
0.0
 10
88.9316948562393
 20
-159.8293483758413
 30
0.0
  0
HATCH
  5
95
330
90
100
AcDbEntity
  8
_U+30EC_U+30A4_U+30E4_U+30FC 1
 62
   179
420
  2234388
100
AcDbHatch
 10
0.0
 20
0.0
 30
0.0
210
0.0
220
0.0
230
1.0
  2
SOLID
 70
     1
 71
     0
 91
        1
 92
        1
 93
        1
 72
     4
 94
        3
 73
     0
 74
     1
 95
       56
 96
       52
 40
0.0
 40
0.0
 40
0.0
 40
0.0
 40
1.0
 40
1.0
 40
1.0
 40
2.0
 40
2.0
 40
2.0
 40
3.0
 40
3.0
 40
3.0
 40
4.0
 40
4.0
 40
4.0
 40
5.0
 40
5.0
 40
5.0
 40
6.0
 40
6.0
 40
6.0
 40
7.0
 40
7.0
 40
7.0
 40
8.0
 40
8.0
 40
8.0
 40
9.0
 40
9.0
 40
9.0
 40
10.0
 40
10.0
 40
10.0
 40
11.0
 40
11.0
 40
11.0
 40
12.0
 40
12.0
 40
12.0
 40
13.0
 40
13.0
 40
13.0
 40
14.0
 40
14.0
 40
14.0
 40
15.0
 40
15.0
 40
15.0
 40
16.0
 40
16.0
 40
16.0
 40
17.0
 40
17.0
 40
17.0
 40
17.0
 10
88.9316948562393
 20
-159.8293483758413
 10
88.72602265576988
 20
-159.5206678203629
 10
88.45007050740138
 20
-159.315340129442
 10
88.35291881471733
 20
-159.2498833152223
 10
88.03872610646255
 20
-159.5881916918738
 10
87.72901202233858
 20
-159.7404649123218
 10
87.51644963089866
 20
-159.8338269999721
 10
87.51644963089866
 20
-159.8338269999721
 10
87.34695093302437
 20
-159.6453802769289
 10
87.34695093302437
 20
-159.6453802769289
 10
87.45771075287516
 20
-159.6095512838824
 10
87.68594832877297
 20
-159.5334146736583
 10
87.934684222808
 20
-159.3470350079063
 10
88.21735430737274
 20
-159.135506145112
 10
88.41630857164593
 20
-158.8478406720936
 10
88.54739445485968
 20
-158.5346814924844
 10
88.54739445485968
 20
-158.5346814924844
 10
88.1450073021825
 20
-158.5346814924844
 10
88.1450073021825
 20
-158.5346814924844
 10
87.98222654050444
 20
-158.5346814924844
 10
87.7582953339632
 20
-158.5391601166152
 10
87.59775388435057
 20
-158.5581081417841
 10
87.59775388435057
 20
-158.5581081417841
 10
87.59775388435057
 20
-158.3465792789898
 10
87.59775388435057
 20
-158.3465792789898
 10
87.6701008895408
 20
-158.3527804508632
 10
87.94829234997474
 20
-158.3634602468675
 10
88.04096541852796
 20
-158.3634602468675
 10
88.04096541852796
 20
-158.3634602468675
 10
88.3732448780803
 20
-158.3634602468675
 10
88.3732448780803
 20
-158.3634602468675
 10
88.59476451778187
 20
-158.3634602468675
 10
88.61974146004992
 20
-158.3569145654455
 10
88.64454614754374
 20
-158.3527804508632
 10
88.69208846524018
 20
-158.3465792789898
 10
88.73274059196612
 20
-158.3210855723989
 10
88.7553059673945
 20
-158.3042046045212
 10
88.7553059673945
 20
-158.3042046045212
 10
88.92273760797765
 20
-158.4774929074293
 10
88.92273760797765
 20
-158.4774929074293
 10
88.87967391441202
 20
-158.5050536713112
 10
88.86623804201956
 20
-158.5157334673155
 10
88.81421710019228
 20
-158.5515624603621
 10
88.67624102600803
 20
-158.7992648257516
 10
88.59028589365104
 20
-158.9494709889085
 10
88.47952607380026
 20
-159.0955430374831
 10
88.81421710019228
 20
-159.3132730721508
 10
89.05830211532223
 20
-159.5988714878781
 10
89.11480168128033
 20
-159.6770751553932
 10
89.11480168128033
 20
-159.6770751553932
 10
88.9316948562393
 20
-159.8293483758413
 10
88.9316948562393
 20
-159.8293483758413
 97
        0
 97
        0
 75
     2
 76
     1
 98
        0
  0
SPLINE
  5
96
330
90
100
AcDbEntity
  8
_U+30EC_U+30A4_U+30E4_U+30FC 1
370
     0
100
AcDbSpline
210
0.0
220
0.0
230
1.0
 70
    11
 71
     3
 72
    20
 73
    16
 74
     0
 42
0.0000000001
 43
0.0000000001
 12
1.0
 22
0.0
 32
0.0
 13
1.0
 23
0.0
 33
0.0
 40
0.0
 40
0.0
 40
0.0
 40
0.0
 40
1.0
 40
1.0
 40
1.0
 40
2.0
 40
2.0
 40
2.0
 40
3.0
 40
3.0
 40
3.0
 40
4.0
 40
4.0
 40
4.0
 40
5.0
 40
5.0
 40
5.0
 40
5.0
 10
89.83982202615115
 20
-159.0383544524279
 30
0.0
 10
89.77195364509174
 20
-158.9939127206682
 30
0.0
 10
89.73801945456202
 20
-158.9725531286597
 30
0.0
 10
89.59108613211612
 20
-158.9132974863134
 30
0.0
 10
89.42830537043807
 20
-158.8478406720936
 30
0.0
 10
89.38300236480703
 20
-158.833026761507
 30
0.0
 10
89.33098142297976
 20
-158.8161457936293
 30
0.0
 10
89.33098142297976
 20
-158.8161457936293
 30
0.0
 10
89.42830537043807
 20
-158.6363118092993
 30
0.0
 10
89.42830537043807
 20
-158.6363118092993
 30
0.0
 10
89.48928356052699
 20
-158.659738458599
 30
0.0
 10
89.77419295715715
 20
-158.7675699472873
 30
0.0
 10
89.93921303090062
 20
-158.8754014359756
 30
0.0
 10
89.93921303090062
 20
-158.8754014359756
 30
0.0
 10
89.83982202615115
 20
-159.0383544524279
 30
0.0
 10
89.83982202615115
 20
-159.0383544524279
 30
0.0
  0
SPLINE
  5
97
330
90
100
AcDbEntity
  8
_U+30EC_U+30A4_U+30E4_U+30FC 1
370
     0
100
AcDbSpline
210
0.0
220
0.0
230
1.0
 70
    11
 71
     3
 72
    26
 73
    22
 74
     0
 42
0.0000000001
 43
0.0000000001
 12
1.0
 22
0.0
 32
0.0
 13
1.0
 23
0.0
 33
0.0
 40
0.0
 40
0.0
 40
0.0
 40
0.0
 40
1.0
 40
1.0
 40
1.0
 40
2.0
 40
2.0
 40
2.0
 40
3.0
 40
3.0
 40
3.0
 40
4.0
 40
4.0
 40
4.0
 40
5.0
 40
5.0
 40
5.0
 40
6.0
 40
6.0
 40
6.0
 40
7.0
 40
7.0
 40
7.0
 40
7.0
 10
89.70408526403232
 20
-159.8930826423184
 30
0.0
 10
89.7018459519669
 20
-159.9182318393607
 30
0.0
 10
89.69736732783608
 20
-159.9692192525424
 30
0.0
 10
89.65654294633588
 20
-159.9692192525424
 30
0.0
 10
89.64982501013964
 20
-159.9692192525424
 30
0.0
 10
89.63173825884206
 20
-159.9626735711205
 30
0.0
 10
89.61813013167533
 20
-159.9478596605339
 30
0.0
 10
89.61813013167533
 20
-159.9478596605339
 30
0.0
 10
89.44863143380104
 20
-159.7404649123218
 30
0.0
 10
89.44863143380104
 20
-159.7404649123218
 30
0.0
 10
89.57076006875315
 20
-159.7087700338575
 30
0.0
 10
89.8148450838831
 20
-159.6453802769289
 30
0.0
 10
90.22412242753077
 20
-159.3387667787417
 30
0.0
 10
90.55640188708313
 20
-159.0910644133522
 30
0.0
 10
90.72383352766627
 20
-158.8922824038533
 30
0.0
 10
90.87989635314808
 20
-158.6721408023459
 30
0.0
 10
90.87989635314808
 20
-158.6721408023459
 30
0.0
 10
91.01770017255808
 20
-158.8478406720936
 30
0.0
 10
91.01770017255808
 20
-158.8478406720936
 30
0.0
 10
90.69213864920196
 20
-159.3342881546109
 30
0.0
 10
90.00708141196004
 20
-159.776638414917
 30
0.0
 10
89.70408526403232
 20
-159.8930826423184
 30
0.0
  0
SPLINE
  5
98
330
90
100
AcDbEntity
  8
_U+30EC_U+30A4_U+30E4_U+30FC 1
370
     0
100
AcDbSpline
210
0.0
220
0.0
230
1.0
 70
    11
 71
     3
 72
    17
 73
    13
 74
     0
 42
0.0000000001
 43
0.0000000001
 12
1.0
 22
0.0
 32
0.0
 13
1.0
 23
0.0
 33
0.0
 40
0.0
 40
0.0
 40
0.0
 40
0.0
 40
1.0
 40
1.0
 40
1.0
 40
2.0
 40
2.0
 40
2.0
 40
3.0
 40
3.0
 40
3.0
 40
4.0
 40
4.0
 40
4.0
 40
4.0
 10
90.09527585638243
 20
-158.5367485497756
 30
0.0
 10
89.94369165503144
 20
-158.4227158892138
 30
0.0
 10
89.71545407913364
 20
-158.3379665402766
 30
0.0
 10
89.57747800494938
 20
-158.3000704899389
 30
0.0
 10
89.57747800494938
 20
-158.3000704899389
 30
0.0
 10
89.67015107350261
 20
-158.1243706201911
 30
0.0
 10
89.67015107350261
 20
-158.1243706201911
 30
0.0
 10
89.86910533777578
 20
-158.198440173124
 30
0.0
 10
90.04773353868599
 20
-158.2852565793523
 30
0.0
 10
90.19242754906648
 20
-158.3675943614498
 30
0.0
 10
90.19242754906648
 20
-158.3675943614498
 30
0.0
 10
90.09527585638243
 20
-158.5367485497756
 30
0.0
 10
90.09527585638243
 20
-158.5367485497756
 30
0.0
  0
SPLINE
  5
99
330
90
100
AcDbEntity
  8
_U+30EC_U+30A4_U+30E4_U+30FC 1
370
     0
100
AcDbSpline
210
0.0
220
0.0
230
1.0
 70
    11
 71
     3
 72
    17
 73
    13
 74
     0
 42
0.0000000001
 43
0.0000000001
 12
1.0
 22
0.0
 32
0.0
 13
1.0
 23
0.0
 33
0.0
 40
0.0
 40
0.0
 40
0.0
 40
0.0
 40
1.0
 40
1.0
 40
1.0
 40
2.0
 40
2.0
 40
2.0
 40
3.0
 40
3.0
 40
3.0
 40
4.0
 40
4.0
 40
4.0
 40
4.0
 10
90.79618053285651
 20
-158.4626789968427
 30
0.0
 10
90.73726940005874
 20
-158.405834921336
 30
0.0
 10
90.67181258583899
 20
-158.3465792789898
 30
0.0
 10
90.54968395088689
 20
-158.274576783348
 30
0.0
 10
90.54968395088689
 20
-158.274576783348
 30
0.0
 10
90.65148652247602
 20
-158.170879409242
 30
0.0
 10
90.65148652247602
 20
-158.170879409242
 30
0.0
 10
90.7352023427676
 20
-158.2132540837106
 30
0.0
 10
90.84578990784411
 20
-158.2725097260569
 30
0.0
 10
90.90917966477271
 20
-158.3548475081544
 30
0.0
 10
90.90917966477271
 20
-158.3548475081544
 30
0.0
 10
90.79618053285651
 20
-158.4626789968427
 30
0.0
 10
90.79618053285651
 20
-158.4626789968427
 30
0.0
  0
SPLINE
  5
9A
330
90
100
AcDbEntity
  8
_U+30EC_U+30A4_U+30E4_U+30FC 1
370
     0
100
AcDbSpline
210
0.0
220
0.0
230
1.0
 70
    11
 71
     3
 72
    17
 73
    13
 74
     0
 42
0.0000000001
 43
0.0000000001
 12
1.0
 22
0.0
 32
0.0
 13
1.0
 23
0.0
 33
0.0
 40
0.0
 40
0.0
 40
0.0
 40
0.0
 40
1.0
 40
1.0
 40
1.0
 40
2.0
 40
2.0
 40
2.0
 40
3.0
 40
3.0
 40
3.0
 40
4.0
 40
4.0
 40
4.0
 40
4.0
 10
91.03802623592105
 20
-158.3083387191035
 30
0.0
 10
91.01770017255808
 20
-158.2914577512257
 30
0.0
 10
90.79824759014767
 20
-158.1350504161954
 30
0.0
 10
90.76896427852304
 20
-158.115757881478
 30
0.0
 10
90.76896427852304
 20
-158.115757881478
 30
0.0
 10
90.88437497727891
 20
-158.0058593354985
 30
0.0
 10
90.88437497727891
 20
-158.0058593354985
 30
0.0
 10
91.00185273332593
 20
-158.0819959457226
 30
0.0
 10
91.01528860571841
 20
-158.0926757417269
 30
0.0
 10
91.15102536783725
 20
-158.198440173124
 30
0.0
 10
91.15102536783725
 20
-158.198440173124
 30
0.0
 10
91.03802623592105
 20
-158.3083387191035
 30
0.0
 10
91.03802623592105
 20
-158.3083387191035
 30
0.0
  0
HATCH
  5
9B
330
90
100
AcDbEntity
  8
_U+30EC_U+30A4_U+30E4_U+30FC 1
 62
   179
420
  2234388
100
AcDbHatch
 10
0.0
 20
0.0
 30
0.0
210
0.0
220
0.0
230
1.0
  2
SOLID
 70
     1
 71
     0
 91
        5
 92
        1
 93
        1
 72
     4
 94
        3
 73
     0
 74
     1
 95
       20
 96
       16
 40
0.0
 40
0.0
 40
0.0
 40
0.0
 40
1.0
 40
1.0
 40
1.0
 40
2.0
 40
2.0
 40
2.0
 40
3.0
 40
3.0
 40
3.0
 40
4.0
 40
4.0
 40
4.0
 40
5.0
 40
5.0
 40
5.0
 40
5.0
 10
89.83982202615115
 20
-159.0383544524279
 10
89.77195364509174
 20
-158.9939127206682
 10
89.73801945456202
 20
-158.9725531286597
 10
89.59108613211612
 20
-158.9132974863134
 10
89.42830537043807
 20
-158.8478406720936
 10
89.38300236480703
 20
-158.833026761507
 10
89.33098142297976
 20
-158.8161457936293
 10
89.33098142297976
 20
-158.8161457936293
 10
89.42830537043807
 20
-158.6363118092993
 10
89.42830537043807
 20
-158.6363118092993
 10
89.48928356052699
 20
-158.659738458599
 10
89.77419295715715
 20
-158.7675699472873
 10
89.93921303090062
 20
-158.8754014359756
 10
89.93921303090062
 20
-158.8754014359756
 10
89.83982202615115
 20
-159.0383544524279
 10
89.83982202615115
 20
-159.0383544524279
 97
        0
 97
        0
 92
        1
 93
        1
 72
     4
 94
        3
 73
     0
 74
     1
 95
       26
 96
       22
 40
0.0
 40
0.0
 40
0.0
 40
0.0
 40
1.0
 40
1.0
 40
1.0
 40
2.0
 40
2.0
 40
2.0
 40
3.0
 40
3.0
 40
3.0
 40
4.0
 40
4.0
 40
4.0
 40
5.0
 40
5.0
 40
5.0
 40
6.0
 40
6.0
 40
6.0
 40
7.0
 40
7.0
 40
7.0
 40
7.0
 10
89.70408526403232
 20
-159.8930826423184
 10
89.7018459519669
 20
-159.9182318393607
 10
89.69736732783608
 20
-159.9692192525424
 10
89.65654294633588
 20
-159.9692192525424
 10
89.64982501013964
 20
-159.9692192525424
 10
89.63173825884206
 20
-159.9626735711205
 10
89.61813013167533
 20
-159.9478596605339
 10
89.61813013167533
 20
-159.9478596605339
 10
89.44863143380104
 20
-159.7404649123218
 10
89.44863143380104
 20
-159.7404649123218
 10
89.57076006875315
 20
-159.7087700338575
 10
89.8148450838831
 20
-159.6453802769289
 10
90.22412242753077
 20
-159.3387667787417
 10
90.55640188708313
 20
-159.0910644133522
 10
90.72383352766627
 20
-158.8922824038533
 10
90.87989635314808
 20
-158.6721408023459
 10
90.87989635314808
 20
-158.6721408023459
 10
91.01770017255808
 20
-158.8478406720936
 10
91.01770017255808
 20
-158.8478406720936
 10
90.69213864920196
 20
-159.3342881546109
 10
90.00708141196004
 20
-159.776638414917
 10
89.70408526403232
 20
-159.8930826423184
 97
        0
 97
        0
 92
        1
 93
        1
 72
     4
 94
        3
 73
     0
 74
     1
 95
       17
 96
       13
 40
0.0
 40
0.0
 40
0.0
 40
0.0
 40
1.0
 40
1.0
 40
1.0
 40
2.0
 40
2.0
 40
2.0
 40
3.0
 40
3.0
 40
3.0
 40
4.0
 40
4.0
 40
4.0
 40
4.0
 10
90.09527585638243
 20
-158.5367485497756
 10
89.94369165503144
 20
-158.4227158892138
 10
89.71545407913364
 20
-158.3379665402766
 10
89.57747800494938
 20
-158.3000704899389
 10
89.57747800494938
 20
-158.3000704899389
 10
89.67015107350261
 20
-158.1243706201911
 10
89.67015107350261
 20
-158.1243706201911
 10
89.86910533777578
 20
-158.198440173124
 10
90.04773353868599
 20
-158.2852565793523
 10
90.19242754906648
 20
-158.3675943614498
 10
90.19242754906648
 20
-158.3675943614498
 10
90.09527585638243
 20
-158.5367485497756
 10
90.09527585638243
 20
-158.5367485497756
 97
        0
 97
        0
 92
        1
 93
        1
 72
     4
 94
        3
 73
     0
 74
     1
 95
       17
 96
       13
 40
0.0
 40
0.0
 40
0.0
 40
0.0
 40
1.0
 40
1.0
 40
1.0
 40
2.0
 40
2.0
 40
2.0
 40
3.0
 40
3.0
 40
3.0
 40
4.0
 40
4.0
 40
4.0
 40
4.0
 10
90.79618053285651
 20
-158.4626789968427
 10
90.73726940005874
 20
-158.405834921336
 10
90.67181258583899
 20
-158.3465792789898
 10
90.54968395088689
 20
-158.274576783348
 10
90.54968395088689
 20
-158.274576783348
 10
90.65148652247602
 20
-158.170879409242
 10
90.65148652247602
 20
-158.170879409242
 10
90.7352023427676
 20
-158.2132540837106
 10
90.84578990784411
 20
-158.2725097260569
 10
90.90917966477271
 20
-158.3548475081544
 10
90.90917966477271
 20
-158.3548475081544
 10
90.79618053285651
 20
-158.4626789968427
 10
90.79618053285651
 20
-158.4626789968427
 97
        0
 97
        0
 92
        1
 93
        1
 72
     4
 94
        3
 73
     0
 74
     1
 95
       17
 96
       13
 40
0.0
 40
0.0
 40
0.0
 40
0.0
 40
1.0
 40
1.0
 40
1.0
 40
2.0
 40
2.0
 40
2.0
 40
3.0
 40
3.0
 40
3.0
 40
4.0
 40
4.0
 40
4.0
 40
4.0
 10
91.03802623592105
 20
-158.3083387191035
 10
91.01770017255808
 20
-158.2914577512257
 10
90.79824759014767
 20
-158.1350504161954
 10
90.76896427852304
 20
-158.115757881478
 10
90.76896427852304
 20
-158.115757881478
 10
90.88437497727891
 20
-158.0058593354985
 10
90.88437497727891
 20
-158.0058593354985
 10
91.00185273332593
 20
-158.0819959457226
 10
91.01528860571841
 20
-158.0926757417269
 10
91.15102536783725
 20
-158.198440173124
 10
91.15102536783725
 20
-158.198440173124
 10
91.03802623592105
 20
-158.3083387191035
 10
91.03802623592105
 20
-158.3083387191035
 97
        0
 97
        0
 75
     2
 76
     1
 98
        0
  0
ENDBLK
  5
93
330
90
100
AcDbEntity
  8
0
100
AcDbBlockEnd
  0
BLOCK
  5
AA
330
A8
100
AcDbEntity
  8
0
100
AcDbBlockBegin
  2
block 3
 70
     0
 10
0.0
 20
0.0
 30
0.0
  3
block 3
  1

  0
SPLINE
  5
AC
330
A8
100
AcDbEntity
  8
_U+30EC_U+30A4_U+30E4_U+30FC 1
370
     0
100
AcDbSpline
210
0.0
220
0.0
230
1.0
 70
    11
 71
     3
 72
    44
 73
    40
 74
     0
 42
0.0000000001
 43
0.0000000001
 12
1.0
 22
0.0
 32
0.0
 13
1.0
 23
0.0
 33
0.0
 40
0.0
 40
0.0
 40
0.0
 40
0.0
 40
1.0
 40
1.0
 40
1.0
 40
2.0
 40
2.0
 40
2.0
 40
3.0
 40
3.0
 40
3.0
 40
4.0
 40
4.0
 40
4.0
 40
5.0
 40
5.0
 40
5.0
 40
6.0
 40
6.0
 40
6.0
 40
7.0
 40
7.0
 40
7.0
 40
8.0
 40
8.0
 40
8.0
 40
9.0
 40
9.0
 40
9.0
 40
10.0
 40
10.0
 40
10.0
 40
11.0
 40
11.0
 40
11.0
 40
12.0
 40
12.0
 40
12.0
 40
13.0
 40
13.0
 40
13.0
 40
13.0
 10
105.1191650127827
 20
-135.3788166979261
 30
0.0
 10
104.8862765579798
 20
-135.5376355997961
 30
0.0
 10
104.7867132984561
 20
-135.611705152729
 30
0.0
 10
104.7350368661774
 20
-135.7553656344639
 30
0.0
 10
104.7350368661774
 20
-135.7553656344639
 30
0.0
 10
105.5666829163167
 20
-135.7553656344639
 30
0.0
 10
105.5666829163167
 20
-135.7553656344639
 30
0.0
 10
105.5666829163167
 20
-135.7553656344639
 30
0.0
 10
105.5666829163167
 20
-135.9606933253848
 30
0.0
 10
105.5666829163167
 20
-135.9606933253848
 30
0.0
 10
105.5666829163167
 20
-135.9606933253848
 30
0.0
 10
104.4680419660705
 20
-135.9606933253848
 30
0.0
 10
104.4680419660705
 20
-135.9606933253848
 30
0.0
 10
104.5021484113745
 20
-135.6030924140159
 30
0.0
 10
104.572083849725
 20
-135.5248887465007
 30
0.0
 10
104.9834282506639
 20
-135.2265434774781
 30
0.0
 10
105.2569688321927
 20
-135.0277614679792
 30
0.0
 10
105.3272487800918
 20
-134.9598930869197
 30
0.0
 10
105.3272487800918
 20
-134.8224337770583
 30
0.0
 10
105.3272487800918
 20
-134.7039224923657
 30
0.0
 10
105.2504231507707
 20
-134.5730088639262
 30
0.0
 10
105.039927816622
 20
-134.5730088639262
 30
0.0
 10
104.7619086109623
 20
-134.5730088639262
 30
0.0
 10
104.7529513627007
 20
-134.8034857518894
 30
0.0
 10
104.7484727385698
 20
-134.9199299792909
 30
0.0
 10
104.7484727385698
 20
-134.9199299792909
 30
0.0
 10
104.5086940927964
 20
-134.9199299792909
 30
0.0
 10
104.5086940927964
 20
-134.9199299792909
 30
0.0
 10
104.5179958506066
 20
-134.7928059558851
 30
0.0
 10
104.5290201561594
 20
-134.6808403526145
 30
0.0
 10
104.6151475432907
 20
-134.5623290679219
 30
0.0
 10
104.7326252993377
 20
-134.4014431087608
 30
0.0
 10
104.9314073088366
 20
-134.3676811730053
 30
0.0
 10
105.0557752558541
 20
-134.3676811730053
 30
0.0
 10
105.3520534675856
 20
-134.3676811730053
 30
0.0
 10
105.5735731072872
 20
-134.5516492719177
 30
0.0
 10
105.5735731072872
 20
-134.8245008343494
 30
0.0
 10
105.5735731072872
 20
-135.05325517457
 30
0.0
 10
105.4492051602696
 20
-135.1524739245452
 30
0.0
 10
105.1191650127827
 20
-135.3788166979261
 30
0.0
  0
HATCH
  5
AD
330
A8
100
AcDbEntity
  8
_U+30EC_U+30A4_U+30E4_U+30FC 1
 62
   179
420
  2234388
100
AcDbHatch
 10
0.0
 20
0.0
 30
0.0
210
0.0
220
0.0
230
1.0
  2
SOLID
 70
     1
 71
     0
 91
        1
 92
        1
 93
        1
 72
     4
 94
        3
 73
     0
 74
     1
 95
       44
 96
       40
 40
0.0
 40
0.0
 40
0.0
 40
0.0
 40
1.0
 40
1.0
 40
1.0
 40
2.0
 40
2.0
 40
2.0
 40
3.0
 40
3.0
 40
3.0
 40
4.0
 40
4.0
 40
4.0
 40
5.0
 40
5.0
 40
5.0
 40
6.0
 40
6.0
 40
6.0
 40
7.0
 40
7.0
 40
7.0
 40
8.0
 40
8.0
 40
8.0
 40
9.0
 40
9.0
 40
9.0
 40
10.0
 40
10.0
 40
10.0
 40
11.0
 40
11.0
 40
11.0
 40
12.0
 40
12.0
 40
12.0
 40
13.0
 40
13.0
 40
13.0
 40
13.0
 10
105.1191650127827
 20
-135.3788166979261
 10
104.8862765579798
 20
-135.5376355997961
 10
104.7867132984561
 20
-135.611705152729
 10
104.7350368661774
 20
-135.7553656344639
 10
104.7350368661774
 20
-135.7553656344639
 10
105.5666829163167
 20
-135.7553656344639
 10
105.5666829163167
 20
-135.7553656344639
 10
105.5666829163167
 20
-135.7553656344639
 10
105.5666829163167
 20
-135.9606933253848
 10
105.5666829163167
 20
-135.9606933253848
 10
105.5666829163167
 20
-135.9606933253848
 10
104.4680419660705
 20
-135.9606933253848
 10
104.4680419660705
 20
-135.9606933253848
 10
104.5021484113745
 20
-135.6030924140159
 10
104.572083849725
 20
-135.5248887465007
 10
104.9834282506639
 20
-135.2265434774781
 10
105.2569688321927
 20
-135.0277614679792
 10
105.3272487800918
 20
-134.9598930869197
 10
105.3272487800918
 20
-134.8224337770583
 10
105.3272487800918
 20
-134.7039224923657
 10
105.2504231507707
 20
-134.5730088639262
 10
105.039927816622
 20
-134.5730088639262
 10
104.7619086109623
 20
-134.5730088639262
 10
104.7529513627007
 20
-134.8034857518894
 10
104.7484727385698
 20
-134.9199299792909
 10
104.7484727385698
 20
-134.9199299792909
 10
104.5086940927964
 20
-134.9199299792909
 10
104.5086940927964
 20
-134.9199299792909
 10
104.5179958506066
 20
-134.7928059558851
 10
104.5290201561594
 20
-134.6808403526145
 10
104.6151475432907
 20
-134.5623290679219
 10
104.7326252993377
 20
-134.4014431087608
 10
104.9314073088366
 20
-134.3676811730053
 10
105.0557752558541
 20
-134.3676811730053
 10
105.3520534675856
 20
-134.3676811730053
 10
105.5735731072872
 20
-134.5516492719177
 10
105.5735731072872
 20
-134.8245008343494
 10
105.5735731072872
 20
-135.05325517457
 10
105.4492051602696
 20
-135.1524739245452
 10
105.1191650127827
 20
-135.3788166979261
 97
        0
 97
        0
 75
     2
 76
     1
 98
        0
  0
SPLINE
  5
AE
330
A8
100
AcDbEntity
  8
_U+30EC_U+30A4_U+30E4_U+30FC 1
370
     0
100
AcDbSpline
210
0.0
220
0.0
230
1.0
 70
    11
 71
     3
 72
    53
 73
    49
 74
     0
 42
0.0000000001
 43
0.0000000001
 12
1.0
 22
0.0
 32
0.0
 13
1.0
 23
0.0
 33
0.0
 40
0.0
 40
0.0
 40
0.0
 40
0.0
 40
1.0
 40
1.0
 40
1.0
 40
2.0
 40
2.0
 40
2.0
 40
3.0
 40
3.0
 40
3.0
 40
4.0
 40
4.0
 40
4.0
 40
5.0
 40
5.0
 40
5.0
 40
6.0
 40
6.0
 40
6.0
 40
7.0
 40
7.0
 40
7.0
 40
8.0
 40
8.0
 40
8.0
 40
9.0
 40
9.0
 40
9.0
 40
10.0
 40
10.0
 40
10.0
 40
11.0
 40
11.0
 40
11.0
 40
12.0
 40
12.0
 40
12.0
 40
13.0
 40
13.0
 40
13.0
 40
14.0
 40
14.0
 40
14.0
 40
15.0
 40
15.0
 40
15.0
 40
16.0
 40
16.0
 40
16.0
 40
16.0
 10
106.2570800515607
 20
-136.011336229018
 30
0.0
 10
106.1737087408177
 20
-136.011336229018
 30
0.0
 10
106.0648437234838
 20
-135.9944552611403
 30
0.0
 10
105.9566677252469
 20
-135.9310655042117
 30
0.0
 10
105.770977078592
 20
-135.8211669582322
 30
0.0
 10
105.7485839579379
 20
-135.6899088202442
 30
0.0
 10
105.7282578945749
 20
-135.5820773315559
 30
0.0
 10
105.7282578945749
 20
-135.5820773315559
 30
0.0
 10
105.9656249735086
 20
-135.5820773315559
 30
0.0
 10
105.9656249735086
 20
-135.5820773315559
 30
0.0
 10
106.0241915967578
 20
-135.7808593410548
 30
0.0
 10
106.1599283588767
 20
-135.8104871622279
 30
0.0
 10
106.2594916184004
 20
-135.8104871622279
 30
0.0
 10
106.4086642529117
 20
-135.8104871622279
 30
0.0
 10
106.5712727598155
 20
-135.7109239027042
 30
0.0
 10
106.5712727598155
 20
-135.4783799574498
 30
0.0
 10
106.5712727598155
 20
-135.2224093628958
 30
0.0
 10
106.3793809412871
 20
-135.1524739245452
 30
0.0
 10
106.2505343701388
 20
-135.1524739245452
 30
0.0
 10
106.2164279248348
 20
-135.1524739245452
 30
0.0
 10
106.0648437234838
 20
-135.1524739245452
 30
0.0
 10
105.9701035976394
 20
-135.2816650052421
 30
0.0
 10
105.9701035976394
 20
-135.2816650052421
 30
0.0
 10
105.7823458936933
 20
-135.2627169800732
 30
0.0
 10
105.7823458936933
 20
-135.2627169800732
 30
0.0
 10
105.7823458936933
 20
-135.2627169800732
 30
0.0
 10
105.9111924648416
 20
-134.4162570193473
 30
0.0
 10
105.9111924648416
 20
-134.4162570193473
 30
0.0
 10
105.9111924648416
 20
-134.4162570193473
 30
0.0
 10
106.7431830245295
 20
-134.4162570193473
 30
0.0
 10
106.7431830245295
 20
-134.4162570193473
 30
0.0
 10
106.7431830245295
 20
-134.4162570193473
 30
0.0
 10
106.7431830245295
 20
-134.610904914264
 30
0.0
 10
106.7431830245295
 20
-134.610904914264
 30
0.0
 10
106.7431830245295
 20
-134.610904914264
 30
0.0
 10
106.0855142963953
 20
-134.610904914264
 30
0.0
 10
106.0855142963953
 20
-134.610904914264
 30
0.0
 10
106.0855142963953
 20
-134.610904914264
 30
0.0
 10
106.0152343484962
 20
-135.0339626398526
 30
0.0
 10
106.0152343484962
 20
-135.0339626398526
 30
0.0
 10
106.0806911627159
 20
-135.0002007040972
 30
0.0
 10
106.1688856071383
 20
-134.9598930869197
 30
0.0
 10
106.2956651209955
 20
-134.9598930869197
 30
0.0
 10
106.5667941356847
 20
-134.9598930869197
 30
0.0
 10
106.8200086538506
 20
-135.1462727526718
 30
0.0
 10
106.8200086538506
 20
-135.459431932281
 30
0.0
 10
106.8200086538506
 20
-135.7767252264725
 30
0.0
 10
106.5805745176257
 20
-136.011336229018
 30
0.0
 10
106.2570800515607
 20
-136.011336229018
 30
0.0
  0
HATCH
  5
AF
330
A8
100
AcDbEntity
  8
_U+30EC_U+30A4_U+30E4_U+30FC 1
 62
   179
420
  2234388
100
AcDbHatch
 10
0.0
 20
0.0
 30
0.0
210
0.0
220
0.0
230
1.0
  2
SOLID
 70
     1
 71
     0
 91
        1
 92
        1
 93
        1
 72
     4
 94
        3
 73
     0
 74
     1
 95
       53
 96
       49
 40
0.0
 40
0.0
 40
0.0
 40
0.0
 40
1.0
 40
1.0
 40
1.0
 40
2.0
 40
2.0
 40
2.0
 40
3.0
 40
3.0
 40
3.0
 40
4.0
 40
4.0
 40
4.0
 40
5.0
 40
5.0
 40
5.0
 40
6.0
 40
6.0
 40
6.0
 40
7.0
 40
7.0
 40
7.0
 40
8.0
 40
8.0
 40
8.0
 40
9.0
 40
9.0
 40
9.0
 40
10.0
 40
10.0
 40
10.0
 40
11.0
 40
11.0
 40
11.0
 40
12.0
 40
12.0
 40
12.0
 40
13.0
 40
13.0
 40
13.0
 40
14.0
 40
14.0
 40
14.0
 40
15.0
 40
15.0
 40
15.0
 40
16.0
 40
16.0
 40
16.0
 40
16.0
 10
106.2570800515607
 20
-136.011336229018
 10
106.1737087408177
 20
-136.011336229018
 10
106.0648437234838
 20
-135.9944552611403
 10
105.9566677252469
 20
-135.9310655042117
 10
105.770977078592
 20
-135.8211669582322
 10
105.7485839579379
 20
-135.6899088202442
 10
105.7282578945749
 20
-135.5820773315559
 10
105.7282578945749
 20
-135.5820773315559
 10
105.9656249735086
 20
-135.5820773315559
 10
105.9656249735086
 20
-135.5820773315559
 10
106.0241915967578
 20
-135.7808593410548
 10
106.1599283588767
 20
-135.8104871622279
 10
106.2594916184004
 20
-135.8104871622279
 10
106.4086642529117
 20
-135.8104871622279
 10
106.5712727598155
 20
-135.7109239027042
 10
106.5712727598155
 20
-135.4783799574498
 10
106.5712727598155
 20
-135.2224093628958
 10
106.3793809412871
 20
-135.1524739245452
 10
106.2505343701388
 20
-135.1524739245452
 10
106.2164279248348
 20
-135.1524739245452
 10
106.0648437234838
 20
-135.1524739245452
 10
105.9701035976394
 20
-135.2816650052421
 10
105.9701035976394
 20
-135.2816650052421
 10
105.7823458936933
 20
-135.2627169800732
 10
105.7823458936933
 20
-135.2627169800732
 10
105.7823458936933
 20
-135.2627169800732
 10
105.9111924648416
 20
-134.4162570193473
 10
105.9111924648416
 20
-134.4162570193473
 10
105.9111924648416
 20
-134.4162570193473
 10
106.7431830245295
 20
-134.4162570193473
 10
106.7431830245295
 20
-134.4162570193473
 10
106.7431830245295
 20
-134.4162570193473
 10
106.7431830245295
 20
-134.610904914264
 10
106.7431830245295
 20
-134.610904914264
 10
106.7431830245295
 20
-134.610904914264
 10
106.0855142963953
 20
-134.610904914264
 10
106.0855142963953
 20
-134.610904914264
 10
106.0855142963953
 20
-134.610904914264
 10
106.0152343484962
 20
-135.0339626398526
 10
106.0152343484962
 20
-135.0339626398526
 10
106.0806911627159
 20
-135.0002007040972
 10
106.1688856071383
 20
-134.9598930869197
 10
106.2956651209955
 20
-134.9598930869197
 10
106.5667941356847
 20
-134.9598930869197
 10
106.8200086538506
 20
-135.1462727526718
 10
106.8200086538506
 20
-135.459431932281
 10
106.8200086538506
 20
-135.7767252264725
 10
106.5805745176257
 20
-136.011336229018
 10
106.2570800515607
 20
-136.011336229018
 97
        0
 97
        0
 75
     2
 76
     1
 98
        0
  0
ENDBLK
  5
AB
330
A8
100
AcDbEntity
  8
0
100
AcDbBlockEnd
  0
BLOCK
  5
BA
330
B8
100
AcDbEntity
  8
0
100
AcDbBlockBegin
  2
block 4
 70
     0
 10
0.0
 20
0.0
 30
0.0
  3
block 4
  1

  0
SPLINE
  5
BC
330
B8
100
AcDbEntity
  8
_U+30EC_U+30A4_U+30E4_U+30FC 1
370
     0
100
AcDbSpline
210
0.0
220
0.0
230
1.0
 70
    11
 71
     3
 72
    26
 73
    22
 74
     0
 42
0.0000000001
 43
0.0000000001
 12
1.0
 22
0.0
 32
0.0
 13
1.0
 23
0.0
 33
0.0
 40
0.0
 40
0.0
 40
0.0
 40
0.0
 40
1.0
 40
1.0
 40
1.0
 40
2.0
 40
2.0
 40
2.0
 40
3.0
 40
3.0
 40
3.0
 40
4.0
 40
4.0
 40
4.0
 40
5.0
 40
5.0
 40
5.0
 40
6.0
 40
6.0
 40
6.0
 40
7.0
 40
7.0
 40
7.0
 40
7.0
 10
92.63431122901156
 20
-135.9610378349334
 30
0.0
 10
92.63431122901156
 20
-135.9610378349334
 30
0.0
 10
92.63431122901156
 20
-134.8567124771365
 30
0.0
 10
92.63431122901156
 20
-134.8567124771365
 30
0.0
 10
92.63431122901156
 20
-134.8567124771365
 30
0.0
 10
92.28153345132198
 20
-134.8567124771365
 30
0.0
 10
92.28153345132198
 20
-134.8567124771365
 30
0.0
 10
92.28153345132198
 20
-134.8567124771365
 30
0.0
 10
92.28153345132198
 20
-134.708745626045
 30
0.0
 10
92.28153345132198
 20
-134.708745626045
 30
0.0
 10
92.63655054107697
 20
-134.6939317154585
 30
0.0
 10
92.68633217083884
 20
-134.5309786990061
 30
0.0
 10
92.71785479452888
 20
-134.4167737836701
 30
0.0
 10
92.71785479452888
 20
-134.4167737836701
 30
0.0
 10
92.87391762001069
 20
-134.4167737836701
 30
0.0
 10
92.87391762001069
 20
-134.4167737836701
 30
0.0
 10
92.87391762001069
 20
-134.4167737836701
 30
0.0
 10
92.87391762001069
 20
-135.9610378349334
 30
0.0
 10
92.87391762001069
 20
-135.9610378349334
 30
0.0
 10
92.87391762001069
 20
-135.9610378349334
 30
0.0
 10
92.63431122901156
 20
-135.9610378349334
 30
0.0
 10
92.63431122901156
 20
-135.9610378349334
 30
0.0
  0
HATCH
  5
BD
330
B8
100
AcDbEntity
  8
_U+30EC_U+30A4_U+30E4_U+30FC 1
 62
   179
420
  2234388
100
AcDbHatch
 10
0.0
 20
0.0
 30
0.0
210
0.0
220
0.0
230
1.0
  2
SOLID
 70
     1
 71
     0
 91
        1
 92
        1
 93
        1
 72
     4
 94
        3
 73
     0
 74
     1
 95
       26
 96
       22
 40
0.0
 40
0.0
 40
0.0
 40
0.0
 40
1.0
 40
1.0
 40
1.0
 40
2.0
 40
2.0
 40
2.0
 40
3.0
 40
3.0
 40
3.0
 40
4.0
 40
4.0
 40
4.0
 40
5.0
 40
5.0
 40
5.0
 40
6.0
 40
6.0
 40
6.0
 40
7.0
 40
7.0
 40
7.0
 40
7.0
 10
92.63431122901156
 20
-135.9610378349334
 10
92.63431122901156
 20
-135.9610378349334
 10
92.63431122901156
 20
-134.8567124771365
 10
92.63431122901156
 20
-134.8567124771365
 10
92.63431122901156
 20
-134.8567124771365
 10
92.28153345132198
 20
-134.8567124771365
 10
92.28153345132198
 20
-134.8567124771365
 10
92.28153345132198
 20
-134.8567124771365
 10
92.28153345132198
 20
-134.708745626045
 10
92.28153345132198
 20
-134.708745626045
 10
92.63655054107697
 20
-134.6939317154585
 10
92.68633217083884
 20
-134.5309786990061
 10
92.71785479452888
 20
-134.4167737836701
 10
92.71785479452888
 20
-134.4167737836701
 10
92.87391762001069
 20
-134.4167737836701
 10
92.87391762001069
 20
-134.4167737836701
 10
92.87391762001069
 20
-134.4167737836701
 10
92.87391762001069
 20
-135.9610378349334
 10
92.87391762001069
 20
-135.9610378349334
 10
92.87391762001069
 20
-135.9610378349334
 10
92.63431122901156
 20
-135.9610378349334
 10
92.63431122901156
 20
-135.9610378349334
 97
        0
 97
        0
 75
     2
 76
     1
 98
        0
  0
ENDBLK
  5
BB
330
B8
100
AcDbEntity
  8
0
100
AcDbBlockEnd
  0
BLOCK
  5
CC
330
CA
100
AcDbEntity
  8
0
100
AcDbBlockBegin
  2
block 5
 70
     0
 10
0.0
 20
0.0
 30
0.0
  3
block 5
  1

  0
SPLINE
  5
CE
330
CA
100
AcDbEntity
  8
_U+30EC_U+30A4_U+30E4_U+30FC 1
370
     0
100
AcDbSpline
210
0.0
220
0.0
230
1.0
 70
    11
 71
     3
 72
    29
 73
    25
 74
     0
 42
0.0000000001
 43
0.0000000001
 12
1.0
 22
0.0
 32
0.0
 13
1.0
 23
0.0
 33
0.0
 40
0.0
 40
0.0
 40
0.0
 40
0.0
 40
1.0
 40
1.0
 40
1.0
 40
2.0
 40
2.0
 40
2.0
 40
3.0
 40
3.0
 40
3.0
 40
4.0
 40
4.0
 40
4.0
 40
5.0
 40
5.0
 40
5.0
 40
6.0
 40
6.0
 40
6.0
 40
7.0
 40
7.0
 40
7.0
 40
8.0
 40
8.0
 40
8.0
 40
8.0
 10
105.3696234545604
 20
-150.1996174754709
 30
0.0
 10
105.5790852600636
 20
-150.3150281742268
 30
0.0
 10
105.5980332852324
 20
-150.5003743113332
 30
0.0
 10
105.5980332852324
 20
-150.6247422583508
 30
0.0
 10
105.5980332852324
 20
-150.7963080135162
 30
0.0
 10
105.5515244961816
 20
-150.9478922148672
 30
0.0
 10
105.3696234545604
 20
-151.0495225316821
 30
0.0
 10
105.1749755596438
 20
-151.1604546063071
 30
0.0
 10
104.9382974998071
 20
-151.1807806696701
 30
0.0
 10
104.7753444833548
 20
-151.1807806696701
 30
0.0
 10
104.6313394920713
 20
-151.1807806696701
 30
0.0
 10
104.3795030120996
 20
-151.1628661731468
 30
0.0
 10
104.1807210026007
 20
-151.0495225316821
 30
0.0
 10
103.9778048785194
 20
-150.9344563424747
 30
0.0
 10
103.9543782292197
 20
-150.7625460777608
 30
0.0
 10
103.9543782292197
 20
-150.6247422583508
 30
0.0
 10
103.9543782292197
 20
-150.4548990509279
 30
0.0
 10
103.9988199609795
 20
-150.3012477922858
 30
0.0
 10
104.1807210026007
 20
-150.1996174754709
 30
0.0
 10
104.3733018402261
 20
-150.0931640249767
 30
0.0
 10
104.6017116708982
 20
-150.0683593374829
 30
0.0
 10
104.7753444833548
 20
-150.0683593374829
 30
0.0
 10
104.9465657289717
 20
-150.0683593374829
 30
0.0
 10
105.1770426169349
 20
-150.0910969676856
 30
0.0
 10
105.3696234545604
 20
-150.1996174754709
 30
0.0
  0
SPLINE
  5
CF
330
CA
100
AcDbEntity
  8
_U+30EC_U+30A4_U+30E4_U+30FC 1
370
     0
100
AcDbSpline
210
0.0
220
0.0
230
1.0
 70
    11
 71
     3
 72
    17
 73
    13
 74
     0
 42
0.0000000001
 43
0.0000000001
 12
1.0
 22
0.0
 32
0.0
 13
1.0
 23
0.0
 33
0.0
 40
0.0
 40
0.0
 40
0.0
 40
0.0
 40
1.0
 40
1.0
 40
1.0
 40
2.0
 40
2.0
 40
2.0
 40
3.0
 40
3.0
 40
3.0
 40
4.0
 40
4.0
 40
4.0
 40
4.0
 10
104.1469590668452
 20
-150.6247422583508
 30
0.0
 10
104.1469590668452
 20
-150.8913926489091
 30
0.0
 10
104.4304904252813
 20
-150.9410020238967
 30
0.0
 10
104.7753444833548
 20
-150.9410020238967
 30
0.0
 10
105.0947048348374
 20
-150.9410020238967
 30
0.0
 10
105.4033853903158
 20
-150.9027614640104
 30
0.0
 10
105.4033853903158
 20
-150.6247422583508
 30
0.0
 10
105.4033853903158
 20
-150.3601589250836
 30
0.0
 10
105.1222655987194
 20
-150.3081379832563
 30
0.0
 10
104.7753444833548
 20
-150.3081379832563
 30
0.0
 10
104.4556396223236
 20
-150.3081379832563
 30
0.0
 10
104.1469590668452
 20
-150.3487901099822
 30
0.0
 10
104.1469590668452
 20
-150.6247422583508
 30
0.0
  0
HATCH
  5
D0
330
CA
100
AcDbEntity
  8
_U+30EC_U+30A4_U+30E4_U+30FC 1
 62
   179
420
  2234388
100
AcDbHatch
 10
0.0
 20
0.0
 30
0.0
210
0.0
220
0.0
230
1.0
  2
SOLID
 70
     1
 71
     0
 91
        2
 92
        1
 93
        1
 72
     4
 94
        3
 73
     0
 74
     1
 95
       29
 96
       25
 40
0.0
 40
0.0
 40
0.0
 40
0.0
 40
1.0
 40
1.0
 40
1.0
 40
2.0
 40
2.0
 40
2.0
 40
3.0
 40
3.0
 40
3.0
 40
4.0
 40
4.0
 40
4.0
 40
5.0
 40
5.0
 40
5.0
 40
6.0
 40
6.0
 40
6.0
 40
7.0
 40
7.0
 40
7.0
 40
8.0
 40
8.0
 40
8.0
 40
8.0
 10
105.3696234545604
 20
-150.1996174754709
 10
105.5790852600636
 20
-150.3150281742268
 10
105.5980332852324
 20
-150.5003743113332
 10
105.5980332852324
 20
-150.6247422583508
 10
105.5980332852324
 20
-150.7963080135162
 10
105.5515244961816
 20
-150.9478922148672
 10
105.3696234545604
 20
-151.0495225316821
 10
105.1749755596438
 20
-151.1604546063071
 10
104.9382974998071
 20
-151.1807806696701
 10
104.7753444833548
 20
-151.1807806696701
 10
104.6313394920713
 20
-151.1807806696701
 10
104.3795030120996
 20
-151.1628661731468
 10
104.1807210026007
 20
-151.0495225316821
 10
103.9778048785194
 20
-150.9344563424747
 10
103.9543782292197
 20
-150.7625460777608
 10
103.9543782292197
 20
-150.6247422583508
 10
103.9543782292197
 20
-150.4548990509279
 10
103.9988199609795
 20
-150.3012477922858
 10
104.1807210026007
 20
-150.1996174754709
 10
104.3733018402261
 20
-150.0931640249767
 10
104.6017116708982
 20
-150.0683593374829
 10
104.7753444833548
 20
-150.0683593374829
 10
104.9465657289717
 20
-150.0683593374829
 10
105.1770426169349
 20
-150.0910969676856
 10
105.3696234545604
 20
-150.1996174754709
 97
        0
 97
        0
 92
        1
 93
        1
 72
     4
 94
        3
 73
     0
 74
     1
 95
       17
 96
       13
 40
0.0
 40
0.0
 40
0.0
 40
0.0
 40
1.0
 40
1.0
 40
1.0
 40
2.0
 40
2.0
 40
2.0
 40
3.0
 40
3.0
 40
3.0
 40
4.0
 40
4.0
 40
4.0
 40
4.0
 10
104.1469590668452
 20
-150.6247422583508
 10
104.1469590668452
 20
-150.8913926489091
 10
104.4304904252813
 20
-150.9410020238967
 10
104.7753444833548
 20
-150.9410020238967
 10
105.0947048348374
 20
-150.9410020238967
 10
105.4033853903158
 20
-150.9027614640104
 10
105.4033853903158
 20
-150.6247422583508
 10
105.4033853903158
 20
-150.3601589250836
 10
105.1222655987194
 20
-150.3081379832563
 10
104.7753444833548
 20
-150.3081379832563
 10
104.4556396223236
 20
-150.3081379832563
 10
104.1469590668452
 20
-150.3487901099822
 10
104.1469590668452
 20
-150.6247422583508
 97
        0
 97
        0
 75
     2
 76
     1
 98
        0
  0
POLYLINE
  5
D1
330
CA
100
AcDbEntity
  8
_U+30EC_U+30A4_U+30E4_U+30FC 1
370
     0
100
AcDb2dPolyline
 66
     1
 10
0.0
 20
0.0
 30
0.0
  0
VERTEX
  5
D2
330
D1
100
AcDbEntity
  8
_U+30EC_U+30A4_U+30E4_U+30FC 1
370
     0
100
AcDbVertex
100
AcDb2dVertex
 10
105.5473903815993
 20
-149.8371934304226
 30
0.0
  0
VERTEX
  5
D3
330
D1
100
AcDbEntity
  8
_U+30EC_U+30A4_U+30E4_U+30FC 1
370
     0
100
AcDbVertex
100
AcDb2dVertex
 10
105.2955539016275
 20
-149.8371934304226
 30
0.0
  0
VERTEX
  5
D4
330
D1
100
AcDbEntity
  8
_U+30EC_U+30A4_U+30E4_U+30FC 1
370
     0
100
AcDbVertex
100
AcDb2dVertex
 10
105.2955539016275
 20
-149.5681314730246
 30
0.0
  0
VERTEX
  5
D5
330
D1
100
AcDbEntity
  8
_U+30EC_U+30A4_U+30E4_U+30FC 1
370
     0
100
AcDbVertex
100
AcDb2dVertex
 10
105.5473903815993
 20
-149.5681314730246
 30
0.0
  0
VERTEX
  5
D6
330
D1
100
AcDbEntity
  8
_U+30EC_U+30A4_U+30E4_U+30FC 1
370
     0
100
AcDbVertex
100
AcDb2dVertex
 10
105.5473903815993
 20
-149.8371934304226
 30
0.0
  0
SEQEND
  5
D7
330
D1
100
AcDbEntity
  8
_U+30EC_U+30A4_U+30E4_U+30FC 1
370
     0
  0
HATCH
  5
D8
330
CA
100
AcDbEntity
  8
_U+30EC_U+30A4_U+30E4_U+30FC 1
 62
   179
420
  2234388
100
AcDbHatch
 10
0.0
 20
0.0
 30
0.0
210
0.0
220
0.0
230
1.0
  2
SOLID
 70
     1
 71
     0
 91
        1
 92
        1
 93
        4
 72
     1
 10
105.5473903815993
 20
-149.8371934304226
 11
105.2955539016275
 21
-149.8371934304226
 72
     1
 10
105.2955539016275
 20
-149.8371934304226
 11
105.2955539016275
 21
-149.5681314730246
 72
     1
 10
105.2955539016275
 20
-149.5681314730246
 11
105.5473903815993
 21
-149.5681314730246
 72
     1
 10
105.5473903815993
 20
-149.5681314730246
 11
105.5473903815993
 21
-149.8371934304226
 97
        0
 75
     2
 76
     1
 98
        0
  0
SPLINE
  5
D9
330
CA
100
AcDbEntity
  8
_U+30EC_U+30A4_U+30E4_U+30FC 1
370
     0
100
AcDbSpline
210
0.0
220
0.0
230
1.0
 70
    11
 71
     3
 72
    62
 73
    58
 74
     0
 42
0.0000000001
 43
0.0000000001
 12
1.0
 22
0.0
 32
0.0
 13
1.0
 23
0.0
 33
0.0
 40
0.0
 40
0.0
 40
0.0
 40
0.0
 40
1.0
 40
1.0
 40
1.0
 40
2.0
 40
2.0
 40
2.0
 40
3.0
 40
3.0
 40
3.0
 40
4.0
 40
4.0
 40
4.0
 40
5.0
 40
5.0
 40
5.0
 40
6.0
 40
6.0
 40
6.0
 40
7.0
 40
7.0
 40
7.0
 40
8.0
 40
8.0
 40
8.0
 40
9.0
 40
9.0
 40
9.0
 40
10.0
 40
10.0
 40
10.0
 40
11.0
 40
11.0
 40
11.0
 40
12.0
 40
12.0
 40
12.0
 40
13.0
 40
13.0
 40
13.0
 40
14.0
 40
14.0
 40
14.0
 40
15.0
 40
15.0
 40
15.0
 40
16.0
 40
16.0
 40
16.0
 40
17.0
 40
17.0
 40
17.0
 40
18.0
 40
18.0
 40
18.0
 40
19.0
 40
19.0
 40
19.0
 40
19.0
 10
105.5980332852324
 20
-148.7898844029067
 30
0.0
 10
105.5980332852324
 20
-148.8915147197216
 30
0.0
 10
105.5770182027724
 20
-149.1244031745245
 30
0.0
 10
105.3909830465689
 20
-149.2577283698036
 30
0.0
 10
105.2786729337498
 20
-149.3369655659644
 30
0.0
 10
105.1794541837746
 20
-149.3414441900952
 30
0.0
 10
105.0947048348374
 20
-149.345922814226
 30
0.0
 10
105.0947048348374
 20
-149.345922814226
 30
0.0
 10
105.0947048348374
 20
-149.110967302132
 30
0.0
 10
105.0947048348374
 20
-149.110967302132
 30
0.0
 10
105.1687743877703
 20
-149.1085557352923
 30
0.0
 10
105.4033853903158
 20
-149.097186920191
 30
0.0
 10
105.4033853903158
 20
-148.7943630270375
 30
0.0
 10
105.4033853903158
 20
-148.6472574498173
 30
0.0
 10
105.3337944615138
 20
-148.4846489429136
 30
0.0
 10
105.1053846308417
 20
-148.4846489429136
 30
0.0
 10
104.9889404034403
 20
-148.4846489429136
 30
0.0
 10
104.9403645570982
 20
-148.5253010696395
 30
0.0
 10
104.9086696786339
 20
-148.559063005395
 30
0.0
 10
104.8346001257011
 20
-148.6383002015557
 30
0.0
 10
104.8218532724056
 20
-148.7626681485732
 30
0.0
 10
104.8218532724056
 20
-148.821579281371
 30
0.0
 10
104.8218532724056
 20
-148.841905344734
 30
0.0
 10
104.8239203296968
 20
-148.8801459046202
 30
0.0
 10
104.8280544442791
 20
-148.9097737257934
 30
0.0
 10
104.8280544442791
 20
-148.9097737257934
 30
0.0
 10
104.6334065493625
 20
-148.9097737257934
 30
0.0
 10
104.6334065493625
 20
-148.9097737257934
 30
0.0
 10
104.6399522307845
 20
-148.8691215990675
 30
0.0
 10
104.6420192880756
 20
-148.8236463386621
 30
0.0
 10
104.6420192880756
 20
-148.8171006572402
 30
0.0
 10
104.6420192880756
 20
-148.7468207093411
 30
0.0
 10
104.6206596960671
 20
-148.5342583179012
 30
0.0
 10
104.3839816362304
 20
-148.5342583179012
 30
0.0
 10
104.2062147091915
 20
-148.5342583179012
 30
0.0
 10
104.1510931814275
 20
-148.6744737041508
 30
0.0
 10
104.1510931814275
 20
-148.7919514601979
 30
0.0
 10
104.1510931814275
 20
-149.0747937995369
 30
0.0
 10
104.3839816362304
 20
-149.0837510477985
 30
0.0
 10
104.4556396223236
 20
-149.0882296719293
 30
0.0
 10
104.4556396223236
 20
-149.0882296719293
 30
0.0
 10
104.4556396223236
 20
-149.3052706875001
 30
0.0
 10
104.4556396223236
 20
-149.3052706875001
 30
0.0
 10
104.3309271657575
 20
-149.2963134392384
 30
0.0
 10
103.9543782292197
 20
-149.2670301276138
 30
0.0
 10
103.9543782292197
 20
-148.7785155878054
 30
0.0
 10
103.9543782292197
 20
-148.538736942032
 30
0.0
 10
104.0815022526255
 20
-148.2810437997353
 30
0.0
 10
104.3774359548084
 20
-148.2810437997353
 30
0.0
 10
104.5638156205604
 20
-148.2810437997353
 30
0.0
 10
104.6461534026579
 20
-148.3830186260987
 30
0.0
 10
104.7074761022954
 20
-148.4891275670444
 30
0.0
 10
104.7350368661774
 20
-148.4236707528246
 30
0.0
 10
104.8153075909837
 20
-148.229022857908
 30
0.0
 10
105.0926377775463
 20
-148.229022857908
 30
0.0
 10
105.4309461541978
 20
-148.229022857908
 30
0.0
 10
105.5980332852324
 20
-148.4936061911752
 30
0.0
 10
105.5980332852324
 20
-148.7898844029067
 30
0.0
  0
HATCH
  5
DA
330
CA
100
AcDbEntity
  8
_U+30EC_U+30A4_U+30E4_U+30FC 1
 62
   179
420
  2234388
100
AcDbHatch
 10
0.0
 20
0.0
 30
0.0
210
0.0
220
0.0
230
1.0
  2
SOLID
 70
     1
 71
     0
 91
        1
 92
        1
 93
        1
 72
     4
 94
        3
 73
     0
 74
     1
 95
       62
 96
       58
 40
0.0
 40
0.0
 40
0.0
 40
0.0
 40
1.0
 40
1.0
 40
1.0
 40
2.0
 40
2.0
 40
2.0
 40
3.0
 40
3.0
 40
3.0
 40
4.0
 40
4.0
 40
4.0
 40
5.0
 40
5.0
 40
5.0
 40
6.0
 40
6.0
 40
6.0
 40
7.0
 40
7.0
 40
7.0
 40
8.0
 40
8.0
 40
8.0
 40
9.0
 40
9.0
 40
9.0
 40
10.0
 40
10.0
 40
10.0
 40
11.0
 40
11.0
 40
11.0
 40
12.0
 40
12.0
 40
12.0
 40
13.0
 40
13.0
 40
13.0
 40
14.0
 40
14.0
 40
14.0
 40
15.0
 40
15.0
 40
15.0
 40
16.0
 40
16.0
 40
16.0
 40
17.0
 40
17.0
 40
17.0
 40
18.0
 40
18.0
 40
18.0
 40
19.0
 40
19.0
 40
19.0
 40
19.0
 10
105.5980332852324
 20
-148.7898844029067
 10
105.5980332852324
 20
-148.8915147197216
 10
105.5770182027724
 20
-149.1244031745245
 10
105.3909830465689
 20
-149.2577283698036
 10
105.2786729337498
 20
-149.3369655659644
 10
105.1794541837746
 20
-149.3414441900952
 10
105.0947048348374
 20
-149.345922814226
 10
105.0947048348374
 20
-149.345922814226
 10
105.0947048348374
 20
-149.110967302132
 10
105.0947048348374
 20
-149.110967302132
 10
105.1687743877703
 20
-149.1085557352923
 10
105.4033853903158
 20
-149.097186920191
 10
105.4033853903158
 20
-148.7943630270375
 10
105.4033853903158
 20
-148.6472574498173
 10
105.3337944615138
 20
-148.4846489429136
 10
105.1053846308417
 20
-148.4846489429136
 10
104.9889404034403
 20
-148.4846489429136
 10
104.9403645570982
 20
-148.5253010696395
 10
104.9086696786339
 20
-148.559063005395
 10
104.8346001257011
 20
-148.6383002015557
 10
104.8218532724056
 20
-148.7626681485732
 10
104.8218532724056
 20
-148.821579281371
 10
104.8218532724056
 20
-148.841905344734
 10
104.8239203296968
 20
-148.8801459046202
 10
104.8280544442791
 20
-148.9097737257934
 10
104.8280544442791
 20
-148.9097737257934
 10
104.6334065493625
 20
-148.9097737257934
 10
104.6334065493625
 20
-148.9097737257934
 10
104.6399522307845
 20
-148.8691215990675
 10
104.6420192880756
 20
-148.8236463386621
 10
104.6420192880756
 20
-148.8171006572402
 10
104.6420192880756
 20
-148.7468207093411
 10
104.6206596960671
 20
-148.5342583179012
 10
104.3839816362304
 20
-148.5342583179012
 10
104.2062147091915
 20
-148.5342583179012
 10
104.1510931814275
 20
-148.6744737041508
 10
104.1510931814275
 20
-148.7919514601979
 10
104.1510931814275
 20
-149.0747937995369
 10
104.3839816362304
 20
-149.0837510477985
 10
104.4556396223236
 20
-149.0882296719293
 10
104.4556396223236
 20
-149.0882296719293
 10
104.4556396223236
 20
-149.3052706875001
 10
104.4556396223236
 20
-149.3052706875001
 10
104.3309271657575
 20
-149.2963134392384
 10
103.9543782292197
 20
-149.2670301276138
 10
103.9543782292197
 20
-148.7785155878054
 10
103.9543782292197
 20
-148.538736942032
 10
104.0815022526255
 20
-148.2810437997353
 10
104.3774359548084
 20
-148.2810437997353
 10
104.5638156205604
 20
-148.2810437997353
 10
104.6461534026579
 20
-148.3830186260987
 10
104.7074761022954
 20
-148.4891275670444
 10
104.7350368661774
 20
-148.4236707528246
 10
104.8153075909837
 20
-148.229022857908
 10
105.0926377775463
 20
-148.229022857908
 10
105.4309461541978
 20
-148.229022857908
 10
105.5980332852324
 20
-148.4936061911752
 10
105.5980332852324
 20
-148.7898844029067
 97
        0
 97
        0
 75
     2
 76
     1
 98
        0
  0
ENDBLK
  5
CD
330
CA
100
AcDbEntity
  8
0
100
AcDbBlockEnd
  0
BLOCK
  5
E9
330
E7
100
AcDbEntity
  8
0
100
AcDbBlockBegin
  2
block 6
 70
     0
 10
0.0
 20
0.0
 30
0.0
  3
block 6
  1

  0
SPLINE
  5
EB
330
E7
100
AcDbEntity
  8
_U+30EC_U+30A4_U+30E4_U+30FC 1
370
     0
100
AcDbSpline
210
0.0
220
0.0
230
1.0
 70
    11
 71
     3
 72
    53
 73
    49
 74
     0
 42
0.0000000001
 43
0.0000000001
 12
1.0
 22
0.0
 32
0.0
 13
1.0
 23
0.0
 33
0.0
 40
0.0
 40
0.0
 40
0.0
 40
0.0
 40
1.0
 40
1.0
 40
1.0
 40
2.0
 40
2.0
 40
2.0
 40
3.0
 40
3.0
 40
3.0
 40
4.0
 40
4.0
 40
4.0
 40
5.0
 40
5.0
 40
5.0
 40
6.0
 40
6.0
 40
6.0
 40
7.0
 40
7.0
 40
7.0
 40
8.0
 40
8.0
 40
8.0
 40
9.0
 40
9.0
 40
9.0
 40
10.0
 40
10.0
 40
10.0
 40
11.0
 40
11.0
 40
11.0
 40
12.0
 40
12.0
 40
12.0
 40
13.0
 40
13.0
 40
13.0
 40
14.0
 40
14.0
 40
14.0
 40
15.0
 40
15.0
 40
15.0
 40
16.0
 40
16.0
 40
16.0
 40
16.0
 10
94.66140541253257
 20
-157.5008083373609
 30
0.0
 10
94.577689592241
 20
-157.5008083373609
 30
0.0
 10
94.46916908445563
 20
-157.4839273694832
 30
0.0
 10
94.36064857667026
 20
-157.4205376125546
 30
0.0
 10
94.17530243956382
 20
-157.3106390665751
 30
0.0
 10
94.15273706413544
 20
-157.1793809285871
 30
0.0
 10
94.1322387459982
 20
-157.0715494398988
 30
0.0
 10
94.1322387459982
 20
-157.0715494398988
 30
0.0
 10
94.36977807970617
 20
-157.0715494398988
 30
0.0
 10
94.36977807970617
 20
-157.0715494398988
 30
0.0
 10
94.42851695772968
 20
-157.2703314493977
 30
0.0
 10
94.56408146507427
 20
-157.2999592705708
 30
0.0
 10
94.66364472459799
 20
-157.2999592705708
 30
0.0
 10
94.8128173591093
 20
-157.2999592705708
 30
0.0
 10
94.97559812078735
 20
-157.2003960110471
 30
0.0
 10
94.97559812078735
 20
-156.9678520657928
 30
0.0
 10
94.97559812078735
 20
-156.7118814712387
 30
0.0
 10
94.78336179271041
 20
-156.6419460328881
 30
0.0
 10
94.65451522156206
 20
-156.6419460328881
 30
0.0
 10
94.62058103103236
 20
-156.6419460328881
 30
0.0
 10
94.46916908445563
 20
-156.6419460328881
 30
0.0
 10
94.37425670383699
 20
-156.771137113585
 30
0.0
 10
94.37425670383699
 20
-156.771137113585
 30
0.0
 10
94.18649899989087
 20
-156.7521890884161
 30
0.0
 10
94.18649899989087
 20
-156.7521890884161
 30
0.0
 10
94.18649899989087
 20
-156.7521890884161
 30
0.0
 10
94.31534557103922
 20
-155.9057291276903
 30
0.0
 10
94.31534557103922
 20
-155.9057291276903
 30
0.0
 10
94.31534557103922
 20
-155.9057291276903
 30
0.0
 10
95.14733613072706
 20
-155.9057291276903
 30
0.0
 10
95.14733613072706
 20
-155.9057291276903
 30
0.0
 10
95.14733613072706
 20
-155.9057291276903
 30
0.0
 10
95.14733613072706
 20
-156.1003770226069
 30
0.0
 10
95.14733613072706
 20
-156.1003770226069
 30
0.0
 10
95.14733613072706
 20
-156.1003770226069
 30
0.0
 10
94.4894951478186
 20
-156.1003770226069
 30
0.0
 10
94.4894951478186
 20
-156.1003770226069
 30
0.0
 10
94.4894951478186
 20
-156.1003770226069
 30
0.0
 10
94.41938745469376
 20
-156.5234347481955
 30
0.0
 10
94.41938745469376
 20
-156.5234347481955
 30
0.0
 10
94.48501652368778
 20
-156.4896728124401
 30
0.0
 10
94.57321096811017
 20
-156.4493651952627
 30
0.0
 10
94.6998182271931
 20
-156.4493651952627
 30
0.0
 10
94.97111949665653
 20
-156.4493651952627
 30
0.0
 10
95.22433401482239
 20
-156.6357448610147
 30
0.0
 10
95.22433401482239
 20
-156.9489040406239
 30
0.0
 10
95.22433401482239
 20
-157.2661973348154
 30
0.0
 10
94.98472762382326
 20
-157.5008083373609
 30
0.0
 10
94.66140541253257
 20
-157.5008083373609
 30
0.0
  0
HATCH
  5
EC
330
E7
100
AcDbEntity
  8
_U+30EC_U+30A4_U+30E4_U+30FC 1
 62
   179
420
  2234388
100
AcDbHatch
 10
0.0
 20
0.0
 30
0.0
210
0.0
220
0.0
230
1.0
  2
SOLID
 70
     1
 71
     0
 91
        1
 92
        1
 93
        1
 72
     4
 94
        3
 73
     0
 74
     1
 95
       53
 96
       49
 40
0.0
 40
0.0
 40
0.0
 40
0.0
 40
1.0
 40
1.0
 40
1.0
 40
2.0
 40
2.0
 40
2.0
 40
3.0
 40
3.0
 40
3.0
 40
4.0
 40
4.0
 40
4.0
 40
5.0
 40
5.0
 40
5.0
 40
6.0
 40
6.0
 40
6.0
 40
7.0
 40
7.0
 40
7.0
 40
8.0
 40
8.0
 40
8.0
 40
9.0
 40
9.0
 40
9.0
 40
10.0
 40
10.0
 40
10.0
 40
11.0
 40
11.0
 40
11.0
 40
12.0
 40
12.0
 40
12.0
 40
13.0
 40
13.0
 40
13.0
 40
14.0
 40
14.0
 40
14.0
 40
15.0
 40
15.0
 40
15.0
 40
16.0
 40
16.0
 40
16.0
 40
16.0
 10
94.66140541253257
 20
-157.5008083373609
 10
94.577689592241
 20
-157.5008083373609
 10
94.46916908445563
 20
-157.4839273694832
 10
94.36064857667026
 20
-157.4205376125546
 10
94.17530243956382
 20
-157.3106390665751
 10
94.15273706413544
 20
-157.1793809285871
 10
94.1322387459982
 20
-157.0715494398988
 10
94.1322387459982
 20
-157.0715494398988
 10
94.36977807970617
 20
-157.0715494398988
 10
94.36977807970617
 20
-157.0715494398988
 10
94.42851695772968
 20
-157.2703314493977
 10
94.56408146507427
 20
-157.2999592705708
 10
94.66364472459799
 20
-157.2999592705708
 10
94.8128173591093
 20
-157.2999592705708
 10
94.97559812078735
 20
-157.2003960110471
 10
94.97559812078735
 20
-156.9678520657928
 10
94.97559812078735
 20
-156.7118814712387
 10
94.78336179271041
 20
-156.6419460328881
 10
94.65451522156206
 20
-156.6419460328881
 10
94.62058103103236
 20
-156.6419460328881
 10
94.46916908445563
 20
-156.6419460328881
 10
94.37425670383699
 20
-156.771137113585
 10
94.37425670383699
 20
-156.771137113585
 10
94.18649899989087
 20
-156.7521890884161
 10
94.18649899989087
 20
-156.7521890884161
 10
94.18649899989087
 20
-156.7521890884161
 10
94.31534557103922
 20
-155.9057291276903
 10
94.31534557103922
 20
-155.9057291276903
 10
94.31534557103922
 20
-155.9057291276903
 10
95.14733613072706
 20
-155.9057291276903
 10
95.14733613072706
 20
-155.9057291276903
 10
95.14733613072706
 20
-155.9057291276903
 10
95.14733613072706
 20
-156.1003770226069
 10
95.14733613072706
 20
-156.1003770226069
 10
95.14733613072706
 20
-156.1003770226069
 10
94.4894951478186
 20
-156.1003770226069
 10
94.4894951478186
 20
-156.1003770226069
 10
94.4894951478186
 20
-156.1003770226069
 10
94.41938745469376
 20
-156.5234347481955
 10
94.41938745469376
 20
-156.5234347481955
 10
94.48501652368778
 20
-156.4896728124401
 10
94.57321096811017
 20
-156.4493651952627
 10
94.6998182271931
 20
-156.4493651952627
 10
94.97111949665653
 20
-156.4493651952627
 10
95.22433401482239
 20
-156.6357448610147
 10
95.22433401482239
 20
-156.9489040406239
 10
95.22433401482239
 20
-157.2661973348154
 10
94.98472762382326
 20
-157.5008083373609
 10
94.66140541253257
 20
-157.5008083373609
 97
        0
 97
        0
 75
     2
 76
     1
 98
        0
  0
ENDBLK
  5
EA
330
E7
100
AcDbEntity
  8
0
100
AcDbBlockEnd
  0
BLOCK
  5
FB
330
F9
100
AcDbEntity
  8
0
100
AcDbBlockBegin
  2
block 7
 70
     0
 10
0.0
 20
0.0
 30
0.0
  3
block 7
  1

  0
SPLINE
  5
FD
330
F9
100
AcDbEntity
  8
_U+30EC_U+30A4_U+30E4_U+30FC 1
370
     0
100
AcDbSpline
210
0.0
220
0.0
230
1.0
 70
    11
 71
     3
 72
    26
 73
    22
 74
     0
 42
0.0000000001
 43
0.0000000001
 12
1.0
 22
0.0
 32
0.0
 13
1.0
 23
0.0
 33
0.0
 40
0.0
 40
0.0
 40
0.0
 40
0.0
 40
1.0
 40
1.0
 40
1.0
 40
2.0
 40
2.0
 40
2.0
 40
3.0
 40
3.0
 40
3.0
 40
4.0
 40
4.0
 40
4.0
 40
5.0
 40
5.0
 40
5.0
 40
6.0
 40
6.0
 40
6.0
 40
7.0
 40
7.0
 40
7.0
 40
7.0
 10
96.46784123022333
 20
-161.4495767825543
 30
0.0
 10
96.46784123022333
 20
-161.4495767825543
 30
0.0
 10
96.46784123022333
 20
-160.3454236795317
 30
0.0
 10
96.46784123022333
 20
-160.3454236795317
 30
0.0
 10
96.46784123022333
 20
-160.3454236795317
 30
0.0
 10
96.11540796208226
 20
-160.3454236795317
 30
0.0
 10
96.11540796208226
 20
-160.3454236795317
 30
0.0
 10
96.11540796208226
 20
-160.3454236795317
 30
0.0
 10
96.11540796208226
 20
-160.197284573666
 30
0.0
 10
96.11540796208226
 20
-160.197284573666
 30
0.0
 10
96.470252797063
 20
-160.1824706630794
 30
0.0
 10
96.5198621720506
 20
-160.0195176466271
 30
0.0
 10
96.55155705051489
 20
-159.9051404765168
 30
0.0
 10
96.55155705051489
 20
-159.9051404765168
 30
0.0
 10
96.70761987599671
 20
-159.9051404765168
 30
0.0
 10
96.70761987599671
 20
-159.9051404765168
 30
0.0
 10
96.70761987599671
 20
-159.9051404765168
 30
0.0
 10
96.70761987599671
 20
-161.4495767825543
 30
0.0
 10
96.70761987599671
 20
-161.4495767825543
 30
0.0
 10
96.70761987599671
 20
-161.4495767825543
 30
0.0
 10
96.46784123022333
 20
-161.4495767825543
 30
0.0
 10
96.46784123022333
 20
-161.4495767825543
 30
0.0
  0
HATCH
  5
FE
330
F9
100
AcDbEntity
  8
_U+30EC_U+30A4_U+30E4_U+30FC 1
 62
   179
420
  2234388
100
AcDbHatch
 10
0.0
 20
0.0
 30
0.0
210
0.0
220
0.0
230
1.0
  2
SOLID
 70
     1
 71
     0
 91
        1
 92
        1
 93
        1
 72
     4
 94
        3
 73
     0
 74
     1
 95
       26
 96
       22
 40
0.0
 40
0.0
 40
0.0
 40
0.0
 40
1.0
 40
1.0
 40
1.0
 40
2.0
 40
2.0
 40
2.0
 40
3.0
 40
3.0
 40
3.0
 40
4.0
 40
4.0
 40
4.0
 40
5.0
 40
5.0
 40
5.0
 40
6.0
 40
6.0
 40
6.0
 40
7.0
 40
7.0
 40
7.0
 40
7.0
 10
96.46784123022333
 20
-161.4495767825543
 10
96.46784123022333
 20
-161.4495767825543
 10
96.46784123022333
 20
-160.3454236795317
 10
96.46784123022333
 20
-160.3454236795317
 10
96.46784123022333
 20
-160.3454236795317
 10
96.11540796208226
 20
-160.3454236795317
 10
96.11540796208226
 20
-160.3454236795317
 10
96.11540796208226
 20
-160.3454236795317
 10
96.11540796208226
 20
-160.197284573666
 10
96.11540796208226
 20
-160.197284573666
 10
96.470252797063
 20
-160.1824706630794
 10
96.5198621720506
 20
-160.0195176466271
 10
96.55155705051489
 20
-159.9051404765168
 10
96.55155705051489
 20
-159.9051404765168
 10
96.70761987599671
 20
-159.9051404765168
 10
96.70761987599671
 20
-159.9051404765168
 10
96.70761987599671
 20
-159.9051404765168
 10
96.70761987599671
 20
-161.4495767825543
 10
96.70761987599671
 20
-161.4495767825543
 10
96.70761987599671
 20
-161.4495767825543
 10
96.46784123022333
 20
-161.4495767825543
 10
96.46784123022333
 20
-161.4495767825543
 97
        0
 97
        0
 75
     2
 76
     1
 98
        0
  0
SPLINE
  5
FF
330
F9
100
AcDbEntity
  8
_U+30EC_U+30A4_U+30E4_U+30FC 1
370
     0
100
AcDbSpline
210
0.0
220
0.0
230
1.0
 70
    11
 71
     3
 72
    29
 73
    25
 74
     0
 42
0.0000000001
 43
0.0000000001
 12
1.0
 22
0.0
 32
0.0
 13
1.0
 23
0.0
 33
0.0
 40
0.0
 40
0.0
 40
0.0
 40
0.0
 40
1.0
 40
1.0
 40
1.0
 40
2.0
 40
2.0
 40
2.0
 40
3.0
 40
3.0
 40
3.0
 40
4.0
 40
4.0
 40
4.0
 40
5.0
 40
5.0
 40
5.0
 40
6.0
 40
6.0
 40
6.0
 40
7.0
 40
7.0
 40
7.0
 40
8.0
 40
8.0
 40
8.0
 40
8.0
 10
98.20279131659514
 20
-161.2718098555154
 30
0.0
 10
98.08738061783927
 20
-161.4812716610186
 30
0.0
 10
97.90203448073282
 20
-161.5002196861874
 30
0.0
 10
97.7776665337153
 20
-161.5002196861874
 30
0.0
 10
97.60610077854987
 20
-161.5002196861874
 30
0.0
 10
97.45451657719887
 20
-161.4537108971366
 30
0.0
 10
97.35288626038401
 20
-161.2718098555154
 30
0.0
 10
97.24195418575896
 20
-161.0771619605988
 30
0.0
 10
97.22162812239598
 20
-160.8401393912136
 30
0.0
 10
97.22162812239598
 20
-160.6775308843098
 30
0.0
 10
97.22162812239598
 20
-160.5335258930263
 30
0.0
 10
97.23988712846781
 20
-160.2816894130546
 30
0.0
 10
97.35288626038401
 20
-160.0829074035557
 30
0.0
 10
97.46795244959135
 20
-159.8799912794745
 30
0.0
 10
97.63986271430532
 20
-159.8565646301747
 30
0.0
 10
97.7776665337153
 20
-159.8565646301747
 30
0.0
 10
97.94750974113813
 20
-159.8565646301747
 30
0.0
 10
98.10116099978028
 20
-159.9010063619345
 30
0.0
 10
98.20279131659514
 20
-160.0829074035557
 30
0.0
 10
98.30924476708935
 20
-160.2754882411811
 30
0.0
 10
98.33404945458315
 20
-160.5038980718532
 30
0.0
 10
98.33404945458315
 20
-160.6775308843098
 30
0.0
 10
98.33404945458315
 20
-160.8487521299267
 30
0.0
 10
98.31131182438051
 20
-161.0792290178899
 30
0.0
 10
98.20279131659514
 20
-161.2718098555154
 30
0.0
  0
SPLINE
  5
100
330
F9
100
AcDbEntity
  8
_U+30EC_U+30A4_U+30E4_U+30FC 1
370
     0
100
AcDbSpline
210
0.0
220
0.0
230
1.0
 70
    11
 71
     3
 72
    17
 73
    13
 74
     0
 42
0.0000000001
 43
0.0000000001
 12
1.0
 22
0.0
 32
0.0
 13
1.0
 23
0.0
 33
0.0
 40
0.0
 40
0.0
 40
0.0
 40
0.0
 40
1.0
 40
1.0
 40
1.0
 40
2.0
 40
2.0
 40
2.0
 40
3.0
 40
3.0
 40
3.0
 40
4.0
 40
4.0
 40
4.0
 40
4.0
 10
97.7776665337153
 20
-160.0491454678002
 30
0.0
 10
97.51101614315698
 20
-160.0491454678002
 30
0.0
 10
97.46140676816937
 20
-160.3326768262363
 30
0.0
 10
97.46140676816937
 20
-160.6775308843098
 30
0.0
 10
97.46140676816937
 20
-160.9968912357924
 30
0.0
 10
97.49964732805564
 20
-161.3055717912708
 30
0.0
 10
97.7776665337153
 20
-161.3055717912708
 30
0.0
 10
98.0422498669825
 20
-161.3055717912708
 30
0.0
 10
98.09427080880977
 20
-161.0244519996745
 30
0.0
 10
98.09427080880977
 20
-160.6775308843098
 30
0.0
 10
98.09427080880977
 20
-160.3578260232786
 30
0.0
 10
98.05361868208382
 20
-160.0491454678002
 30
0.0
 10
97.7776665337153
 20
-160.0491454678002
 30
0.0
  0
HATCH
  5
101
330
F9
100
AcDbEntity
  8
_U+30EC_U+30A4_U+30E4_U+30FC 1
 62
   179
420
  2234388
100
AcDbHatch
 10
0.0
 20
0.0
 30
0.0
210
0.0
220
0.0
230
1.0
  2
SOLID
 70
     1
 71
     0
 91
        2
 92
        1
 93
        1
 72
     4
 94
        3
 73
     0
 74
     1
 95
       29
 96
       25
 40
0.0
 40
0.0
 40
0.0
 40
0.0
 40
1.0
 40
1.0
 40
1.0
 40
2.0
 40
2.0
 40
2.0
 40
3.0
 40
3.0
 40
3.0
 40
4.0
 40
4.0
 40
4.0
 40
5.0
 40
5.0
 40
5.0
 40
6.0
 40
6.0
 40
6.0
 40
7.0
 40
7.0
 40
7.0
 40
8.0
 40
8.0
 40
8.0
 40
8.0
 10
98.20279131659514
 20
-161.2718098555154
 10
98.08738061783927
 20
-161.4812716610186
 10
97.90203448073282
 20
-161.5002196861874
 10
97.7776665337153
 20
-161.5002196861874
 10
97.60610077854987
 20
-161.5002196861874
 10
97.45451657719887
 20
-161.4537108971366
 10
97.35288626038401
 20
-161.2718098555154
 10
97.24195418575896
 20
-161.0771619605988
 10
97.22162812239598
 20
-160.8401393912136
 10
97.22162812239598
 20
-160.6775308843098
 10
97.22162812239598
 20
-160.5335258930263
 10
97.23988712846781
 20
-160.2816894130546
 10
97.35288626038401
 20
-160.0829074035557
 10
97.46795244959135
 20
-159.8799912794745
 10
97.63986271430532
 20
-159.8565646301747
 10
97.7776665337153
 20
-159.8565646301747
 10
97.94750974113813
 20
-159.8565646301747
 10
98.10116099978028
 20
-159.9010063619345
 10
98.20279131659514
 20
-160.0829074035557
 10
98.30924476708935
 20
-160.2754882411811
 10
98.33404945458315
 20
-160.5038980718532
 10
98.33404945458315
 20
-160.6775308843098
 10
98.33404945458315
 20
-160.8487521299267
 10
98.31131182438051
 20
-161.0792290178899
 10
98.20279131659514
 20
-161.2718098555154
 97
        0
 97
        0
 92
        1
 93
        1
 72
     4
 94
        3
 73
     0
 74
     1
 95
       17
 96
       13
 40
0.0
 40
0.0
 40
0.0
 40
0.0
 40
1.0
 40
1.0
 40
1.0
 40
2.0
 40
2.0
 40
2.0
 40
3.0
 40
3.0
 40
3.0
 40
4.0
 40
4.0
 40
4.0
 40
4.0
 10
97.7776665337153
 20
-160.0491454678002
 10
97.51101614315698
 20
-160.0491454678002
 10
97.46140676816937
 20
-160.3326768262363
 10
97.46140676816937
 20
-160.6775308843098
 10
97.46140676816937
 20
-160.9968912357924
 10
97.49964732805564
 20
-161.3055717912708
 10
97.7776665337153
 20
-161.3055717912708
 10
98.0422498669825
 20
-161.3055717912708
 10
98.09427080880977
 20
-161.0244519996745
 10
98.09427080880977
 20
-160.6775308843098
 10
98.09427080880977
 20
-160.3578260232786
 10
98.05361868208382
 20
-160.0491454678002
 10
97.7776665337153
 20
-160.0491454678002
 97
        0
 97
        0
 75
     2
 76
     1
 98
        0
  0
ENDBLK
  5
FC
330
F9
100
AcDbEntity
  8
0
100
AcDbBlockEnd
  0
BLOCK
  5
110
330
10E
100
AcDbEntity
  8
0
100
AcDbBlockBegin
  2
block 8
 70
     0
 10
0.0
 20
0.0
 30
0.0
  3
block 8
  1

  0
SPLINE
  5
112
330
10E
100
AcDbEntity
  8
_U+30EC_U+30A4_U+30E4_U+30FC 1
370
     0
100
AcDbSpline
210
0.0
220
0.0
230
1.0
 70
    11
 71
     3
 72
    26
 73
    22
 74
     0
 42
0.0000000001
 43
0.0000000001
 12
1.0
 22
0.0
 32
0.0
 13
1.0
 23
0.0
 33
0.0
 40
0.0
 40
0.0
 40
0.0
 40
0.0
 40
1.0
 40
1.0
 40
1.0
 40
2.0
 40
2.0
 40
2.0
 40
3.0
 40
3.0
 40
3.0
 40
4.0
 40
4.0
 40
4.0
 40
5.0
 40
5.0
 40
5.0
 40
6.0
 40
6.0
 40
6.0
 40
7.0
 40
7.0
 40
7.0
 40
7.0
 10
121.4086099956895
 20
-148.6000596416694
 30
0.0
 10
121.4086099956895
 20
-148.6000596416694
 30
0.0
 10
120.3044568926669
 20
-148.6000596416694
 30
0.0
 10
120.3044568926669
 20
-148.6000596416694
 30
0.0
 10
120.3044568926669
 20
-148.6000596416694
 30
0.0
 10
120.3044568926669
 20
-148.9524929098105
 30
0.0
 10
120.3044568926669
 20
-148.9524929098105
 30
0.0
 10
120.3044568926669
 20
-148.9524929098105
 30
0.0
 10
120.1563177868012
 20
-148.9524929098105
 30
0.0
 10
120.1563177868012
 20
-148.9524929098105
 30
0.0
 10
120.1415038762146
 20
-148.5976480748297
 30
0.0
 10
119.9785508597623
 20
-148.5480386998422
 30
0.0
 10
119.864173689652
 20
-148.5163438213779
 30
0.0
 10
119.864173689652
 20
-148.5163438213779
 30
0.0
 10
119.864173689652
 20
-148.360280995896
 30
0.0
 10
119.864173689652
 20
-148.360280995896
 30
0.0
 10
119.864173689652
 20
-148.360280995896
 30
0.0
 10
121.4086099956895
 20
-148.360280995896
 30
0.0
 10
121.4086099956895
 20
-148.360280995896
 30
0.0
 10
121.4086099956895
 20
-148.360280995896
 30
0.0
 10
121.4086099956895
 20
-148.6000596416694
 30
0.0
 10
121.4086099956895
 20
-148.6000596416694
 30
0.0
  0
HATCH
  5
113
330
10E
100
AcDbEntity
  8
_U+30EC_U+30A4_U+30E4_U+30FC 1
 62
   179
420
  2234388
100
AcDbHatch
 10
0.0
 20
0.0
 30
0.0
210
0.0
220
0.0
230
1.0
  2
SOLID
 70
     1
 71
     0
 91
        1
 92
        1
 93
        1
 72
     4
 94
        3
 73
     0
 74
     1
 95
       26
 96
       22
 40
0.0
 40
0.0
 40
0.0
 40
0.0
 40
1.0
 40
1.0
 40
1.0
 40
2.0
 40
2.0
 40
2.0
 40
3.0
 40
3.0
 40
3.0
 40
4.0
 40
4.0
 40
4.0
 40
5.0
 40
5.0
 40
5.0
 40
6.0
 40
6.0
 40
6.0
 40
7.0
 40
7.0
 40
7.0
 40
7.0
 10
121.4086099956895
 20
-148.6000596416694
 10
121.4086099956895
 20
-148.6000596416694
 10
120.3044568926669
 20
-148.6000596416694
 10
120.3044568926669
 20
-148.6000596416694
 10
120.3044568926669
 20
-148.6000596416694
 10
120.3044568926669
 20
-148.9524929098105
 10
120.3044568926669
 20
-148.9524929098105
 10
120.3044568926669
 20
-148.9524929098105
 10
120.1563177868012
 20
-148.9524929098105
 10
120.1563177868012
 20
-148.9524929098105
 10
120.1415038762146
 20
-148.5976480748297
 10
119.9785508597623
 20
-148.5480386998422
 10
119.864173689652
 20
-148.5163438213779
 10
119.864173689652
 20
-148.5163438213779
 10
119.864173689652
 20
-148.360280995896
 10
119.864173689652
 20
-148.360280995896
 10
119.864173689652
 20
-148.360280995896
 10
121.4086099956895
 20
-148.360280995896
 10
121.4086099956895
 20
-148.360280995896
 10
121.4086099956895
 20
-148.360280995896
 10
121.4086099956895
 20
-148.6000596416694
 10
121.4086099956895
 20
-148.6000596416694
 97
        0
 97
        0
 75
     2
 76
     1
 98
        0
  0
SPLINE
  5
114
330
10E
100
AcDbEntity
  8
_U+30EC_U+30A4_U+30E4_U+30FC 1
370
     0
100
AcDbSpline
210
0.0
220
0.0
230
1.0
 70
    11
 71
     3
 72
    29
 73
    25
 74
     0
 42
0.0000000001
 43
0.0000000001
 12
1.0
 22
0.0
 32
0.0
 13
1.0
 23
0.0
 33
0.0
 40
0.0
 40
0.0
 40
0.0
 40
0.0
 40
1.0
 40
1.0
 40
1.0
 40
2.0
 40
2.0
 40
2.0
 40
3.0
 40
3.0
 40
3.0
 40
4.0
 40
4.0
 40
4.0
 40
5.0
 40
5.0
 40
5.0
 40
6.0
 40
6.0
 40
6.0
 40
7.0
 40
7.0
 40
7.0
 40
8.0
 40
8.0
 40
8.0
 40
8.0
 10
121.2308430686506
 20
-146.8651095552976
 30
0.0
 10
121.4403048741538
 20
-146.9805202540535
 30
0.0
 10
121.4592528993227
 20
-147.1658663911599
 30
0.0
 10
121.4592528993227
 20
-147.2902343381774
 30
0.0
 10
121.4592528993227
 20
-147.4618000933429
 30
0.0
 10
121.4127441102718
 20
-147.6133842946939
 30
0.0
 10
121.2308430686506
 20
-147.7150146115088
 30
0.0
 10
121.036195173734
 20
-147.8259466861338
 30
0.0
 10
120.7995171138974
 20
-147.8462727494968
 30
0.0
 10
120.636564097445
 20
-147.8462727494968
 30
0.0
 10
120.4925591061616
 20
-147.8462727494968
 30
0.0
 10
120.2407226261898
 20
-147.8280137434249
 30
0.0
 10
120.0419406166909
 20
-147.7150146115088
 30
0.0
 10
119.8390244926097
 20
-147.5999484223014
 30
0.0
 10
119.81559784331
 20
-147.4280381575875
 30
0.0
 10
119.81559784331
 20
-147.2902343381774
 30
0.0
 10
119.81559784331
 20
-147.1203911307546
 30
0.0
 10
119.8600395750697
 20
-146.9667398721125
 30
0.0
 10
120.0419406166909
 20
-146.8651095552976
 30
0.0
 10
120.2345214543164
 20
-146.7586561048034
 30
0.0
 10
120.4629312849884
 20
-146.7338514173096
 30
0.0
 10
120.636564097445
 20
-146.7338514173096
 30
0.0
 10
120.807785343062
 20
-146.7338514173096
 30
0.0
 10
121.0382622310252
 20
-146.7565890475123
 30
0.0
 10
121.2308430686506
 20
-146.8651095552976
 30
0.0
  0
SPLINE
  5
115
330
10E
100
AcDbEntity
  8
_U+30EC_U+30A4_U+30E4_U+30FC 1
370
     0
100
AcDbSpline
210
0.0
220
0.0
230
1.0
 70
    11
 71
     3
 72
    17
 73
    13
 74
     0
 42
0.0000000001
 43
0.0000000001
 12
1.0
 22
0.0
 32
0.0
 13
1.0
 23
0.0
 33
0.0
 40
0.0
 40
0.0
 40
0.0
 40
0.0
 40
1.0
 40
1.0
 40
1.0
 40
2.0
 40
2.0
 40
2.0
 40
3.0
 40
3.0
 40
3.0
 40
4.0
 40
4.0
 40
4.0
 40
4.0
 10
120.0081786809355
 20
-147.2902343381774
 30
0.0
 10
120.0081786809355
 20
-147.5568847287358
 30
0.0
 10
120.2917100393715
 20
-147.6064941037234
 30
0.0
 10
120.636564097445
 20
-147.6064941037234
 30
0.0
 10
120.9559244489277
 20
-147.6064941037234
 30
0.0
 10
121.2646050044061
 20
-147.5682535438371
 30
0.0
 10
121.2646050044061
 20
-147.2902343381774
 30
0.0
 10
121.2646050044061
 20
-147.0256510049103
 30
0.0
 10
120.9834852128097
 20
-146.973630063083
 30
0.0
 10
120.636564097445
 20
-146.973630063083
 30
0.0
 10
120.3168592364138
 20
-146.973630063083
 30
0.0
 10
120.0081786809355
 20
-147.0142821898089
 30
0.0
 10
120.0081786809355
 20
-147.2902343381774
 30
0.0
  0
HATCH
  5
116
330
10E
100
AcDbEntity
  8
_U+30EC_U+30A4_U+30E4_U+30FC 1
 62
   179
420
  2234388
100
AcDbHatch
 10
0.0
 20
0.0
 30
0.0
210
0.0
220
0.0
230
1.0
  2
SOLID
 70
     1
 71
     0
 91
        2
 92
        1
 93
        1
 72
     4
 94
        3
 73
     0
 74
     1
 95
       29
 96
       25
 40
0.0
 40
0.0
 40
0.0
 40
0.0
 40
1.0
 40
1.0
 40
1.0
 40
2.0
 40
2.0
 40
2.0
 40
3.0
 40
3.0
 40
3.0
 40
4.0
 40
4.0
 40
4.0
 40
5.0
 40
5.0
 40
5.0
 40
6.0
 40
6.0
 40
6.0
 40
7.0
 40
7.0
 40
7.0
 40
8.0
 40
8.0
 40
8.0
 40
8.0
 10
121.2308430686506
 20
-146.8651095552976
 10
121.4403048741538
 20
-146.9805202540535
 10
121.4592528993227
 20
-147.1658663911599
 10
121.4592528993227
 20
-147.2902343381774
 10
121.4592528993227
 20
-147.4618000933429
 10
121.4127441102718
 20
-147.6133842946939
 10
121.2308430686506
 20
-147.7150146115088
 10
121.036195173734
 20
-147.8259466861338
 10
120.7995171138974
 20
-147.8462727494968
 10
120.636564097445
 20
-147.8462727494968
 10
120.4925591061616
 20
-147.8462727494968
 10
120.2407226261898
 20
-147.8280137434249
 10
120.0419406166909
 20
-147.7150146115088
 10
119.8390244926097
 20
-147.5999484223014
 10
119.81559784331
 20
-147.4280381575875
 10
119.81559784331
 20
-147.2902343381774
 10
119.81559784331
 20
-147.1203911307546
 10
119.8600395750697
 20
-146.9667398721125
 10
120.0419406166909
 20
-146.8651095552976
 10
120.2345214543164
 20
-146.7586561048034
 10
120.4629312849884
 20
-146.7338514173096
 10
120.636564097445
 20
-146.7338514173096
 10
120.807785343062
 20
-146.7338514173096
 10
121.0382622310252
 20
-146.7565890475123
 10
121.2308430686506
 20
-146.8651095552976
 97
        0
 97
        0
 92
        1
 93
        1
 72
     4
 94
        3
 73
     0
 74
     1
 95
       17
 96
       13
 40
0.0
 40
0.0
 40
0.0
 40
0.0
 40
1.0
 40
1.0
 40
1.0
 40
2.0
 40
2.0
 40
2.0
 40
3.0
 40
3.0
 40
3.0
 40
4.0
 40
4.0
 40
4.0
 40
4.0
 10
120.0081786809355
 20
-147.2902343381774
 10
120.0081786809355
 20
-147.5568847287358
 10
120.2917100393715
 20
-147.6064941037234
 10
120.636564097445
 20
-147.6064941037234
 10
120.9559244489277
 20
-147.6064941037234
 10
121.2646050044061
 20
-147.5682535438371
 10
121.2646050044061
 20
-147.2902343381774
 10
121.2646050044061
 20
-147.0256510049103
 10
120.9834852128097
 20
-146.973630063083
 10
120.636564097445
 20
-146.973630063083
 10
120.3168592364138
 20
-146.973630063083
 10
120.0081786809355
 20
-147.0142821898089
 10
120.0081786809355
 20
-147.2902343381774
 97
        0
 97
        0
 75
     2
 76
     1
 98
        0
  0
ENDBLK
  5
111
330
10E
100
AcDbEntity
  8
0
100
AcDbBlockEnd
  0
BLOCK
  5
119
330
117
100
AcDbEntity
  8
0
100
AcDbBlockBegin
  2
block 9
 70
     0
 10
0.0
 20
0.0
 30
0.0
  3
block 9
  1

  0
SPLINE
  5
11B
330
117
100
AcDbEntity
  8
_U+30EC_U+30A4_U+30E4_U+30FC 1
 62
   179
420
  2234388
370
     9
100
AcDbSpline
210
0.0
220
0.0
230
1.0
 70
    11
 71
     3
 72
    17
 73
    13
 74
     0
 42
0.0000000001
 43
0.0000000001
 12
1.0
 22
0.0
 32
0.0
 13
1.0
 23
0.0
 33
0.0
 40
0.0
 40
0.0
 40
0.0
 40
0.0
 40
1.0
 40
1.0
 40
1.0
 40
2.0
 40
2.0
 40
2.0
 40
3.0
 40
3.0
 40
3.0
 40
4.0
 40
4.0
 40
4.0
 40
4.0
 10
122.2337221593357
 20
-141.8507802423151
 30
0.0
 10
122.2337221593357
 20
-141.7956410756624
 30
0.0
 10
122.188919382701
 20
-141.7508735756735
 30
0.0
 10
122.1338154952179
 20
-141.7508735756735
 30
0.0
 10
122.0783235521892
 20
-141.7508735756735
 30
0.0
 10
122.0335560533313
 20
-141.7956410756624
 30
0.0
 10
122.0335560533313
 20
-141.8507802423151
 30
0.0
 10
122.0335560533313
 20
-141.9058841311903
 30
0.0
 10
122.0783235521892
 20
-141.9506869089568
 30
0.0
 10
122.1338154952179
 20
-141.9506869089568
 30
0.0
 10
122.188919382701
 20
-141.9506869089568
 30
0.0
 10
122.2337221593357
 20
-141.9058841311903
 30
0.0
 10
122.2337221593357
 20
-141.8507802423151
 30
0.0
  0
POLYLINE
  5
11C
330
117
100
AcDbEntity
  8
_U+30EC_U+30A4_U+30E4_U+30FC 1
 62
   179
420
  2234388
370
     9
100
AcDb2dPolyline
 66
     1
 10
0.0
 20
0.0
 30
0.0
  0
VERTEX
  5
11D
330
11C
100
AcDbEntity
  8
_U+30EC_U+30A4_U+30E4_U+30FC 1
 62
   179
420
  2234388
370
     9
100
AcDbVertex
100
AcDb2dVertex
 10
122.1338154952179
 20
-141.8507802423151
 30
0.0
  0
VERTEX
  5
11E
330
11C
100
AcDbEntity
  8
_U+30EC_U+30A4_U+30E4_U+30FC 1
 62
   179
420
  2234388
370
     9
100
AcDbVertex
100
AcDb2dVertex
 10
122.1338154952179
 20
-138.0804677432577
 30
0.0
  0
SEQEND
  5
11F
330
11C
100
AcDbEntity
  8
_U+30EC_U+30A4_U+30E4_U+30FC 1
 62
   179
420
  2234388
370
     9
  0
POLYLINE
  5
120
330
117
100
AcDbEntity
  8
_U+30EC_U+30A4_U+30E4_U+30FC 1
 62
   179
420
  2234388
370
     9
100
AcDb2dPolyline
 66
     1
 10
0.0
 20
0.0
 30
0.0
  0
VERTEX
  5
121
330
120
100
AcDbEntity
  8
_U+30EC_U+30A4_U+30E4_U+30FC 1
 62
   179
420
  2234388
370
     9
100
AcDbVertex
100
AcDb2dVertex
 10
122.1338154952179
 20
-141.8507802423151
 30
0.0
  0
VERTEX
  5
122
330
120
100
AcDbEntity
  8
_U+30EC_U+30A4_U+30E4_U+30FC 1
 62
   179
420
  2234388
370
     9
100
AcDbVertex
100
AcDb2dVertex
 10
122.1338154952179
 20
-142.8505524642873
 30
0.0
  0
SEQEND
  5
123
330
120
100
AcDbEntity
  8
_U+30EC_U+30A4_U+30E4_U+30FC 1
 62
   179
420
  2234388
370
     9
  0
POLYLINE
  5
124
330
117
100
AcDbEntity
  8
_U+30EC_U+30A4_U+30E4_U+30FC 1
 62
   179
420
  2234388
370
     9
100
AcDb2dPolyline
 66
     1
 10
0.0
 20
0.0
 30
0.0
  0
VERTEX
  5
125
330
124
100
AcDbEntity
  8
_U+30EC_U+30A4_U+30E4_U+30FC 1
 62
   179
420
  2234388
370
     9
100
AcDbVertex
100
AcDb2dVertex
 10
120.6737741435778
 20
-141.8507802423151
 30
0.0
  0
VERTEX
  5
126
330
124
100
AcDbEntity
  8
_U+30EC_U+30A4_U+30E4_U+30FC 1
 62
   179
420
  2234388
370
     9
100
AcDbVertex
100
AcDb2dVertex
 10
123.1335555247725
 20
-141.8507802423151
 30
0.0
  0
SEQEND
  5
127
330
124
100
AcDbEntity
  8
_U+30EC_U+30A4_U+30E4_U+30FC 1
 62
   179
420
  2234388
370
     9
  0
INSERT
  5
129
330
117
100
AcDbEntity
  8
_U+30EC_U+30A4_U+30E4_U+30FC 1
100
AcDbBlockReference
  2
block 10
 10
0.0
 20
0.0
 30
0.0
  0
ENDBLK
  5
11A
330
117
100
AcDbEntity
  8
0
100
AcDbBlockEnd
  0
BLOCK
  5
12A
330
128
100
AcDbEntity
  8
0
100
AcDbBlockBegin
  2
block 10
 70
     0
 10
0.0
 20
0.0
 30
0.0
  3
block 10
  1

  0
SPLINE
  5
12C
330
128
100
AcDbEntity
  8
_U+30EC_U+30A4_U+30E4_U+30FC 1
370
     0
100
AcDbSpline
210
0.0
220
0.0
230
1.0
 70
    11
 71
     3
 72
    26
 73
    22
 74
     0
 42
0.0000000001
 43
0.0000000001
 12
1.0
 22
0.0
 32
0.0
 13
1.0
 23
0.0
 33
0.0
 40
0.0
 40
0.0
 40
0.0
 40
0.0
 40
1.0
 40
1.0
 40
1.0
 40
2.0
 40
2.0
 40
2.0
 40
3.0
 40
3.0
 40
3.0
 40
4.0
 40
4.0
 40
4.0
 40
5.0
 40
5.0
 40
5.0
 40
6.0
 40
6.0
 40
6.0
 40
7.0
 40
7.0
 40
7.0
 40
7.0
 10
121.5374565668379
 20
-138.8599134309968
 30
0.0
 10
121.5374565668379
 20
-138.8599134309968
 30
0.0
 10
120.4333034638153
 20
-138.8599134309968
 30
0.0
 10
120.4333034638153
 20
-138.8599134309968
 30
0.0
 10
120.4333034638153
 20
-138.8599134309968
 30
0.0
 10
120.4333034638153
 20
-139.2126912086864
 30
0.0
 10
120.4333034638153
 20
-139.2126912086864
 30
0.0
 10
120.4333034638153
 20
-139.2126912086864
 30
0.0
 10
120.2851643579496
 20
-139.2126912086864
 30
0.0
 10
120.2851643579496
 20
-139.2126912086864
 30
0.0
 10
120.270350447363
 20
-138.8576741189314
 30
0.0
 10
120.1073974309107
 20
-138.8078924891696
 30
0.0
 10
119.9930202608004
 20
-138.7763698654795
 30
0.0
 10
119.9930202608004
 20
-138.7763698654795
 30
0.0
 10
119.9930202608004
 20
-138.6203070399977
 30
0.0
 10
119.9930202608004
 20
-138.6203070399977
 30
0.0
 10
119.9930202608004
 20
-138.6203070399977
 30
0.0
 10
121.5374565668379
 20
-138.6203070399977
 30
0.0
 10
121.5374565668379
 20
-138.6203070399977
 30
0.0
 10
121.5374565668379
 20
-138.6203070399977
 30
0.0
 10
121.5374565668379
 20
-138.8599134309968
 30
0.0
 10
121.5374565668379
 20
-138.8599134309968
 30
0.0
  0
HATCH
  5
12D
330
128
100
AcDbEntity
  8
_U+30EC_U+30A4_U+30E4_U+30FC 1
 62
   179
420
  2234388
100
AcDbHatch
 10
0.0
 20
0.0
 30
0.0
210
0.0
220
0.0
230
1.0
  2
SOLID
 70
     1
 71
     0
 91
        1
 92
        1
 93
        1
 72
     4
 94
        3
 73
     0
 74
     1
 95
       26
 96
       22
 40
0.0
 40
0.0
 40
0.0
 40
0.0
 40
1.0
 40
1.0
 40
1.0
 40
2.0
 40
2.0
 40
2.0
 40
3.0
 40
3.0
 40
3.0
 40
4.0
 40
4.0
 40
4.0
 40
5.0
 40
5.0
 40
5.0
 40
6.0
 40
6.0
 40
6.0
 40
7.0
 40
7.0
 40
7.0
 40
7.0
 10
121.5374565668379
 20
-138.8599134309968
 10
121.5374565668379
 20
-138.8599134309968
 10
120.4333034638153
 20
-138.8599134309968
 10
120.4333034638153
 20
-138.8599134309968
 10
120.4333034638153
 20
-138.8599134309968
 10
120.4333034638153
 20
-139.2126912086864
 10
120.4333034638153
 20
-139.2126912086864
 10
120.4333034638153
 20
-139.2126912086864
 10
120.2851643579496
 20
-139.2126912086864
 10
120.2851643579496
 20
-139.2126912086864
 10
120.270350447363
 20
-138.8576741189314
 10
120.1073974309107
 20
-138.8078924891696
 10
119.9930202608004
 20
-138.7763698654795
 10
119.9930202608004
 20
-138.7763698654795
 10
119.9930202608004
 20
-138.6203070399977
 10
119.9930202608004
 20
-138.6203070399977
 10
119.9930202608004
 20
-138.6203070399977
 10
121.5374565668379
 20
-138.6203070399977
 10
121.5374565668379
 20
-138.6203070399977
 10
121.5374565668379
 20
-138.6203070399977
 10
121.5374565668379
 20
-138.8599134309968
 10
121.5374565668379
 20
-138.8599134309968
 97
        0
 97
        0
 75
     2
 76
     1
 98
        0
  0
ENDBLK
  5
12B
330
128
100
AcDbEntity
  8
0
100
AcDbBlockEnd
  0
ENDSEC
  0
SECTION
  2
ENTITIES
  0
POLYLINE
  5
41
330
1F
100
AcDbEntity
  8
_U+30EC_U+30A4_U+30E4_U+30FC 1
 62
   179
420
  2234388
370
    25
100
AcDb2dPolyline
 66
     1
 10
0.0
 20
0.0
 30
0.0
  0
VERTEX
  5
42
330
41
100
AcDbEntity
  8
_U+30EC_U+30A4_U+30E4_U+30FC 1
 62
   179
420
  2234388
370
    25
100
AcDbVertex
100
AcDb2dVertex
 10
94.06558148907598
 20
-142.8505524642873
 30
0.0
  0
VERTEX
  5
43
330
41
100
AcDbEntity
  8
_U+30EC_U+30A4_U+30E4_U+30FC 1
 62
   179
420
  2234388
370
    25
100
AcDbVertex
100
AcDb2dVertex
 10
118.14404004145
 20
-142.8505524642873
 30
0.0
  0
SEQEND
  5
44
330
41
100
AcDbEntity
  8
_U+30EC_U+30A4_U+30E4_U+30FC 1
 62
   179
420
  2234388
370
    25
  0
POLYLINE
  5
45
330
1F
100
AcDbEntity
  8
_U+30EC_U+30A4_U+30E4_U+30FC 1
 62
   179
420
  2234388
370
    25
100
AcDb2dPolyline
 66
     1
 10
0.0
 20
0.0
 30
0.0
  0
VERTEX
  5
46
330
45
100
AcDbEntity
  8
_U+30EC_U+30A4_U+30E4_U+30FC 1
 62
   179
420
  2234388
370
    25
100
AcDbVertex
100
AcDb2dVertex
 10
118.14404004145
 20
-141.8500746867596
 30
0.0
  0
VERTEX
  5
47
330
45
100
AcDbEntity
  8
_U+30EC_U+30A4_U+30E4_U+30FC 1
 62
   179
420
  2234388
370
    25
100
AcDbVertex
100
AcDb2dVertex
 10
118.14404004145
 20
-142.8505524642873
 30
0.0
  0
SEQEND
  5
48
330
45
100
AcDbEntity
  8
_U+30EC_U+30A4_U+30E4_U+30FC 1
 62
   179
420
  2234388
370
    25
  0
POLYLINE
  5
49
330
1F
100
AcDbEntity
  8
_U+30EC_U+30A4_U+30E4_U+30FC 1
 62
   179
420
  2234388
370
    25
100
AcDb2dPolyline
 66
     1
 10
0.0
 20
0.0
 30
0.0
  0
VERTEX
  5
4A
330
49
100
AcDbEntity
  8
_U+30EC_U+30A4_U+30E4_U+30FC 1
 62
   179
420
  2234388
370
    25
100
AcDbVertex
100
AcDb2dVertex
 10
93.14402012369807
 20
-141.8500746867596
 30
0.0
  0
VERTEX
  5
4B
330
49
100
AcDbEntity
  8
_U+30EC_U+30A4_U+30E4_U+30FC 1
 62
   179
420
  2234388
370
    25
100
AcDbVertex
100
AcDb2dVertex
 10
118.14404004145
 20
-141.8500746867596
 30
0.0
  0
SEQEND
  5
4C
330
49
100
AcDbEntity
  8
_U+30EC_U+30A4_U+30E4_U+30FC 1
 62
   179
420
  2234388
370
    25
  0
POLYLINE
  5
4D
330
1F
100
AcDbEntity
  8
_U+30EC_U+30A4_U+30E4_U+30FC 1
 62
   179
420
  2234388
370
    25
100
AcDb2dPolyline
 66
     1
 10
0.0
 20
0.0
 30
0.0
  0
VERTEX
  5
4E
330
4D
100
AcDbEntity
  8
_U+30EC_U+30A4_U+30E4_U+30FC 1
 62
   179
420
  2234388
370
    25
100
AcDbVertex
100
AcDb2dVertex
 10
93.24530262111415
 20
-152.8502855173432
 30
0.0
  0
VERTEX
  5
4F
330
4D
100
AcDbEntity
  8
_U+30EC_U+30A4_U+30E4_U+30FC 1
 62
   179
420
  2234388
370
    25
100
AcDbVertex
100
AcDb2dVertex
 10
102.1439833077975
 20
-152.8502855173432
 30
0.0
  0
SEQEND
  5
50
330
4D
100
AcDbEntity
  8
_U+30EC_U+30A4_U+30E4_U+30FC 1
 62
   179
420
  2234388
370
    25
  0
POLYLINE
  5
51
330
1F
100
AcDbEntity
  8
_U+30EC_U+30A4_U+30E4_U+30FC 1
 62
   179
420
  2234388
370
    25
100
AcDb2dPolyline
 66
     1
 10
0.0
 20
0.0
 30
0.0
  0
VERTEX
  5
52
330
51
100
AcDbEntity
  8
_U+30EC_U+30A4_U+30E4_U+30FC 1
 62
   179
420
  2234388
370
    25
100
AcDbVertex
100
AcDb2dVertex
 10
102.1439833077975
 20
-152.8502855173432
 30
0.0
  0
VERTEX
  5
53
330
51
100
AcDbEntity
  8
_U+30EC_U+30A4_U+30E4_U+30FC 1
 62
   179
420
  2234388
370
    25
100
AcDbVertex
100
AcDb2dVertex
 10
102.1439833077975
 20
-153.1506757950455
 30
0.0
  0
SEQEND
  5
54
330
51
100
AcDbEntity
  8
_U+30EC_U+30A4_U+30E4_U+30FC 1
 62
   179
420
  2234388
370
    25
  0
POLYLINE
  5
55
330
1F
100
AcDbEntity
  8
_U+30EC_U+30A4_U+30E4_U+30FC 1
 62
   179
420
  2234388
370
    25
100
AcDb2dPolyline
 66
     1
 10
0.0
 20
0.0
 30
0.0
  0
VERTEX
  5
56
330
55
100
AcDbEntity
  8
_U+30EC_U+30A4_U+30E4_U+30FC 1
 62
   179
420
  2234388
370
    25
100
AcDbVertex
100
AcDb2dVertex
 10
97.13446585522665
 20
-153.5392957949483
 30
0.0
  0
VERTEX
  5
57
330
55
100
AcDbEntity
  8
_U+30EC_U+30A4_U+30E4_U+30FC 1
 62
   179
420
  2234388
370
    25
100
AcDbVertex
100
AcDb2dVertex
 10
102.1439833077975
 20
-153.1506757950455
 30
0.0
  0
SEQEND
  5
58
330
55
100
AcDbEntity
  8
_U+30EC_U+30A4_U+30E4_U+30FC 1
 62
   179
420
  2234388
370
    25
  0
POLYLINE
  5
59
330
1F
100
AcDbEntity
  8
_U+30EC_U+30A4_U+30E4_U+30FC 1
 62
   179
420
  2234388
370
    25
100
AcDb2dPolyline
 66
     1
 10
0.0
 20
0.0
 30
0.0
  0
VERTEX
  5
5A
330
59
100
AcDbEntity
  8
_U+30EC_U+30A4_U+30E4_U+30FC 1
 62
   179
420
  2234388
370
    25
100
AcDbVertex
100
AcDb2dVertex
 10
92.75988041127607
 20
-153.5785599616054
 30
0.0
  0
VERTEX
  5
5B
330
59
100
AcDbEntity
  8
_U+30EC_U+30A4_U+30E4_U+30FC 1
 62
   179
420
  2234388
370
    25
100
AcDbVertex
100
AcDb2dVertex
 10
93.43993011614879
 20
-153.9458016281799
 30
0.0
  0
SEQEND
  5
5C
330
59
100
AcDbEntity
  8
_U+30EC_U+30A4_U+30E4_U+30FC 1
 62
   179
420
  2234388
370
    25
  0
POLYLINE
  5
5D
330
1F
100
AcDbEntity
  8
_U+30EC_U+30A4_U+30E4_U+30FC 1
 62
   179
420
  2234388
370
    25
100
AcDb2dPolyline
 66
     1
 10
0.0
 20
0.0
 30
0.0
  0
VERTEX
  5
5E
330
5D
100
AcDbEntity
  8
_U+30EC_U+30A4_U+30E4_U+30FC 1
 62
   179
420
  2234388
370
    25
100
AcDbVertex
100
AcDb2dVertex
 10
93.43993011614879
 20
-153.9458016281799
 30
0.0
  0
VERTEX
  5
5F
330
5D
100
AcDbEntity
  8
_U+30EC_U+30A4_U+30E4_U+30FC 1
 62
   179
420
  2234388
370
    25
100
AcDbVertex
100
AcDb2dVertex
 10
94.05591537821147
 20
-153.4779830171863
 30
0.0
  0
SEQEND
  5
60
330
5D
100
AcDbEntity
  8
_U+30EC_U+30A4_U+30E4_U+30FC 1
 62
   179
420
  2234388
370
    25
  0
POLYLINE
  5
61
330
1F
100
AcDbEntity
  8
_U+30EC_U+30A4_U+30E4_U+30FC 1
 62
   179
420
  2234388
370
    25
100
AcDb2dPolyline
 66
     1
 10
0.0
 20
0.0
 30
0.0
  0
VERTEX
  5
62
330
61
100
AcDbEntity
  8
_U+30EC_U+30A4_U+30E4_U+30FC 1
 62
   179
420
  2234388
370
    25
100
AcDbVertex
100
AcDb2dVertex
 10
92.75988041127607
 20
-153.5785599616054
 30
0.0
  0
VERTEX
  5
63
330
61
100
AcDbEntity
  8
_U+30EC_U+30A4_U+30E4_U+30FC 1
 62
   179
420
  2234388
370
    25
100
AcDbVertex
100
AcDb2dVertex
 10
92.14389514921339
 20
-154.0464138503771
 30
0.0
  0
SEQEND
  5
64
330
61
100
AcDbEntity
  8
_U+30EC_U+30A4_U+30E4_U+30FC 1
 62
   179
420
  2234388
370
    25
  0
POLYLINE
  5
65
330
1F
100
AcDbEntity
  8
_U+30EC_U+30A4_U+30E4_U+30FC 1
 62
   179
420
  2234388
370
    25
100
AcDb2dPolyline
 66
     1
 10
0.0
 20
0.0
 30
0.0
  0
VERTEX
  5
66
330
65
100
AcDbEntity
  8
_U+30EC_U+30A4_U+30E4_U+30FC 1
 62
   179
420
  2234388
370
    25
100
AcDbVertex
100
AcDb2dVertex
 10
94.73600275409366
 20
-153.8452246837609
 30
0.0
  0
VERTEX
  5
67
330
65
100
AcDbEntity
  8
_U+30EC_U+30A4_U+30E4_U+30FC 1
 62
   179
420
  2234388
370
    25
100
AcDbVertex
100
AcDb2dVertex
 10
94.05591537821147
 20
-153.4779830171863
 30
0.0
  0
SEQEND
  5
68
330
65
100
AcDbEntity
  8
_U+30EC_U+30A4_U+30E4_U+30FC 1
 62
   179
420
  2234388
370
    25
  0
POLYLINE
  5
69
330
1F
100
AcDbEntity
  8
_U+30EC_U+30A4_U+30E4_U+30FC 1
 62
   179
420
  2234388
370
    25
100
AcDb2dPolyline
 66
     1
 10
0.0
 20
0.0
 30
0.0
  0
VERTEX
  5
6A
330
69
100
AcDbEntity
  8
_U+30EC_U+30A4_U+30E4_U+30FC 1
 62
   179
420
  2234388
370
    25
100
AcDbVertex
100
AcDb2dVertex
 10
95.35198562292373
 20
-153.3773707949892
 30
0.0
  0
VERTEX
  5
6B
330
69
100
AcDbEntity
  8
_U+30EC_U+30A4_U+30E4_U+30FC 1
 62
   179
420
  2234388
370
    25
100
AcDbVertex
100
AcDb2dVertex
 10
94.73600275409366
 20
-153.8452246837609
 30
0.0
  0
SEQEND
  5
6C
330
69
100
AcDbEntity
  8
_U+30EC_U+30A4_U+30E4_U+30FC 1
 62
   179
420
  2234388
370
    25
  0
POLYLINE
  5
6D
330
1F
100
AcDbEntity
  8
_U+30EC_U+30A4_U+30E4_U+30FC 1
 62
   179
420
  2234388
370
    25
100
AcDb2dPolyline
 66
     1
 10
0.0
 20
0.0
 30
0.0
  0
VERTEX
  5
6E
330
6D
100
AcDbEntity
  8
_U+30EC_U+30A4_U+30E4_U+30FC 1
 62
   179
420
  2234388
370
    25
100
AcDbVertex
100
AcDb2dVertex
 10
95.35198562292373
 20
-153.3773707949892
 30
0.0
  0
VERTEX
  5
6F
330
6D
100
AcDbEntity
  8
_U+30EC_U+30A4_U+30E4_U+30FC 1
 62
   179
420
  2234388
370
    25
100
AcDbVertex
100
AcDb2dVertex
 10
96.03203532779645
 20
-153.7446124615638
 30
0.0
  0
SEQEND
  5
70
330
6D
100
AcDbEntity
  8
_U+30EC_U+30A4_U+30E4_U+30FC 1
 62
   179
420
  2234388
370
    25
  0
POLYLINE
  5
71
330
1F
100
AcDbEntity
  8
_U+30EC_U+30A4_U+30E4_U+30FC 1
 62
   179
420
  2234388
370
    25
100
AcDb2dPolyline
 66
     1
 10
0.0
 20
0.0
 30
0.0
  0
VERTEX
  5
72
330
71
100
AcDbEntity
  8
_U+30EC_U+30A4_U+30E4_U+30FC 1
 62
   179
420
  2234388
370
    25
100
AcDbVertex
100
AcDb2dVertex
 10
96.64802058985913
 20
-153.2767938505695
 30
0.0
  0
VERTEX
  5
73
330
71
100
AcDbEntity
  8
_U+30EC_U+30A4_U+30E4_U+30FC 1
 62
   179
420
  2234388
370
    25
100
AcDbVertex
100
AcDb2dVertex
 10
97.13446585522665
 20
-153.5392957949483
 30
0.0
  0
SEQEND
  5
74
330
71
100
AcDbEntity
  8
_U+30EC_U+30A4_U+30E4_U+30FC 1
 62
   179
420
  2234388
370
    25
  0
POLYLINE
  5
75
330
1F
100
AcDbEntity
  8
_U+30EC_U+30A4_U+30E4_U+30FC 1
 62
   179
420
  2234388
370
    25
100
AcDb2dPolyline
 66
     1
 10
0.0
 20
0.0
 30
0.0
  0
VERTEX
  5
76
330
75
100
AcDbEntity
  8
_U+30EC_U+30A4_U+30E4_U+30FC 1
 62
   179
420
  2234388
370
    25
100
AcDbVertex
100
AcDb2dVertex
 10
96.64802058985913
 20
-153.2767938505695
 30
0.0
  0
VERTEX
  5
77
330
75
100
AcDbEntity
  8
_U+30EC_U+30A4_U+30E4_U+30FC 1
 62
   179
420
  2234388
370
    25
100
AcDbVertex
100
AcDb2dVertex
 10
96.03203532779645
 20
-153.7446124615638
 30
0.0
  0
SEQEND
  5
78
330
75
100
AcDbEntity
  8
_U+30EC_U+30A4_U+30E4_U+30FC 1
 62
   179
420
  2234388
370
    25
  0
POLYLINE
  5
79
330
1F
100
AcDbEntity
  8
_U+30EC_U+30A4_U+30E4_U+30FC 1
 62
   179
420
  2234388
370
     9
100
AcDb2dPolyline
 66
     1
 10
0.0
 20
0.0
 30
0.0
  0
VERTEX
  5
7A
330
79
100
AcDbEntity
  8
_U+30EC_U+30A4_U+30E4_U+30FC 1
 62
   179
420
  2234388
370
     9
100
AcDbVertex
100
AcDb2dVertex
 10
92.91249442121625
 20
-153.8941549615263
 30
0.0
  0
VERTEX
  5
7B
330
79
100
AcDbEntity
  8
_U+30EC_U+30A4_U+30E4_U+30FC 1
 62
   179
420
  2234388
370
     9
100
AcDbVertex
100
AcDb2dVertex
 10
88.97510411894487
 20
-157.3895477384302
 30
0.0
  0
SEQEND
  5
7C
330
79
100
AcDbEntity
  8
_U+30EC_U+30A4_U+30E4_U+30FC 1
 62
   179
420
  2234388
370
     9
  0
POLYLINE
  5
7D
330
1F
100
AcDbEntity
  8
_U+30EC_U+30A4_U+30E4_U+30FC 1
 62
   179
420
  2234388
370
    25
100
AcDb2dPolyline
 66
     1
 10
0.0
 20
0.0
 30
0.0
  0
VERTEX
  5
7E
330
7D
100
AcDbEntity
  8
_U+30EC_U+30A4_U+30E4_U+30FC 1
 62
   179
420
  2234388
370
    25
100
AcDbVertex
100
AcDb2dVertex
 10
93.14402012369807
 20
-141.8500746867596
 30
0.0
  0
VERTEX
  5
7F
330
7D
100
AcDbEntity
  8
_U+30EC_U+30A4_U+30E4_U+30FC 1
 62
   179
420
  2234388
370
    25
100
AcDbVertex
100
AcDb2dVertex
 10
92.14389514921339
 20
-154.0464138503771
 30
0.0
  0
SEQEND
  5
80
330
7D
100
AcDbEntity
  8
_U+30EC_U+30A4_U+30E4_U+30FC 1
 62
   179
420
  2234388
370
    25
  0
POLYLINE
  5
81
330
1F
100
AcDbEntity
  8
_U+30EC_U+30A4_U+30E4_U+30FC 1
 62
   179
420
  2234388
370
    25
100
AcDb2dPolyline
 66
     1
 10
0.0
 20
0.0
 30
0.0
  0
VERTEX
  5
82
330
81
100
AcDbEntity
  8
_U+30EC_U+30A4_U+30E4_U+30FC 1
 62
   179
420
  2234388
370
    25
100
AcDbVertex
100
AcDb2dVertex
 10
94.06558148907598
 20
-142.8505524642873
 30
0.0
  0
VERTEX
  5
83
330
81
100
AcDbEntity
  8
_U+30EC_U+30A4_U+30E4_U+30FC 1
 62
   179
420
  2234388
370
    25
100
AcDbVertex
100
AcDb2dVertex
 10
93.24530262111415
 20
-152.8502855173432
 30
0.0
  0
SEQEND
  5
84
330
81
100
AcDbEntity
  8
_U+30EC_U+30A4_U+30E4_U+30FC 1
 62
   179
420
  2234388
370
    25
  0
SPLINE
  5
85
330
1F
100
AcDbEntity
  8
_U+30EC_U+30A4_U+30E4_U+30FC 1
 62
   179
420
  2234388
370
     9
100
AcDbSpline
210
0.0
220
0.0
230
1.0
 70
    11
 71
     3
 72
    17
 73
    13
 74
     0
 42
0.0000000001
 43
0.0000000001
 12
1.0
 22
0.0
 32
0.0
 13
1.0
 23
0.0
 33
0.0
 40
0.0
 40
0.0
 40
0.0
 40
0.0
 40
1.0
 40
1.0
 40
1.0
 40
2.0
 40
2.0
 40
2.0
 40
3.0
 40
3.0
 40
3.0
 40
4.0
 40
4.0
 40
4.0
 40
4.0
 10
92.24380181333123
 20
-137.850315521093
 30
0.0
 10
92.24380181333123
 20
-137.7952116322178
 30
0.0
 10
92.19903431447334
 20
-137.7504088544514
 30
0.0
 10
92.14389514921339
 20
-137.7504088544514
 30
0.0
 10
92.08879126173032
 20
-137.7504088544514
 30
0.0
 10
92.04398848509555
 20
-137.7952116322178
 30
0.0
 10
92.04398848509555
 20
-137.850315521093
 30
0.0
 10
92.04398848509555
 20
-137.9054546877458
 30
0.0
 10
92.08879126173032
 20
-137.9502221877347
 30
0.0
 10
92.14389514921339
 20
-137.9502221877347
 30
0.0
 10
92.19903431447334
 20
-137.9502221877347
 30
0.0
 10
92.24380181333123
 20
-137.9054546877458
 30
0.0
 10
92.24380181333123
 20
-137.850315521093
 30
0.0
  0
SPLINE
  5
86
330
1F
100
AcDbEntity
  8
_U+30EC_U+30A4_U+30E4_U+30FC 1
 62
   179
420
  2234388
370
     9
100
AcDbSpline
210
0.0
220
0.0
230
1.0
 70
    11
 71
     3
 72
    17
 73
    13
 74
     0
 42
0.0000000001
 43
0.0000000001
 12
1.0
 22
0.0
 32
0.0
 13
1.0
 23
0.0
 33
0.0
 40
0.0
 40
0.0
 40
0.0
 40
0.0
 40
1.0
 40
1.0
 40
1.0
 40
2.0
 40
2.0
 40
2.0
 40
3.0
 40
3.0
 40
3.0
 40
4.0
 40
4.0
 40
4.0
 40
4.0
 10
93.24392678781591
 20
-137.850315521093
 30
0.0
 10
93.24392678781591
 20
-137.7952116322178
 30
0.0
 10
93.19912401118114
 20
-137.7504088544514
 30
0.0
 10
93.14402012369807
 20
-137.7504088544514
 30
0.0
 10
93.08853053228329
 20
-137.7504088544514
 30
0.0
 10
93.04376068181146
 20
-137.7952116322178
 30
0.0
 10
93.04376068181146
 20
-137.850315521093
 30
0.0
 10
93.04376068181146
 20
-137.9054546877458
 30
0.0
 10
93.08853053228329
 20
-137.9502221877347
 30
0.0
 10
93.14402012369807
 20
-137.9502221877347
 30
0.0
 10
93.19912401118114
 20
-137.9502221877347
 30
0.0
 10
93.24392678781591
 20
-137.9054546877458
 30
0.0
 10
93.24392678781591
 20
-137.850315521093
 30
0.0
  0
SPLINE
  5
87
330
1F
100
AcDbEntity
  8
_U+30EC_U+30A4_U+30E4_U+30FC 1
 62
   179
420
  2234388
370
     9
100
AcDbSpline
210
0.0
220
0.0
230
1.0
 70
    11
 71
     3
 72
    17
 73
    13
 74
     0
 42
0.0000000001
 43
0.0000000001
 12
1.0
 22
0.0
 32
0.0
 13
1.0
 23
0.0
 33
0.0
 40
0.0
 40
0.0
 40
0.0
 40
0.0
 40
1.0
 40
1.0
 40
1.0
 40
2.0
 40
2.0
 40
2.0
 40
3.0
 40
3.0
 40
3.0
 40
4.0
 40
4.0
 40
4.0
 40
4.0
 10
122.2440585479609
 20
-152.8502855173432
 30
0.0
 10
122.2440585479609
 20
-152.7951463506901
 30
0.0
 10
122.1992557713262
 20
-152.7503788507016
 30
0.0
 10
122.1437991060743
 20
-152.7503788507016
 30
0.0
 10
122.0886599408144
 20
-152.7503788507016
 30
0.0
 10
122.0438924419565
 20
-152.7951463506901
 30
0.0
 10
122.0438924419565
 20
-152.8502855173432
 30
0.0
 10
122.0438924419565
 20
-152.9053894062181
 30
0.0
 10
122.0886599408144
 20
-152.9501921839849
 30
0.0
 10
122.1437991060743
 20
-152.9501921839849
 30
0.0
 10
122.1992557713262
 20
-152.9501921839849
 30
0.0
 10
122.2440585479609
 20
-152.9053894062181
 30
0.0
 10
122.2440585479609
 20
-152.8502855173432
 30
0.0
  0
SPLINE
  5
88
330
1F
100
AcDbEntity
  8
_U+30EC_U+30A4_U+30E4_U+30FC 1
 62
   179
420
  2234388
370
     9
100
AcDbSpline
210
0.0
220
0.0
230
1.0
 70
    11
 71
     3
 72
    17
 73
    13
 74
     0
 42
0.0000000001
 43
0.0000000001
 12
1.0
 22
0.0
 32
0.0
 13
1.0
 23
0.0
 33
0.0
 40
0.0
 40
0.0
 40
0.0
 40
0.0
 40
1.0
 40
1.0
 40
1.0
 40
2.0
 40
2.0
 40
2.0
 40
3.0
 40
3.0
 40
3.0
 40
4.0
 40
4.0
 40
4.0
 40
4.0
 10
106.2439992339342
 20
-152.8502855173432
 30
0.0
 10
106.2439992339342
 20
-152.7951463506901
 30
0.0
 10
106.1991964572995
 20
-152.7503788507016
 30
0.0
 10
106.1440925698164
 20
-152.7503788507016
 30
0.0
 10
106.0889534045564
 20
-152.7503788507016
 30
0.0
 10
106.0441859056985
 20
-152.7951463506901
 30
0.0
 10
106.0441859056985
 20
-152.8502855173432
 30
0.0
 10
106.0441859056985
 20
-152.9053894062181
 30
0.0
 10
106.0889534045564
 20
-152.9501921839849
 30
0.0
 10
106.1440925698164
 20
-152.9501921839849
 30
0.0
 10
106.1991964572995
 20
-152.9501921839849
 30
0.0
 10
106.2439992339342
 20
-152.9053894062181
 30
0.0
 10
106.2439992339342
 20
-152.8502855173432
 30
0.0
  0
SPLINE
  5
89
330
1F
100
AcDbEntity
  8
_U+30EC_U+30A4_U+30E4_U+30FC 1
 62
   179
420
  2234388
370
     9
100
AcDbSpline
210
0.0
220
0.0
230
1.0
 70
    11
 71
     3
 72
    17
 73
    13
 74
     0
 42
0.0000000001
 43
0.0000000001
 12
1.0
 22
0.0
 32
0.0
 13
1.0
 23
0.0
 33
0.0
 40
0.0
 40
0.0
 40
0.0
 40
0.0
 40
1.0
 40
1.0
 40
1.0
 40
2.0
 40
2.0
 40
2.0
 40
3.0
 40
3.0
 40
3.0
 40
4.0
 40
4.0
 40
4.0
 40
4.0
 10
106.2439992339342
 20
-153.1506757950455
 30
0.0
 10
106.2439992339342
 20
-153.0948663506151
 30
0.0
 10
106.1991964572995
 20
-153.0500988506265
 30
0.0
 10
106.1440925698164
 20
-153.0500988506265
 30
0.0
 10
106.0889534045564
 20
-153.0500988506265
 30
0.0
 10
106.0441859056985
 20
-153.0948663506151
 30
0.0
 10
106.0441859056985
 20
-153.1506757950455
 30
0.0
 10
106.0441859056985
 20
-153.2058149616986
 30
0.0
 10
106.0889534045564
 20
-153.2505824616871
 30
0.0
 10
106.1440925698164
 20
-153.2505824616871
 30
0.0
 10
106.1991964572995
 20
-153.2505824616871
 30
0.0
 10
106.2439992339342
 20
-153.2058149616986
 30
0.0
 10
106.2439992339342
 20
-153.1506757950455
 30
0.0
  0
SPLINE
  5
8A
330
1F
100
AcDbEntity
  8
_U+30EC_U+30A4_U+30E4_U+30FC 1
 62
   179
420
  2234388
370
     9
100
AcDbSpline
210
0.0
220
0.0
230
1.0
 70
    11
 71
     3
 72
    17
 73
    13
 74
     0
 42
0.0000000001
 43
0.0000000001
 12
1.0
 22
0.0
 32
0.0
 13
1.0
 23
0.0
 33
0.0
 40
0.0
 40
0.0
 40
0.0
 40
0.0
 40
1.0
 40
1.0
 40
1.0
 40
2.0
 40
2.0
 40
2.0
 40
3.0
 40
3.0
 40
3.0
 40
4.0
 40
4.0
 40
4.0
 40
4.0
 10
92.24380181333123
 20
-158.046173016044
 30
0.0
 10
92.24380181333123
 20
-157.9910338493909
 30
0.0
 10
92.19903431447334
 20
-157.9462663494024
 30
0.0
 10
92.14389514921339
 20
-157.9462663494024
 30
0.0
 10
92.08879126173032
 20
-157.9462663494024
 30
0.0
 10
92.04398848509555
 20
-157.9910338493909
 30
0.0
 10
92.04398848509555
 20
-158.046173016044
 30
0.0
 10
92.04398848509555
 20
-158.1012769049189
 30
0.0
 10
92.08879126173032
 20
-158.1460796826856
 30
0.0
 10
92.14389514921339
 20
-158.1460796826856
 30
0.0
 10
92.19903431447334
 20
-158.1460796826856
 30
0.0
 10
92.24380181333123
 20
-158.1012769049189
 30
0.0
 10
92.24380181333123
 20
-158.046173016044
 30
0.0
  0
SPLINE
  5
8B
330
1F
100
AcDbEntity
  8
_U+30EC_U+30A4_U+30E4_U+30FC 1
 62
   179
420
  2234388
370
     9
100
AcDbSpline
210
0.0
220
0.0
230
1.0
 70
    11
 71
     3
 72
    17
 73
    13
 74
     0
 42
0.0000000001
 43
0.0000000001
 12
1.0
 22
0.0
 32
0.0
 13
1.0
 23
0.0
 33
0.0
 40
0.0
 40
0.0
 40
0.0
 40
0.0
 40
1.0
 40
1.0
 40
1.0
 40
2.0
 40
2.0
 40
2.0
 40
3.0
 40
3.0
 40
3.0
 40
4.0
 40
4.0
 40
4.0
 40
4.0
 10
97.23437497569141
 20
-158.046173016044
 30
0.0
 10
97.23437497569141
 20
-157.9910338493909
 30
0.0
 10
97.18957219792469
 20
-157.9462663494024
 30
0.0
 10
97.13446585522665
 20
-157.9462663494024
 30
0.0
 10
97.07900918997481
 20
-157.9462663494024
 30
0.0
 10
97.03420641334004
 20
-157.9910338493909
 30
0.0
 10
97.03420641334004
 20
-158.046173016044
 30
0.0
 10
97.03420641334004
 20
-158.1012769049189
 30
0.0
 10
97.07900918997481
 20
-158.1460796826856
 30
0.0
 10
97.13446585522665
 20
-158.1460796826856
 30
0.0
 10
97.18957219792469
 20
-158.1460796826856
 30
0.0
 10
97.23437497569141
 20
-158.1012769049189
 30
0.0
 10
97.23437497569141
 20
-158.046173016044
 30
0.0
  0
SPLINE
  5
8C
330
1F
100
AcDbEntity
  8
_U+30EC_U+30A4_U+30E4_U+30FC 1
 62
   179
420
  2234388
370
     9
100
AcDbSpline
210
0.0
220
0.0
230
1.0
 70
    11
 71
     3
 72
    17
 73
    13
 74
     0
 42
0.0000000001
 43
0.0000000001
 12
1.0
 22
0.0
 32
0.0
 13
1.0
 23
0.0
 33
0.0
 40
0.0
 40
0.0
 40
0.0
 40
0.0
 40
1.0
 40
1.0
 40
1.0
 40
2.0
 40
2.0
 40
2.0
 40
3.0
 40
3.0
 40
3.0
 40
4.0
 40
4.0
 40
4.0
 40
4.0
 10
102.2438873915411
 20
-162.0459321817109
 30
0.0
 10
102.2438873915411
 20
-161.9907930150578
 30
0.0
 10
102.1990846149064
 20
-161.9460255150692
 30
0.0
 10
102.1439833077975
 20
-161.9460255150692
 30
0.0
 10
102.0885240621714
 20
-161.9460255150692
 30
0.0
 10
102.0437212855367
 20
-161.9907930150578
 30
0.0
 10
102.0437212855367
 20
-162.0459321817109
 30
0.0
 10
102.0437212855367
 20
-162.1017416261413
 30
0.0
 10
102.0885240621714
 20
-162.1465091261299
 30
0.0
 10
102.1439833077975
 20
-162.1465091261299
 30
0.0
 10
102.1990846149064
 20
-162.1465091261299
 30
0.0
 10
102.2438873915411
 20
-162.1017416261413
 30
0.0
 10
102.2438873915411
 20
-162.0459321817109
 30
0.0
  0
SPLINE
  5
8D
330
1F
100
AcDbEntity
  8
_U+30EC_U+30A4_U+30E4_U+30FC 1
 62
   179
420
  2234388
370
     9
100
AcDbSpline
210
0.0
220
0.0
230
1.0
 70
    11
 71
     3
 72
    17
 73
    13
 74
     0
 42
0.0000000001
 43
0.0000000001
 12
1.0
 22
0.0
 32
0.0
 13
1.0
 23
0.0
 33
0.0
 40
0.0
 40
0.0
 40
0.0
 40
0.0
 40
1.0
 40
1.0
 40
1.0
 40
2.0
 40
2.0
 40
2.0
 40
3.0
 40
3.0
 40
3.0
 40
4.0
 40
4.0
 40
4.0
 40
4.0
 10
92.24380181333123
 20
-162.0459321817109
 30
0.0
 10
92.24380181333123
 20
-161.9907930150578
 30
0.0
 10
92.19903431447334
 20
-161.9460255150692
 30
0.0
 10
92.14389514921339
 20
-161.9460255150692
 30
0.0
 10
92.08879126173032
 20
-161.9460255150692
 30
0.0
 10
92.04398848509555
 20
-161.9907930150578
 30
0.0
 10
92.04398848509555
 20
-162.0459321817109
 30
0.0
 10
92.04398848509555
 20
-162.1017416261413
 30
0.0
 10
92.08879126173032
 20
-162.1465091261299
 30
0.0
 10
92.14389514921339
 20
-162.1465091261299
 30
0.0
 10
92.19903431447334
 20
-162.1465091261299
 30
0.0
 10
92.24380181333123
 20
-162.1017416261413
 30
0.0
 10
92.24380181333123
 20
-162.0459321817109
 30
0.0
  0
SPLINE
  5
8E
330
1F
100
AcDbEntity
  8
_U+30EC_U+30A4_U+30E4_U+30FC 1
 62
   179
420
  2234388
370
     9
100
AcDbSpline
210
0.0
220
0.0
230
1.0
 70
    11
 71
     3
 72
    17
 73
    13
 74
     0
 42
0.0000000001
 43
0.0000000001
 12
1.0
 22
0.0
 32
0.0
 13
1.0
 23
0.0
 33
0.0
 40
0.0
 40
0.0
 40
0.0
 40
0.0
 40
1.0
 40
1.0
 40
1.0
 40
2.0
 40
2.0
 40
2.0
 40
3.0
 40
3.0
 40
3.0
 40
4.0
 40
4.0
 40
4.0
 40
4.0
 10
118.2439467055678
 20
-137.850315521093
 30
0.0
 10
118.2439467055678
 20
-137.7952116322178
 30
0.0
 10
118.1991439289331
 20
-137.7504088544514
 30
0.0
 10
118.14404004145
 20
-137.7504088544514
 30
0.0
 10
118.0885833761981
 20
-137.7504088544514
 30
0.0
 10
118.0441333773321
 20
-137.7952116322178
 30
0.0
 10
118.0441333773321
 20
-137.850315521093
 30
0.0
 10
118.0441333773321
 20
-137.9054546877458
 30
0.0
 10
118.0885833761981
 20
-137.9502221877347
 30
0.0
 10
118.14404004145
 20
-137.9502221877347
 30
0.0
 10
118.1991439289331
 20
-137.9502221877347
 30
0.0
 10
118.2439467055678
 20
-137.9054546877458
 30
0.0
 10
118.2439467055678
 20
-137.850315521093
 30
0.0
  0
SPLINE
  5
8F
330
1F
100
AcDbEntity
  8
_U+30EC_U+30A4_U+30E4_U+30FC 1
 62
   179
420
  2234388
370
     9
100
AcDbSpline
210
0.0
220
0.0
230
1.0
 70
    11
 71
     3
 72
    17
 73
    13
 74
     0
 42
0.0000000001
 43
0.0000000001
 12
1.0
 22
0.0
 32
0.0
 13
1.0
 23
0.0
 33
0.0
 40
0.0
 40
0.0
 40
0.0
 40
0.0
 40
1.0
 40
1.0
 40
1.0
 40
2.0
 40
2.0
 40
2.0
 40
3.0
 40
3.0
 40
3.0
 40
4.0
 40
4.0
 40
4.0
 40
4.0
 10
122.2440585479609
 20
-142.8505524642873
 30
0.0
 10
122.2440585479609
 20
-142.7954132976346
 30
0.0
 10
122.1992557713262
 20
-142.7506457976457
 30
0.0
 10
122.1437991060743
 20
-142.7506457976457
 30
0.0
 10
122.0886599408144
 20
-142.7506457976457
 30
0.0
 10
122.0438924419565
 20
-142.7954132976346
 30
0.0
 10
122.0438924419565
 20
-142.8505524642873
 30
0.0
 10
122.0438924419565
 20
-142.9056563531626
 30
0.0
 10
122.0886599408144
 20
-142.950459130929
 30
0.0
 10
122.1437991060743
 20
-142.950459130929
 30
0.0
 10
122.1992557713262
 20
-142.950459130929
 30
0.0
 10
122.2440585479609
 20
-142.9056563531626
 30
0.0
 10
122.2440585479609
 20
-142.8505524642873
 30
0.0
  0
INSERT
  5
91
330
1F
100
AcDbEntity
  8
_U+30EC_U+30A4_U+30E4_U+30FC 1
100
AcDbBlockReference
  2
block 2
 10
0.0
 20
0.0
 30
0.0
  0
POLYLINE
  5
9C
330
1F
100
AcDbEntity
  8
_U+30EC_U+30A4_U+30E4_U+30FC 1
 62
   179
420
  2234388
370
     9
100
AcDb2dPolyline
 66
     1
 10
0.0
 20
0.0
 30
0.0
  0
VERTEX
  5
9D
330
9C
100
AcDbEntity
  8
_U+30EC_U+30A4_U+30E4_U+30FC 1
 62
   179
420
  2234388
370
     9
100
AcDbVertex
100
AcDb2dVertex
 10
93.14402012369807
 20
-137.850315521093
 30
0.0
  0
VERTEX
  5
9E
330
9C
100
AcDbEntity
  8
_U+30EC_U+30A4_U+30E4_U+30FC 1
 62
   179
420
  2234388
370
     9
100
AcDbVertex
100
AcDb2dVertex
 10
118.14404004145
 20
-137.850315521093
 30
0.0
  0
SEQEND
  5
9F
330
9C
100
AcDbEntity
  8
_U+30EC_U+30A4_U+30E4_U+30FC 1
 62
   179
420
  2234388
370
     9
  0
POLYLINE
  5
A0
330
1F
100
AcDbEntity
  8
_U+30EC_U+30A4_U+30E4_U+30FC 1
 62
   179
420
  2234388
370
     9
100
AcDb2dPolyline
 66
     1
 10
0.0
 20
0.0
 30
0.0
  0
VERTEX
  5
A1
330
A0
100
AcDbEntity
  8
_U+30EC_U+30A4_U+30E4_U+30FC 1
 62
   179
420
  2234388
370
     9
100
AcDbVertex
100
AcDb2dVertex
 10
93.14402012369807
 20
-139.3103569096167
 30
0.0
  0
VERTEX
  5
A2
330
A0
100
AcDbEntity
  8
_U+30EC_U+30A4_U+30E4_U+30FC 1
 62
   179
420
  2234388
370
     9
100
AcDbVertex
100
AcDb2dVertex
 10
93.14402012369807
 20
-136.8505785768983
 30
0.0
  0
SEQEND
  5
A3
330
A0
100
AcDbEntity
  8
_U+30EC_U+30A4_U+30E4_U+30FC 1
 62
   179
420
  2234388
370
     9
  0
POLYLINE
  5
A4
330
1F
100
AcDbEntity
  8
_U+30EC_U+30A4_U+30E4_U+30FC 1
 62
   179
420
  2234388
370
     9
100
AcDb2dPolyline
 66
     1
 10
0.0
 20
0.0
 30
0.0
  0
VERTEX
  5
A5
330
A4
100
AcDbEntity
  8
_U+30EC_U+30A4_U+30E4_U+30FC 1
 62
   179
420
  2234388
370
     9
100
AcDbVertex
100
AcDb2dVertex
 10
118.14404004145
 20
-139.3103569096167
 30
0.0
  0
VERTEX
  5
A6
330
A4
100
AcDbEntity
  8
_U+30EC_U+30A4_U+30E4_U+30FC 1
 62
   179
420
  2234388
370
     9
100
AcDbVertex
100
AcDb2dVertex
 10
118.14404004145
 20
-136.8505785768983
 30
0.0
  0
SEQEND
  5
A7
330
A4
100
AcDbEntity
  8
_U+30EC_U+30A4_U+30E4_U+30FC 1
 62
   179
420
  2234388
370
     9
  0
INSERT
  5
A9
330
1F
100
AcDbEntity
  8
_U+30EC_U+30A4_U+30E4_U+30FC 1
100
AcDbBlockReference
  2
block 3
 10
0.0
 20
0.0
 30
0.0
  0
POLYLINE
  5
B0
330
1F
100
AcDbEntity
  8
_U+30EC_U+30A4_U+30E4_U+30FC 1
 62
   179
420
  2234388
370
     9
100
AcDb2dPolyline
 66
     1
 10
0.0
 20
0.0
 30
0.0
  0
VERTEX
  5
B1
330
B0
100
AcDbEntity
  8
_U+30EC_U+30A4_U+30E4_U+30FC 1
 62
   179
420
  2234388
370
     9
100
AcDbVertex
100
AcDb2dVertex
 10
93.14402012369807
 20
-137.850315521093
 30
0.0
  0
VERTEX
  5
B2
330
B0
100
AcDbEntity
  8
_U+30EC_U+30A4_U+30E4_U+30FC 1
 62
   179
420
  2234388
370
     9
100
AcDbVertex
100
AcDb2dVertex
 10
91.14412295249748
 20
-137.850315521093
 30
0.0
  0
SEQEND
  5
B3
330
B0
100
AcDbEntity
  8
_U+30EC_U+30A4_U+30E4_U+30FC 1
 62
   179
420
  2234388
370
     9
  0
POLYLINE
  5
B4
330
1F
100
AcDbEntity
  8
_U+30EC_U+30A4_U+30E4_U+30FC 1
 62
   179
420
  2234388
370
     9
100
AcDb2dPolyline
 66
     1
 10
0.0
 20
0.0
 30
0.0
  0
VERTEX
  5
B5
330
B4
100
AcDbEntity
  8
_U+30EC_U+30A4_U+30E4_U+30FC 1
 62
   179
420
  2234388
370
     9
100
AcDbVertex
100
AcDb2dVertex
 10
92.14389514921339
 20
-151.505990517679
 30
0.0
  0
VERTEX
  5
B6
330
B4
100
AcDbEntity
  8
_U+30EC_U+30A4_U+30E4_U+30FC 1
 62
   179
420
  2234388
370
     9
100
AcDbVertex
100
AcDb2dVertex
 10
92.14389514921339
 20
-136.8505785768983
 30
0.0
  0
SEQEND
  5
B7
330
B4
100
AcDbEntity
  8
_U+30EC_U+30A4_U+30E4_U+30FC 1
 62
   179
420
  2234388
370
     9
  0
INSERT
  5
B9
330
1F
100
AcDbEntity
  8
_U+30EC_U+30A4_U+30E4_U+30FC 1
100
AcDbBlockReference
  2
block 4
 10
0.0
 20
0.0
 30
0.0
  0
POLYLINE
  5
BE
330
1F
100
AcDbEntity
  8
_U+30EC_U+30A4_U+30E4_U+30FC 1
 62
   179
420
  2234388
370
     9
100
AcDb2dPolyline
 66
     1
 10
0.0
 20
0.0
 30
0.0
  0
VERTEX
  5
BF
330
BE
100
AcDbEntity
  8
_U+30EC_U+30A4_U+30E4_U+30FC 1
 62
   179
420
  2234388
370
     9
100
AcDbVertex
100
AcDb2dVertex
 10
106.1440925698164
 20
-152.8502855173432
 30
0.0
  0
VERTEX
  5
C0
330
BE
100
AcDbEntity
  8
_U+30EC_U+30A4_U+30E4_U+30FC 1
 62
   179
420
  2234388
370
     9
100
AcDbVertex
100
AcDb2dVertex
 10
106.1440925698164
 20
-147.5923796853243
 30
0.0
  0
SEQEND
  5
C1
330
BE
100
AcDbEntity
  8
_U+30EC_U+30A4_U+30E4_U+30FC 1
 62
   179
420
  2234388
370
     9
  0
POLYLINE
  5
C2
330
1F
100
AcDbEntity
  8
_U+30EC_U+30A4_U+30E4_U+30FC 1
 62
   179
420
  2234388
370
     9
100
AcDb2dPolyline
 66
     1
 10
0.0
 20
0.0
 30
0.0
  0
VERTEX
  5
C3
330
C2
100
AcDbEntity
  8
_U+30EC_U+30A4_U+30E4_U+30FC 1
 62
   179
420
  2234388
370
     9
100
AcDbVertex
100
AcDb2dVertex
 10
106.1440925698164
 20
-152.8502855173432
 30
0.0
  0
VERTEX
  5
C4
330
C2
100
AcDbEntity
  8
_U+30EC_U+30A4_U+30E4_U+30FC 1
 62
   179
420
  2234388
370
     9
100
AcDbVertex
100
AcDb2dVertex
 10
106.1440925698164
 20
-154.150448017018
 30
0.0
  0
SEQEND
  5
C5
330
C2
100
AcDbEntity
  8
_U+30EC_U+30A4_U+30E4_U+30FC 1
 62
   179
420
  2234388
370
     9
  0
POLYLINE
  5
C6
330
1F
100
AcDbEntity
  8
_U+30EC_U+30A4_U+30E4_U+30FC 1
 62
   179
420
  2234388
370
     9
100
AcDb2dPolyline
 66
     1
 10
0.0
 20
0.0
 30
0.0
  0
VERTEX
  5
C7
330
C6
100
AcDbEntity
  8
_U+30EC_U+30A4_U+30E4_U+30FC 1
 62
   179
420
  2234388
370
     9
100
AcDbVertex
100
AcDb2dVertex
 10
104.6840512181762
 20
-153.1506757950455
 30
0.0
  0
VERTEX
  5
C8
330
C6
100
AcDbEntity
  8
_U+30EC_U+30A4_U+30E4_U+30FC 1
 62
   179
420
  2234388
370
     9
100
AcDbVertex
100
AcDb2dVertex
 10
107.1438294887554
 20
-153.1506757950455
 30
0.0
  0
SEQEND
  5
C9
330
C6
100
AcDbEntity
  8
_U+30EC_U+30A4_U+30E4_U+30FC 1
 62
   179
420
  2234388
370
     9
  0
INSERT
  5
CB
330
1F
100
AcDbEntity
  8
_U+30EC_U+30A4_U+30E4_U+30FC 1
100
AcDbBlockReference
  2
block 5
 10
0.0
 20
0.0
 30
0.0
  0
POLYLINE
  5
DB
330
1F
100
AcDbEntity
  8
_U+30EC_U+30A4_U+30E4_U+30FC 1
 62
   179
420
  2234388
370
     9
100
AcDb2dPolyline
 66
     1
 10
0.0
 20
0.0
 30
0.0
  0
VERTEX
  5
DC
330
DB
100
AcDbEntity
  8
_U+30EC_U+30A4_U+30E4_U+30FC 1
 62
   179
420
  2234388
370
     9
100
AcDbVertex
100
AcDb2dVertex
 10
92.14389514921339
 20
-158.046173016044
 30
0.0
  0
VERTEX
  5
DD
330
DB
100
AcDbEntity
  8
_U+30EC_U+30A4_U+30E4_U+30FC 1
 62
   179
420
  2234388
370
     9
100
AcDbVertex
100
AcDb2dVertex
 10
97.13446585522665
 20
-158.046173016044
 30
0.0
  0
SEQEND
  5
DE
330
DB
100
AcDbEntity
  8
_U+30EC_U+30A4_U+30E4_U+30FC 1
 62
   179
420
  2234388
370
     9
  0
POLYLINE
  5
DF
330
1F
100
AcDbEntity
  8
_U+30EC_U+30A4_U+30E4_U+30FC 1
 62
   179
420
  2234388
370
     9
100
AcDb2dPolyline
 66
     1
 10
0.0
 20
0.0
 30
0.0
  0
VERTEX
  5
E0
330
DF
100
AcDbEntity
  8
_U+30EC_U+30A4_U+30E4_U+30FC 1
 62
   179
420
  2234388
370
     9
100
AcDbVertex
100
AcDb2dVertex
 10
92.14389514921339
 20
-156.5861316275203
 30
0.0
  0
VERTEX
  5
E1
330
DF
100
AcDbEntity
  8
_U+30EC_U+30A4_U+30E4_U+30FC 1
 62
   179
420
  2234388
370
     9
100
AcDbVertex
100
AcDb2dVertex
 10
92.14389514921339
 20
-159.0459452380165
 30
0.0
  0
SEQEND
  5
E2
330
DF
100
AcDbEntity
  8
_U+30EC_U+30A4_U+30E4_U+30FC 1
 62
   179
420
  2234388
370
     9
  0
POLYLINE
  5
E3
330
1F
100
AcDbEntity
  8
_U+30EC_U+30A4_U+30E4_U+30FC 1
 62
   179
420
  2234388
370
     9
100
AcDb2dPolyline
 66
     1
 10
0.0
 20
0.0
 30
0.0
  0
VERTEX
  5
E4
330
E3
100
AcDbEntity
  8
_U+30EC_U+30A4_U+30E4_U+30FC 1
 62
   179
420
  2234388
370
     9
100
AcDbVertex
100
AcDb2dVertex
 10
97.13446585522665
 20
-156.0790135720915
 30
0.0
  0
VERTEX
  5
E5
330
E3
100
AcDbEntity
  8
_U+30EC_U+30A4_U+30E4_U+30FC 1
 62
   179
420
  2234388
370
     9
100
AcDbVertex
100
AcDb2dVertex
 10
97.13446585522665
 20
-159.0459452380165
 30
0.0
  0
SEQEND
  5
E6
330
E3
100
AcDbEntity
  8
_U+30EC_U+30A4_U+30E4_U+30FC 1
 62
   179
420
  2234388
370
     9
  0
INSERT
  5
E8
330
1F
100
AcDbEntity
  8
_U+30EC_U+30A4_U+30E4_U+30FC 1
100
AcDbBlockReference
  2
block 6
 10
0.0
 20
0.0
 30
0.0
  0
POLYLINE
  5
ED
330
1F
100
AcDbEntity
  8
_U+30EC_U+30A4_U+30E4_U+30FC 1
 62
   179
420
  2234388
370
     9
100
AcDb2dPolyline
 66
     1
 10
0.0
 20
0.0
 30
0.0
  0
VERTEX
  5
EE
330
ED
100
AcDbEntity
  8
_U+30EC_U+30A4_U+30E4_U+30FC 1
 62
   179
420
  2234388
370
     9
100
AcDbVertex
100
AcDb2dVertex
 10
92.14389514921339
 20
-162.0459321817109
 30
0.0
  0
VERTEX
  5
EF
330
ED
100
AcDbEntity
  8
_U+30EC_U+30A4_U+30E4_U+30FC 1
 62
   179
420
  2234388
370
     9
100
AcDbVertex
100
AcDb2dVertex
 10
102.1439833077975
 20
-162.0459321817109
 30
0.0
  0
SEQEND
  5
F0
330
ED
100
AcDbEntity
  8
_U+30EC_U+30A4_U+30E4_U+30FC 1
 62
   179
420
  2234388
370
     9
  0
POLYLINE
  5
F1
330
1F
100
AcDbEntity
  8
_U+30EC_U+30A4_U+30E4_U+30FC 1
 62
   179
420
  2234388
370
     9
100
AcDb2dPolyline
 66
     1
 10
0.0
 20
0.0
 30
0.0
  0
VERTEX
  5
F2
330
F1
100
AcDbEntity
  8
_U+30EC_U+30A4_U+30E4_U+30FC 1
 62
   179
420
  2234388
370
     9
100
AcDbVertex
100
AcDb2dVertex
 10
92.14389514921339
 20
-156.5861316275203
 30
0.0
  0
VERTEX
  5
F3
330
F1
100
AcDbEntity
  8
_U+30EC_U+30A4_U+30E4_U+30FC 1
 62
   179
420
  2234388
370
     9
100
AcDbVertex
100
AcDb2dVertex
 10
92.14389514921339
 20
-163.0463746814608
 30
0.0
  0
SEQEND
  5
F4
330
F1
100
AcDbEntity
  8
_U+30EC_U+30A4_U+30E4_U+30FC 1
 62
   179
420
  2234388
370
     9
  0
POLYLINE
  5
F5
330
1F
100
AcDbEntity
  8
_U+30EC_U+30A4_U+30E4_U+30FC 1
 62
   179
420
  2234388
370
     9
100
AcDb2dPolyline
 66
     1
 10
0.0
 20
0.0
 30
0.0
  0
VERTEX
  5
F6
330
F5
100
AcDbEntity
  8
_U+30EC_U+30A4_U+30E4_U+30FC 1
 62
   179
420
  2234388
370
     9
100
AcDbVertex
100
AcDb2dVertex
 10
102.1439833077975
 20
-155.6903935721887
 30
0.0
  0
VERTEX
  5
F7
330
F5
100
AcDbEntity
  8
_U+30EC_U+30A4_U+30E4_U+30FC 1
 62
   179
420
  2234388
370
     9
100
AcDbVertex
100
AcDb2dVertex
 10
102.1439833077975
 20
-163.0463746814608
 30
0.0
  0
SEQEND
  5
F8
330
F5
100
AcDbEntity
  8
_U+30EC_U+30A4_U+30E4_U+30FC 1
 62
   179
420
  2234388
370
     9
  0
INSERT
  5
FA
330
1F
100
AcDbEntity
  8
_U+30EC_U+30A4_U+30E4_U+30FC 1
100
AcDbBlockReference
  2
block 7
 10
0.0
 20
0.0
 30
0.0
  0
POLYLINE
  5
102
330
1F
100
AcDbEntity
  8
_U+30EC_U+30A4_U+30E4_U+30FC 1
 62
   179
420
  2234388
370
     9
100
AcDb2dPolyline
 66
     1
 10
0.0
 20
0.0
 30
0.0
  0
VERTEX
  5
103
330
102
100
AcDbEntity
  8
_U+30EC_U+30A4_U+30E4_U+30FC 1
 62
   179
420
  2234388
370
     9
100
AcDbVertex
100
AcDb2dVertex
 10
122.1437991060743
 20
-142.8505524642873
 30
0.0
  0
VERTEX
  5
104
330
102
100
AcDbEntity
  8
_U+30EC_U+30A4_U+30E4_U+30FC 1
 62
   179
420
  2234388
370
     9
100
AcDbVertex
100
AcDb2dVertex
 10
122.1437991060743
 20
-152.8502855173432
 30
0.0
  0
SEQEND
  5
105
330
102
100
AcDbEntity
  8
_U+30EC_U+30A4_U+30E4_U+30FC 1
 62
   179
420
  2234388
370
     9
  0
POLYLINE
  5
106
330
1F
100
AcDbEntity
  8
_U+30EC_U+30A4_U+30E4_U+30FC 1
 62
   179
420
  2234388
370
     9
100
AcDb2dPolyline
 66
     1
 10
0.0
 20
0.0
 30
0.0
  0
VERTEX
  5
107
330
106
100
AcDbEntity
  8
_U+30EC_U+30A4_U+30E4_U+30FC 1
 62
   179
420
  2234388
370
     9
100
AcDbVertex
100
AcDb2dVertex
 10
120.684110532203
 20
-142.8505524642873
 30
0.0
  0
VERTEX
  5
108
330
106
100
AcDbEntity
  8
_U+30EC_U+30A4_U+30E4_U+30FC 1
 62
   179
420
  2234388
370
     9
100
AcDbVertex
100
AcDb2dVertex
 10
123.1442415805509
 20
-142.8505524642873
 30
0.0
  0
SEQEND
  5
109
330
106
100
AcDbEntity
  8
_U+30EC_U+30A4_U+30E4_U+30FC 1
 62
   179
420
  2234388
370
     9
  0
POLYLINE
  5
10A
330
1F
100
AcDbEntity
  8
_U+30EC_U+30A4_U+30E4_U+30FC 1
 62
   179
420
  2234388
370
     9
100
AcDb2dPolyline
 66
     1
 10
0.0
 20
0.0
 30
0.0
  0
VERTEX
  5
10B
330
10A
100
AcDbEntity
  8
_U+30EC_U+30A4_U+30E4_U+30FC 1
 62
   179
420
  2234388
370
     9
100
AcDbVertex
100
AcDb2dVertex
 10
104.6840512181762
 20
-152.8502855173432
 30
0.0
  0
VERTEX
  5
10C
330
10A
100
AcDbEntity
  8
_U+30EC_U+30A4_U+30E4_U+30FC 1
 62
   179
420
  2234388
370
     9
100
AcDbVertex
100
AcDb2dVertex
 10
123.1442415805509
 20
-152.8502855173432
 30
0.0
  0
SEQEND
  5
10D
330
10A
100
AcDbEntity
  8
_U+30EC_U+30A4_U+30E4_U+30FC 1
 62
   179
420
  2234388
370
     9
  0
INSERT
  5
10F
330
1F
100
AcDbEntity
  8
_U+30EC_U+30A4_U+30E4_U+30FC 1
100
AcDbBlockReference
  2
block 8
 10
0.0
 20
0.0
 30
0.0
  0
INSERT
  5
118
330
1F
100
AcDbEntity
  8
_U+30EC_U+30A4_U+30E4_U+30FC 1
100
AcDbBlockReference
  2
block 9
 10
0.0
 20
0.0
 30
0.0
  0
ENDSEC
  0
SECTION
  2
OBJECTS
  0
DICTIONARY
  5
C
330
0
100
AcDbDictionary
281
     1
  3
ACAD_GROUP
350
D
  3
ACAD_LAYOUT
350
1A
  3
ACAD_MATERIAL
350
3B
  3
ACAD_MLEADERSTYLE
350
12F
  3
ACAD_MLINESTYLE
350
17
  3
ACAD_PLOTSETTINGS
350
19
  3
ACAD_PLOTSTYLENAME
350
E
  3
ACAD_TABLESTYLE
350
12E
  3
ACAD_VISUALSTYLE
350
2A
  0
SUN
  5
3F
330
29
100
AcDbSun
 90
        1
290
     0
 63
     7
421
 16777215
 40
1.0
291
     1
 91
  2455826
 92
 54000000
292
     0
 70
     2
 71
   256
280
     1
  0
DICTIONARY
  5
D
102
{ACAD_REACTORS
330
C
102
}
330
C
100
AcDbDictionary
281
     1
  0
DICTIONARY
  5
1A
102
{ACAD_REACTORS
330
C
102
}
330
C
100
AcDbDictionary
281
     1
  3
Layout1
350
1E
  3
Layout2
350
26
  3
Model
350
22
  0
DICTIONARY
  5
3B
102
{ACAD_REACTORS
330
C
102
}
330
C
100
AcDbDictionary
281
     1
  3
ByBlock
350
3D
  3
ByLayer
350
3C
  3
Global
350
3E
  0
DICTIONARY
  5
12F
102
{ACAD_REACTORS
330
C
102
}
330
C
100
AcDbDictionary
281
     1
  0
DICTIONARY
  5
17
102
{ACAD_REACTORS
330
C
102
}
330
C
100
AcDbDictionary
281
     1
  3
Standard
350
18
  0
DICTIONARY
  5
19
102
{ACAD_REACTORS
330
C
102
}
330
C
100
AcDbDictionary
281
     1
  0
ACDBDICTIONARYWDFLT
  5
E
102
{ACAD_REACTORS
330
C
102
}
330
C
100
AcDbDictionary
281
     1
  3
Normal
350
F
100
AcDbDictionaryWithDefault
340
F
  0
DICTIONARY
  5
12E
102
{ACAD_REACTORS
330
C
102
}
330
C
100
AcDbDictionary
281
     1
  0
DICTIONARY
  5
2A
102
{ACAD_REACTORS
330
C
102
}
330
C
100
AcDbDictionary
281
     1
  3
2dWireframe
350
2F
  3
3D Hidden
350
31
  3
3dWireframe
350
30
  3
Basic
350
32
  3
Brighten
350
36
  3
ColorChange
350
3A
  3
Conceptual
350
34
  3
Dim
350
35
  3
Facepattern
350
39
  3
Flat
350
2B
  3
FlatWithEdges
350
2C
  3
Gouraud
350
2D
  3
GouraudWithEdges
350
2E
  3
Linepattern
350
38
  3
Realistic
350
33
  3
Thicken
350
37
  0
LAYOUT
  5
1E
102
{ACAD_REACTORS
330
1A
102
}
330
1A
100
AcDbPlotSettings
  1

  2
none_device
  4

  6

 40
0.0
 41
0.0
 42
0.0
 43
0.0
 44
0.0
 45
0.0
 46
0.0
 47
0.0
 48
0.0
 49
0.0
140
0.0
141
0.0
142
1.0
143
1.0
 70
   688
 72
     0
 73
     0
 74
     5
  7

 75
    16
 76
     0
 77
     2
 78
   300
147
1.0
148
0.0
149
0.0
100
AcDbLayout
  1
Layout1
 70
     1
 71
     1
 10
0.0
 20
0.0
 11
12.0
 21
9.0
 12
0.0
 22
0.0
 32
0.0
 14
1.000000000000000E+20
 24
1.000000000000000E+20
 34
1.000000000000000E+20
 15
-1.000000000000000E+20
 25
-1.000000000000000E+20
 35
-1.000000000000000E+20
146
0.0
 13
0.0
 23
0.0
 33
0.0
 16
1.0
 26
0.0
 36
0.0
 17
0.0
 27
1.0
 37
0.0
 76
     0
330
1B
  0
LAYOUT
  5
26
102
{ACAD_REACTORS
330
1A
102
}
330
1A
100
AcDbPlotSettings
  1

  2
none_device
  4

  6

 40
0.0
 41
0.0
 42
0.0
 43
0.0
 44
0.0
 45
0.0
 46
0.0
 47
0.0
 48
0.0
 49
0.0
140
0.0
141
0.0
142
1.0
143
1.0
 70
   688
 72
     0
 73
     0
 74
     5
  7

 75
    16
 76
     0
 77
     2
 78
   300
147
1.0
148
0.0
149
0.0
100
AcDbLayout
  1
Layout2
 70
     1
 71
     2
 10
0.0
 20
0.0
 11
0.0
 21
0.0
 12
0.0
 22
0.0
 32
0.0
 14
0.0
 24
0.0
 34
0.0
 15
0.0
 25
0.0
 35
0.0
146
0.0
 13
0.0
 23
0.0
 33
0.0
 16
1.0
 26
0.0
 36
0.0
 17
0.0
 27
1.0
 37
0.0
 76
     0
330
23
  0
LAYOUT
  5
22
102
{ACAD_REACTORS
330
1A
102
}
330
1A
100
AcDbPlotSettings
  1

  2
none_device
  4

  6

 40
0.0
 41
0.0
 42
0.0
 43
0.0
 44
0.0
 45
0.0
 46
0.0
 47
0.0
 48
0.0
 49
0.0
140
0.0
141
0.0
142
1.0
143
1.0
 70
  1712
 72
     0
 73
     0
 74
     0
  7

 75
     0
 76
     0
 77
     2
 78
   300
147
1.0
148
0.0
149
0.0
100
AcDbLayout
  1
Model
 70
     1
 71
     0
 10
0.0
 20
0.0
 11
12.0
 21
9.0
 12
0.0
 22
0.0
 32
0.0
 14
1.000000000000000E+20
 24
1.000000000000000E+20
 34
1.000000000000000E+20
 15
-1.000000000000000E+20
 25
-1.000000000000000E+20
 35
-1.000000000000000E+20
146
0.0
 13
0.0
 23
0.0
 33
0.0
 16
1.0
 26
0.0
 36
0.0
 17
0.0
 27
1.0
 37
0.0
 76
     0
330
1F
331
29
  0
MATERIAL
  5
3D
102
{ACAD_REACTORS
330
3B
102
}
330
3B
100
AcDbMaterial
  1
ByBlock
 72
     1
 94
      127
  0
MATERIAL
  5
3C
102
{ACAD_REACTORS
330
3B
102
}
330
3B
100
AcDbMaterial
  1
ByLayer
 72
     1
 94
      127
  0
MATERIAL
  5
3E
102
{ACAD_REACTORS
330
3B
102
}
330
3B
100
AcDbMaterial
  1
Global
 72
     1
 94
      127
  0
MLINESTYLE
  5
18
102
{ACAD_REACTORS
330
17
102
}
330
17
100
AcDbMlineStyle
  2
Standard
 70
     0
  3

 62
   256
 51
90.0
 52
90.0
 71
     2
 49
0.5
 62
   256
  6
BYLAYER
 49
-0.5
 62
   256
  6
BYLAYER
  0
ACDBPLACEHOLDER
  5
F
102
{ACAD_REACTORS
330
E
102
}
330
E
  0
VISUALSTYLE
  5
2F
102
{ACAD_REACTORS
330
2A
102
}
330
2A
100
AcDbVisualStyle
  2
2dWireframe
 70
     4
177
     2
291
     0
 71
     0
176
     1
 72
     2
176
     1
 73
     0
176
     1
 90
        0
176
     1
 40
-0.6
176
     1
 41
-30.0
176
     1
 62
     5
 63
     7
421
 16777215
176
     1
 74
     1
176
     1
 91
        4
176
     1
 64
     7
176
     1
 65
   257
176
     1
 75
     1
176
     1
175
     1
176
     1
 42
1.0
176
     1
 92
        0
176
     1
 66
   257
176
     1
 43
1.0
176
     1
 76
     1
176
     1
 77
     6
176
     1
 78
     2
176
     1
 67
     7
176
     1
 79
     5
176
     1
170
     0
176
     1
171
     0
176
     1
290
     0
176
     1
 93
        1
176
     1
 44
0.0
176
     1
173
     0
176
     1
  0
VISUALSTYLE
  5
31
102
{ACAD_REACTORS
330
2A
102
}
330
2A
100
AcDbVisualStyle
  2
3D Hidden
 70
     6
177
     2
291
     0
 71
     1
176
     1
 72
     2
176
     1
 73
     2
176
     1
 90
        0
176
     1
 40
-0.6
176
     1
 41
-30.0
176
     1
 62
     5
 63
     7
421
 16777215
176
     1
 74
     2
176
     1
 91
        2
176
     1
 64
     7
176
     1
 65
   257
176
     1
 75
     2
176
     1
175
     1
176
     1
 42
40.0
176
     1
 92
        0
176
     1
 66
   257
176
     1
 43
1.0
176
     1
 76
     1
176
     1
 77
     6
176
     1
 78
     2
176
     1
 67
     7
176
     1
 79
     3
176
     1
170
     0
176
     1
171
     0
176
     1
290
     0
176
     1
 93
        1
176
     1
 44
0.0
176
     1
173
     0
176
     1
  0
VISUALSTYLE
  5
30
102
{ACAD_REACTORS
330
2A
102
}
330
2A
100
AcDbVisualStyle
  2
3dWireframe
 70
     5
177
     2
291
     0
 71
     0
176
     1
 72
     2
176
     1
 73
     0
176
     1
 90
        0
176
     1
 40
-0.6
176
     1
 41
-30.0
176
     1
 62
     5
 63
     7
421
 16777215
176
     1
 74
     1
176
     1
 91
        4
176
     1
 64
     7
176
     1
 65
   257
176
     1
 75
     1
176
     1
175
     1
176
     1
 42
1.0
176
     1
 92
        0
176
     1
 66
   257
176
     1
 43
1.0
176
     1
 76
     1
176
     1
 77
     6
176
     1
 78
     2
176
     1
 67
     7
176
     1
 79
     5
176
     1
170
     0
176
     1
171
     0
176
     1
290
     0
176
     1
 93
        1
176
     1
 44
0.0
176
     1
173
     0
176
     1
  0
VISUALSTYLE
  5
32
102
{ACAD_REACTORS
330
2A
102
}
330
2A
100
AcDbVisualStyle
  2
Basic
 70
     7
177
     2
291
     1
 71
     1
176
     1
 72
     0
176
     1
 73
     1
176
     1
 90
        0
176
     1
 40
-0.6
176
     1
 41
-30.0
176
     1
 62
     5
 63
     7
421
 16777215
176
     1
 74
     0
176
     1
 91
        4
176
     1
 64
     7
176
     1
 65
   257
176
     1
 75
     1
176
     1
175
     1
176
     1
 42
1.0
176
     1
 92
        8
176
     1
 66
     7
176
     1
 43
1.0
176
     1
 76
     1
176
     1
 77
     6
176
     1
 78
     2
176
     1
 67
     7
176
     1
 79
     5
176
     1
170
     0
176
     1
171
     0
176
     1
290
     0
176
     1
 93
        1
176
     1
 44
0.0
176
     1
173
     0
176
     1
  0
VISUALSTYLE
  5
36
102
{ACAD_REACTORS
330
2A
102
}
330
2A
100
AcDbVisualStyle
  2
Brighten
 70
    12
177
     2
291
     1
 71
     2
176
     1
 72
     2
176
     1
 73
     0
176
     1
 90
        0
176
     1
 40
-0.6
176
     1
 41
-30.0
176
     1
 62
     5
 63
     7
421
 16777215
176
     1
 74
     1
176
     1
 91
        4
176
     1
 64
     7
176
     1
 65
   257
176
     1
 75
     1
176
     1
175
     1
176
     1
 42
1.0
176
     1
 92
        8
176
     1
 66
     7
176
     1
 43
1.0
176
     1
 76
     1
176
     1
 77
     6
176
     1
 78
     2
176
     1
 67
     7
176
     1
 79
     5
176
     1
170
     0
176
     1
171
     0
176
     1
290
     0
176
     1
 93
        1
176
     1
 44
50.0
176
     1
173
     0
176
     1
  0
VISUALSTYLE
  5
3A
102
{ACAD_REACTORS
330
2A
102
}
330
2A
100
AcDbVisualStyle
  2
ColorChange
 70
    16
177
     2
291
     1
 71
     2
176
     1
 72
     2
176
     1
 73
     3
176
     1
 90
        0
176
     1
 40
-0.6
176
     1
 41
-30.0
176
     1
 62
     5
 63
     8
421
  8421504
176
     1
 74
     1
176
     1
 91
        4
176
     1
 64
     7
176
     1
 65
   257
176
     1
 75
     1
176
     1
175
     1
176
     1
 42
1.0
176
     1
 92
        8
176
     1
 66
     8
424
  8421504
176
     1
 43
1.0
176
     1
 76
     1
176
     1
 77
     6
176
     1
 78
     2
176
     1
 67
     7
176
     1
 79
     5
176
     1
170
     0
176
     1
171
     0
176
     1
290
     0
176
     1
 93
        1
176
     1
 44
0.0
176
     1
173
     0
176
     1
  0
VISUALSTYLE
  5
34
102
{ACAD_REACTORS
330
2A
102
}
330
2A
100
AcDbVisualStyle
  2
Conceptual
 70
     9
177
     2
291
     0
 71
     3
176
     1
 72
     2
176
     1
 73
     0
176
     1
 90
        0
176
     1
 40
-0.6
176
     1
 41
-30.0
176
     1
 62
     5
 63
     7
421
 16777215
176
     1
 74
     2
176
     1
 91
        2
176
     1
 64
     7
176
     1
 65
   257
176
     1
 75
     1
176
     1
175
     1
176
     1
 42
40.0
176
     1
 92
        8
176
     1
 66
     7
176
     1
 43
1.0
176
     1
 76
     1
176
     1
 77
     6
176
     1
 78
     2
176
     1
 67
     7
176
     1
 79
     3
176
     1
170
     0
176
     1
171
     0
176
     1
290
     0
176
     1
 93
        1
176
     1
 44
0.0
176
     1
173
     0
176
     1
  0
VISUALSTYLE
  5
35
102
{ACAD_REACTORS
330
2A
102
}
330
2A
100
AcDbVisualStyle
  2
Dim
 70
    11
177
     2
291
     1
 71
     2
176
     1
 72
     2
176
     1
 73
     0
176
     1
 90
        0
176
     1
 40
-0.6
176
     1
 41
-30.0
176
     1
 62
     5
 63
     7
421
 16777215
176
     1
 74
     1
176
     1
 91
        4
176
     1
 64
     7
176
     1
 65
   257
176
     1
 75
     1
176
     1
175
     1
176
     1
 42
1.0
176
     1
 92
        8
176
     1
 66
     7
176
     1
 43
1.0
176
     1
 76
     1
176
     1
 77
     6
176
     1
 78
     2
176
     1
 67
     7
176
     1
 79
     5
176
     1
170
     0
176
     1
171
     0
176
     1
290
     0
176
     1
 93
        1
176
     1
 44
-50.0
176
     1
173
     0
176
     1
  0
VISUALSTYLE
  5
39
102
{ACAD_REACTORS
330
2A
102
}
330
2A
100
AcDbVisualStyle
  2
Facepattern
 70
    15
177
     2
291
     1
 71
     2
176
     1
 72
     2
176
     1
 73
     0
176
     1
 90
        0
176
     1
 40
-0.6
176
     1
 41
-30.0
176
     1
 62
     5
 63
     7
421
 16777215
176
     1
 74
     1
176
     1
 91
        4
176
     1
 64
     7
176
     1
 65
   257
176
     1
 75
     1
176
     1
175
     1
176
     1
 42
1.0
176
     1
 92
        8
176
     1
 66
     7
176
     1
 43
1.0
176
     1
 76
     1
176
     1
 77
     6
176
     1
 78
     2
176
     1
 67
     7
176
     1
 79
     5
176
     1
170
     0
176
     1
171
     0
176
     1
290
     0
176
     1
 93
        1
176
     1
 44
0.0
176
     1
173
     0
176
     1
  0
VISUALSTYLE
  5
2B
102
{ACAD_REACTORS
330
2A
102
}
330
2A
100
AcDbVisualStyle
  2
Flat
 70
     0
177
     2
291
     1
 71
     2
176
     1
 72
     1
176
     1
 73
     1
176
     1
 90
        2
176
     1
 40
-0.6
176
     1
 41
30.0
176
     1
 62
     5
 63
     7
421
 16777215
176
     1
 74
     0
176
     1
 91
        4
176
     1
 64
     7
176
     1
 65
   257
176
     1
 75
     1
176
     1
175
     1
176
     1
 42
1.0
176
     1
 92
        8
176
     1
 66
     7
176
     1
 43
1.0
176
     1
 76
     1
176
     1
 77
     6
176
     1
 78
     2
176
     1
 67
     7
176
     1
 79
     5
176
     1
170
     0
176
     1
171
     0
176
     1
290
     0
176
     1
 93
       13
176
     1
 44
0.0
176
     1
173
     0
176
     1
  0
VISUALSTYLE
  5
2C
102
{ACAD_REACTORS
330
2A
102
}
330
2A
100
AcDbVisualStyle
  2
FlatWithEdges
 70
     1
177
     2
291
     1
 71
     2
176
     1
 72
     1
176
     1
 73
     1
176
     1
 90
        2
176
     1
 40
-0.6
176
     1
 41
30.0
176
     1
 62
     5
 63
     7
421
 16777215
176
     1
 74
     1
176
     1
 91
        4
176
     1
 64
     7
176
     1
 65
   257
176
     1
 75
     1
176
     1
175
     1
176
     1
 42
1.0
176
     1
 92
        0
176
     1
 66
   257
176
     1
 43
1.0
176
     1
 76
     1
176
     1
 77
     6
176
     1
 78
     2
176
     1
 67
     7
176
     1
 79
     5
176
     1
170
     0
176
     1
171
     0
176
     1
290
     0
176
     1
 93
       13
176
     1
 44
0.0
176
     1
173
     0
176
     1
  0
VISUALSTYLE
  5
2D
102
{ACAD_REACTORS
330
2A
102
}
330
2A
100
AcDbVisualStyle
  2
Gouraud
 70
     2
177
     2
291
     1
 71
     2
176
     1
 72
     2
176
     1
 73
     1
176
     1
 90
        2
176
     1
 40
-0.6
176
     1
 41
30.0
176
     1
 62
     5
 63
     7
421
 16777215
176
     1
 74
     0
176
     1
 91
        4
176
     1
 64
     7
176
     1
 65
   257
176
     1
 75
     1
176
     1
175
     1
176
     1
 42
1.0
176
     1
 92
        0
176
     1
 66
     7
176
     1
 43
1.0
176
     1
 76
     1
176
     1
 77
     6
176
     1
 78
     2
176
     1
 67
     7
176
     1
 79
     5
176
     1
170
     0
176
     1
171
     0
176
     1
290
     0
176
     1
 93
       13
176
     1
 44
0.0
176
     1
173
     0
176
     1
  0
VISUALSTYLE
  5
2E
102
{ACAD_REACTORS
330
2A
102
}
330
2A
100
AcDbVisualStyle
  2
GouraudWithEdges
 70
     3
177
     2
291
     1
 71
     2
176
     1
 72
     2
176
     1
 73
     1
176
     1
 90
        2
176
     1
 40
-0.6
176
     1
 41
30.0
176
     1
 62
     5
 63
     7
421
 16777215
176
     1
 74
     1
176
     1
 91
        4
176
     1
 64
     7
176
     1
 65
   257
176
     1
 75
     1
176
     1
175
     1
176
     1
 42
1.0
176
     1
 92
        0
176
     1
 66
   257
176
     1
 43
1.0
176
     1
 76
     1
176
     1
 77
     6
176
     1
 78
     2
176
     1
 67
     7
176
     1
 79
     5
176
     1
170
     0
176
     1
171
     0
176
     1
290
     0
176
     1
 93
       13
176
     1
 44
0.0
176
     1
173
     0
176
     1
  0
VISUALSTYLE
  5
38
102
{ACAD_REACTORS
330
2A
102
}
330
2A
100
AcDbVisualStyle
  2
Linepattern
 70
    14
177
     2
291
     1
 71
     2
176
     1
 72
     2
176
     1
 73
     0
176
     1
 90
        0
176
     1
 40
-0.6
176
     1
 41
-30.0
176
     1
 62
     5
 63
     7
421
 16777215
176
     1
 74
     1
176
     1
 91
        4
176
     1
 64
     7
176
     1
 65
   257
176
     1
 75
     7
176
     1
175
     7
176
     1
 42
1.0
176
     1
 92
        8
176
     1
 66
     7
176
     1
 43
1.0
176
     1
 76
     1
176
     1
 77
     6
176
     1
 78
     2
176
     1
 67
     7
176
     1
 79
     5
176
     1
170
     0
176
     1
171
     0
176
     1
290
     0
176
     1
 93
        1
176
     1
 44
0.0
176
     1
173
     0
176
     1
  0
VISUALSTYLE
  5
33
102
{ACAD_REACTORS
330
2A
102
}
330
2A
100
AcDbVisualStyle
  2
Realistic
 70
     8
177
     2
291
     0
 71
     2
176
     1
 72
     2
176
     1
 73
     0
176
     1
 90
        0
176
     1
 40
-0.6
176
     1
 41
-30.0
176
     1
 62
     5
 63
     7
421
 16777215
176
     1
 74
     1
176
     1
 91
        0
176
     1
 64
     7
176
     1
 65
   257
176
     1
 75
     1
176
     1
175
     1
176
     1
 42
1.0
176
     1
 92
        8
176
     1
 66
     8
424
  7895160
176
     1
 43
1.0
176
     1
 76
     1
176
     1
 77
     6
176
     1
 78
     2
176
     1
 67
     7
176
     1
 79
     5
176
     1
170
     0
176
     1
171
     0
176
     1
290
     0
176
     1
 93
       13
176
     1
 44
0.0
176
     1
173
     0
176
     1
  0
VISUALSTYLE
  5
37
102
{ACAD_REACTORS
330
2A
102
}
330
2A
100
AcDbVisualStyle
  2
Thicken
 70
    13
177
     2
291
     1
 71
     2
176
     1
 72
     2
176
     1
 73
     0
176
     1
 90
        0
176
     1
 40
-0.6
176
     1
 41
-30.0
176
     1
 62
     5
 63
     7
421
 16777215
176
     1
 74
     1
176
     1
 91
        4
176
     1
 64
     7
176
     1
 65
   257
176
     1
 75
     1
176
     1
175
     1
176
     1
 42
1.0
176
     1
 92
       12
176
     1
 66
     7
176
     1
 43
1.0
176
     1
 76
     1
176
     1
 77
     6
176
     1
 78
     2
176
     1
 67
     7
176
     1
 79
     5
176
     1
170
     0
176
     1
171
     0
176
     1
290
     0
176
     1
 93
        1
176
     1
 44
0.0
176
     1
173
     0
176
     1
  0
ENDSEC
  0
EOF
