  0
SECTION
  2
HEADER
  9
$ACADVER
  1
AC1024
  9
$ACADMAINTVER
 70
     6
  9
$DWGCODEPAGE
  3
UNDEFINED
  9
$INSBASE
 10
0.0
 20
0.0
 30
0.0
  9
$EXTMIN
 10
1.000000000000000E+20
 20
1.000000000000000E+20
 30
1.000000000000000E+20
  9
$EXTMAX
 10
-1.000000000000000E+20
 20
-1.000000000000000E+20
 30
-1.000000000000000E+20
  9
$LIMMIN
 10
0.0
 20
0.0
  9
$LIMMAX
 10
12.0
 20
9.0
  9
$ORTHOMODE
 70
     0
  9
$REGENMODE
 70
     1
  9
$FILLMODE
 70
     1
  9
$QTEXTMODE
 70
     0
  9
$MIRRTEXT
 70
     1
  9
$LTSCALE
 40
1.0
  9
$ATTMODE
 70
     1
  9
$TEXTSIZE
 40
0.2
  9
$TRACEWID
 40
0.05
  9
$TEXTSTYLE
  7
Standard
  9
$CLAYER
  8
0
  9
$CELTYPE
  6
ByLayer
  9
$CECOLOR
 62
   256
  9
$CELTSCALE
 40
1.0
  9
$DISPSILH
 70
     0
  9
$DIMSCALE
 40
1.0
  9
$DIMASZ
 40
0.18
  9
$DIMEXO
 40
0.0625
  9
$DIMDLI
 40
0.38
  9
$DIMRND
 40
0.0
  9
$DIMDLE
 40
0.0
  9
$DIMEXE
 40
0.18
  9
$DIMTP
 40
0.0
  9
$DIMTM
 40
0.0
  9
$DIMTXT
 40
0.18
  9
$DIMCEN
 40
0.09
  9
$DIMTSZ
 40
0.0
  9
$DIMTOL
 70
     0
  9
$DIMLIM
 70
     0
  9
$DIMTIH
 70
     1
  9
$DIMTOH
 70
     1
  9
$DIMSE1
 70
     0
  9
$DIMSE2
 70
     0
  9
$DIMTAD
 70
     0
  9
$DIMZIN
 70
     0
  9
$DIMBLK
  1

  9
$DIMASO
 70
     1
  9
$DIMSHO
 70
     1
  9
$DIMPOST
  1

  9
$DIMAPOST
  1

  9
$DIMALT
 70
     0
  9
$DIMALTD
 70
     2
  9
$DIMALTF
 40
25.4
  9
$DIMLFAC
 40
1.0
  9
$DIMTOFL
 70
     0
  9
$DIMTVP
 40
0.0
  9
$DIMTIX
 70
     0
  9
$DIMSOXD
 70
     0
  9
$DIMSAH
 70
     0
  9
$DIMBLK1
  1

  9
$DIMBLK2
  1

  9
$DIMSTYLE
  2
Standard
  9
$DIMCLRD
 70
     0
  9
$DIMCLRE
 70
     0
  9
$DIMCLRT
 70
     0
  9
$DIMTFAC
 40
1.0
  9
$DIMGAP
 40
0.09
  9
$DIMJUST
 70
     0
  9
$DIMSD1
 70
     0
  9
$DIMSD2
 70
     0
  9
$DIMTOLJ
 70
     1
  9
$DIMTZIN
 70
     0
  9
$DIMALTZ
 70
     0
  9
$DIMALTTZ
 70
     0
  9
$DIMUPT
 70
     0
  9
$DIMDEC
 70
     4
  9
$DIMTDEC
 70
     4
  9
$DIMALTU
 70
     2
  9
$DIMALTTD
 70
     2
  9
$DIMTXSTY
  7
Standard
  9
$DIMAUNIT
 70
     0
  9
$DIMADEC
 70
     0
  9
$DIMALTRND
 40
0.0
  9
$DIMAZIN
 70
     0
  9
$DIMDSEP
 70
    46
  9
$DIMATFIT
 70
     3
  9
$DIMFRAC
 70
     0
  9
$DIMLDRBLK
  1

  9
$DIMLUNIT
 70
     2
  9
$DIMLWD
 70
    -2
  9
$DIMLWE
 70
    -2
  9
$DIMTMOVE
 70
     0
  9
$DIMFXL
 40
1.0
  9
$DIMFXLON
 70
     0
  9
$DIMJOGANG
 40
0.7853981633974483
  9
$DIMTFILL
 70
     0
  9
$DIMTFILLCLR
 70
     0
  9
$DIMARCSYM
 70
     0
  9
$DIMLTYPE
  6

  9
$DIMLTEX1
  6

  9
$DIMLTEX2
  6

  9
$DIMTXTDIRECTION
 70
     0
  9
$LUNITS
 70
     2
  9
$LUPREC
 70
     4
  9
$SKETCHINC
 40
0.1
  9
$FILLETRAD
 40
0.5
  9
$AUNITS
 70
     0
  9
$AUPREC
 70
     0
  9
$MENU
  1
.
  9
$ELEVATION
 40
0.0
  9
$PELEVATION
 40
0.0
  9
$THICKNESS
 40
0.0
  9
$LIMCHECK
 70
     0
  9
$CHAMFERA
 40
0.5
  9
$CHAMFERB
 40
0.5
  9
$CHAMFERC
 40
1.0
  9
$CHAMFERD
 40
0.0
  9
$SKPOLY
 70
     0
  9
$TDCREATE
 40
2457917.586273148
  9
$TDUCREATE
 40
2457917.211273148
  9
$TDUPDATE
 40
2457917.586273148
  9
$TDUUPDATE
 40
2457917.211273148
  9
$TDINDWG
 40
0.0000000116
  9
$TDUSRTIMER
 40
0.0000000116
  9
$USRTIMER
 70
     1
  9
$ANGBASE
 50
0.0
  9
$ANGDIR
 70
     0
  9
$PDMODE
 70
     0
  9
$PDSIZE
 40
0.0
  9
$PLINEWID
 40
0.0
  9
$SPLFRAME
 70
     0
  9
$SPLINETYPE
 70
     6
  9
$SPLINESEGS
 70
     8
  9
$HANDSEED
  5
12D
  9
$SURFTAB1
 70
     6
  9
$SURFTAB2
 70
     6
  9
$SURFTYPE
 70
     6
  9
$SURFU
 70
     6
  9
$SURFV
 70
     6
  9
$UCSBASE
  2

  9
$UCSNAME
  2

  9
$UCSORG
 10
0.0
 20
0.0
 30
0.0
  9
$UCSXDIR
 10
1.0
 20
0.0
 30
0.0
  9
$UCSYDIR
 10
0.0
 20
1.0
 30
0.0
  9
$UCSORTHOREF
  2

  9
$UCSORTHOVIEW
 70
     0
  9
$UCSORGTOP
 10
0.0
 20
0.0
 30
0.0
  9
$UCSORGBOTTOM
 10
0.0
 20
0.0
 30
0.0
  9
$UCSORGLEFT
 10
0.0
 20
0.0
 30
0.0
  9
$UCSORGRIGHT
 10
0.0
 20
0.0
 30
0.0
  9
$UCSORGFRONT
 10
0.0
 20
0.0
 30
0.0
  9
$UCSORGBACK
 10
0.0
 20
0.0
 30
0.0
  9
$PUCSBASE
  2

  9
$PUCSNAME
  2

  9
$PUCSORG
 10
0.0
 20
0.0
 30
0.0
  9
$PUCSXDIR
 10
1.0
 20
0.0
 30
0.0
  9
$PUCSYDIR
 10
0.0
 20
1.0
 30
0.0
  9
$PUCSORTHOREF
  2

  9
$PUCSORTHOVIEW
 70
     0
  9
$PUCSORGTOP
 10
0.0
 20
0.0
 30
0.0
  9
$PUCSORGBOTTOM
 10
0.0
 20
0.0
 30
0.0
  9
$PUCSORGLEFT
 10
0.0
 20
0.0
 30
0.0
  9
$PUCSORGRIGHT
 10
0.0
 20
0.0
 30
0.0
  9
$PUCSORGFRONT
 10
0.0
 20
0.0
 30
0.0
  9
$PUCSORGBACK
 10
0.0
 20
0.0
 30
0.0
  9
$USERI1
 70
     0
  9
$USERI2
 70
     0
  9
$USERI3
 70
     0
  9
$USERI4
 70
     0
  9
$USERI5
 70
     0
  9
$USERR1
 40
0.0
  9
$USERR2
 40
0.0
  9
$USERR3
 40
0.0
  9
$USERR4
 40
0.0
  9
$USERR5
 40
0.0
  9
$WORLDVIEW
 70
     1
  9
$SHADEDGE
 70
     3
  9
$SHADEDIF
 70
    70
  9
$TILEMODE
 70
     1
  9
$MAXACTVP
 70
    64
  9
$PINSBASE
 10
0.0
 20
0.0
 30
0.0
  9
$PLIMCHECK
 70
     0
  9
$PEXTMIN
 10
1.000000000000000E+20
 20
1.000000000000000E+20
 30
1.000000000000000E+20
  9
$PEXTMAX
 10
-1.000000000000000E+20
 20
-1.000000000000000E+20
 30
-1.000000000000000E+20
  9
$PLIMMIN
 10
0.0
 20
0.0
  9
$PLIMMAX
 10
12.0
 20
9.0
  9
$UNITMODE
 70
     0
  9
$VISRETAIN
 70
     1
  9
$PLINEGEN
 70
     0
  9
$PSLTSCALE
 70
     1
  9
$TREEDEPTH
 70
  3020
  9
$CMLSTYLE
  2
Standard
  9
$CMLJUST
 70
     0
  9
$CMLSCALE
 40
1.0
  9
$PROXYGRAPHICS
 70
     1
  9
$MEASUREMENT
 70
     0
  9
$CELWEIGHT
370
    -1
  9
$ENDCAPS
280
     0
  9
$JOINSTYLE
280
     0
  9
$LWDISPLAY
290
     1
  9
$INSUNITS
 70
     1
  9
$HYPERLINKBASE
  1

  9
$STYLESHEET
  1

  9
$XEDIT
290
     1
  9
$CEPSNTYPE
380
     0
  9
$PSTYLEMODE
290
     1
  9
$FINGERPRINTGUID
  2
{D92A8062-3B1B-380E-3E6C-3A7ABC439D10}
  9
$VERSIONGUID
  2
{FAEB1C32-E019-11D5-929B-00C0DF256EC4}
  9
$EXTNAMES
290
     1
  9
$PSVPSCALE
 40
0.0
  9
$OLESTARTUP
290
     0
  9
$SORTENTS
280
   127
  9
$INDEXCTL
280
     0
  9
$HIDETEXT
280
     1
  9
$XCLIPFRAME
280
     2
  9
$HALOGAP
280
     0
  9
$OBSCOLOR
 70
   257
  9
$OBSLTYPE
280
     0
  9
$INTERSECTIONDISPLAY
280
     0
  9
$INTERSECTIONCOLOR
 70
   257
  9
$DIMASSOC
280
     2
  9
$PROJECTNAME
  1

  9
$CAMERADISPLAY
290
     0
  9
$LENSLENGTH
 40
50.0
  9
$CAMERAHEIGHT
 40
0.0
  9
$STEPSPERSEC
 40
2.0
  9
$STEPSIZE
 40
6.0
  9
$3DDWFPREC
 40
2.0
  9
$PSOLWIDTH
 40
0.25
  9
$PSOLHEIGHT
 40
4.0
  9
$LOFTANG1
 40
1.570796326794897
  9
$LOFTANG2
 40
1.570796326794897
  9
$LOFTMAG1
 40
0.0
  9
$LOFTMAG2
 40
0.0
  9
$LOFTPARAM
 70
     7
  9
$LOFTNORMALS
280
     1
  9
$LATITUDE
 40
37.795
  9
$LONGITUDE
 40
-122.394
  9
$NORTHDIRECTION
 40
0.0
  9
$TIMEZONE
 70
 -8000
  9
$LIGHTGLYPHDISPLAY
280
     1
  9
$TILEMODELIGHTSYNCH
280
     1
  9
$CMATERIAL
347
3C
  9
$SOLIDHIST
280
     1
  9
$SHOWHIST
280
     1
  9
$DWFFRAME
280
     2
  9
$DGNFRAME
280
     2
  9
$REALWORLDSCALE
290
     1
  9
$INTERFERECOLOR
 62
   256
  9
$CSHADOW
280
     0
  9
$SHADOWPLANELOCATION
 40
0.0
  0
ENDSEC
  0
SECTION
  2
CLASSES
  0
CLASS
  1
ACDBDICTIONARYWDFLT
  2
AcDbDictionaryWithDefault
  3
ObjectDBX Classes
 90
        0
 91
        4
280
     0
281
     0
  0
CLASS
  1
VISUALSTYLE
  2
AcDbVisualStyle
  3
ObjectDBX Classes
 90
     4095
 91
        4
280
     0
281
     0
  0
CLASS
  1
MATERIAL
  2
AcDbMaterial
  3
ObjectDBX Classes
 90
     1153
 91
        4
280
     0
281
     0
  0
CLASS
  1
SUN
  2
AcDbSun
  3
SCENEOE
 90
     1024
 91
        4
280
     0
281
     0
  0
ENDSEC
  0
SECTION
  2
TABLES
  0
TABLE
  2
VPORT
  5
8
330
0
100
AcDbSymbolTable
 70
     1
  0
VPORT
  5
29
330
8
100
AcDbSymbolTableRecord
100
AcDbViewportTableRecord
  2
*Active
 70
     0
 10
0.0
 20
0.0
 11
1.0
 21
1.0
 12
0.0
 22
0.0
 13
0.0
 23
0.0
 14
0.5
 24
0.5
 15
0.5
 25
0.5
 16
0.0
 26
0.0
 36
1.0
 17
105.0008280156501
 27
-148.4999710739862
 37
0.0
 40
296.9999421479724
 41
0.7070764206636528
 42
50.0
 43
0.0
 44
0.0
 50
0.0
 51
0.0
 71
     0
 72
   100
 73
     1
 74
     3
 75
     0
 76
     0
 77
     0
 78
     0
281
     0
 65
     1
110
0.0
120
0.0
130
0.0
111
1.0
121
0.0
131
0.0
112
0.0
122
1.0
132
0.0
 79
     0
146
0.0
 60
     3
 61
     5
292
     1
282
     1
141
0.0
142
0.0
 63
   250
361
3F
  0
ENDTAB
  0
TABLE
  2
LTYPE
  5
5
330
0
100
AcDbSymbolTable
 70
     1
  0
LTYPE
  5
14
330
5
100
AcDbSymbolTableRecord
100
AcDbLinetypeTableRecord
  2
ByBlock
 70
     0
  3

 72
    65
 73
     0
 40
0.0
  0
LTYPE
  5
15
330
5
100
AcDbSymbolTableRecord
100
AcDbLinetypeTableRecord
  2
ByLayer
 70
     0
  3

 72
    65
 73
     0
 40
0.0
  0
LTYPE
  5
16
330
5
100
AcDbSymbolTableRecord
100
AcDbLinetypeTableRecord
  2
Continuous
 70
     0
  3
Solid line
 72
    65
 73
     0
 40
0.0
  0
ENDTAB
  0
TABLE
  2
LAYER
  5
2
330
0
100
AcDbSymbolTable
 70
     2
  0
LAYER
  5
10
330
2
100
AcDbSymbolTableRecord
100
AcDbLayerTableRecord
  2
0
 70
     0
 62
     7
  6
Continuous
370
    -3
390
F
347
3E
  0
LAYER
  5
40
330
2
100
AcDbSymbolTableRecord
100
AcDbLayerTableRecord
  2
_U+30EC_U+30A4_U+30E4_U+30FC 1
 70
     0
 62
     7
  6
Continuous
370
    -3
390
F
347
3E
  0
ENDTAB
  0
TABLE
  2
STYLE
  5
3
330
0
100
AcDbSymbolTable
 70
     1
  0
STYLE
  5
11
330
3
100
AcDbSymbolTableRecord
100
AcDbTextStyleTableRecord
  2
Standard
 70
     0
 40
0.0
 41
1.0
 50
0.0
 71
     0
 42
0.2
  3
txt
  4

  0
ENDTAB
  0
TABLE
  2
VIEW
  5
6
330
0
100
AcDbSymbolTable
 70
     0
  0
ENDTAB
  0
TABLE
  2
UCS
  5
7
330
0
100
AcDbSymbolTable
 70
     0
  0
ENDTAB
  0
TABLE
  2
APPID
  5
9
330
0
100
AcDbSymbolTable
 70
     1
  0
APPID
  5
12
330
9
100
AcDbSymbolTableRecord
100
AcDbRegAppTableRecord
  2
ACAD
 70
     0
  0
ENDTAB
  0
TABLE
  2
DIMSTYLE
  5
A
330
0
100
AcDbSymbolTable
 70
     1
100
AcDbDimStyleTable
  0
DIMSTYLE
105
27
330
A
100
AcDbSymbolTableRecord
100
AcDbDimStyleTableRecord
  2
Standard
 70
     0
178
     0
340
11
  0
ENDTAB
  0
TABLE
  2
BLOCK_RECORD
  5
1
330
0
100
AcDbSymbolTable
 70
    10
  0
BLOCK_RECORD
  5
1F
330
1
100
AcDbSymbolTableRecord
100
AcDbBlockTableRecord
  2
*Model_Space
340
22
 70
     0
280
     1
281
     0
  0
BLOCK_RECORD
  5
1B
330
1
100
AcDbSymbolTableRecord
100
AcDbBlockTableRecord
  2
*Paper_Space
340
1E
 70
     0
280
     1
281
     0
  0
BLOCK_RECORD
  5
23
330
1
100
AcDbSymbolTableRecord
100
AcDbBlockTableRecord
  2
*Paper_Space0
340
26
 70
     0
280
     1
281
     0
  0
BLOCK_RECORD
  5
90
330
1
100
AcDbSymbolTableRecord
100
AcDbBlockTableRecord
  2
block 2
340
0
102
{BLKREFS
331
91
102
}
 70
     0
280
     1
281
     0
  0
BLOCK_RECORD
  5
A8
330
1
100
AcDbSymbolTableRecord
100
AcDbBlockTableRecord
  2
block 3
340
0
102
{BLKREFS
331
A9
102
}
 70
     0
280
     1
281
     0
  0
BLOCK_RECORD
  5
B8
330
1
100
AcDbSymbolTableRecord
100
AcDbBlockTableRecord
  2
block 4
340
0
102
{BLKREFS
331
B9
102
}
 70
     0
280
     1
281
     0
  0
BLOCK_RECORD
  5
CA
330
1
100
AcDbSymbolTableRecord
100
AcDbBlockTableRecord
  2
block 5
340
0
102
{BLKREFS
331
CB
102
}
 70
     0
280
     1
281
     0
  0
BLOCK_RECORD
  5
DC
330
1
100
AcDbSymbolTableRecord
100
AcDbBlockTableRecord
  2
block 6
340
0
102
{BLKREFS
331
DD
102
}
 70
     0
280
     1
281
     0
  0
BLOCK_RECORD
  5
F9
330
1
100
AcDbSymbolTableRecord
100
AcDbBlockTableRecord
  2
block 7
340
0
102
{BLKREFS
331
FA
102
}
 70
     0
280
     1
281
     0
  0
BLOCK_RECORD
  5
10B
330
1
100
AcDbSymbolTableRecord
100
AcDbBlockTableRecord
  2
block 8
340
0
102
{BLKREFS
331
10C
102
}
 70
     0
280
     1
281
     0
  0
BLOCK_RECORD
  5
114
330
1
100
AcDbSymbolTableRecord
100
AcDbBlockTableRecord
  2
block 9
340
0
102
{BLKREFS
331
115
102
}
 70
     0
280
     1
281
     0
  0
BLOCK_RECORD
  5
125
330
1
100
AcDbSymbolTableRecord
100
AcDbBlockTableRecord
  2
block 10
340
0
102
{BLKREFS
331
126
102
}
 70
     0
280
     1
281
     0
  0
ENDTAB
  0
ENDSEC
  0
SECTION
  2
BLOCKS
  0
BLOCK
  5
20
330
1F
100
AcDbEntity
  8
0
100
AcDbBlockBegin
  2
*Model_Space
 70
     0
 10
0.0
 20
0.0
 30
0.0
  3
*Model_Space
  1

  0
ENDBLK
  5
21
330
1F
100
AcDbEntity
  8
0
100
AcDbBlockEnd
  0
BLOCK
  5
1C
330
1B
100
AcDbEntity
 67
     1
  8
0
100
AcDbBlockBegin
  2
*Paper_Space
 70
     0
 10
0.0
 20
0.0
 30
0.0
  3
*Paper_Space
  1

  0
ENDBLK
  5
1D
330
1B
100
AcDbEntity
 67
     1
  8
0
100
AcDbBlockEnd
  0
BLOCK
  5
24
330
23
100
AcDbEntity
  8
0
100
AcDbBlockBegin
  2
*Paper_Space0
 70
     0
 10
0.0
 20
0.0
 30
0.0
  3
*Paper_Space0
  1

  0
ENDBLK
  5
25
330
23
100
AcDbEntity
  8
0
100
AcDbBlockEnd
  0
BLOCK
  5
92
330
90
100
AcDbEntity
  8
0
100
AcDbBlockBegin
  2
block 2
 70
     0
 10
0.0
 20
0.0
 30
0.0
  3
block 2
  1

  0
SPLINE
  5
94
330
90
100
AcDbEntity
  8
_U+30EC_U+30A4_U+30E4_U+30FC 1
370
     0
100
AcDbSpline
210
0.0
220
0.0
230
1.0
 70
    11
 71
     3
 72
    56
 73
    52
 74
     0
 42
0.0000000001
 43
0.0000000001
 12
1.0
 22
0.0
 32
0.0
 13
1.0
 23
0.0
 33
0.0
 40
0.0
 40
0.0
 40
0.0
 40
0.0
 40
1.0
 40
1.0
 40
1.0
 40
2.0
 40
2.0
 40
2.0
 40
3.0
 40
3.0
 40
3.0
 40
4.0
 40
4.0
 40
4.0
 40
5.0
 40
5.0
 40
5.0
 40
6.0
 40
6.0
 40
6.0
 40
7.0
 40
7.0
 40
7.0
 40
8.0
 40
8.0
 40
8.0
 40
9.0
 40
9.0
 40
9.0
 40
10.0
 40
10.0
 40
10.0
 40
11.0
 40
11.0
 40
11.0
 40
12.0
 40
12.0
 40
12.0
 40
13.0
 40
13.0
 40
13.0
 40
14.0
 40
14.0
 40
14.0
 40
15.0
 40
15.0
 40
15.0
 40
16.0
 40
16.0
 40
16.0
 40
17.0
 40
17.0
 40
17.0
 40
17.0
 10
89.26139049417772
 20
-158.9460258934232
 30
0.0
 10
89.0557182937083
 20
-158.6373453379449
 30
0.0
 10
88.77976614533978
 20
-158.4320176470239
 30
0.0
 10
88.68261445265574
 20
-158.3665608328042
 30
0.0
 10
88.36842174440095
 20
-158.7048692094557
 30
0.0
 10
88.058707660277
 20
-158.8571424299038
 30
0.0
 10
87.84614526883708
 20
-158.950504517554
 30
0.0
 10
87.84614526883708
 20
-158.950504517554
 30
0.0
 10
87.67664657096279
 20
-158.7620577945109
 30
0.0
 10
87.67664657096279
 20
-158.7620577945109
 30
0.0
 10
87.78740639081357
 20
-158.7262288014643
 30
0.0
 10
88.01564396671137
 20
-158.6500921912403
 30
0.0
 10
88.2643798607464
 20
-158.4637125254882
 30
0.0
 10
88.54704994531116
 20
-158.2521836626939
 30
0.0
 10
88.74600420958434
 20
-157.9645181896755
 30
0.0
 10
88.8770900927981
 20
-157.6513590100663
 30
0.0
 10
88.8770900927981
 20
-157.6513590100663
 30
0.0
 10
88.4747029401209
 20
-157.6513590100663
 30
0.0
 10
88.4747029401209
 20
-157.6513590100663
 30
0.0
 10
88.31192217844286
 20
-157.6513590100663
 30
0.0
 10
88.08799097190162
 20
-157.6558376341972
 30
0.0
 10
87.92744952228898
 20
-157.674785659366
 30
0.0
 10
87.92744952228898
 20
-157.674785659366
 30
0.0
 10
87.92744952228898
 20
-157.4632567965717
 30
0.0
 10
87.92744952228898
 20
-157.4632567965717
 30
0.0
 10
87.99979652747922
 20
-157.4694579684451
 30
0.0
 10
88.27798798791315
 20
-157.4801377644494
 30
0.0
 10
88.37066105646636
 20
-157.4801377644494
 30
0.0
 10
88.37066105646636
 20
-157.4801377644494
 30
0.0
 10
88.70294051601871
 20
-157.4801377644494
 30
0.0
 10
88.70294051601871
 20
-157.4801377644494
 30
0.0
 10
88.92446015572028
 20
-157.4801377644494
 30
0.0
 10
88.94943709798834
 20
-157.4735920830275
 30
0.0
 10
88.97424178548214
 20
-157.4694579684451
 30
0.0
 10
89.02178410317859
 20
-157.4632567965717
 30
0.0
 10
89.06243622990453
 20
-157.4377630899808
 30
0.0
 10
89.08500160533292
 20
-157.4208821221031
 30
0.0
 10
89.08500160533292
 20
-157.4208821221031
 30
0.0
 10
89.25243324591607
 20
-157.5941704250112
 30
0.0
 10
89.25243324591607
 20
-157.5941704250112
 30
0.0
 10
89.20936955235044
 20
-157.6217311888932
 30
0.0
 10
89.19593367995796
 20
-157.6324109848975
 30
0.0
 10
89.1439127381307
 20
-157.6682399779441
 30
0.0
 10
89.00593666394644
 20
-157.9159423433335
 30
0.0
 10
88.91998153158946
 20
-158.0661485064904
 30
0.0
 10
88.80922171173867
 20
-158.212220555065
 30
0.0
 10
89.1439127381307
 20
-158.4299505897328
 30
0.0
 10
89.38799775326065
 20
-158.71554900546
 30
0.0
 10
89.44449731921874
 20
-158.7937526729752
 30
0.0
 10
89.44449731921874
 20
-158.7937526729752
 30
0.0
 10
89.26139049417772
 20
-158.9460258934232
 30
0.0
 10
89.26139049417772
 20
-158.9460258934232
 30
0.0
  0
HATCH
  5
95
330
90
100
AcDbEntity
  8
_U+30EC_U+30A4_U+30E4_U+30FC 1
 62
   179
420
  2234388
100
AcDbHatch
 10
0.0
 20
0.0
 30
0.0
210
0.0
220
0.0
230
1.0
  2
SOLID
 70
     1
 71
     0
 91
        1
 92
        1
 93
        1
 72
     4
 94
        3
 73
     0
 74
     1
 95
       56
 96
       52
 40
0.0
 40
0.0
 40
0.0
 40
0.0
 40
1.0
 40
1.0
 40
1.0
 40
2.0
 40
2.0
 40
2.0
 40
3.0
 40
3.0
 40
3.0
 40
4.0
 40
4.0
 40
4.0
 40
5.0
 40
5.0
 40
5.0
 40
6.0
 40
6.0
 40
6.0
 40
7.0
 40
7.0
 40
7.0
 40
8.0
 40
8.0
 40
8.0
 40
9.0
 40
9.0
 40
9.0
 40
10.0
 40
10.0
 40
10.0
 40
11.0
 40
11.0
 40
11.0
 40
12.0
 40
12.0
 40
12.0
 40
13.0
 40
13.0
 40
13.0
 40
14.0
 40
14.0
 40
14.0
 40
15.0
 40
15.0
 40
15.0
 40
16.0
 40
16.0
 40
16.0
 40
17.0
 40
17.0
 40
17.0
 40
17.0
 10
89.26139049417772
 20
-158.9460258934232
 10
89.0557182937083
 20
-158.6373453379449
 10
88.77976614533978
 20
-158.4320176470239
 10
88.68261445265574
 20
-158.3665608328042
 10
88.36842174440095
 20
-158.7048692094557
 10
88.058707660277
 20
-158.8571424299038
 10
87.84614526883708
 20
-158.950504517554
 10
87.84614526883708
 20
-158.950504517554
 10
87.67664657096279
 20
-158.7620577945109
 10
87.67664657096279
 20
-158.7620577945109
 10
87.78740639081357
 20
-158.7262288014643
 10
88.01564396671137
 20
-158.6500921912403
 10
88.2643798607464
 20
-158.4637125254882
 10
88.54704994531116
 20
-158.2521836626939
 10
88.74600420958434
 20
-157.9645181896755
 10
88.8770900927981
 20
-157.6513590100663
 10
88.8770900927981
 20
-157.6513590100663
 10
88.4747029401209
 20
-157.6513590100663
 10
88.4747029401209
 20
-157.6513590100663
 10
88.31192217844286
 20
-157.6513590100663
 10
88.08799097190162
 20
-157.6558376341972
 10
87.92744952228898
 20
-157.674785659366
 10
87.92744952228898
 20
-157.674785659366
 10
87.92744952228898
 20
-157.4632567965717
 10
87.92744952228898
 20
-157.4632567965717
 10
87.99979652747922
 20
-157.4694579684451
 10
88.27798798791315
 20
-157.4801377644494
 10
88.37066105646636
 20
-157.4801377644494
 10
88.37066105646636
 20
-157.4801377644494
 10
88.70294051601871
 20
-157.4801377644494
 10
88.70294051601871
 20
-157.4801377644494
 10
88.92446015572028
 20
-157.4801377644494
 10
88.94943709798834
 20
-157.4735920830275
 10
88.97424178548214
 20
-157.4694579684451
 10
89.02178410317859
 20
-157.4632567965717
 10
89.06243622990453
 20
-157.4377630899808
 10
89.08500160533292
 20
-157.4208821221031
 10
89.08500160533292
 20
-157.4208821221031
 10
89.25243324591607
 20
-157.5941704250112
 10
89.25243324591607
 20
-157.5941704250112
 10
89.20936955235044
 20
-157.6217311888932
 10
89.19593367995796
 20
-157.6324109848975
 10
89.1439127381307
 20
-157.6682399779441
 10
89.00593666394644
 20
-157.9159423433335
 10
88.91998153158946
 20
-158.0661485064904
 10
88.80922171173867
 20
-158.212220555065
 10
89.1439127381307
 20
-158.4299505897328
 10
89.38799775326065
 20
-158.71554900546
 10
89.44449731921874
 20
-158.7937526729752
 10
89.44449731921874
 20
-158.7937526729752
 10
89.26139049417772
 20
-158.9460258934232
 10
89.26139049417772
 20
-158.9460258934232
 97
        0
 97
        0
 75
     2
 76
     1
 98
        0
  0
SPLINE
  5
96
330
90
100
AcDbEntity
  8
_U+30EC_U+30A4_U+30E4_U+30FC 1
370
     0
100
AcDbSpline
210
0.0
220
0.0
230
1.0
 70
    11
 71
     3
 72
    20
 73
    16
 74
     0
 42
0.0000000001
 43
0.0000000001
 12
1.0
 22
0.0
 32
0.0
 13
1.0
 23
0.0
 33
0.0
 40
0.0
 40
0.0
 40
0.0
 40
0.0
 40
1.0
 40
1.0
 40
1.0
 40
2.0
 40
2.0
 40
2.0
 40
3.0
 40
3.0
 40
3.0
 40
4.0
 40
4.0
 40
4.0
 40
5.0
 40
5.0
 40
5.0
 40
5.0
 10
90.16951766408957
 20
-158.1550319700099
 30
0.0
 10
90.10164928303014
 20
-158.1105902382501
 30
0.0
 10
90.06771509250044
 20
-158.0892306462416
 30
0.0
 10
89.92078177005453
 20
-158.0299750038953
 30
0.0
 10
89.75800100837648
 20
-157.9645181896755
 30
0.0
 10
89.71269800274544
 20
-157.949704279089
 30
0.0
 10
89.66067706091818
 20
-157.9328233112113
 30
0.0
 10
89.66067706091818
 20
-157.9328233112113
 30
0.0
 10
89.75800100837648
 20
-157.7529893268812
 30
0.0
 10
89.75800100837648
 20
-157.7529893268812
 30
0.0
 10
89.8189791984654
 20
-157.7764159761809
 30
0.0
 10
90.10388859509555
 20
-157.8842474648692
 30
0.0
 10
90.26890866883903
 20
-157.9920789535576
 30
0.0
 10
90.26890866883903
 20
-157.9920789535576
 30
0.0
 10
90.16951766408957
 20
-158.1550319700099
 30
0.0
 10
90.16951766408957
 20
-158.1550319700099
 30
0.0
  0
SPLINE
  5
97
330
90
100
AcDbEntity
  8
_U+30EC_U+30A4_U+30E4_U+30FC 1
370
     0
100
AcDbSpline
210
0.0
220
0.0
230
1.0
 70
    11
 71
     3
 72
    26
 73
    22
 74
     0
 42
0.0000000001
 43
0.0000000001
 12
1.0
 22
0.0
 32
0.0
 13
1.0
 23
0.0
 33
0.0
 40
0.0
 40
0.0
 40
0.0
 40
0.0
 40
1.0
 40
1.0
 40
1.0
 40
2.0
 40
2.0
 40
2.0
 40
3.0
 40
3.0
 40
3.0
 40
4.0
 40
4.0
 40
4.0
 40
5.0
 40
5.0
 40
5.0
 40
6.0
 40
6.0
 40
6.0
 40
7.0
 40
7.0
 40
7.0
 40
7.0
 10
90.03378090197073
 20
-159.0097601599003
 30
0.0
 10
90.03154158990532
 20
-159.0349093569427
 30
0.0
 10
90.02706296577449
 20
-159.0858967701244
 30
0.0
 10
89.98623858427428
 20
-159.0858967701244
 30
0.0
 10
89.97952064807804
 20
-159.0858967701244
 30
0.0
 10
89.96143389678048
 20
-159.0793510887024
 30
0.0
 10
89.94782576961374
 20
-159.0645371781158
 30
0.0
 10
89.94782576961374
 20
-159.0645371781158
 30
0.0
 10
89.77832707173945
 20
-158.8571424299038
 30
0.0
 10
89.77832707173945
 20
-158.8571424299038
 30
0.0
 10
89.90045570669156
 20
-158.8254475514395
 30
0.0
 10
90.14454072182151
 20
-158.7620577945109
 30
0.0
 10
90.55381806546919
 20
-158.4554442963236
 30
0.0
 10
90.88609752502154
 20
-158.2077419309342
 30
0.0
 10
91.05352916560467
 20
-158.0089599214353
 30
0.0
 10
91.2095919910865
 20
-157.7888183199278
 30
0.0
 10
91.2095919910865
 20
-157.7888183199278
 30
0.0
 10
91.3473958104965
 20
-157.9645181896755
 30
0.0
 10
91.3473958104965
 20
-157.9645181896755
 30
0.0
 10
91.02183428714038
 20
-158.4509656721928
 30
0.0
 10
90.33677704989844
 20
-158.8933159324989
 30
0.0
 10
90.03378090197073
 20
-159.0097601599003
 30
0.0
  0
SPLINE
  5
98
330
90
100
AcDbEntity
  8
_U+30EC_U+30A4_U+30E4_U+30FC 1
370
     0
100
AcDbSpline
210
0.0
220
0.0
230
1.0
 70
    11
 71
     3
 72
    17
 73
    13
 74
     0
 42
0.0000000001
 43
0.0000000001
 12
1.0
 22
0.0
 32
0.0
 13
1.0
 23
0.0
 33
0.0
 40
0.0
 40
0.0
 40
0.0
 40
0.0
 40
1.0
 40
1.0
 40
1.0
 40
2.0
 40
2.0
 40
2.0
 40
3.0
 40
3.0
 40
3.0
 40
4.0
 40
4.0
 40
4.0
 40
4.0
 10
90.42497149432084
 20
-157.6534260673575
 30
0.0
 10
90.27338729296986
 20
-157.5393934067957
 30
0.0
 10
90.04514971707205
 20
-157.4546440578586
 30
0.0
 10
89.9071736428878
 20
-157.4167480075208
 30
0.0
 10
89.9071736428878
 20
-157.4167480075208
 30
0.0
 10
89.99984671144101
 20
-157.2410481377731
 30
0.0
 10
89.99984671144101
 20
-157.2410481377731
 30
0.0
 10
90.19880097571419
 20
-157.315117690706
 30
0.0
 10
90.3774291766244
 20
-157.4019340969342
 30
0.0
 10
90.5221231870049
 20
-157.4842718790317
 30
0.0
 10
90.5221231870049
 20
-157.4842718790317
 30
0.0
 10
90.42497149432084
 20
-157.6534260673575
 30
0.0
 10
90.42497149432084
 20
-157.6534260673575
 30
0.0
  0
SPLINE
  5
99
330
90
100
AcDbEntity
  8
_U+30EC_U+30A4_U+30E4_U+30FC 1
370
     0
100
AcDbSpline
210
0.0
220
0.0
230
1.0
 70
    11
 71
     3
 72
    17
 73
    13
 74
     0
 42
0.0000000001
 43
0.0000000001
 12
1.0
 22
0.0
 32
0.0
 13
1.0
 23
0.0
 33
0.0
 40
0.0
 40
0.0
 40
0.0
 40
0.0
 40
1.0
 40
1.0
 40
1.0
 40
2.0
 40
2.0
 40
2.0
 40
3.0
 40
3.0
 40
3.0
 40
4.0
 40
4.0
 40
4.0
 40
4.0
 10
91.12587617079492
 20
-157.5793565144246
 30
0.0
 10
91.06696503799715
 20
-157.522512438918
 30
0.0
 10
91.0015082237774
 20
-157.4632567965717
 30
0.0
 10
90.8793795888253
 20
-157.39125430093
 30
0.0
 10
90.8793795888253
 20
-157.39125430093
 30
0.0
 10
90.98118216041443
 20
-157.287556926824
 30
0.0
 10
90.98118216041443
 20
-157.287556926824
 30
0.0
 10
91.06489798070601
 20
-157.3299316012925
 30
0.0
 10
91.17548554578252
 20
-157.3891872436388
 30
0.0
 10
91.23887530271112
 20
-157.4715250257363
 30
0.0
 10
91.23887530271112
 20
-157.4715250257363
 30
0.0
 10
91.12587617079492
 20
-157.5793565144246
 30
0.0
 10
91.12587617079492
 20
-157.5793565144246
 30
0.0
  0
SPLINE
  5
9A
330
90
100
AcDbEntity
  8
_U+30EC_U+30A4_U+30E4_U+30FC 1
370
     0
100
AcDbSpline
210
0.0
220
0.0
230
1.0
 70
    11
 71
     3
 72
    17
 73
    13
 74
     0
 42
0.0000000001
 43
0.0000000001
 12
1.0
 22
0.0
 32
0.0
 13
1.0
 23
0.0
 33
0.0
 40
0.0
 40
0.0
 40
0.0
 40
0.0
 40
1.0
 40
1.0
 40
1.0
 40
2.0
 40
2.0
 40
2.0
 40
3.0
 40
3.0
 40
3.0
 40
4.0
 40
4.0
 40
4.0
 40
4.0
 10
91.36772187385947
 20
-157.4250162366854
 30
0.0
 10
91.3473958104965
 20
-157.4081352688077
 30
0.0
 10
91.12794322808607
 20
-157.2517279337773
 30
0.0
 10
91.09865991646144
 20
-157.23243539906
 30
0.0
 10
91.09865991646144
 20
-157.23243539906
 30
0.0
 10
91.21407061521732
 20
-157.1225368530805
 30
0.0
 10
91.21407061521732
 20
-157.1225368530805
 30
0.0
 10
91.33154837126433
 20
-157.1986734633045
 30
0.0
 10
91.34498424365681
 20
-157.2093532593088
 30
0.0
 10
91.48072100577566
 20
-157.315117690706
 30
0.0
 10
91.48072100577566
 20
-157.315117690706
 30
0.0
 10
91.36772187385947
 20
-157.4250162366854
 30
0.0
 10
91.36772187385947
 20
-157.4250162366854
 30
0.0
  0
HATCH
  5
9B
330
90
100
AcDbEntity
  8
_U+30EC_U+30A4_U+30E4_U+30FC 1
 62
   179
420
  2234388
100
AcDbHatch
 10
0.0
 20
0.0
 30
0.0
210
0.0
220
0.0
230
1.0
  2
SOLID
 70
     1
 71
     0
 91
        5
 92
        1
 93
        1
 72
     4
 94
        3
 73
     0
 74
     1
 95
       20
 96
       16
 40
0.0
 40
0.0
 40
0.0
 40
0.0
 40
1.0
 40
1.0
 40
1.0
 40
2.0
 40
2.0
 40
2.0
 40
3.0
 40
3.0
 40
3.0
 40
4.0
 40
4.0
 40
4.0
 40
5.0
 40
5.0
 40
5.0
 40
5.0
 10
90.16951766408957
 20
-158.1550319700099
 10
90.10164928303014
 20
-158.1105902382501
 10
90.06771509250044
 20
-158.0892306462416
 10
89.92078177005453
 20
-158.0299750038953
 10
89.75800100837648
 20
-157.9645181896755
 10
89.71269800274544
 20
-157.949704279089
 10
89.66067706091818
 20
-157.9328233112113
 10
89.66067706091818
 20
-157.9328233112113
 10
89.75800100837648
 20
-157.7529893268812
 10
89.75800100837648
 20
-157.7529893268812
 10
89.8189791984654
 20
-157.7764159761809
 10
90.10388859509555
 20
-157.8842474648692
 10
90.26890866883903
 20
-157.9920789535576
 10
90.26890866883903
 20
-157.9920789535576
 10
90.16951766408957
 20
-158.1550319700099
 10
90.16951766408957
 20
-158.1550319700099
 97
        0
 97
        0
 92
        1
 93
        1
 72
     4
 94
        3
 73
     0
 74
     1
 95
       26
 96
       22
 40
0.0
 40
0.0
 40
0.0
 40
0.0
 40
1.0
 40
1.0
 40
1.0
 40
2.0
 40
2.0
 40
2.0
 40
3.0
 40
3.0
 40
3.0
 40
4.0
 40
4.0
 40
4.0
 40
5.0
 40
5.0
 40
5.0
 40
6.0
 40
6.0
 40
6.0
 40
7.0
 40
7.0
 40
7.0
 40
7.0
 10
90.03378090197073
 20
-159.0097601599003
 10
90.03154158990532
 20
-159.0349093569427
 10
90.02706296577449
 20
-159.0858967701244
 10
89.98623858427428
 20
-159.0858967701244
 10
89.97952064807804
 20
-159.0858967701244
 10
89.96143389678048
 20
-159.0793510887024
 10
89.94782576961374
 20
-159.0645371781158
 10
89.94782576961374
 20
-159.0645371781158
 10
89.77832707173945
 20
-158.8571424299038
 10
89.77832707173945
 20
-158.8571424299038
 10
89.90045570669156
 20
-158.8254475514395
 10
90.14454072182151
 20
-158.7620577945109
 10
90.55381806546919
 20
-158.4554442963236
 10
90.88609752502154
 20
-158.2077419309342
 10
91.05352916560467
 20
-158.0089599214353
 10
91.2095919910865
 20
-157.7888183199278
 10
91.2095919910865
 20
-157.7888183199278
 10
91.3473958104965
 20
-157.9645181896755
 10
91.3473958104965
 20
-157.9645181896755
 10
91.02183428714038
 20
-158.4509656721928
 10
90.33677704989844
 20
-158.8933159324989
 10
90.03378090197073
 20
-159.0097601599003
 97
        0
 97
        0
 92
        1
 93
        1
 72
     4
 94
        3
 73
     0
 74
     1
 95
       17
 96
       13
 40
0.0
 40
0.0
 40
0.0
 40
0.0
 40
1.0
 40
1.0
 40
1.0
 40
2.0
 40
2.0
 40
2.0
 40
3.0
 40
3.0
 40
3.0
 40
4.0
 40
4.0
 40
4.0
 40
4.0
 10
90.42497149432084
 20
-157.6534260673575
 10
90.27338729296986
 20
-157.5393934067957
 10
90.04514971707205
 20
-157.4546440578586
 10
89.9071736428878
 20
-157.4167480075208
 10
89.9071736428878
 20
-157.4167480075208
 10
89.99984671144101
 20
-157.2410481377731
 10
89.99984671144101
 20
-157.2410481377731
 10
90.19880097571419
 20
-157.315117690706
 10
90.3774291766244
 20
-157.4019340969342
 10
90.5221231870049
 20
-157.4842718790317
 10
90.5221231870049
 20
-157.4842718790317
 10
90.42497149432084
 20
-157.6534260673575
 10
90.42497149432084
 20
-157.6534260673575
 97
        0
 97
        0
 92
        1
 93
        1
 72
     4
 94
        3
 73
     0
 74
     1
 95
       17
 96
       13
 40
0.0
 40
0.0
 40
0.0
 40
0.0
 40
1.0
 40
1.0
 40
1.0
 40
2.0
 40
2.0
 40
2.0
 40
3.0
 40
3.0
 40
3.0
 40
4.0
 40
4.0
 40
4.0
 40
4.0
 10
91.12587617079492
 20
-157.5793565144246
 10
91.06696503799715
 20
-157.522512438918
 10
91.0015082237774
 20
-157.4632567965717
 10
90.8793795888253
 20
-157.39125430093
 10
90.8793795888253
 20
-157.39125430093
 10
90.98118216041443
 20
-157.287556926824
 10
90.98118216041443
 20
-157.287556926824
 10
91.06489798070601
 20
-157.3299316012925
 10
91.17548554578252
 20
-157.3891872436388
 10
91.23887530271112
 20
-157.4715250257363
 10
91.23887530271112
 20
-157.4715250257363
 10
91.12587617079492
 20
-157.5793565144246
 10
91.12587617079492
 20
-157.5793565144246
 97
        0
 97
        0
 92
        1
 93
        1
 72
     4
 94
        3
 73
     0
 74
     1
 95
       17
 96
       13
 40
0.0
 40
0.0
 40
0.0
 40
0.0
 40
1.0
 40
1.0
 40
1.0
 40
2.0
 40
2.0
 40
2.0
 40
3.0
 40
3.0
 40
3.0
 40
4.0
 40
4.0
 40
4.0
 40
4.0
 10
91.36772187385947
 20
-157.4250162366854
 10
91.3473958104965
 20
-157.4081352688077
 10
91.12794322808607
 20
-157.2517279337773
 10
91.09865991646144
 20
-157.23243539906
 10
91.09865991646144
 20
-157.23243539906
 10
91.21407061521732
 20
-157.1225368530805
 10
91.21407061521732
 20
-157.1225368530805
 10
91.33154837126433
 20
-157.1986734633045
 10
91.34498424365681
 20
-157.2093532593088
 10
91.48072100577566
 20
-157.315117690706
 10
91.48072100577566
 20
-157.315117690706
 10
91.36772187385947
 20
-157.4250162366854
 10
91.36772187385947
 20
-157.4250162366854
 97
        0
 97
        0
 75
     2
 76
     1
 98
        0
  0
ENDBLK
  5
93
330
90
100
AcDbEntity
  8
0
100
AcDbBlockEnd
  0
BLOCK
  5
AA
330
A8
100
AcDbEntity
  8
0
100
AcDbBlockBegin
  2
block 3
 70
     0
 10
0.0
 20
0.0
 30
0.0
  3
block 3
  1

  0
SPLINE
  5
AC
330
A8
100
AcDbEntity
  8
_U+30EC_U+30A4_U+30E4_U+30FC 1
370
     0
100
AcDbSpline
210
0.0
220
0.0
230
1.0
 70
    11
 71
     3
 72
    44
 73
    40
 74
     0
 42
0.0000000001
 43
0.0000000001
 12
1.0
 22
0.0
 32
0.0
 13
1.0
 23
0.0
 33
0.0
 40
0.0
 40
0.0
 40
0.0
 40
0.0
 40
1.0
 40
1.0
 40
1.0
 40
2.0
 40
2.0
 40
2.0
 40
3.0
 40
3.0
 40
3.0
 40
4.0
 40
4.0
 40
4.0
 40
5.0
 40
5.0
 40
5.0
 40
6.0
 40
6.0
 40
6.0
 40
7.0
 40
7.0
 40
7.0
 40
8.0
 40
8.0
 40
8.0
 40
9.0
 40
9.0
 40
9.0
 40
10.0
 40
10.0
 40
10.0
 40
11.0
 40
11.0
 40
11.0
 40
12.0
 40
12.0
 40
12.0
 40
13.0
 40
13.0
 40
13.0
 40
13.0
 10
105.1239881464621
 20
-137.1106661983612
 30
0.0
 10
104.8910996916592
 20
-137.2694851002312
 30
0.0
 10
104.7915364321355
 20
-137.3435546531641
 30
0.0
 10
104.7398599998567
 20
-137.487215134899
 30
0.0
 10
104.7398599998567
 20
-137.487215134899
 30
0.0
 10
105.571506049996
 20
-137.487215134899
 30
0.0
 10
105.571506049996
 20
-137.487215134899
 30
0.0
 10
105.571506049996
 20
-137.487215134899
 30
0.0
 10
105.571506049996
 20
-137.6925428258199
 30
0.0
 10
105.571506049996
 20
-137.6925428258199
 30
0.0
 10
105.571506049996
 20
-137.6925428258199
 30
0.0
 10
104.4728650997498
 20
-137.6925428258199
 30
0.0
 10
104.4728650997498
 20
-137.6925428258199
 30
0.0
 10
104.5069715450538
 20
-137.334941914451
 30
0.0
 10
104.5769069834044
 20
-137.2567382469358
 30
0.0
 10
104.9882513843432
 20
-136.9583929779132
 30
0.0
 10
105.2617919658721
 20
-136.7596109684143
 30
0.0
 10
105.3320719137712
 20
-136.6917425873548
 30
0.0
 10
105.3320719137712
 20
-136.5542832774934
 30
0.0
 10
105.3320719137712
 20
-136.4357719928008
 30
0.0
 10
105.2552462844501
 20
-136.3048583643613
 30
0.0
 10
105.0447509503013
 20
-136.3048583643613
 30
0.0
 10
104.7667317446417
 20
-136.3048583643613
 30
0.0
 10
104.75777449638
 20
-136.5353352523245
 30
0.0
 10
104.7532958722492
 20
-136.6517794797259
 30
0.0
 10
104.7532958722492
 20
-136.6517794797259
 30
0.0
 10
104.5135172264758
 20
-136.6517794797259
 30
0.0
 10
104.5135172264758
 20
-136.6517794797259
 30
0.0
 10
104.522818984286
 20
-136.5246554563202
 30
0.0
 10
104.5338432898388
 20
-136.4126898530496
 30
0.0
 10
104.61997067697
 20
-136.294178568357
 30
0.0
 10
104.737448433017
 20
-136.1332926091958
 30
0.0
 10
104.9362304425159
 20
-136.0995306734404
 30
0.0
 10
105.0605983895335
 20
-136.0995306734404
 30
0.0
 10
105.356876601265
 20
-136.0995306734404
 30
0.0
 10
105.5783962409665
 20
-136.2834987723527
 30
0.0
 10
105.5783962409665
 20
-136.5563503347845
 30
0.0
 10
105.5783962409665
 20
-136.7851046750051
 30
0.0
 10
105.454028293949
 20
-136.8843234249803
 30
0.0
 10
105.1239881464621
 20
-137.1106661983612
 30
0.0
  0
HATCH
  5
AD
330
A8
100
AcDbEntity
  8
_U+30EC_U+30A4_U+30E4_U+30FC 1
 62
   179
420
  2234388
100
AcDbHatch
 10
0.0
 20
0.0
 30
0.0
210
0.0
220
0.0
230
1.0
  2
SOLID
 70
     1
 71
     0
 91
        1
 92
        1
 93
        1
 72
     4
 94
        3
 73
     0
 74
     1
 95
       44
 96
       40
 40
0.0
 40
0.0
 40
0.0
 40
0.0
 40
1.0
 40
1.0
 40
1.0
 40
2.0
 40
2.0
 40
2.0
 40
3.0
 40
3.0
 40
3.0
 40
4.0
 40
4.0
 40
4.0
 40
5.0
 40
5.0
 40
5.0
 40
6.0
 40
6.0
 40
6.0
 40
7.0
 40
7.0
 40
7.0
 40
8.0
 40
8.0
 40
8.0
 40
9.0
 40
9.0
 40
9.0
 40
10.0
 40
10.0
 40
10.0
 40
11.0
 40
11.0
 40
11.0
 40
12.0
 40
12.0
 40
12.0
 40
13.0
 40
13.0
 40
13.0
 40
13.0
 10
105.1239881464621
 20
-137.1106661983612
 10
104.8910996916592
 20
-137.2694851002312
 10
104.7915364321355
 20
-137.3435546531641
 10
104.7398599998567
 20
-137.487215134899
 10
104.7398599998567
 20
-137.487215134899
 10
105.571506049996
 20
-137.487215134899
 10
105.571506049996
 20
-137.487215134899
 10
105.571506049996
 20
-137.487215134899
 10
105.571506049996
 20
-137.6925428258199
 10
105.571506049996
 20
-137.6925428258199
 10
105.571506049996
 20
-137.6925428258199
 10
104.4728650997498
 20
-137.6925428258199
 10
104.4728650997498
 20
-137.6925428258199
 10
104.5069715450538
 20
-137.334941914451
 10
104.5769069834044
 20
-137.2567382469358
 10
104.9882513843432
 20
-136.9583929779132
 10
105.2617919658721
 20
-136.7596109684143
 10
105.3320719137712
 20
-136.6917425873548
 10
105.3320719137712
 20
-136.5542832774934
 10
105.3320719137712
 20
-136.4357719928008
 10
105.2552462844501
 20
-136.3048583643613
 10
105.0447509503013
 20
-136.3048583643613
 10
104.7667317446417
 20
-136.3048583643613
 10
104.75777449638
 20
-136.5353352523245
 10
104.7532958722492
 20
-136.6517794797259
 10
104.7532958722492
 20
-136.6517794797259
 10
104.5135172264758
 20
-136.6517794797259
 10
104.5135172264758
 20
-136.6517794797259
 10
104.522818984286
 20
-136.5246554563202
 10
104.5338432898388
 20
-136.4126898530496
 10
104.61997067697
 20
-136.294178568357
 10
104.737448433017
 20
-136.1332926091958
 10
104.9362304425159
 20
-136.0995306734404
 10
105.0605983895335
 20
-136.0995306734404
 10
105.356876601265
 20
-136.0995306734404
 10
105.5783962409665
 20
-136.2834987723527
 10
105.5783962409665
 20
-136.5563503347845
 10
105.5783962409665
 20
-136.7851046750051
 10
105.454028293949
 20
-136.8843234249803
 10
105.1239881464621
 20
-137.1106661983612
 97
        0
 97
        0
 75
     2
 76
     1
 98
        0
  0
SPLINE
  5
AE
330
A8
100
AcDbEntity
  8
_U+30EC_U+30A4_U+30E4_U+30FC 1
370
     0
100
AcDbSpline
210
0.0
220
0.0
230
1.0
 70
    11
 71
     3
 72
    53
 73
    49
 74
     0
 42
0.0000000001
 43
0.0000000001
 12
1.0
 22
0.0
 32
0.0
 13
1.0
 23
0.0
 33
0.0
 40
0.0
 40
0.0
 40
0.0
 40
0.0
 40
1.0
 40
1.0
 40
1.0
 40
2.0
 40
2.0
 40
2.0
 40
3.0
 40
3.0
 40
3.0
 40
4.0
 40
4.0
 40
4.0
 40
5.0
 40
5.0
 40
5.0
 40
6.0
 40
6.0
 40
6.0
 40
7.0
 40
7.0
 40
7.0
 40
8.0
 40
8.0
 40
8.0
 40
9.0
 40
9.0
 40
9.0
 40
10.0
 40
10.0
 40
10.0
 40
11.0
 40
11.0
 40
11.0
 40
12.0
 40
12.0
 40
12.0
 40
13.0
 40
13.0
 40
13.0
 40
14.0
 40
14.0
 40
14.0
 40
15.0
 40
15.0
 40
15.0
 40
16.0
 40
16.0
 40
16.0
 40
16.0
 10
106.2619031852401
 20
-137.7431857294531
 30
0.0
 10
106.178531874497
 20
-137.7431857294531
 30
0.0
 10
106.0696668571631
 20
-137.7263047615754
 30
0.0
 10
105.9614908589263
 20
-137.6629150046468
 30
0.0
 10
105.7758002122713
 20
-137.5530164586673
 30
0.0
 10
105.7534070916172
 20
-137.4217583206793
 30
0.0
 10
105.7330810282542
 20
-137.313926831991
 30
0.0
 10
105.7330810282542
 20
-137.313926831991
 30
0.0
 10
105.9704481071879
 20
-137.313926831991
 30
0.0
 10
105.9704481071879
 20
-137.313926831991
 30
0.0
 10
106.0290147304372
 20
-137.5127088414899
 30
0.0
 10
106.164751492556
 20
-137.542336662663
 30
0.0
 10
106.2643147520798
 20
-137.542336662663
 30
0.0
 10
106.4134873865911
 20
-137.542336662663
 30
0.0
 10
106.5760958934949
 20
-137.4427734031393
 30
0.0
 10
106.5760958934949
 20
-137.2102294578849
 30
0.0
 10
106.5760958934949
 20
-136.9542588633309
 30
0.0
 10
106.3842040749664
 20
-136.8843234249803
 30
0.0
 10
106.2553575038181
 20
-136.8843234249803
 30
0.0
 10
106.2212510585141
 20
-136.8843234249803
 30
0.0
 10
106.0696668571631
 20
-136.8843234249803
 30
0.0
 10
105.9749267313188
 20
-137.0135145056772
 30
0.0
 10
105.9749267313188
 20
-137.0135145056772
 30
0.0
 10
105.7871690273727
 20
-136.9945664805083
 30
0.0
 10
105.7871690273727
 20
-136.9945664805083
 30
0.0
 10
105.7871690273727
 20
-136.9945664805083
 30
0.0
 10
105.916015598521
 20
-136.1481065197824
 30
0.0
 10
105.916015598521
 20
-136.1481065197824
 30
0.0
 10
105.916015598521
 20
-136.1481065197824
 30
0.0
 10
106.7480061582088
 20
-136.1481065197824
 30
0.0
 10
106.7480061582088
 20
-136.1481065197824
 30
0.0
 10
106.7480061582088
 20
-136.1481065197824
 30
0.0
 10
106.7480061582088
 20
-136.342754414699
 30
0.0
 10
106.7480061582088
 20
-136.342754414699
 30
0.0
 10
106.7480061582088
 20
-136.342754414699
 30
0.0
 10
106.0903374300746
 20
-136.342754414699
 30
0.0
 10
106.0903374300746
 20
-136.342754414699
 30
0.0
 10
106.0903374300746
 20
-136.342754414699
 30
0.0
 10
106.0200574821755
 20
-136.7658121402877
 30
0.0
 10
106.0200574821755
 20
-136.7658121402877
 30
0.0
 10
106.0855142963953
 20
-136.7320502045323
 30
0.0
 10
106.1737087408177
 20
-136.6917425873548
 30
0.0
 10
106.3004882546749
 20
-136.6917425873548
 30
0.0
 10
106.571617269364
 20
-136.6917425873548
 30
0.0
 10
106.8248317875299
 20
-136.8781222531069
 30
0.0
 10
106.8248317875299
 20
-137.1912814327161
 30
0.0
 10
106.8248317875299
 20
-137.5085747269076
 30
0.0
 10
106.585397651305
 20
-137.7431857294531
 30
0.0
 10
106.2619031852401
 20
-137.7431857294531
 30
0.0
  0
HATCH
  5
AF
330
A8
100
AcDbEntity
  8
_U+30EC_U+30A4_U+30E4_U+30FC 1
 62
   179
420
  2234388
100
AcDbHatch
 10
0.0
 20
0.0
 30
0.0
210
0.0
220
0.0
230
1.0
  2
SOLID
 70
     1
 71
     0
 91
        1
 92
        1
 93
        1
 72
     4
 94
        3
 73
     0
 74
     1
 95
       53
 96
       49
 40
0.0
 40
0.0
 40
0.0
 40
0.0
 40
1.0
 40
1.0
 40
1.0
 40
2.0
 40
2.0
 40
2.0
 40
3.0
 40
3.0
 40
3.0
 40
4.0
 40
4.0
 40
4.0
 40
5.0
 40
5.0
 40
5.0
 40
6.0
 40
6.0
 40
6.0
 40
7.0
 40
7.0
 40
7.0
 40
8.0
 40
8.0
 40
8.0
 40
9.0
 40
9.0
 40
9.0
 40
10.0
 40
10.0
 40
10.0
 40
11.0
 40
11.0
 40
11.0
 40
12.0
 40
12.0
 40
12.0
 40
13.0
 40
13.0
 40
13.0
 40
14.0
 40
14.0
 40
14.0
 40
15.0
 40
15.0
 40
15.0
 40
16.0
 40
16.0
 40
16.0
 40
16.0
 10
106.2619031852401
 20
-137.7431857294531
 10
106.178531874497
 20
-137.7431857294531
 10
106.0696668571631
 20
-137.7263047615754
 10
105.9614908589263
 20
-137.6629150046468
 10
105.7758002122713
 20
-137.5530164586673
 10
105.7534070916172
 20
-137.4217583206793
 10
105.7330810282542
 20
-137.313926831991
 10
105.7330810282542
 20
-137.313926831991
 10
105.9704481071879
 20
-137.313926831991
 10
105.9704481071879
 20
-137.313926831991
 10
106.0290147304372
 20
-137.5127088414899
 10
106.164751492556
 20
-137.542336662663
 10
106.2643147520798
 20
-137.542336662663
 10
106.4134873865911
 20
-137.542336662663
 10
106.5760958934949
 20
-137.4427734031393
 10
106.5760958934949
 20
-137.2102294578849
 10
106.5760958934949
 20
-136.9542588633309
 10
106.3842040749664
 20
-136.8843234249803
 10
106.2553575038181
 20
-136.8843234249803
 10
106.2212510585141
 20
-136.8843234249803
 10
106.0696668571631
 20
-136.8843234249803
 10
105.9749267313188
 20
-137.0135145056772
 10
105.9749267313188
 20
-137.0135145056772
 10
105.7871690273727
 20
-136.9945664805083
 10
105.7871690273727
 20
-136.9945664805083
 10
105.7871690273727
 20
-136.9945664805083
 10
105.916015598521
 20
-136.1481065197824
 10
105.916015598521
 20
-136.1481065197824
 10
105.916015598521
 20
-136.1481065197824
 10
106.7480061582088
 20
-136.1481065197824
 10
106.7480061582088
 20
-136.1481065197824
 10
106.7480061582088
 20
-136.1481065197824
 10
106.7480061582088
 20
-136.342754414699
 10
106.7480061582088
 20
-136.342754414699
 10
106.7480061582088
 20
-136.342754414699
 10
106.0903374300746
 20
-136.342754414699
 10
106.0903374300746
 20
-136.342754414699
 10
106.0903374300746
 20
-136.342754414699
 10
106.0200574821755
 20
-136.7658121402877
 10
106.0200574821755
 20
-136.7658121402877
 10
106.0855142963953
 20
-136.7320502045323
 10
106.1737087408177
 20
-136.6917425873548
 10
106.3004882546749
 20
-136.6917425873548
 10
106.571617269364
 20
-136.6917425873548
 10
106.8248317875299
 20
-136.8781222531069
 10
106.8248317875299
 20
-137.1912814327161
 10
106.8248317875299
 20
-137.5085747269076
 10
106.585397651305
 20
-137.7431857294531
 10
106.2619031852401
 20
-137.7431857294531
 97
        0
 97
        0
 75
     2
 76
     1
 98
        0
  0
ENDBLK
  5
AB
330
A8
100
AcDbEntity
  8
0
100
AcDbBlockEnd
  0
BLOCK
  5
BA
330
B8
100
AcDbEntity
  8
0
100
AcDbBlockBegin
  2
block 4
 70
     0
 10
0.0
 20
0.0
 30
0.0
  3
block 4
  1

  0
SPLINE
  5
BC
330
B8
100
AcDbEntity
  8
_U+30EC_U+30A4_U+30E4_U+30FC 1
370
     0
100
AcDbSpline
210
0.0
220
0.0
230
1.0
 70
    11
 71
     3
 72
    26
 73
    22
 74
     0
 42
0.0000000001
 43
0.0000000001
 12
1.0
 22
0.0
 32
0.0
 13
1.0
 23
0.0
 33
0.0
 40
0.0
 40
0.0
 40
0.0
 40
0.0
 40
1.0
 40
1.0
 40
1.0
 40
2.0
 40
2.0
 40
2.0
 40
3.0
 40
3.0
 40
3.0
 40
4.0
 40
4.0
 40
4.0
 40
5.0
 40
5.0
 40
5.0
 40
6.0
 40
6.0
 40
6.0
 40
7.0
 40
7.0
 40
7.0
 40
7.0
 10
92.63913436269091
 20
-137.6925428258199
 30
0.0
 10
92.63913436269091
 20
-137.6925428258199
 30
0.0
 10
92.63913436269091
 20
-136.5882174680231
 30
0.0
 10
92.63913436269091
 20
-136.5882174680231
 30
0.0
 10
92.63913436269091
 20
-136.5882174680231
 30
0.0
 10
92.28635658500133
 20
-136.5882174680231
 30
0.0
 10
92.28635658500133
 20
-136.5882174680231
 30
0.0
 10
92.28635658500133
 20
-136.5882174680231
 30
0.0
 10
92.28635658500133
 20
-136.4402506169316
 30
0.0
 10
92.28635658500133
 20
-136.4402506169316
 30
0.0
 10
92.64137367475632
 20
-136.425436706345
 30
0.0
 10
92.69115530451819
 20
-136.2624836898927
 30
0.0
 10
92.72267792820823
 20
-136.1482787745567
 30
0.0
 10
92.72267792820823
 20
-136.1482787745567
 30
0.0
 10
92.87874075369004
 20
-136.1482787745567
 30
0.0
 10
92.87874075369004
 20
-136.1482787745567
 30
0.0
 10
92.87874075369004
 20
-136.1482787745567
 30
0.0
 10
92.87874075369004
 20
-137.6925428258199
 30
0.0
 10
92.87874075369004
 20
-137.6925428258199
 30
0.0
 10
92.87874075369004
 20
-137.6925428258199
 30
0.0
 10
92.63913436269091
 20
-137.6925428258199
 30
0.0
 10
92.63913436269091
 20
-137.6925428258199
 30
0.0
  0
HATCH
  5
BD
330
B8
100
AcDbEntity
  8
_U+30EC_U+30A4_U+30E4_U+30FC 1
 62
   179
420
  2234388
100
AcDbHatch
 10
0.0
 20
0.0
 30
0.0
210
0.0
220
0.0
230
1.0
  2
SOLID
 70
     1
 71
     0
 91
        1
 92
        1
 93
        1
 72
     4
 94
        3
 73
     0
 74
     1
 95
       26
 96
       22
 40
0.0
 40
0.0
 40
0.0
 40
0.0
 40
1.0
 40
1.0
 40
1.0
 40
2.0
 40
2.0
 40
2.0
 40
3.0
 40
3.0
 40
3.0
 40
4.0
 40
4.0
 40
4.0
 40
5.0
 40
5.0
 40
5.0
 40
6.0
 40
6.0
 40
6.0
 40
7.0
 40
7.0
 40
7.0
 40
7.0
 10
92.63913436269091
 20
-137.6925428258199
 10
92.63913436269091
 20
-137.6925428258199
 10
92.63913436269091
 20
-136.5882174680231
 10
92.63913436269091
 20
-136.5882174680231
 10
92.63913436269091
 20
-136.5882174680231
 10
92.28635658500133
 20
-136.5882174680231
 10
92.28635658500133
 20
-136.5882174680231
 10
92.28635658500133
 20
-136.5882174680231
 10
92.28635658500133
 20
-136.4402506169316
 10
92.28635658500133
 20
-136.4402506169316
 10
92.64137367475632
 20
-136.425436706345
 10
92.69115530451819
 20
-136.2624836898927
 10
92.72267792820823
 20
-136.1482787745567
 10
92.72267792820823
 20
-136.1482787745567
 10
92.87874075369004
 20
-136.1482787745567
 10
92.87874075369004
 20
-136.1482787745567
 10
92.87874075369004
 20
-136.1482787745567
 10
92.87874075369004
 20
-137.6925428258199
 10
92.87874075369004
 20
-137.6925428258199
 10
92.87874075369004
 20
-137.6925428258199
 10
92.63913436269091
 20
-137.6925428258199
 10
92.63913436269091
 20
-137.6925428258199
 97
        0
 97
        0
 75
     2
 76
     1
 98
        0
  0
ENDBLK
  5
BB
330
B8
100
AcDbEntity
  8
0
100
AcDbBlockEnd
  0
BLOCK
  5
CC
330
CA
100
AcDbEntity
  8
0
100
AcDbBlockBegin
  2
block 5
 70
     0
 10
0.0
 20
0.0
 30
0.0
  3
block 5
  1

  0
SPLINE
  5
CE
330
CA
100
AcDbEntity
  8
_U+30EC_U+30A4_U+30E4_U+30FC 1
370
     0
100
AcDbSpline
210
0.0
220
0.0
230
1.0
 70
    11
 71
     3
 72
    26
 73
    22
 74
     0
 42
0.0000000001
 43
0.0000000001
 12
1.0
 22
0.0
 32
0.0
 13
1.0
 23
0.0
 33
0.0
 40
0.0
 40
0.0
 40
0.0
 40
0.0
 40
1.0
 40
1.0
 40
1.0
 40
2.0
 40
2.0
 40
2.0
 40
3.0
 40
3.0
 40
3.0
 40
4.0
 40
4.0
 40
4.0
 40
5.0
 40
5.0
 40
5.0
 40
6.0
 40
6.0
 40
6.0
 40
7.0
 40
7.0
 40
7.0
 40
7.0
 10
121.552614986973
 20
-148.0171494855652
 30
0.0
 10
121.552614986973
 20
-148.0171494855652
 30
0.0
 10
121.552614986973
 20
-148.270364003731
 30
0.0
 10
121.552614986973
 20
-148.270364003731
 30
0.0
 10
121.2435899219461
 20
-148.2433200041718
 30
0.0
 10
120.7254475609645
 20
-148.0376478037024
 30
0.0
 10
120.2197075437298
 20
-147.6035657725609
 30
0.0
 10
120.2197075437298
 20
-147.6035657725609
 30
0.0
 10
120.2197075437298
 20
-148.4987738344031
 30
0.0
 10
120.2197075437298
 20
-148.4987738344031
 30
0.0
 10
120.2197075437298
 20
-148.4987738344031
 30
0.0
 10
120.0081786809355
 20
-148.4987738344031
 30
0.0
 10
120.0081786809355
 20
-148.4987738344031
 30
0.0
 10
120.0081786809355
 20
-148.4987738344031
 30
0.0
 10
120.0081786809355
 20
-147.3503512543951
 30
0.0
 10
120.0081786809355
 20
-147.3503512543951
 30
0.0
 10
120.0081786809355
 20
-147.3503512543951
 30
0.0
 10
120.2197075437298
 20
-147.3503512543951
 30
0.0
 10
120.2197075437298
 20
-147.3503512543951
 30
0.0
 10
120.5097845835878
 20
-147.6962388411141
 30
0.0
 10
121.1019964975023
 20
-147.9809759829701
 30
0.0
 10
121.552614986973
 20
-148.0171494855652
 30
0.0
  0
HATCH
  5
CF
330
CA
100
AcDbEntity
  8
_U+30EC_U+30A4_U+30E4_U+30FC 1
 62
   179
420
  2234388
100
AcDbHatch
 10
0.0
 20
0.0
 30
0.0
210
0.0
220
0.0
230
1.0
  2
SOLID
 70
     1
 71
     0
 91
        1
 92
        1
 93
        1
 72
     4
 94
        3
 73
     0
 74
     1
 95
       26
 96
       22
 40
0.0
 40
0.0
 40
0.0
 40
0.0
 40
1.0
 40
1.0
 40
1.0
 40
2.0
 40
2.0
 40
2.0
 40
3.0
 40
3.0
 40
3.0
 40
4.0
 40
4.0
 40
4.0
 40
5.0
 40
5.0
 40
5.0
 40
6.0
 40
6.0
 40
6.0
 40
7.0
 40
7.0
 40
7.0
 40
7.0
 10
121.552614986973
 20
-148.0171494855652
 10
121.552614986973
 20
-148.0171494855652
 10
121.552614986973
 20
-148.270364003731
 10
121.552614986973
 20
-148.270364003731
 10
121.2435899219461
 20
-148.2433200041718
 10
120.7254475609645
 20
-148.0376478037024
 10
120.2197075437298
 20
-147.6035657725609
 10
120.2197075437298
 20
-147.6035657725609
 10
120.2197075437298
 20
-148.4987738344031
 10
120.2197075437298
 20
-148.4987738344031
 10
120.2197075437298
 20
-148.4987738344031
 10
120.0081786809355
 20
-148.4987738344031
 10
120.0081786809355
 20
-148.4987738344031
 10
120.0081786809355
 20
-148.4987738344031
 10
120.0081786809355
 20
-147.3503512543951
 10
120.0081786809355
 20
-147.3503512543951
 10
120.0081786809355
 20
-147.3503512543951
 10
120.2197075437298
 20
-147.3503512543951
 10
120.2197075437298
 20
-147.3503512543951
 10
120.5097845835878
 20
-147.6962388411141
 10
121.1019964975023
 20
-147.9809759829701
 10
121.552614986973
 20
-148.0171494855652
 97
        0
 97
        0
 75
     2
 76
     1
 98
        0
  0
ENDBLK
  5
CD
330
CA
100
AcDbEntity
  8
0
100
AcDbBlockEnd
  0
BLOCK
  5
DE
330
DC
100
AcDbEntity
  8
0
100
AcDbBlockBegin
  2
block 6
 70
     0
 10
0.0
 20
0.0
 30
0.0
  3
block 6
  1

  0
SPLINE
  5
E0
330
DC
100
AcDbEntity
  8
_U+30EC_U+30A4_U+30E4_U+30FC 1
370
     0
100
AcDbSpline
210
0.0
220
0.0
230
1.0
 70
    11
 71
     3
 72
    29
 73
    25
 74
     0
 42
0.0000000001
 43
0.0000000001
 12
1.0
 22
0.0
 32
0.0
 13
1.0
 23
0.0
 33
0.0
 40
0.0
 40
0.0
 40
0.0
 40
0.0
 40
1.0
 40
1.0
 40
1.0
 40
2.0
 40
2.0
 40
2.0
 40
3.0
 40
3.0
 40
3.0
 40
4.0
 40
4.0
 40
4.0
 40
5.0
 40
5.0
 40
5.0
 40
6.0
 40
6.0
 40
6.0
 40
7.0
 40
7.0
 40
7.0
 40
8.0
 40
8.0
 40
8.0
 40
8.0
 10
105.3744465882397
 20
-148.8140000713034
 30
0.0
 10
105.5839083937429
 20
-148.9294107700593
 30
0.0
 10
105.6028564189118
 20
-149.1147569071658
 30
0.0
 10
105.6028564189118
 20
-149.2391248541833
 30
0.0
 10
105.6028564189118
 20
-149.4106906093487
 30
0.0
 10
105.5563476298609
 20
-149.5622748106997
 30
0.0
 10
105.3744465882397
 20
-149.6639051275146
 30
0.0
 10
105.1797986933231
 20
-149.7748372021396
 30
0.0
 10
104.9431206334864
 20
-149.7951632655026
 30
0.0
 10
104.7801676170341
 20
-149.7951632655026
 30
0.0
 10
104.6361626257507
 20
-149.7951632655026
 30
0.0
 10
104.3843261457789
 20
-149.7772487689793
 30
0.0
 10
104.18554413628
 20
-149.6639051275146
 30
0.0
 10
103.9826280121988
 20
-149.5488389383072
 30
0.0
 10
103.9592013628991
 20
-149.3769286735933
 30
0.0
 10
103.9592013628991
 20
-149.2391248541833
 30
0.0
 10
103.9592013628991
 20
-149.0692816467605
 30
0.0
 10
104.0036430946588
 20
-148.9156303881183
 30
0.0
 10
104.18554413628
 20
-148.8140000713034
 30
0.0
 10
104.3781249739055
 20
-148.7075466208092
 30
0.0
 10
104.6065348045775
 20
-148.6827419333154
 30
0.0
 10
104.7801676170341
 20
-148.6827419333154
 30
0.0
 10
104.951388862651
 20
-148.6827419333154
 30
0.0
 10
105.1818657506143
 20
-148.7054795635181
 30
0.0
 10
105.3744465882397
 20
-148.8140000713034
 30
0.0
  0
SPLINE
  5
E1
330
DC
100
AcDbEntity
  8
_U+30EC_U+30A4_U+30E4_U+30FC 1
370
     0
100
AcDbSpline
210
0.0
220
0.0
230
1.0
 70
    11
 71
     3
 72
    17
 73
    13
 74
     0
 42
0.0000000001
 43
0.0000000001
 12
1.0
 22
0.0
 32
0.0
 13
1.0
 23
0.0
 33
0.0
 40
0.0
 40
0.0
 40
0.0
 40
0.0
 40
1.0
 40
1.0
 40
1.0
 40
2.0
 40
2.0
 40
2.0
 40
3.0
 40
3.0
 40
3.0
 40
4.0
 40
4.0
 40
4.0
 40
4.0
 10
104.1517822005246
 20
-149.2391248541833
 30
0.0
 10
104.1517822005246
 20
-149.5057752447416
 30
0.0
 10
104.4353135589606
 20
-149.5553846197292
 30
0.0
 10
104.7801676170341
 20
-149.5553846197292
 30
0.0
 10
105.0995279685168
 20
-149.5553846197292
 30
0.0
 10
105.4082085239952
 20
-149.5171440598429
 30
0.0
 10
105.4082085239952
 20
-149.2391248541833
 30
0.0
 10
105.4082085239952
 20
-148.9745415209161
 30
0.0
 10
105.1270887323988
 20
-148.9225205790888
 30
0.0
 10
104.7801676170341
 20
-148.9225205790888
 30
0.0
 10
104.4604627560029
 20
-148.9225205790888
 30
0.0
 10
104.1517822005246
 20
-148.9631727058148
 30
0.0
 10
104.1517822005246
 20
-149.2391248541833
 30
0.0
  0
HATCH
  5
E2
330
DC
100
AcDbEntity
  8
_U+30EC_U+30A4_U+30E4_U+30FC 1
 62
   179
420
  2234388
100
AcDbHatch
 10
0.0
 20
0.0
 30
0.0
210
0.0
220
0.0
230
1.0
  2
SOLID
 70
     1
 71
     0
 91
        2
 92
        1
 93
        1
 72
     4
 94
        3
 73
     0
 74
     1
 95
       29
 96
       25
 40
0.0
 40
0.0
 40
0.0
 40
0.0
 40
1.0
 40
1.0
 40
1.0
 40
2.0
 40
2.0
 40
2.0
 40
3.0
 40
3.0
 40
3.0
 40
4.0
 40
4.0
 40
4.0
 40
5.0
 40
5.0
 40
5.0
 40
6.0
 40
6.0
 40
6.0
 40
7.0
 40
7.0
 40
7.0
 40
8.0
 40
8.0
 40
8.0
 40
8.0
 10
105.3744465882397
 20
-148.8140000713034
 10
105.5839083937429
 20
-148.9294107700593
 10
105.6028564189118
 20
-149.1147569071658
 10
105.6028564189118
 20
-149.2391248541833
 10
105.6028564189118
 20
-149.4106906093487
 10
105.5563476298609
 20
-149.5622748106997
 10
105.3744465882397
 20
-149.6639051275146
 10
105.1797986933231
 20
-149.7748372021396
 10
104.9431206334864
 20
-149.7951632655026
 10
104.7801676170341
 20
-149.7951632655026
 10
104.6361626257507
 20
-149.7951632655026
 10
104.3843261457789
 20
-149.7772487689793
 10
104.18554413628
 20
-149.6639051275146
 10
103.9826280121988
 20
-149.5488389383072
 10
103.9592013628991
 20
-149.3769286735933
 10
103.9592013628991
 20
-149.2391248541833
 10
103.9592013628991
 20
-149.0692816467605
 10
104.0036430946588
 20
-148.9156303881183
 10
104.18554413628
 20
-148.8140000713034
 10
104.3781249739055
 20
-148.7075466208092
 10
104.6065348045775
 20
-148.6827419333154
 10
104.7801676170341
 20
-148.6827419333154
 10
104.951388862651
 20
-148.6827419333154
 10
105.1818657506143
 20
-148.7054795635181
 10
105.3744465882397
 20
-148.8140000713034
 97
        0
 97
        0
 92
        1
 93
        1
 72
     4
 94
        3
 73
     0
 74
     1
 95
       17
 96
       13
 40
0.0
 40
0.0
 40
0.0
 40
0.0
 40
1.0
 40
1.0
 40
1.0
 40
2.0
 40
2.0
 40
2.0
 40
3.0
 40
3.0
 40
3.0
 40
4.0
 40
4.0
 40
4.0
 40
4.0
 10
104.1517822005246
 20
-149.2391248541833
 10
104.1517822005246
 20
-149.5057752447416
 10
104.4353135589606
 20
-149.5553846197292
 10
104.7801676170341
 20
-149.5553846197292
 10
105.0995279685168
 20
-149.5553846197292
 10
105.4082085239952
 20
-149.5171440598429
 10
105.4082085239952
 20
-149.2391248541833
 10
105.4082085239952
 20
-148.9745415209161
 10
105.1270887323988
 20
-148.9225205790888
 10
104.7801676170341
 20
-148.9225205790888
 10
104.4604627560029
 20
-148.9225205790888
 10
104.1517822005246
 20
-148.9631727058148
 10
104.1517822005246
 20
-149.2391248541833
 97
        0
 97
        0
 75
     2
 76
     1
 98
        0
  0
POLYLINE
  5
E3
330
DC
100
AcDbEntity
  8
_U+30EC_U+30A4_U+30E4_U+30FC 1
370
     0
100
AcDb2dPolyline
 66
     1
 10
0.0
 20
0.0
 30
0.0
  0
VERTEX
  5
E4
330
E3
100
AcDbEntity
  8
_U+30EC_U+30A4_U+30E4_U+30FC 1
370
     0
100
AcDbVertex
100
AcDb2dVertex
 10
105.5522135152786
 20
-148.4515760262552
 30
0.0
  0
VERTEX
  5
E5
330
E3
100
AcDbEntity
  8
_U+30EC_U+30A4_U+30E4_U+30FC 1
370
     0
100
AcDbVertex
100
AcDb2dVertex
 10
105.3003770353069
 20
-148.4515760262552
 30
0.0
  0
VERTEX
  5
E6
330
E3
100
AcDbEntity
  8
_U+30EC_U+30A4_U+30E4_U+30FC 1
370
     0
100
AcDbVertex
100
AcDb2dVertex
 10
105.3003770353069
 20
-148.1825140688572
 30
0.0
  0
VERTEX
  5
E7
330
E3
100
AcDbEntity
  8
_U+30EC_U+30A4_U+30E4_U+30FC 1
370
     0
100
AcDbVertex
100
AcDb2dVertex
 10
105.5522135152786
 20
-148.1825140688572
 30
0.0
  0
VERTEX
  5
E8
330
E3
100
AcDbEntity
  8
_U+30EC_U+30A4_U+30E4_U+30FC 1
370
     0
100
AcDbVertex
100
AcDb2dVertex
 10
105.5522135152786
 20
-148.4515760262552
 30
0.0
  0
SEQEND
  5
E9
330
E3
100
AcDbEntity
  8
_U+30EC_U+30A4_U+30E4_U+30FC 1
370
     0
  0
HATCH
  5
EA
330
DC
100
AcDbEntity
  8
_U+30EC_U+30A4_U+30E4_U+30FC 1
 62
   179
420
  2234388
100
AcDbHatch
 10
0.0
 20
0.0
 30
0.0
210
0.0
220
0.0
230
1.0
  2
SOLID
 70
     1
 71
     0
 91
        1
 92
        1
 93
        4
 72
     1
 10
105.5522135152786
 20
-148.4515760262552
 11
105.3003770353069
 21
-148.4515760262552
 72
     1
 10
105.3003770353069
 20
-148.4515760262552
 11
105.3003770353069
 21
-148.1825140688572
 72
     1
 10
105.3003770353069
 20
-148.1825140688572
 11
105.5522135152786
 21
-148.1825140688572
 72
     1
 10
105.5522135152786
 20
-148.1825140688572
 11
105.5522135152786
 21
-148.4515760262552
 97
        0
 75
     2
 76
     1
 98
        0
  0
SPLINE
  5
EB
330
DC
100
AcDbEntity
  8
_U+30EC_U+30A4_U+30E4_U+30FC 1
370
     0
100
AcDbSpline
210
0.0
220
0.0
230
1.0
 70
    11
 71
     3
 72
    62
 73
    58
 74
     0
 42
0.0000000001
 43
0.0000000001
 12
1.0
 22
0.0
 32
0.0
 13
1.0
 23
0.0
 33
0.0
 40
0.0
 40
0.0
 40
0.0
 40
0.0
 40
1.0
 40
1.0
 40
1.0
 40
2.0
 40
2.0
 40
2.0
 40
3.0
 40
3.0
 40
3.0
 40
4.0
 40
4.0
 40
4.0
 40
5.0
 40
5.0
 40
5.0
 40
6.0
 40
6.0
 40
6.0
 40
7.0
 40
7.0
 40
7.0
 40
8.0
 40
8.0
 40
8.0
 40
9.0
 40
9.0
 40
9.0
 40
10.0
 40
10.0
 40
10.0
 40
11.0
 40
11.0
 40
11.0
 40
12.0
 40
12.0
 40
12.0
 40
13.0
 40
13.0
 40
13.0
 40
14.0
 40
14.0
 40
14.0
 40
15.0
 40
15.0
 40
15.0
 40
16.0
 40
16.0
 40
16.0
 40
17.0
 40
17.0
 40
17.0
 40
18.0
 40
18.0
 40
18.0
 40
19.0
 40
19.0
 40
19.0
 40
19.0
 10
105.6028564189118
 20
-147.4042669987392
 30
0.0
 10
105.6028564189118
 20
-147.5058973155541
 30
0.0
 10
105.5818413364518
 20
-147.738785770357
 30
0.0
 10
105.3958061802483
 20
-147.8721109656362
 30
0.0
 10
105.2834960674291
 20
-147.9513481617969
 30
0.0
 10
105.1842773174539
 20
-147.9558267859277
 30
0.0
 10
105.0995279685168
 20
-147.9603054100585
 30
0.0
 10
105.0995279685168
 20
-147.9603054100585
 30
0.0
 10
105.0995279685168
 20
-147.7253498979645
 30
0.0
 10
105.0995279685168
 20
-147.7253498979645
 30
0.0
 10
105.1735975214497
 20
-147.7229383311248
 30
0.0
 10
105.4082085239952
 20
-147.7115695160235
 30
0.0
 10
105.4082085239952
 20
-147.40874562287
 30
0.0
 10
105.4082085239952
 20
-147.2616400456499
 30
0.0
 10
105.3386175951931
 20
-147.0990315387461
 30
0.0
 10
105.1102077645211
 20
-147.0990315387461
 30
0.0
 10
104.9937635371196
 20
-147.0990315387461
 30
0.0
 10
104.9451876907776
 20
-147.139683665472
 30
0.0
 10
104.9134928123133
 20
-147.1734456012275
 30
0.0
 10
104.8394232593804
 20
-147.2526827973882
 30
0.0
 10
104.826676406085
 20
-147.3770507444058
 30
0.0
 10
104.826676406085
 20
-147.4359618772035
 30
0.0
 10
104.826676406085
 20
-147.4562879405665
 30
0.0
 10
104.8287434633762
 20
-147.4945285004528
 30
0.0
 10
104.8328775779585
 20
-147.5241563216259
 30
0.0
 10
104.8328775779585
 20
-147.5241563216259
 30
0.0
 10
104.6382296830418
 20
-147.5241563216259
 30
0.0
 10
104.6382296830418
 20
-147.5241563216259
 30
0.0
 10
104.6447753644638
 20
-147.4835041949
 30
0.0
 10
104.646842421755
 20
-147.4380289344947
 30
0.0
 10
104.646842421755
 20
-147.4314832530727
 30
0.0
 10
104.646842421755
 20
-147.3612033051736
 30
0.0
 10
104.6254828297464
 20
-147.1486409137337
 30
0.0
 10
104.3888047699098
 20
-147.1486409137337
 30
0.0
 10
104.2110378428709
 20
-147.1486409137337
 30
0.0
 10
104.1559163151069
 20
-147.2888562999833
 30
0.0
 10
104.1559163151069
 20
-147.4063340560304
 30
0.0
 10
104.1559163151069
 20
-147.6891763953694
 30
0.0
 10
104.3888047699098
 20
-147.698133643631
 30
0.0
 10
104.4604627560029
 20
-147.7026122677619
 30
0.0
 10
104.4604627560029
 20
-147.7026122677619
 30
0.0
 10
104.4604627560029
 20
-147.9196532833326
 30
0.0
 10
104.4604627560029
 20
-147.9196532833326
 30
0.0
 10
104.3357502994369
 20
-147.9106960350709
 30
0.0
 10
103.9592013628991
 20
-147.8814127234463
 30
0.0
 10
103.9592013628991
 20
-147.3928981836379
 30
0.0
 10
103.9592013628991
 20
-147.1531195378645
 30
0.0
 10
104.0863253863048
 20
-146.8954263955678
 30
0.0
 10
104.3822590884878
 20
-146.8954263955678
 30
0.0
 10
104.5686387542398
 20
-146.8954263955678
 30
0.0
 10
104.6509765363373
 20
-146.9974012219312
 30
0.0
 10
104.7122992359747
 20
-147.1035101628769
 30
0.0
 10
104.7398599998567
 20
-147.0380533486572
 30
0.0
 10
104.820130724663
 20
-146.8434054537405
 30
0.0
 10
105.0974609112256
 20
-146.8434054537405
 30
0.0
 10
105.4357692878772
 20
-146.8434054537405
 30
0.0
 10
105.6028564189118
 20
-147.1079887870077
 30
0.0
 10
105.6028564189118
 20
-147.4042669987392
 30
0.0
  0
HATCH
  5
EC
330
DC
100
AcDbEntity
  8
_U+30EC_U+30A4_U+30E4_U+30FC 1
 62
   179
420
  2234388
100
AcDbHatch
 10
0.0
 20
0.0
 30
0.0
210
0.0
220
0.0
230
1.0
  2
SOLID
 70
     1
 71
     0
 91
        1
 92
        1
 93
        1
 72
     4
 94
        3
 73
     0
 74
     1
 95
       62
 96
       58
 40
0.0
 40
0.0
 40
0.0
 40
0.0
 40
1.0
 40
1.0
 40
1.0
 40
2.0
 40
2.0
 40
2.0
 40
3.0
 40
3.0
 40
3.0
 40
4.0
 40
4.0
 40
4.0
 40
5.0
 40
5.0
 40
5.0
 40
6.0
 40
6.0
 40
6.0
 40
7.0
 40
7.0
 40
7.0
 40
8.0
 40
8.0
 40
8.0
 40
9.0
 40
9.0
 40
9.0
 40
10.0
 40
10.0
 40
10.0
 40
11.0
 40
11.0
 40
11.0
 40
12.0
 40
12.0
 40
12.0
 40
13.0
 40
13.0
 40
13.0
 40
14.0
 40
14.0
 40
14.0
 40
15.0
 40
15.0
 40
15.0
 40
16.0
 40
16.0
 40
16.0
 40
17.0
 40
17.0
 40
17.0
 40
18.0
 40
18.0
 40
18.0
 40
19.0
 40
19.0
 40
19.0
 40
19.0
 10
105.6028564189118
 20
-147.4042669987392
 10
105.6028564189118
 20
-147.5058973155541
 10
105.5818413364518
 20
-147.738785770357
 10
105.3958061802483
 20
-147.8721109656362
 10
105.2834960674291
 20
-147.9513481617969
 10
105.1842773174539
 20
-147.9558267859277
 10
105.0995279685168
 20
-147.9603054100585
 10
105.0995279685168
 20
-147.9603054100585
 10
105.0995279685168
 20
-147.7253498979645
 10
105.0995279685168
 20
-147.7253498979645
 10
105.1735975214497
 20
-147.7229383311248
 10
105.4082085239952
 20
-147.7115695160235
 10
105.4082085239952
 20
-147.40874562287
 10
105.4082085239952
 20
-147.2616400456499
 10
105.3386175951931
 20
-147.0990315387461
 10
105.1102077645211
 20
-147.0990315387461
 10
104.9937635371196
 20
-147.0990315387461
 10
104.9451876907776
 20
-147.139683665472
 10
104.9134928123133
 20
-147.1734456012275
 10
104.8394232593804
 20
-147.2526827973882
 10
104.826676406085
 20
-147.3770507444058
 10
104.826676406085
 20
-147.4359618772035
 10
104.826676406085
 20
-147.4562879405665
 10
104.8287434633762
 20
-147.4945285004528
 10
104.8328775779585
 20
-147.5241563216259
 10
104.8328775779585
 20
-147.5241563216259
 10
104.6382296830418
 20
-147.5241563216259
 10
104.6382296830418
 20
-147.5241563216259
 10
104.6447753644638
 20
-147.4835041949
 10
104.646842421755
 20
-147.4380289344947
 10
104.646842421755
 20
-147.4314832530727
 10
104.646842421755
 20
-147.3612033051736
 10
104.6254828297464
 20
-147.1486409137337
 10
104.3888047699098
 20
-147.1486409137337
 10
104.2110378428709
 20
-147.1486409137337
 10
104.1559163151069
 20
-147.2888562999833
 10
104.1559163151069
 20
-147.4063340560304
 10
104.1559163151069
 20
-147.6891763953694
 10
104.3888047699098
 20
-147.698133643631
 10
104.4604627560029
 20
-147.7026122677619
 10
104.4604627560029
 20
-147.7026122677619
 10
104.4604627560029
 20
-147.9196532833326
 10
104.4604627560029
 20
-147.9196532833326
 10
104.3357502994369
 20
-147.9106960350709
 10
103.9592013628991
 20
-147.8814127234463
 10
103.9592013628991
 20
-147.3928981836379
 10
103.9592013628991
 20
-147.1531195378645
 10
104.0863253863048
 20
-146.8954263955678
 10
104.3822590884878
 20
-146.8954263955678
 10
104.5686387542398
 20
-146.8954263955678
 10
104.6509765363373
 20
-146.9974012219312
 10
104.7122992359747
 20
-147.1035101628769
 10
104.7398599998567
 20
-147.0380533486572
 10
104.820130724663
 20
-146.8434054537405
 10
105.0974609112256
 20
-146.8434054537405
 10
105.4357692878772
 20
-146.8434054537405
 10
105.6028564189118
 20
-147.1079887870077
 10
105.6028564189118
 20
-147.4042669987392
 97
        0
 97
        0
 75
     2
 76
     1
 98
        0
  0
ENDBLK
  5
DF
330
DC
100
AcDbEntity
  8
0
100
AcDbBlockEnd
  0
BLOCK
  5
FB
330
F9
100
AcDbEntity
  8
0
100
AcDbBlockBegin
  2
block 7
 70
     0
 10
0.0
 20
0.0
 30
0.0
  3
block 7
  1

  0
SPLINE
  5
FD
330
F9
100
AcDbEntity
  8
_U+30EC_U+30A4_U+30E4_U+30FC 1
370
     0
100
AcDbSpline
210
0.0
220
0.0
230
1.0
 70
    11
 71
     3
 72
    53
 73
    49
 74
     0
 42
0.0000000001
 43
0.0000000001
 12
1.0
 22
0.0
 32
0.0
 13
1.0
 23
0.0
 33
0.0
 40
0.0
 40
0.0
 40
0.0
 40
0.0
 40
1.0
 40
1.0
 40
1.0
 40
2.0
 40
2.0
 40
2.0
 40
3.0
 40
3.0
 40
3.0
 40
4.0
 40
4.0
 40
4.0
 40
5.0
 40
5.0
 40
5.0
 40
6.0
 40
6.0
 40
6.0
 40
7.0
 40
7.0
 40
7.0
 40
8.0
 40
8.0
 40
8.0
 40
9.0
 40
9.0
 40
9.0
 40
10.0
 40
10.0
 40
10.0
 40
11.0
 40
11.0
 40
11.0
 40
12.0
 40
12.0
 40
12.0
 40
13.0
 40
13.0
 40
13.0
 40
14.0
 40
14.0
 40
14.0
 40
15.0
 40
15.0
 40
15.0
 40
16.0
 40
16.0
 40
16.0
 40
16.0
 10
94.66622854621193
 20
-156.1151909331934
 30
0.0
 10
94.58251272592035
 20
-156.1151909331934
 30
0.0
 10
94.47399221813498
 20
-156.0983099653157
 30
0.0
 10
94.36547171034961
 20
-156.0349202083871
 30
0.0
 10
94.18012557324317
 20
-155.9250216624076
 30
0.0
 10
94.15756019781477
 20
-155.7937635244196
 30
0.0
 10
94.13706187967755
 20
-155.6859320357313
 30
0.0
 10
94.13706187967755
 20
-155.6859320357313
 30
0.0
 10
94.37460121338552
 20
-155.6859320357313
 30
0.0
 10
94.37460121338552
 20
-155.6859320357313
 30
0.0
 10
94.43334009140904
 20
-155.8847140452302
 30
0.0
 10
94.5689045987536
 20
-155.9143418664034
 30
0.0
 10
94.66846785827734
 20
-155.9143418664034
 30
0.0
 10
94.81764049278866
 20
-155.9143418664034
 30
0.0
 10
94.9804212544667
 20
-155.8147786068797
 30
0.0
 10
94.9804212544667
 20
-155.5822346616253
 30
0.0
 10
94.9804212544667
 20
-155.3262640670712
 30
0.0
 10
94.78818492638976
 20
-155.2563286287206
 30
0.0
 10
94.65933835524142
 20
-155.2563286287206
 30
0.0
 10
94.62540416471171
 20
-155.2563286287206
 30
0.0
 10
94.47399221813498
 20
-155.2563286287206
 30
0.0
 10
94.37907983751634
 20
-155.3855197094175
 30
0.0
 10
94.37907983751634
 20
-155.3855197094175
 30
0.0
 10
94.19132213357022
 20
-155.3665716842486
 30
0.0
 10
94.19132213357022
 20
-155.3665716842486
 30
0.0
 10
94.19132213357022
 20
-155.3665716842486
 30
0.0
 10
94.32016870471857
 20
-154.5201117235227
 30
0.0
 10
94.32016870471857
 20
-154.5201117235227
 30
0.0
 10
94.32016870471857
 20
-154.5201117235227
 30
0.0
 10
95.15215926440641
 20
-154.5201117235227
 30
0.0
 10
95.15215926440641
 20
-154.5201117235227
 30
0.0
 10
95.15215926440641
 20
-154.5201117235227
 30
0.0
 10
95.15215926440641
 20
-154.7147596184394
 30
0.0
 10
95.15215926440641
 20
-154.7147596184394
 30
0.0
 10
95.15215926440641
 20
-154.7147596184394
 30
0.0
 10
94.49431828149795
 20
-154.7147596184394
 30
0.0
 10
94.49431828149795
 20
-154.7147596184394
 30
0.0
 10
94.49431828149795
 20
-154.7147596184394
 30
0.0
 10
94.42421058837311
 20
-155.1378173440281
 30
0.0
 10
94.42421058837311
 20
-155.1378173440281
 30
0.0
 10
94.48983965736713
 20
-155.1040554082726
 30
0.0
 10
94.57803410178953
 20
-155.0637477910952
 30
0.0
 10
94.70464136087246
 20
-155.0637477910952
 30
0.0
 10
94.97594263033588
 20
-155.0637477910952
 30
0.0
 10
95.22915714850174
 20
-155.2501274568472
 30
0.0
 10
95.22915714850174
 20
-155.5632866364564
 30
0.0
 10
95.22915714850174
 20
-155.8805799306479
 30
0.0
 10
94.98955075750261
 20
-156.1151909331934
 30
0.0
 10
94.66622854621193
 20
-156.1151909331934
 30
0.0
  0
HATCH
  5
FE
330
F9
100
AcDbEntity
  8
_U+30EC_U+30A4_U+30E4_U+30FC 1
 62
   179
420
  2234388
100
AcDbHatch
 10
0.0
 20
0.0
 30
0.0
210
0.0
220
0.0
230
1.0
  2
SOLID
 70
     1
 71
     0
 91
        1
 92
        1
 93
        1
 72
     4
 94
        3
 73
     0
 74
     1
 95
       53
 96
       49
 40
0.0
 40
0.0
 40
0.0
 40
0.0
 40
1.0
 40
1.0
 40
1.0
 40
2.0
 40
2.0
 40
2.0
 40
3.0
 40
3.0
 40
3.0
 40
4.0
 40
4.0
 40
4.0
 40
5.0
 40
5.0
 40
5.0
 40
6.0
 40
6.0
 40
6.0
 40
7.0
 40
7.0
 40
7.0
 40
8.0
 40
8.0
 40
8.0
 40
9.0
 40
9.0
 40
9.0
 40
10.0
 40
10.0
 40
10.0
 40
11.0
 40
11.0
 40
11.0
 40
12.0
 40
12.0
 40
12.0
 40
13.0
 40
13.0
 40
13.0
 40
14.0
 40
14.0
 40
14.0
 40
15.0
 40
15.0
 40
15.0
 40
16.0
 40
16.0
 40
16.0
 40
16.0
 10
94.66622854621193
 20
-156.1151909331934
 10
94.58251272592035
 20
-156.1151909331934
 10
94.47399221813498
 20
-156.0983099653157
 10
94.36547171034961
 20
-156.0349202083871
 10
94.18012557324317
 20
-155.9250216624076
 10
94.15756019781477
 20
-155.7937635244196
 10
94.13706187967755
 20
-155.6859320357313
 10
94.13706187967755
 20
-155.6859320357313
 10
94.37460121338552
 20
-155.6859320357313
 10
94.37460121338552
 20
-155.6859320357313
 10
94.43334009140904
 20
-155.8847140452302
 10
94.5689045987536
 20
-155.9143418664034
 10
94.66846785827734
 20
-155.9143418664034
 10
94.81764049278866
 20
-155.9143418664034
 10
94.9804212544667
 20
-155.8147786068797
 10
94.9804212544667
 20
-155.5822346616253
 10
94.9804212544667
 20
-155.3262640670712
 10
94.78818492638976
 20
-155.2563286287206
 10
94.65933835524142
 20
-155.2563286287206
 10
94.62540416471171
 20
-155.2563286287206
 10
94.47399221813498
 20
-155.2563286287206
 10
94.37907983751634
 20
-155.3855197094175
 10
94.37907983751634
 20
-155.3855197094175
 10
94.19132213357022
 20
-155.3665716842486
 10
94.19132213357022
 20
-155.3665716842486
 10
94.19132213357022
 20
-155.3665716842486
 10
94.32016870471857
 20
-154.5201117235227
 10
94.32016870471857
 20
-154.5201117235227
 10
94.32016870471857
 20
-154.5201117235227
 10
95.15215926440641
 20
-154.5201117235227
 10
95.15215926440641
 20
-154.5201117235227
 10
95.15215926440641
 20
-154.5201117235227
 10
95.15215926440641
 20
-154.7147596184394
 10
95.15215926440641
 20
-154.7147596184394
 10
95.15215926440641
 20
-154.7147596184394
 10
94.49431828149795
 20
-154.7147596184394
 10
94.49431828149795
 20
-154.7147596184394
 10
94.49431828149795
 20
-154.7147596184394
 10
94.42421058837311
 20
-155.1378173440281
 10
94.42421058837311
 20
-155.1378173440281
 10
94.48983965736713
 20
-155.1040554082726
 10
94.57803410178953
 20
-155.0637477910952
 10
94.70464136087246
 20
-155.0637477910952
 10
94.97594263033588
 20
-155.0637477910952
 10
95.22915714850174
 20
-155.2501274568472
 10
95.22915714850174
 20
-155.5632866364564
 10
95.22915714850174
 20
-155.8805799306479
 10
94.98955075750261
 20
-156.1151909331934
 10
94.66622854621193
 20
-156.1151909331934
 97
        0
 97
        0
 75
     2
 76
     1
 98
        0
  0
ENDBLK
  5
FC
330
F9
100
AcDbEntity
  8
0
100
AcDbBlockEnd
  0
BLOCK
  5
10D
330
10B
100
AcDbEntity
  8
0
100
AcDbBlockBegin
  2
block 8
 70
     0
 10
0.0
 20
0.0
 30
0.0
  3
block 8
  1

  0
SPLINE
  5
10F
330
10B
100
AcDbEntity
  8
_U+30EC_U+30A4_U+30E4_U+30FC 1
370
     0
100
AcDbSpline
210
0.0
220
0.0
230
1.0
 70
    11
 71
     3
 72
    26
 73
    22
 74
     0
 42
0.0000000001
 43
0.0000000001
 12
1.0
 22
0.0
 32
0.0
 13
1.0
 23
0.0
 33
0.0
 40
0.0
 40
0.0
 40
0.0
 40
0.0
 40
1.0
 40
1.0
 40
1.0
 40
2.0
 40
2.0
 40
2.0
 40
3.0
 40
3.0
 40
3.0
 40
4.0
 40
4.0
 40
4.0
 40
5.0
 40
5.0
 40
5.0
 40
6.0
 40
6.0
 40
6.0
 40
7.0
 40
7.0
 40
7.0
 40
7.0
 10
96.47266436390267
 20
-160.0639593783868
 30
0.0
 10
96.47266436390267
 20
-160.0639593783868
 30
0.0
 10
96.47266436390267
 20
-158.9598062753642
 30
0.0
 10
96.47266436390267
 20
-158.9598062753642
 30
0.0
 10
96.47266436390267
 20
-158.9598062753642
 30
0.0
 10
96.12023109576161
 20
-158.9598062753642
 30
0.0
 10
96.12023109576161
 20
-158.9598062753642
 30
0.0
 10
96.12023109576161
 20
-158.9598062753642
 30
0.0
 10
96.12023109576161
 20
-158.8116671694985
 30
0.0
 10
96.12023109576161
 20
-158.8116671694985
 30
0.0
 10
96.47507593074235
 20
-158.7968532589119
 30
0.0
 10
96.52468530572995
 20
-158.6339002424596
 30
0.0
 10
96.55638018419424
 20
-158.5195230723493
 30
0.0
 10
96.55638018419424
 20
-158.5195230723493
 30
0.0
 10
96.71244300967606
 20
-158.5195230723493
 30
0.0
 10
96.71244300967606
 20
-158.5195230723493
 30
0.0
 10
96.71244300967606
 20
-158.5195230723493
 30
0.0
 10
96.71244300967606
 20
-160.0639593783868
 30
0.0
 10
96.71244300967606
 20
-160.0639593783868
 30
0.0
 10
96.71244300967606
 20
-160.0639593783868
 30
0.0
 10
96.47266436390267
 20
-160.0639593783868
 30
0.0
 10
96.47266436390267
 20
-160.0639593783868
 30
0.0
  0
HATCH
  5
110
330
10B
100
AcDbEntity
  8
_U+30EC_U+30A4_U+30E4_U+30FC 1
 62
   179
420
  2234388
100
AcDbHatch
 10
0.0
 20
0.0
 30
0.0
210
0.0
220
0.0
230
1.0
  2
SOLID
 70
     1
 71
     0
 91
        1
 92
        1
 93
        1
 72
     4
 94
        3
 73
     0
 74
     1
 95
       26
 96
       22
 40
0.0
 40
0.0
 40
0.0
 40
0.0
 40
1.0
 40
1.0
 40
1.0
 40
2.0
 40
2.0
 40
2.0
 40
3.0
 40
3.0
 40
3.0
 40
4.0
 40
4.0
 40
4.0
 40
5.0
 40
5.0
 40
5.0
 40
6.0
 40
6.0
 40
6.0
 40
7.0
 40
7.0
 40
7.0
 40
7.0
 10
96.47266436390267
 20
-160.0639593783868
 10
96.47266436390267
 20
-160.0639593783868
 10
96.47266436390267
 20
-158.9598062753642
 10
96.47266436390267
 20
-158.9598062753642
 10
96.47266436390267
 20
-158.9598062753642
 10
96.12023109576161
 20
-158.9598062753642
 10
96.12023109576161
 20
-158.9598062753642
 10
96.12023109576161
 20
-158.9598062753642
 10
96.12023109576161
 20
-158.8116671694985
 10
96.12023109576161
 20
-158.8116671694985
 10
96.47507593074235
 20
-158.7968532589119
 10
96.52468530572995
 20
-158.6339002424596
 10
96.55638018419424
 20
-158.5195230723493
 10
96.55638018419424
 20
-158.5195230723493
 10
96.71244300967606
 20
-158.5195230723493
 10
96.71244300967606
 20
-158.5195230723493
 10
96.71244300967606
 20
-158.5195230723493
 10
96.71244300967606
 20
-160.0639593783868
 10
96.71244300967606
 20
-160.0639593783868
 10
96.71244300967606
 20
-160.0639593783868
 10
96.47266436390267
 20
-160.0639593783868
 10
96.47266436390267
 20
-160.0639593783868
 97
        0
 97
        0
 75
     2
 76
     1
 98
        0
  0
SPLINE
  5
111
330
10B
100
AcDbEntity
  8
_U+30EC_U+30A4_U+30E4_U+30FC 1
370
     0
100
AcDbSpline
210
0.0
220
0.0
230
1.0
 70
    11
 71
     3
 72
    29
 73
    25
 74
     0
 42
0.0000000001
 43
0.0000000001
 12
1.0
 22
0.0
 32
0.0
 13
1.0
 23
0.0
 33
0.0
 40
0.0
 40
0.0
 40
0.0
 40
0.0
 40
1.0
 40
1.0
 40
1.0
 40
2.0
 40
2.0
 40
2.0
 40
3.0
 40
3.0
 40
3.0
 40
4.0
 40
4.0
 40
4.0
 40
5.0
 40
5.0
 40
5.0
 40
6.0
 40
6.0
 40
6.0
 40
7.0
 40
7.0
 40
7.0
 40
8.0
 40
8.0
 40
8.0
 40
8.0
 10
98.20761445027449
 20
-159.8861924513479
 30
0.0
 10
98.09220375151862
 20
-160.0956542568511
 30
0.0
 10
97.90685761441217
 20
-160.11460228202
 30
0.0
 10
97.78248966739466
 20
-160.11460228202
 30
0.0
 10
97.61092391222921
 20
-160.11460228202
 30
0.0
 10
97.45933971087823
 20
-160.0680934929691
 30
0.0
 10
97.35770939406335
 20
-159.8861924513479
 30
0.0
 10
97.24677731943831
 20
-159.6915445564313
 30
0.0
 10
97.22645125607534
 20
-159.4545219870461
 30
0.0
 10
97.22645125607534
 20
-159.2919134801423
 30
0.0
 10
97.22645125607534
 20
-159.1479084888589
 30
0.0
 10
97.24471026214717
 20
-158.8960720088871
 30
0.0
 10
97.35770939406335
 20
-158.6972899993882
 30
0.0
 10
97.4727755832707
 20
-158.494373875307
 30
0.0
 10
97.64468584798466
 20
-158.4709472260073
 30
0.0
 10
97.78248966739466
 20
-158.4709472260073
 30
0.0
 10
97.95233287481747
 20
-158.4709472260073
 30
0.0
 10
98.10598413345961
 20
-158.515388957767
 30
0.0
 10
98.20761445027449
 20
-158.6972899993882
 30
0.0
 10
98.3140679007687
 20
-158.8898708370137
 30
0.0
 10
98.3388725882625
 20
-159.1182806676857
 30
0.0
 10
98.3388725882625
 20
-159.2919134801423
 30
0.0
 10
98.3388725882625
 20
-159.4631347257592
 30
0.0
 10
98.31613495805986
 20
-159.6936116137224
 30
0.0
 10
98.20761445027449
 20
-159.8861924513479
 30
0.0
  0
SPLINE
  5
112
330
10B
100
AcDbEntity
  8
_U+30EC_U+30A4_U+30E4_U+30FC 1
370
     0
100
AcDbSpline
210
0.0
220
0.0
230
1.0
 70
    11
 71
     3
 72
    17
 73
    13
 74
     0
 42
0.0000000001
 43
0.0000000001
 12
1.0
 22
0.0
 32
0.0
 13
1.0
 23
0.0
 33
0.0
 40
0.0
 40
0.0
 40
0.0
 40
0.0
 40
1.0
 40
1.0
 40
1.0
 40
2.0
 40
2.0
 40
2.0
 40
3.0
 40
3.0
 40
3.0
 40
4.0
 40
4.0
 40
4.0
 40
4.0
 10
97.78248966739466
 20
-158.6635280636327
 30
0.0
 10
97.51583927683632
 20
-158.6635280636327
 30
0.0
 10
97.46622990184872
 20
-158.9470594220688
 30
0.0
 10
97.46622990184872
 20
-159.2919134801423
 30
0.0
 10
97.46622990184872
 20
-159.611273831625
 30
0.0
 10
97.504470461735
 20
-159.9199543871034
 30
0.0
 10
97.78248966739466
 20
-159.9199543871034
 30
0.0
 10
98.04707300066185
 20
-159.9199543871034
 30
0.0
 10
98.09909394248912
 20
-159.638834595507
 30
0.0
 10
98.09909394248912
 20
-159.2919134801423
 30
0.0
 10
98.09909394248912
 20
-158.9722086191111
 30
0.0
 10
98.05844181576317
 20
-158.6635280636327
 30
0.0
 10
97.78248966739466
 20
-158.6635280636327
 30
0.0
  0
HATCH
  5
113
330
10B
100
AcDbEntity
  8
_U+30EC_U+30A4_U+30E4_U+30FC 1
 62
   179
420
  2234388
100
AcDbHatch
 10
0.0
 20
0.0
 30
0.0
210
0.0
220
0.0
230
1.0
  2
SOLID
 70
     1
 71
     0
 91
        2
 92
        1
 93
        1
 72
     4
 94
        3
 73
     0
 74
     1
 95
       29
 96
       25
 40
0.0
 40
0.0
 40
0.0
 40
0.0
 40
1.0
 40
1.0
 40
1.0
 40
2.0
 40
2.0
 40
2.0
 40
3.0
 40
3.0
 40
3.0
 40
4.0
 40
4.0
 40
4.0
 40
5.0
 40
5.0
 40
5.0
 40
6.0
 40
6.0
 40
6.0
 40
7.0
 40
7.0
 40
7.0
 40
8.0
 40
8.0
 40
8.0
 40
8.0
 10
98.20761445027449
 20
-159.8861924513479
 10
98.09220375151862
 20
-160.0956542568511
 10
97.90685761441217
 20
-160.11460228202
 10
97.78248966739466
 20
-160.11460228202
 10
97.61092391222921
 20
-160.11460228202
 10
97.45933971087823
 20
-160.0680934929691
 10
97.35770939406335
 20
-159.8861924513479
 10
97.24677731943831
 20
-159.6915445564313
 10
97.22645125607534
 20
-159.4545219870461
 10
97.22645125607534
 20
-159.2919134801423
 10
97.22645125607534
 20
-159.1479084888589
 10
97.24471026214717
 20
-158.8960720088871
 10
97.35770939406335
 20
-158.6972899993882
 10
97.4727755832707
 20
-158.494373875307
 10
97.64468584798466
 20
-158.4709472260073
 10
97.78248966739466
 20
-158.4709472260073
 10
97.95233287481747
 20
-158.4709472260073
 10
98.10598413345961
 20
-158.515388957767
 10
98.20761445027449
 20
-158.6972899993882
 10
98.3140679007687
 20
-158.8898708370137
 10
98.3388725882625
 20
-159.1182806676857
 10
98.3388725882625
 20
-159.2919134801423
 10
98.3388725882625
 20
-159.4631347257592
 10
98.31613495805986
 20
-159.6936116137224
 10
98.20761445027449
 20
-159.8861924513479
 97
        0
 97
        0
 92
        1
 93
        1
 72
     4
 94
        3
 73
     0
 74
     1
 95
       17
 96
       13
 40
0.0
 40
0.0
 40
0.0
 40
0.0
 40
1.0
 40
1.0
 40
1.0
 40
2.0
 40
2.0
 40
2.0
 40
3.0
 40
3.0
 40
3.0
 40
4.0
 40
4.0
 40
4.0
 40
4.0
 10
97.78248966739466
 20
-158.6635280636327
 10
97.51583927683632
 20
-158.6635280636327
 10
97.46622990184872
 20
-158.9470594220688
 10
97.46622990184872
 20
-159.2919134801423
 10
97.46622990184872
 20
-159.611273831625
 10
97.504470461735
 20
-159.9199543871034
 10
97.78248966739466
 20
-159.9199543871034
 10
98.04707300066185
 20
-159.9199543871034
 10
98.09909394248912
 20
-159.638834595507
 10
98.09909394248912
 20
-159.2919134801423
 10
98.09909394248912
 20
-158.9722086191111
 10
98.05844181576317
 20
-158.6635280636327
 10
97.78248966739466
 20
-158.6635280636327
 97
        0
 97
        0
 75
     2
 76
     1
 98
        0
  0
ENDBLK
  5
10E
330
10B
100
AcDbEntity
  8
0
100
AcDbBlockEnd
  0
BLOCK
  5
116
330
114
100
AcDbEntity
  8
0
100
AcDbBlockBegin
  2
block 9
 70
     0
 10
0.0
 20
0.0
 30
0.0
  3
block 9
  1

  0
SPLINE
  5
118
330
114
100
AcDbEntity
  8
_U+30EC_U+30A4_U+30E4_U+30FC 1
 62
   179
420
  2234388
370
     9
100
AcDbSpline
210
0.0
220
0.0
230
1.0
 70
    11
 71
     3
 72
    17
 73
    13
 74
     0
 42
0.0000000001
 43
0.0000000001
 12
1.0
 22
0.0
 32
0.0
 13
1.0
 23
0.0
 33
0.0
 40
0.0
 40
0.0
 40
0.0
 40
0.0
 40
1.0
 40
1.0
 40
1.0
 40
2.0
 40
2.0
 40
2.0
 40
3.0
 40
3.0
 40
3.0
 40
4.0
 40
4.0
 40
4.0
 40
4.0
 10
122.2488563256163
 20
-143.465161908578
 30
0.0
 10
122.2488563256163
 20
-143.4100227419252
 30
0.0
 10
122.2040888267584
 20
-143.3652199641589
 30
0.0
 10
122.1489527472405
 20
-143.3652199641589
 30
0.0
 10
122.0934929962466
 20
-143.3652199641589
 30
0.0
 10
122.0486902196118
 20
-143.4100227419252
 30
0.0
 10
122.0486902196118
 20
-143.465161908578
 30
0.0
 10
122.0486902196118
 20
-143.5202657974532
 30
0.0
 10
122.0934929962466
 20
-143.56506857522
 30
0.0
 10
122.1489527472405
 20
-143.56506857522
 30
0.0
 10
122.2040888267584
 20
-143.56506857522
 30
0.0
 10
122.2488563256163
 20
-143.5202657974532
 30
0.0
 10
122.2488563256163
 20
-143.465161908578
 30
0.0
  0
POLYLINE
  5
119
330
114
100
AcDbEntity
  8
_U+30EC_U+30A4_U+30E4_U+30FC 1
 62
   179
420
  2234388
370
     9
100
AcDb2dPolyline
 66
     1
 10
0.0
 20
0.0
 30
0.0
  0
VERTEX
  5
11A
330
119
100
AcDbEntity
  8
_U+30EC_U+30A4_U+30E4_U+30FC 1
 62
   179
420
  2234388
370
     9
100
AcDbVertex
100
AcDb2dVertex
 10
122.1489527472405
 20
-143.465161908578
 30
0.0
  0
VERTEX
  5
11B
330
119
100
AcDbEntity
  8
_U+30EC_U+30A4_U+30E4_U+30FC 1
 62
   179
420
  2234388
370
     9
100
AcDbVertex
100
AcDb2dVertex
 10
122.1489527472405
 20
-139.6948494095206
 30
0.0
  0
SEQEND
  5
11C
330
119
100
AcDbEntity
  8
_U+30EC_U+30A4_U+30E4_U+30FC 1
 62
   179
420
  2234388
370
     9
  0
POLYLINE
  5
11D
330
114
100
AcDbEntity
  8
_U+30EC_U+30A4_U+30E4_U+30FC 1
 62
   179
420
  2234388
370
     9
100
AcDb2dPolyline
 66
     1
 10
0.0
 20
0.0
 30
0.0
  0
VERTEX
  5
11E
330
11D
100
AcDbEntity
  8
_U+30EC_U+30A4_U+30E4_U+30FC 1
 62
   179
420
  2234388
370
     9
100
AcDbVertex
100
AcDb2dVertex
 10
122.1489527472405
 20
-143.465161908578
 30
0.0
  0
VERTEX
  5
11F
330
11D
100
AcDbEntity
  8
_U+30EC_U+30A4_U+30E4_U+30FC 1
 62
   179
420
  2234388
370
     9
100
AcDbVertex
100
AcDb2dVertex
 10
122.1489527472405
 20
-144.4648988527727
 30
0.0
  0
SEQEND
  5
120
330
11D
100
AcDbEntity
  8
_U+30EC_U+30A4_U+30E4_U+30FC 1
 62
   179
420
  2234388
370
     9
  0
POLYLINE
  5
121
330
114
100
AcDbEntity
  8
_U+30EC_U+30A4_U+30E4_U+30FC 1
 62
   179
420
  2234388
370
     9
100
AcDb2dPolyline
 66
     1
 10
0.0
 20
0.0
 30
0.0
  0
VERTEX
  5
122
330
121
100
AcDbEntity
  8
_U+30EC_U+30A4_U+30E4_U+30FC 1
 62
   179
420
  2234388
370
     9
100
AcDbVertex
100
AcDb2dVertex
 10
120.6889435876352
 20
-143.465161908578
 30
0.0
  0
VERTEX
  5
123
330
121
100
AcDbEntity
  8
_U+30EC_U+30A4_U+30E4_U+30FC 1
 62
   179
420
  2234388
370
     9
100
AcDbVertex
100
AcDb2dVertex
 10
123.148724969213
 20
-143.465161908578
 30
0.0
  0
SEQEND
  5
124
330
121
100
AcDbEntity
  8
_U+30EC_U+30A4_U+30E4_U+30FC 1
 62
   179
420
  2234388
370
     9
  0
INSERT
  5
126
330
114
100
AcDbEntity
  8
_U+30EC_U+30A4_U+30E4_U+30FC 1
100
AcDbBlockReference
  2
block 10
 10
0.0
 20
0.0
 30
0.0
  0
ENDBLK
  5
117
330
114
100
AcDbEntity
  8
0
100
AcDbBlockEnd
  0
BLOCK
  5
127
330
125
100
AcDbEntity
  8
0
100
AcDbBlockBegin
  2
block 10
 70
     0
 10
0.0
 20
0.0
 30
0.0
  3
block 10
  1

  0
SPLINE
  5
129
330
125
100
AcDbEntity
  8
_U+30EC_U+30A4_U+30E4_U+30FC 1
370
     0
100
AcDbSpline
210
0.0
220
0.0
230
1.0
 70
    11
 71
     3
 72
    26
 73
    22
 74
     0
 42
0.0000000001
 43
0.0000000001
 12
1.0
 22
0.0
 32
0.0
 13
1.0
 23
0.0
 33
0.0
 40
0.0
 40
0.0
 40
0.0
 40
0.0
 40
1.0
 40
1.0
 40
1.0
 40
2.0
 40
2.0
 40
2.0
 40
3.0
 40
3.0
 40
3.0
 40
4.0
 40
4.0
 40
4.0
 40
5.0
 40
5.0
 40
5.0
 40
6.0
 40
6.0
 40
6.0
 40
7.0
 40
7.0
 40
7.0
 40
7.0
 10
121.552614986973
 20
-140.4742851753849
 30
0.0
 10
121.552614986973
 20
-140.4742851753849
 30
0.0
 10
120.4484618839504
 20
-140.4742851753849
 30
0.0
 10
120.4484618839504
 20
-140.4742851753849
 30
0.0
 10
120.4484618839504
 20
-140.4742851753849
 30
0.0
 10
120.4484618839504
 20
-140.8270629530745
 30
0.0
 10
120.4484618839504
 20
-140.8270629530745
 30
0.0
 10
120.4484618839504
 20
-140.8270629530745
 30
0.0
 10
120.3003227780846
 20
-140.8270629530745
 30
0.0
 10
120.3003227780846
 20
-140.8270629530745
 30
0.0
 10
120.2855088674981
 20
-140.4720458633195
 30
0.0
 10
120.1225558510458
 20
-140.4222642335576
 30
0.0
 10
120.0081786809355
 20
-140.3907416098676
 30
0.0
 10
120.0081786809355
 20
-140.3907416098676
 30
0.0
 10
120.0081786809355
 20
-140.2346787843858
 30
0.0
 10
120.0081786809355
 20
-140.2346787843858
 30
0.0
 10
120.0081786809355
 20
-140.2346787843858
 30
0.0
 10
121.552614986973
 20
-140.2346787843858
 30
0.0
 10
121.552614986973
 20
-140.2346787843858
 30
0.0
 10
121.552614986973
 20
-140.2346787843858
 30
0.0
 10
121.552614986973
 20
-140.4742851753849
 30
0.0
 10
121.552614986973
 20
-140.4742851753849
 30
0.0
  0
HATCH
  5
12A
330
125
100
AcDbEntity
  8
_U+30EC_U+30A4_U+30E4_U+30FC 1
 62
   179
420
  2234388
100
AcDbHatch
 10
0.0
 20
0.0
 30
0.0
210
0.0
220
0.0
230
1.0
  2
SOLID
 70
     1
 71
     0
 91
        1
 92
        1
 93
        1
 72
     4
 94
        3
 73
     0
 74
     1
 95
       26
 96
       22
 40
0.0
 40
0.0
 40
0.0
 40
0.0
 40
1.0
 40
1.0
 40
1.0
 40
2.0
 40
2.0
 40
2.0
 40
3.0
 40
3.0
 40
3.0
 40
4.0
 40
4.0
 40
4.0
 40
5.0
 40
5.0
 40
5.0
 40
6.0
 40
6.0
 40
6.0
 40
7.0
 40
7.0
 40
7.0
 40
7.0
 10
121.552614986973
 20
-140.4742851753849
 10
121.552614986973
 20
-140.4742851753849
 10
120.4484618839504
 20
-140.4742851753849
 10
120.4484618839504
 20
-140.4742851753849
 10
120.4484618839504
 20
-140.4742851753849
 10
120.4484618839504
 20
-140.8270629530745
 10
120.4484618839504
 20
-140.8270629530745
 10
120.4484618839504
 20
-140.8270629530745
 10
120.3003227780846
 20
-140.8270629530745
 10
120.3003227780846
 20
-140.8270629530745
 10
120.2855088674981
 20
-140.4720458633195
 10
120.1225558510458
 20
-140.4222642335576
 10
120.0081786809355
 20
-140.3907416098676
 10
120.0081786809355
 20
-140.3907416098676
 10
120.0081786809355
 20
-140.2346787843858
 10
120.0081786809355
 20
-140.2346787843858
 10
120.0081786809355
 20
-140.2346787843858
 10
121.552614986973
 20
-140.2346787843858
 10
121.552614986973
 20
-140.2346787843858
 10
121.552614986973
 20
-140.2346787843858
 10
121.552614986973
 20
-140.4742851753849
 10
121.552614986973
 20
-140.4742851753849
 97
        0
 97
        0
 75
     2
 76
     1
 98
        0
  0
ENDBLK
  5
128
330
125
100
AcDbEntity
  8
0
100
AcDbBlockEnd
  0
ENDSEC
  0
SECTION
  2
ENTITIES
  0
POLYLINE
  5
41
330
1F
100
AcDbEntity
  8
_U+30EC_U+30A4_U+30E4_U+30FC 1
 62
   179
420
  2234388
370
    25
100
AcDb2dPolyline
 66
     1
 10
0.0
 20
0.0
 30
0.0
  0
VERTEX
  5
42
330
41
100
AcDbEntity
  8
_U+30EC_U+30A4_U+30E4_U+30FC 1
 62
   179
420
  2234388
370
    25
100
AcDbVertex
100
AcDb2dVertex
 10
94.04593176735506
 20
-144.4648988527727
 30
0.0
  0
VERTEX
  5
43
330
41
100
AcDbEntity
  8
_U+30EC_U+30A4_U+30E4_U+30FC 1
 62
   179
420
  2234388
370
    25
100
AcDbVertex
100
AcDb2dVertex
 10
118.1488730968822
 20
-144.4648988527727
 30
0.0
  0
SEQEND
  5
44
330
41
100
AcDbEntity
  8
_U+30EC_U+30A4_U+30E4_U+30FC 1
 62
   179
420
  2234388
370
    25
  0
POLYLINE
  5
45
330
1F
100
AcDbEntity
  8
_U+30EC_U+30A4_U+30E4_U+30FC 1
 62
   179
420
  2234388
370
    25
100
AcDb2dPolyline
 66
     1
 10
0.0
 20
0.0
 30
0.0
  0
VERTEX
  5
46
330
45
100
AcDbEntity
  8
_U+30EC_U+30A4_U+30E4_U+30FC 1
 62
   179
420
  2234388
370
    25
100
AcDbVertex
100
AcDb2dVertex
 10
118.1488730968822
 20
-143.4644563530228
 30
0.0
  0
VERTEX
  5
47
330
45
100
AcDbEntity
  8
_U+30EC_U+30A4_U+30E4_U+30FC 1
 62
   179
420
  2234388
370
    25
100
AcDbVertex
100
AcDb2dVertex
 10
118.1488730968822
 20
-144.4648988527727
 30
0.0
  0
SEQEND
  5
48
330
45
100
AcDbEntity
  8
_U+30EC_U+30A4_U+30E4_U+30FC 1
 62
   179
420
  2234388
370
    25
  0
POLYLINE
  5
49
330
1F
100
AcDbEntity
  8
_U+30EC_U+30A4_U+30E4_U+30FC 1
 62
   179
420
  2234388
370
    25
100
AcDb2dPolyline
 66
     1
 10
0.0
 20
0.0
 30
0.0
  0
VERTEX
  5
4A
330
49
100
AcDbEntity
  8
_U+30EC_U+30A4_U+30E4_U+30FC 1
 62
   179
420
  2234388
370
    25
100
AcDbVertex
100
AcDb2dVertex
 10
93.14881790135345
 20
-143.4644563530228
 30
0.0
  0
VERTEX
  5
4B
330
49
100
AcDbEntity
  8
_U+30EC_U+30A4_U+30E4_U+30FC 1
 62
   179
420
  2234388
370
    25
100
AcDbVertex
100
AcDb2dVertex
 10
118.1488730968822
 20
-143.4644563530228
 30
0.0
  0
SEQEND
  5
4C
330
49
100
AcDbEntity
  8
_U+30EC_U+30A4_U+30E4_U+30FC 1
 62
   179
420
  2234388
370
    25
  0
POLYLINE
  5
4D
330
1F
100
AcDbEntity
  8
_U+30EC_U+30A4_U+30E4_U+30FC 1
 62
   179
420
  2234388
370
    25
100
AcDb2dPolyline
 66
     1
 10
0.0
 20
0.0
 30
0.0
  0
VERTEX
  5
4E
330
4D
100
AcDbEntity
  8
_U+30EC_U+30A4_U+30E4_U+30FC 1
 62
   179
420
  2234388
370
    25
100
AcDbVertex
100
AcDb2dVertex
 10
93.28491956454788
 20
-151.4646449621336
 30
0.0
  0
VERTEX
  5
4F
330
4D
100
AcDbEntity
  8
_U+30EC_U+30A4_U+30E4_U+30FC 1
 62
   179
420
  2234388
370
    25
100
AcDbVertex
100
AcDb2dVertex
 10
102.1488137828555
 20
-151.4646449621336
 30
0.0
  0
SEQEND
  5
50
330
4D
100
AcDbEntity
  8
_U+30EC_U+30A4_U+30E4_U+30FC 1
 62
   179
420
  2234388
370
    25
  0
POLYLINE
  5
51
330
1F
100
AcDbEntity
  8
_U+30EC_U+30A4_U+30E4_U+30FC 1
 62
   179
420
  2234388
370
    25
100
AcDb2dPolyline
 66
     1
 10
0.0
 20
0.0
 30
0.0
  0
VERTEX
  5
52
330
51
100
AcDbEntity
  8
_U+30EC_U+30A4_U+30E4_U+30FC 1
 62
   179
420
  2234388
370
    25
100
AcDbVertex
100
AcDb2dVertex
 10
102.1488137828555
 20
-151.4646449621336
 30
0.0
  0
VERTEX
  5
53
330
51
100
AcDbEntity
  8
_U+30EC_U+30A4_U+30E4_U+30FC 1
 62
   179
420
  2234388
370
    25
100
AcDbVertex
100
AcDb2dVertex
 10
102.1488137828555
 20
-151.765070517614
 30
0.0
  0
SEQEND
  5
54
330
51
100
AcDbEntity
  8
_U+30EC_U+30A4_U+30E4_U+30FC 1
 62
   179
420
  2234388
370
    25
  0
POLYLINE
  5
55
330
1F
100
AcDbEntity
  8
_U+30EC_U+30A4_U+30E4_U+30FC 1
 62
   179
420
  2234388
370
    25
100
AcDb2dPolyline
 66
     1
 10
0.0
 20
0.0
 30
0.0
  0
VERTEX
  5
56
330
55
100
AcDbEntity
  8
_U+30EC_U+30A4_U+30E4_U+30FC 1
 62
   179
420
  2234388
370
    25
100
AcDbVertex
100
AcDb2dVertex
 10
93.14881790135345
 20
-143.4644563530228
 30
0.0
  0
VERTEX
  5
57
330
55
100
AcDbEntity
  8
_U+30EC_U+30A4_U+30E4_U+30FC 1
 62
   179
420
  2234388
370
    25
100
AcDbVertex
100
AcDb2dVertex
 10
92.14873053251831
 20
-152.6608085729457
 30
0.0
  0
SEQEND
  5
58
330
55
100
AcDbEntity
  8
_U+30EC_U+30A4_U+30E4_U+30FC 1
 62
   179
420
  2234388
370
    25
  0
POLYLINE
  5
59
330
1F
100
AcDbEntity
  8
_U+30EC_U+30A4_U+30E4_U+30FC 1
 62
   179
420
  2234388
370
    25
100
AcDb2dPolyline
 66
     1
 10
0.0
 20
0.0
 30
0.0
  0
VERTEX
  5
5A
330
59
100
AcDbEntity
  8
_U+30EC_U+30A4_U+30E4_U+30FC 1
 62
   179
420
  2234388
370
    25
100
AcDbVertex
100
AcDb2dVertex
 10
94.04593176735506
 20
-144.4648988527727
 30
0.0
  0
VERTEX
  5
5B
330
59
100
AcDbEntity
  8
_U+30EC_U+30A4_U+30E4_U+30FC 1
 62
   179
420
  2234388
370
    25
100
AcDbVertex
100
AcDb2dVertex
 10
93.28491956454788
 20
-151.4646449621336
 30
0.0
  0
SEQEND
  5
5C
330
59
100
AcDbEntity
  8
_U+30EC_U+30A4_U+30E4_U+30FC 1
 62
   179
420
  2234388
370
    25
  0
POLYLINE
  5
5D
330
1F
100
AcDbEntity
  8
_U+30EC_U+30A4_U+30E4_U+30FC 1
 62
   179
420
  2234388
370
    25
100
AcDb2dPolyline
 66
     1
 10
0.0
 20
0.0
 30
0.0
  0
VERTEX
  5
5E
330
5D
100
AcDbEntity
  8
_U+30EC_U+30A4_U+30E4_U+30FC 1
 62
   179
420
  2234388
370
    25
100
AcDbVertex
100
AcDb2dVertex
 10
97.13929891065891
 20
-152.1536905175169
 30
0.0
  0
VERTEX
  5
5F
330
5D
100
AcDbEntity
  8
_U+30EC_U+30A4_U+30E4_U+30FC 1
 62
   179
420
  2234388
370
    25
100
AcDbVertex
100
AcDb2dVertex
 10
102.1488137828555
 20
-151.765070517614
 30
0.0
  0
SEQEND
  5
60
330
5D
100
AcDbEntity
  8
_U+30EC_U+30A4_U+30E4_U+30FC 1
 62
   179
420
  2234388
370
    25
  0
POLYLINE
  5
61
330
1F
100
AcDbEntity
  8
_U+30EC_U+30A4_U+30E4_U+30FC 1
 62
   179
420
  2234388
370
    25
100
AcDb2dPolyline
 66
     1
 10
0.0
 20
0.0
 30
0.0
  0
VERTEX
  5
62
330
61
100
AcDbEntity
  8
_U+30EC_U+30A4_U+30E4_U+30FC 1
 62
   179
420
  2234388
370
    25
100
AcDbVertex
100
AcDb2dVertex
 10
92.76471346670833
 20
-152.1929546841739
 30
0.0
  0
VERTEX
  5
63
330
61
100
AcDbEntity
  8
_U+30EC_U+30A4_U+30E4_U+30FC 1
 62
   179
420
  2234388
370
    25
100
AcDbVertex
100
AcDb2dVertex
 10
93.44476317158103
 20
-152.5601963507492
 30
0.0
  0
SEQEND
  5
64
330
61
100
AcDbEntity
  8
_U+30EC_U+30A4_U+30E4_U+30FC 1
 62
   179
420
  2234388
370
    25
  0
POLYLINE
  5
65
330
1F
100
AcDbEntity
  8
_U+30EC_U+30A4_U+30E4_U+30FC 1
 62
   179
420
  2234388
370
    25
100
AcDb2dPolyline
 66
     1
 10
0.0
 20
0.0
 30
0.0
  0
VERTEX
  5
66
330
65
100
AcDbEntity
  8
_U+30EC_U+30A4_U+30E4_U+30FC 1
 62
   179
420
  2234388
370
    25
100
AcDbVertex
100
AcDb2dVertex
 10
93.44476317158103
 20
-152.5601963507492
 30
0.0
  0
VERTEX
  5
67
330
65
100
AcDbEntity
  8
_U+30EC_U+30A4_U+30E4_U+30FC 1
 62
   179
420
  2234388
370
    25
100
AcDbVertex
100
AcDb2dVertex
 10
94.06074843364372
 20
-152.0923424619768
 30
0.0
  0
SEQEND
  5
68
330
65
100
AcDbEntity
  8
_U+30EC_U+30A4_U+30E4_U+30FC 1
 62
   179
420
  2234388
370
    25
  0
POLYLINE
  5
69
330
1F
100
AcDbEntity
  8
_U+30EC_U+30A4_U+30E4_U+30FC 1
 62
   179
420
  2234388
370
    25
100
AcDb2dPolyline
 66
     1
 10
0.0
 20
0.0
 30
0.0
  0
VERTEX
  5
6A
330
69
100
AcDbEntity
  8
_U+30EC_U+30A4_U+30E4_U+30FC 1
 62
   179
420
  2234388
370
    25
100
AcDbVertex
100
AcDb2dVertex
 10
92.76471346670833
 20
-152.1929546841739
 30
0.0
  0
VERTEX
  5
6B
330
69
100
AcDbEntity
  8
_U+30EC_U+30A4_U+30E4_U+30FC 1
 62
   179
420
  2234388
370
    25
100
AcDbVertex
100
AcDb2dVertex
 10
92.14873053251831
 20
-152.6608085729457
 30
0.0
  0
SEQEND
  5
6C
330
69
100
AcDbEntity
  8
_U+30EC_U+30A4_U+30E4_U+30FC 1
 62
   179
420
  2234388
370
    25
  0
POLYLINE
  5
6D
330
1F
100
AcDbEntity
  8
_U+30EC_U+30A4_U+30E4_U+30FC 1
 62
   179
420
  2234388
370
    25
100
AcDb2dPolyline
 66
     1
 10
0.0
 20
0.0
 30
0.0
  0
VERTEX
  5
6E
330
6D
100
AcDbEntity
  8
_U+30EC_U+30A4_U+30E4_U+30FC 1
 62
   179
420
  2234388
370
    25
100
AcDbVertex
100
AcDb2dVertex
 10
94.74079813851642
 20
-152.459584128552
 30
0.0
  0
VERTEX
  5
6F
330
6D
100
AcDbEntity
  8
_U+30EC_U+30A4_U+30E4_U+30FC 1
 62
   179
420
  2234388
370
    25
100
AcDbVertex
100
AcDb2dVertex
 10
94.06074843364372
 20
-152.0923424619768
 30
0.0
  0
SEQEND
  5
70
330
6D
100
AcDbEntity
  8
_U+30EC_U+30A4_U+30E4_U+30FC 1
 62
   179
420
  2234388
370
    25
  0
POLYLINE
  5
71
330
1F
100
AcDbEntity
  8
_U+30EC_U+30A4_U+30E4_U+30FC 1
 62
   179
420
  2234388
370
    25
100
AcDb2dPolyline
 66
     1
 10
0.0
 20
0.0
 30
0.0
  0
VERTEX
  5
72
330
71
100
AcDbEntity
  8
_U+30EC_U+30A4_U+30E4_U+30FC 1
 62
   179
420
  2234388
370
    25
100
AcDbVertex
100
AcDb2dVertex
 10
95.35678340057912
 20
-151.9917655175578
 30
0.0
  0
VERTEX
  5
73
330
71
100
AcDbEntity
  8
_U+30EC_U+30A4_U+30E4_U+30FC 1
 62
   179
420
  2234388
370
    25
100
AcDbVertex
100
AcDb2dVertex
 10
94.74079813851642
 20
-152.459584128552
 30
0.0
  0
SEQEND
  5
74
330
71
100
AcDbEntity
  8
_U+30EC_U+30A4_U+30E4_U+30FC 1
 62
   179
420
  2234388
370
    25
  0
POLYLINE
  5
75
330
1F
100
AcDbEntity
  8
_U+30EC_U+30A4_U+30E4_U+30FC 1
 62
   179
420
  2234388
370
    25
100
AcDb2dPolyline
 66
     1
 10
0.0
 20
0.0
 30
0.0
  0
VERTEX
  5
76
330
75
100
AcDbEntity
  8
_U+30EC_U+30A4_U+30E4_U+30FC 1
 62
   179
420
  2234388
370
    25
100
AcDbVertex
100
AcDb2dVertex
 10
95.35678340057912
 20
-151.9917655175578
 30
0.0
  0
VERTEX
  5
77
330
75
100
AcDbEntity
  8
_U+30EC_U+30A4_U+30E4_U+30FC 1
 62
   179
420
  2234388
370
    25
100
AcDbVertex
100
AcDb2dVertex
 10
96.03686838322871
 20
-152.3590071841323
 30
0.0
  0
SEQEND
  5
78
330
75
100
AcDbEntity
  8
_U+30EC_U+30A4_U+30E4_U+30FC 1
 62
   179
420
  2234388
370
    25
  0
POLYLINE
  5
79
330
1F
100
AcDbEntity
  8
_U+30EC_U+30A4_U+30E4_U+30FC 1
 62
   179
420
  2234388
370
    25
100
AcDb2dPolyline
 66
     1
 10
0.0
 20
0.0
 30
0.0
  0
VERTEX
  5
7A
330
79
100
AcDbEntity
  8
_U+30EC_U+30A4_U+30E4_U+30FC 1
 62
   179
420
  2234388
370
    25
100
AcDbVertex
100
AcDb2dVertex
 10
96.65285364529139
 20
-151.8911532953606
 30
0.0
  0
VERTEX
  5
7B
330
79
100
AcDbEntity
  8
_U+30EC_U+30A4_U+30E4_U+30FC 1
 62
   179
420
  2234388
370
    25
100
AcDbVertex
100
AcDb2dVertex
 10
97.13929891065891
 20
-152.1536905175169
 30
0.0
  0
SEQEND
  5
7C
330
79
100
AcDbEntity
  8
_U+30EC_U+30A4_U+30E4_U+30FC 1
 62
   179
420
  2234388
370
    25
  0
POLYLINE
  5
7D
330
1F
100
AcDbEntity
  8
_U+30EC_U+30A4_U+30E4_U+30FC 1
 62
   179
420
  2234388
370
    25
100
AcDb2dPolyline
 66
     1
 10
0.0
 20
0.0
 30
0.0
  0
VERTEX
  5
7E
330
7D
100
AcDbEntity
  8
_U+30EC_U+30A4_U+30E4_U+30FC 1
 62
   179
420
  2234388
370
    25
100
AcDbVertex
100
AcDb2dVertex
 10
96.65285364529139
 20
-151.8911532953606
 30
0.0
  0
VERTEX
  5
7F
330
7D
100
AcDbEntity
  8
_U+30EC_U+30A4_U+30E4_U+30FC 1
 62
   179
420
  2234388
370
    25
100
AcDbVertex
100
AcDb2dVertex
 10
96.03686838322871
 20
-152.3590071841323
 30
0.0
  0
SEQEND
  5
80
330
7D
100
AcDbEntity
  8
_U+30EC_U+30A4_U+30E4_U+30FC 1
 62
   179
420
  2234388
370
    25
  0
POLYLINE
  5
81
330
1F
100
AcDbEntity
  8
_U+30EC_U+30A4_U+30E4_U+30FC 1
 62
   179
420
  2234388
370
     9
100
AcDb2dPolyline
 66
     1
 10
0.0
 20
0.0
 30
0.0
  0
VERTEX
  5
82
330
81
100
AcDbEntity
  8
_U+30EC_U+30A4_U+30E4_U+30FC 1
 62
   179
420
  2234388
370
     9
100
AcDbVertex
100
AcDb2dVertex
 10
92.91732512948154
 20
-152.5085144063173
 30
0.0
  0
VERTEX
  5
83
330
81
100
AcDbEntity
  8
_U+30EC_U+30A4_U+30E4_U+30FC 1
 62
   179
420
  2234388
370
     9
100
AcDbVertex
100
AcDb2dVertex
 10
88.97976078549274
 20
-156.0039071832212
 30
0.0
  0
SEQEND
  5
84
330
81
100
AcDbEntity
  8
_U+30EC_U+30A4_U+30E4_U+30FC 1
 62
   179
420
  2234388
370
     9
  0
SPLINE
  5
85
330
1F
100
AcDbEntity
  8
_U+30EC_U+30A4_U+30E4_U+30FC 1
 62
   179
420
  2234388
370
     9
100
AcDbSpline
210
0.0
220
0.0
230
1.0
 70
    11
 71
     3
 72
    17
 73
    13
 74
     0
 42
0.0000000001
 43
0.0000000001
 12
1.0
 22
0.0
 32
0.0
 13
1.0
 23
0.0
 33
0.0
 40
0.0
 40
0.0
 40
0.0
 40
0.0
 40
1.0
 40
1.0
 40
1.0
 40
2.0
 40
2.0
 40
2.0
 40
3.0
 40
3.0
 40
3.0
 40
4.0
 40
4.0
 40
4.0
 40
4.0
 10
92.24863486876347
 20
-139.4646971873559
 30
0.0
 10
92.24863486876347
 20
-139.409593298481
 30
0.0
 10
92.20383209212872
 20
-139.3647905207143
 30
0.0
 10
92.14873053251831
 20
-139.3647905207143
 30
0.0
 10
92.09358903938569
 20
-139.3647905207143
 30
0.0
 10
92.04882154052781
 20
-139.409593298481
 30
0.0
 10
92.04882154052781
 20
-139.4646971873559
 30
0.0
 10
92.04882154052781
 20
-139.519836354009
 30
0.0
 10
92.09358903938569
 20
-139.5646038539979
 30
0.0
 10
92.14873053251831
 20
-139.5646038539979
 30
0.0
 10
92.20383209212872
 20
-139.5646038539979
 30
0.0
 10
92.24863486876347
 20
-139.519836354009
 30
0.0
 10
92.24863486876347
 20
-139.4646971873559
 30
0.0
  0
SPLINE
  5
86
330
1F
100
AcDbEntity
  8
_U+30EC_U+30A4_U+30E4_U+30FC 1
 62
   179
420
  2234388
370
     9
100
AcDbSpline
210
0.0
220
0.0
230
1.0
 70
    11
 71
     3
 72
    17
 73
    13
 74
     0
 42
0.0000000001
 43
0.0000000001
 12
1.0
 22
0.0
 32
0.0
 13
1.0
 23
0.0
 33
0.0
 40
0.0
 40
0.0
 40
0.0
 40
0.0
 40
1.0
 40
1.0
 40
1.0
 40
2.0
 40
2.0
 40
2.0
 40
3.0
 40
3.0
 40
3.0
 40
4.0
 40
4.0
 40
4.0
 40
4.0
 10
93.24872456547129
 20
-139.4646971873559
 30
0.0
 10
93.24872456547129
 20
-139.409593298481
 30
0.0
 10
93.2039570666134
 20
-139.3647905207143
 30
0.0
 10
93.14881790135345
 20
-139.3647905207143
 30
0.0
 10
93.0933612361016
 20
-139.3647905207143
 30
0.0
 10
93.04859373724372
 20
-139.409593298481
 30
0.0
 10
93.04859373724372
 20
-139.4646971873559
 30
0.0
 10
93.04859373724372
 20
-139.519836354009
 30
0.0
 10
93.0933612361016
 20
-139.5646038539979
 30
0.0
 10
93.14881790135345
 20
-139.5646038539979
 30
0.0
 10
93.2039570666134
 20
-139.5646038539979
 30
0.0
 10
93.24872456547129
 20
-139.519836354009
 30
0.0
 10
93.24872456547129
 20
-139.4646971873559
 30
0.0
  0
SPLINE
  5
87
330
1F
100
AcDbEntity
  8
_U+30EC_U+30A4_U+30E4_U+30FC 1
 62
   179
420
  2234388
370
     9
100
AcDbSpline
210
0.0
220
0.0
230
1.0
 70
    11
 71
     3
 72
    17
 73
    13
 74
     0
 42
0.0000000001
 43
0.0000000001
 12
1.0
 22
0.0
 32
0.0
 13
1.0
 23
0.0
 33
0.0
 40
0.0
 40
0.0
 40
0.0
 40
0.0
 40
1.0
 40
1.0
 40
1.0
 40
2.0
 40
2.0
 40
2.0
 40
3.0
 40
3.0
 40
3.0
 40
4.0
 40
4.0
 40
4.0
 40
4.0
 10
118.2487797610001
 20
-139.4646971873559
 30
0.0
 10
118.2487797610001
 20
-139.409593298481
 30
0.0
 10
118.2039769843653
 20
-139.3647905207143
 30
0.0
 10
118.1488730968822
 20
-139.3647905207143
 30
0.0
 10
118.0933811538535
 20
-139.3647905207143
 30
0.0
 10
118.0489694149324
 20
-139.409593298481
 30
0.0
 10
118.0489694149324
 20
-139.4646971873559
 30
0.0
 10
118.0489694149324
 20
-139.519836354009
 30
0.0
 10
118.0933811538535
 20
-139.5646038539979
 30
0.0
 10
118.1488730968822
 20
-139.5646038539979
 30
0.0
 10
118.2039769843653
 20
-139.5646038539979
 30
0.0
 10
118.2487797610001
 20
-139.519836354009
 30
0.0
 10
118.2487797610001
 20
-139.4646971873559
 30
0.0
  0
SPLINE
  5
88
330
1F
100
AcDbEntity
  8
_U+30EC_U+30A4_U+30E4_U+30FC 1
 62
   179
420
  2234388
370
     9
100
AcDbSpline
210
0.0
220
0.0
230
1.0
 70
    11
 71
     3
 72
    17
 73
    13
 74
     0
 42
0.0000000001
 43
0.0000000001
 12
1.0
 22
0.0
 32
0.0
 13
1.0
 23
0.0
 33
0.0
 40
0.0
 40
0.0
 40
0.0
 40
0.0
 40
1.0
 40
1.0
 40
1.0
 40
2.0
 40
2.0
 40
2.0
 40
3.0
 40
3.0
 40
3.0
 40
4.0
 40
4.0
 40
4.0
 40
4.0
 10
122.2488563256163
 20
-144.4648988527727
 30
0.0
 10
122.2488563256163
 20
-144.4097949638975
 30
0.0
 10
122.2040888267584
 20
-144.3649921861311
 30
0.0
 10
122.1485999694627
 20
-144.3649921861311
 30
0.0
 10
122.0934929962466
 20
-144.3649921861311
 30
0.0
 10
122.0486902196118
 20
-144.4097949638975
 30
0.0
 10
122.0486902196118
 20
-144.4648988527727
 30
0.0
 10
122.0486902196118
 20
-144.5200380194255
 30
0.0
 10
122.0934929962466
 20
-144.5648055194143
 30
0.0
 10
122.1485999694627
 20
-144.5648055194143
 30
0.0
 10
122.2040888267584
 20
-144.5648055194143
 30
0.0
 10
122.2488563256163
 20
-144.5200380194255
 30
0.0
 10
122.2488563256163
 20
-144.4648988527727
 30
0.0
  0
SPLINE
  5
89
330
1F
100
AcDbEntity
  8
_U+30EC_U+30A4_U+30E4_U+30FC 1
 62
   179
420
  2234388
370
     9
100
AcDbSpline
210
0.0
220
0.0
230
1.0
 70
    11
 71
     3
 72
    17
 73
    13
 74
     0
 42
0.0000000001
 43
0.0000000001
 12
1.0
 22
0.0
 32
0.0
 13
1.0
 23
0.0
 33
0.0
 40
0.0
 40
0.0
 40
0.0
 40
0.0
 40
1.0
 40
1.0
 40
1.0
 40
2.0
 40
2.0
 40
2.0
 40
3.0
 40
3.0
 40
3.0
 40
4.0
 40
4.0
 40
4.0
 40
4.0
 10
122.2488563256163
 20
-151.4646449621336
 30
0.0
 10
122.2488563256163
 20
-151.4095410732587
 30
0.0
 10
122.2040888267584
 20
-151.364738295492
 30
0.0
 10
122.1485999694627
 20
-151.364738295492
 30
0.0
 10
122.0934929962466
 20
-151.364738295492
 30
0.0
 10
122.0486902196118
 20
-151.4095410732587
 30
0.0
 10
122.0486902196118
 20
-151.4646449621336
 30
0.0
 10
122.0486902196118
 20
-151.5197841287867
 30
0.0
 10
122.0934929962466
 20
-151.5645516287753
 30
0.0
 10
122.1485999694627
 20
-151.5645516287753
 30
0.0
 10
122.2040888267584
 20
-151.5645516287753
 30
0.0
 10
122.2488563256163
 20
-151.5197841287867
 30
0.0
 10
122.2488563256163
 20
-151.4646449621336
 30
0.0
  0
SPLINE
  5
8A
330
1F
100
AcDbEntity
  8
_U+30EC_U+30A4_U+30E4_U+30FC 1
 62
   179
420
  2234388
370
     9
100
AcDbSpline
210
0.0
220
0.0
230
1.0
 70
    11
 71
     3
 72
    17
 73
    13
 74
     0
 42
0.0000000001
 43
0.0000000001
 12
1.0
 22
0.0
 32
0.0
 13
1.0
 23
0.0
 33
0.0
 40
0.0
 40
0.0
 40
0.0
 40
0.0
 40
1.0
 40
1.0
 40
1.0
 40
2.0
 40
2.0
 40
2.0
 40
3.0
 40
3.0
 40
3.0
 40
4.0
 40
4.0
 40
4.0
 40
4.0
 10
106.2487970115896
 20
-151.4646449621336
 30
0.0
 10
106.2487970115896
 20
-151.4095410732587
 30
0.0
 10
106.2040295127317
 20
-151.364738295492
 30
0.0
 10
106.1488903474717
 20
-151.364738295492
 30
0.0
 10
106.0937864599887
 20
-151.364738295492
 30
0.0
 10
106.0489836833539
 20
-151.4095410732587
 30
0.0
 10
106.0489836833539
 20
-151.4646449621336
 30
0.0
 10
106.0489836833539
 20
-151.5197841287867
 30
0.0
 10
106.0937864599887
 20
-151.5645516287753
 30
0.0
 10
106.1488903474717
 20
-151.5645516287753
 30
0.0
 10
106.2040295127317
 20
-151.5645516287753
 30
0.0
 10
106.2487970115896
 20
-151.5197841287867
 30
0.0
 10
106.2487970115896
 20
-151.4646449621336
 30
0.0
  0
SPLINE
  5
8B
330
1F
100
AcDbEntity
  8
_U+30EC_U+30A4_U+30E4_U+30FC 1
 62
   179
420
  2234388
370
     9
100
AcDbSpline
210
0.0
220
0.0
230
1.0
 70
    11
 71
     3
 72
    17
 73
    13
 74
     0
 42
0.0000000001
 43
0.0000000001
 12
1.0
 22
0.0
 32
0.0
 13
1.0
 23
0.0
 33
0.0
 40
0.0
 40
0.0
 40
0.0
 40
0.0
 40
1.0
 40
1.0
 40
1.0
 40
2.0
 40
2.0
 40
2.0
 40
3.0
 40
3.0
 40
3.0
 40
4.0
 40
4.0
 40
4.0
 40
4.0
 10
106.2487970115896
 20
-151.765070517614
 30
0.0
 10
106.2487970115896
 20
-151.7092610731836
 30
0.0
 10
106.2040295127317
 20
-151.6644582954175
 30
0.0
 10
106.1488903474717
 20
-151.6644582954175
 30
0.0
 10
106.0937864599887
 20
-151.6644582954175
 30
0.0
 10
106.0489836833539
 20
-151.7092610731836
 30
0.0
 10
106.0489836833539
 20
-151.765070517614
 30
0.0
 10
106.0489836833539
 20
-151.8201744064896
 30
0.0
 10
106.0937864599887
 20
-151.8649771842557
 30
0.0
 10
106.1488903474717
 20
-151.8649771842557
 30
0.0
 10
106.2040295127317
 20
-151.8649771842557
 30
0.0
 10
106.2487970115896
 20
-151.8201744064896
 30
0.0
 10
106.2487970115896
 20
-151.765070517614
 30
0.0
  0
SPLINE
  5
8C
330
1F
100
AcDbEntity
  8
_U+30EC_U+30A4_U+30E4_U+30FC 1
 62
   179
420
  2234388
370
     9
100
AcDbSpline
210
0.0
220
0.0
230
1.0
 70
    11
 71
     3
 72
    17
 73
    13
 74
     0
 42
0.0000000001
 43
0.0000000001
 12
1.0
 22
0.0
 32
0.0
 13
1.0
 23
0.0
 33
0.0
 40
0.0
 40
0.0
 40
0.0
 40
0.0
 40
1.0
 40
1.0
 40
1.0
 40
2.0
 40
2.0
 40
2.0
 40
3.0
 40
3.0
 40
3.0
 40
4.0
 40
4.0
 40
4.0
 40
4.0
 10
92.24863486876347
 20
-156.660532460835
 30
0.0
 10
92.24863486876347
 20
-156.6054285719595
 30
0.0
 10
92.20383209212872
 20
-156.5606257941934
 30
0.0
 10
92.14873053251831
 20
-156.5606257941934
 30
0.0
 10
92.09358903938569
 20
-156.5606257941934
 30
0.0
 10
92.04882154052781
 20
-156.6054285719595
 30
0.0
 10
92.04882154052781
 20
-156.660532460835
 30
0.0
 10
92.04882154052781
 20
-156.7156716274875
 30
0.0
 10
92.09358903938569
 20
-156.7604744052542
 30
0.0
 10
92.14873053251831
 20
-156.7604744052542
 30
0.0
 10
92.20383209212872
 20
-156.7604744052542
 30
0.0
 10
92.24863486876347
 20
-156.7156716274875
 30
0.0
 10
92.24863486876347
 20
-156.660532460835
 30
0.0
  0
SPLINE
  5
8D
330
1F
100
AcDbEntity
  8
_U+30EC_U+30A4_U+30E4_U+30FC 1
 62
   179
420
  2234388
370
     9
100
AcDbSpline
210
0.0
220
0.0
230
1.0
 70
    11
 71
     3
 72
    17
 73
    13
 74
     0
 42
0.0000000001
 43
0.0000000001
 12
1.0
 22
0.0
 32
0.0
 13
1.0
 23
0.0
 33
0.0
 40
0.0
 40
0.0
 40
0.0
 40
0.0
 40
1.0
 40
1.0
 40
1.0
 40
2.0
 40
2.0
 40
2.0
 40
3.0
 40
3.0
 40
3.0
 40
4.0
 40
4.0
 40
4.0
 40
4.0
 10
97.23920557477675
 20
-156.660532460835
 30
0.0
 10
97.23920557477675
 20
-156.6054285719595
 30
0.0
 10
97.19440279814198
 20
-156.5606257941934
 30
0.0
 10
97.13929891065891
 20
-156.5606257941934
 30
0.0
 10
97.08380696763018
 20
-156.5606257941934
 30
0.0
 10
97.0390394687723
 20
-156.6054285719595
 30
0.0
 10
97.0390394687723
 20
-156.660532460835
 30
0.0
 10
97.0390394687723
 20
-156.7156716274875
 30
0.0
 10
97.08380696763018
 20
-156.7604744052542
 30
0.0
 10
97.13929891065891
 20
-156.7604744052542
 30
0.0
 10
97.19440279814198
 20
-156.7604744052542
 30
0.0
 10
97.23920557477675
 20
-156.7156716274875
 30
0.0
 10
97.23920557477675
 20
-156.660532460835
 30
0.0
  0
SPLINE
  5
8E
330
1F
100
AcDbEntity
  8
_U+30EC_U+30A4_U+30E4_U+30FC 1
 62
   179
420
  2234388
370
     9
100
AcDbSpline
210
0.0
220
0.0
230
1.0
 70
    11
 71
     3
 72
    17
 73
    13
 74
     0
 42
0.0000000001
 43
0.0000000001
 12
1.0
 22
0.0
 32
0.0
 13
1.0
 23
0.0
 33
0.0
 40
0.0
 40
0.0
 40
0.0
 40
0.0
 40
1.0
 40
1.0
 40
1.0
 40
2.0
 40
2.0
 40
2.0
 40
3.0
 40
3.0
 40
3.0
 40
4.0
 40
4.0
 40
4.0
 40
4.0
 10
102.2487204469734
 20
-160.6602916265019
 30
0.0
 10
102.2487204469734
 20
-160.6051877376264
 30
0.0
 10
102.2039176703386
 20
-160.5603849598596
 30
0.0
 10
102.1488137828555
 20
-160.5603849598596
 30
0.0
 10
102.0933218398268
 20
-160.5603849598596
 30
0.0
 10
102.0485543409689
 20
-160.6051877376264
 30
0.0
 10
102.0485543409689
 20
-160.6602916265019
 30
0.0
 10
102.0485543409689
 20
-160.7161010709324
 30
0.0
 10
102.0933218398268
 20
-160.7609038486984
 30
0.0
 10
102.1488137828555
 20
-160.7609038486984
 30
0.0
 10
102.2039176703386
 20
-160.7609038486984
 30
0.0
 10
102.2487204469734
 20
-160.7161010709324
 30
0.0
 10
102.2487204469734
 20
-160.6602916265019
 30
0.0
  0
SPLINE
  5
8F
330
1F
100
AcDbEntity
  8
_U+30EC_U+30A4_U+30E4_U+30FC 1
 62
   179
420
  2234388
370
     9
100
AcDbSpline
210
0.0
220
0.0
230
1.0
 70
    11
 71
     3
 72
    17
 73
    13
 74
     0
 42
0.0000000001
 43
0.0000000001
 12
1.0
 22
0.0
 32
0.0
 13
1.0
 23
0.0
 33
0.0
 40
0.0
 40
0.0
 40
0.0
 40
0.0
 40
1.0
 40
1.0
 40
1.0
 40
2.0
 40
2.0
 40
2.0
 40
3.0
 40
3.0
 40
3.0
 40
4.0
 40
4.0
 40
4.0
 40
4.0
 10
92.24863486876347
 20
-160.6602916265019
 30
0.0
 10
92.24863486876347
 20
-160.6051877376264
 30
0.0
 10
92.20383209212872
 20
-160.5603849598596
 30
0.0
 10
92.14873053251831
 20
-160.5603849598596
 30
0.0
 10
92.09358903938569
 20
-160.5603849598596
 30
0.0
 10
92.04882154052781
 20
-160.6051877376264
 30
0.0
 10
92.04882154052781
 20
-160.6602916265019
 30
0.0
 10
92.04882154052781
 20
-160.7161010709324
 30
0.0
 10
92.09358903938569
 20
-160.7609038486984
 30
0.0
 10
92.14873053251831
 20
-160.7609038486984
 30
0.0
 10
92.20383209212872
 20
-160.7609038486984
 30
0.0
 10
92.24863486876347
 20
-160.7161010709324
 30
0.0
 10
92.24863486876347
 20
-160.6602916265019
 30
0.0
  0
INSERT
  5
91
330
1F
100
AcDbEntity
  8
_U+30EC_U+30A4_U+30E4_U+30FC 1
100
AcDbBlockReference
  2
block 2
 10
0.0
 20
0.0
 30
0.0
  0
POLYLINE
  5
9C
330
1F
100
AcDbEntity
  8
_U+30EC_U+30A4_U+30E4_U+30FC 1
 62
   179
420
  2234388
370
     9
100
AcDb2dPolyline
 66
     1
 10
0.0
 20
0.0
 30
0.0
  0
VERTEX
  5
9D
330
9C
100
AcDbEntity
  8
_U+30EC_U+30A4_U+30E4_U+30FC 1
 62
   179
420
  2234388
370
     9
100
AcDbVertex
100
AcDb2dVertex
 10
93.14881790135345
 20
-139.4646971873559
 30
0.0
  0
VERTEX
  5
9E
330
9C
100
AcDbEntity
  8
_U+30EC_U+30A4_U+30E4_U+30FC 1
 62
   179
420
  2234388
370
     9
100
AcDbVertex
100
AcDb2dVertex
 10
118.1488730968822
 20
-139.4646971873559
 30
0.0
  0
SEQEND
  5
9F
330
9C
100
AcDbEntity
  8
_U+30EC_U+30A4_U+30E4_U+30FC 1
 62
   179
420
  2234388
370
     9
  0
POLYLINE
  5
A0
330
1F
100
AcDbEntity
  8
_U+30EC_U+30A4_U+30E4_U+30FC 1
 62
   179
420
  2234388
370
     9
100
AcDb2dPolyline
 66
     1
 10
0.0
 20
0.0
 30
0.0
  0
VERTEX
  5
A1
330
A0
100
AcDbEntity
  8
_U+30EC_U+30A4_U+30E4_U+30FC 1
 62
   179
420
  2234388
370
     9
100
AcDbVertex
100
AcDb2dVertex
 10
93.14881790135345
 20
-140.92473857588
 30
0.0
  0
VERTEX
  5
A2
330
A0
100
AcDbEntity
  8
_U+30EC_U+30A4_U+30E4_U+30FC 1
 62
   179
420
  2234388
370
     9
100
AcDbVertex
100
AcDb2dVertex
 10
93.14881790135345
 20
-138.4649249653837
 30
0.0
  0
SEQEND
  5
A3
330
A0
100
AcDbEntity
  8
_U+30EC_U+30A4_U+30E4_U+30FC 1
 62
   179
420
  2234388
370
     9
  0
POLYLINE
  5
A4
330
1F
100
AcDbEntity
  8
_U+30EC_U+30A4_U+30E4_U+30FC 1
 62
   179
420
  2234388
370
     9
100
AcDb2dPolyline
 66
     1
 10
0.0
 20
0.0
 30
0.0
  0
VERTEX
  5
A5
330
A4
100
AcDbEntity
  8
_U+30EC_U+30A4_U+30E4_U+30FC 1
 62
   179
420
  2234388
370
     9
100
AcDbVertex
100
AcDb2dVertex
 10
118.1488730968822
 20
-140.92473857588
 30
0.0
  0
VERTEX
  5
A6
330
A4
100
AcDbEntity
  8
_U+30EC_U+30A4_U+30E4_U+30FC 1
 62
   179
420
  2234388
370
     9
100
AcDbVertex
100
AcDb2dVertex
 10
118.1488730968822
 20
-138.4649249653837
 30
0.0
  0
SEQEND
  5
A7
330
A4
100
AcDbEntity
  8
_U+30EC_U+30A4_U+30E4_U+30FC 1
 62
   179
420
  2234388
370
     9
  0
INSERT
  5
A9
330
1F
100
AcDbEntity
  8
_U+30EC_U+30A4_U+30E4_U+30FC 1
100
AcDbBlockReference
  2
block 3
 10
0.0
 20
0.0
 30
0.0
  0
POLYLINE
  5
B0
330
1F
100
AcDbEntity
  8
_U+30EC_U+30A4_U+30E4_U+30FC 1
 62
   179
420
  2234388
370
     9
100
AcDb2dPolyline
 66
     1
 10
0.0
 20
0.0
 30
0.0
  0
VERTEX
  5
B1
330
B0
100
AcDbEntity
  8
_U+30EC_U+30A4_U+30E4_U+30FC 1
 62
   179
420
  2234388
370
     9
100
AcDbVertex
100
AcDb2dVertex
 10
93.14881790135345
 20
-139.4646971873559
 30
0.0
  0
VERTEX
  5
B2
330
B0
100
AcDbEntity
  8
_U+30EC_U+30A4_U+30E4_U+30FC 1
 62
   179
420
  2234388
370
     9
100
AcDbVertex
100
AcDb2dVertex
 10
91.14895831054609
 20
-139.4646971873559
 30
0.0
  0
SEQEND
  5
B3
330
B0
100
AcDbEntity
  8
_U+30EC_U+30A4_U+30E4_U+30FC 1
 62
   179
420
  2234388
370
     9
  0
POLYLINE
  5
B4
330
1F
100
AcDbEntity
  8
_U+30EC_U+30A4_U+30E4_U+30FC 1
 62
   179
420
  2234388
370
     9
100
AcDb2dPolyline
 66
     1
 10
0.0
 20
0.0
 30
0.0
  0
VERTEX
  5
B5
330
B4
100
AcDbEntity
  8
_U+30EC_U+30A4_U+30E4_U+30FC 1
 62
   179
420
  2234388
370
     9
100
AcDbVertex
100
AcDb2dVertex
 10
92.14873053251831
 20
-150.1203852402476
 30
0.0
  0
VERTEX
  5
B6
330
B4
100
AcDbEntity
  8
_U+30EC_U+30A4_U+30E4_U+30FC 1
 62
   179
420
  2234388
370
     9
100
AcDbVertex
100
AcDb2dVertex
 10
92.14873053251831
 20
-138.4649249653837
 30
0.0
  0
SEQEND
  5
B7
330
B4
100
AcDbEntity
  8
_U+30EC_U+30A4_U+30E4_U+30FC 1
 62
   179
420
  2234388
370
     9
  0
INSERT
  5
B9
330
1F
100
AcDbEntity
  8
_U+30EC_U+30A4_U+30E4_U+30FC 1
100
AcDbBlockReference
  2
block 4
 10
0.0
 20
0.0
 30
0.0
  0
POLYLINE
  5
BE
330
1F
100
AcDbEntity
  8
_U+30EC_U+30A4_U+30E4_U+30FC 1
 62
   179
420
  2234388
370
     9
100
AcDb2dPolyline
 66
     1
 10
0.0
 20
0.0
 30
0.0
  0
VERTEX
  5
BF
330
BE
100
AcDbEntity
  8
_U+30EC_U+30A4_U+30E4_U+30FC 1
 62
   179
420
  2234388
370
     9
100
AcDbVertex
100
AcDb2dVertex
 10
122.1485999694627
 20
-144.4648988527727
 30
0.0
  0
VERTEX
  5
C0
330
BE
100
AcDbEntity
  8
_U+30EC_U+30A4_U+30E4_U+30FC 1
 62
   179
420
  2234388
370
     9
100
AcDbVertex
100
AcDb2dVertex
 10
122.1485999694627
 20
-151.4646449621336
 30
0.0
  0
SEQEND
  5
C1
330
BE
100
AcDbEntity
  8
_U+30EC_U+30A4_U+30E4_U+30FC 1
 62
   179
420
  2234388
370
     9
  0
POLYLINE
  5
C2
330
1F
100
AcDbEntity
  8
_U+30EC_U+30A4_U+30E4_U+30FC 1
 62
   179
420
  2234388
370
     9
100
AcDb2dPolyline
 66
     1
 10
0.0
 20
0.0
 30
0.0
  0
VERTEX
  5
C3
330
C2
100
AcDbEntity
  8
_U+30EC_U+30A4_U+30E4_U+30FC 1
 62
   179
420
  2234388
370
     9
100
AcDbVertex
100
AcDb2dVertex
 10
120.6889435876352
 20
-144.4648988527727
 30
0.0
  0
VERTEX
  5
C4
330
C2
100
AcDbEntity
  8
_U+30EC_U+30A4_U+30E4_U+30FC 1
 62
   179
420
  2234388
370
     9
100
AcDbVertex
100
AcDb2dVertex
 10
123.148724969213
 20
-144.4648988527727
 30
0.0
  0
SEQEND
  5
C5
330
C2
100
AcDbEntity
  8
_U+30EC_U+30A4_U+30E4_U+30FC 1
 62
   179
420
  2234388
370
     9
  0
POLYLINE
  5
C6
330
1F
100
AcDbEntity
  8
_U+30EC_U+30A4_U+30E4_U+30FC 1
 62
   179
420
  2234388
370
     9
100
AcDb2dPolyline
 66
     1
 10
0.0
 20
0.0
 30
0.0
  0
VERTEX
  5
C7
330
C6
100
AcDbEntity
  8
_U+30EC_U+30A4_U+30E4_U+30FC 1
 62
   179
420
  2234388
370
     9
100
AcDbVertex
100
AcDb2dVertex
 10
104.6888842736085
 20
-151.4646449621336
 30
0.0
  0
VERTEX
  5
C8
330
C6
100
AcDbEntity
  8
_U+30EC_U+30A4_U+30E4_U+30FC 1
 62
   179
420
  2234388
370
     9
100
AcDbVertex
100
AcDb2dVertex
 10
123.148724969213
 20
-151.4646449621336
 30
0.0
  0
SEQEND
  5
C9
330
C6
100
AcDbEntity
  8
_U+30EC_U+30A4_U+30E4_U+30FC 1
 62
   179
420
  2234388
370
     9
  0
INSERT
  5
CB
330
1F
100
AcDbEntity
  8
_U+30EC_U+30A4_U+30E4_U+30FC 1
100
AcDbBlockReference
  2
block 5
 10
0.0
 20
0.0
 30
0.0
  0
POLYLINE
  5
D0
330
1F
100
AcDbEntity
  8
_U+30EC_U+30A4_U+30E4_U+30FC 1
 62
   179
420
  2234388
370
     9
100
AcDb2dPolyline
 66
     1
 10
0.0
 20
0.0
 30
0.0
  0
VERTEX
  5
D1
330
D0
100
AcDbEntity
  8
_U+30EC_U+30A4_U+30E4_U+30FC 1
 62
   179
420
  2234388
370
     9
100
AcDbVertex
100
AcDb2dVertex
 10
106.1488903474717
 20
-151.4646449621336
 30
0.0
  0
VERTEX
  5
D2
330
D0
100
AcDbEntity
  8
_U+30EC_U+30A4_U+30E4_U+30FC 1
 62
   179
420
  2234388
370
     9
100
AcDbVertex
100
AcDb2dVertex
 10
106.1488903474717
 20
-146.206739130115
 30
0.0
  0
SEQEND
  5
D3
330
D0
100
AcDbEntity
  8
_U+30EC_U+30A4_U+30E4_U+30FC 1
 62
   179
420
  2234388
370
     9
  0
POLYLINE
  5
D4
330
1F
100
AcDbEntity
  8
_U+30EC_U+30A4_U+30E4_U+30FC 1
 62
   179
420
  2234388
370
     9
100
AcDb2dPolyline
 66
     1
 10
0.0
 20
0.0
 30
0.0
  0
VERTEX
  5
D5
330
D4
100
AcDbEntity
  8
_U+30EC_U+30A4_U+30E4_U+30FC 1
 62
   179
420
  2234388
370
     9
100
AcDbVertex
100
AcDb2dVertex
 10
106.1488903474717
 20
-151.4646449621336
 30
0.0
  0
VERTEX
  5
D6
330
D4
100
AcDbEntity
  8
_U+30EC_U+30A4_U+30E4_U+30FC 1
 62
   179
420
  2234388
370
     9
100
AcDbVertex
100
AcDb2dVertex
 10
106.1488903474717
 20
-152.7648427395866
 30
0.0
  0
SEQEND
  5
D7
330
D4
100
AcDbEntity
  8
_U+30EC_U+30A4_U+30E4_U+30FC 1
 62
   179
420
  2234388
370
     9
  0
POLYLINE
  5
D8
330
1F
100
AcDbEntity
  8
_U+30EC_U+30A4_U+30E4_U+30FC 1
 62
   179
420
  2234388
370
     9
100
AcDb2dPolyline
 66
     1
 10
0.0
 20
0.0
 30
0.0
  0
VERTEX
  5
D9
330
D8
100
AcDbEntity
  8
_U+30EC_U+30A4_U+30E4_U+30FC 1
 62
   179
420
  2234388
370
     9
100
AcDbVertex
100
AcDb2dVertex
 10
104.6888842736085
 20
-151.765070517614
 30
0.0
  0
VERTEX
  5
DA
330
D8
100
AcDbEntity
  8
_U+30EC_U+30A4_U+30E4_U+30FC 1
 62
   179
420
  2234388
370
     9
100
AcDbVertex
100
AcDb2dVertex
 10
107.1486625441877
 20
-151.765070517614
 30
0.0
  0
SEQEND
  5
DB
330
D8
100
AcDbEntity
  8
_U+30EC_U+30A4_U+30E4_U+30FC 1
 62
   179
420
  2234388
370
     9
  0
INSERT
  5
DD
330
1F
100
AcDbEntity
  8
_U+30EC_U+30A4_U+30E4_U+30FC 1
100
AcDbBlockReference
  2
block 6
 10
0.0
 20
0.0
 30
0.0
  0
POLYLINE
  5
ED
330
1F
100
AcDbEntity
  8
_U+30EC_U+30A4_U+30E4_U+30FC 1
 62
   179
420
  2234388
370
     9
100
AcDb2dPolyline
 66
     1
 10
0.0
 20
0.0
 30
0.0
  0
VERTEX
  5
EE
330
ED
100
AcDbEntity
  8
_U+30EC_U+30A4_U+30E4_U+30FC 1
 62
   179
420
  2234388
370
     9
100
AcDbVertex
100
AcDb2dVertex
 10
92.14873053251831
 20
-156.660532460835
 30
0.0
  0
VERTEX
  5
EF
330
ED
100
AcDbEntity
  8
_U+30EC_U+30A4_U+30E4_U+30FC 1
 62
   179
420
  2234388
370
     9
100
AcDbVertex
100
AcDb2dVertex
 10
97.13929891065891
 20
-156.660532460835
 30
0.0
  0
SEQEND
  5
F0
330
ED
100
AcDbEntity
  8
_U+30EC_U+30A4_U+30E4_U+30FC 1
 62
   179
420
  2234388
370
     9
  0
POLYLINE
  5
F1
330
1F
100
AcDbEntity
  8
_U+30EC_U+30A4_U+30E4_U+30FC 1
 62
   179
420
  2234388
370
     9
100
AcDb2dPolyline
 66
     1
 10
0.0
 20
0.0
 30
0.0
  0
VERTEX
  5
F2
330
F1
100
AcDbEntity
  8
_U+30EC_U+30A4_U+30E4_U+30FC 1
 62
   179
420
  2234388
370
     9
100
AcDbVertex
100
AcDb2dVertex
 10
92.14873053251831
 20
-155.2005263500888
 30
0.0
  0
VERTEX
  5
F3
330
F1
100
AcDbEntity
  8
_U+30EC_U+30A4_U+30E4_U+30FC 1
 62
   179
420
  2234388
370
     9
100
AcDbVertex
100
AcDb2dVertex
 10
92.14873053251831
 20
-157.6603046828069
 30
0.0
  0
SEQEND
  5
F4
330
F1
100
AcDbEntity
  8
_U+30EC_U+30A4_U+30E4_U+30FC 1
 62
   179
420
  2234388
370
     9
  0
POLYLINE
  5
F5
330
1F
100
AcDbEntity
  8
_U+30EC_U+30A4_U+30E4_U+30FC 1
 62
   179
420
  2234388
370
     9
100
AcDb2dPolyline
 66
     1
 10
0.0
 20
0.0
 30
0.0
  0
VERTEX
  5
F6
330
F5
100
AcDbEntity
  8
_U+30EC_U+30A4_U+30E4_U+30FC 1
 62
   179
420
  2234388
370
     9
100
AcDbVertex
100
AcDb2dVertex
 10
97.13929891065891
 20
-154.6934082946601
 30
0.0
  0
VERTEX
  5
F7
330
F5
100
AcDbEntity
  8
_U+30EC_U+30A4_U+30E4_U+30FC 1
 62
   179
420
  2234388
370
     9
100
AcDbVertex
100
AcDb2dVertex
 10
97.13929891065891
 20
-157.6603046828069
 30
0.0
  0
SEQEND
  5
F8
330
F5
100
AcDbEntity
  8
_U+30EC_U+30A4_U+30E4_U+30FC 1
 62
   179
420
  2234388
370
     9
  0
INSERT
  5
FA
330
1F
100
AcDbEntity
  8
_U+30EC_U+30A4_U+30E4_U+30FC 1
100
AcDbBlockReference
  2
block 7
 10
0.0
 20
0.0
 30
0.0
  0
POLYLINE
  5
FF
330
1F
100
AcDbEntity
  8
_U+30EC_U+30A4_U+30E4_U+30FC 1
 62
   179
420
  2234388
370
     9
100
AcDb2dPolyline
 66
     1
 10
0.0
 20
0.0
 30
0.0
  0
VERTEX
  5
100
330
FF
100
AcDbEntity
  8
_U+30EC_U+30A4_U+30E4_U+30FC 1
 62
   179
420
  2234388
370
     9
100
AcDbVertex
100
AcDb2dVertex
 10
92.14873053251831
 20
-160.6602916265019
 30
0.0
  0
VERTEX
  5
101
330
FF
100
AcDbEntity
  8
_U+30EC_U+30A4_U+30E4_U+30FC 1
 62
   179
420
  2234388
370
     9
100
AcDbVertex
100
AcDb2dVertex
 10
102.1488137828555
 20
-160.6602916265019
 30
0.0
  0
SEQEND
  5
102
330
FF
100
AcDbEntity
  8
_U+30EC_U+30A4_U+30E4_U+30FC 1
 62
   179
420
  2234388
370
     9
  0
POLYLINE
  5
103
330
1F
100
AcDbEntity
  8
_U+30EC_U+30A4_U+30E4_U+30FC 1
 62
   179
420
  2234388
370
     9
100
AcDb2dPolyline
 66
     1
 10
0.0
 20
0.0
 30
0.0
  0
VERTEX
  5
104
330
103
100
AcDbEntity
  8
_U+30EC_U+30A4_U+30E4_U+30FC 1
 62
   179
420
  2234388
370
     9
100
AcDbVertex
100
AcDb2dVertex
 10
92.14873053251831
 20
-155.2005263500888
 30
0.0
  0
VERTEX
  5
105
330
103
100
AcDbEntity
  8
_U+30EC_U+30A4_U+30E4_U+30FC 1
 62
   179
420
  2234388
370
     9
100
AcDbVertex
100
AcDb2dVertex
 10
92.14873053251831
 20
-161.6607694040293
 30
0.0
  0
SEQEND
  5
106
330
103
100
AcDbEntity
  8
_U+30EC_U+30A4_U+30E4_U+30FC 1
 62
   179
420
  2234388
370
     9
  0
POLYLINE
  5
107
330
1F
100
AcDbEntity
  8
_U+30EC_U+30A4_U+30E4_U+30FC 1
 62
   179
420
  2234388
370
     9
100
AcDb2dPolyline
 66
     1
 10
0.0
 20
0.0
 30
0.0
  0
VERTEX
  5
108
330
107
100
AcDbEntity
  8
_U+30EC_U+30A4_U+30E4_U+30FC 1
 62
   179
420
  2234388
370
     9
100
AcDbVertex
100
AcDb2dVertex
 10
102.1488137828555
 20
-154.3047882947572
 30
0.0
  0
VERTEX
  5
109
330
107
100
AcDbEntity
  8
_U+30EC_U+30A4_U+30E4_U+30FC 1
 62
   179
420
  2234388
370
     9
100
AcDbVertex
100
AcDb2dVertex
 10
102.1488137828555
 20
-161.6607694040293
 30
0.0
  0
SEQEND
  5
10A
330
107
100
AcDbEntity
  8
_U+30EC_U+30A4_U+30E4_U+30FC 1
 62
   179
420
  2234388
370
     9
  0
INSERT
  5
10C
330
1F
100
AcDbEntity
  8
_U+30EC_U+30A4_U+30E4_U+30FC 1
100
AcDbBlockReference
  2
block 8
 10
0.0
 20
0.0
 30
0.0
  0
INSERT
  5
115
330
1F
100
AcDbEntity
  8
_U+30EC_U+30A4_U+30E4_U+30FC 1
100
AcDbBlockReference
  2
block 9
 10
0.0
 20
0.0
 30
0.0
  0
ENDSEC
  0
SECTION
  2
OBJECTS
  0
DICTIONARY
  5
C
330
0
100
AcDbDictionary
281
     1
  3
ACAD_GROUP
350
D
  3
ACAD_LAYOUT
350
1A
  3
ACAD_MATERIAL
350
3B
  3
ACAD_MLEADERSTYLE
350
12C
  3
ACAD_MLINESTYLE
350
17
  3
ACAD_PLOTSETTINGS
350
19
  3
ACAD_PLOTSTYLENAME
350
E
  3
ACAD_TABLESTYLE
350
12B
  3
ACAD_VISUALSTYLE
350
2A
  0
SUN
  5
3F
330
29
100
AcDbSun
 90
        1
290
     0
 63
     7
421
 16777215
 40
1.0
291
     1
 91
  2455826
 92
 54000000
292
     0
 70
     2
 71
   256
280
     1
  0
DICTIONARY
  5
D
102
{ACAD_REACTORS
330
C
102
}
330
C
100
AcDbDictionary
281
     1
  0
DICTIONARY
  5
1A
102
{ACAD_REACTORS
330
C
102
}
330
C
100
AcDbDictionary
281
     1
  3
Layout1
350
1E
  3
Layout2
350
26
  3
Model
350
22
  0
DICTIONARY
  5
3B
102
{ACAD_REACTORS
330
C
102
}
330
C
100
AcDbDictionary
281
     1
  3
ByBlock
350
3D
  3
ByLayer
350
3C
  3
Global
350
3E
  0
DICTIONARY
  5
12C
102
{ACAD_REACTORS
330
C
102
}
330
C
100
AcDbDictionary
281
     1
  0
DICTIONARY
  5
17
102
{ACAD_REACTORS
330
C
102
}
330
C
100
AcDbDictionary
281
     1
  3
Standard
350
18
  0
DICTIONARY
  5
19
102
{ACAD_REACTORS
330
C
102
}
330
C
100
AcDbDictionary
281
     1
  0
ACDBDICTIONARYWDFLT
  5
E
102
{ACAD_REACTORS
330
C
102
}
330
C
100
AcDbDictionary
281
     1
  3
Normal
350
F
100
AcDbDictionaryWithDefault
340
F
  0
DICTIONARY
  5
12B
102
{ACAD_REACTORS
330
C
102
}
330
C
100
AcDbDictionary
281
     1
  0
DICTIONARY
  5
2A
102
{ACAD_REACTORS
330
C
102
}
330
C
100
AcDbDictionary
281
     1
  3
2dWireframe
350
2F
  3
3D Hidden
350
31
  3
3dWireframe
350
30
  3
Basic
350
32
  3
Brighten
350
36
  3
ColorChange
350
3A
  3
Conceptual
350
34
  3
Dim
350
35
  3
Facepattern
350
39
  3
Flat
350
2B
  3
FlatWithEdges
350
2C
  3
Gouraud
350
2D
  3
GouraudWithEdges
350
2E
  3
Linepattern
350
38
  3
Realistic
350
33
  3
Thicken
350
37
  0
LAYOUT
  5
1E
102
{ACAD_REACTORS
330
1A
102
}
330
1A
100
AcDbPlotSettings
  1

  2
none_device
  4

  6

 40
0.0
 41
0.0
 42
0.0
 43
0.0
 44
0.0
 45
0.0
 46
0.0
 47
0.0
 48
0.0
 49
0.0
140
0.0
141
0.0
142
1.0
143
1.0
 70
   688
 72
     0
 73
     0
 74
     5
  7

 75
    16
 76
     0
 77
     2
 78
   300
147
1.0
148
0.0
149
0.0
100
AcDbLayout
  1
Layout1
 70
     1
 71
     1
 10
0.0
 20
0.0
 11
12.0
 21
9.0
 12
0.0
 22
0.0
 32
0.0
 14
1.000000000000000E+20
 24
1.000000000000000E+20
 34
1.000000000000000E+20
 15
-1.000000000000000E+20
 25
-1.000000000000000E+20
 35
-1.000000000000000E+20
146
0.0
 13
0.0
 23
0.0
 33
0.0
 16
1.0
 26
0.0
 36
0.0
 17
0.0
 27
1.0
 37
0.0
 76
     0
330
1B
  0
LAYOUT
  5
26
102
{ACAD_REACTORS
330
1A
102
}
330
1A
100
AcDbPlotSettings
  1

  2
none_device
  4

  6

 40
0.0
 41
0.0
 42
0.0
 43
0.0
 44
0.0
 45
0.0
 46
0.0
 47
0.0
 48
0.0
 49
0.0
140
0.0
141
0.0
142
1.0
143
1.0
 70
   688
 72
     0
 73
     0
 74
     5
  7

 75
    16
 76
     0
 77
     2
 78
   300
147
1.0
148
0.0
149
0.0
100
AcDbLayout
  1
Layout2
 70
     1
 71
     2
 10
0.0
 20
0.0
 11
0.0
 21
0.0
 12
0.0
 22
0.0
 32
0.0
 14
0.0
 24
0.0
 34
0.0
 15
0.0
 25
0.0
 35
0.0
146
0.0
 13
0.0
 23
0.0
 33
0.0
 16
1.0
 26
0.0
 36
0.0
 17
0.0
 27
1.0
 37
0.0
 76
     0
330
23
  0
LAYOUT
  5
22
102
{ACAD_REACTORS
330
1A
102
}
330
1A
100
AcDbPlotSettings
  1

  2
none_device
  4

  6

 40
0.0
 41
0.0
 42
0.0
 43
0.0
 44
0.0
 45
0.0
 46
0.0
 47
0.0
 48
0.0
 49
0.0
140
0.0
141
0.0
142
1.0
143
1.0
 70
  1712
 72
     0
 73
     0
 74
     0
  7

 75
     0
 76
     0
 77
     2
 78
   300
147
1.0
148
0.0
149
0.0
100
AcDbLayout
  1
Model
 70
     1
 71
     0
 10
0.0
 20
0.0
 11
12.0
 21
9.0
 12
0.0
 22
0.0
 32
0.0
 14
1.000000000000000E+20
 24
1.000000000000000E+20
 34
1.000000000000000E+20
 15
-1.000000000000000E+20
 25
-1.000000000000000E+20
 35
-1.000000000000000E+20
146
0.0
 13
0.0
 23
0.0
 33
0.0
 16
1.0
 26
0.0
 36
0.0
 17
0.0
 27
1.0
 37
0.0
 76
     0
330
1F
331
29
  0
MATERIAL
  5
3D
102
{ACAD_REACTORS
330
3B
102
}
330
3B
100
AcDbMaterial
  1
ByBlock
 72
     1
 94
      127
  0
MATERIAL
  5
3C
102
{ACAD_REACTORS
330
3B
102
}
330
3B
100
AcDbMaterial
  1
ByLayer
 72
     1
 94
      127
  0
MATERIAL
  5
3E
102
{ACAD_REACTORS
330
3B
102
}
330
3B
100
AcDbMaterial
  1
Global
 72
     1
 94
      127
  0
MLINESTYLE
  5
18
102
{ACAD_REACTORS
330
17
102
}
330
17
100
AcDbMlineStyle
  2
Standard
 70
     0
  3

 62
   256
 51
90.0
 52
90.0
 71
     2
 49
0.5
 62
   256
  6
BYLAYER
 49
-0.5
 62
   256
  6
BYLAYER
  0
ACDBPLACEHOLDER
  5
F
102
{ACAD_REACTORS
330
E
102
}
330
E
  0
VISUALSTYLE
  5
2F
102
{ACAD_REACTORS
330
2A
102
}
330
2A
100
AcDbVisualStyle
  2
2dWireframe
 70
     4
177
     2
291
     0
 71
     0
176
     1
 72
     2
176
     1
 73
     0
176
     1
 90
        0
176
     1
 40
-0.6
176
     1
 41
-30.0
176
     1
 62
     5
 63
     7
421
 16777215
176
     1
 74
     1
176
     1
 91
        4
176
     1
 64
     7
176
     1
 65
   257
176
     1
 75
     1
176
     1
175
     1
176
     1
 42
1.0
176
     1
 92
        0
176
     1
 66
   257
176
     1
 43
1.0
176
     1
 76
     1
176
     1
 77
     6
176
     1
 78
     2
176
     1
 67
     7
176
     1
 79
     5
176
     1
170
     0
176
     1
171
     0
176
     1
290
     0
176
     1
 93
        1
176
     1
 44
0.0
176
     1
173
     0
176
     1
  0
VISUALSTYLE
  5
31
102
{ACAD_REACTORS
330
2A
102
}
330
2A
100
AcDbVisualStyle
  2
3D Hidden
 70
     6
177
     2
291
     0
 71
     1
176
     1
 72
     2
176
     1
 73
     2
176
     1
 90
        0
176
     1
 40
-0.6
176
     1
 41
-30.0
176
     1
 62
     5
 63
     7
421
 16777215
176
     1
 74
     2
176
     1
 91
        2
176
     1
 64
     7
176
     1
 65
   257
176
     1
 75
     2
176
     1
175
     1
176
     1
 42
40.0
176
     1
 92
        0
176
     1
 66
   257
176
     1
 43
1.0
176
     1
 76
     1
176
     1
 77
     6
176
     1
 78
     2
176
     1
 67
     7
176
     1
 79
     3
176
     1
170
     0
176
     1
171
     0
176
     1
290
     0
176
     1
 93
        1
176
     1
 44
0.0
176
     1
173
     0
176
     1
  0
VISUALSTYLE
  5
30
102
{ACAD_REACTORS
330
2A
102
}
330
2A
100
AcDbVisualStyle
  2
3dWireframe
 70
     5
177
     2
291
     0
 71
     0
176
     1
 72
     2
176
     1
 73
     0
176
     1
 90
        0
176
     1
 40
-0.6
176
     1
 41
-30.0
176
     1
 62
     5
 63
     7
421
 16777215
176
     1
 74
     1
176
     1
 91
        4
176
     1
 64
     7
176
     1
 65
   257
176
     1
 75
     1
176
     1
175
     1
176
     1
 42
1.0
176
     1
 92
        0
176
     1
 66
   257
176
     1
 43
1.0
176
     1
 76
     1
176
     1
 77
     6
176
     1
 78
     2
176
     1
 67
     7
176
     1
 79
     5
176
     1
170
     0
176
     1
171
     0
176
     1
290
     0
176
     1
 93
        1
176
     1
 44
0.0
176
     1
173
     0
176
     1
  0
VISUALSTYLE
  5
32
102
{ACAD_REACTORS
330
2A
102
}
330
2A
100
AcDbVisualStyle
  2
Basic
 70
     7
177
     2
291
     1
 71
     1
176
     1
 72
     0
176
     1
 73
     1
176
     1
 90
        0
176
     1
 40
-0.6
176
     1
 41
-30.0
176
     1
 62
     5
 63
     7
421
 16777215
176
     1
 74
     0
176
     1
 91
        4
176
     1
 64
     7
176
     1
 65
   257
176
     1
 75
     1
176
     1
175
     1
176
     1
 42
1.0
176
     1
 92
        8
176
     1
 66
     7
176
     1
 43
1.0
176
     1
 76
     1
176
     1
 77
     6
176
     1
 78
     2
176
     1
 67
     7
176
     1
 79
     5
176
     1
170
     0
176
     1
171
     0
176
     1
290
     0
176
     1
 93
        1
176
     1
 44
0.0
176
     1
173
     0
176
     1
  0
VISUALSTYLE
  5
36
102
{ACAD_REACTORS
330
2A
102
}
330
2A
100
AcDbVisualStyle
  2
Brighten
 70
    12
177
     2
291
     1
 71
     2
176
     1
 72
     2
176
     1
 73
     0
176
     1
 90
        0
176
     1
 40
-0.6
176
     1
 41
-30.0
176
     1
 62
     5
 63
     7
421
 16777215
176
     1
 74
     1
176
     1
 91
        4
176
     1
 64
     7
176
     1
 65
   257
176
     1
 75
     1
176
     1
175
     1
176
     1
 42
1.0
176
     1
 92
        8
176
     1
 66
     7
176
     1
 43
1.0
176
     1
 76
     1
176
     1
 77
     6
176
     1
 78
     2
176
     1
 67
     7
176
     1
 79
     5
176
     1
170
     0
176
     1
171
     0
176
     1
290
     0
176
     1
 93
        1
176
     1
 44
50.0
176
     1
173
     0
176
     1
  0
VISUALSTYLE
  5
3A
102
{ACAD_REACTORS
330
2A
102
}
330
2A
100
AcDbVisualStyle
  2
ColorChange
 70
    16
177
     2
291
     1
 71
     2
176
     1
 72
     2
176
     1
 73
     3
176
     1
 90
        0
176
     1
 40
-0.6
176
     1
 41
-30.0
176
     1
 62
     5
 63
     8
421
  8421504
176
     1
 74
     1
176
     1
 91
        4
176
     1
 64
     7
176
     1
 65
   257
176
     1
 75
     1
176
     1
175
     1
176
     1
 42
1.0
176
     1
 92
        8
176
     1
 66
     8
424
  8421504
176
     1
 43
1.0
176
     1
 76
     1
176
     1
 77
     6
176
     1
 78
     2
176
     1
 67
     7
176
     1
 79
     5
176
     1
170
     0
176
     1
171
     0
176
     1
290
     0
176
     1
 93
        1
176
     1
 44
0.0
176
     1
173
     0
176
     1
  0
VISUALSTYLE
  5
34
102
{ACAD_REACTORS
330
2A
102
}
330
2A
100
AcDbVisualStyle
  2
Conceptual
 70
     9
177
     2
291
     0
 71
     3
176
     1
 72
     2
176
     1
 73
     0
176
     1
 90
        0
176
     1
 40
-0.6
176
     1
 41
-30.0
176
     1
 62
     5
 63
     7
421
 16777215
176
     1
 74
     2
176
     1
 91
        2
176
     1
 64
     7
176
     1
 65
   257
176
     1
 75
     1
176
     1
175
     1
176
     1
 42
40.0
176
     1
 92
        8
176
     1
 66
     7
176
     1
 43
1.0
176
     1
 76
     1
176
     1
 77
     6
176
     1
 78
     2
176
     1
 67
     7
176
     1
 79
     3
176
     1
170
     0
176
     1
171
     0
176
     1
290
     0
176
     1
 93
        1
176
     1
 44
0.0
176
     1
173
     0
176
     1
  0
VISUALSTYLE
  5
35
102
{ACAD_REACTORS
330
2A
102
}
330
2A
100
AcDbVisualStyle
  2
Dim
 70
    11
177
     2
291
     1
 71
     2
176
     1
 72
     2
176
     1
 73
     0
176
     1
 90
        0
176
     1
 40
-0.6
176
     1
 41
-30.0
176
     1
 62
     5
 63
     7
421
 16777215
176
     1
 74
     1
176
     1
 91
        4
176
     1
 64
     7
176
     1
 65
   257
176
     1
 75
     1
176
     1
175
     1
176
     1
 42
1.0
176
     1
 92
        8
176
     1
 66
     7
176
     1
 43
1.0
176
     1
 76
     1
176
     1
 77
     6
176
     1
 78
     2
176
     1
 67
     7
176
     1
 79
     5
176
     1
170
     0
176
     1
171
     0
176
     1
290
     0
176
     1
 93
        1
176
     1
 44
-50.0
176
     1
173
     0
176
     1
  0
VISUALSTYLE
  5
39
102
{ACAD_REACTORS
330
2A
102
}
330
2A
100
AcDbVisualStyle
  2
Facepattern
 70
    15
177
     2
291
     1
 71
     2
176
     1
 72
     2
176
     1
 73
     0
176
     1
 90
        0
176
     1
 40
-0.6
176
     1
 41
-30.0
176
     1
 62
     5
 63
     7
421
 16777215
176
     1
 74
     1
176
     1
 91
        4
176
     1
 64
     7
176
     1
 65
   257
176
     1
 75
     1
176
     1
175
     1
176
     1
 42
1.0
176
     1
 92
        8
176
     1
 66
     7
176
     1
 43
1.0
176
     1
 76
     1
176
     1
 77
     6
176
     1
 78
     2
176
     1
 67
     7
176
     1
 79
     5
176
     1
170
     0
176
     1
171
     0
176
     1
290
     0
176
     1
 93
        1
176
     1
 44
0.0
176
     1
173
     0
176
     1
  0
VISUALSTYLE
  5
2B
102
{ACAD_REACTORS
330
2A
102
}
330
2A
100
AcDbVisualStyle
  2
Flat
 70
     0
177
     2
291
     1
 71
     2
176
     1
 72
     1
176
     1
 73
     1
176
     1
 90
        2
176
     1
 40
-0.6
176
     1
 41
30.0
176
     1
 62
     5
 63
     7
421
 16777215
176
     1
 74
     0
176
     1
 91
        4
176
     1
 64
     7
176
     1
 65
   257
176
     1
 75
     1
176
     1
175
     1
176
     1
 42
1.0
176
     1
 92
        8
176
     1
 66
     7
176
     1
 43
1.0
176
     1
 76
     1
176
     1
 77
     6
176
     1
 78
     2
176
     1
 67
     7
176
     1
 79
     5
176
     1
170
     0
176
     1
171
     0
176
     1
290
     0
176
     1
 93
       13
176
     1
 44
0.0
176
     1
173
     0
176
     1
  0
VISUALSTYLE
  5
2C
102
{ACAD_REACTORS
330
2A
102
}
330
2A
100
AcDbVisualStyle
  2
FlatWithEdges
 70
     1
177
     2
291
     1
 71
     2
176
     1
 72
     1
176
     1
 73
     1
176
     1
 90
        2
176
     1
 40
-0.6
176
     1
 41
30.0
176
     1
 62
     5
 63
     7
421
 16777215
176
     1
 74
     1
176
     1
 91
        4
176
     1
 64
     7
176
     1
 65
   257
176
     1
 75
     1
176
     1
175
     1
176
     1
 42
1.0
176
     1
 92
        0
176
     1
 66
   257
176
     1
 43
1.0
176
     1
 76
     1
176
     1
 77
     6
176
     1
 78
     2
176
     1
 67
     7
176
     1
 79
     5
176
     1
170
     0
176
     1
171
     0
176
     1
290
     0
176
     1
 93
       13
176
     1
 44
0.0
176
     1
173
     0
176
     1
  0
VISUALSTYLE
  5
2D
102
{ACAD_REACTORS
330
2A
102
}
330
2A
100
AcDbVisualStyle
  2
Gouraud
 70
     2
177
     2
291
     1
 71
     2
176
     1
 72
     2
176
     1
 73
     1
176
     1
 90
        2
176
     1
 40
-0.6
176
     1
 41
30.0
176
     1
 62
     5
 63
     7
421
 16777215
176
     1
 74
     0
176
     1
 91
        4
176
     1
 64
     7
176
     1
 65
   257
176
     1
 75
     1
176
     1
175
     1
176
     1
 42
1.0
176
     1
 92
        0
176
     1
 66
     7
176
     1
 43
1.0
176
     1
 76
     1
176
     1
 77
     6
176
     1
 78
     2
176
     1
 67
     7
176
     1
 79
     5
176
     1
170
     0
176
     1
171
     0
176
     1
290
     0
176
     1
 93
       13
176
     1
 44
0.0
176
     1
173
     0
176
     1
  0
VISUALSTYLE
  5
2E
102
{ACAD_REACTORS
330
2A
102
}
330
2A
100
AcDbVisualStyle
  2
GouraudWithEdges
 70
     3
177
     2
291
     1
 71
     2
176
     1
 72
     2
176
     1
 73
     1
176
     1
 90
        2
176
     1
 40
-0.6
176
     1
 41
30.0
176
     1
 62
     5
 63
     7
421
 16777215
176
     1
 74
     1
176
     1
 91
        4
176
     1
 64
     7
176
     1
 65
   257
176
     1
 75
     1
176
     1
175
     1
176
     1
 42
1.0
176
     1
 92
        0
176
     1
 66
   257
176
     1
 43
1.0
176
     1
 76
     1
176
     1
 77
     6
176
     1
 78
     2
176
     1
 67
     7
176
     1
 79
     5
176
     1
170
     0
176
     1
171
     0
176
     1
290
     0
176
     1
 93
       13
176
     1
 44
0.0
176
     1
173
     0
176
     1
  0
VISUALSTYLE
  5
38
102
{ACAD_REACTORS
330
2A
102
}
330
2A
100
AcDbVisualStyle
  2
Linepattern
 70
    14
177
     2
291
     1
 71
     2
176
     1
 72
     2
176
     1
 73
     0
176
     1
 90
        0
176
     1
 40
-0.6
176
     1
 41
-30.0
176
     1
 62
     5
 63
     7
421
 16777215
176
     1
 74
     1
176
     1
 91
        4
176
     1
 64
     7
176
     1
 65
   257
176
     1
 75
     7
176
     1
175
     7
176
     1
 42
1.0
176
     1
 92
        8
176
     1
 66
     7
176
     1
 43
1.0
176
     1
 76
     1
176
     1
 77
     6
176
     1
 78
     2
176
     1
 67
     7
176
     1
 79
     5
176
     1
170
     0
176
     1
171
     0
176
     1
290
     0
176
     1
 93
        1
176
     1
 44
0.0
176
     1
173
     0
176
     1
  0
VISUALSTYLE
  5
33
102
{ACAD_REACTORS
330
2A
102
}
330
2A
100
AcDbVisualStyle
  2
Realistic
 70
     8
177
     2
291
     0
 71
     2
176
     1
 72
     2
176
     1
 73
     0
176
     1
 90
        0
176
     1
 40
-0.6
176
     1
 41
-30.0
176
     1
 62
     5
 63
     7
421
 16777215
176
     1
 74
     1
176
     1
 91
        0
176
     1
 64
     7
176
     1
 65
   257
176
     1
 75
     1
176
     1
175
     1
176
     1
 42
1.0
176
     1
 92
        8
176
     1
 66
     8
424
  7895160
176
     1
 43
1.0
176
     1
 76
     1
176
     1
 77
     6
176
     1
 78
     2
176
     1
 67
     7
176
     1
 79
     5
176
     1
170
     0
176
     1
171
     0
176
     1
290
     0
176
     1
 93
       13
176
     1
 44
0.0
176
     1
173
     0
176
     1
  0
VISUALSTYLE
  5
37
102
{ACAD_REACTORS
330
2A
102
}
330
2A
100
AcDbVisualStyle
  2
Thicken
 70
    13
177
     2
291
     1
 71
     2
176
     1
 72
     2
176
     1
 73
     0
176
     1
 90
        0
176
     1
 40
-0.6
176
     1
 41
-30.0
176
     1
 62
     5
 63
     7
421
 16777215
176
     1
 74
     1
176
     1
 91
        4
176
     1
 64
     7
176
     1
 65
   257
176
     1
 75
     1
176
     1
175
     1
176
     1
 42
1.0
176
     1
 92
       12
176
     1
 66
     7
176
     1
 43
1.0
176
     1
 76
     1
176
     1
 77
     6
176
     1
 78
     2
176
     1
 67
     7
176
     1
 79
     5
176
     1
170
     0
176
     1
171
     0
176
     1
290
     0
176
     1
 93
        1
176
     1
 44
0.0
176
     1
173
     0
176
     1
  0
ENDSEC
  0
EOF
