  0
SECTION
  2
HEADER
  9
$ACADVER
  1
AC1024
  9
$ACADMAINTVER
 70
   226
  9
$DWGCODEPAGE
  3
ANSI_932
  9
$INSBASE
 10
0.0
 20
0.0
 30
0.0
  9
$EXTMIN
 10
1.000000000000000E+20
 20
1.000000000000000E+20
 30
1.000000000000000E+20
  9
$EXTMAX
 10
-1.000000000000000E+20
 20
-1.000000000000000E+20
 30
-1.000000000000000E+20
  9
$LIMMIN
 10
0.0
 20
0.0
  9
$LIMMAX
 10
12.0
 20
9.0
  9
$ORTHOMODE
 70
     0
  9
$REGENMODE
 70
     1
  9
$FILLMODE
 70
     1
  9
$QTEXTMODE
 70
     0
  9
$MIRRTEXT
 70
     0
  9
$LTSCALE
 40
1.0
  9
$ATTMODE
 70
     1
  9
$TEXTSIZE
 40
0.2
  9
$TRACEWID
 40
0.05
  9
$TEXTSTYLE
  7
Standard
  9
$CLAYER
  8
0
  9
$CELTYPE
  6
ByLayer
  9
$CECOLOR
 62
   256
  9
$CELTSCALE
 40
1.0
  9
$DISPSILH
 70
     0
  9
$DIMSCALE
 40
1.0
  9
$DIMASZ
 40
0.18
  9
$DIMEXO
 40
0.0625
  9
$DIMDLI
 40
0.38
  9
$DIMRND
 40
0.0
  9
$DIMDLE
 40
0.0
  9
$DIMEXE
 40
0.18
  9
$DIMTP
 40
0.0
  9
$DIMTM
 40
0.0
  9
$DIMTXT
 40
0.18
  9
$DIMCEN
 40
0.09
  9
$DIMTSZ
 40
0.0
  9
$DIMTOL
 70
     0
  9
$DIMLIM
 70
     0
  9
$DIMTIH
 70
     1
  9
$DIMTOH
 70
     1
  9
$DIMSE1
 70
     0
  9
$DIMSE2
 70
     0
  9
$DIMTAD
 70
     0
  9
$DIMZIN
 70
     0
  9
$DIMBLK
  1

  9
$DIMASO
 70
     1
  9
$DIMSHO
 70
     1
  9
$DIMPOST
  1

  9
$DIMAPOST
  1

  9
$DIMALT
 70
     0
  9
$DIMALTD
 70
     2
  9
$DIMALTF
 40
25.4
  9
$DIMLFAC
 40
1.0
  9
$DIMTOFL
 70
     0
  9
$DIMTVP
 40
0.0
  9
$DIMTIX
 70
     0
  9
$DIMSOXD
 70
     0
  9
$DIMSAH
 70
     0
  9
$DIMBLK1
  1

  9
$DIMBLK2
  1

  9
$DIMSTYLE
  2
Standard
  9
$DIMCLRD
 70
     0
  9
$DIMCLRE
 70
     0
  9
$DIMCLRT
 70
     0
  9
$DIMTFAC
 40
1.0
  9
$DIMGAP
 40
0.09
  9
$DIMJUST
 70
     0
  9
$DIMSD1
 70
     0
  9
$DIMSD2
 70
     0
  9
$DIMTOLJ
 70
     1
  9
$DIMTZIN
 70
     0
  9
$DIMALTZ
 70
     0
  9
$DIMALTTZ
 70
     0
  9
$DIMUPT
 70
     0
  9
$DIMDEC
 70
     4
  9
$DIMTDEC
 70
     4
  9
$DIMALTU
 70
     2
  9
$DIMALTTD
 70
     2
  9
$DIMTXSTY
  7
Standard
  9
$DIMAUNIT
 70
     0
  9
$DIMADEC
 70
     0
  9
$DIMALTRND
 40
0.0
  9
$DIMAZIN
 70
     0
  9
$DIMDSEP
 70
    46
  9
$DIMATFIT
 70
     3
  9
$DIMFRAC
 70
     0
  9
$DIMLDRBLK
  1

  9
$DIMLUNIT
 70
     2
  9
$DIMLWD
 70
    -2
  9
$DIMLWE
 70
    -2
  9
$DIMTMOVE
 70
     0
  9
$DIMFXL
 40
1.0
  9
$DIMFXLON
 70
     0
  9
$DIMJOGANG
 40
0.7853981633974483
  9
$DIMTFILL
 70
     0
  9
$DIMTFILLCLR
 70
     0
  9
$DIMARCSYM
 70
     0
  9
$DIMLTYPE
  6

  9
$DIMLTEX1
  6

  9
$DIMLTEX2
  6

  9
$DIMTXTDIRECTION
 70
     0
  9
$LUNITS
 70
     2
  9
$LUPREC
 70
     4
  9
$SKETCHINC
 40
0.1
  9
$FILLETRAD
 40
0.0
  9
$AUNITS
 70
     0
  9
$AUPREC
 70
     0
  9
$MENU
  1
.
  9
$ELEVATION
 40
0.0
  9
$PELEVATION
 40
0.0
  9
$THICKNESS
 40
0.0
  9
$LIMCHECK
 70
     0
  9
$CHAMFERA
 40
0.0
  9
$CHAMFERB
 40
0.0
  9
$CHAMFERC
 40
0.0
  9
$CHAMFERD
 40
0.0
  9
$SKPOLY
 70
     0
  9
$TDCREATE
 40
2459676.423877315
  9
$TDUCREATE
 40
2459676.048877315
  9
$TDUPDATE
 40
2459676.423877315
  9
$TDUUPDATE
 40
2459676.048877315
  9
$TDINDWG
 40
0.0000000000
  9
$TDUSRTIMER
 40
0.0000000000
  9
$USRTIMER
 70
     1
  9
$ANGBASE
 50
0.0
  9
$ANGDIR
 70
     0
  9
$PDMODE
 70
     0
  9
$PDSIZE
 40
0.0
  9
$PLINEWID
 40
0.0
  9
$SPLFRAME
 70
     0
  9
$SPLINETYPE
 70
     6
  9
$SPLINESEGS
 70
     8
  9
$HANDSEED
  5
14B
  9
$SURFTAB1
 70
     6
  9
$SURFTAB2
 70
     6
  9
$SURFTYPE
 70
     6
  9
$SURFU
 70
     6
  9
$SURFV
 70
     6
  9
$UCSBASE
  2

  9
$UCSNAME
  2

  9
$UCSORG
 10
0.0
 20
0.0
 30
0.0
  9
$UCSXDIR
 10
1.0
 20
0.0
 30
0.0
  9
$UCSYDIR
 10
0.0
 20
1.0
 30
0.0
  9
$UCSORTHOREF
  2

  9
$UCSORTHOVIEW
 70
     0
  9
$UCSORGTOP
 10
0.0
 20
0.0
 30
0.0
  9
$UCSORGBOTTOM
 10
0.0
 20
0.0
 30
0.0
  9
$UCSORGLEFT
 10
0.0
 20
0.0
 30
0.0
  9
$UCSORGRIGHT
 10
0.0
 20
0.0
 30
0.0
  9
$UCSORGFRONT
 10
0.0
 20
0.0
 30
0.0
  9
$UCSORGBACK
 10
0.0
 20
0.0
 30
0.0
  9
$PUCSBASE
  2

  9
$PUCSNAME
  2

  9
$PUCSORG
 10
0.0
 20
0.0
 30
0.0
  9
$PUCSXDIR
 10
1.0
 20
0.0
 30
0.0
  9
$PUCSYDIR
 10
0.0
 20
1.0
 30
0.0
  9
$PUCSORTHOREF
  2

  9
$PUCSORTHOVIEW
 70
     0
  9
$PUCSORGTOP
 10
0.0
 20
0.0
 30
0.0
  9
$PUCSORGBOTTOM
 10
0.0
 20
0.0
 30
0.0
  9
$PUCSORGLEFT
 10
0.0
 20
0.0
 30
0.0
  9
$PUCSORGRIGHT
 10
0.0
 20
0.0
 30
0.0
  9
$PUCSORGFRONT
 10
0.0
 20
0.0
 30
0.0
  9
$PUCSORGBACK
 10
0.0
 20
0.0
 30
0.0
  9
$USERI1
 70
     0
  9
$USERI2
 70
     0
  9
$USERI3
 70
     0
  9
$USERI4
 70
     0
  9
$USERI5
 70
     0
  9
$USERR1
 40
0.0
  9
$USERR2
 40
0.0
  9
$USERR3
 40
0.0
  9
$USERR4
 40
0.0
  9
$USERR5
 40
0.0
  9
$WORLDVIEW
 70
     1
  9
$SHADEDGE
 70
     3
  9
$SHADEDIF
 70
    70
  9
$TILEMODE
 70
     1
  9
$MAXACTVP
 70
    64
  9
$PINSBASE
 10
0.0
 20
0.0
 30
0.0
  9
$PLIMCHECK
 70
     0
  9
$PEXTMIN
 10
1.000000000000000E+20
 20
1.000000000000000E+20
 30
1.000000000000000E+20
  9
$PEXTMAX
 10
-1.000000000000000E+20
 20
-1.000000000000000E+20
 30
-1.000000000000000E+20
  9
$PLIMMIN
 10
0.0
 20
0.0
  9
$PLIMMAX
 10
12.0
 20
9.0
  9
$UNITMODE
 70
     0
  9
$VISRETAIN
 70
     1
  9
$PLINEGEN
 70
     0
  9
$PSLTSCALE
 70
     1
  9
$TREEDEPTH
 70
  3020
  9
$CMLSTYLE
  2
Standard
  9
$CMLJUST
 70
     0
  9
$CMLSCALE
 40
1.0
  9
$PROXYGRAPHICS
 70
     1
  9
$MEASUREMENT
 70
     0
  9
$CELWEIGHT
370
    -1
  9
$ENDCAPS
280
     0
  9
$JOINSTYLE
280
     0
  9
$LWDISPLAY
290
     1
  9
$INSUNITS
 70
     4
  9
$HYPERLINKBASE
  1

  9
$STYLESHEET
  1

  9
$XEDIT
290
     1
  9
$CEPSNTYPE
380
     0
  9
$PSTYLEMODE
290
     1
  9
$FINGERPRINTGUID
  2
{505A70C7-C053-4D4A-89A4-78C5A8889EE3}
  9
$VERSIONGUID
  2
{71B6BF64-756C-434C-8871-6C93625CFE7B}
  9
$EXTNAMES
290
     1
  9
$PSVPSCALE
 40
0.0
  9
$OLESTARTUP
290
     0
  9
$SORTENTS
280
   127
  9
$INDEXCTL
280
     0
  9
$HIDETEXT
280
     1
  9
$XCLIPFRAME
280
     2
  9
$HALOGAP
280
     0
  9
$OBSCOLOR
 70
   257
  9
$OBSLTYPE
280
     0
  9
$INTERSECTIONDISPLAY
280
     0
  9
$INTERSECTIONCOLOR
 70
   257
  9
$DIMASSOC
280
     2
  9
$PROJECTNAME
  1

  9
$CAMERADISPLAY
290
     0
  9
$LENSLENGTH
 40
50.0
  9
$CAMERAHEIGHT
 40
0.0
  9
$STEPSPERSEC
 40
2.0
  9
$STEPSIZE
 40
6.0
  9
$3DDWFPREC
 40
2.0
  9
$PSOLWIDTH
 40
0.25
  9
$PSOLHEIGHT
 40
4.0
  9
$LOFTANG1
 40
1.570796326794896
  9
$LOFTANG2
 40
1.570796326794896
  9
$LOFTMAG1
 40
0.0
  9
$LOFTMAG2
 40
0.0
  9
$LOFTPARAM
 70
     7
  9
$LOFTNORMALS
280
     1
  9
$LATITUDE
 40
37.795
  9
$LONGITUDE
 40
-122.394
  9
$NORTHDIRECTION
 40
0.0
  9
$TIMEZONE
 70
 -8000
  9
$LIGHTGLYPHDISPLAY
280
     1
  9
$TILEMODELIGHTSYNCH
280
     1
  9
$CMATERIAL
347
11
  9
$SOLIDHIST
280
     0
  9
$SHOWHIST
280
     1
  9
$DWFFRAME
280
     2
  9
$DGNFRAME
280
     0
  9
$REALWORLDSCALE
290
     1
  9
$INTERFERECOLOR
 62
     1
  9
$INTERFEREOBJVS
345
33
  9
$INTERFEREVPVS
346
30
  9
$CSHADOW
280
     0
  9
$SHADOWPLANELOCATION
 40
0.0
  0
ENDSEC
  0
SECTION
  2
CLASSES
  0
CLASS
  1
ACDBDICTIONARYWDFLT
  2
AcDbDictionaryWithDefault
  3
ObjectDBX Classes
 90
        0
 91
        1
280
     0
281
     0
  0
CLASS
  1
MATERIAL
  2
AcDbMaterial
  3
ObjectDBX Classes
 90
     1153
 91
        3
280
     0
281
     0
  0
CLASS
  1
VISUALSTYLE
  2
AcDbVisualStyle
  3
ObjectDBX Classes
 90
     4095
 91
       24
280
     0
281
     0
  0
CLASS
  1
SCALE
  2
AcDbScale
  3
ObjectDBX Classes
 90
     1153
 91
       17
280
     0
281
     0
  0
CLASS
  1
TABLESTYLE
  2
AcDbTableStyle
  3
ObjectDBX Classes
 90
     4095
 91
        1
280
     0
281
     0
  0
CLASS
  1
MLEADERSTYLE
  2
AcDbMLeaderStyle
  3
ACDB_MLEADERSTYLE_CLASS
 90
     4095
 91
        1
280
     0
281
     0
  0
CLASS
  1
ACDBSECTIONVIEWSTYLE
  2
AcDbSectionViewStyle
  3
ObjectDBX Classes
 90
     1025
 91
        1
280
     0
281
     0
  0
CLASS
  1
ACDBDETAILVIEWSTYLE
  2
AcDbDetailViewStyle
  3
ObjectDBX Classes
 90
     1025
 91
        1
280
     0
281
     0
  0
CLASS
  1
DICTIONARYVAR
  2
AcDbDictionaryVar
  3
ObjectDBX Classes
 90
        0
 91
        5
280
     0
281
     0
  0
CLASS
  1
CELLSTYLEMAP
  2
AcDbCellStyleMap
  3
ObjectDBX Classes
 90
     1152
 91
        1
280
     0
281
     0
  0
ENDSEC
  0
SECTION
  2
TABLES
  0
TABLE
  2
VPORT
  5
8
330
0
100
AcDbSymbolTable
 70
     1
  0
VPORT
  5
57
330
8
100
AcDbSymbolTableRecord
100
AcDbViewportTableRecord
  2
*Active
 70
     0
 10
0.0
 20
0.0
 11
1.0
 21
1.0
 12
0.0
 22
0.0
 13
0.0
 23
0.0
 14
1.0
 24
1.0
 15
0.0
 25
0.0
 16
0.0
 26
0.0
 36
1.0
 17
104.9999999737534
 27
-148.4999999628701
 37
0.0
 40
302.939999924255
 41
0.7070707070707534
 42
50.0
 43
0.0
 44
0.0
 50
0.0
 51
0.0
 71
     0
 72
   100
 73
     1
 74
     0
 75
     1
 76
     0
 77
     0
 78
     0
281
     0
 65
     1
110
0.0
120
0.0
130
0.0
111
1.0
121
0.0
131
0.0
112
0.0
122
1.0
132
0.0
 79
     0
146
0.0
 60
     3
 61
     5
292
     1
282
     1
141
0.0
142
0.0
 63
   250
421
  3355443
  0
ENDTAB
  0
TABLE
  2
LTYPE
  5
5
330
0
100
AcDbSymbolTable
 70
     2
  0
LTYPE
  5
5B
330
5
100
AcDbSymbolTableRecord
100
AcDbLinetypeTableRecord
  2
ByBlock
 70
     0
  3

 72
    65
 73
     0
 40
0.0
  0
LTYPE
  5
5C
330
5
100
AcDbSymbolTableRecord
100
AcDbLinetypeTableRecord
  2
ByLayer
 70
     0
  3

 72
    65
 73
     0
 40
0.0
  0
LTYPE
  5
5D
330
5
100
AcDbSymbolTableRecord
100
AcDbLinetypeTableRecord
  2
Continuous
 70
     0
  3
Solid line
 72
    65
 73
     0
 40
0.0
  0
LTYPE
  5
7E
330
5
100
AcDbSymbolTableRecord
100
AcDbLinetypeTableRecord
  2
AI-Linetype-0
 70
     0
  3
Adobe Illustrator Linetype No. 0
 72
    65
 73
     2
 40
1.411111110758333
 49
0.7055555553791667
 74
     0
 49
-0.7055555553791667
 74
     0
  0
ENDTAB
  0
TABLE
  2
LAYER
  5
2
330
0
100
AcDbSymbolTable
 70
     2
  0
LAYER
  5
54
330
2
100
AcDbSymbolTableRecord
100
AcDbLayerTableRecord
  2
0
 70
     0
 62
     7
  6
Continuous
370
    -3
390
F
347
21
  0
LAYER
  5
78
330
2
100
AcDbSymbolTableRecord
100
AcDbLayerTableRecord
  2
レイヤー 1
 70
     0
 62
     7
  6
Continuous
370
     0
390
F
347
21
  0
ENDTAB
  0
TABLE
  2
STYLE
  5
3
330
0
100
AcDbSymbolTable
 70
     2
  0
STYLE
  5
55
330
3
100
AcDbSymbolTableRecord
100
AcDbTextStyleTableRecord
  2
Standard
 70
     0
 40
0.0
 41
1.0
 50
0.0
 71
     0
 42
0.2
  3
txt
  4

  0
STYLE
  5
5A
330
3
100
AcDbSymbolTableRecord
100
AcDbTextStyleTableRecord
  2
Annotative
 70
     0
 40
0.0
 41
1.0
 50
0.0
 71
     0
 42
0.2
  3
txt
  4

1001
AcadAnnotative
1000
AnnotativeData
1002
{
1070
     1
1070
     1
1002
}
  0
ENDTAB
  0
TABLE
  2
VIEW
  5
6
330
0
100
AcDbSymbolTable
 70
     0
  0
ENDTAB
  0
TABLE
  2
UCS
  5
7
330
0
100
AcDbSymbolTable
 70
     0
  0
ENDTAB
  0
TABLE
  2
APPID
  5
9
330
0
100
AcDbSymbolTable
 70
     2
  0
APPID
  5
56
330
9
100
AcDbSymbolTableRecord
100
AcDbRegAppTableRecord
  2
ACAD
 70
     0
  0
APPID
  5
5E
330
9
100
AcDbSymbolTableRecord
100
AcDbRegAppTableRecord
  2
AcadAnnotative
 70
     0
  0
ENDTAB
  0
TABLE
  2
DIMSTYLE
  5
A
330
0
100
AcDbSymbolTable
 70
     2
100
AcDbDimStyleTable
 71
     0
  0
DIMSTYLE
105
58
330
A
100
AcDbSymbolTableRecord
100
AcDbDimStyleTableRecord
  2
Standard
 70
     0
340
55
  0
DIMSTYLE
105
59
330
A
100
AcDbSymbolTableRecord
100
AcDbDimStyleTableRecord
  2
Annotative
 70
     0
340
55
1001
AcadAnnotative
1000
AnnotativeData
1002
{
1070
     1
1070
     1
1002
}
  0
ENDTAB
  0
TABLE
  2
BLOCK_RECORD
  5
1
330
0
100
AcDbSymbolTable
 70
    16
  0
BLOCK_RECORD
  5
70
330
1
100
AcDbSymbolTableRecord
100
AcDbBlockTableRecord
  2
*Model_Space
340
73
 70
     0
280
     1
281
     0
  0
BLOCK_RECORD
  5
6C
330
1
100
AcDbSymbolTableRecord
100
AcDbBlockTableRecord
  2
*Paper_Space
340
6F
 70
     0
280
     1
281
     0
  0
BLOCK_RECORD
  5
74
330
1
100
AcDbSymbolTableRecord
100
AcDbBlockTableRecord
  2
*Paper_Space0
340
77
 70
     0
280
     1
281
     0
  0
BLOCK_RECORD
  5
79
330
1
100
AcDbSymbolTableRecord
100
AcDbBlockTableRecord
  2
Block_0
340
0
102
{BLKREFS
331
7A
102
}
 70
     0
280
     1
281
     0
  0
BLOCK_RECORD
  5
7F
330
1
100
AcDbSymbolTableRecord
100
AcDbBlockTableRecord
  2
Block_1
340
0
102
{BLKREFS
331
80
102
}
 70
     0
280
     1
281
     0
  0
BLOCK_RECORD
  5
86
330
1
100
AcDbSymbolTableRecord
100
AcDbBlockTableRecord
  2
Block_2
340
0
102
{BLKREFS
331
87
102
}
 70
     0
280
     1
281
     0
  0
BLOCK_RECORD
  5
8A
330
1
100
AcDbSymbolTableRecord
100
AcDbBlockTableRecord
  2
Block_3
340
0
102
{BLKREFS
331
8B
102
}
 70
     0
280
     1
281
     0
  0
BLOCK_RECORD
  5
A1
330
1
100
AcDbSymbolTableRecord
100
AcDbBlockTableRecord
  2
Block_4
340
0
102
{BLKREFS
331
A2
102
}
 70
     0
280
     1
281
     0
  0
BLOCK_RECORD
  5
B7
330
1
100
AcDbSymbolTableRecord
100
AcDbBlockTableRecord
  2
Block_5
340
0
102
{BLKREFS
331
B8
102
}
 70
     0
280
     1
281
     0
  0
BLOCK_RECORD
  5
BB
330
1
100
AcDbSymbolTableRecord
100
AcDbBlockTableRecord
  2
Block_6
340
0
102
{BLKREFS
331
BC
102
}
 70
     0
280
     1
281
     0
  0
BLOCK_RECORD
  5
C7
330
1
100
AcDbSymbolTableRecord
100
AcDbBlockTableRecord
  2
Block_7
340
0
102
{BLKREFS
331
C8
102
}
 70
     0
280
     1
281
     0
  0
BLOCK_RECORD
  5
CB
330
1
100
AcDbSymbolTableRecord
100
AcDbBlockTableRecord
  2
Block_8
340
0
102
{BLKREFS
331
CC
102
}
 70
     0
280
     1
281
     0
  0
BLOCK_RECORD
  5
DB
330
1
100
AcDbSymbolTableRecord
100
AcDbBlockTableRecord
  2
Block_9
340
0
102
{BLKREFS
331
DC
102
}
 70
     0
280
     1
281
     0
  0
BLOCK_RECORD
  5
DF
330
1
100
AcDbSymbolTableRecord
100
AcDbBlockTableRecord
  2
Block_10
340
0
102
{BLKREFS
331
E0
102
}
 70
     0
280
     1
281
     0
  0
BLOCK_RECORD
  5
EC
330
1
100
AcDbSymbolTableRecord
100
AcDbBlockTableRecord
  2
Block_11
340
0
102
{BLKREFS
331
ED
102
}
 70
     0
280
     1
281
     0
  0
BLOCK_RECORD
  5
F0
330
1
100
AcDbSymbolTableRecord
100
AcDbBlockTableRecord
  2
Block_12
340
0
102
{BLKREFS
331
F1
102
}
 70
     0
280
     1
281
     0
  0
BLOCK_RECORD
  5
FF
330
1
100
AcDbSymbolTableRecord
100
AcDbBlockTableRecord
  2
Block_13
340
0
102
{BLKREFS
331
100
102
}
 70
     0
280
     1
281
     0
  0
BLOCK_RECORD
  5
103
330
1
100
AcDbSymbolTableRecord
100
AcDbBlockTableRecord
  2
Block_14
340
0
102
{BLKREFS
331
104
102
}
 70
     0
280
     1
281
     0
  0
ENDTAB
  0
ENDSEC
  0
SECTION
  2
BLOCKS
  0
BLOCK
  5
71
330
70
100
AcDbEntity
  8
0
100
AcDbBlockBegin
  2
*Model_Space
 70
     0
 10
0.0
 20
0.0
 30
0.0
  3
*Model_Space
  1

  0
ENDBLK
  5
72
330
70
100
AcDbEntity
  8
0
100
AcDbBlockEnd
  0
BLOCK
  5
6D
330
6C
100
AcDbEntity
 67
     1
  8
0
100
AcDbBlockBegin
  2
*Paper_Space
 70
     0
 10
0.0
 20
0.0
 30
0.0
  3
*Paper_Space
  1

  0
ENDBLK
  5
6E
330
6C
100
AcDbEntity
 67
     1
  8
0
100
AcDbBlockEnd
  0
BLOCK
  5
75
330
74
100
AcDbEntity
 67
     1
  8
0
100
AcDbBlockBegin
  2
*Paper_Space0
 70
     0
 10
0.0
 20
0.0
 30
0.0
  3
*Paper_Space0
  1

  0
ENDBLK
  5
76
330
74
100
AcDbEntity
 67
     1
  8
0
100
AcDbBlockEnd
  0
BLOCK
  5
7B
330
79
100
AcDbEntity
  8
0
100
AcDbBlockBegin
  2
Block_0
 70
     0
 10
0.0
 20
0.0
 30
0.0
  3
Block_0
  1

  0
LINE
  5
7D
330
79
100
AcDbEntity
  8
レイヤー 1
  6
AI-Linetype-0
 62
   154
420
    23468
370
    25
100
AcDbLine
 10
106.8516139386338
 20
-153.9842343721697
 30
0.0
 11
116.8974683144437
 21
-153.9842343721697
 31
0.0
  0
INSERT
  5
80
330
79
100
AcDbEntity
  8
レイヤー 1
100
AcDbBlockReference
  2
Block_1
 10
0.0
 20
0.0
 30
0.0
  0
INSERT
  5
87
330
79
100
AcDbEntity
  8
レイヤー 1
100
AcDbBlockReference
  2
Block_2
 10
0.0
 20
0.0
 30
0.0
  0
ENDBLK
  5
7C
330
79
100
AcDbEntity
  8
0
100
AcDbBlockEnd
  0
BLOCK
  5
81
330
7F
100
AcDbEntity
  8
0
100
AcDbBlockBegin
  2
Block_1
 70
     0
 10
0.0
 20
0.0
 30
0.0
  3
Block_1
  1

  0
LINE
  5
83
330
7F
100
AcDbEntity
  8
レイヤー 1
 62
    18
420
        0
370
     9
100
AcDbLine
 10
111.6585914889491
 20
-153.7781567086423
 30
0.0
 11
111.3917466310888
 21
-152.8143844753712
 31
0.0
  0
LINE
  5
84
330
7F
100
AcDbEntity
  8
レイヤー 1
 62
    18
420
        0
370
     9
100
AcDbLine
 10
111.6585914889491
 20
-153.7781567086423
 30
0.0
 11
111.6241572815721
 21
-152.1641961458375
 31
0.0
  0
LINE
  5
85
330
7F
100
AcDbEntity
  8
レイヤー 1
 62
    18
420
        0
370
     9
100
AcDbLine
 10
111.6585914889491
 20
-153.7781567086423
 30
0.0
 11
111.909439566455
 21
-152.8099762532548
 31
0.0
  0
ENDBLK
  5
82
330
7F
100
AcDbEntity
  8
0
100
AcDbBlockEnd
  0
BLOCK
  5
88
330
86
100
AcDbEntity
  8
0
100
AcDbBlockBegin
  2
Block_2
 70
     0
 10
0.0
 20
0.0
 30
0.0
  3
Block_2
  1

  0
INSERT
  5
8B
330
86
100
AcDbEntity
  8
レイヤー 1
100
AcDbBlockReference
  2
Block_3
 10
0.0
 20
0.0
 30
0.0
  0
ENDBLK
  5
89
330
86
100
AcDbEntity
  8
0
100
AcDbBlockEnd
  0
BLOCK
  5
8C
330
8A
100
AcDbEntity
  8
0
100
AcDbBlockBegin
  2
Block_3
 70
     0
 10
0.0
 20
0.0
 30
0.0
  3
Block_3
  1

  0
SPLINE
  5
8E
330
8A
100
AcDbEntity
  8
レイヤー 1
100
AcDbSpline
210
0.0
220
0.0
230
1.0
 70
     9
 71
     3
 72
    17
 73
    13
 74
     0
 42
0.0000000001
 43
0.0000000001
 40
0.0
 40
0.0
 40
0.0
 40
0.0
 40
1.0
 40
1.0
 40
1.0
 40
2.0
 40
2.0
 40
2.0
 40
3.0
 40
3.0
 40
3.0
 40
4.0
 40
4.0
 40
4.0
 40
4.0
 10
107.6726697864499
 20
-151.0977538684755
 30
0.0
 10
107.6554443090236
 20
-151.1273816896487
 30
0.0
 10
107.6048014053905
 20
-151.2203992677504
 30
0.0
 10
107.5941216093862
 20
-151.2393472929193
 30
0.0
 10
107.7846353897205
 20
-151.2986029352656
 30
0.0
 10
107.8056504721805
 20
-151.3051486166876
 30
0.0
 10
107.8776529678222
 20
-151.3327093805696
 30
0.0
 10
107.9327744955862
 20
-151.2458929743413
 30
0.0
 10
107.9558566353374
 20
-151.1718234214084
 30
0.0
 10
107.970670545924
 20
-151.0977538684755
 30
0.0
 10
107.970670545924
 20
-151.0977538684755
 30
0.0
 10
107.6726697864499
 20
-151.0977538684755
 30
0.0
 10
107.6726697864499
 20
-151.0977538684755
 30
0.0
  0
SPLINE
  5
8F
330
8A
100
AcDbEntity
  8
レイヤー 1
100
AcDbSpline
210
0.0
220
0.0
230
1.0
 70
    11
 71
     3
 72
    20
 73
    16
 74
     0
 42
0.0000000001
 43
0.0000000001
 40
0.0
 40
0.0
 40
0.0
 40
0.0
 40
1.0
 40
1.0
 40
1.0
 40
2.0
 40
2.0
 40
2.0
 40
3.0
 40
3.0
 40
3.0
 40
4.0
 40
4.0
 40
4.0
 40
5.0
 40
5.0
 40
5.0
 40
5.0
 10
107.6089355199727
 20
-150.2475043027159
 30
0.0
 10
107.6089355199727
 20
-150.2475043027159
 30
0.0
 10
107.5772406415084
 20
-150.2475043027159
 30
0.0
 10
107.5772406415084
 20
-150.2475043027159
 30
0.0
 10
107.6237494305593
 20
-150.3467230526911
 30
0.0
 10
107.6554443090236
 20
-150.4269937774974
 30
0.0
 10
107.6895507543276
 20
-150.5541178009031
 30
0.0
 10
107.6895507543276
 20
-150.5541178009031
 30
0.0
 10
107.8966009929911
 20
-150.5541178009031
 30
0.0
 10
107.8966009929911
 20
-150.5541178009031
 30
0.0
 10
107.9286403810039
 20
-150.4611002228014
 30
0.0
 10
107.9517225207551
 20
-150.3763508738642
 30
0.0
 10
107.9751491700548
 20
-150.2475043027159
 30
0.0
 10
107.9751491700548
 20
-150.2475043027159
 30
0.0
 10
107.6089355199727
 20
-150.2475043027159
 30
0.0
 10
107.6089355199727
 20
-150.2475043027159
 30
0.0
  0
SPLINE
  5
90
330
8A
100
AcDbEntity
  8
レイヤー 1
100
AcDbSpline
210
0.0
220
0.0
230
1.0
 70
     9
 71
     3
 72
   242
 73
   238
 74
     0
 42
0.0000000001
 43
0.0000000001
 40
0.0
 40
0.0
 40
0.0
 40
0.0
 40
1.0
 40
1.0
 40
1.0
 40
2.0
 40
2.0
 40
2.0
 40
3.0
 40
3.0
 40
3.0
 40
4.0
 40
4.0
 40
4.0
 40
5.0
 40
5.0
 40
5.0
 40
6.0
 40
6.0
 40
6.0
 40
7.0
 40
7.0
 40
7.0
 40
8.0
 40
8.0
 40
8.0
 40
9.0
 40
9.0
 40
9.0
 40
10.0
 40
10.0
 40
10.0
 40
11.0
 40
11.0
 40
11.0
 40
12.0
 40
12.0
 40
12.0
 40
13.0
 40
13.0
 40
13.0
 40
14.0
 40
14.0
 40
14.0
 40
15.0
 40
15.0
 40
15.0
 40
16.0
 40
16.0
 40
16.0
 40
17.0
 40
17.0
 40
17.0
 40
18.0
 40
18.0
 40
18.0
 40
19.0
 40
19.0
 40
19.0
 40
20.0
 40
20.0
 40
20.0
 40
21.0
 40
21.0
 40
21.0
 40
22.0
 40
22.0
 40
22.0
 40
23.0
 40
23.0
 40
23.0
 40
24.0
 40
24.0
 40
24.0
 40
25.0
 40
25.0
 40
25.0
 40
26.0
 40
26.0
 40
26.0
 40
27.0
 40
27.0
 40
27.0
 40
28.0
 40
28.0
 40
28.0
 40
29.0
 40
29.0
 40
29.0
 40
30.0
 40
30.0
 40
30.0
 40
31.0
 40
31.0
 40
31.0
 40
32.0
 40
32.0
 40
32.0
 40
33.0
 40
33.0
 40
33.0
 40
34.0
 40
34.0
 40
34.0
 40
35.0
 40
35.0
 40
35.0
 40
36.0
 40
36.0
 40
36.0
 40
37.0
 40
37.0
 40
37.0
 40
38.0
 40
38.0
 40
38.0
 40
39.0
 40
39.0
 40
39.0
 40
40.0
 40
40.0
 40
40.0
 40
41.0
 40
41.0
 40
41.0
 40
42.0
 40
42.0
 40
42.0
 40
43.0
 40
43.0
 40
43.0
 40
44.0
 40
44.0
 40
44.0
 40
45.0
 40
45.0
 40
45.0
 40
46.0
 40
46.0
 40
46.0
 40
47.0
 40
47.0
 40
47.0
 40
48.0
 40
48.0
 40
48.0
 40
49.0
 40
49.0
 40
49.0
 40
50.0
 40
50.0
 40
50.0
 40
51.0
 40
51.0
 40
51.0
 40
52.0
 40
52.0
 40
52.0
 40
53.0
 40
53.0
 40
53.0
 40
54.0
 40
54.0
 40
54.0
 40
55.0
 40
55.0
 40
55.0
 40
56.0
 40
56.0
 40
56.0
 40
57.0
 40
57.0
 40
57.0
 40
58.0
 40
58.0
 40
58.0
 40
59.0
 40
59.0
 40
59.0
 40
60.0
 40
60.0
 40
60.0
 40
61.0
 40
61.0
 40
61.0
 40
62.0
 40
62.0
 40
62.0
 40
63.0
 40
63.0
 40
63.0
 40
64.0
 40
64.0
 40
64.0
 40
65.0
 40
65.0
 40
65.0
 40
66.0
 40
66.0
 40
66.0
 40
67.0
 40
67.0
 40
67.0
 40
68.0
 40
68.0
 40
68.0
 40
69.0
 40
69.0
 40
69.0
 40
70.0
 40
70.0
 40
70.0
 40
71.0
 40
71.0
 40
71.0
 40
72.0
 40
72.0
 40
72.0
 40
73.0
 40
73.0
 40
73.0
 40
74.0
 40
74.0
 40
74.0
 40
75.0
 40
75.0
 40
75.0
 40
76.0
 40
76.0
 40
76.0
 40
77.0
 40
77.0
 40
77.0
 40
78.0
 40
78.0
 40
78.0
 40
79.0
 40
79.0
 40
79.0
 40
79.0
 10
108.2373209364823
 20
-150.7125921932246
 30
0.0
 10
108.2373209364823
 20
-150.7125921932246
 30
0.0
 10
107.9834173992194
 20
-150.7125921932246
 30
0.0
 10
107.9834173992194
 20
-150.7125921932246
 30
0.0
 10
107.9834173992194
 20
-150.7125921932246
 30
0.0
 10
107.7064317222053
 20
-150.7125921932246
 30
0.0
 10
107.7064317222053
 20
-150.7125921932246
 30
0.0
 10
107.7064317222053
 20
-150.7125921932246
 30
0.0
 10
107.8332112360625
 20
-150.7549668676932
 30
0.0
 10
107.8332112360625
 20
-150.7549668676932
 30
0.0
 10
107.8438910320668
 20
-150.759445491824
 30
0.0
 10
107.8566378853622
 20
-150.7656466636975
 30
0.0
 10
107.8566378853622
 20
-150.7783935169929
 30
0.0
 10
107.8566378853622
 20
-150.7994085994529
 30
0.0
 10
107.8249430068979
 20
-150.8059542808749
 30
0.0
 10
107.8035834148894
 20
-150.8100883954572
 30
0.0
 10
107.7932481284336
 20
-150.8331705352084
 30
0.0
 10
107.7636203072605
 20
-150.8989718589766
 30
0.0
 10
107.7443277725431
 20
-150.9434135907364
 30
0.0
 10
107.7443277725431
 20
-150.9434135907364
 30
0.0
 10
108.0151122776837
 20
-150.9434135907364
 30
0.0
 10
108.0151122776837
 20
-150.9434135907364
 30
0.0
 10
108.1060627984943
 20
-150.9434135907364
 30
0.0
 10
108.3027777507021
 20
-150.9389349666055
 30
0.0
 10
108.4447156846944
 20
-150.9306667374409
 30
0.0
 10
108.4447156846944
 20
-150.9306667374409
 30
0.0
 10
108.4447156846944
 20
-151.1084336644798
 30
0.0
 10
108.4447156846944
 20
-151.1084336644798
 30
0.0
 10
108.3620333930484
 20
-151.103955040349
 30
0.0
 10
108.3410183105883
 20
-151.103955040349
 30
0.0
 10
108.1611843262583
 20
-151.0998209257667
 30
0.0
 10
108.129489447794
 20
-151.2541612035059
 30
0.0
 10
108.0850477160343
 20
-151.3347764378607
 30
0.0
 10
108.0406059842746
 20
-151.4043673666628
 30
0.0
 10
108.1611843262583
 20
-151.4636230090091
 30
0.0
 10
108.2669487576555
 20
-151.5314913900685
 30
0.0
 10
108.3706461317615
 20
-151.613829172166
 30
0.0
 10
108.3706461317615
 20
-151.613829172166
 30
0.0
 10
108.2521348470689
 20
-151.7809163032006
 30
0.0
 10
108.2521348470689
 20
-151.7809163032006
 30
0.0
 10
108.2290527073177
 20
-151.7619682780317
 30
0.0
 10
108.2163058540223
 20
-151.7537000488671
 30
0.0
 10
108.1039957412031
 20
-151.66895069993
 30
0.0
 10
108.0554198948611
 20
-151.6307101400437
 30
0.0
 10
107.9961642525148
 20
-151.5948811469971
 30
0.0
 10
107.9158935277085
 20
-151.5504394152374
 30
0.0
 10
107.7043646649142
 20
-151.7368190809894
 30
0.0
 10
107.4990369739933
 20
-151.7599012207405
 30
0.0
 10
107.2093044436838
 20
-151.7895290419137
 30
0.0
 10
107.2093044436838
 20
-151.7895290419137
 30
0.0
 10
107.1056070695777
 20
-151.6096950575837
 30
0.0
 10
107.1056070695777
 20
-151.6096950575837
 30
0.0
 10
107.4229003637692
 20
-151.6055609430014
 30
0.0
 10
107.598600233517
 20
-151.5800672364105
 30
0.0
 10
107.7508734539651
 20
-151.4701686904311
 30
0.0
 10
107.6323621692724
 20
-151.4191812772494
 30
0.0
 10
107.543478705753
 20
-151.3919650229159
 30
0.0
 10
107.5076497127064
 20
-151.3792181696205
 30
0.0
 10
107.488357177989
 20
-151.4067789335024
 30
0.0
 10
107.4735432674024
 20
-151.4257269586713
 30
0.0
 10
107.4459825035204
 20
-151.4594888944268
 30
0.0
 10
107.4459825035204
 20
-151.4594888944268
 30
0.0
 10
107.2492675513126
 20
-151.3771511123293
 30
0.0
 10
107.2492675513126
 20
-151.3771511123293
 30
0.0
 10
107.3319498429587
 20
-151.2965358779745
 30
0.0
 10
107.3932725425961
 20
-151.2014512425816
 30
0.0
 10
107.4504611276513
 20
-151.0998209257667
 30
0.0
 10
107.2599473473169
 20
-151.103955040349
 30
0.0
 10
107.2389322648569
 20
-151.103955040349
 30
0.0
 10
107.1562499732109
 20
-151.1084336644798
 30
0.0
 10
107.1562499732109
 20
-151.1084336644798
 30
0.0
 10
107.1562499732109
 20
-150.9306667374409
 30
0.0
 10
107.1562499732109
 20
-150.9306667374409
 30
0.0
 10
107.2957763403635
 20
-150.9368679093144
 30
0.0
 10
107.5052381458667
 20
-150.9413465334452
 30
0.0
 10
107.5307318524576
 20
-150.9413465334452
 30
0.0
 10
107.5476128203353
 20
-150.9072400881412
 30
0.0
 10
107.6027343480993
 20
-150.7866617461575
 30
0.0
 10
107.6216823732682
 20
-150.7125921932246
 30
0.0
 10
107.6027343480993
 20
-150.7125921932246
 30
0.0
 10
107.4249674210604
 20
-150.7191378746466
 30
0.0
 10
107.2303195261438
 20
-150.731884727942
 30
0.0
 10
107.2303195261438
 20
-150.731884727942
 30
0.0
 10
107.2303195261438
 20
-150.8652099232212
 30
0.0
 10
107.2303195261438
 20
-150.8652099232212
 30
0.0
 10
107.1817436798018
 20
-150.8903591202635
 30
0.0
 10
107.1224880374555
 20
-150.9220539987278
 30
0.0
 10
106.9891628421763
 20
-150.9878553224961
 30
0.0
 10
106.9891628421763
 20
-150.9878553224961
 30
0.0
 10
106.9891628421763
 20
-151.1335828615221
 30
0.0
 10
106.9891628421763
 20
-151.1335828615221
 30
0.0
 10
106.9891628421763
 20
-151.1335828615221
 30
0.0
 10
106.9891628421763
 20
-151.6014268284191
 30
0.0
 10
106.9891628421763
 20
-151.6014268284191
 30
0.0
 10
106.9891628421763
 20
-151.7282063422763
 30
0.0
 10
106.9533338491297
 20
-151.7874619846226
 30
0.0
 10
106.6698024906936
 20
-151.7788492459095
 30
0.0
 10
106.6698024906936
 20
-151.7788492459095
 30
0.0
 10
106.5661051165876
 20
-151.5717990072459
 30
0.0
 10
106.5661051165876
 20
-151.5717990072459
 30
0.0
 10
106.6294948735162
 20
-151.5842013509928
 30
0.0
 10
106.6780707198582
 20
-151.5886799751237
 30
0.0
 10
106.7183783370357
 20
-151.5886799751237
 30
0.0
 10
106.7945149472597
 20
-151.5886799751237
 30
0.0
 10
106.8051947432639
 20
-151.5652533258239
 30
0.0
 10
106.8051947432639
 20
-151.4997965116042
 30
0.0
 10
106.8051947432639
 20
-151.4997965116042
 30
0.0
 10
106.8051947432639
 20
-151.0701931045935
 30
0.0
 10
106.8051947432639
 20
-151.0701931045935
 30
0.0
 10
106.7076985410314
 20
-151.110500721771
 30
0.0
 10
106.6908175731537
 20
-151.1167018936444
 30
0.0
 10
106.6443087841028
 20
-151.1359944283618
 30
0.0
 10
106.6401746695205
 20
-151.1570095108218
 30
0.0
 10
106.6360405549382
 20
-151.186637331995
 30
0.0
 10
106.6167480202208
 20
-151.186637331995
 30
0.0
 10
106.6084797910562
 20
-151.186637331995
 30
0.0
 10
106.5977999950519
 20
-151.1825032174127
 30
0.0
 10
106.5915988231785
 20
-151.159076568113
 30
0.0
 10
106.5915988231785
 20
-151.159076568113
 30
0.0
 10
106.5385443527056
 20
-150.9664957304875
 30
0.0
 10
106.5385443527056
 20
-150.9664957304875
 30
0.0
 10
106.6846164012802
 20
-150.9199869414367
 30
0.0
 10
106.7500732155
 20
-150.8969048016855
 30
0.0
 10
106.8051947432639
 20
-150.8755452096769
 30
0.0
 10
106.8051947432639
 20
-150.8755452096769
 30
0.0
 10
106.8051947432639
 20
-150.4631672800925
 30
0.0
 10
106.8051947432639
 20
-150.4631672800925
 30
0.0
 10
106.8051947432639
 20
-150.4631672800925
 30
0.0
 10
106.7521402727911
 20
-150.4631672800925
 30
0.0
 10
106.7521402727911
 20
-150.4631672800925
 30
0.0
 10
106.7521402727911
 20
-150.4631672800925
 30
0.0
 10
106.6739366052759
 20
-150.4631672800925
 30
0.0
 10
106.6739366052759
 20
-150.4631672800925
 30
0.0
 10
106.606412733765
 20
-150.4631672800925
 30
0.0
 10
106.5977999950519
 20
-150.4631672800925
 30
0.0
 10
106.5619710020053
 20
-150.469368451966
 30
0.0
 10
106.5619710020053
 20
-150.469368451966
 30
0.0
 10
106.5619710020053
 20
-150.2747205570494
 30
0.0
 10
106.5619710020053
 20
-150.2747205570494
 30
0.0
 10
106.5895317658873
 20
-150.2812662384713
 30
0.0
 10
106.5977999950519
 20
-150.2812662384713
 30
0.0
 10
106.6677354334025
 20
-150.2812662384713
 30
0.0
 10
106.6677354334025
 20
-150.2812662384713
 30
0.0
 10
106.8010606286817
 20
-150.2812662384713
 30
0.0
 10
106.8010606286817
 20
-150.2812662384713
 30
0.0
 10
106.8010606286817
 20
-150.2113308001208
 30
0.0
 10
106.8010606286817
 20
-150.1289930180233
 30
0.0
 10
106.798649061842
 20
-150.1245143938925
 30
0.0
 10
106.7903808326774
 20
-149.9446804095624
 30
0.0
 10
106.7903808326774
 20
-149.9257323843935
 30
0.0
 10
106.7883137753862
 20
-149.8792235953427
 30
0.0
 10
106.7883137753862
 20
-149.8792235953427
 30
0.0
 10
107.0039767527629
 20
-149.8878363340558
 30
0.0
 10
107.0039767527629
 20
-149.8878363340558
 30
0.0
 10
107.0146565487672
 20
-149.8878363340558
 30
0.0
 10
107.0356716312272
 20
-149.8899033913469
 30
0.0
 10
107.0356716312272
 20
-149.9067843592247
 30
0.0
 10
107.0356716312272
 20
-149.9257323843935
 30
0.0
 10
107.0208577206406
 20
-149.9364121803978
 30
0.0
 10
106.9957085235983
 20
-149.9553602055667
 30
0.0
 10
106.9957085235983
 20
-150.0060031091999
 30
0.0
 10
106.9891628421763
 20
-150.2347574494204
 30
0.0
 10
106.9912298994674
 20
-150.2812662384713
 30
0.0
 10
107.1204209801643
 20
-150.2812662384713
 30
0.0
 10
107.1331678334597
 20
-150.2812662384713
 30
0.0
 10
107.2303195261438
 20
-150.2726534997582
 30
0.0
 10
107.2303195261438
 20
-150.2726534997582
 30
0.0
 10
107.2303195261438
 20
-150.4673013946748
 30
0.0
 10
107.2303195261438
 20
-150.4673013946748
 30
0.0
 10
107.192423475806
 20
-150.4652343373837
 30
0.0
 10
107.1245550947466
 20
-150.4611002228014
 30
0.0
 10
106.9891628421763
 20
-150.4631672800925
 30
0.0
 10
106.9891628421763
 20
-150.4631672800925
 30
0.0
 10
106.9891628421763
 20
-150.8014756567441
 30
0.0
 10
106.9891628421763
 20
-150.8014756567441
 30
0.0
 10
107.0442843699403
 20
-150.7783935169929
 30
0.0
 10
107.1097411841601
 20
-150.7508327531109
 30
0.0
 10
107.1583170305021
 20
-150.7274061038112
 30
0.0
 10
107.1583170305021
 20
-150.7274061038112
 30
0.0
 10
107.1583170305021
 20
-150.5499836863208
 30
0.0
 10
107.1583170305021
 20
-150.5499836863208
 30
0.0
 10
107.2726942006124
 20
-150.5623860300677
 30
0.0
 10
107.391205485305
 20
-150.5623860300677
 30
0.0
 10
107.5076497127064
 20
-150.5623860300677
 30
0.0
 10
107.4842230634067
 20
-150.4673013946748
 30
0.0
 10
107.4566622995247
 20
-150.3849636125773
 30
0.0
 10
107.3932725425961
 20
-150.2516384172982
 30
0.0
 10
107.3488308108364
 20
-150.2537054745893
 30
0.0
 10
107.2664930287389
 20
-150.2578395891716
 30
0.0
 10
107.2282524688526
 20
-150.2599066464628
 30
0.0
 10
107.2282524688526
 20
-150.2599066464628
 30
0.0
 10
107.2282524688526
 20
-150.0800726621328
 30
0.0
 10
107.2282524688526
 20
-150.0800726621328
 30
0.0
 10
107.3529649254187
 20
-150.0886854008459
 30
0.0
 10
107.5265977378753
 20
-150.0928195154282
 30
0.0
 10
107.6089355199727
 20
-150.0928195154282
 30
0.0
 10
107.6089355199727
 20
-150.0928195154282
 30
0.0
 10
107.6916178116188
 20
-150.0928195154282
 30
0.0
 10
107.6916178116188
 20
-150.0928195154282
 30
0.0
 10
107.6916178116188
 20
-149.9298664989759
 30
0.0
 10
107.6916178116188
 20
-149.9195312125201
 30
0.0
 10
107.6895507543276
 20
-149.8644096847561
 30
0.0
 10
107.6895507543276
 20
-149.8644096847561
 30
0.0
 10
107.9138264704174
 20
-149.8899033913469
 30
0.0
 10
107.9138264704174
 20
-149.8899033913469
 30
0.0
 10
107.9179605849996
 20
-149.8899033913469
 30
0.0
 10
107.9389756674597
 20
-149.8919704486381
 30
0.0
 10
107.9389756674597
 20
-149.9088514165158
 30
0.0
 10
107.9389756674597
 20
-149.9236653271024
 30
0.0
 10
107.9286403810039
 20
-149.9322780658155
 30
0.0
 10
107.9010796171219
 20
-149.9470919764021
 30
0.0
 10
107.8945339357
 20
-150.0125487906219
 30
0.0
 10
107.8924668784088
 20
-150.0335638730819
 30
0.0
 10
107.8924668784088
 20
-150.0928195154282
 30
0.0
 10
107.8924668784088
 20
-150.0928195154282
 30
0.0
 10
107.9875515138017
 20
-150.0928195154282
 30
0.0
 10
107.9875515138017
 20
-150.0928195154282
 30
0.0
 10
108.0702338054477
 20
-150.0928195154282
 30
0.0
 10
108.2435221083558
 20
-150.0886854008459
 30
0.0
 10
108.3685790744703
 20
-150.0800726621328
 30
0.0
 10
108.3685790744703
 20
-150.0800726621328
 30
0.0
 10
108.3685790744703
 20
-150.2599066464628
 30
0.0
 10
108.3685790744703
 20
-150.2599066464628
 30
0.0
 10
108.3389512532972
 20
-150.2578395891716
 30
0.0
 10
108.2204399686046
 20
-150.2537054745893
 30
0.0
 10
108.1801323514272
 20
-150.2516384172982
 30
0.0
 10
108.1653184408406
 20
-150.3022813209313
 30
0.0
 10
108.1315565050851
 20
-150.4145914337505
 30
0.0
 10
108.0660996908654
 20
-150.5541178009031
 30
0.0
 10
108.1081298557855
 20
-150.5541178009031
 30
0.0
 10
108.3854600423481
 20
-150.5351697757342
 30
0.0
 10
108.4467827419855
 20
-150.5327582088946
 30
0.0
 10
108.4467827419855
 20
-150.5327582088946
 30
0.0
 10
108.4467827419855
 20
-150.7170708173554
 30
0.0
 10
108.4467827419855
 20
-150.7170708173554
 30
0.0
 10
108.4171549208124
 20
-150.7170708173554
 30
0.0
 10
108.4002739529346
 20
-150.7125921932246
 30
0.0
 10
108.2373209364823
 20
-150.7125921932246
 30
0.0
  0
HATCH
  5
91
330
8A
100
AcDbEntity
  8
レイヤー 1
 62
    18
420
        0
440
 33554687
100
AcDbHatch
 10
0.0
 20
0.0
 30
0.0
210
0.0
220
0.0
230
1.0
  2
SOLID
 70
     1
 71
     1
 91
        3
 92
        1
 93
        1
 72
     4
 94
        3
 73
     0
 74
     0
 95
       17
 96
       13
 40
0.0
 40
0.0
 40
0.0
 40
0.0
 40
1.0
 40
1.0
 40
1.0
 40
2.0
 40
2.0
 40
2.0
 40
3.0
 40
3.0
 40
3.0
 40
4.0
 40
4.0
 40
4.0
 40
4.0
 10
107.6726697864499
 20
-151.0977538684755
 10
107.6554443090236
 20
-151.1273816896487
 10
107.6048014053905
 20
-151.2203992677504
 10
107.5941216093862
 20
-151.2393472929193
 10
107.7846353897205
 20
-151.2986029352656
 10
107.8056504721805
 20
-151.3051486166876
 10
107.8776529678222
 20
-151.3327093805696
 10
107.9327744955862
 20
-151.2458929743413
 10
107.9558566353374
 20
-151.1718234214084
 10
107.970670545924
 20
-151.0977538684755
 10
107.970670545924
 20
-151.0977538684755
 10
107.6726697864499
 20
-151.0977538684755
 10
107.6726697864499
 20
-151.0977538684755
 97
        0
 97
        1
330
8E
 92
        1
 93
        1
 72
     4
 94
        3
 73
     0
 74
     0
 95
       20
 96
       16
 40
0.0
 40
0.0
 40
0.0
 40
0.0
 40
1.0
 40
1.0
 40
1.0
 40
2.0
 40
2.0
 40
2.0
 40
3.0
 40
3.0
 40
3.0
 40
4.0
 40
4.0
 40
4.0
 40
5.0
 40
5.0
 40
5.0
 40
5.0
 10
107.6089355199727
 20
-150.2475043027159
 10
107.6089355199727
 20
-150.2475043027159
 10
107.5772406415084
 20
-150.2475043027159
 10
107.5772406415084
 20
-150.2475043027159
 10
107.6237494305593
 20
-150.3467230526911
 10
107.6554443090236
 20
-150.4269937774974
 10
107.6895507543276
 20
-150.5541178009031
 10
107.6895507543276
 20
-150.5541178009031
 10
107.8966009929911
 20
-150.5541178009031
 10
107.8966009929911
 20
-150.5541178009031
 10
107.9286403810039
 20
-150.4611002228014
 10
107.9517225207551
 20
-150.3763508738642
 10
107.9751491700548
 20
-150.2475043027159
 10
107.9751491700548
 20
-150.2475043027159
 10
107.6089355199727
 20
-150.2475043027159
 10
107.6089355199727
 20
-150.2475043027159
 97
        0
 97
        1
330
8F
 92
        1
 93
        1
 72
     4
 94
        3
 73
     0
 74
     0
 95
      242
 96
      238
 40
0.0
 40
0.0
 40
0.0
 40
0.0
 40
1.0
 40
1.0
 40
1.0
 40
2.0
 40
2.0
 40
2.0
 40
3.0
 40
3.0
 40
3.0
 40
4.0
 40
4.0
 40
4.0
 40
5.0
 40
5.0
 40
5.0
 40
6.0
 40
6.0
 40
6.0
 40
7.0
 40
7.0
 40
7.0
 40
8.0
 40
8.0
 40
8.0
 40
9.0
 40
9.0
 40
9.0
 40
10.0
 40
10.0
 40
10.0
 40
11.0
 40
11.0
 40
11.0
 40
12.0
 40
12.0
 40
12.0
 40
13.0
 40
13.0
 40
13.0
 40
14.0
 40
14.0
 40
14.0
 40
15.0
 40
15.0
 40
15.0
 40
16.0
 40
16.0
 40
16.0
 40
17.0
 40
17.0
 40
17.0
 40
18.0
 40
18.0
 40
18.0
 40
19.0
 40
19.0
 40
19.0
 40
20.0
 40
20.0
 40
20.0
 40
21.0
 40
21.0
 40
21.0
 40
22.0
 40
22.0
 40
22.0
 40
23.0
 40
23.0
 40
23.0
 40
24.0
 40
24.0
 40
24.0
 40
25.0
 40
25.0
 40
25.0
 40
26.0
 40
26.0
 40
26.0
 40
27.0
 40
27.0
 40
27.0
 40
28.0
 40
28.0
 40
28.0
 40
29.0
 40
29.0
 40
29.0
 40
30.0
 40
30.0
 40
30.0
 40
31.0
 40
31.0
 40
31.0
 40
32.0
 40
32.0
 40
32.0
 40
33.0
 40
33.0
 40
33.0
 40
34.0
 40
34.0
 40
34.0
 40
35.0
 40
35.0
 40
35.0
 40
36.0
 40
36.0
 40
36.0
 40
37.0
 40
37.0
 40
37.0
 40
38.0
 40
38.0
 40
38.0
 40
39.0
 40
39.0
 40
39.0
 40
40.0
 40
40.0
 40
40.0
 40
41.0
 40
41.0
 40
41.0
 40
42.0
 40
42.0
 40
42.0
 40
43.0
 40
43.0
 40
43.0
 40
44.0
 40
44.0
 40
44.0
 40
45.0
 40
45.0
 40
45.0
 40
46.0
 40
46.0
 40
46.0
 40
47.0
 40
47.0
 40
47.0
 40
48.0
 40
48.0
 40
48.0
 40
49.0
 40
49.0
 40
49.0
 40
50.0
 40
50.0
 40
50.0
 40
51.0
 40
51.0
 40
51.0
 40
52.0
 40
52.0
 40
52.0
 40
53.0
 40
53.0
 40
53.0
 40
54.0
 40
54.0
 40
54.0
 40
55.0
 40
55.0
 40
55.0
 40
56.0
 40
56.0
 40
56.0
 40
57.0
 40
57.0
 40
57.0
 40
58.0
 40
58.0
 40
58.0
 40
59.0
 40
59.0
 40
59.0
 40
60.0
 40
60.0
 40
60.0
 40
61.0
 40
61.0
 40
61.0
 40
62.0
 40
62.0
 40
62.0
 40
63.0
 40
63.0
 40
63.0
 40
64.0
 40
64.0
 40
64.0
 40
65.0
 40
65.0
 40
65.0
 40
66.0
 40
66.0
 40
66.0
 40
67.0
 40
67.0
 40
67.0
 40
68.0
 40
68.0
 40
68.0
 40
69.0
 40
69.0
 40
69.0
 40
70.0
 40
70.0
 40
70.0
 40
71.0
 40
71.0
 40
71.0
 40
72.0
 40
72.0
 40
72.0
 40
73.0
 40
73.0
 40
73.0
 40
74.0
 40
74.0
 40
74.0
 40
75.0
 40
75.0
 40
75.0
 40
76.0
 40
76.0
 40
76.0
 40
77.0
 40
77.0
 40
77.0
 40
78.0
 40
78.0
 40
78.0
 40
79.0
 40
79.0
 40
79.0
 40
79.0
 10
108.2373209364823
 20
-150.7125921932246
 10
108.2373209364823
 20
-150.7125921932246
 10
107.9834173992194
 20
-150.7125921932246
 10
107.9834173992194
 20
-150.7125921932246
 10
107.9834173992194
 20
-150.7125921932246
 10
107.7064317222053
 20
-150.7125921932246
 10
107.7064317222053
 20
-150.7125921932246
 10
107.7064317222053
 20
-150.7125921932246
 10
107.8332112360625
 20
-150.7549668676932
 10
107.8332112360625
 20
-150.7549668676932
 10
107.8438910320668
 20
-150.759445491824
 10
107.8566378853622
 20
-150.7656466636975
 10
107.8566378853622
 20
-150.7783935169929
 10
107.8566378853622
 20
-150.7994085994529
 10
107.8249430068979
 20
-150.8059542808749
 10
107.8035834148894
 20
-150.8100883954572
 10
107.7932481284336
 20
-150.8331705352084
 10
107.7636203072605
 20
-150.8989718589766
 10
107.7443277725431
 20
-150.9434135907364
 10
107.7443277725431
 20
-150.9434135907364
 10
108.0151122776837
 20
-150.9434135907364
 10
108.0151122776837
 20
-150.9434135907364
 10
108.1060627984943
 20
-150.9434135907364
 10
108.3027777507021
 20
-150.9389349666055
 10
108.4447156846944
 20
-150.9306667374409
 10
108.4447156846944
 20
-150.9306667374409
 10
108.4447156846944
 20
-151.1084336644798
 10
108.4447156846944
 20
-151.1084336644798
 10
108.3620333930484
 20
-151.103955040349
 10
108.3410183105883
 20
-151.103955040349
 10
108.1611843262583
 20
-151.0998209257667
 10
108.129489447794
 20
-151.2541612035059
 10
108.0850477160343
 20
-151.3347764378607
 10
108.0406059842746
 20
-151.4043673666628
 10
108.1611843262583
 20
-151.4636230090091
 10
108.2669487576555
 20
-151.5314913900685
 10
108.3706461317615
 20
-151.613829172166
 10
108.3706461317615
 20
-151.613829172166
 10
108.2521348470689
 20
-151.7809163032006
 10
108.2521348470689
 20
-151.7809163032006
 10
108.2290527073177
 20
-151.7619682780317
 10
108.2163058540223
 20
-151.7537000488671
 10
108.1039957412031
 20
-151.66895069993
 10
108.0554198948611
 20
-151.6307101400437
 10
107.9961642525148
 20
-151.5948811469971
 10
107.9158935277085
 20
-151.5504394152374
 10
107.7043646649142
 20
-151.7368190809894
 10
107.4990369739933
 20
-151.7599012207405
 10
107.2093044436838
 20
-151.7895290419137
 10
107.2093044436838
 20
-151.7895290419137
 10
107.1056070695777
 20
-151.6096950575837
 10
107.1056070695777
 20
-151.6096950575837
 10
107.4229003637692
 20
-151.6055609430014
 10
107.598600233517
 20
-151.5800672364105
 10
107.7508734539651
 20
-151.4701686904311
 10
107.6323621692724
 20
-151.4191812772494
 10
107.543478705753
 20
-151.3919650229159
 10
107.5076497127064
 20
-151.3792181696205
 10
107.488357177989
 20
-151.4067789335024
 10
107.4735432674024
 20
-151.4257269586713
 10
107.4459825035204
 20
-151.4594888944268
 10
107.4459825035204
 20
-151.4594888944268
 10
107.2492675513126
 20
-151.3771511123293
 10
107.2492675513126
 20
-151.3771511123293
 10
107.3319498429587
 20
-151.2965358779745
 10
107.3932725425961
 20
-151.2014512425816
 10
107.4504611276513
 20
-151.0998209257667
 10
107.2599473473169
 20
-151.103955040349
 10
107.2389322648569
 20
-151.103955040349
 10
107.1562499732109
 20
-151.1084336644798
 10
107.1562499732109
 20
-151.1084336644798
 10
107.1562499732109
 20
-150.9306667374409
 10
107.1562499732109
 20
-150.9306667374409
 10
107.2957763403635
 20
-150.9368679093144
 10
107.5052381458667
 20
-150.9413465334452
 10
107.5307318524576
 20
-150.9413465334452
 10
107.5476128203353
 20
-150.9072400881412
 10
107.6027343480993
 20
-150.7866617461575
 10
107.6216823732682
 20
-150.7125921932246
 10
107.6027343480993
 20
-150.7125921932246
 10
107.4249674210604
 20
-150.7191378746466
 10
107.2303195261438
 20
-150.731884727942
 10
107.2303195261438
 20
-150.731884727942
 10
107.2303195261438
 20
-150.8652099232212
 10
107.2303195261438
 20
-150.8652099232212
 10
107.1817436798018
 20
-150.8903591202635
 10
107.1224880374555
 20
-150.9220539987278
 10
106.9891628421763
 20
-150.9878553224961
 10
106.9891628421763
 20
-150.9878553224961
 10
106.9891628421763
 20
-151.1335828615221
 10
106.9891628421763
 20
-151.1335828615221
 10
106.9891628421763
 20
-151.1335828615221
 10
106.9891628421763
 20
-151.6014268284191
 10
106.9891628421763
 20
-151.6014268284191
 10
106.9891628421763
 20
-151.7282063422763
 10
106.9533338491297
 20
-151.7874619846226
 10
106.6698024906936
 20
-151.7788492459095
 10
106.6698024906936
 20
-151.7788492459095
 10
106.5661051165876
 20
-151.5717990072459
 10
106.5661051165876
 20
-151.5717990072459
 10
106.6294948735162
 20
-151.5842013509928
 10
106.6780707198582
 20
-151.5886799751237
 10
106.7183783370357
 20
-151.5886799751237
 10
106.7945149472597
 20
-151.5886799751237
 10
106.8051947432639
 20
-151.5652533258239
 10
106.8051947432639
 20
-151.4997965116042
 10
106.8051947432639
 20
-151.4997965116042
 10
106.8051947432639
 20
-151.0701931045935
 10
106.8051947432639
 20
-151.0701931045935
 10
106.7076985410314
 20
-151.110500721771
 10
106.6908175731537
 20
-151.1167018936444
 10
106.6443087841028
 20
-151.1359944283618
 10
106.6401746695205
 20
-151.1570095108218
 10
106.6360405549382
 20
-151.186637331995
 10
106.6167480202208
 20
-151.186637331995
 10
106.6084797910562
 20
-151.186637331995
 10
106.5977999950519
 20
-151.1825032174127
 10
106.5915988231785
 20
-151.159076568113
 10
106.5915988231785
 20
-151.159076568113
 10
106.5385443527056
 20
-150.9664957304875
 10
106.5385443527056
 20
-150.9664957304875
 10
106.6846164012802
 20
-150.9199869414367
 10
106.7500732155
 20
-150.8969048016855
 10
106.8051947432639
 20
-150.8755452096769
 10
106.8051947432639
 20
-150.8755452096769
 10
106.8051947432639
 20
-150.4631672800925
 10
106.8051947432639
 20
-150.4631672800925
 10
106.8051947432639
 20
-150.4631672800925
 10
106.7521402727911
 20
-150.4631672800925
 10
106.7521402727911
 20
-150.4631672800925
 10
106.7521402727911
 20
-150.4631672800925
 10
106.6739366052759
 20
-150.4631672800925
 10
106.6739366052759
 20
-150.4631672800925
 10
106.606412733765
 20
-150.4631672800925
 10
106.5977999950519
 20
-150.4631672800925
 10
106.5619710020053
 20
-150.469368451966
 10
106.5619710020053
 20
-150.469368451966
 10
106.5619710020053
 20
-150.2747205570494
 10
106.5619710020053
 20
-150.2747205570494
 10
106.5895317658873
 20
-150.2812662384713
 10
106.5977999950519
 20
-150.2812662384713
 10
106.6677354334025
 20
-150.2812662384713
 10
106.6677354334025
 20
-150.2812662384713
 10
106.8010606286817
 20
-150.2812662384713
 10
106.8010606286817
 20
-150.2812662384713
 10
106.8010606286817
 20
-150.2113308001208
 10
106.8010606286817
 20
-150.1289930180233
 10
106.798649061842
 20
-150.1245143938925
 10
106.7903808326774
 20
-149.9446804095624
 10
106.7903808326774
 20
-149.9257323843935
 10
106.7883137753862
 20
-149.8792235953427
 10
106.7883137753862
 20
-149.8792235953427
 10
107.0039767527629
 20
-149.8878363340558
 10
107.0039767527629
 20
-149.8878363340558
 10
107.0146565487672
 20
-149.8878363340558
 10
107.0356716312272
 20
-149.8899033913469
 10
107.0356716312272
 20
-149.9067843592247
 10
107.0356716312272
 20
-149.9257323843935
 10
107.0208577206406
 20
-149.9364121803978
 10
106.9957085235983
 20
-149.9553602055667
 10
106.9957085235983
 20
-150.0060031091999
 10
106.9891628421763
 20
-150.2347574494204
 10
106.9912298994674
 20
-150.2812662384713
 10
107.1204209801643
 20
-150.2812662384713
 10
107.1331678334597
 20
-150.2812662384713
 10
107.2303195261438
 20
-150.2726534997582
 10
107.2303195261438
 20
-150.2726534997582
 10
107.2303195261438
 20
-150.4673013946748
 10
107.2303195261438
 20
-150.4673013946748
 10
107.192423475806
 20
-150.4652343373837
 10
107.1245550947466
 20
-150.4611002228014
 10
106.9891628421763
 20
-150.4631672800925
 10
106.9891628421763
 20
-150.4631672800925
 10
106.9891628421763
 20
-150.8014756567441
 10
106.9891628421763
 20
-150.8014756567441
 10
107.0442843699403
 20
-150.7783935169929
 10
107.1097411841601
 20
-150.7508327531109
 10
107.1583170305021
 20
-150.7274061038112
 10
107.1583170305021
 20
-150.7274061038112
 10
107.1583170305021
 20
-150.5499836863208
 10
107.1583170305021
 20
-150.5499836863208
 10
107.2726942006124
 20
-150.5623860300677
 10
107.391205485305
 20
-150.5623860300677
 10
107.5076497127064
 20
-150.5623860300677
 10
107.4842230634067
 20
-150.4673013946748
 10
107.4566622995247
 20
-150.3849636125773
 10
107.3932725425961
 20
-150.2516384172982
 10
107.3488308108364
 20
-150.2537054745893
 10
107.2664930287389
 20
-150.2578395891716
 10
107.2282524688526
 20
-150.2599066464628
 10
107.2282524688526
 20
-150.2599066464628
 10
107.2282524688526
 20
-150.0800726621328
 10
107.2282524688526
 20
-150.0800726621328
 10
107.3529649254187
 20
-150.0886854008459
 10
107.5265977378753
 20
-150.0928195154282
 10
107.6089355199727
 20
-150.0928195154282
 10
107.6089355199727
 20
-150.0928195154282
 10
107.6916178116188
 20
-150.0928195154282
 10
107.6916178116188
 20
-150.0928195154282
 10
107.6916178116188
 20
-149.9298664989759
 10
107.6916178116188
 20
-149.9195312125201
 10
107.6895507543276
 20
-149.8644096847561
 10
107.6895507543276
 20
-149.8644096847561
 10
107.9138264704174
 20
-149.8899033913469
 10
107.9138264704174
 20
-149.8899033913469
 10
107.9179605849996
 20
-149.8899033913469
 10
107.9389756674597
 20
-149.8919704486381
 10
107.9389756674597
 20
-149.9088514165158
 10
107.9389756674597
 20
-149.9236653271024
 10
107.9286403810039
 20
-149.9322780658155
 10
107.9010796171219
 20
-149.9470919764021
 10
107.8945339357
 20
-150.0125487906219
 10
107.8924668784088
 20
-150.0335638730819
 10
107.8924668784088
 20
-150.0928195154282
 10
107.8924668784088
 20
-150.0928195154282
 10
107.9875515138017
 20
-150.0928195154282
 10
107.9875515138017
 20
-150.0928195154282
 10
108.0702338054477
 20
-150.0928195154282
 10
108.2435221083558
 20
-150.0886854008459
 10
108.3685790744703
 20
-150.0800726621328
 10
108.3685790744703
 20
-150.0800726621328
 10
108.3685790744703
 20
-150.2599066464628
 10
108.3685790744703
 20
-150.2599066464628
 10
108.3389512532972
 20
-150.2578395891716
 10
108.2204399686046
 20
-150.2537054745893
 10
108.1801323514272
 20
-150.2516384172982
 10
108.1653184408406
 20
-150.3022813209313
 10
108.1315565050851
 20
-150.4145914337505
 10
108.0660996908654
 20
-150.5541178009031
 10
108.1081298557855
 20
-150.5541178009031
 10
108.3854600423481
 20
-150.5351697757342
 10
108.4467827419855
 20
-150.5327582088946
 10
108.4467827419855
 20
-150.5327582088946
 10
108.4467827419855
 20
-150.7170708173554
 10
108.4467827419855
 20
-150.7170708173554
 10
108.4171549208124
 20
-150.7170708173554
 10
108.4002739529346
 20
-150.7125921932246
 10
108.2373209364823
 20
-150.7125921932246
 97
        0
 97
        1
330
90
 75
     2
 76
     1
 98
        1
 10
0.0
 20
0.0
450
        0
451
        0
460
0.0
461
0.0
452
        0
462
0.0
453
        0
470

  0
SPLINE
  5
92
330
8A
100
AcDbEntity
  8
レイヤー 1
100
AcDbSpline
210
0.0
220
0.0
230
1.0
 70
    11
 71
     3
 72
    17
 73
    13
 74
     0
 42
0.0000000001
 43
0.0000000001
 40
0.0
 40
0.0
 40
0.0
 40
0.0
 40
1.0
 40
1.0
 40
1.0
 40
2.0
 40
2.0
 40
2.0
 40
3.0
 40
3.0
 40
3.0
 40
4.0
 40
4.0
 40
4.0
 40
4.0
 10
110.0938828934834
 20
-151.5125433648996
 30
0.0
 10
110.0938828934834
 20
-151.5125433648996
 30
0.0
 10
109.3872938094587
 20
-151.5125433648996
 30
0.0
 10
109.3872938094587
 20
-151.5125433648996
 30
0.0
 10
109.3872938094587
 20
-151.5125433648996
 30
0.0
 10
109.3872938094587
 20
-151.6265760254614
 30
0.0
 10
109.3872938094587
 20
-151.6265760254614
 30
0.0
 10
109.3872938094587
 20
-151.6265760254614
 30
0.0
 10
110.0938828934834
 20
-151.6265760254614
 30
0.0
 10
110.0938828934834
 20
-151.6265760254614
 30
0.0
 10
110.0938828934834
 20
-151.6265760254614
 30
0.0
 10
110.0938828934834
 20
-151.5125433648996
 30
0.0
 10
110.0938828934834
 20
-151.5125433648996
 30
0.0
  0
SPLINE
  5
93
330
8A
100
AcDbEntity
  8
レイヤー 1
100
AcDbSpline
210
0.0
220
0.0
230
1.0
 70
    11
 71
     3
 72
    17
 73
    13
 74
     0
 42
0.0000000001
 43
0.0000000001
 40
0.0
 40
0.0
 40
0.0
 40
0.0
 40
1.0
 40
1.0
 40
1.0
 40
2.0
 40
2.0
 40
2.0
 40
3.0
 40
3.0
 40
3.0
 40
4.0
 40
4.0
 40
4.0
 40
4.0
 10
110.0938828934834
 20
-151.2689751140925
 30
0.0
 10
110.0938828934834
 20
-151.2689751140925
 30
0.0
 10
109.3872938094587
 20
-151.2689751140925
 30
0.0
 10
109.3872938094587
 20
-151.2689751140925
 30
0.0
 10
109.3872938094587
 20
-151.2689751140925
 30
0.0
 10
109.3872938094587
 20
-151.3833522842027
 30
0.0
 10
109.3872938094587
 20
-151.3833522842027
 30
0.0
 10
109.3872938094587
 20
-151.3833522842027
 30
0.0
 10
110.0938828934834
 20
-151.3833522842027
 30
0.0
 10
110.0938828934834
 20
-151.3833522842027
 30
0.0
 10
110.0938828934834
 20
-151.3833522842027
 30
0.0
 10
110.0938828934834
 20
-151.2689751140925
 30
0.0
 10
110.0938828934834
 20
-151.2689751140925
 30
0.0
  0
SPLINE
  5
94
330
8A
100
AcDbEntity
  8
レイヤー 1
100
AcDbSpline
210
0.0
220
0.0
230
1.0
 70
    11
 71
     3
 72
    17
 73
    13
 74
     0
 42
0.0000000001
 43
0.0000000001
 40
0.0
 40
0.0
 40
0.0
 40
0.0
 40
1.0
 40
1.0
 40
1.0
 40
2.0
 40
2.0
 40
2.0
 40
3.0
 40
3.0
 40
3.0
 40
4.0
 40
4.0
 40
4.0
 40
4.0
 10
110.0938828934834
 20
-151.0364311688381
 30
0.0
 10
110.0938828934834
 20
-151.0364311688381
 30
0.0
 10
109.3872938094587
 20
-151.0364311688381
 30
0.0
 10
109.3872938094587
 20
-151.0364311688381
 30
0.0
 10
109.3872938094587
 20
-151.0364311688381
 30
0.0
 10
109.3872938094587
 20
-151.1442626575264
 30
0.0
 10
109.3872938094587
 20
-151.1442626575264
 30
0.0
 10
109.3872938094587
 20
-151.1442626575264
 30
0.0
 10
110.0938828934834
 20
-151.1442626575264
 30
0.0
 10
110.0938828934834
 20
-151.1442626575264
 30
0.0
 10
110.0938828934834
 20
-151.1442626575264
 30
0.0
 10
110.0938828934834
 20
-151.0364311688381
 30
0.0
 10
110.0938828934834
 20
-151.0364311688381
 30
0.0
  0
SPLINE
  5
95
330
8A
100
AcDbEntity
  8
レイヤー 1
100
AcDbSpline
210
0.0
220
0.0
230
1.0
 70
     9
 71
     3
 72
   203
 73
   199
 74
     0
 42
0.0000000001
 43
0.0000000001
 40
0.0
 40
0.0
 40
0.0
 40
0.0
 40
1.0
 40
1.0
 40
1.0
 40
2.0
 40
2.0
 40
2.0
 40
3.0
 40
3.0
 40
3.0
 40
4.0
 40
4.0
 40
4.0
 40
5.0
 40
5.0
 40
5.0
 40
6.0
 40
6.0
 40
6.0
 40
7.0
 40
7.0
 40
7.0
 40
8.0
 40
8.0
 40
8.0
 40
9.0
 40
9.0
 40
9.0
 40
10.0
 40
10.0
 40
10.0
 40
11.0
 40
11.0
 40
11.0
 40
12.0
 40
12.0
 40
12.0
 40
13.0
 40
13.0
 40
13.0
 40
14.0
 40
14.0
 40
14.0
 40
15.0
 40
15.0
 40
15.0
 40
16.0
 40
16.0
 40
16.0
 40
17.0
 40
17.0
 40
17.0
 40
18.0
 40
18.0
 40
18.0
 40
19.0
 40
19.0
 40
19.0
 40
20.0
 40
20.0
 40
20.0
 40
21.0
 40
21.0
 40
21.0
 40
22.0
 40
22.0
 40
22.0
 40
23.0
 40
23.0
 40
23.0
 40
24.0
 40
24.0
 40
24.0
 40
25.0
 40
25.0
 40
25.0
 40
26.0
 40
26.0
 40
26.0
 40
27.0
 40
27.0
 40
27.0
 40
28.0
 40
28.0
 40
28.0
 40
29.0
 40
29.0
 40
29.0
 40
30.0
 40
30.0
 40
30.0
 40
31.0
 40
31.0
 40
31.0
 40
32.0
 40
32.0
 40
32.0
 40
33.0
 40
33.0
 40
33.0
 40
34.0
 40
34.0
 40
34.0
 40
35.0
 40
35.0
 40
35.0
 40
36.0
 40
36.0
 40
36.0
 40
37.0
 40
37.0
 40
37.0
 40
38.0
 40
38.0
 40
38.0
 40
39.0
 40
39.0
 40
39.0
 40
40.0
 40
40.0
 40
40.0
 40
41.0
 40
41.0
 40
41.0
 40
42.0
 40
42.0
 40
42.0
 40
43.0
 40
43.0
 40
43.0
 40
44.0
 40
44.0
 40
44.0
 40
45.0
 40
45.0
 40
45.0
 40
46.0
 40
46.0
 40
46.0
 40
47.0
 40
47.0
 40
47.0
 40
48.0
 40
48.0
 40
48.0
 40
49.0
 40
49.0
 40
49.0
 40
50.0
 40
50.0
 40
50.0
 40
51.0
 40
51.0
 40
51.0
 40
52.0
 40
52.0
 40
52.0
 40
53.0
 40
53.0
 40
53.0
 40
54.0
 40
54.0
 40
54.0
 40
55.0
 40
55.0
 40
55.0
 40
56.0
 40
56.0
 40
56.0
 40
57.0
 40
57.0
 40
57.0
 40
58.0
 40
58.0
 40
58.0
 40
59.0
 40
59.0
 40
59.0
 40
60.0
 40
60.0
 40
60.0
 40
61.0
 40
61.0
 40
61.0
 40
62.0
 40
62.0
 40
62.0
 40
63.0
 40
63.0
 40
63.0
 40
64.0
 40
64.0
 40
64.0
 40
65.0
 40
65.0
 40
65.0
 40
66.0
 40
66.0
 40
66.0
 40
66.0
 10
109.92886281974
 20
-150.780460574284
 30
0.0
 10
109.92886281974
 20
-150.780460574284
 30
0.0
 10
109.370412841581
 20
-150.780460574284
 30
0.0
 10
109.370412841581
 20
-150.780460574284
 30
0.0
 10
109.3597330455767
 20
-150.8249023060438
 30
0.0
 10
109.3511203068636
 20
-150.856597184508
 30
0.0
 10
109.3387179631167
 20
-150.8948377443943
 30
0.0
 10
109.363867160159
 20
-150.8948377443943
 30
0.0
 10
109.3786810707456
 20
-150.8969048016855
 30
0.0
 10
109.3852267521675
 20
-150.8969048016855
 30
0.0
 10
109.3852267521675
 20
-150.8969048016855
 30
0.0
 10
109.5733289656622
 20
-150.8969048016855
 30
0.0
 10
109.5733289656622
 20
-150.8969048016855
 30
0.0
 10
109.5733289656622
 20
-150.8969048016855
 30
0.0
 10
109.9478108449089
 20
-150.8969048016855
 30
0.0
 10
109.9478108449089
 20
-150.8969048016855
 30
0.0
 10
109.998453748542
 20
-150.8969048016855
 30
0.0
 10
110.2819851069781
 20
-150.8841579483901
 30
0.0
 10
110.3136799854424
 20
-150.8841579483901
 30
0.0
 10
110.3116129281512
 20
-150.9117187122721
 30
0.0
 10
110.3095458708601
 20
-150.9306667374409
 30
0.0
 10
110.3095458708601
 20
-150.9602945586141
 30
0.0
 10
110.3074788135689
 20
-150.9919894370784
 30
0.0
 10
110.3074788135689
 20
-151.1273816896487
 30
0.0
 10
110.3074788135689
 20
-151.1549424535307
 30
0.0
 10
110.3074788135689
 20
-151.1549424535307
 30
0.0
 10
110.3074788135689
 20
-151.4002332520805
 30
0.0
 10
110.3074788135689
 20
-151.4002332520805
 30
0.0
 10
110.3074788135689
 20
-151.4446749838402
 30
0.0
 10
110.3116129281512
 20
-151.641389936048
 30
0.0
 10
110.3160915522821
 20
-151.793663156496
 30
0.0
 10
110.3160915522821
 20
-151.793663156496
 30
0.0
 10
110.0894042693526
 20
-151.793663156496
 30
0.0
 10
110.0894042693526
 20
-151.793663156496
 30
0.0
 10
110.0894042693526
 20
-151.793663156496
 30
0.0
 10
110.0918158361923
 20
-151.7599012207405
 30
0.0
 10
110.0918158361923
 20
-151.7599012207405
 30
0.0
 10
110.0918158361923
 20
-151.7599012207405
 30
0.0
 10
109.3893608667499
 20
-151.7599012207405
 30
0.0
 10
109.3893608667499
 20
-151.7599012207405
 30
0.0
 10
109.3893608667499
 20
-151.7599012207405
 30
0.0
 10
109.391427924041
 20
-151.793663156496
 30
0.0
 10
109.391427924041
 20
-151.793663156496
 30
0.0
 10
109.391427924041
 20
-151.793663156496
 30
0.0
 10
109.1736978893732
 20
-151.793663156496
 30
0.0
 10
109.1736978893732
 20
-151.793663156496
 30
0.0
 10
109.1778320039555
 20
-151.7388861382805
 30
0.0
 10
109.1778320039555
 20
-151.7261392849851
 30
0.0
 10
109.184033175829
 20
-151.6117621148748
 30
0.0
 10
109.1861002331201
 20
-151.5842013509928
 30
0.0
 10
109.1885117999598
 20
-151.4512206652622
 30
0.0
 10
109.1885117999598
 20
-151.4319281305448
 30
0.0
 10
109.1885117999598
 20
-151.4319281305448
 30
0.0
 10
109.1885117999598
 20
-151.2290120064636
 30
0.0
 10
109.1885117999598
 20
-151.2290120064636
 30
0.0
 10
109.0486409232586
 20
-151.4784369195957
 30
0.0
 10
108.8794867349329
 20
-151.6096950575837
 30
0.0
 10
108.7737223035357
 20
-151.6751518718034
 30
0.0
 10
108.7737223035357
 20
-151.6751518718034
 30
0.0
 10
108.6000894910791
 20
-151.5356255046508
 30
0.0
 10
108.6000894910791
 20
-151.5356255046508
 30
0.0
 10
108.6889729545986
 20
-151.4849826010176
 30
0.0
 10
108.832977945882
 20
-151.3981661947893
 30
0.0
 10
108.9704372557435
 20
-151.2035182998727
 30
0.0
 10
109.0613877765541
 20
-151.0767387860155
 30
0.0
 10
109.1271891003223
 20
-150.9327337947321
 30
0.0
 10
109.1609510360778
 20
-150.780460574284
 30
0.0
 10
108.9325412054057
 20
-150.7825276315752
 30
0.0
 10
108.7527072210757
 20
-150.7890733129972
 30
0.0
 10
108.6572780761343
 20
-150.7911403702883
 30
0.0
 10
108.6572780761343
 20
-150.7911403702883
 30
0.0
 10
108.6572780761343
 20
-150.6133734432494
 30
0.0
 10
108.6572780761343
 20
-150.6133734432494
 30
0.0
 10
108.853993028342
 20
-150.6195746151229
 30
0.0
 10
109.1375243867781
 20
-150.6240532392537
 30
0.0
 10
109.287730549935
 20
-150.6240532392537
 30
0.0
 10
109.287730549935
 20
-150.6240532392537
 30
0.0
 10
109.5013264700205
 20
-150.6240532392537
 30
0.0
 10
109.5013264700205
 20
-150.6240532392537
 30
0.0
 10
109.5013264700205
 20
-150.6240532392537
 30
0.0
 10
109.5013264700205
 20
-150.5158772410169
 30
0.0
 10
109.5013264700205
 20
-150.5158772410169
 30
0.0
 10
109.5013264700205
 20
-150.5158772410169
 30
0.0
 10
109.3555989309944
 20
-150.5158772410169
 30
0.0
 10
109.3555989309944
 20
-150.5158772410169
 30
0.0
 10
109.1861002331201
 20
-150.5158772410169
 30
0.0
 10
109.0169460447944
 20
-150.5203558651477
 30
0.0
 10
108.8498589137597
 20
-150.5265570370211
 30
0.0
 10
108.8498589137597
 20
-150.5265570370211
 30
0.0
 10
108.8498589137597
 20
-150.3553357914042
 30
0.0
 10
108.8498589137597
 20
-150.3553357914042
 30
0.0
 10
109.0041991914989
 20
-150.36567107786
 30
0.0
 10
109.1905788572509
 20
-150.36567107786
 30
0.0
 10
109.3555989309944
 20
-150.36567107786
 30
0.0
 10
109.3555989309944
 20
-150.36567107786
 30
0.0
 10
109.5013264700205
 20
-150.36567107786
 30
0.0
 10
109.5013264700205
 20
-150.36567107786
 30
0.0
 10
109.5013264700205
 20
-150.36567107786
 30
0.0
 10
109.5013264700205
 20
-150.2475043027159
 30
0.0
 10
109.5013264700205
 20
-150.2475043027159
 30
0.0
 10
109.5013264700205
 20
-150.2475043027159
 30
0.0
 10
109.370412841581
 20
-150.2475043027159
 30
0.0
 10
109.370412841581
 20
-150.2475043027159
 30
0.0
 10
109.3239040525301
 20
-150.2475043027159
 30
0.0
 10
109.1206434189004
 20
-150.2557725318805
 30
0.0
 10
109.0782687444318
 20
-150.2557725318805
 30
0.0
 10
108.8753526203506
 20
-150.2599066464628
 30
0.0
 10
108.7992160101266
 20
-150.2619737037539
 30
0.0
 10
108.7210123426114
 20
-150.2643852705936
 30
0.0
 10
108.7210123426114
 20
-150.2643852705936
 30
0.0
 10
108.7210123426114
 20
-150.0800726621328
 30
0.0
 10
108.7210123426114
 20
-150.0800726621328
 30
0.0
 10
108.8350450031732
 20
-150.0886854008459
 30
0.0
 10
108.8794867349329
 20
-150.0886854008459
 30
0.0
 10
109.2625813528927
 20
-150.097298139559
 30
0.0
 10
109.1988470864155
 20
-150.0018689946176
 30
0.0
 10
109.1712863225335
 20
-149.9743082307356
 30
0.0
 10
109.1354573294869
 20
-149.938479237689
 30
0.0
 10
109.1354573294869
 20
-149.938479237689
 30
0.0
 10
109.3111571992347
 20
-149.855796946043
 30
0.0
 10
109.3111571992347
 20
-149.855796946043
 30
0.0
 10
109.3511203068636
 20
-149.8919704486381
 30
0.0
 10
109.3955620386233
 20
-149.9343451231067
 30
0.0
 10
109.4696315915562
 20
-150.0442436690861
 30
0.0
 10
109.4696315915562
 20
-150.0442436690861
 30
0.0
 10
109.3555989309944
 20
-150.0993651968501
 30
0.0
 10
109.3555989309944
 20
-150.0993651968501
 30
0.0
 10
109.3555989309944
 20
-150.0993651968501
 30
0.0
 10
109.3659342174502
 20
-150.0993651968501
 30
0.0
 10
109.3659342174502
 20
-150.0993651968501
 30
0.0
 10
109.3659342174502
 20
-150.0993651968501
 30
0.0
 10
109.8885552025626
 20
-150.0993651968501
 30
0.0
 10
109.8885552025626
 20
-150.0993651968501
 30
0.0
 10
109.8885552025626
 20
-150.0993651968501
 30
0.0
 10
109.7934705671697
 20
-150.0549234650904
 30
0.0
 10
109.7934705671697
 20
-150.0549234650904
 30
0.0
 10
109.8210313310516
 20
-150.0166829052041
 30
0.0
 10
109.8778754065583
 20
-149.9364121803978
 30
0.0
 10
109.8926893171449
 20
-149.862342627465
 30
0.0
 10
109.8926893171449
 20
-149.862342627465
 30
0.0
 10
110.1066297467789
 20
-149.9257323843935
 30
0.0
 10
110.1066297467789
 20
-149.9257323843935
 30
0.0
 10
110.1148979759435
 20
-149.9277994416847
 30
0.0
 10
110.136257567952
 20
-149.938479237689
 30
0.0
 10
110.136257567952
 20
-149.959494320149
 30
0.0
 10
110.136257567952
 20
-149.9977348800353
 30
0.0
 10
110.0704562441837
 20
-149.9977348800353
 30
0.0
 10
110.0515082190149
 20
-149.9977348800353
 30
0.0
 10
110.0408284230106
 20
-150.0166829052041
 30
0.0
 10
110.0177462832594
 20
-150.0569905223816
 30
0.0
 10
109.9881184620863
 20
-150.097298139559
 30
0.0
 10
110.3877495383753
 20
-150.090752458137
 30
0.0
 10
110.4173773595484
 20
-150.0886854008459
 30
0.0
 10
110.4935139697724
 20
-150.0824842289724
 30
0.0
 10
110.4935139697724
 20
-150.0824842289724
 30
0.0
 10
110.4935139697724
 20
-150.2643852705936
 30
0.0
 10
110.4935139697724
 20
-150.2643852705936
 30
0.0
 10
110.4745659446036
 20
-150.2643852705936
 30
0.0
 10
110.4490722380127
 20
-150.2619737037539
 30
0.0
 10
110.2292751460538
 20
-150.2537054745893
 30
0.0
 10
110.1782877328721
 20
-150.2516384172982
 30
0.0
 10
109.9584906409131
 20
-150.2475043027159
 30
0.0
 10
109.9140489091534
 20
-150.2475043027159
 30
0.0
 10
109.9140489091534
 20
-150.2475043027159
 30
0.0
 10
109.6980414222282
 20
-150.2475043027159
 30
0.0
 10
109.6980414222282
 20
-150.2475043027159
 30
0.0
 10
109.6980414222282
 20
-150.2475043027159
 30
0.0
 10
109.6980414222282
 20
-150.36567107786
 30
0.0
 10
109.6980414222282
 20
-150.36567107786
 30
0.0
 10
109.6980414222282
 20
-150.36567107786
 30
0.0
 10
109.8716742346848
 20
-150.36567107786
 30
0.0
 10
109.8716742346848
 20
-150.36567107786
 30
0.0
 10
110.0346272511371
 20
-150.36567107786
 30
0.0
 10
110.2247965219229
 20
-150.36567107786
 30
0.0
 10
110.3815483665018
 20
-150.3553357914042
 30
0.0
 10
110.3815483665018
 20
-150.3553357914042
 30
0.0
 10
110.3815483665018
 20
-150.5265570370211
 30
0.0
 10
110.3815483665018
 20
-150.5265570370211
 30
0.0
 10
110.1720865609986
 20
-150.5182888078565
 30
0.0
 10
109.9753716087908
 20
-150.5158772410169
 30
0.0
 10
109.8716742346848
 20
-150.5158772410169
 30
0.0
 10
109.8716742346848
 20
-150.5158772410169
 30
0.0
 10
109.6980414222282
 20
-150.5158772410169
 30
0.0
 10
109.6980414222282
 20
-150.5158772410169
 30
0.0
 10
109.6980414222282
 20
-150.5158772410169
 30
0.0
 10
109.6980414222282
 20
-150.6240532392537
 30
0.0
 10
109.6980414222282
 20
-150.6240532392537
 30
0.0
 10
109.6980414222282
 20
-150.6240532392537
 30
0.0
 10
109.92886281974
 20
-150.6240532392537
 30
0.0
 10
109.92886281974
 20
-150.6240532392537
 30
0.0
 10
110.0621880150191
 20
-150.6240532392537
 30
0.0
 10
110.3498534880375
 20
-150.6195746151229
 30
0.0
 10
110.5593152935407
 20
-150.6133734432494
 30
0.0
 10
110.5593152935407
 20
-150.6133734432494
 30
0.0
 10
110.5593152935407
 20
-150.7911403702883
 30
0.0
 10
110.5593152935407
 20
-150.7911403702883
 30
0.0
 10
110.3667344559152
 20
-150.7845946888663
 30
0.0
 10
110.053575276306
 20
-150.780460574284
 30
0.0
 10
109.92886281974
 20
-150.780460574284
 30
0.0
  0
HATCH
  5
96
330
8A
100
AcDbEntity
  8
レイヤー 1
 62
    18
420
        0
440
 33554687
100
AcDbHatch
 10
0.0
 20
0.0
 30
0.0
210
0.0
220
0.0
230
1.0
  2
SOLID
 70
     1
 71
     1
 91
        4
 92
        1
 93
        1
 72
     4
 94
        3
 73
     0
 74
     0
 95
       17
 96
       13
 40
0.0
 40
0.0
 40
0.0
 40
0.0
 40
1.0
 40
1.0
 40
1.0
 40
2.0
 40
2.0
 40
2.0
 40
3.0
 40
3.0
 40
3.0
 40
4.0
 40
4.0
 40
4.0
 40
4.0
 10
110.0938828934834
 20
-151.5125433648996
 10
110.0938828934834
 20
-151.5125433648996
 10
109.3872938094587
 20
-151.5125433648996
 10
109.3872938094587
 20
-151.5125433648996
 10
109.3872938094587
 20
-151.5125433648996
 10
109.3872938094587
 20
-151.6265760254614
 10
109.3872938094587
 20
-151.6265760254614
 10
109.3872938094587
 20
-151.6265760254614
 10
110.0938828934834
 20
-151.6265760254614
 10
110.0938828934834
 20
-151.6265760254614
 10
110.0938828934834
 20
-151.6265760254614
 10
110.0938828934834
 20
-151.5125433648996
 10
110.0938828934834
 20
-151.5125433648996
 97
        0
 97
        1
330
92
 92
        1
 93
        1
 72
     4
 94
        3
 73
     0
 74
     0
 95
       17
 96
       13
 40
0.0
 40
0.0
 40
0.0
 40
0.0
 40
1.0
 40
1.0
 40
1.0
 40
2.0
 40
2.0
 40
2.0
 40
3.0
 40
3.0
 40
3.0
 40
4.0
 40
4.0
 40
4.0
 40
4.0
 10
110.0938828934834
 20
-151.2689751140925
 10
110.0938828934834
 20
-151.2689751140925
 10
109.3872938094587
 20
-151.2689751140925
 10
109.3872938094587
 20
-151.2689751140925
 10
109.3872938094587
 20
-151.2689751140925
 10
109.3872938094587
 20
-151.3833522842027
 10
109.3872938094587
 20
-151.3833522842027
 10
109.3872938094587
 20
-151.3833522842027
 10
110.0938828934834
 20
-151.3833522842027
 10
110.0938828934834
 20
-151.3833522842027
 10
110.0938828934834
 20
-151.3833522842027
 10
110.0938828934834
 20
-151.2689751140925
 10
110.0938828934834
 20
-151.2689751140925
 97
        0
 97
        1
330
93
 92
        1
 93
        1
 72
     4
 94
        3
 73
     0
 74
     0
 95
       17
 96
       13
 40
0.0
 40
0.0
 40
0.0
 40
0.0
 40
1.0
 40
1.0
 40
1.0
 40
2.0
 40
2.0
 40
2.0
 40
3.0
 40
3.0
 40
3.0
 40
4.0
 40
4.0
 40
4.0
 40
4.0
 10
110.0938828934834
 20
-151.0364311688381
 10
110.0938828934834
 20
-151.0364311688381
 10
109.3872938094587
 20
-151.0364311688381
 10
109.3872938094587
 20
-151.0364311688381
 10
109.3872938094587
 20
-151.0364311688381
 10
109.3872938094587
 20
-151.1442626575264
 10
109.3872938094587
 20
-151.1442626575264
 10
109.3872938094587
 20
-151.1442626575264
 10
110.0938828934834
 20
-151.1442626575264
 10
110.0938828934834
 20
-151.1442626575264
 10
110.0938828934834
 20
-151.1442626575264
 10
110.0938828934834
 20
-151.0364311688381
 10
110.0938828934834
 20
-151.0364311688381
 97
        0
 97
        1
330
94
 92
        1
 93
        1
 72
     4
 94
        3
 73
     0
 74
     0
 95
      203
 96
      199
 40
0.0
 40
0.0
 40
0.0
 40
0.0
 40
1.0
 40
1.0
 40
1.0
 40
2.0
 40
2.0
 40
2.0
 40
3.0
 40
3.0
 40
3.0
 40
4.0
 40
4.0
 40
4.0
 40
5.0
 40
5.0
 40
5.0
 40
6.0
 40
6.0
 40
6.0
 40
7.0
 40
7.0
 40
7.0
 40
8.0
 40
8.0
 40
8.0
 40
9.0
 40
9.0
 40
9.0
 40
10.0
 40
10.0
 40
10.0
 40
11.0
 40
11.0
 40
11.0
 40
12.0
 40
12.0
 40
12.0
 40
13.0
 40
13.0
 40
13.0
 40
14.0
 40
14.0
 40
14.0
 40
15.0
 40
15.0
 40
15.0
 40
16.0
 40
16.0
 40
16.0
 40
17.0
 40
17.0
 40
17.0
 40
18.0
 40
18.0
 40
18.0
 40
19.0
 40
19.0
 40
19.0
 40
20.0
 40
20.0
 40
20.0
 40
21.0
 40
21.0
 40
21.0
 40
22.0
 40
22.0
 40
22.0
 40
23.0
 40
23.0
 40
23.0
 40
24.0
 40
24.0
 40
24.0
 40
25.0
 40
25.0
 40
25.0
 40
26.0
 40
26.0
 40
26.0
 40
27.0
 40
27.0
 40
27.0
 40
28.0
 40
28.0
 40
28.0
 40
29.0
 40
29.0
 40
29.0
 40
30.0
 40
30.0
 40
30.0
 40
31.0
 40
31.0
 40
31.0
 40
32.0
 40
32.0
 40
32.0
 40
33.0
 40
33.0
 40
33.0
 40
34.0
 40
34.0
 40
34.0
 40
35.0
 40
35.0
 40
35.0
 40
36.0
 40
36.0
 40
36.0
 40
37.0
 40
37.0
 40
37.0
 40
38.0
 40
38.0
 40
38.0
 40
39.0
 40
39.0
 40
39.0
 40
40.0
 40
40.0
 40
40.0
 40
41.0
 40
41.0
 40
41.0
 40
42.0
 40
42.0
 40
42.0
 40
43.0
 40
43.0
 40
43.0
 40
44.0
 40
44.0
 40
44.0
 40
45.0
 40
45.0
 40
45.0
 40
46.0
 40
46.0
 40
46.0
 40
47.0
 40
47.0
 40
47.0
 40
48.0
 40
48.0
 40
48.0
 40
49.0
 40
49.0
 40
49.0
 40
50.0
 40
50.0
 40
50.0
 40
51.0
 40
51.0
 40
51.0
 40
52.0
 40
52.0
 40
52.0
 40
53.0
 40
53.0
 40
53.0
 40
54.0
 40
54.0
 40
54.0
 40
55.0
 40
55.0
 40
55.0
 40
56.0
 40
56.0
 40
56.0
 40
57.0
 40
57.0
 40
57.0
 40
58.0
 40
58.0
 40
58.0
 40
59.0
 40
59.0
 40
59.0
 40
60.0
 40
60.0
 40
60.0
 40
61.0
 40
61.0
 40
61.0
 40
62.0
 40
62.0
 40
62.0
 40
63.0
 40
63.0
 40
63.0
 40
64.0
 40
64.0
 40
64.0
 40
65.0
 40
65.0
 40
65.0
 40
66.0
 40
66.0
 40
66.0
 40
66.0
 10
109.92886281974
 20
-150.780460574284
 10
109.92886281974
 20
-150.780460574284
 10
109.370412841581
 20
-150.780460574284
 10
109.370412841581
 20
-150.780460574284
 10
109.3597330455767
 20
-150.8249023060438
 10
109.3511203068636
 20
-150.856597184508
 10
109.3387179631167
 20
-150.8948377443943
 10
109.363867160159
 20
-150.8948377443943
 10
109.3786810707456
 20
-150.8969048016855
 10
109.3852267521675
 20
-150.8969048016855
 10
109.3852267521675
 20
-150.8969048016855
 10
109.5733289656622
 20
-150.8969048016855
 10
109.5733289656622
 20
-150.8969048016855
 10
109.5733289656622
 20
-150.8969048016855
 10
109.9478108449089
 20
-150.8969048016855
 10
109.9478108449089
 20
-150.8969048016855
 10
109.998453748542
 20
-150.8969048016855
 10
110.2819851069781
 20
-150.8841579483901
 10
110.3136799854424
 20
-150.8841579483901
 10
110.3116129281512
 20
-150.9117187122721
 10
110.3095458708601
 20
-150.9306667374409
 10
110.3095458708601
 20
-150.9602945586141
 10
110.3074788135689
 20
-150.9919894370784
 10
110.3074788135689
 20
-151.1273816896487
 10
110.3074788135689
 20
-151.1549424535307
 10
110.3074788135689
 20
-151.1549424535307
 10
110.3074788135689
 20
-151.4002332520805
 10
110.3074788135689
 20
-151.4002332520805
 10
110.3074788135689
 20
-151.4446749838402
 10
110.3116129281512
 20
-151.641389936048
 10
110.3160915522821
 20
-151.793663156496
 10
110.3160915522821
 20
-151.793663156496
 10
110.0894042693526
 20
-151.793663156496
 10
110.0894042693526
 20
-151.793663156496
 10
110.0894042693526
 20
-151.793663156496
 10
110.0918158361923
 20
-151.7599012207405
 10
110.0918158361923
 20
-151.7599012207405
 10
110.0918158361923
 20
-151.7599012207405
 10
109.3893608667499
 20
-151.7599012207405
 10
109.3893608667499
 20
-151.7599012207405
 10
109.3893608667499
 20
-151.7599012207405
 10
109.391427924041
 20
-151.793663156496
 10
109.391427924041
 20
-151.793663156496
 10
109.391427924041
 20
-151.793663156496
 10
109.1736978893732
 20
-151.793663156496
 10
109.1736978893732
 20
-151.793663156496
 10
109.1778320039555
 20
-151.7388861382805
 10
109.1778320039555
 20
-151.7261392849851
 10
109.184033175829
 20
-151.6117621148748
 10
109.1861002331201
 20
-151.5842013509928
 10
109.1885117999598
 20
-151.4512206652622
 10
109.1885117999598
 20
-151.4319281305448
 10
109.1885117999598
 20
-151.4319281305448
 10
109.1885117999598
 20
-151.2290120064636
 10
109.1885117999598
 20
-151.2290120064636
 10
109.0486409232586
 20
-151.4784369195957
 10
108.8794867349329
 20
-151.6096950575837
 10
108.7737223035357
 20
-151.6751518718034
 10
108.7737223035357
 20
-151.6751518718034
 10
108.6000894910791
 20
-151.5356255046508
 10
108.6000894910791
 20
-151.5356255046508
 10
108.6889729545986
 20
-151.4849826010176
 10
108.832977945882
 20
-151.3981661947893
 10
108.9704372557435
 20
-151.2035182998727
 10
109.0613877765541
 20
-151.0767387860155
 10
109.1271891003223
 20
-150.9327337947321
 10
109.1609510360778
 20
-150.780460574284
 10
108.9325412054057
 20
-150.7825276315752
 10
108.7527072210757
 20
-150.7890733129972
 10
108.6572780761343
 20
-150.7911403702883
 10
108.6572780761343
 20
-150.7911403702883
 10
108.6572780761343
 20
-150.6133734432494
 10
108.6572780761343
 20
-150.6133734432494
 10
108.853993028342
 20
-150.6195746151229
 10
109.1375243867781
 20
-150.6240532392537
 10
109.287730549935
 20
-150.6240532392537
 10
109.287730549935
 20
-150.6240532392537
 10
109.5013264700205
 20
-150.6240532392537
 10
109.5013264700205
 20
-150.6240532392537
 10
109.5013264700205
 20
-150.6240532392537
 10
109.5013264700205
 20
-150.5158772410169
 10
109.5013264700205
 20
-150.5158772410169
 10
109.5013264700205
 20
-150.5158772410169
 10
109.3555989309944
 20
-150.5158772410169
 10
109.3555989309944
 20
-150.5158772410169
 10
109.1861002331201
 20
-150.5158772410169
 10
109.0169460447944
 20
-150.5203558651477
 10
108.8498589137597
 20
-150.5265570370211
 10
108.8498589137597
 20
-150.5265570370211
 10
108.8498589137597
 20
-150.3553357914042
 10
108.8498589137597
 20
-150.3553357914042
 10
109.0041991914989
 20
-150.36567107786
 10
109.1905788572509
 20
-150.36567107786
 10
109.3555989309944
 20
-150.36567107786
 10
109.3555989309944
 20
-150.36567107786
 10
109.5013264700205
 20
-150.36567107786
 10
109.5013264700205
 20
-150.36567107786
 10
109.5013264700205
 20
-150.36567107786
 10
109.5013264700205
 20
-150.2475043027159
 10
109.5013264700205
 20
-150.2475043027159
 10
109.5013264700205
 20
-150.2475043027159
 10
109.370412841581
 20
-150.2475043027159
 10
109.370412841581
 20
-150.2475043027159
 10
109.3239040525301
 20
-150.2475043027159
 10
109.1206434189004
 20
-150.2557725318805
 10
109.0782687444318
 20
-150.2557725318805
 10
108.8753526203506
 20
-150.2599066464628
 10
108.7992160101266
 20
-150.2619737037539
 10
108.7210123426114
 20
-150.2643852705936
 10
108.7210123426114
 20
-150.2643852705936
 10
108.7210123426114
 20
-150.0800726621328
 10
108.7210123426114
 20
-150.0800726621328
 10
108.8350450031732
 20
-150.0886854008459
 10
108.8794867349329
 20
-150.0886854008459
 10
109.2625813528927
 20
-150.097298139559
 10
109.1988470864155
 20
-150.0018689946176
 10
109.1712863225335
 20
-149.9743082307356
 10
109.1354573294869
 20
-149.938479237689
 10
109.1354573294869
 20
-149.938479237689
 10
109.3111571992347
 20
-149.855796946043
 10
109.3111571992347
 20
-149.855796946043
 10
109.3511203068636
 20
-149.8919704486381
 10
109.3955620386233
 20
-149.9343451231067
 10
109.4696315915562
 20
-150.0442436690861
 10
109.4696315915562
 20
-150.0442436690861
 10
109.3555989309944
 20
-150.0993651968501
 10
109.3555989309944
 20
-150.0993651968501
 10
109.3555989309944
 20
-150.0993651968501
 10
109.3659342174502
 20
-150.0993651968501
 10
109.3659342174502
 20
-150.0993651968501
 10
109.3659342174502
 20
-150.0993651968501
 10
109.8885552025626
 20
-150.0993651968501
 10
109.8885552025626
 20
-150.0993651968501
 10
109.8885552025626
 20
-150.0993651968501
 10
109.7934705671697
 20
-150.0549234650904
 10
109.7934705671697
 20
-150.0549234650904
 10
109.8210313310516
 20
-150.0166829052041
 10
109.8778754065583
 20
-149.9364121803978
 10
109.8926893171449
 20
-149.862342627465
 10
109.8926893171449
 20
-149.862342627465
 10
110.1066297467789
 20
-149.9257323843935
 10
110.1066297467789
 20
-149.9257323843935
 10
110.1148979759435
 20
-149.9277994416847
 10
110.136257567952
 20
-149.938479237689
 10
110.136257567952
 20
-149.959494320149
 10
110.136257567952
 20
-149.9977348800353
 10
110.0704562441837
 20
-149.9977348800353
 10
110.0515082190149
 20
-149.9977348800353
 10
110.0408284230106
 20
-150.0166829052041
 10
110.0177462832594
 20
-150.0569905223816
 10
109.9881184620863
 20
-150.097298139559
 10
110.3877495383753
 20
-150.090752458137
 10
110.4173773595484
 20
-150.0886854008459
 10
110.4935139697724
 20
-150.0824842289724
 10
110.4935139697724
 20
-150.0824842289724
 10
110.4935139697724
 20
-150.2643852705936
 10
110.4935139697724
 20
-150.2643852705936
 10
110.4745659446036
 20
-150.2643852705936
 10
110.4490722380127
 20
-150.2619737037539
 10
110.2292751460538
 20
-150.2537054745893
 10
110.1782877328721
 20
-150.2516384172982
 10
109.9584906409131
 20
-150.2475043027159
 10
109.9140489091534
 20
-150.2475043027159
 10
109.9140489091534
 20
-150.2475043027159
 10
109.6980414222282
 20
-150.2475043027159
 10
109.6980414222282
 20
-150.2475043027159
 10
109.6980414222282
 20
-150.2475043027159
 10
109.6980414222282
 20
-150.36567107786
 10
109.6980414222282
 20
-150.36567107786
 10
109.6980414222282
 20
-150.36567107786
 10
109.8716742346848
 20
-150.36567107786
 10
109.8716742346848
 20
-150.36567107786
 10
110.0346272511371
 20
-150.36567107786
 10
110.2247965219229
 20
-150.36567107786
 10
110.3815483665018
 20
-150.3553357914042
 10
110.3815483665018
 20
-150.3553357914042
 10
110.3815483665018
 20
-150.5265570370211
 10
110.3815483665018
 20
-150.5265570370211
 10
110.1720865609986
 20
-150.5182888078565
 10
109.9753716087908
 20
-150.5158772410169
 10
109.8716742346848
 20
-150.5158772410169
 10
109.8716742346848
 20
-150.5158772410169
 10
109.6980414222282
 20
-150.5158772410169
 10
109.6980414222282
 20
-150.5158772410169
 10
109.6980414222282
 20
-150.5158772410169
 10
109.6980414222282
 20
-150.6240532392537
 10
109.6980414222282
 20
-150.6240532392537
 10
109.6980414222282
 20
-150.6240532392537
 10
109.92886281974
 20
-150.6240532392537
 10
109.92886281974
 20
-150.6240532392537
 10
110.0621880150191
 20
-150.6240532392537
 10
110.3498534880375
 20
-150.6195746151229
 10
110.5593152935407
 20
-150.6133734432494
 10
110.5593152935407
 20
-150.6133734432494
 10
110.5593152935407
 20
-150.7911403702883
 10
110.5593152935407
 20
-150.7911403702883
 10
110.3667344559152
 20
-150.7845946888663
 10
110.053575276306
 20
-150.780460574284
 10
109.92886281974
 20
-150.780460574284
 97
        0
 97
        1
330
95
 75
     2
 76
     1
 98
        1
 10
0.0
 20
0.0
450
        0
451
        0
460
0.0
461
0.0
452
        0
462
0.0
453
        0
470

  0
SPLINE
  5
97
330
8A
100
AcDbEntity
  8
レイヤー 1
100
AcDbSpline
210
0.0
220
0.0
230
1.0
 70
     9
 71
     3
 72
    29
 73
    25
 74
     0
 42
0.0000000001
 43
0.0000000001
 40
0.0
 40
0.0
 40
0.0
 40
0.0
 40
1.0
 40
1.0
 40
1.0
 40
2.0
 40
2.0
 40
2.0
 40
3.0
 40
3.0
 40
3.0
 40
4.0
 40
4.0
 40
4.0
 40
5.0
 40
5.0
 40
5.0
 40
6.0
 40
6.0
 40
6.0
 40
7.0
 40
7.0
 40
7.0
 40
8.0
 40
8.0
 40
8.0
 40
8.0
 10
111.80437280191
 20
-150.2282117679985
 30
0.0
 10
111.80437280191
 20
-150.2282117679985
 30
0.0
 10
111.4509060051234
 20
-150.2282117679985
 30
0.0
 10
111.4509060051234
 20
-150.2282117679985
 30
0.0
 10
111.3389404018527
 20
-150.2282117679985
 30
0.0
 10
111.1994140347001
 20
-150.2347574494204
 30
0.0
 10
111.0912380364633
 20
-150.2475043027159
 30
0.0
 10
111.0912380364633
 20
-150.2475043027159
 30
0.0
 10
111.0912380364633
 20
-150.0125487906219
 30
0.0
 10
111.0912380364633
 20
-150.0125487906219
 30
0.0
 10
111.2097493211559
 20
-150.0273627012084
 30
0.0
 10
111.3937174200682
 20
-150.0314968157907
 30
0.0
 10
111.4509060051234
 20
-150.0314968157907
 30
0.0
 10
111.4509060051234
 20
-150.0314968157907
 30
0.0
 10
111.80437280191
 20
-150.0314968157907
 30
0.0
 10
111.80437280191
 20
-150.0314968157907
 30
0.0
 10
111.8233208270789
 20
-150.0314968157907
 30
0.0
 10
112.0265814607086
 20
-150.0314968157907
 30
0.0
 10
112.1681748851524
 20
-150.0125487906219
 30
0.0
 10
112.1681748851524
 20
-150.0125487906219
 30
0.0
 10
112.1681748851524
 20
-150.2475043027159
 30
0.0
 10
112.1681748851524
 20
-150.2475043027159
 30
0.0
 10
112.011767550122
 20
-150.2282117679985
 30
0.0
 10
111.8212537697877
 20
-150.2282117679985
 30
0.0
 10
111.80437280191
 20
-150.2282117679985
 30
0.0
  0
SPLINE
  5
98
330
8A
100
AcDbEntity
  8
レイヤー 1
100
AcDbSpline
210
0.0
220
0.0
230
1.0
 70
     9
 71
     3
 72
    47
 73
    43
 74
     0
 42
0.0000000001
 43
0.0000000001
 40
0.0
 40
0.0
 40
0.0
 40
0.0
 40
1.0
 40
1.0
 40
1.0
 40
2.0
 40
2.0
 40
2.0
 40
3.0
 40
3.0
 40
3.0
 40
4.0
 40
4.0
 40
4.0
 40
5.0
 40
5.0
 40
5.0
 40
6.0
 40
6.0
 40
6.0
 40
7.0
 40
7.0
 40
7.0
 40
8.0
 40
8.0
 40
8.0
 40
9.0
 40
9.0
 40
9.0
 40
10.0
 40
10.0
 40
10.0
 40
11.0
 40
11.0
 40
11.0
 40
12.0
 40
12.0
 40
12.0
 40
13.0
 40
13.0
 40
13.0
 40
14.0
 40
14.0
 40
14.0
 40
14.0
 10
111.9056586091764
 20
-150.7570339249843
 30
0.0
 10
111.9056586091764
 20
-150.7570339249843
 30
0.0
 10
111.80437280191
 20
-150.7570339249843
 30
0.0
 10
111.80437280191
 20
-150.7570339249843
 30
0.0
 10
111.80437280191
 20
-150.8438503312126
 30
0.0
 10
111.7830132099014
 20
-151.2331461210458
 30
0.0
 10
111.5862982576937
 20
-151.4532877225533
 30
0.0
 10
111.4340250372456
 20
-151.6224419108791
 30
0.0
 10
111.2266302890336
 20
-151.6923773492297
 30
0.0
 10
111.142225449645
 20
-151.7195936035632
 30
0.0
 10
111.142225449645
 20
-151.7195936035632
 30
0.0
 10
110.9475775547284
 20
-151.5525064725285
 30
0.0
 10
110.9475775547284
 20
-151.5525064725285
 30
0.0
 10
111.0447292474124
 20
-151.5397596192331
 30
0.0
 10
111.2204291171602
 20
-151.5166774794819
 30
0.0
 10
111.4085313306548
 20
-151.3282307564388
 30
0.0
 10
111.4826008835877
 20
-151.2565727703456
 30
0.0
 10
111.5862982576937
 20
-151.1167018936444
 30
0.0
 10
111.5862982576937
 20
-150.7570339249843
 30
0.0
 10
111.5862982576937
 20
-150.7570339249843
 30
0.0
 10
111.3558213697305
 20
-150.7570339249843
 30
0.0
 10
111.3558213697305
 20
-150.7570339249843
 30
0.0
 10
111.169786213527
 20
-150.7570339249843
 30
0.0
 10
110.983406547775
 20
-150.7615125491152
 30
0.0
 10
110.7973713915715
 20
-150.7763264597017
 30
0.0
 10
110.7973713915715
 20
-150.7763264597017
 30
0.0
 10
110.7973713915715
 20
-150.5561848581943
 30
0.0
 10
110.7973713915715
 20
-150.5561848581943
 30
0.0
 10
110.9854736050661
 20
-150.5709987687808
 30
0.0
 10
111.2710720207933
 20
-150.5751328833632
 30
0.0
 10
111.3558213697305
 20
-150.5751328833632
 30
0.0
 10
111.3558213697305
 20
-150.5751328833632
 30
0.0
 10
111.9056586091764
 20
-150.5751328833632
 30
0.0
 10
111.9056586091764
 20
-150.5751328833632
 30
0.0
 10
111.9249511438937
 20
-150.5751328833632
 30
0.0
 10
112.2422444380853
 20
-150.5751328833632
 30
0.0
 10
112.4706542687573
 20
-150.5561848581943
 30
0.0
 10
112.4706542687573
 20
-150.5561848581943
 30
0.0
 10
112.4706542687573
 20
-150.7763264597017
 30
0.0
 10
112.4706542687573
 20
-150.7763264597017
 30
0.0
 10
112.2825520552627
 20
-150.7615125491152
 30
0.0
 10
112.0941053322195
 20
-150.7570339249843
 30
0.0
 10
111.9056586091764
 20
-150.7570339249843
 30
0.0
  0
HATCH
  5
99
330
8A
100
AcDbEntity
  8
レイヤー 1
 62
    18
420
        0
440
 33554687
100
AcDbHatch
 10
0.0
 20
0.0
 30
0.0
210
0.0
220
0.0
230
1.0
  2
SOLID
 70
     1
 71
     1
 91
        2
 92
        1
 93
        1
 72
     4
 94
        3
 73
     0
 74
     0
 95
       29
 96
       25
 40
0.0
 40
0.0
 40
0.0
 40
0.0
 40
1.0
 40
1.0
 40
1.0
 40
2.0
 40
2.0
 40
2.0
 40
3.0
 40
3.0
 40
3.0
 40
4.0
 40
4.0
 40
4.0
 40
5.0
 40
5.0
 40
5.0
 40
6.0
 40
6.0
 40
6.0
 40
7.0
 40
7.0
 40
7.0
 40
8.0
 40
8.0
 40
8.0
 40
8.0
 10
111.80437280191
 20
-150.2282117679985
 10
111.80437280191
 20
-150.2282117679985
 10
111.4509060051234
 20
-150.2282117679985
 10
111.4509060051234
 20
-150.2282117679985
 10
111.3389404018527
 20
-150.2282117679985
 10
111.1994140347001
 20
-150.2347574494204
 10
111.0912380364633
 20
-150.2475043027159
 10
111.0912380364633
 20
-150.2475043027159
 10
111.0912380364633
 20
-150.0125487906219
 10
111.0912380364633
 20
-150.0125487906219
 10
111.2097493211559
 20
-150.0273627012084
 10
111.3937174200682
 20
-150.0314968157907
 10
111.4509060051234
 20
-150.0314968157907
 10
111.4509060051234
 20
-150.0314968157907
 10
111.80437280191
 20
-150.0314968157907
 10
111.80437280191
 20
-150.0314968157907
 10
111.8233208270789
 20
-150.0314968157907
 10
112.0265814607086
 20
-150.0314968157907
 10
112.1681748851524
 20
-150.0125487906219
 10
112.1681748851524
 20
-150.0125487906219
 10
112.1681748851524
 20
-150.2475043027159
 10
112.1681748851524
 20
-150.2475043027159
 10
112.011767550122
 20
-150.2282117679985
 10
111.8212537697877
 20
-150.2282117679985
 10
111.80437280191
 20
-150.2282117679985
 97
        0
 97
        1
330
97
 92
        1
 93
        1
 72
     4
 94
        3
 73
     0
 74
     0
 95
       47
 96
       43
 40
0.0
 40
0.0
 40
0.0
 40
0.0
 40
1.0
 40
1.0
 40
1.0
 40
2.0
 40
2.0
 40
2.0
 40
3.0
 40
3.0
 40
3.0
 40
4.0
 40
4.0
 40
4.0
 40
5.0
 40
5.0
 40
5.0
 40
6.0
 40
6.0
 40
6.0
 40
7.0
 40
7.0
 40
7.0
 40
8.0
 40
8.0
 40
8.0
 40
9.0
 40
9.0
 40
9.0
 40
10.0
 40
10.0
 40
10.0
 40
11.0
 40
11.0
 40
11.0
 40
12.0
 40
12.0
 40
12.0
 40
13.0
 40
13.0
 40
13.0
 40
14.0
 40
14.0
 40
14.0
 40
14.0
 10
111.9056586091764
 20
-150.7570339249843
 10
111.9056586091764
 20
-150.7570339249843
 10
111.80437280191
 20
-150.7570339249843
 10
111.80437280191
 20
-150.7570339249843
 10
111.80437280191
 20
-150.8438503312126
 10
111.7830132099014
 20
-151.2331461210458
 10
111.5862982576937
 20
-151.4532877225533
 10
111.4340250372456
 20
-151.6224419108791
 10
111.2266302890336
 20
-151.6923773492297
 10
111.142225449645
 20
-151.7195936035632
 10
111.142225449645
 20
-151.7195936035632
 10
110.9475775547284
 20
-151.5525064725285
 10
110.9475775547284
 20
-151.5525064725285
 10
111.0447292474124
 20
-151.5397596192331
 10
111.2204291171602
 20
-151.5166774794819
 10
111.4085313306548
 20
-151.3282307564388
 10
111.4826008835877
 20
-151.2565727703456
 10
111.5862982576937
 20
-151.1167018936444
 10
111.5862982576937
 20
-150.7570339249843
 10
111.5862982576937
 20
-150.7570339249843
 10
111.3558213697305
 20
-150.7570339249843
 10
111.3558213697305
 20
-150.7570339249843
 10
111.169786213527
 20
-150.7570339249843
 10
110.983406547775
 20
-150.7615125491152
 10
110.7973713915715
 20
-150.7763264597017
 10
110.7973713915715
 20
-150.7763264597017
 10
110.7973713915715
 20
-150.5561848581943
 10
110.7973713915715
 20
-150.5561848581943
 10
110.9854736050661
 20
-150.5709987687808
 10
111.2710720207933
 20
-150.5751328833632
 10
111.3558213697305
 20
-150.5751328833632
 10
111.3558213697305
 20
-150.5751328833632
 10
111.9056586091764
 20
-150.5751328833632
 10
111.9056586091764
 20
-150.5751328833632
 10
111.9249511438937
 20
-150.5751328833632
 10
112.2422444380853
 20
-150.5751328833632
 10
112.4706542687573
 20
-150.5561848581943
 10
112.4706542687573
 20
-150.5561848581943
 10
112.4706542687573
 20
-150.7763264597017
 10
112.4706542687573
 20
-150.7763264597017
 10
112.2825520552627
 20
-150.7615125491152
 10
112.0941053322195
 20
-150.7570339249843
 10
111.9056586091764
 20
-150.7570339249843
 97
        0
 97
        1
330
98
 75
     2
 76
     1
 98
        1
 10
0.0
 20
0.0
450
        0
451
        0
460
0.0
461
0.0
452
        0
462
0.0
453
        0
470

  0
SPLINE
  5
9A
330
8A
100
AcDbEntity
  8
レイヤー 1
100
AcDbSpline
210
0.0
220
0.0
230
1.0
 70
     9
 71
     3
 72
    29
 73
    25
 74
     0
 42
0.0000000001
 43
0.0000000001
 40
0.0
 40
0.0
 40
0.0
 40
0.0
 40
1.0
 40
1.0
 40
1.0
 40
2.0
 40
2.0
 40
2.0
 40
3.0
 40
3.0
 40
3.0
 40
4.0
 40
4.0
 40
4.0
 40
5.0
 40
5.0
 40
5.0
 40
6.0
 40
6.0
 40
6.0
 40
7.0
 40
7.0
 40
7.0
 40
8.0
 40
8.0
 40
8.0
 40
8.0
 10
113.7515407701732
 20
-150.9199869414367
 30
0.0
 10
113.7515407701732
 20
-150.9199869414367
 30
0.0
 10
113.2671603449471
 20
-150.9199869414367
 30
0.0
 10
113.2671603449471
 20
-150.9199869414367
 30
0.0
 10
113.2395995810651
 20
-150.9199869414367
 30
0.0
 10
112.9223062868736
 20
-150.9199869414367
 30
0.0
 10
112.7107774240792
 20
-150.9454806480275
 30
0.0
 10
112.7107774240792
 20
-150.9454806480275
 30
0.0
 10
112.7107774240792
 20
-150.7150037600643
 30
0.0
 10
112.7107774240792
 20
-150.7150037600643
 30
0.0
 10
112.8695963259493
 20
-150.7380858998154
 30
0.0
 10
113.059765596735
 20
-150.7401529571066
 30
0.0
 10
113.2671603449471
 20
-150.7401529571066
 30
0.0
 10
113.2671603449471
 20
-150.7401529571066
 30
0.0
 10
113.7515407701732
 20
-150.7401529571066
 30
0.0
 10
113.7515407701732
 20
-150.7401529571066
 30
0.0
 10
113.9379204359252
 20
-150.7401529571066
 30
0.0
 10
114.1239555921287
 20
-150.7380858998154
 30
0.0
 10
114.3079236910411
 20
-150.7150037600643
 30
0.0
 10
114.3079236910411
 20
-150.7150037600643
 30
0.0
 10
114.3079236910411
 20
-150.9454806480275
 30
0.0
 10
114.3079236910411
 20
-150.9454806480275
 30
0.0
 10
114.1239555921287
 20
-150.9220539987278
 30
0.0
 10
113.8765977362878
 20
-150.9199869414367
 30
0.0
 10
113.7515407701732
 20
-150.9199869414367
 30
0.0
  0
HATCH
  5
9B
330
8A
100
AcDbEntity
  8
レイヤー 1
 62
    18
420
        0
440
 33554687
100
AcDbHatch
 10
0.0
 20
0.0
 30
0.0
210
0.0
220
0.0
230
1.0
  2
SOLID
 70
     1
 71
     1
 91
        1
 92
        1
 93
        1
 72
     4
 94
        3
 73
     0
 74
     0
 95
       29
 96
       25
 40
0.0
 40
0.0
 40
0.0
 40
0.0
 40
1.0
 40
1.0
 40
1.0
 40
2.0
 40
2.0
 40
2.0
 40
3.0
 40
3.0
 40
3.0
 40
4.0
 40
4.0
 40
4.0
 40
5.0
 40
5.0
 40
5.0
 40
6.0
 40
6.0
 40
6.0
 40
7.0
 40
7.0
 40
7.0
 40
8.0
 40
8.0
 40
8.0
 40
8.0
 10
113.7515407701732
 20
-150.9199869414367
 10
113.7515407701732
 20
-150.9199869414367
 10
113.2671603449471
 20
-150.9199869414367
 10
113.2671603449471
 20
-150.9199869414367
 10
113.2395995810651
 20
-150.9199869414367
 10
112.9223062868736
 20
-150.9199869414367
 10
112.7107774240792
 20
-150.9454806480275
 10
112.7107774240792
 20
-150.9454806480275
 10
112.7107774240792
 20
-150.7150037600643
 10
112.7107774240792
 20
-150.7150037600643
 10
112.8695963259493
 20
-150.7380858998154
 10
113.059765596735
 20
-150.7401529571066
 10
113.2671603449471
 20
-150.7401529571066
 10
113.2671603449471
 20
-150.7401529571066
 10
113.7515407701732
 20
-150.7401529571066
 10
113.7515407701732
 20
-150.7401529571066
 10
113.9379204359252
 20
-150.7401529571066
 10
114.1239555921287
 20
-150.7380858998154
 10
114.3079236910411
 20
-150.7150037600643
 10
114.3079236910411
 20
-150.7150037600643
 10
114.3079236910411
 20
-150.9454806480275
 10
114.3079236910411
 20
-150.9454806480275
 10
114.1239555921287
 20
-150.9220539987278
 10
113.8765977362878
 20
-150.9199869414367
 10
113.7515407701732
 20
-150.9199869414367
 97
        0
 97
        1
330
9A
 75
     2
 76
     1
 98
        1
 10
0.0
 20
0.0
450
        0
451
        0
460
0.0
461
0.0
452
        0
462
0.0
453
        0
470

  0
SPLINE
  5
9C
330
8A
100
AcDbEntity
  8
レイヤー 1
100
AcDbSpline
210
0.0
220
0.0
230
1.0
 70
     9
 71
     3
 72
    47
 73
    43
 74
     0
 42
0.0000000001
 43
0.0000000001
 40
0.0
 40
0.0
 40
0.0
 40
0.0
 40
1.0
 40
1.0
 40
1.0
 40
2.0
 40
2.0
 40
2.0
 40
3.0
 40
3.0
 40
3.0
 40
4.0
 40
4.0
 40
4.0
 40
5.0
 40
5.0
 40
5.0
 40
6.0
 40
6.0
 40
6.0
 40
7.0
 40
7.0
 40
7.0
 40
8.0
 40
8.0
 40
8.0
 40
9.0
 40
9.0
 40
9.0
 40
10.0
 40
10.0
 40
10.0
 40
11.0
 40
11.0
 40
11.0
 40
12.0
 40
12.0
 40
12.0
 40
13.0
 40
13.0
 40
13.0
 40
14.0
 40
14.0
 40
14.0
 40
14.0
 10
115.9719048104167
 20
-150.3257079702311
 30
0.0
 10
115.9019693720662
 20
-150.6047607045363
 30
0.0
 10
115.8258327618421
 20
-150.9096516549809
 30
0.0
 10
115.5126735822329
 20
-151.241758859759
 30
0.0
 10
115.2756510128477
 20
-151.4911837728911
 30
0.0
 10
115.0303602142979
 20
-151.5907470324148
 30
0.0
 10
114.9245957829008
 20
-151.6331217068834
 30
0.0
 10
114.9245957829008
 20
-151.6331217068834
 30
0.0
 10
114.7299478879842
 20
-151.4512206652622
 30
0.0
 10
114.7299478879842
 20
-151.4512206652622
 30
0.0
 10
114.9159830441876
 20
-151.4043673666628
 30
0.0
 10
115.2780625796874
 20
-151.311349788561
 30
0.0
 10
115.5739962818704
 20
-150.8162895673306
 30
0.0
 10
115.7348822410315
 20
-150.5499836863208
 30
0.0
 10
115.747629094327
 20
-150.3763508738642
 30
0.0
 10
115.7558973234916
 20
-150.2854003530536
 30
0.0
 10
115.7558973234916
 20
-150.2854003530536
 30
0.0
 10
115.2505018158054
 20
-150.2854003530536
 30
0.0
 10
115.2505018158054
 20
-150.2854003530536
 30
0.0
 10
115.1319905311128
 20
-150.2854003530536
 30
0.0
 10
114.7109998628153
 20
-150.3043483782225
 30
0.0
 10
114.5587266423672
 20
-150.3150281742268
 30
0.0
 10
114.5587266423672
 20
-150.3150281742268
 30
0.0
 10
114.5587266423672
 20
-150.1055663687236
 30
0.0
 10
114.5587266423672
 20
-150.1055663687236
 30
0.0
 10
114.700320066811
 20
-150.118313222019
 30
0.0
 10
114.9776502533736
 20
-150.1224473366013
 30
0.0
 10
115.0937499712265
 20
-150.1224473366013
 30
0.0
 10
115.0937499712265
 20
-150.1224473366013
 30
0.0
 10
115.4492838253043
 20
-150.1224473366013
 30
0.0
 10
115.4492838253043
 20
-150.1224473366013
 30
0.0
 10
115.4768445891863
 20
-150.1224473366013
 30
0.0
 10
115.637386038799
 20
-150.1203802793102
 30
0.0
 10
115.747629094327
 20
-150.1055663687236
 30
0.0
 10
115.8048176793821
 20
-150.0993651968501
 30
0.0
 10
115.8216986472598
 20
-150.0800726621328
 30
0.0
 10
115.844780787011
 20
-150.0569905223816
 30
0.0
 10
115.844780787011
 20
-150.0569905223816
 30
0.0
 10
116.0332275100542
 20
-150.2071966855385
 30
0.0
 10
116.0332275100542
 20
-150.2071966855385
 30
0.0
 10
116.0184135994676
 20
-150.2368245067116
 30
0.0
 10
116.0077338034633
 20
-150.2557725318805
 30
0.0
 10
115.9719048104167
 20
-150.3257079702311
 30
0.0
  0
HATCH
  5
9D
330
8A
100
AcDbEntity
  8
レイヤー 1
 62
    18
420
        0
440
 33554687
100
AcDbHatch
 10
0.0
 20
0.0
 30
0.0
210
0.0
220
0.0
230
1.0
  2
SOLID
 70
     1
 71
     1
 91
        1
 92
        1
 93
        1
 72
     4
 94
        3
 73
     0
 74
     0
 95
       47
 96
       43
 40
0.0
 40
0.0
 40
0.0
 40
0.0
 40
1.0
 40
1.0
 40
1.0
 40
2.0
 40
2.0
 40
2.0
 40
3.0
 40
3.0
 40
3.0
 40
4.0
 40
4.0
 40
4.0
 40
5.0
 40
5.0
 40
5.0
 40
6.0
 40
6.0
 40
6.0
 40
7.0
 40
7.0
 40
7.0
 40
8.0
 40
8.0
 40
8.0
 40
9.0
 40
9.0
 40
9.0
 40
10.0
 40
10.0
 40
10.0
 40
11.0
 40
11.0
 40
11.0
 40
12.0
 40
12.0
 40
12.0
 40
13.0
 40
13.0
 40
13.0
 40
14.0
 40
14.0
 40
14.0
 40
14.0
 10
115.9719048104167
 20
-150.3257079702311
 10
115.9019693720662
 20
-150.6047607045363
 10
115.8258327618421
 20
-150.9096516549809
 10
115.5126735822329
 20
-151.241758859759
 10
115.2756510128477
 20
-151.4911837728911
 10
115.0303602142979
 20
-151.5907470324148
 10
114.9245957829008
 20
-151.6331217068834
 10
114.9245957829008
 20
-151.6331217068834
 10
114.7299478879842
 20
-151.4512206652622
 10
114.7299478879842
 20
-151.4512206652622
 10
114.9159830441876
 20
-151.4043673666628
 10
115.2780625796874
 20
-151.311349788561
 10
115.5739962818704
 20
-150.8162895673306
 10
115.7348822410315
 20
-150.5499836863208
 10
115.747629094327
 20
-150.3763508738642
 10
115.7558973234916
 20
-150.2854003530536
 10
115.7558973234916
 20
-150.2854003530536
 10
115.2505018158054
 20
-150.2854003530536
 10
115.2505018158054
 20
-150.2854003530536
 10
115.1319905311128
 20
-150.2854003530536
 10
114.7109998628153
 20
-150.3043483782225
 10
114.5587266423672
 20
-150.3150281742268
 10
114.5587266423672
 20
-150.3150281742268
 10
114.5587266423672
 20
-150.1055663687236
 10
114.5587266423672
 20
-150.1055663687236
 10
114.700320066811
 20
-150.118313222019
 10
114.9776502533736
 20
-150.1224473366013
 10
115.0937499712265
 20
-150.1224473366013
 10
115.0937499712265
 20
-150.1224473366013
 10
115.4492838253043
 20
-150.1224473366013
 10
115.4492838253043
 20
-150.1224473366013
 10
115.4768445891863
 20
-150.1224473366013
 10
115.637386038799
 20
-150.1203802793102
 10
115.747629094327
 20
-150.1055663687236
 10
115.8048176793821
 20
-150.0993651968501
 10
115.8216986472598
 20
-150.0800726621328
 10
115.844780787011
 20
-150.0569905223816
 10
115.844780787011
 20
-150.0569905223816
 10
116.0332275100542
 20
-150.2071966855385
 10
116.0332275100542
 20
-150.2071966855385
 10
116.0184135994676
 20
-150.2368245067116
 10
116.0077338034633
 20
-150.2557725318805
 10
115.9719048104167
 20
-150.3257079702311
 97
        0
 97
        1
330
9C
 75
     2
 76
     1
 98
        1
 10
0.0
 20
0.0
450
        0
451
        0
460
0.0
461
0.0
452
        0
462
0.0
453
        0
470

  0
SPLINE
  5
9E
330
8A
100
AcDbEntity
  8
レイヤー 1
100
AcDbSpline
210
0.0
220
0.0
230
1.0
 70
    11
 71
     3
 72
    17
 73
    13
 74
     0
 42
0.0000000001
 43
0.0000000001
 40
0.0
 40
0.0
 40
0.0
 40
0.0
 40
1.0
 40
1.0
 40
1.0
 40
2.0
 40
2.0
 40
2.0
 40
3.0
 40
3.0
 40
3.0
 40
4.0
 40
4.0
 40
4.0
 40
4.0
 10
116.3622341288955
 20
-150.1076334260147
 30
0.0
 10
116.3622341288955
 20
-150.166889068361
 30
0.0
 10
116.4087429179464
 20
-150.2133978574119
 30
0.0
 10
116.4679985602927
 20
-150.2133978574119
 30
0.0
 10
116.527254202639
 20
-150.2133978574119
 30
0.0
 10
116.575830048981
 20
-150.166889068361
 30
0.0
 10
116.575830048981
 20
-150.1076334260147
 30
0.0
 10
116.575830048981
 20
-150.0483777836684
 30
0.0
 10
116.527254202639
 20
-149.9998019373264
 30
0.0
 10
116.4679985602927
 20
-149.9998019373264
 30
0.0
 10
116.4087429179464
 20
-149.9998019373264
 30
0.0
 10
116.3622341288955
 20
-150.0483777836684
 30
0.0
 10
116.3622341288955
 20
-150.1076334260147
 30
0.0
  0
SPLINE
  5
9F
330
8A
100
AcDbEntity
  8
レイヤー 1
100
AcDbSpline
210
0.0
220
0.0
230
1.0
 70
     9
 71
     3
 72
    17
 73
    13
 74
     0
 42
0.0000000001
 43
0.0000000001
 40
0.0
 40
0.0
 40
0.0
 40
0.0
 40
1.0
 40
1.0
 40
1.0
 40
2.0
 40
2.0
 40
2.0
 40
3.0
 40
3.0
 40
3.0
 40
4.0
 40
4.0
 40
4.0
 40
4.0
 10
116.6771158562474
 20
-150.1076334260147
 30
0.0
 10
116.6771158562474
 20
-150.222010596125
 30
0.0
 10
116.5840982781456
 20
-150.3170952315179
 30
0.0
 10
116.4679985602927
 20
-150.3170952315179
 30
0.0
 10
116.3536213901824
 20
-150.3170952315179
 30
0.0
 10
116.2585367547895
 20
-150.222010596125
 30
0.0
 10
116.2585367547895
 20
-150.1076334260147
 30
0.0
 10
116.2585367547895
 20
-149.9911891986133
 30
0.0
 10
116.3536213901824
 20
-149.8981716205115
 30
0.0
 10
116.4679985602927
 20
-149.8981716205115
 30
0.0
 10
116.5820312208545
 20
-149.8981716205115
 30
0.0
 10
116.6771158562474
 20
-149.9911891986133
 30
0.0
 10
116.6771158562474
 20
-150.1076334260147
 30
0.0
  0
HATCH
  5
A0
330
8A
100
AcDbEntity
  8
レイヤー 1
 62
    18
420
        0
440
 33554687
100
AcDbHatch
 10
0.0
 20
0.0
 30
0.0
210
0.0
220
0.0
230
1.0
  2
SOLID
 70
     1
 71
     1
 91
        2
 92
        1
 93
        1
 72
     4
 94
        3
 73
     0
 74
     0
 95
       17
 96
       13
 40
0.0
 40
0.0
 40
0.0
 40
0.0
 40
1.0
 40
1.0
 40
1.0
 40
2.0
 40
2.0
 40
2.0
 40
3.0
 40
3.0
 40
3.0
 40
4.0
 40
4.0
 40
4.0
 40
4.0
 10
116.3622341288955
 20
-150.1076334260147
 10
116.3622341288955
 20
-150.166889068361
 10
116.4087429179464
 20
-150.2133978574119
 10
116.4679985602927
 20
-150.2133978574119
 10
116.527254202639
 20
-150.2133978574119
 10
116.575830048981
 20
-150.166889068361
 10
116.575830048981
 20
-150.1076334260147
 10
116.575830048981
 20
-150.0483777836684
 10
116.527254202639
 20
-149.9998019373264
 10
116.4679985602927
 20
-149.9998019373264
 10
116.4087429179464
 20
-149.9998019373264
 10
116.3622341288955
 20
-150.0483777836684
 10
116.3622341288955
 20
-150.1076334260147
 97
        0
 97
        1
330
9E
 92
        1
 93
        1
 72
     4
 94
        3
 73
     0
 74
     0
 95
       17
 96
       13
 40
0.0
 40
0.0
 40
0.0
 40
0.0
 40
1.0
 40
1.0
 40
1.0
 40
2.0
 40
2.0
 40
2.0
 40
3.0
 40
3.0
 40
3.0
 40
4.0
 40
4.0
 40
4.0
 40
4.0
 10
116.6771158562474
 20
-150.1076334260147
 10
116.6771158562474
 20
-150.222010596125
 10
116.5840982781456
 20
-150.3170952315179
 10
116.4679985602927
 20
-150.3170952315179
 10
116.3536213901824
 20
-150.3170952315179
 10
116.2585367547895
 20
-150.222010596125
 10
116.2585367547895
 20
-150.1076334260147
 10
116.2585367547895
 20
-149.9911891986133
 10
116.3536213901824
 20
-149.8981716205115
 10
116.4679985602927
 20
-149.8981716205115
 10
116.5820312208545
 20
-149.8981716205115
 10
116.6771158562474
 20
-149.9911891986133
 10
116.6771158562474
 20
-150.1076334260147
 97
        0
 97
        1
330
9F
 75
     2
 76
     1
 98
        1
 10
0.0
 20
0.0
450
        0
451
        0
460
0.0
461
0.0
452
        0
462
0.0
453
        0
470

  0
ENDBLK
  5
8D
330
8A
100
AcDbEntity
  8
0
100
AcDbBlockEnd
  0
BLOCK
  5
A3
330
A1
100
AcDbEntity
  8
0
100
AcDbBlockBegin
  2
Block_4
 70
     0
 10
0.0
 20
0.0
 30
0.0
  3
Block_4
  1

  0
LINE
  5
A5
330
A1
100
AcDbEntity
  8
レイヤー 1
 62
    18
420
        0
370
    25
100
AcDbLine
 10
89.8859264225385
 20
-142.0882630061796
 30
0.0
 11
100.9861466975411
 21
-142.0882630061796
 31
0.0
  0
LINE
  5
A6
330
A1
100
AcDbEntity
  8
レイヤー 1
 62
    18
420
        0
370
    25
100
AcDbLine
 10
99.88615036455815
 20
-143.1882946447821
 30
0.0
 11
99.88615036455815
 21
-155.688128214774
 31
0.0
  0
LINE
  5
A7
330
A1
100
AcDbEntity
  8
レイヤー 1
 62
    18
420
        0
370
    25
100
AcDbLine
 10
89.8859264225385
 20
-142.0882630061796
 30
0.0
 11
89.8859264225385
 21
-143.1882946447821
 31
0.0
  0
LINE
  5
A8
330
A1
100
AcDbEntity
  8
レイヤー 1
 62
    18
420
        0
370
    25
100
AcDbLine
 10
100.9861467531722
 20
-142.0882630061796
 30
0.0
 11
100.9861467531722
 21
-154.5884445225586
 31
0.0
  0
LINE
  5
A9
330
A1
100
AcDbEntity
  8
レイヤー 1
 62
    18
420
        0
370
    25
100
AcDbLine
 10
116.8862986377488
 20
-154.5884445225586
 30
0.0
 11
116.8862986377488
 21
-154.9884287881803
 31
0.0
  0
LINE
  5
AA
330
A1
100
AcDbEntity
  8
レイヤー 1
 62
    18
420
        0
370
    25
100
AcDbLine
 10
100.9861467531722
 20
-154.5884445225586
 30
0.0
 11
116.8862986377488
 21
-154.5884445225586
 31
0.0
  0
LINE
  5
AB
330
A1
100
AcDbEntity
  8
レイヤー 1
 62
    18
420
        0
370
    25
100
AcDbLine
 10
116.8862986377488
 20
-154.9884287881803
 30
0.0
 11
99.88615036455815
 21
-155.688128214774
 31
0.0
  0
LINE
  5
AC
330
A1
100
AcDbEntity
  8
レイヤー 1
 62
    18
420
        0
370
    25
100
AcDbLine
 10
89.8859264225385
 20
-143.1882946447821
 30
0.0
 11
99.88615030892702
 21
-143.1882946447821
 31
0.0
  0
ENDBLK
  5
A4
330
A1
100
AcDbEntity
  8
0
100
AcDbBlockEnd
  0
BLOCK
  5
B9
330
B7
100
AcDbEntity
  8
0
100
AcDbBlockBegin
  2
Block_5
 70
     0
 10
0.0
 20
0.0
 30
0.0
  3
Block_5
  1

  0
INSERT
  5
BC
330
B7
100
AcDbEntity
  8
レイヤー 1
100
AcDbBlockReference
  2
Block_6
 10
0.0
 20
0.0
 30
0.0
  0
ENDBLK
  5
BA
330
B7
100
AcDbEntity
  8
0
100
AcDbBlockEnd
  0
BLOCK
  5
BD
330
BB
100
AcDbEntity
  8
0
100
AcDbBlockBegin
  2
Block_6
 70
     0
 10
0.0
 20
0.0
 30
0.0
  3
Block_6
  1

  0
SPLINE
  5
BF
330
BB
100
AcDbEntity
  8
レイヤー 1
100
AcDbSpline
210
0.0
220
0.0
230
1.0
 70
    11
 71
     3
 72
    26
 73
    22
 74
     0
 42
0.0000000001
 43
0.0000000001
 40
0.0
 40
0.0
 40
0.0
 40
0.0
 40
1.0
 40
1.0
 40
1.0
 40
2.0
 40
2.0
 40
2.0
 40
3.0
 40
3.0
 40
3.0
 40
4.0
 40
4.0
 40
4.0
 40
5.0
 40
5.0
 40
5.0
 40
6.0
 40
6.0
 40
6.0
 40
7.0
 40
7.0
 40
7.0
 40
7.0
 10
107.7484618871254
 20
-159.0417995479131
 30
0.0
 10
107.7484618871254
 20
-159.0417995479131
 30
0.0
 10
107.7484618871254
 20
-157.9376464448906
 30
0.0
 10
107.7484618871254
 20
-157.9376464448906
 30
0.0
 10
107.7484618871254
 20
-157.9376464448906
 30
0.0
 10
107.4184217396384
 20
-157.9376464448906
 30
0.0
 10
107.4184217396384
 20
-157.9376464448906
 30
0.0
 10
107.4184217396384
 20
-157.9376464448906
 30
0.0
 10
107.4184217396384
 20
-157.7895073390248
 30
0.0
 10
107.4184217396384
 20
-157.7895073390248
 30
0.0
 10
107.7505289444165
 20
-157.7746934284382
 30
0.0
 10
107.7970377334674
 20
-157.6117404119859
 30
0.0
 10
107.8266655546405
 20
-157.4973632418756
 30
0.0
 10
107.8266655546405
 20
-157.4973632418756
 30
0.0
 10
107.9727376032151
 20
-157.4973632418756
 30
0.0
 10
107.9727376032151
 20
-157.4973632418756
 30
0.0
 10
107.9727376032151
 20
-157.4973632418756
 30
0.0
 10
107.9727376032151
 20
-159.0417995479131
 30
0.0
 10
107.9727376032151
 20
-159.0417995479131
 30
0.0
 10
107.9727376032151
 20
-159.0417995479131
 30
0.0
 10
107.7484618871254
 20
-159.0417995479131
 30
0.0
 10
107.7484618871254
 20
-159.0417995479131
 30
0.0
  0
HATCH
  5
C0
330
BB
100
AcDbEntity
  8
レイヤー 1
 62
    18
420
        0
440
 33554687
100
AcDbHatch
 10
0.0
 20
0.0
 30
0.0
210
0.0
220
0.0
230
1.0
  2
SOLID
 70
     1
 71
     1
 91
        1
 92
        1
 93
        1
 72
     4
 94
        3
 73
     0
 74
     0
 95
       26
 96
       22
 40
0.0
 40
0.0
 40
0.0
 40
0.0
 40
1.0
 40
1.0
 40
1.0
 40
2.0
 40
2.0
 40
2.0
 40
3.0
 40
3.0
 40
3.0
 40
4.0
 40
4.0
 40
4.0
 40
5.0
 40
5.0
 40
5.0
 40
6.0
 40
6.0
 40
6.0
 40
7.0
 40
7.0
 40
7.0
 40
7.0
 10
107.7484618871254
 20
-159.0417995479131
 10
107.7484618871254
 20
-159.0417995479131
 10
107.7484618871254
 20
-157.9376464448906
 10
107.7484618871254
 20
-157.9376464448906
 10
107.7484618871254
 20
-157.9376464448906
 10
107.4184217396384
 20
-157.9376464448906
 10
107.4184217396384
 20
-157.9376464448906
 10
107.4184217396384
 20
-157.9376464448906
 10
107.4184217396384
 20
-157.7895073390248
 10
107.4184217396384
 20
-157.7895073390248
 10
107.7505289444165
 20
-157.7746934284382
 10
107.7970377334674
 20
-157.6117404119859
 10
107.8266655546405
 20
-157.4973632418756
 10
107.8266655546405
 20
-157.4973632418756
 10
107.9727376032151
 20
-157.4973632418756
 10
107.9727376032151
 20
-157.4973632418756
 10
107.9727376032151
 20
-157.4973632418756
 10
107.9727376032151
 20
-159.0417995479131
 10
107.9727376032151
 20
-159.0417995479131
 10
107.9727376032151
 20
-159.0417995479131
 10
107.7484618871254
 20
-159.0417995479131
 10
107.7484618871254
 20
-159.0417995479131
 97
        0
 97
        1
330
BF
 75
     2
 76
     1
 98
        1
 10
0.0
 20
0.0
450
        0
451
        0
460
0.0
461
0.0
452
        0
462
0.0
453
        0
470

  0
SPLINE
  5
C1
330
BB
100
AcDbEntity
  8
レイヤー 1
100
AcDbSpline
210
0.0
220
0.0
230
1.0
 70
     9
 71
     3
 72
    26
 73
    22
 74
     0
 42
0.0000000001
 43
0.0000000001
 40
0.0
 40
0.0
 40
0.0
 40
0.0
 40
1.0
 40
1.0
 40
1.0
 40
2.0
 40
2.0
 40
2.0
 40
3.0
 40
3.0
 40
3.0
 40
4.0
 40
4.0
 40
4.0
 40
5.0
 40
5.0
 40
5.0
 40
6.0
 40
6.0
 40
6.0
 40
7.0
 40
7.0
 40
7.0
 40
7.0
 10
108.8849988877093
 20
-159.0417995479131
 30
0.0
 10
108.8849988877093
 20
-159.0417995479131
 30
0.0
 10
108.6479763183241
 20
-159.0417995479131
 30
0.0
 10
108.6479763183241
 20
-159.0417995479131
 30
0.0
 10
108.673470024915
 20
-158.7327744828862
 30
0.0
 10
108.8660508625404
 20
-158.2146321219047
 30
0.0
 10
109.2722276202514
 20
-157.70889210467
 30
0.0
 10
109.2722276202514
 20
-157.70889210467
 30
0.0
 10
108.4343803982386
 20
-157.70889210467
 30
0.0
 10
108.4343803982386
 20
-157.70889210467
 30
0.0
 10
108.4343803982386
 20
-157.70889210467
 30
0.0
 10
108.4343803982386
 20
-157.4973632418756
 30
0.0
 10
108.4343803982386
 20
-157.4973632418756
 30
0.0
 10
108.4343803982386
 20
-157.4973632418756
 30
0.0
 10
109.5092501896365
 20
-157.4973632418756
 30
0.0
 10
109.5092501896365
 20
-157.4973632418756
 30
0.0
 10
109.5092501896365
 20
-157.4973632418756
 30
0.0
 10
109.5092501896365
 20
-157.70889210467
 30
0.0
 10
109.5092501896365
 20
-157.70889210467
 30
0.0
 10
109.1854112140231
 20
-157.998969144528
 30
0.0
 10
108.9187608234647
 20
-158.5911810584425
 30
0.0
 10
108.8849988877093
 20
-159.0417995479131
 30
0.0
  0
HATCH
  5
C2
330
BB
100
AcDbEntity
  8
レイヤー 1
 62
    18
420
        0
440
 33554687
100
AcDbHatch
 10
0.0
 20
0.0
 30
0.0
210
0.0
220
0.0
230
1.0
  2
SOLID
 70
     1
 71
     1
 91
        1
 92
        1
 93
        1
 72
     4
 94
        3
 73
     0
 74
     0
 95
       26
 96
       22
 40
0.0
 40
0.0
 40
0.0
 40
0.0
 40
1.0
 40
1.0
 40
1.0
 40
2.0
 40
2.0
 40
2.0
 40
3.0
 40
3.0
 40
3.0
 40
4.0
 40
4.0
 40
4.0
 40
5.0
 40
5.0
 40
5.0
 40
6.0
 40
6.0
 40
6.0
 40
7.0
 40
7.0
 40
7.0
 40
7.0
 10
108.8849988877093
 20
-159.0417995479131
 10
108.8849988877093
 20
-159.0417995479131
 10
108.6479763183241
 20
-159.0417995479131
 10
108.6479763183241
 20
-159.0417995479131
 10
108.673470024915
 20
-158.7327744828862
 10
108.8660508625404
 20
-158.2146321219047
 10
109.2722276202514
 20
-157.70889210467
 10
109.2722276202514
 20
-157.70889210467
 10
108.4343803982386
 20
-157.70889210467
 10
108.4343803982386
 20
-157.70889210467
 10
108.4343803982386
 20
-157.70889210467
 10
108.4343803982386
 20
-157.4973632418756
 10
108.4343803982386
 20
-157.4973632418756
 10
108.4343803982386
 20
-157.4973632418756
 10
109.5092501896365
 20
-157.4973632418756
 10
109.5092501896365
 20
-157.4973632418756
 10
109.5092501896365
 20
-157.4973632418756
 10
109.5092501896365
 20
-157.70889210467
 10
109.5092501896365
 20
-157.70889210467
 10
109.1854112140231
 20
-157.998969144528
 10
108.9187608234647
 20
-158.5911810584425
 10
108.8849988877093
 20
-159.0417995479131
 97
        0
 97
        1
330
C1
 75
     2
 76
     1
 98
        1
 10
0.0
 20
0.0
450
        0
451
        0
460
0.0
461
0.0
452
        0
462
0.0
453
        0
470

  0
ENDBLK
  5
BE
330
BB
100
AcDbEntity
  8
0
100
AcDbBlockEnd
  0
BLOCK
  5
C9
330
C7
100
AcDbEntity
  8
0
100
AcDbBlockBegin
  2
Block_7
 70
     0
 10
0.0
 20
0.0
 30
0.0
  3
Block_7
  1

  0
INSERT
  5
CC
330
C7
100
AcDbEntity
  8
レイヤー 1
100
AcDbBlockReference
  2
Block_8
 10
0.0
 20
0.0
 30
0.0
  0
ENDBLK
  5
CA
330
C7
100
AcDbEntity
  8
0
100
AcDbBlockEnd
  0
BLOCK
  5
CD
330
CB
100
AcDbEntity
  8
0
100
AcDbBlockBegin
  2
Block_8
 70
     0
 10
0.0
 20
0.0
 30
0.0
  3
Block_8
  1

  0
SPLINE
  5
CF
330
CB
100
AcDbEntity
  8
レイヤー 1
100
AcDbSpline
210
0.0
220
0.0
230
1.0
 70
     9
 71
     3
 72
    17
 73
    13
 74
     0
 42
0.0000000001
 43
0.0000000001
 40
0.0
 40
0.0
 40
0.0
 40
0.0
 40
1.0
 40
1.0
 40
1.0
 40
2.0
 40
2.0
 40
2.0
 40
3.0
 40
3.0
 40
3.0
 40
4.0
 40
4.0
 40
4.0
 40
4.0
 10
122.5761528556407
 20
-155.8723117014833
 30
0.0
 10
122.5761528556407
 20
-156.1220811241639
 30
0.0
 10
122.8596842140767
 20
-156.1685899132148
 30
0.0
 10
123.2045382721502
 20
-156.1685899132148
 30
0.0
 10
123.5238986236329
 20
-156.1685899132148
 30
0.0
 10
123.8325791791113
 20
-156.1324164106197
 30
0.0
 10
123.8325791791113
 20
-155.8723117014833
 30
0.0
 10
123.8325791791113
 20
-155.6246093360939
 30
0.0
 10
123.5514593875149
 20
-155.5760334897518
 30
0.0
 10
123.2045382721502
 20
-155.5760334897518
 30
0.0
 10
122.8848334111191
 20
-155.5760334897518
 30
0.0
 10
122.5761528556407
 20
-155.6142740496381
 30
0.0
 10
122.5761528556407
 20
-155.8723117014833
 30
0.0
  0
SPLINE
  5
D0
330
CB
100
AcDbEntity
  8
レイヤー 1
100
AcDbSpline
210
0.0
220
0.0
230
1.0
 70
     9
 71
     3
 72
    29
 73
    25
 74
     0
 42
0.0000000001
 43
0.0000000001
 40
0.0
 40
0.0
 40
0.0
 40
0.0
 40
1.0
 40
1.0
 40
1.0
 40
2.0
 40
2.0
 40
2.0
 40
3.0
 40
3.0
 40
3.0
 40
4.0
 40
4.0
 40
4.0
 40
5.0
 40
5.0
 40
5.0
 40
6.0
 40
6.0
 40
6.0
 40
7.0
 40
7.0
 40
7.0
 40
8.0
 40
8.0
 40
8.0
 40
8.0
 10
123.7988172433558
 20
-155.4744031729369
 30
0.0
 10
124.008279048859
 20
-155.5825791711738
 30
0.0
 10
124.0272270740279
 20
-155.7558674740818
 30
0.0
 10
124.0272270740279
 20
-155.8723117014833
 30
0.0
 10
124.0272270740279
 20
-156.0331976606445
 30
0.0
 10
123.980718284977
 20
-156.1747910850882
 30
0.0
 10
123.7988172433558
 20
-156.2698757204811
 30
0.0
 10
123.6041693484392
 20
-156.3735730945871
 30
0.0
 10
123.3674912886026
 20
-156.3928656293045
 30
0.0
 10
123.2045382721502
 20
-156.3928656293045
 30
0.0
 10
123.0605332808668
 20
-156.3928656293045
 30
0.0
 10
122.808696800895
 20
-156.3756401518783
 30
0.0
 10
122.6099147913961
 20
-156.2698757204811
 30
0.0
 10
122.4069986673149
 20
-156.1620442317928
 30
0.0
 10
122.3835720180152
 20
-156.0011582726317
 30
0.0
 10
122.3835720180152
 20
-155.8723117014833
 30
0.0
 10
122.3835720180152
 20
-155.7134927996133
 30
0.0
 10
122.4280137497749
 20
-155.5698323178784
 30
0.0
 10
122.6099147913961
 20
-155.4744031729369
 30
0.0
 10
122.8024956290216
 20
-155.3751844229618
 30
0.0
 10
123.0309054596936
 20
-155.351757773662
 30
0.0
 10
123.2045382721502
 20
-155.351757773662
 30
0.0
 10
123.3757595177672
 20
-155.351757773662
 30
0.0
 10
123.6062364057304
 20
-155.3731173656706
 30
0.0
 10
123.7988172433558
 20
-155.4744031729369
 30
0.0
  0
HATCH
  5
D1
330
CB
100
AcDbEntity
  8
レイヤー 1
 62
    18
420
        0
440
 33554687
100
AcDbHatch
 10
0.0
 20
0.0
 30
0.0
210
0.0
220
0.0
230
1.0
  2
SOLID
 70
     1
 71
     1
 91
        2
 92
        1
 93
        1
 72
     4
 94
        3
 73
     0
 74
     0
 95
       17
 96
       13
 40
0.0
 40
0.0
 40
0.0
 40
0.0
 40
1.0
 40
1.0
 40
1.0
 40
2.0
 40
2.0
 40
2.0
 40
3.0
 40
3.0
 40
3.0
 40
4.0
 40
4.0
 40
4.0
 40
4.0
 10
122.5761528556407
 20
-155.8723117014833
 10
122.5761528556407
 20
-156.1220811241639
 10
122.8596842140767
 20
-156.1685899132148
 10
123.2045382721502
 20
-156.1685899132148
 10
123.5238986236329
 20
-156.1685899132148
 10
123.8325791791113
 20
-156.1324164106197
 10
123.8325791791113
 20
-155.8723117014833
 10
123.8325791791113
 20
-155.6246093360939
 10
123.5514593875149
 20
-155.5760334897518
 10
123.2045382721502
 20
-155.5760334897518
 10
122.8848334111191
 20
-155.5760334897518
 10
122.5761528556407
 20
-155.6142740496381
 10
122.5761528556407
 20
-155.8723117014833
 97
        0
 97
        1
330
CF
 92
        1
 93
        1
 72
     4
 94
        3
 73
     0
 74
     0
 95
       29
 96
       25
 40
0.0
 40
0.0
 40
0.0
 40
0.0
 40
1.0
 40
1.0
 40
1.0
 40
2.0
 40
2.0
 40
2.0
 40
3.0
 40
3.0
 40
3.0
 40
4.0
 40
4.0
 40
4.0
 40
5.0
 40
5.0
 40
5.0
 40
6.0
 40
6.0
 40
6.0
 40
7.0
 40
7.0
 40
7.0
 40
8.0
 40
8.0
 40
8.0
 40
8.0
 10
123.7988172433558
 20
-155.4744031729369
 10
124.008279048859
 20
-155.5825791711738
 10
124.0272270740279
 20
-155.7558674740818
 10
124.0272270740279
 20
-155.8723117014833
 10
124.0272270740279
 20
-156.0331976606445
 10
123.980718284977
 20
-156.1747910850882
 10
123.7988172433558
 20
-156.2698757204811
 10
123.6041693484392
 20
-156.3735730945871
 10
123.3674912886026
 20
-156.3928656293045
 10
123.2045382721502
 20
-156.3928656293045
 10
123.0605332808668
 20
-156.3928656293045
 10
122.808696800895
 20
-156.3756401518783
 10
122.6099147913961
 20
-156.2698757204811
 10
122.4069986673149
 20
-156.1620442317928
 10
122.3835720180152
 20
-156.0011582726317
 10
122.3835720180152
 20
-155.8723117014833
 10
122.3835720180152
 20
-155.7134927996133
 10
122.4280137497749
 20
-155.5698323178784
 10
122.6099147913961
 20
-155.4744031729369
 10
122.8024956290216
 20
-155.3751844229618
 10
123.0309054596936
 20
-155.351757773662
 10
123.2045382721502
 20
-155.351757773662
 10
123.3757595177672
 20
-155.351757773662
 10
123.6062364057304
 20
-155.3731173656706
 10
123.7988172433558
 20
-155.4744031729369
 97
        0
 97
        1
330
D0
 75
     2
 76
     1
 98
        1
 10
0.0
 20
0.0
450
        0
451
        0
460
0.0
461
0.0
452
        0
462
0.0
453
        0
470

  0
SPLINE
  5
D2
330
CB
100
AcDbEntity
  8
レイヤー 1
100
AcDbSpline
210
0.0
220
0.0
230
1.0
 70
    11
 71
     3
 72
    17
 73
    13
 74
     0
 42
0.0000000001
 43
0.0000000001
 40
0.0
 40
0.0
 40
0.0
 40
0.0
 40
1.0
 40
1.0
 40
1.0
 40
2.0
 40
2.0
 40
2.0
 40
3.0
 40
3.0
 40
3.0
 40
4.0
 40
4.0
 40
4.0
 40
4.0
 10
123.9765841703947
 20
-155.1354057771883
 30
0.0
 10
123.9765841703947
 20
-155.1354057771883
 30
0.0
 10
123.724747690423
 20
-155.1354057771883
 30
0.0
 10
123.724747690423
 20
-155.1354057771883
 30
0.0
 10
123.724747690423
 20
-155.1354057771883
 30
0.0
 10
123.724747690423
 20
-154.8835692972166
 30
0.0
 10
123.724747690423
 20
-154.8835692972166
 30
0.0
 10
123.724747690423
 20
-154.8835692972166
 30
0.0
 10
123.9765841703947
 20
-154.8835692972166
 30
0.0
 10
123.9765841703947
 20
-154.8835692972166
 30
0.0
 10
123.9765841703947
 20
-154.8835692972166
 30
0.0
 10
123.9765841703947
 20
-155.1354057771883
 30
0.0
 10
123.9765841703947
 20
-155.1354057771883
 30
0.0
  0
HATCH
  5
D3
330
CB
100
AcDbEntity
  8
レイヤー 1
 62
    18
420
        0
440
 33554687
100
AcDbHatch
 10
0.0
 20
0.0
 30
0.0
210
0.0
220
0.0
230
1.0
  2
SOLID
 70
     1
 71
     1
 91
        1
 92
        1
 93
        1
 72
     4
 94
        3
 73
     0
 74
     0
 95
       17
 96
       13
 40
0.0
 40
0.0
 40
0.0
 40
0.0
 40
1.0
 40
1.0
 40
1.0
 40
2.0
 40
2.0
 40
2.0
 40
3.0
 40
3.0
 40
3.0
 40
4.0
 40
4.0
 40
4.0
 40
4.0
 10
123.9765841703947
 20
-155.1354057771883
 10
123.9765841703947
 20
-155.1354057771883
 10
123.724747690423
 20
-155.1354057771883
 10
123.724747690423
 20
-155.1354057771883
 10
123.724747690423
 20
-155.1354057771883
 10
123.724747690423
 20
-154.8835692972166
 10
123.724747690423
 20
-154.8835692972166
 10
123.724747690423
 20
-154.8835692972166
 10
123.9765841703947
 20
-154.8835692972166
 10
123.9765841703947
 20
-154.8835692972166
 10
123.9765841703947
 20
-154.8835692972166
 10
123.9765841703947
 20
-155.1354057771883
 10
123.9765841703947
 20
-155.1354057771883
 97
        0
 97
        1
330
D2
 75
     2
 76
     1
 98
        1
 10
0.0
 20
0.0
450
        0
451
        0
460
0.0
461
0.0
452
        0
462
0.0
453
        0
470

  0
SPLINE
  5
D4
330
CB
100
AcDbEntity
  8
レイヤー 1
100
AcDbSpline
210
0.0
220
0.0
230
1.0
 70
    11
 71
     3
 72
    14
 73
    10
 74
     0
 42
0.0000000001
 43
0.0000000001
 40
0.0
 40
0.0
 40
0.0
 40
0.0
 40
1.0
 40
1.0
 40
1.0
 40
2.0
 40
2.0
 40
2.0
 40
3.0
 40
3.0
 40
3.0
 40
3.0
 10
122.7749348651396
 20
-154.0329752219084
 30
0.0
 10
122.7749348651396
 20
-154.0329752219084
 30
0.0
 10
123.4308810455312
 20
-154.4901393928011
 30
0.0
 10
123.4308810455312
 20
-154.4901393928011
 30
0.0
 10
123.4308810455312
 20
-154.4901393928011
 30
0.0
 10
123.4308810455312
 20
-154.0329752219084
 30
0.0
 10
123.4308810455312
 20
-154.0329752219084
 30
0.0
 10
123.4308810455312
 20
-154.0329752219084
 30
0.0
 10
122.7749348651396
 20
-154.0329752219084
 30
0.0
 10
122.7749348651396
 20
-154.0329752219084
 30
0.0
  0
SPLINE
  5
D5
330
CB
100
AcDbEntity
  8
レイヤー 1
100
AcDbSpline
210
0.0
220
0.0
230
1.0
 70
    11
 71
     3
 72
    38
 73
    34
 74
     0
 42
0.0000000001
 43
0.0000000001
 40
0.0
 40
0.0
 40
0.0
 40
0.0
 40
1.0
 40
1.0
 40
1.0
 40
2.0
 40
2.0
 40
2.0
 40
3.0
 40
3.0
 40
3.0
 40
4.0
 40
4.0
 40
4.0
 40
5.0
 40
5.0
 40
5.0
 40
6.0
 40
6.0
 40
6.0
 40
7.0
 40
7.0
 40
7.0
 40
8.0
 40
8.0
 40
8.0
 40
9.0
 40
9.0
 40
9.0
 40
10.0
 40
10.0
 40
10.0
 40
11.0
 40
11.0
 40
11.0
 40
11.0
 10
123.6296630550301
 20
-153.8152451872406
 30
0.0
 10
123.6296630550301
 20
-153.8152451872406
 30
0.0
 10
123.9765841703947
 20
-153.8152451872406
 30
0.0
 10
123.9765841703947
 20
-153.8152451872406
 30
0.0
 10
123.9765841703947
 20
-153.8152451872406
 30
0.0
 10
123.9765841703947
 20
-154.0329752219084
 30
0.0
 10
123.9765841703947
 20
-154.0329752219084
 30
0.0
 10
123.9765841703947
 20
-154.0329752219084
 30
0.0
 10
123.6296630550301
 20
-154.0329752219084
 30
0.0
 10
123.6296630550301
 20
-154.0329752219084
 30
0.0
 10
123.6296630550301
 20
-154.0329752219084
 30
0.0
 10
123.6296630550301
 20
-154.6889214023
 30
0.0
 10
123.6296630550301
 20
-154.6889214023
 30
0.0
 10
123.6296630550301
 20
-154.6889214023
 30
0.0
 10
123.4053873389403
 20
-154.6889214023
 30
0.0
 10
123.4053873389403
 20
-154.6889214023
 30
0.0
 10
123.4053873389403
 20
-154.6889214023
 30
0.0
 10
122.4321478643572
 20
-154.0098930821572
 30
0.0
 10
122.4321478643572
 20
-154.0098930821572
 30
0.0
 10
122.4321478643572
 20
-154.0098930821572
 30
0.0
 10
122.4321478643572
 20
-153.8152451872406
 30
0.0
 10
122.4321478643572
 20
-153.8152451872406
 30
0.0
 10
122.4321478643572
 20
-153.8152451872406
 30
0.0
 10
123.4308810455312
 20
-153.8152451872406
 30
0.0
 10
123.4308810455312
 20
-153.8152451872406
 30
0.0
 10
123.4308810455312
 20
-153.8152451872406
 30
0.0
 10
123.4308810455312
 20
-153.6078504390286
 30
0.0
 10
123.4308810455312
 20
-153.6078504390286
 30
0.0
 10
123.4308810455312
 20
-153.6078504390286
 30
0.0
 10
123.6296630550301
 20
-153.6078504390286
 30
0.0
 10
123.6296630550301
 20
-153.6078504390286
 30
0.0
 10
123.6296630550301
 20
-153.6078504390286
 30
0.0
 10
123.6296630550301
 20
-153.8152451872406
 30
0.0
 10
123.6296630550301
 20
-153.8152451872406
 30
0.0
  0
HATCH
  5
D6
330
CB
100
AcDbEntity
  8
レイヤー 1
 62
    18
420
        0
440
 33554687
100
AcDbHatch
 10
0.0
 20
0.0
 30
0.0
210
0.0
220
0.0
230
1.0
  2
SOLID
 70
     1
 71
     1
 91
        2
 92
        1
 93
        1
 72
     4
 94
        3
 73
     0
 74
     0
 95
       14
 96
       10
 40
0.0
 40
0.0
 40
0.0
 40
0.0
 40
1.0
 40
1.0
 40
1.0
 40
2.0
 40
2.0
 40
2.0
 40
3.0
 40
3.0
 40
3.0
 40
3.0
 10
122.7749348651396
 20
-154.0329752219084
 10
122.7749348651396
 20
-154.0329752219084
 10
123.4308810455312
 20
-154.4901393928011
 10
123.4308810455312
 20
-154.4901393928011
 10
123.4308810455312
 20
-154.4901393928011
 10
123.4308810455312
 20
-154.0329752219084
 10
123.4308810455312
 20
-154.0329752219084
 10
123.4308810455312
 20
-154.0329752219084
 10
122.7749348651396
 20
-154.0329752219084
 10
122.7749348651396
 20
-154.0329752219084
 97
        0
 97
        1
330
D4
 92
        1
 93
        1
 72
     4
 94
        3
 73
     0
 74
     0
 95
       38
 96
       34
 40
0.0
 40
0.0
 40
0.0
 40
0.0
 40
1.0
 40
1.0
 40
1.0
 40
2.0
 40
2.0
 40
2.0
 40
3.0
 40
3.0
 40
3.0
 40
4.0
 40
4.0
 40
4.0
 40
5.0
 40
5.0
 40
5.0
 40
6.0
 40
6.0
 40
6.0
 40
7.0
 40
7.0
 40
7.0
 40
8.0
 40
8.0
 40
8.0
 40
9.0
 40
9.0
 40
9.0
 40
10.0
 40
10.0
 40
10.0
 40
11.0
 40
11.0
 40
11.0
 40
11.0
 10
123.6296630550301
 20
-153.8152451872406
 10
123.6296630550301
 20
-153.8152451872406
 10
123.9765841703947
 20
-153.8152451872406
 10
123.9765841703947
 20
-153.8152451872406
 10
123.9765841703947
 20
-153.8152451872406
 10
123.9765841703947
 20
-154.0329752219084
 10
123.9765841703947
 20
-154.0329752219084
 10
123.9765841703947
 20
-154.0329752219084
 10
123.6296630550301
 20
-154.0329752219084
 10
123.6296630550301
 20
-154.0329752219084
 10
123.6296630550301
 20
-154.0329752219084
 10
123.6296630550301
 20
-154.6889214023
 10
123.6296630550301
 20
-154.6889214023
 10
123.6296630550301
 20
-154.6889214023
 10
123.4053873389403
 20
-154.6889214023
 10
123.4053873389403
 20
-154.6889214023
 10
123.4053873389403
 20
-154.6889214023
 10
122.4321478643572
 20
-154.0098930821572
 10
122.4321478643572
 20
-154.0098930821572
 10
122.4321478643572
 20
-154.0098930821572
 10
122.4321478643572
 20
-153.8152451872406
 10
122.4321478643572
 20
-153.8152451872406
 10
122.4321478643572
 20
-153.8152451872406
 10
123.4308810455312
 20
-153.8152451872406
 10
123.4308810455312
 20
-153.8152451872406
 10
123.4308810455312
 20
-153.8152451872406
 10
123.4308810455312
 20
-153.6078504390286
 10
123.4308810455312
 20
-153.6078504390286
 10
123.4308810455312
 20
-153.6078504390286
 10
123.6296630550301
 20
-153.6078504390286
 10
123.6296630550301
 20
-153.6078504390286
 10
123.6296630550301
 20
-153.6078504390286
 10
123.6296630550301
 20
-153.8152451872406
 10
123.6296630550301
 20
-153.8152451872406
 97
        0
 97
        1
330
D5
 75
     2
 76
     1
 98
        1
 10
0.0
 20
0.0
450
        0
451
        0
460
0.0
461
0.0
452
        0
462
0.0
453
        0
470

  0
ENDBLK
  5
CE
330
CB
100
AcDbEntity
  8
0
100
AcDbBlockEnd
  0
BLOCK
  5
DD
330
DB
100
AcDbEntity
  8
0
100
AcDbBlockBegin
  2
Block_9
 70
     0
 10
0.0
 20
0.0
 30
0.0
  3
Block_9
  1

  0
INSERT
  5
E0
330
DB
100
AcDbEntity
  8
レイヤー 1
100
AcDbBlockReference
  2
Block_10
 10
0.0
 20
0.0
 30
0.0
  0
ENDBLK
  5
DE
330
DB
100
AcDbEntity
  8
0
100
AcDbBlockEnd
  0
BLOCK
  5
E1
330
DF
100
AcDbEntity
  8
0
100
AcDbBlockBegin
  2
Block_10
 70
     0
 10
0.0
 20
0.0
 30
0.0
  3
Block_10
  1

  0
SPLINE
  5
E3
330
DF
100
AcDbEntity
  8
レイヤー 1
100
AcDbSpline
210
0.0
220
0.0
230
1.0
 70
    11
 71
     3
 72
    26
 73
    22
 74
     0
 42
0.0000000001
 43
0.0000000001
 40
0.0
 40
0.0
 40
0.0
 40
0.0
 40
1.0
 40
1.0
 40
1.0
 40
2.0
 40
2.0
 40
2.0
 40
3.0
 40
3.0
 40
3.0
 40
4.0
 40
4.0
 40
4.0
 40
5.0
 40
5.0
 40
5.0
 40
6.0
 40
6.0
 40
6.0
 40
7.0
 40
7.0
 40
7.0
 40
7.0
 10
87.35056828328389
 20
-140.9994899821112
 30
0.0
 10
87.35056828328389
 20
-140.9994899821112
 30
0.0
 10
86.24641518026132
 20
-140.9994899821112
 30
0.0
 10
86.24641518026132
 20
-140.9994899821112
 30
0.0
 10
86.24641518026132
 20
-140.9994899821112
 30
0.0
 10
86.24641518026132
 20
-141.3295301295981
 30
0.0
 10
86.24641518026132
 20
-141.3295301295981
 30
0.0
 10
86.24641518026132
 20
-141.3295301295981
 30
0.0
 10
86.09827607439557
 20
-141.3295301295981
 30
0.0
 10
86.09827607439557
 20
-141.3295301295981
 30
0.0
 10
86.08346216380899
 20
-140.9974229248201
 30
0.0
 10
85.92050914735668
 20
-140.9509141357692
 30
0.0
 10
85.80613197724639
 20
-140.9212863145961
 30
0.0
 10
85.80613197724639
 20
-140.9212863145961
 30
0.0
 10
85.80613197724639
 20
-140.7752142660215
 30
0.0
 10
85.80613197724639
 20
-140.7752142660215
 30
0.0
 10
85.80613197724639
 20
-140.7752142660215
 30
0.0
 10
87.35056828328389
 20
-140.7752142660215
 30
0.0
 10
87.35056828328389
 20
-140.7752142660215
 30
0.0
 10
87.35056828328389
 20
-140.7752142660215
 30
0.0
 10
87.35056828328389
 20
-140.9994899821112
 30
0.0
 10
87.35056828328389
 20
-140.9994899821112
 30
0.0
  0
HATCH
  5
E4
330
DF
100
AcDbEntity
  8
レイヤー 1
 62
    18
420
        0
440
 33554687
100
AcDbHatch
 10
0.0
 20
0.0
 30
0.0
210
0.0
220
0.0
230
1.0
  2
SOLID
 70
     1
 71
     1
 91
        1
 92
        1
 93
        1
 72
     4
 94
        3
 73
     0
 74
     0
 95
       26
 96
       22
 40
0.0
 40
0.0
 40
0.0
 40
0.0
 40
1.0
 40
1.0
 40
1.0
 40
2.0
 40
2.0
 40
2.0
 40
3.0
 40
3.0
 40
3.0
 40
4.0
 40
4.0
 40
4.0
 40
5.0
 40
5.0
 40
5.0
 40
6.0
 40
6.0
 40
6.0
 40
7.0
 40
7.0
 40
7.0
 40
7.0
 10
87.35056828328389
 20
-140.9994899821112
 10
87.35056828328389
 20
-140.9994899821112
 10
86.24641518026132
 20
-140.9994899821112
 10
86.24641518026132
 20
-140.9994899821112
 10
86.24641518026132
 20
-140.9994899821112
 10
86.24641518026132
 20
-141.3295301295981
 10
86.24641518026132
 20
-141.3295301295981
 10
86.24641518026132
 20
-141.3295301295981
 10
86.09827607439557
 20
-141.3295301295981
 10
86.09827607439557
 20
-141.3295301295981
 10
86.08346216380899
 20
-140.9974229248201
 10
85.92050914735668
 20
-140.9509141357692
 10
85.80613197724639
 20
-140.9212863145961
 10
85.80613197724639
 20
-140.9212863145961
 10
85.80613197724639
 20
-140.7752142660215
 10
85.80613197724639
 20
-140.7752142660215
 10
85.80613197724639
 20
-140.7752142660215
 10
87.35056828328389
 20
-140.7752142660215
 10
87.35056828328389
 20
-140.7752142660215
 10
87.35056828328389
 20
-140.7752142660215
 10
87.35056828328389
 20
-140.9994899821112
 10
87.35056828328389
 20
-140.9994899821112
 97
        0
 97
        1
330
E3
 75
     2
 76
     1
 98
        1
 10
0.0
 20
0.0
450
        0
451
        0
460
0.0
461
0.0
452
        0
462
0.0
453
        0
470

  0
SPLINE
  5
E5
330
DF
100
AcDbEntity
  8
レイヤー 1
100
AcDbSpline
210
0.0
220
0.0
230
1.0
 70
    11
 71
     3
 72
    17
 73
    13
 74
     0
 42
0.0000000001
 43
0.0000000001
 40
0.0
 40
0.0
 40
0.0
 40
0.0
 40
1.0
 40
1.0
 40
1.0
 40
2.0
 40
2.0
 40
2.0
 40
3.0
 40
3.0
 40
3.0
 40
4.0
 40
4.0
 40
4.0
 40
4.0
 10
87.35056828328389
 20
-140.2140082114743
 30
0.0
 10
87.35056828328389
 20
-140.2140082114743
 30
0.0
 10
87.09873180331213
 20
-140.2140082114743
 30
0.0
 10
87.09873180331213
 20
-140.2140082114743
 30
0.0
 10
87.09873180331213
 20
-140.2140082114743
 30
0.0
 10
87.09873180331213
 20
-139.9621717315025
 30
0.0
 10
87.09873180331213
 20
-139.9621717315025
 30
0.0
 10
87.09873180331213
 20
-139.9621717315025
 30
0.0
 10
87.35056828328389
 20
-139.9621717315025
 30
0.0
 10
87.35056828328389
 20
-139.9621717315025
 30
0.0
 10
87.35056828328389
 20
-139.9621717315025
 30
0.0
 10
87.35056828328389
 20
-140.2140082114743
 30
0.0
 10
87.35056828328389
 20
-140.2140082114743
 30
0.0
  0
HATCH
  5
E6
330
DF
100
AcDbEntity
  8
レイヤー 1
 62
    18
420
        0
440
 33554687
100
AcDbHatch
 10
0.0
 20
0.0
 30
0.0
210
0.0
220
0.0
230
1.0
  2
SOLID
 70
     1
 71
     1
 91
        1
 92
        1
 93
        1
 72
     4
 94
        3
 73
     0
 74
     0
 95
       17
 96
       13
 40
0.0
 40
0.0
 40
0.0
 40
0.0
 40
1.0
 40
1.0
 40
1.0
 40
2.0
 40
2.0
 40
2.0
 40
3.0
 40
3.0
 40
3.0
 40
4.0
 40
4.0
 40
4.0
 40
4.0
 10
87.35056828328389
 20
-140.2140082114743
 10
87.35056828328389
 20
-140.2140082114743
 10
87.09873180331213
 20
-140.2140082114743
 10
87.09873180331213
 20
-140.2140082114743
 10
87.09873180331213
 20
-140.2140082114743
 10
87.09873180331213
 20
-139.9621717315025
 10
87.09873180331213
 20
-139.9621717315025
 10
87.09873180331213
 20
-139.9621717315025
 10
87.35056828328389
 20
-139.9621717315025
 10
87.35056828328389
 20
-139.9621717315025
 10
87.35056828328389
 20
-139.9621717315025
 10
87.35056828328389
 20
-140.2140082114743
 10
87.35056828328389
 20
-140.2140082114743
 97
        0
 97
        1
330
E5
 75
     2
 76
     1
 98
        1
 10
0.0
 20
0.0
450
        0
451
        0
460
0.0
461
0.0
452
        0
462
0.0
453
        0
470

  0
SPLINE
  5
E7
330
DF
100
AcDbEntity
  8
レイヤー 1
100
AcDbSpline
210
0.0
220
0.0
230
1.0
 70
    11
 71
     3
 72
    26
 73
    22
 74
     0
 42
0.0000000001
 43
0.0000000001
 40
0.0
 40
0.0
 40
0.0
 40
0.0
 40
1.0
 40
1.0
 40
1.0
 40
2.0
 40
2.0
 40
2.0
 40
3.0
 40
3.0
 40
3.0
 40
4.0
 40
4.0
 40
4.0
 40
5.0
 40
5.0
 40
5.0
 40
6.0
 40
6.0
 40
6.0
 40
7.0
 40
7.0
 40
7.0
 40
7.0
 10
87.35056828328389
 20
-139.2745306726466
 30
0.0
 10
87.35056828328389
 20
-139.2745306726466
 30
0.0
 10
86.24641518026132
 20
-139.2745306726466
 30
0.0
 10
86.24641518026132
 20
-139.2745306726466
 30
0.0
 10
86.24641518026132
 20
-139.2745306726466
 30
0.0
 10
86.24641518026132
 20
-139.6045708201335
 30
0.0
 10
86.24641518026132
 20
-139.6045708201335
 30
0.0
 10
86.24641518026132
 20
-139.6045708201335
 30
0.0
 10
86.09827607439557
 20
-139.6045708201335
 30
0.0
 10
86.09827607439557
 20
-139.6045708201335
 30
0.0
 10
86.08346216380899
 20
-139.2724636153555
 30
0.0
 10
85.92050914735668
 20
-139.2259548263046
 30
0.0
 10
85.80613197724639
 20
-139.1963270051315
 30
0.0
 10
85.80613197724639
 20
-139.1963270051315
 30
0.0
 10
85.80613197724639
 20
-139.0502549565569
 30
0.0
 10
85.80613197724639
 20
-139.0502549565569
 30
0.0
 10
85.80613197724639
 20
-139.0502549565569
 30
0.0
 10
87.35056828328389
 20
-139.0502549565569
 30
0.0
 10
87.35056828328389
 20
-139.0502549565569
 30
0.0
 10
87.35056828328389
 20
-139.0502549565569
 30
0.0
 10
87.35056828328389
 20
-139.2745306726466
 30
0.0
 10
87.35056828328389
 20
-139.2745306726466
 30
0.0
  0
HATCH
  5
E8
330
DF
100
AcDbEntity
  8
レイヤー 1
 62
    18
420
        0
440
 33554687
100
AcDbHatch
 10
0.0
 20
0.0
 30
0.0
210
0.0
220
0.0
230
1.0
  2
SOLID
 70
     1
 71
     1
 91
        1
 92
        1
 93
        1
 72
     4
 94
        3
 73
     0
 74
     0
 95
       26
 96
       22
 40
0.0
 40
0.0
 40
0.0
 40
0.0
 40
1.0
 40
1.0
 40
1.0
 40
2.0
 40
2.0
 40
2.0
 40
3.0
 40
3.0
 40
3.0
 40
4.0
 40
4.0
 40
4.0
 40
5.0
 40
5.0
 40
5.0
 40
6.0
 40
6.0
 40
6.0
 40
7.0
 40
7.0
 40
7.0
 40
7.0
 10
87.35056828328389
 20
-139.2745306726466
 10
87.35056828328389
 20
-139.2745306726466
 10
86.24641518026132
 20
-139.2745306726466
 10
86.24641518026132
 20
-139.2745306726466
 10
86.24641518026132
 20
-139.2745306726466
 10
86.24641518026132
 20
-139.6045708201335
 10
86.24641518026132
 20
-139.6045708201335
 10
86.24641518026132
 20
-139.6045708201335
 10
86.09827607439557
 20
-139.6045708201335
 10
86.09827607439557
 20
-139.6045708201335
 10
86.08346216380899
 20
-139.2724636153555
 10
85.92050914735668
 20
-139.2259548263046
 10
85.80613197724639
 20
-139.1963270051315
 10
85.80613197724639
 20
-139.1963270051315
 10
85.80613197724639
 20
-139.0502549565569
 10
85.80613197724639
 20
-139.0502549565569
 10
85.80613197724639
 20
-139.0502549565569
 10
87.35056828328389
 20
-139.0502549565569
 10
87.35056828328389
 20
-139.0502549565569
 10
87.35056828328389
 20
-139.0502549565569
 10
87.35056828328389
 20
-139.2745306726466
 10
87.35056828328389
 20
-139.2745306726466
 97
        0
 97
        1
330
E7
 75
     2
 76
     1
 98
        1
 10
0.0
 20
0.0
450
        0
451
        0
460
0.0
461
0.0
452
        0
462
0.0
453
        0
470

  0
ENDBLK
  5
E2
330
DF
100
AcDbEntity
  8
0
100
AcDbBlockEnd
  0
BLOCK
  5
EE
330
EC
100
AcDbEntity
  8
0
100
AcDbBlockBegin
  2
Block_11
 70
     0
 10
0.0
 20
0.0
 30
0.0
  3
Block_11
  1

  0
INSERT
  5
F1
330
EC
100
AcDbEntity
  8
レイヤー 1
100
AcDbBlockReference
  2
Block_12
 10
0.0
 20
0.0
 30
0.0
  0
ENDBLK
  5
EF
330
EC
100
AcDbEntity
  8
0
100
AcDbBlockEnd
  0
BLOCK
  5
F2
330
F0
100
AcDbEntity
  8
0
100
AcDbBlockBegin
  2
Block_12
 70
     0
 10
0.0
 20
0.0
 30
0.0
  3
Block_12
  1

  0
SPLINE
  5
F4
330
F0
100
AcDbEntity
  8
レイヤー 1
100
AcDbSpline
210
0.0
220
0.0
230
1.0
 70
    11
 71
     3
 72
    26
 73
    22
 74
     0
 42
0.0000000001
 43
0.0000000001
 40
0.0
 40
0.0
 40
0.0
 40
0.0
 40
1.0
 40
1.0
 40
1.0
 40
2.0
 40
2.0
 40
2.0
 40
3.0
 40
3.0
 40
3.0
 40
4.0
 40
4.0
 40
4.0
 40
5.0
 40
5.0
 40
5.0
 40
6.0
 40
6.0
 40
6.0
 40
7.0
 40
7.0
 40
7.0
 40
7.0
 10
120.2407226261898
 20
-149.8385714686167
 30
0.0
 10
120.2407226261898
 20
-149.8385714686167
 30
0.0
 10
119.1365695231672
 20
-149.8385714686167
 30
0.0
 10
119.1365695231672
 20
-149.8385714686167
 30
0.0
 10
119.1365695231672
 20
-149.8385714686167
 30
0.0
 10
119.1365695231672
 20
-150.1686116161037
 30
0.0
 10
119.1365695231672
 20
-150.1686116161037
 30
0.0
 10
119.1365695231672
 20
-150.1686116161037
 30
0.0
 10
118.9884304173015
 20
-150.1686116161037
 30
0.0
 10
118.9884304173015
 20
-150.1686116161037
 30
0.0
 10
118.9736165067149
 20
-149.8365044113256
 30
0.0
 10
118.8106634902626
 20
-149.7899956222747
 30
0.0
 10
118.6962863201523
 20
-149.7603678011016
 30
0.0
 10
118.6962863201523
 20
-149.7603678011016
 30
0.0
 10
118.6962863201523
 20
-149.614295752527
 30
0.0
 10
118.6962863201523
 20
-149.614295752527
 30
0.0
 10
118.6962863201523
 20
-149.614295752527
 30
0.0
 10
120.2407226261898
 20
-149.614295752527
 30
0.0
 10
120.2407226261898
 20
-149.614295752527
 30
0.0
 10
120.2407226261898
 20
-149.614295752527
 30
0.0
 10
120.2407226261898
 20
-149.8385714686167
 30
0.0
 10
120.2407226261898
 20
-149.8385714686167
 30
0.0
  0
HATCH
  5
F5
330
F0
100
AcDbEntity
  8
レイヤー 1
 62
    18
420
        0
440
 33554687
100
AcDbHatch
 10
0.0
 20
0.0
 30
0.0
210
0.0
220
0.0
230
1.0
  2
SOLID
 70
     1
 71
     1
 91
        1
 92
        1
 93
        1
 72
     4
 94
        3
 73
     0
 74
     0
 95
       26
 96
       22
 40
0.0
 40
0.0
 40
0.0
 40
0.0
 40
1.0
 40
1.0
 40
1.0
 40
2.0
 40
2.0
 40
2.0
 40
3.0
 40
3.0
 40
3.0
 40
4.0
 40
4.0
 40
4.0
 40
5.0
 40
5.0
 40
5.0
 40
6.0
 40
6.0
 40
6.0
 40
7.0
 40
7.0
 40
7.0
 40
7.0
 10
120.2407226261898
 20
-149.8385714686167
 10
120.2407226261898
 20
-149.8385714686167
 10
119.1365695231672
 20
-149.8385714686167
 10
119.1365695231672
 20
-149.8385714686167
 10
119.1365695231672
 20
-149.8385714686167
 10
119.1365695231672
 20
-150.1686116161037
 10
119.1365695231672
 20
-150.1686116161037
 10
119.1365695231672
 20
-150.1686116161037
 10
118.9884304173015
 20
-150.1686116161037
 10
118.9884304173015
 20
-150.1686116161037
 10
118.9736165067149
 20
-149.8365044113256
 10
118.8106634902626
 20
-149.7899956222747
 10
118.6962863201523
 20
-149.7603678011016
 10
118.6962863201523
 20
-149.7603678011016
 10
118.6962863201523
 20
-149.614295752527
 10
118.6962863201523
 20
-149.614295752527
 10
118.6962863201523
 20
-149.614295752527
 10
120.2407226261898
 20
-149.614295752527
 10
120.2407226261898
 20
-149.614295752527
 10
120.2407226261898
 20
-149.614295752527
 10
120.2407226261898
 20
-149.8385714686167
 10
120.2407226261898
 20
-149.8385714686167
 97
        0
 97
        1
330
F4
 75
     2
 76
     1
 98
        1
 10
0.0
 20
0.0
450
        0
451
        0
460
0.0
461
0.0
452
        0
462
0.0
453
        0
470

  0
SPLINE
  5
F6
330
F0
100
AcDbEntity
  8
レイヤー 1
100
AcDbSpline
210
0.0
220
0.0
230
1.0
 70
     9
 71
     3
 72
    44
 73
    40
 74
     0
 42
0.0000000001
 43
0.0000000001
 40
0.0
 40
0.0
 40
0.0
 40
0.0
 40
1.0
 40
1.0
 40
1.0
 40
2.0
 40
2.0
 40
2.0
 40
3.0
 40
3.0
 40
3.0
 40
4.0
 40
4.0
 40
4.0
 40
5.0
 40
5.0
 40
5.0
 40
6.0
 40
6.0
 40
6.0
 40
7.0
 40
7.0
 40
7.0
 40
8.0
 40
8.0
 40
8.0
 40
9.0
 40
9.0
 40
9.0
 40
10.0
 40
10.0
 40
10.0
 40
11.0
 40
11.0
 40
11.0
 40
12.0
 40
12.0
 40
12.0
 40
13.0
 40
13.0
 40
13.0
 40
13.0
 10
119.6588459987311
 20
-148.5201334264116
 30
0.0
 10
119.8176649006011
 20
-148.7378634610794
 30
0.0
 10
119.891734453534
 20
-148.8308810391812
 30
0.0
 10
120.0353949352689
 20
-148.8798013950717
 30
0.0
 10
120.0353949352689
 20
-148.8798013950717
 30
0.0
 10
120.0353949352689
 20
-148.1012098154052
 30
0.0
 10
120.0353949352689
 20
-148.1012098154052
 30
0.0
 10
120.0353949352689
 20
-148.1012098154052
 30
0.0
 10
120.2407226261898
 20
-148.1012098154052
 30
0.0
 10
120.2407226261898
 20
-148.1012098154052
 30
0.0
 10
120.2407226261898
 20
-148.1012098154052
 30
0.0
 10
120.2407226261898
 20
-149.1292263082038
 30
0.0
 10
120.2407226261898
 20
-149.1292263082038
 30
0.0
 10
119.8831217148209
 20
-149.0975314297395
 30
0.0
 10
119.8049180473057
 20
-149.0320746155197
 30
0.0
 10
119.5065727782831
 20
-148.6469129402688
 30
0.0
 10
119.3077907687841
 20
-148.3909423457147
 30
0.0
 10
119.2399223877247
 20
-148.325485531495
 30
0.0
 10
119.1024630778632
 20
-148.325485531495
 30
0.0
 10
118.9839517931707
 20
-148.325485531495
 30
0.0
 10
118.8530381647312
 20
-148.3974880271367
 30
0.0
 10
118.8530381647312
 20
-148.5942029793445
 30
0.0
 10
118.8530381647312
 20
-148.8543076884808
 30
0.0
 10
119.0835150526944
 20
-148.8625759176454
 30
0.0
 10
119.1999592800958
 20
-148.8670545417763
 30
0.0
 10
119.1999592800958
 20
-148.8670545417763
 30
0.0
 10
119.1999592800958
 20
-149.091330257866
 30
0.0
 10
119.1999592800958
 20
-149.091330257866
 30
0.0
 10
119.0728352566901
 20
-149.0827175191529
 30
0.0
 10
118.9608696534195
 20
-149.0720377231486
 30
0.0
 10
118.8423583687269
 20
-148.9917669983423
 30
0.0
 10
118.6814724095657
 20
-148.8818684523629
 30
0.0
 10
118.6477104738103
 20
-148.6954887866108
 30
0.0
 10
118.6477104738103
 20
-148.5793890687579
 30
0.0
 10
118.6477104738103
 20
-148.3020588821953
 30
0.0
 10
118.8316785727226
 20
-148.0946641339833
 30
0.0
 10
119.1045301351544
 20
-148.0946641339833
 30
0.0
 10
119.333284475375
 20
-148.0946641339833
 30
0.0
 10
119.4325032253502
 20
-148.2111083613847
 30
0.0
 10
119.6588459987311
 20
-148.5201334264116
 30
0.0
  0
HATCH
  5
F7
330
F0
100
AcDbEntity
  8
レイヤー 1
 62
    18
420
        0
440
 33554687
100
AcDbHatch
 10
0.0
 20
0.0
 30
0.0
210
0.0
220
0.0
230
1.0
  2
SOLID
 70
     1
 71
     1
 91
        1
 92
        1
 93
        1
 72
     4
 94
        3
 73
     0
 74
     0
 95
       44
 96
       40
 40
0.0
 40
0.0
 40
0.0
 40
0.0
 40
1.0
 40
1.0
 40
1.0
 40
2.0
 40
2.0
 40
2.0
 40
3.0
 40
3.0
 40
3.0
 40
4.0
 40
4.0
 40
4.0
 40
5.0
 40
5.0
 40
5.0
 40
6.0
 40
6.0
 40
6.0
 40
7.0
 40
7.0
 40
7.0
 40
8.0
 40
8.0
 40
8.0
 40
9.0
 40
9.0
 40
9.0
 40
10.0
 40
10.0
 40
10.0
 40
11.0
 40
11.0
 40
11.0
 40
12.0
 40
12.0
 40
12.0
 40
13.0
 40
13.0
 40
13.0
 40
13.0
 10
119.6588459987311
 20
-148.5201334264116
 10
119.8176649006011
 20
-148.7378634610794
 10
119.891734453534
 20
-148.8308810391812
 10
120.0353949352689
 20
-148.8798013950717
 10
120.0353949352689
 20
-148.8798013950717
 10
120.0353949352689
 20
-148.1012098154052
 10
120.0353949352689
 20
-148.1012098154052
 10
120.0353949352689
 20
-148.1012098154052
 10
120.2407226261898
 20
-148.1012098154052
 10
120.2407226261898
 20
-148.1012098154052
 10
120.2407226261898
 20
-148.1012098154052
 10
120.2407226261898
 20
-149.1292263082038
 10
120.2407226261898
 20
-149.1292263082038
 10
119.8831217148209
 20
-149.0975314297395
 10
119.8049180473057
 20
-149.0320746155197
 10
119.5065727782831
 20
-148.6469129402688
 10
119.3077907687841
 20
-148.3909423457147
 10
119.2399223877247
 20
-148.325485531495
 10
119.1024630778632
 20
-148.325485531495
 10
118.9839517931707
 20
-148.325485531495
 10
118.8530381647312
 20
-148.3974880271367
 10
118.8530381647312
 20
-148.5942029793445
 10
118.8530381647312
 20
-148.8543076884808
 10
119.0835150526944
 20
-148.8625759176454
 10
119.1999592800958
 20
-148.8670545417763
 10
119.1999592800958
 20
-148.8670545417763
 10
119.1999592800958
 20
-149.091330257866
 10
119.1999592800958
 20
-149.091330257866
 10
119.0728352566901
 20
-149.0827175191529
 10
118.9608696534195
 20
-149.0720377231486
 10
118.8423583687269
 20
-148.9917669983423
 10
118.6814724095657
 20
-148.8818684523629
 10
118.6477104738103
 20
-148.6954887866108
 10
118.6477104738103
 20
-148.5793890687579
 10
118.6477104738103
 20
-148.3020588821953
 10
118.8316785727226
 20
-148.0946641339833
 10
119.1045301351544
 20
-148.0946641339833
 10
119.333284475375
 20
-148.0946641339833
 10
119.4325032253502
 20
-148.2111083613847
 10
119.6588459987311
 20
-148.5201334264116
 97
        0
 97
        1
330
F6
 75
     2
 76
     1
 98
        1
 10
0.0
 20
0.0
450
        0
451
        0
460
0.0
461
0.0
452
        0
462
0.0
453
        0
470

  0
SPLINE
  5
F8
330
F0
100
AcDbEntity
  8
レイヤー 1
100
AcDbSpline
210
0.0
220
0.0
230
1.0
 70
    11
 71
     3
 72
    17
 73
    13
 74
     0
 42
0.0000000001
 43
0.0000000001
 40
0.0
 40
0.0
 40
0.0
 40
0.0
 40
1.0
 40
1.0
 40
1.0
 40
2.0
 40
2.0
 40
2.0
 40
3.0
 40
3.0
 40
3.0
 40
4.0
 40
4.0
 40
4.0
 40
4.0
 10
120.2407226261898
 20
-147.8762450802184
 30
0.0
 10
120.2407226261898
 20
-147.8762450802184
 30
0.0
 10
119.988886146218
 20
-147.8762450802184
 30
0.0
 10
119.988886146218
 20
-147.8762450802184
 30
0.0
 10
119.988886146218
 20
-147.8762450802184
 30
0.0
 10
119.988886146218
 20
-147.6244086002466
 30
0.0
 10
119.988886146218
 20
-147.6244086002466
 30
0.0
 10
119.988886146218
 20
-147.6244086002466
 30
0.0
 10
120.2407226261898
 20
-147.6244086002466
 30
0.0
 10
120.2407226261898
 20
-147.6244086002466
 30
0.0
 10
120.2407226261898
 20
-147.6244086002466
 30
0.0
 10
120.2407226261898
 20
-147.8762450802184
 30
0.0
 10
120.2407226261898
 20
-147.8762450802184
 30
0.0
  0
HATCH
  5
F9
330
F0
100
AcDbEntity
  8
レイヤー 1
 62
    18
420
        0
440
 33554687
100
AcDbHatch
 10
0.0
 20
0.0
 30
0.0
210
0.0
220
0.0
230
1.0
  2
SOLID
 70
     1
 71
     1
 91
        1
 92
        1
 93
        1
 72
     4
 94
        3
 73
     0
 74
     0
 95
       17
 96
       13
 40
0.0
 40
0.0
 40
0.0
 40
0.0
 40
1.0
 40
1.0
 40
1.0
 40
2.0
 40
2.0
 40
2.0
 40
3.0
 40
3.0
 40
3.0
 40
4.0
 40
4.0
 40
4.0
 40
4.0
 10
120.2407226261898
 20
-147.8762450802184
 10
120.2407226261898
 20
-147.8762450802184
 10
119.988886146218
 20
-147.8762450802184
 10
119.988886146218
 20
-147.8762450802184
 10
119.988886146218
 20
-147.8762450802184
 10
119.988886146218
 20
-147.6244086002466
 10
119.988886146218
 20
-147.6244086002466
 10
119.988886146218
 20
-147.6244086002466
 10
120.2407226261898
 20
-147.6244086002466
 10
120.2407226261898
 20
-147.6244086002466
 10
120.2407226261898
 20
-147.6244086002466
 10
120.2407226261898
 20
-147.8762450802184
 10
120.2407226261898
 20
-147.8762450802184
 97
        0
 97
        1
330
F8
 75
     2
 76
     1
 98
        1
 10
0.0
 20
0.0
450
        0
451
        0
460
0.0
461
0.0
452
        0
462
0.0
453
        0
470

  0
SPLINE
  5
FA
330
F0
100
AcDbEntity
  8
レイヤー 1
100
AcDbSpline
210
0.0
220
0.0
230
1.0
 70
     9
 71
     3
 72
    53
 73
    49
 74
     0
 42
0.0000000001
 43
0.0000000001
 40
0.0
 40
0.0
 40
0.0
 40
0.0
 40
1.0
 40
1.0
 40
1.0
 40
2.0
 40
2.0
 40
2.0
 40
3.0
 40
3.0
 40
3.0
 40
4.0
 40
4.0
 40
4.0
 40
5.0
 40
5.0
 40
5.0
 40
6.0
 40
6.0
 40
6.0
 40
7.0
 40
7.0
 40
7.0
 40
8.0
 40
8.0
 40
8.0
 40
9.0
 40
9.0
 40
9.0
 40
10.0
 40
10.0
 40
10.0
 40
11.0
 40
11.0
 40
11.0
 40
12.0
 40
12.0
 40
12.0
 40
13.0
 40
13.0
 40
13.0
 40
14.0
 40
14.0
 40
14.0
 40
15.0
 40
15.0
 40
15.0
 40
16.0
 40
16.0
 40
16.0
 40
16.0
 10
120.291365529823
 20
-146.9071397202176
 30
0.0
 10
120.291365529823
 20
-146.9853433877328
 30
0.0
 10
120.2744845619452
 20
-147.0869737045477
 30
0.0
 10
120.2110948050167
 20
-147.1886040213625
 30
0.0
 10
120.1011962590372
 20
-147.3618923242706
 30
0.0
 10
119.9699381210492
 20
-147.3832519162792
 30
0.0
 10
119.8621066323608
 20
-147.402199941448
 30
0.0
 10
119.8621066323608
 20
-147.402199941448
 30
0.0
 10
119.8621066323608
 20
-147.1799912826494
 30
0.0
 10
119.8621066323608
 20
-147.1799912826494
 30
0.0
 10
120.0608886418597
 20
-147.125214264434
 30
0.0
 10
120.0905164630329
 20
-146.9980902410282
 30
0.0
 10
120.0905164630329
 20
-146.9050726629265
 30
0.0
 10
120.0905164630329
 20
-146.7655462957739
 30
0.0
 10
119.9909532035092
 20
-146.6132730753258
 30
0.0
 10
119.7584092582548
 20
-146.6132730753258
 30
0.0
 10
119.5024386637008
 20
-146.6132730753258
 30
0.0
 10
119.4325032253502
 20
-146.7931070596559
 30
0.0
 10
119.4325032253502
 20
-146.9136854016396
 30
0.0
 10
119.4325032253502
 20
-146.9453802801039
 30
0.0
 10
119.4325032253502
 20
-147.0869737045477
 30
0.0
 10
119.5616943060471
 20
-147.1758571680671
 30
0.0
 10
119.5616943060471
 20
-147.1758571680671
 30
0.0
 10
119.5427462808782
 20
-147.3515570378149
 30
0.0
 10
119.5427462808782
 20
-147.3515570378149
 30
0.0
 10
119.5427462808782
 20
-147.3515570378149
 30
0.0
 10
118.6962863201523
 20
-147.2309786958311
 30
0.0
 10
118.6962863201523
 20
-147.2309786958311
 30
0.0
 10
118.6962863201523
 20
-147.2309786958311
 30
0.0
 10
118.6962863201523
 20
-146.4523871161647
 30
0.0
 10
118.6962863201523
 20
-146.4523871161647
 30
0.0
 10
118.6962863201523
 20
-146.4523871161647
 30
0.0
 10
118.8909342150689
 20
-146.4523871161647
 30
0.0
 10
118.8909342150689
 20
-146.4523871161647
 30
0.0
 10
118.8909342150689
 20
-146.4523871161647
 30
0.0
 10
118.8909342150689
 20
-147.0680256793788
 30
0.0
 10
118.8909342150689
 20
-147.0680256793788
 30
0.0
 10
118.8909342150689
 20
-147.0680256793788
 30
0.0
 10
119.3139919406576
 20
-147.1334824935986
 30
0.0
 10
119.3139919406576
 20
-147.1334824935986
 30
0.0
 10
119.2802300049021
 20
-147.0721597939611
 30
0.0
 10
119.2399223877247
 20
-146.9898220118636
 30
0.0
 10
119.2399223877247
 20
-146.871310727171
 30
0.0
 10
119.2399223877247
 20
-146.6174071899081
 30
0.0
 10
119.4263020534767
 20
-146.3803846205229
 30
0.0
 10
119.739461233086
 20
-146.3803846205229
 30
0.0
 10
120.0567545272775
 20
-146.3803846205229
 30
0.0
 10
120.291365529823
 20
-146.6046603366127
 30
0.0
 10
120.291365529823
 20
-146.9071397202176
 30
0.0
  0
HATCH
  5
FB
330
F0
100
AcDbEntity
  8
レイヤー 1
 62
    18
420
        0
440
 33554687
100
AcDbHatch
 10
0.0
 20
0.0
 30
0.0
210
0.0
220
0.0
230
1.0
  2
SOLID
 70
     1
 71
     1
 91
        1
 92
        1
 93
        1
 72
     4
 94
        3
 73
     0
 74
     0
 95
       53
 96
       49
 40
0.0
 40
0.0
 40
0.0
 40
0.0
 40
1.0
 40
1.0
 40
1.0
 40
2.0
 40
2.0
 40
2.0
 40
3.0
 40
3.0
 40
3.0
 40
4.0
 40
4.0
 40
4.0
 40
5.0
 40
5.0
 40
5.0
 40
6.0
 40
6.0
 40
6.0
 40
7.0
 40
7.0
 40
7.0
 40
8.0
 40
8.0
 40
8.0
 40
9.0
 40
9.0
 40
9.0
 40
10.0
 40
10.0
 40
10.0
 40
11.0
 40
11.0
 40
11.0
 40
12.0
 40
12.0
 40
12.0
 40
13.0
 40
13.0
 40
13.0
 40
14.0
 40
14.0
 40
14.0
 40
15.0
 40
15.0
 40
15.0
 40
16.0
 40
16.0
 40
16.0
 40
16.0
 10
120.291365529823
 20
-146.9071397202176
 10
120.291365529823
 20
-146.9853433877328
 10
120.2744845619452
 20
-147.0869737045477
 10
120.2110948050167
 20
-147.1886040213625
 10
120.1011962590372
 20
-147.3618923242706
 10
119.9699381210492
 20
-147.3832519162792
 10
119.8621066323608
 20
-147.402199941448
 10
119.8621066323608
 20
-147.402199941448
 10
119.8621066323608
 20
-147.1799912826494
 10
119.8621066323608
 20
-147.1799912826494
 10
120.0608886418597
 20
-147.125214264434
 10
120.0905164630329
 20
-146.9980902410282
 10
120.0905164630329
 20
-146.9050726629265
 10
120.0905164630329
 20
-146.7655462957739
 10
119.9909532035092
 20
-146.6132730753258
 10
119.7584092582548
 20
-146.6132730753258
 10
119.5024386637008
 20
-146.6132730753258
 10
119.4325032253502
 20
-146.7931070596559
 10
119.4325032253502
 20
-146.9136854016396
 10
119.4325032253502
 20
-146.9453802801039
 10
119.4325032253502
 20
-147.0869737045477
 10
119.5616943060471
 20
-147.1758571680671
 10
119.5616943060471
 20
-147.1758571680671
 10
119.5427462808782
 20
-147.3515570378149
 10
119.5427462808782
 20
-147.3515570378149
 10
119.5427462808782
 20
-147.3515570378149
 10
118.6962863201523
 20
-147.2309786958311
 10
118.6962863201523
 20
-147.2309786958311
 10
118.6962863201523
 20
-147.2309786958311
 10
118.6962863201523
 20
-146.4523871161647
 10
118.6962863201523
 20
-146.4523871161647
 10
118.6962863201523
 20
-146.4523871161647
 10
118.8909342150689
 20
-146.4523871161647
 10
118.8909342150689
 20
-146.4523871161647
 10
118.8909342150689
 20
-146.4523871161647
 10
118.8909342150689
 20
-147.0680256793788
 10
118.8909342150689
 20
-147.0680256793788
 10
118.8909342150689
 20
-147.0680256793788
 10
119.3139919406576
 20
-147.1334824935986
 10
119.3139919406576
 20
-147.1334824935986
 10
119.2802300049021
 20
-147.0721597939611
 10
119.2399223877247
 20
-146.9898220118636
 10
119.2399223877247
 20
-146.871310727171
 10
119.2399223877247
 20
-146.6174071899081
 10
119.4263020534767
 20
-146.3803846205229
 10
119.739461233086
 20
-146.3803846205229
 10
120.0567545272775
 20
-146.3803846205229
 10
120.291365529823
 20
-146.6046603366127
 10
120.291365529823
 20
-146.9071397202176
 97
        0
 97
        1
330
FA
 75
     2
 76
     1
 98
        1
 10
0.0
 20
0.0
450
        0
451
        0
460
0.0
461
0.0
452
        0
462
0.0
453
        0
470

  0
ENDBLK
  5
F3
330
F0
100
AcDbEntity
  8
0
100
AcDbBlockEnd
  0
BLOCK
  5
101
330
FF
100
AcDbEntity
  8
0
100
AcDbBlockBegin
  2
Block_13
 70
     0
 10
0.0
 20
0.0
 30
0.0
  3
Block_13
  1

  0
INSERT
  5
104
330
FF
100
AcDbEntity
  8
レイヤー 1
100
AcDbBlockReference
  2
Block_14
 10
0.0
 20
0.0
 30
0.0
  0
ENDBLK
  5
102
330
FF
100
AcDbEntity
  8
0
100
AcDbBlockEnd
  0
BLOCK
  5
105
330
103
100
AcDbEntity
  8
0
100
AcDbBlockBegin
  2
Block_14
 70
     0
 10
0.0
 20
0.0
 30
0.0
  3
Block_14
  1

  0
SPLINE
  5
107
330
103
100
AcDbEntity
  8
レイヤー 1
100
AcDbSpline
210
0.0
220
0.0
230
1.0
 70
    11
 71
     3
 72
    26
 73
    22
 74
     0
 42
0.0000000001
 43
0.0000000001
 40
0.0
 40
0.0
 40
0.0
 40
0.0
 40
1.0
 40
1.0
 40
1.0
 40
2.0
 40
2.0
 40
2.0
 40
3.0
 40
3.0
 40
3.0
 40
4.0
 40
4.0
 40
4.0
 40
5.0
 40
5.0
 40
5.0
 40
6.0
 40
6.0
 40
6.0
 40
7.0
 40
7.0
 40
7.0
 40
7.0
 10
94.24902748294817
 20
-159.0421440574617
 30
0.0
 10
94.24902748294817
 20
-159.0421440574617
 30
0.0
 10
94.24902748294817
 20
-157.9379909544391
 30
0.0
 10
94.24902748294817
 20
-157.9379909544391
 30
0.0
 10
94.24902748294817
 20
-157.9379909544391
 30
0.0
 10
93.91898733546122
 20
-157.9379909544391
 30
0.0
 10
93.91898733546122
 20
-157.9379909544391
 30
0.0
 10
93.91898733546122
 20
-157.9379909544391
 30
0.0
 10
93.91898733546122
 20
-157.7898518485734
 30
0.0
 10
93.91898733546122
 20
-157.7898518485734
 30
0.0
 10
94.2510945402393
 20
-157.7750379379868
 30
0.0
 10
94.29760332929019
 20
-157.6120849215345
 30
0.0
 10
94.32723115046334
 20
-157.4977077514242
 30
0.0
 10
94.32723115046334
 20
-157.4977077514242
 30
0.0
 10
94.47330319903793
 20
-157.4977077514242
 30
0.0
 10
94.47330319903793
 20
-157.4977077514242
 30
0.0
 10
94.47330319903793
 20
-157.4977077514242
 30
0.0
 10
94.47330319903793
 20
-159.0421440574617
 30
0.0
 10
94.47330319903793
 20
-159.0421440574617
 30
0.0
 10
94.47330319903793
 20
-159.0421440574617
 30
0.0
 10
94.24902748294817
 20
-159.0421440574617
 30
0.0
 10
94.24902748294817
 20
-159.0421440574617
 30
0.0
  0
HATCH
  5
108
330
103
100
AcDbEntity
  8
レイヤー 1
 62
    18
420
        0
440
 33554687
100
AcDbHatch
 10
0.0
 20
0.0
 30
0.0
210
0.0
220
0.0
230
1.0
  2
SOLID
 70
     1
 71
     1
 91
        1
 92
        1
 93
        1
 72
     4
 94
        3
 73
     0
 74
     0
 95
       26
 96
       22
 40
0.0
 40
0.0
 40
0.0
 40
0.0
 40
1.0
 40
1.0
 40
1.0
 40
2.0
 40
2.0
 40
2.0
 40
3.0
 40
3.0
 40
3.0
 40
4.0
 40
4.0
 40
4.0
 40
5.0
 40
5.0
 40
5.0
 40
6.0
 40
6.0
 40
6.0
 40
7.0
 40
7.0
 40
7.0
 40
7.0
 10
94.24902748294817
 20
-159.0421440574617
 10
94.24902748294817
 20
-159.0421440574617
 10
94.24902748294817
 20
-157.9379909544391
 10
94.24902748294817
 20
-157.9379909544391
 10
94.24902748294817
 20
-157.9379909544391
 10
93.91898733546122
 20
-157.9379909544391
 10
93.91898733546122
 20
-157.9379909544391
 10
93.91898733546122
 20
-157.9379909544391
 10
93.91898733546122
 20
-157.7898518485734
 10
93.91898733546122
 20
-157.7898518485734
 10
94.2510945402393
 20
-157.7750379379868
 10
94.29760332929019
 20
-157.6120849215345
 10
94.32723115046334
 20
-157.4977077514242
 10
94.32723115046334
 20
-157.4977077514242
 10
94.47330319903793
 20
-157.4977077514242
 10
94.47330319903793
 20
-157.4977077514242
 10
94.47330319903793
 20
-157.4977077514242
 10
94.47330319903793
 20
-159.0421440574617
 10
94.47330319903793
 20
-159.0421440574617
 10
94.47330319903793
 20
-159.0421440574617
 10
94.24902748294817
 20
-159.0421440574617
 10
94.24902748294817
 20
-159.0421440574617
 97
        0
 97
        1
330
107
 75
     2
 76
     1
 98
        1
 10
0.0
 20
0.0
450
        0
451
        0
460
0.0
461
0.0
452
        0
462
0.0
453
        0
470

  0
SPLINE
  5
109
330
103
100
AcDbEntity
  8
レイヤー 1
100
AcDbSpline
210
0.0
220
0.0
230
1.0
 70
     9
 71
     3
 72
    17
 73
    13
 74
     0
 42
0.0000000001
 43
0.0000000001
 40
0.0
 40
0.0
 40
0.0
 40
0.0
 40
1.0
 40
1.0
 40
1.0
 40
2.0
 40
2.0
 40
2.0
 40
3.0
 40
3.0
 40
3.0
 40
4.0
 40
4.0
 40
4.0
 40
4.0
 10
95.47444794705153
 20
-157.6417127427076
 30
0.0
 10
95.22485077914518
 20
-157.6417127427076
 30
0.0
 10
95.17834199009431
 20
-157.9252441011437
 30
0.0
 10
95.17834199009431
 20
-158.2700981592172
 30
0.0
 10
95.17834199009431
 20
-158.5894585106998
 30
0.0
 10
95.21434323791517
 20
-158.8981390661782
 30
0.0
 10
95.47444794705153
 20
-158.8981390661782
 30
0.0
 10
95.72197805766673
 20
-158.8981390661782
 30
0.0
 10
95.77072615878302
 20
-158.6170192745818
 30
0.0
 10
95.77072615878302
 20
-158.2700981592172
 30
0.0
 10
95.77072615878302
 20
-157.950393298186
 30
0.0
 10
95.732657853671
 20
-157.6417127427076
 30
0.0
 10
95.47444794705153
 20
-157.6417127427076
 30
0.0
  0
SPLINE
  5
10A
330
103
100
AcDbEntity
  8
レイヤー 1
100
AcDbSpline
210
0.0
220
0.0
230
1.0
 70
     9
 71
     3
 72
    29
 73
    25
 74
     0
 42
0.0000000001
 43
0.0000000001
 40
0.0
 40
0.0
 40
0.0
 40
0.0
 40
1.0
 40
1.0
 40
1.0
 40
2.0
 40
2.0
 40
2.0
 40
3.0
 40
3.0
 40
3.0
 40
4.0
 40
4.0
 40
4.0
 40
5.0
 40
5.0
 40
5.0
 40
6.0
 40
6.0
 40
6.0
 40
7.0
 40
7.0
 40
7.0
 40
8.0
 40
8.0
 40
8.0
 40
8.0
 10
95.87218422082363
 20
-158.8643771304228
 30
0.0
 10
95.76435273213531
 20
-159.073838935926
 30
0.0
 10
95.59089217445297
 20
-159.0927869610949
 30
0.0
 10
95.47444794705153
 20
-159.0927869610949
 30
0.0
 10
95.31373424266462
 20
-159.0927869610949
 30
0.0
 10
95.17196856344659
 20
-159.046278172044
 30
0.0
 10
95.07671167327943
 20
-158.8643771304228
 30
0.0
 10
94.97318655394769
 20
-158.6697292355062
 30
0.0
 10
94.95406627400454
 20
-158.432706666121
 30
0.0
 10
94.95406627400454
 20
-158.2700981592172
 30
0.0
 10
94.95406627400454
 20
-158.1260931679337
 30
0.0
 10
94.97094724188228
 20
-157.874256687962
 30
0.0
 10
95.07671167327943
 20
-157.675474678463
 30
0.0
 10
95.18471541674202
 20
-157.4725585543818
 30
0.0
 10
95.34542912112893
 20
-157.4491319050821
 30
0.0
 10
95.47444794705153
 20
-157.4491319050821
 30
0.0
 10
95.63309459414728
 20
-157.4491319050821
 30
0.0
 10
95.77692733065646
 20
-157.4935736368419
 30
0.0
 10
95.87218422082363
 20
-157.675474678463
 30
0.0
 10
95.97157522557308
 20
-157.8680555160885
 30
0.0
 10
95.99482962009851
 20
-158.0964653467606
 30
0.0
 10
95.99482962009851
 20
-158.2700981592172
 30
0.0
 10
95.99482962009851
 20
-158.4413194048341
 30
0.0
 10
95.97381453763849
 20
-158.6717962927973
 30
0.0
 10
95.87218422082363
 20
-158.8643771304228
 30
0.0
  0
HATCH
  5
10B
330
103
100
AcDbEntity
  8
レイヤー 1
 62
    18
420
        0
440
 33554687
100
AcDbHatch
 10
0.0
 20
0.0
 30
0.0
210
0.0
220
0.0
230
1.0
  2
SOLID
 70
     1
 71
     1
 91
        2
 92
        1
 93
        1
 72
     4
 94
        3
 73
     0
 74
     0
 95
       17
 96
       13
 40
0.0
 40
0.0
 40
0.0
 40
0.0
 40
1.0
 40
1.0
 40
1.0
 40
2.0
 40
2.0
 40
2.0
 40
3.0
 40
3.0
 40
3.0
 40
4.0
 40
4.0
 40
4.0
 40
4.0
 10
95.47444794705153
 20
-157.6417127427076
 10
95.22485077914518
 20
-157.6417127427076
 10
95.17834199009431
 20
-157.9252441011437
 10
95.17834199009431
 20
-158.2700981592172
 10
95.17834199009431
 20
-158.5894585106998
 10
95.21434323791517
 20
-158.8981390661782
 10
95.47444794705153
 20
-158.8981390661782
 10
95.72197805766673
 20
-158.8981390661782
 10
95.77072615878302
 20
-158.6170192745818
 10
95.77072615878302
 20
-158.2700981592172
 10
95.77072615878302
 20
-157.950393298186
 10
95.732657853671
 20
-157.6417127427076
 10
95.47444794705153
 20
-157.6417127427076
 97
        0
 97
        1
330
109
 92
        1
 93
        1
 72
     4
 94
        3
 73
     0
 74
     0
 95
       29
 96
       25
 40
0.0
 40
0.0
 40
0.0
 40
0.0
 40
1.0
 40
1.0
 40
1.0
 40
2.0
 40
2.0
 40
2.0
 40
3.0
 40
3.0
 40
3.0
 40
4.0
 40
4.0
 40
4.0
 40
5.0
 40
5.0
 40
5.0
 40
6.0
 40
6.0
 40
6.0
 40
7.0
 40
7.0
 40
7.0
 40
8.0
 40
8.0
 40
8.0
 40
8.0
 10
95.87218422082363
 20
-158.8643771304228
 10
95.76435273213531
 20
-159.073838935926
 10
95.59089217445297
 20
-159.0927869610949
 10
95.47444794705153
 20
-159.0927869610949
 10
95.31373424266462
 20
-159.0927869610949
 10
95.17196856344659
 20
-159.046278172044
 10
95.07671167327943
 20
-158.8643771304228
 10
94.97318655394769
 20
-158.6697292355062
 10
94.95406627400454
 20
-158.432706666121
 10
94.95406627400454
 20
-158.2700981592172
 10
94.95406627400454
 20
-158.1260931679337
 10
94.97094724188228
 20
-157.874256687962
 10
95.07671167327943
 20
-157.675474678463
 10
95.18471541674202
 20
-157.4725585543818
 10
95.34542912112893
 20
-157.4491319050821
 10
95.47444794705153
 20
-157.4491319050821
 10
95.63309459414728
 20
-157.4491319050821
 10
95.77692733065646
 20
-157.4935736368419
 10
95.87218422082363
 20
-157.675474678463
 10
95.97157522557308
 20
-157.8680555160885
 10
95.99482962009851
 20
-158.0964653467606
 10
95.99482962009851
 20
-158.2700981592172
 10
95.99482962009851
 20
-158.4413194048341
 10
95.97381453763849
 20
-158.6717962927973
 10
95.87218422082363
 20
-158.8643771304228
 97
        0
 97
        1
330
10A
 75
     2
 76
     1
 98
        1
 10
0.0
 20
0.0
450
        0
451
        0
460
0.0
461
0.0
452
        0
462
0.0
453
        0
470

  0
ENDBLK
  5
106
330
103
100
AcDbEntity
  8
0
100
AcDbBlockEnd
  0
ENDSEC
  0
SECTION
  2
ENTITIES
  0
INSERT
  5
7A
330
70
100
AcDbEntity
  8
レイヤー 1
100
AcDbBlockReference
  2
Block_0
 10
0.0
 20
0.0
 30
0.0
  0
INSERT
  5
A2
330
70
100
AcDbEntity
  8
レイヤー 1
100
AcDbBlockReference
  2
Block_4
 10
0.0
 20
0.0
 30
0.0
  0
SPLINE
  5
AD
330
70
100
AcDbEntity
  8
レイヤー 1
 62
    18
420
        0
370
     9
100
AcDbSpline
210
0.0
220
0.0
230
1.0
 70
     9
 71
     3
 72
    17
 73
    13
 74
     0
 42
0.0000000001
 43
0.0000000001
 40
0.0
 40
0.0
 40
0.0
 40
0.0
 40
1.0
 40
1.0
 40
1.0
 40
2.0
 40
2.0
 40
2.0
 40
3.0
 40
3.0
 40
3.0
 40
4.0
 40
4.0
 40
4.0
 40
4.0
 10
120.9863171442597
 20
-142.0882630061796
 30
0.0
 10
120.9863171442597
 20
-142.0328063409277
 30
0.0
 10
120.9415143676249
 20
-141.9883563420617
 30
0.0
 10
120.8860577023731
 20
-141.9883563420617
 30
0.0
 10
120.83095381489
 20
-141.9883563420617
 30
0.0
 10
120.7861510382553
 20
-142.0328063409277
 30
0.0
 10
120.7861510382553
 20
-142.0882630061796
 30
0.0
 10
120.7861510382553
 20
-142.1437549492083
 30
0.0
 10
120.83095381489
 20
-142.1885224480662
 30
0.0
 10
120.8860577023731
 20
-142.1885224480662
 30
0.0
 10
120.9415143676249
 20
-142.1885224480662
 30
0.0
 10
120.9863171442597
 20
-142.1437549492083
 30
0.0
 10
120.9863171442597
 20
-142.0882630061796
 30
0.0
  0
SPLINE
  5
AE
330
70
100
AcDbEntity
  8
レイヤー 1
 62
    18
420
        0
370
     9
100
AcDbSpline
210
0.0
220
0.0
230
1.0
 70
     9
 71
     3
 72
    17
 73
    13
 74
     0
 42
0.0000000001
 43
0.0000000001
 40
0.0
 40
0.0
 40
0.0
 40
0.0
 40
1.0
 40
1.0
 40
1.0
 40
2.0
 40
2.0
 40
2.0
 40
3.0
 40
3.0
 40
3.0
 40
4.0
 40
4.0
 40
4.0
 40
4.0
 10
120.9863171442597
 20
-154.5884445225586
 30
0.0
 10
120.9863171442597
 20
-154.5329926886884
 30
0.0
 10
120.9415143676249
 20
-154.4881899120536
 30
0.0
 10
120.8860577023731
 20
-154.4881899120536
 30
0.0
 10
120.83095381489
 20
-154.4881899120536
 30
0.0
 10
120.7861510382553
 20
-154.5329926886884
 30
0.0
 10
120.7861510382553
 20
-154.5884445225586
 30
0.0
 10
120.7861510382553
 20
-154.6435885192002
 30
0.0
 10
120.83095381489
 20
-154.6883560180581
 30
0.0
 10
120.8860577023731
 20
-154.6883560180581
 30
0.0
 10
120.9415143676249
 20
-154.6883560180581
 30
0.0
 10
120.9863171442597
 20
-154.6435885192002
 30
0.0
 10
120.9863171442597
 20
-154.5884445225586
 30
0.0
  0
SPLINE
  5
AF
330
70
100
AcDbEntity
  8
レイヤー 1
 62
    18
420
        0
370
     9
100
AcDbSpline
210
0.0
220
0.0
230
1.0
 70
     9
 71
     3
 72
    17
 73
    13
 74
     0
 42
0.0000000001
 43
0.0000000001
 40
0.0
 40
0.0
 40
0.0
 40
0.0
 40
1.0
 40
1.0
 40
1.0
 40
2.0
 40
2.0
 40
2.0
 40
3.0
 40
3.0
 40
3.0
 40
4.0
 40
4.0
 40
4.0
 40
4.0
 10
120.9863171442597
 20
-154.9884287881803
 30
0.0
 10
120.9863171442597
 20
-154.9329721229285
 30
0.0
 10
120.9415143676249
 20
-154.8881693462937
 30
0.0
 10
120.8860577023731
 20
-154.8881693462937
 30
0.0
 10
120.83095381489
 20
-154.8881693462937
 30
0.0
 10
120.7861510382553
 20
-154.9329721229285
 30
0.0
 10
120.7861510382553
 20
-154.9884287881803
 30
0.0
 10
120.7861510382553
 20
-155.0435679534403
 30
0.0
 10
120.83095381489
 20
-155.0883306335452
 30
0.0
 10
120.8860577023731
 20
-155.0883306335452
 30
0.0
 10
120.9415143676249
 20
-155.0883306335452
 30
0.0
 10
120.9863171442597
 20
-155.0435679534403
 30
0.0
 10
120.9863171442597
 20
-154.9884287881803
 30
0.0
  0
SPLINE
  5
B0
330
70
100
AcDbEntity
  8
レイヤー 1
 62
    18
420
        0
370
     9
100
AcDbSpline
210
0.0
220
0.0
230
1.0
 70
     9
 71
     3
 72
    17
 73
    13
 74
     0
 42
0.0000000001
 43
0.0000000001
 40
0.0
 40
0.0
 40
0.0
 40
0.0
 40
1.0
 40
1.0
 40
1.0
 40
2.0
 40
2.0
 40
2.0
 40
3.0
 40
3.0
 40
3.0
 40
4.0
 40
4.0
 40
4.0
 40
4.0
 10
116.9862053018666
 20
-159.688240057167
 30
0.0
 10
116.9862053018666
 20
-159.6331008919071
 30
0.0
 10
116.9414389714054
 20
-159.5883333930492
 30
0.0
 10
116.8862986377488
 20
-159.5883333930492
 30
0.0
 10
116.830841972497
 20
-159.5883333930492
 30
0.0
 10
116.786074473639
 20
-159.6331008919071
 30
0.0
 10
116.786074473639
 20
-159.688240057167
 30
0.0
 10
116.786074473639
 20
-159.7433439446501
 30
0.0
 10
116.830841972497
 20
-159.7881467212849
 30
0.0
 10
116.8862986377488
 20
-159.7881467212849
 30
0.0
 10
116.9414389714054
 20
-159.7881467212849
 30
0.0
 10
116.9862053018666
 20
-159.7433439446501
 30
0.0
 10
116.9862053018666
 20
-159.688240057167
 30
0.0
  0
CIRCLE
  5
B1
330
70
100
AcDbEntity
  8
レイヤー 1
 62
    18
420
        0
370
     9
100
AcDbCircle
 10
89.88592642253859
 20
-159.688240057167
 30
0.0
 40
0.0999066653796162
  0
SPLINE
  5
B2
330
70
100
AcDbEntity
  8
レイヤー 1
 62
    18
420
        0
370
     9
100
AcDbSpline
210
0.0
220
0.0
230
1.0
 70
     9
 71
     3
 72
    17
 73
    13
 74
     0
 42
0.0000000001
 43
0.0000000001
 40
0.0
 40
0.0
 40
0.0
 40
0.0
 40
1.0
 40
1.0
 40
1.0
 40
2.0
 40
2.0
 40
2.0
 40
3.0
 40
3.0
 40
3.0
 40
4.0
 40
4.0
 40
4.0
 40
4.0
 10
88.09656697854121
 20
-142.0882630061796
 30
0.0
 10
88.09656697854121
 20
-142.0328063409277
 30
0.0
 10
88.05176420077481
 20
-141.9883563420617
 30
0.0
 10
87.99666031189957
 20
-141.9883563420617
 30
0.0
 10
87.94152114524683
 20
-141.9883563420617
 30
0.0
 10
87.89675364525795
 20
-142.0328063409277
 30
0.0
 10
87.89675364525795
 20
-142.0882630061796
 30
0.0
 10
87.89675364525795
 20
-142.1437549492083
 30
0.0
 10
87.94152114524683
 20
-142.1885224480662
 30
0.0
 10
87.99666031189957
 20
-142.1885224480662
 30
0.0
 10
88.05176420077481
 20
-142.1885224480662
 30
0.0
 10
88.09656697854121
 20
-142.1437549492083
 30
0.0
 10
88.09656697854121
 20
-142.0882630061796
 30
0.0
  0
CIRCLE
  5
B3
330
70
100
AcDbEntity
  8
レイヤー 1
 62
    18
420
        0
370
     9
100
AcDbCircle
 10
87.99666031189957
 20
-143.1882946447822
 30
0.0
 40
0.0999066653797766
  0
SPLINE
  5
B4
330
70
100
AcDbEntity
  8
レイヤー 1
 62
    18
420
        0
370
     9
100
AcDbSpline
210
0.0
220
0.0
230
1.0
 70
     9
 71
     3
 72
    17
 73
    13
 74
     0
 42
0.0000000001
 43
0.0000000001
 40
0.0
 40
0.0
 40
0.0
 40
0.0
 40
1.0
 40
1.0
 40
1.0
 40
2.0
 40
2.0
 40
2.0
 40
3.0
 40
3.0
 40
3.0
 40
4.0
 40
4.0
 40
4.0
 40
4.0
 10
99.98640980897755
 20
-159.688240057167
 30
0.0
 10
99.98640980897755
 20
-159.6331008919071
 30
0.0
 10
99.94160703121115
 20
-159.5883333930492
 30
0.0
 10
99.88615036455815
 20
-159.5883333930492
 30
0.0
 10
99.83101119790539
 20
-159.5883333930492
 30
0.0
 10
99.78624369791653
 20
-159.6331008919071
 30
0.0
 10
99.78624369791653
 20
-159.688240057167
 30
0.0
 10
99.78624369791653
 20
-159.7433439446501
 30
0.0
 10
99.83101119790539
 20
-159.7881467212849
 30
0.0
 10
99.88615036455815
 20
-159.7881467212849
 30
0.0
 10
99.94160703121115
 20
-159.7881467212849
 30
0.0
 10
99.98640980897755
 20
-159.7433439446501
 30
0.0
 10
99.98640980897755
 20
-159.688240057167
 30
0.0
  0
LINE
  5
B5
330
70
100
AcDbEntity
  8
レイヤー 1
 62
    18
420
        0
370
     9
100
AcDbLine
 10
99.88615036455815
 20
-159.688240057167
 30
0.0
 11
116.8862986377488
 21
-159.688240057167
 31
0.0
  0
LINE
  5
B6
330
70
100
AcDbEntity
  8
レイヤー 1
 62
    18
420
        0
370
     9
100
AcDbLine
 10
116.8862986377488
 20
-157.5281417440455
 30
0.0
 11
116.8862986377488
 21
-160.6883250765896
 31
0.0
  0
INSERT
  5
B8
330
70
100
AcDbEntity
  8
レイヤー 1
100
AcDbBlockReference
  2
Block_5
 10
0.0
 20
0.0
 30
0.0
  0
LINE
  5
C3
330
70
100
AcDbEntity
  8
レイヤー 1
 62
    18
420
        0
370
     9
100
AcDbLine
 10
120.8860577023731
 20
-154.9884287881803
 30
0.0
 11
120.8860577023731
 21
-155.9882009848962
 31
0.0
  0
LINE
  5
C4
330
70
100
AcDbEntity
  8
レイヤー 1
 62
    18
420
        0
370
     9
100
AcDbLine
 10
120.8860577023731
 20
-154.5884445225586
 30
0.0
 11
120.8860577023731
 21
-154.9884287881803
 31
0.0
  0
LINE
  5
C5
330
70
100
AcDbEntity
  8
レイヤー 1
 62
    18
420
        0
370
     9
100
AcDbLine
 10
119.426016350733
 20
-154.5884445225586
 30
0.0
 11
121.8861826768578
 21
-154.5884445225586
 31
0.0
  0
LINE
  5
C6
330
70
100
AcDbEntity
  8
レイヤー 1
 62
    18
420
        0
370
     9
100
AcDbLine
 10
119.426016350733
 20
-154.9884287881803
 30
0.0
 11
121.8861826768578
 21
-154.9884287881803
 31
0.0
  0
INSERT
  5
C8
330
70
100
AcDbEntity
  8
レイヤー 1
100
AcDbBlockReference
  2
Block_7
 10
0.0
 20
0.0
 30
0.0
  0
LINE
  5
D7
330
70
100
AcDbEntity
  8
レイヤー 1
 62
    18
420
        0
370
     9
100
AcDbLine
 10
87.99666031189957
 20
-142.0882630061796
 30
0.0
 11
87.99666031189957
 21
-141.0881733094717
 31
0.0
  0
LINE
  5
D8
330
70
100
AcDbEntity
  8
レイヤー 1
 62
    18
420
        0
370
     9
100
AcDbLine
 10
87.99666031189957
 20
-142.0882630061796
 30
0.0
 11
87.99666031189957
 21
-144.188066841498
 31
0.0
  0
LINE
  5
D9
330
70
100
AcDbEntity
  8
レイヤー 1
 62
    18
420
        0
370
     9
100
AcDbLine
 10
89.45666642264576
 20
-142.0882630061796
 30
0.0
 11
86.99688808992735
 21
-142.0882630061796
 31
0.0
  0
LINE
  5
DA
330
70
100
AcDbEntity
  8
レイヤー 1
 62
    18
420
        0
370
     9
100
AcDbLine
 10
89.45666642264576
 20
-143.1882946447821
 30
0.0
 11
86.99688808992735
 21
-143.1882946447821
 31
0.0
  0
INSERT
  5
DC
330
70
100
AcDbEntity
  8
レイヤー 1
100
AcDbBlockReference
  2
Block_9
 10
0.0
 20
0.0
 30
0.0
  0
LINE
  5
E9
330
70
100
AcDbEntity
  8
レイヤー 1
 62
    18
420
        0
370
     9
100
AcDbLine
 10
120.8860577023731
 20
-142.0882630061796
 30
0.0
 11
120.8860577023731
 21
-154.5884445225586
 31
0.0
  0
LINE
  5
EA
330
70
100
AcDbEntity
  8
レイヤー 1
 62
    18
420
        0
370
     9
100
AcDbLine
 10
103.5262173080922
 20
-142.0882630061796
 30
0.0
 11
121.8861826768578
 21
-142.0882630061796
 31
0.0
  0
LINE
  5
EB
330
70
100
AcDbEntity
  8
レイヤー 1
 62
    18
420
        0
370
     9
100
AcDbLine
 10
119.426016350733
 20
-154.5884445225586
 30
0.0
 11
121.8861826768578
 21
-154.5884445225586
 31
0.0
  0
INSERT
  5
ED
330
70
100
AcDbEntity
  8
レイヤー 1
100
AcDbBlockReference
  2
Block_11
 10
0.0
 20
0.0
 30
0.0
  0
LINE
  5
FC
330
70
100
AcDbEntity
  8
レイヤー 1
 62
    18
420
        0
370
     9
100
AcDbLine
 10
89.8859264225385
 20
-159.688240057167
 30
0.0
 11
99.88615030892702
 21
-159.688240057167
 31
0.0
  0
LINE
  5
FD
330
70
100
AcDbEntity
  8
レイヤー 1
 62
    18
420
        0
370
     9
100
AcDbLine
 10
89.8859264225385
 20
-145.728365135535
 30
0.0
 11
89.8859264225385
 21
-160.6883250765896
 31
0.0
  0
LINE
  5
FE
330
70
100
AcDbEntity
  8
レイヤー 1
 62
    18
420
        0
370
     9
100
AcDbLine
 10
99.88615036455815
 20
-158.2281987055269
 30
0.0
 11
99.88615036455815
 21
-160.6883250765896
 31
0.0
  0
INSERT
  5
100
330
70
100
AcDbEntity
  8
レイヤー 1
100
AcDbBlockReference
  2
Block_13
 10
0.0
 20
0.0
 30
0.0
  0
ENDSEC
  0
SECTION
  2
OBJECTS
  0
DICTIONARY
  5
C
330
0
100
AcDbDictionary
281
     1
  3
ACAD_COLOR
350
63
  3
ACAD_DETAILVIEWSTYLE
350
6A
  3
ACAD_GROUP
350
D
  3
ACAD_LAYOUT
350
62
  3
ACAD_MATERIAL
350
10
  3
ACAD_MLEADERSTYLE
350
66
  3
ACAD_MLINESTYLE
350
5F
  3
ACAD_PLOTSETTINGS
350
61
  3
ACAD_PLOTSTYLENAME
350
E
  3
ACAD_SCALELIST
350
42
  3
ACAD_SECTIONVIEWSTYLE
350
68
  3
ACAD_TABLESTYLE
350
64
  3
ACAD_VISUALSTYLE
350
29
  3
ACDB_RECOMPOSE_DATA
350
114
  3
AcDbVariableDictionary
350
10C
  0
DICTIONARY
  5
63
102
{ACAD_REACTORS
330
C
102
}
330
C
100
AcDbDictionary
281
     1
  0
DICTIONARY
  5
6A
102
{ACAD_REACTORS
330
C
102
}
330
C
100
AcDbDictionary
281
     1
  3
Imperial24
350
6B
  0
DICTIONARY
  5
D
102
{ACAD_REACTORS
330
C
102
}
330
C
100
AcDbDictionary
281
     1
  0
DICTIONARY
  5
62
102
{ACAD_REACTORS
330
C
102
}
330
C
100
AcDbDictionary
281
     1
  3
Layout1
350
6F
  3
Layout2
350
77
  3
Model
350
73
  0
DICTIONARY
  5
10
102
{ACAD_REACTORS
330
C
102
}
330
C
100
AcDbDictionary
281
     1
  3
ByBlock
350
19
  3
ByLayer
350
11
  3
Global
350
21
  0
DICTIONARY
  5
66
102
{ACAD_REACTORS
330
C
102
}
330
C
100
AcDbDictionary
281
     1
  3
Standard
350
67
  0
DICTIONARY
  5
5F
102
{ACAD_REACTORS
330
C
102
}
330
C
100
AcDbDictionary
281
     1
  3
Standard
350
60
  0
DICTIONARY
  5
61
102
{ACAD_REACTORS
330
C
102
}
330
C
100
AcDbDictionary
281
     1
  0
ACDBDICTIONARYWDFLT
  5
E
102
{ACAD_REACTORS
330
C
102
}
330
C
100
AcDbDictionary
281
     1
  3
Normal
350
F
100
AcDbDictionaryWithDefault
340
F
  0
DICTIONARY
  5
42
102
{ACAD_REACTORS
330
C
102
}
330
C
100
AcDbDictionary
281
     1
  3
A0
350
43
  3
A1
350
44
  3
A2
350
45
  3
A3
350
46
  3
A4
350
47
  3
A5
350
48
  3
A6
350
49
  3
A7
350
4A
  3
A8
350
4B
  3
A9
350
4C
  3
B0
350
4D
  3
B1
350
4E
  3
B2
350
4F
  3
B3
350
50
  3
B4
350
51
  3
B5
350
52
  3
B6
350
53
  0
DICTIONARY
  5
68
102
{ACAD_REACTORS
330
C
102
}
330
C
100
AcDbDictionary
281
     1
  3
Imperial24
350
69
  0
DICTIONARY
  5
64
102
{ACAD_REACTORS
330
C
102
}
330
C
100
AcDbDictionary
281
     1
  3
Standard
350
65
  0
DICTIONARY
  5
29
102
{ACAD_REACTORS
330
C
102
}
330
C
100
AcDbDictionary
281
     1
  3
2dWireframe
350
2F
  3
Basic
350
2E
  3
Brighten
350
35
  3
ColorChange
350
39
  3
Conceptual
350
32
  3
Dim
350
34
  3
EdgeColorOff
350
41
  3
Facepattern
350
38
  3
Flat
350
2A
  3
FlatWithEdges
350
2B
  3
Gouraud
350
2C
  3
GouraudWithEdges
350
2D
  3
Hidden
350
31
  3
JitterOff
350
3F
  3
Linepattern
350
37
  3
OverhangOff
350
40
  3
Realistic
350
33
  3
Shaded
350
3E
  3
Shaded with edges
350
3D
  3
Shades of Gray
350
3A
  3
Sketchy
350
3B
  3
Thicken
350
36
  3
Wireframe
350
30
  3
X-Ray
350
3C
  0
XRECORD
  5
114
102
{ACAD_REACTORS
330
C
102
}
330
C
100
AcDbXrecord
280
     1
 90
        1
330
65
  0
DICTIONARY
  5
10C
102
{ACAD_REACTORS
330
C
102
}
330
C
100
AcDbDictionary
281
     1
  3
CANNOSCALE
350
111
  3
CMLEADERSTYLE
350
10E
  3
CTABLESTYLE
350
10D
  3
CVIEWDETAILSTYLE
350
10F
  3
CVIEWSECTIONSTYLE
350
110
  0
ACDBDETAILVIEWSTYLE
  5
6B
102
{ACAD_XDICTIONARY
360
149
102
}
102
{ACAD_REACTORS
330
6A
102
}
330
6A
100
AcDbModelDocViewStyle
 70
     0
  3
Imperial24
290
     0
100
AcDbDetailViewStyle
 70
     0
 71
     0
 90
        3
 71
     1
340
55
 62
   256
 40
0.24
340
0
 62
   256
 40
0.24
300

 40
0.36
280
     3
 71
     2
340
5D
 90
       25
 62
   256
 71
     3
340
55
 62
   256
 40
0.24
 90
        1
 40
0.75
 90
        1
300
%<\AcVar ViewType \f "%tc1">% %<\AcVar ViewDetailId>%\PSCALE %<\AcVar ViewScale \f "%sn">%
 71
     4
340
5D
 90
       25
 62
   256
340
5D
 90
       25
 62
   256
280
     0
  0
LAYOUT
  5
6F
102
{ACAD_REACTORS
330
62
102
}
330
62
100
AcDbPlotSettings
  1

  2

  4

  6

 40
0.0
 41
0.0
 42
0.0
 43
0.0
 44
0.0
 45
0.0
 46
0.0
 47
0.0
 48
0.0
 49
0.0
140
0.0
141
0.0
142
1.0
143
1.0
 70
   688
 72
     0
 73
     0
 74
     5
  7

 75
    16
147
1.0
 76
     0
 77
     2
 78
   300
148
0.0
149
0.0
100
AcDbLayout
  1
Layout1
 70
     1
 71
     1
 10
0.0
 20
0.0
 11
12.0
 21
9.0
 12
0.0
 22
0.0
 32
0.0
 14
0.0
 24
0.0
 34
0.0
 15
0.0
 25
0.0
 35
0.0
146
0.0
 13
0.0
 23
0.0
 33
0.0
 16
1.0
 26
0.0
 36
0.0
 17
0.0
 27
1.0
 37
0.0
 76
     0
330
6C
  0
LAYOUT
  5
77
102
{ACAD_REACTORS
330
62
102
}
330
62
100
AcDbPlotSettings
  1

  2

  4

  6

 40
0.0
 41
0.0
 42
0.0
 43
0.0
 44
0.0
 45
0.0
 46
0.0
 47
0.0
 48
0.0
 49
0.0
140
0.0
141
0.0
142
1.0
143
1.0
 70
   688
 72
     0
 73
     0
 74
     5
  7

 75
    16
147
1.0
 76
     0
 77
     2
 78
   300
148
0.0
149
0.0
100
AcDbLayout
  1
Layout2
 70
     1
 71
     2
 10
0.0
 20
0.0
 11
12.0
 21
9.0
 12
0.0
 22
0.0
 32
0.0
 14
0.0
 24
0.0
 34
0.0
 15
0.0
 25
0.0
 35
0.0
146
0.0
 13
0.0
 23
0.0
 33
0.0
 16
1.0
 26
0.0
 36
0.0
 17
0.0
 27
1.0
 37
0.0
 76
     0
330
74
  0
LAYOUT
  5
73
102
{ACAD_REACTORS
330
62
102
}
330
62
100
AcDbPlotSettings
  1

  2

  4

  6

 40
0.0
 41
0.0
 42
0.0
 43
0.0
 44
0.0
 45
0.0
 46
0.0
 47
0.0
 48
0.0
 49
0.0
140
0.0
141
0.0
142
1.0
143
1.0
 70
  1712
 72
     0
 73
     0
 74
     0
  7

 75
     0
147
1.0
 76
     0
 77
     2
 78
   300
148
0.0
149
0.0
100
AcDbLayout
  1
Model
 70
     1
 71
     0
 10
0.0
 20
0.0
 11
12.0
 21
9.0
 12
0.0
 22
0.0
 32
0.0
 14
0.0
 24
0.0
 34
0.0
 15
0.0
 25
0.0
 35
0.0
146
0.0
 13
0.0
 23
0.0
 33
0.0
 16
1.0
 26
0.0
 36
0.0
 17
0.0
 27
1.0
 37
0.0
 76
     0
330
70
  0
MATERIAL
  5
19
102
{ACAD_XDICTIONARY
360
1A
102
}
102
{ACAD_REACTORS
330
10
102
}
330
10
100
AcDbMaterial
  1
ByBlock
 72
     0
 43
0.0208333333333333
 43
0.0
 43
0.0
 43
0.0
 43
0.0
 43
0.0208333333333333
 43
0.0
 43
0.0
 43
0.0
 43
0.0
 43
1.0
 43
0.0
 43
0.0
 43
0.0
 43
0.0
 43
1.0
 77
     0
 47
0.0208333333333333
 47
0.0
 47
0.0
 47
0.0
 47
0.0
 47
0.0208333333333333
 47
0.0
 47
0.0
 47
0.0
 47
0.0
 47
1.0
 47
0.0
 47
0.0
 47
0.0
 47
0.0
 47
1.0
171
     0
 49
0.0208333333333333
 49
0.0
 49
0.0
 49
0.0
 49
0.0
 49
0.0208333333333333
 49
0.0
 49
0.0
 49
0.0
 49
0.0
 49
1.0
 49
0.0
 49
0.0
 49
0.0
 49
0.0
 49
1.0
175
     0
142
0.0208333333333333
142
0.0
142
0.0
142
0.0
142
0.0
142
0.0208333333333333
142
0.0
142
0.0
142
0.0
142
0.0
142
1.0
142
0.0
142
0.0
142
0.0
142
0.0
142
1.0
179
     0
144
0.0208333333333333
144
0.0
144
0.0
144
0.0
144
0.0
144
0.0208333333333333
144
0.0
144
0.0
144
0.0
144
0.0
144
1.0
144
0.0
144
0.0
144
0.0
144
0.0
144
1.0
147
0.0208333333333333
147
0.0
147
0.0
147
0.0
147
0.0
147
0.0208333333333333
147
0.0
147
0.0
147
0.0
147
0.0
147
1.0
147
0.0
147
0.0
147
0.0
147
0.0
147
1.0
  0
MATERIAL
  5
11
102
{ACAD_XDICTIONARY
360
12
102
}
102
{ACAD_REACTORS
330
10
102
}
330
10
100
AcDbMaterial
  1
ByLayer
 72
     0
 43
0.0208333333333333
 43
0.0
 43
0.0
 43
0.0
 43
0.0
 43
0.0208333333333333
 43
0.0
 43
0.0
 43
0.0
 43
0.0
 43
1.0
 43
0.0
 43
0.0
 43
0.0
 43
0.0
 43
1.0
 77
     0
 47
0.0208333333333333
 47
0.0
 47
0.0
 47
0.0
 47
0.0
 47
0.0208333333333333
 47
0.0
 47
0.0
 47
0.0
 47
0.0
 47
1.0
 47
0.0
 47
0.0
 47
0.0
 47
0.0
 47
1.0
171
     0
 49
0.0208333333333333
 49
0.0
 49
0.0
 49
0.0
 49
0.0
 49
0.0208333333333333
 49
0.0
 49
0.0
 49
0.0
 49
0.0
 49
1.0
 49
0.0
 49
0.0
 49
0.0
 49
0.0
 49
1.0
175
     0
142
0.0208333333333333
142
0.0
142
0.0
142
0.0
142
0.0
142
0.0208333333333333
142
0.0
142
0.0
142
0.0
142
0.0
142
1.0
142
0.0
142
0.0
142
0.0
142
0.0
142
1.0
179
     0
144
0.0208333333333333
144
0.0
144
0.0
144
0.0
144
0.0
144
0.0208333333333333
144
0.0
144
0.0
144
0.0
144
0.0
144
1.0
144
0.0
144
0.0
144
0.0
144
0.0
144
1.0
147
0.0208333333333333
147
0.0
147
0.0
147
0.0
147
0.0
147
0.0208333333333333
147
0.0
147
0.0
147
0.0
147
0.0
147
1.0
147
0.0
147
0.0
147
0.0
147
0.0
147
1.0
  0
MATERIAL
  5
21
102
{ACAD_XDICTIONARY
360
22
102
}
102
{ACAD_REACTORS
330
10
102
}
330
10
100
AcDbMaterial
  1
Global
 72
     0
 43
0.0208333333333333
 43
0.0
 43
0.0
 43
0.0
 43
0.0
 43
0.0208333333333333
 43
0.0
 43
0.0
 43
0.0
 43
0.0
 43
1.0
 43
0.0
 43
0.0
 43
0.0
 43
0.0
 43
1.0
 77
     0
 47
0.0208333333333333
 47
0.0
 47
0.0
 47
0.0
 47
0.0
 47
0.0208333333333333
 47
0.0
 47
0.0
 47
0.0
 47
0.0
 47
1.0
 47
0.0
 47
0.0
 47
0.0
 47
0.0
 47
1.0
171
     0
 49
0.0208333333333333
 49
0.0
 49
0.0
 49
0.0
 49
0.0
 49
0.0208333333333333
 49
0.0
 49
0.0
 49
0.0
 49
0.0
 49
1.0
 49
0.0
 49
0.0
 49
0.0
 49
0.0
 49
1.0
175
     0
142
0.0208333333333333
142
0.0
142
0.0
142
0.0
142
0.0
142
0.0208333333333333
142
0.0
142
0.0
142
0.0
142
0.0
142
1.0
142
0.0
142
0.0
142
0.0
142
0.0
142
1.0
179
     0
144
0.0208333333333333
144
0.0
144
0.0
144
0.0
144
0.0
144
0.0208333333333333
144
0.0
144
0.0
144
0.0
144
0.0
144
1.0
144
0.0
144
0.0
144
0.0
144
0.0
144
1.0
147
0.0208333333333333
147
0.0
147
0.0
147
0.0
147
0.0
147
0.0208333333333333
147
0.0
147
0.0
147
0.0
147
0.0
147
1.0
147
0.0
147
0.0
147
0.0
147
0.0
147
1.0
  0
MLEADERSTYLE
  5
67
102
{ACAD_XDICTIONARY
360
145
102
}
102
{ACAD_REACTORS
330
66
102
}
330
66
100
AcDbMLeaderStyle
179
     2
170
     2
171
     1
172
     0
 90
        2
 40
0.0
 41
0.0
173
     1
 91
-1056964608
340
5B
 92
       -2
290
     1
 42
0.09
291
     1
 43
0.36
  3
Standard
 44
0.18
300

342
55
174
     1
178
     6
175
     1
176
     0
 93
-1056964608
 45
0.18
292
     0
297
     0
 46
0.18
 94
-1056964608
 47
1.0
 49
1.0
140
1.0
293
     1
141
0.0
294
     1
177
     0
142
1.0
295
     0
296
     0
143
0.125
271
     0
272
     9
273
     9
  0
MLINESTYLE
  5
60
102
{ACAD_REACTORS
330
5F
102
}
330
5F
100
AcDbMlineStyle
  2
STANDARD
 70
     0
  3

 62
   256
 51
90.0
 52
90.0
 71
     2
 49
0.5
 62
   256
  6
BYLAYER
 49
-0.5
 62
   256
  6
BYLAYER
  0
ACDBPLACEHOLDER
  5
F
102
{ACAD_REACTORS
330
E
102
}
330
E
  0
SCALE
  5
43
102
{ACAD_REACTORS
330
42
102
}
330
42
100
AcDbScale
 70
     0
300
1:1
140
1.0
141
1.0
290
     1
  0
SCALE
  5
44
102
{ACAD_REACTORS
330
42
102
}
330
42
100
AcDbScale
 70
     0
300
1/128" = 1'-0"
140
0.0078125
141
12.0
290
     0
  0
SCALE
  5
45
102
{ACAD_REACTORS
330
42
102
}
330
42
100
AcDbScale
 70
     0
300
1/64" = 1'-0"
140
0.015625
141
12.0
290
     0
  0
SCALE
  5
46
102
{ACAD_REACTORS
330
42
102
}
330
42
100
AcDbScale
 70
     0
300
1/32" = 1'-0"
140
0.03125
141
12.0
290
     0
  0
SCALE
  5
47
102
{ACAD_REACTORS
330
42
102
}
330
42
100
AcDbScale
 70
     0
300
1/16" = 1'-0"
140
0.0625
141
12.0
290
     0
  0
SCALE
  5
48
102
{ACAD_REACTORS
330
42
102
}
330
42
100
AcDbScale
 70
     0
300
3/32" = 1'-0"
140
0.09375
141
12.0
290
     0
  0
SCALE
  5
49
102
{ACAD_REACTORS
330
42
102
}
330
42
100
AcDbScale
 70
     0
300
1/8" = 1'-0"
140
0.125
141
12.0
290
     0
  0
SCALE
  5
4A
102
{ACAD_REACTORS
330
42
102
}
330
42
100
AcDbScale
 70
     0
300
3/16" = 1'-0"
140
0.1875
141
12.0
290
     0
  0
SCALE
  5
4B
102
{ACAD_REACTORS
330
42
102
}
330
42
100
AcDbScale
 70
     0
300
1/4" = 1'-0"
140
0.25
141
12.0
290
     0
  0
SCALE
  5
4C
102
{ACAD_REACTORS
330
42
102
}
330
42
100
AcDbScale
 70
     0
300
3/8" = 1'-0"
140
0.375
141
12.0
290
     0
  0
SCALE
  5
4D
102
{ACAD_REACTORS
330
42
102
}
330
42
100
AcDbScale
 70
     0
300
1/2" = 1'-0"
140
0.5
141
12.0
290
     0
  0
SCALE
  5
4E
102
{ACAD_REACTORS
330
42
102
}
330
42
100
AcDbScale
 70
     0
300
3/4" = 1'-0"
140
0.75
141
12.0
290
     0
  0
SCALE
  5
4F
102
{ACAD_REACTORS
330
42
102
}
330
42
100
AcDbScale
 70
     0
300
1" = 1'-0"
140
1.0
141
12.0
290
     0
  0
SCALE
  5
50
102
{ACAD_REACTORS
330
42
102
}
330
42
100
AcDbScale
 70
     0
300
1-1/2" = 1'-0"
140
1.5
141
12.0
290
     0
  0
SCALE
  5
51
102
{ACAD_REACTORS
330
42
102
}
330
42
100
AcDbScale
 70
     0
300
3" = 1'-0"
140
3.0
141
12.0
290
     0
  0
SCALE
  5
52
102
{ACAD_REACTORS
330
42
102
}
330
42
100
AcDbScale
 70
     0
300
6" = 1'-0"
140
6.0
141
12.0
290
     0
  0
SCALE
  5
53
102
{ACAD_REACTORS
330
42
102
}
330
42
100
AcDbScale
 70
     0
300
1'-0" = 1'-0"
140
12.0
141
12.0
290
     0
  0
ACDBSECTIONVIEWSTYLE
  5
69
102
{ACAD_XDICTIONARY
360
147
102
}
102
{ACAD_REACTORS
330
68
102
}
330
68
100
AcDbModelDocViewStyle
 70
     0
  3
Imperial24
290
     0
100
AcDbSectionViewStyle
 70
     0
 71
     0
 90
       78
 71
     1
340
55
 62
   256
 40
0.24
340
0
340
0
 62
   256
 40
0.24
300
I, O, Q, S, X, Z
 40
0.48
 90
        3
 40
0.18
 90
        1
 71
     2
340
5D
 90
       25
 62
   256
340
5D
 90
       50
 62
   256
 40
0.24
 40
0.0
 40
0.24
 71
     3
340
55
 62
   256
 40
0.24
 90
        1
 40
0.75
 90
        1
300
%<\AcVar ViewType \f "%tc1">% %<\AcVar ViewSectionStartId>%-%<\AcVar ViewSectionEndId>%\PSCALE %<\AcVar ViewScale \f "%sn">%
 71
     4
 62
   256
 62
   257
300
ANSI31
 40
1.0
 90
        0
290
     0
290
     0
 90
        6
 40
0.0
 40
1.570796326794896
 40
0.2617993877991494
 40
1.308996938995747
 40
-0.2617993877991494
 40
1.832595714594046
  0
TABLESTYLE
  5
65
102
{ACAD_XDICTIONARY
360
112
102
}
102
{ACAD_REACTORS
330
64
102
}
330
64
100
AcDbTableStyle
280
     0
  3
Standard
 70
     0
 71
     0
 40
0.06
 41
0.06
280
     0
281
     0
  7
Standard
140
0.18
170
     2
 62
     0
 63
     7
283
     0
 90
      512
 91
        0
  1

274
    -2
284
     1
 64
     0
275
    -2
285
     1
 65
     0
276
    -2
286
     1
 66
     0
277
    -2
287
     1
 67
     0
278
    -2
288
     1
 68
     0
279
    -2
289
     1
 69
     0
  7
Standard
140
0.25
170
     5
 62
     0
 63
     7
283
     0
 90
      512
 91
        0
  1

274
    -2
284
     1
 64
     0
275
    -2
285
     1
 65
     0
276
    -2
286
     1
 66
     0
277
    -2
287
     1
 67
     0
278
    -2
288
     1
 68
     0
279
    -2
289
     1
 69
     0
  7
Standard
140
0.18
170
     5
 62
     0
 63
     7
283
     0
 90
      512
 91
        0
  1

274
    -2
284
     1
 64
     0
275
    -2
285
     1
 65
     0
276
    -2
286
     1
 66
     0
277
    -2
287
     1
 67
     0
278
    -2
288
     1
 68
     0
279
    -2
289
     1
 69
     0
  0
VISUALSTYLE
  5
2F
102
{ACAD_XDICTIONARY
360
11F
102
}
102
{ACAD_REACTORS
330
29
102
}
330
29
100
AcDbVisualStyle
  2
2dWireframe
 70
     4
177
     2
291
     0
 71
     0
176
     1
 72
     2
176
     1
 73
     0
176
     1
 90
        0
176
     1
 40
0.6
176
     1
 41
30.0
176
     1
 63
     7
421
 16777215
176
     1
 74
     1
176
     1
 91
        4
176
     1
 64
     7
176
     1
 65
   257
176
     1
 75
     1
176
     1
175
     1
176
     1
 42
1.0
176
     1
 92
        0
176
     1
 66
   257
176
     1
 43
1.0
176
     1
 76
     1
176
     1
 77
     6
176
     1
 78
     2
176
     1
 67
     7
176
     1
 79
     5
176
     1
170
     0
176
     1
171
     0
176
     1
290
     0
176
     1
 93
        1
176
     1
 44
0.0
176
     1
173
     0
176
     1
1001
ACAD
1000
AcDbSavedByObjectVersion
1070
     0
  0
VISUALSTYLE
  5
2E
102
{ACAD_XDICTIONARY
360
11D
102
}
102
{ACAD_REACTORS
330
29
102
}
330
29
100
AcDbVisualStyle
  2
Basic
 70
     7
177
     2
291
     1
 71
     1
176
     1
 72
     0
176
     1
 73
     1
176
     1
 90
        0
176
     1
 40
0.6
176
     1
 41
30.0
176
     1
 63
     7
421
 16777215
176
     1
 74
     0
176
     1
 91
        4
176
     1
 64
     7
176
     1
 65
   257
176
     1
 75
     1
176
     1
175
     1
176
     1
 42
1.0
176
     1
 92
        8
176
     1
 66
     7
176
     1
 43
1.0
176
     1
 76
     1
176
     1
 77
     6
176
     1
 78
     2
176
     1
 67
     7
176
     1
 79
     5
176
     1
170
     0
176
     1
171
     0
176
     1
290
     0
176
     1
 93
        1
176
     1
 44
0.0
176
     1
173
     0
176
     1
1001
ACAD
1000
AcDbSavedByObjectVersion
1070
     0
  0
VISUALSTYLE
  5
35
102
{ACAD_XDICTIONARY
360
12B
102
}
102
{ACAD_REACTORS
330
29
102
}
330
29
100
AcDbVisualStyle
  2
Brighten
 70
    12
177
     2
291
     1
 71
     2
176
     1
 72
     2
176
     1
 73
     0
176
     1
 90
        0
176
     1
 40
0.6
176
     1
 41
30.0
176
     1
 63
     7
421
 16777215
176
     1
 74
     1
176
     1
 91
        4
176
     1
 64
     7
176
     1
 65
   257
176
     1
 75
     1
176
     1
175
     1
176
     1
 42
1.0
176
     1
 92
        8
176
     1
 66
     7
176
     1
 43
1.0
176
     1
 76
     1
176
     1
 77
     6
176
     1
 78
     2
176
     1
 67
     7
176
     1
 79
     5
176
     1
170
     0
176
     1
171
     0
176
     1
290
     0
176
     1
 93
        1
176
     1
 44
50.0
176
     1
173
     0
176
     1
1001
ACAD
1000
AcDbSavedByObjectVersion
1070
     0
  0
VISUALSTYLE
  5
39
102
{ACAD_XDICTIONARY
360
133
102
}
102
{ACAD_REACTORS
330
29
102
}
330
29
100
AcDbVisualStyle
  2
ColorChange
 70
    16
177
     2
291
     1
 71
     2
176
     1
 72
     2
176
     1
 73
     3
176
     1
 90
        0
176
     1
 40
0.6
176
     1
 41
30.0
176
     1
 63
     8
421
  8421504
176
     1
 74
     1
176
     1
 91
        4
176
     1
 64
     7
176
     1
 65
   257
176
     1
 75
     1
176
     1
175
     1
176
     1
 42
1.0
176
     1
 92
        8
176
     1
 66
     8
424
  8421504
176
     1
 43
1.0
176
     1
 76
     1
176
     1
 77
     6
176
     1
 78
     2
176
     1
 67
     7
176
     1
 79
     5
176
     1
170
     0
176
     1
171
     0
176
     1
290
     0
176
     1
 93
        1
176
     1
 44
0.0
176
     1
173
     0
176
     1
1001
ACAD
1000
AcDbSavedByObjectVersion
1070
     0
  0
VISUALSTYLE
  5
32
102
{ACAD_XDICTIONARY
360
125
102
}
102
{ACAD_REACTORS
330
29
102
}
330
29
100
AcDbVisualStyle
  2
Conceptual
 70
     9
177
     2
291
     0
 71
     3
176
     1
 72
     2
176
     1
 73
     0
176
     1
 90
        0
176
     1
 40
0.6
176
     1
 41
30.0
176
     1
 63
     7
421
 16777215
176
     1
 74
     2
176
     1
 91
        2
176
     1
 64
     7
176
     1
 65
   257
176
     1
 75
     1
176
     1
175
     1
176
     1
 42
179.0
176
     1
 92
        8
176
     1
 66
     7
176
     1
 43
1.0
176
     1
 76
     1
176
     1
 77
     6
176
     1
 78
     2
176
     1
 67
     7
176
     1
 79
     3
176
     1
170
     0
176
     1
171
     0
176
     1
290
     0
176
     1
 93
        1
176
     1
 44
0.0
176
     1
173
     0
176
     1
1001
ACAD
1000
AcDbSavedByObjectVersion
1070
     0
  0
VISUALSTYLE
  5
34
102
{ACAD_XDICTIONARY
360
129
102
}
102
{ACAD_REACTORS
330
29
102
}
330
29
100
AcDbVisualStyle
  2
Dim
 70
    11
177
     2
291
     1
 71
     2
176
     1
 72
     2
176
     1
 73
     0
176
     1
 90
        0
176
     1
 40
0.6
176
     1
 41
30.0
176
     1
 63
     7
421
 16777215
176
     1
 74
     1
176
     1
 91
        4
176
     1
 64
     7
176
     1
 65
   257
176
     1
 75
     1
176
     1
175
     1
176
     1
 42
1.0
176
     1
 92
        8
176
     1
 66
     7
176
     1
 43
1.0
176
     1
 76
     1
176
     1
 77
     6
176
     1
 78
     2
176
     1
 67
     7
176
     1
 79
     5
176
     1
170
     0
176
     1
171
     0
176
     1
290
     0
176
     1
 93
        1
176
     1
 44
-50.0
176
     1
173
     0
176
     1
1001
ACAD
1000
AcDbSavedByObjectVersion
1070
     0
  0
VISUALSTYLE
  5
41
102
{ACAD_XDICTIONARY
360
143
102
}
102
{ACAD_REACTORS
330
29
102
}
330
29
100
AcDbVisualStyle
  2
EdgeColorOff
 70
    22
177
     2
291
     1
 71
     2
176
     0
 72
     2
176
     0
 73
     0
176
     0
 90
        0
176
     0
 40
0.6
176
     0
 41
30.0
176
     0
 63
     7
421
 16777215
176
     0
 74
     1
176
     0
 91
        4
176
     0
 64
     7
176
     0
 65
   257
176
     0
 75
     1
176
     0
175
     1
176
     0
 42
1.0
176
     0
 92
        8
176
     2
 66
     7
176
     0
 43
1.0
176
     0
 76
     1
176
     0
 77
     6
176
     0
 78
     2
176
     0
 67
     7
176
     0
 79
     5
176
     0
170
     0
176
     0
171
     0
176
     0
290
     0
176
     0
 93
        1
176
     0
 44
0.0
176
     0
173
     0
176
     0
1001
ACAD
1000
AcDbSavedByObjectVersion
1070
     0
  0
VISUALSTYLE
  5
38
102
{ACAD_XDICTIONARY
360
131
102
}
102
{ACAD_REACTORS
330
29
102
}
330
29
100
AcDbVisualStyle
  2
Facepattern
 70
    15
177
     2
291
     1
 71
     2
176
     1
 72
     2
176
     1
 73
     0
176
     1
 90
        0
176
     1
 40
0.6
176
     1
 41
30.0
176
     1
 63
     7
421
 16777215
176
     1
 74
     1
176
     1
 91
        4
176
     1
 64
     7
176
     1
 65
   257
176
     1
 75
     1
176
     1
175
     1
176
     1
 42
1.0
176
     1
 92
        8
176
     1
 66
     7
176
     1
 43
1.0
176
     1
 76
     1
176
     1
 77
     6
176
     1
 78
     2
176
     1
 67
     7
176
     1
 79
     5
176
     1
170
     0
176
     1
171
     0
176
     1
290
     0
176
     1
 93
        1
176
     1
 44
0.0
176
     1
173
     0
176
     1
1001
ACAD
1000
AcDbSavedByObjectVersion
1070
     0
  0
VISUALSTYLE
  5
2A
102
{ACAD_XDICTIONARY
360
115
102
}
102
{ACAD_REACTORS
330
29
102
}
330
29
100
AcDbVisualStyle
  2
Flat
 70
     0
177
     2
291
     1
 71
     2
176
     1
 72
     1
176
     1
 73
     1
176
     1
 90
        2
176
     1
 40
0.6
176
     1
 41
30.0
176
     1
 63
     7
421
 16777215
176
     1
 74
     0
176
     1
 91
        0
176
     1
 64
     7
176
     1
 65
   257
176
     1
 75
     1
176
     1
175
     1
176
     1
 42
1.0
176
     1
 92
        8
176
     1
 66
     7
176
     1
 43
1.0
176
     1
 76
     1
176
     1
 77
     6
176
     1
 78
     2
176
     1
 67
     7
176
     1
 79
     5
176
     1
170
     0
176
     1
171
     0
176
     1
290
     0
176
     1
 93
       13
176
     1
 44
0.0
176
     1
173
     0
176
     1
1001
ACAD
1000
AcDbSavedByObjectVersion
1070
     0
  0
VISUALSTYLE
  5
2B
102
{ACAD_XDICTIONARY
360
117
102
}
102
{ACAD_REACTORS
330
29
102
}
330
29
100
AcDbVisualStyle
  2
FlatWithEdges
 70
     1
177
     2
291
     1
 71
     2
176
     1
 72
     1
176
     1
 73
     1
176
     1
 90
        2
176
     1
 40
0.6
176
     1
 41
30.0
176
     1
 63
     7
421
 16777215
176
     1
 74
     1
176
     1
 91
        0
176
     1
 64
     7
176
     1
 65
   257
176
     1
 75
     1
176
     1
175
     1
176
     1
 42
1.0
176
     1
 92
        0
176
     1
 66
   257
176
     1
 43
1.0
176
     1
 76
     1
176
     1
 77
     6
176
     1
 78
     2
176
     1
 67
     7
176
     1
 79
     5
176
     1
170
     0
176
     1
171
     0
176
     1
290
     0
176
     1
 93
       13
176
     1
 44
0.0
176
     1
173
     0
176
     1
1001
ACAD
1000
AcDbSavedByObjectVersion
1070
     0
  0
VISUALSTYLE
  5
2C
102
{ACAD_XDICTIONARY
360
119
102
}
102
{ACAD_REACTORS
330
29
102
}
330
29
100
AcDbVisualStyle
  2
Gouraud
 70
     2
177
     2
291
     1
 71
     2
176
     1
 72
     2
176
     1
 73
     1
176
     1
 90
        2
176
     1
 40
0.6
176
     1
 41
30.0
176
     1
 63
     7
421
 16777215
176
     1
 74
     0
176
     1
 91
        0
176
     1
 64
     7
176
     1
 65
   257
176
     1
 75
     1
176
     1
175
     1
176
     1
 42
1.0
176
     1
 92
        0
176
     1
 66
     7
176
     1
 43
1.0
176
     1
 76
     1
176
     1
 77
     6
176
     1
 78
     2
176
     1
 67
     7
176
     1
 79
     5
176
     1
170
     0
176
     1
171
     0
176
     1
290
     0
176
     1
 93
       13
176
     1
 44
0.0
176
     1
173
     0
176
     1
1001
ACAD
1000
AcDbSavedByObjectVersion
1070
     0
  0
VISUALSTYLE
  5
2D
102
{ACAD_XDICTIONARY
360
11B
102
}
102
{ACAD_REACTORS
330
29
102
}
330
29
100
AcDbVisualStyle
  2
GouraudWithEdges
 70
     3
177
     2
291
     1
 71
     2
176
     1
 72
     2
176
     1
 73
     1
176
     1
 90
        2
176
     1
 40
0.6
176
     1
 41
30.0
176
     1
 63
     7
421
 16777215
176
     1
 74
     1
176
     1
 91
        0
176
     1
 64
     7
176
     1
 65
   257
176
     1
 75
     1
176
     1
175
     1
176
     1
 42
1.0
176
     1
 92
        0
176
     1
 66
   257
176
     1
 43
1.0
176
     1
 76
     1
176
     1
 77
     6
176
     1
 78
     2
176
     1
 67
     7
176
     1
 79
     5
176
     1
170
     0
176
     1
171
     0
176
     1
290
     0
176
     1
 93
       13
176
     1
 44
0.0
176
     1
173
     0
176
     1
1001
ACAD
1000
AcDbSavedByObjectVersion
1070
     0
  0
VISUALSTYLE
  5
31
102
{ACAD_XDICTIONARY
360
123
102
}
102
{ACAD_REACTORS
330
29
102
}
330
29
100
AcDbVisualStyle
  2
Hidden
 70
     6
177
     2
291
     0
 71
     1
176
     1
 72
     2
176
     1
 73
     2
176
     1
 90
        0
176
     1
 40
0.6
176
     1
 41
30.0
176
     1
 63
     7
421
 16777215
176
     1
 74
     2
176
     1
 91
        2
176
     1
 64
     7
176
     1
 65
   257
176
     1
 75
     2
176
     1
175
     1
176
     1
 42
40.0
176
     1
 92
        0
176
     1
 66
   257
176
     1
 43
1.0
176
     1
 76
     1
176
     1
 77
     6
176
     1
 78
     2
176
     1
 67
     7
176
     1
 79
     3
176
     1
170
     0
176
     1
171
     0
176
     1
290
     0
176
     1
 93
        1
176
     1
 44
0.0
176
     1
173
     0
176
     1
1001
ACAD
1000
AcDbSavedByObjectVersion
1070
     0
  0
VISUALSTYLE
  5
3F
102
{ACAD_XDICTIONARY
360
13F
102
}
102
{ACAD_REACTORS
330
29
102
}
330
29
100
AcDbVisualStyle
  2
JitterOff
 70
    20
177
     2
291
     1
 71
     2
176
     0
 72
     2
176
     0
 73
     0
176
     0
 90
        0
176
     0
 40
0.6
176
     0
 41
30.0
176
     0
 63
     7
421
 16777215
176
     0
 74
     1
176
     0
 91
        4
176
     0
 64
     7
176
     0
 65
   257
176
     0
 75
     1
176
     0
175
     1
176
     0
 42
1.0
176
     0
 92
       10
176
     2
 66
     7
176
     0
 43
1.0
176
     0
 76
     1
176
     0
 77
     6
176
     0
 78
     2
176
     0
 67
     7
176
     0
 79
     5
176
     0
170
     0
176
     0
171
     0
176
     0
290
     0
176
     0
 93
        1
176
     0
 44
0.0
176
     0
173
     0
176
     0
1001
ACAD
1000
AcDbSavedByObjectVersion
1070
     0
  0
VISUALSTYLE
  5
37
102
{ACAD_XDICTIONARY
360
12F
102
}
102
{ACAD_REACTORS
330
29
102
}
330
29
100
AcDbVisualStyle
  2
Linepattern
 70
    14
177
     2
291
     1
 71
     2
176
     1
 72
     2
176
     1
 73
     0
176
     1
 90
        0
176
     1
 40
0.6
176
     1
 41
30.0
176
     1
 63
     7
421
 16777215
176
     1
 74
     1
176
     1
 91
        4
176
     1
 64
     7
176
     1
 65
   257
176
     1
 75
     7
176
     1
175
     7
176
     1
 42
1.0
176
     1
 92
        8
176
     1
 66
     7
176
     1
 43
1.0
176
     1
 76
     1
176
     1
 77
     6
176
     1
 78
     2
176
     1
 67
     7
176
     1
 79
     5
176
     1
170
     0
176
     1
171
     0
176
     1
290
     0
176
     1
 93
        1
176
     1
 44
0.0
176
     1
173
     0
176
     1
1001
ACAD
1000
AcDbSavedByObjectVersion
1070
     0
  0
VISUALSTYLE
  5
40
102
{ACAD_XDICTIONARY
360
141
102
}
102
{ACAD_REACTORS
330
29
102
}
330
29
100
AcDbVisualStyle
  2
OverhangOff
 70
    21
177
     2
291
     1
 71
     2
176
     0
 72
     2
176
     0
 73
     0
176
     0
 90
        0
176
     0
 40
0.6
176
     0
 41
30.0
176
     0
 63
     7
421
 16777215
176
     0
 74
     1
176
     0
 91
        4
176
     0
 64
     7
176
     0
 65
   257
176
     0
 75
     1
176
     0
175
     1
176
     0
 42
1.0
176
     0
 92
        9
176
     2
 66
     7
176
     0
 43
1.0
176
     0
 76
     1
176
     0
 77
     6
176
     0
 78
     2
176
     0
 67
     7
176
     0
 79
     5
176
     0
170
     0
176
     0
171
     0
176
     0
290
     0
176
     0
 93
        1
176
     0
 44
0.0
176
     0
173
     0
176
     0
1001
ACAD
1000
AcDbSavedByObjectVersion
1070
     0
  0
VISUALSTYLE
  5
33
102
{ACAD_XDICTIONARY
360
127
102
}
102
{ACAD_REACTORS
330
29
102
}
330
29
100
AcDbVisualStyle
  2
Realistic
 70
     8
177
     2
291
     0
 71
     2
176
     1
 72
     3
176
     1
 73
     0
176
     1
 90
        2
176
     1
 40
0.6
176
     1
 41
30.0
176
     1
 63
     7
421
 16777215
176
     1
 74
     0
176
     1
 91
        0
176
     1
 64
     7
176
     1
 65
   257
176
     1
 75
     1
176
     1
175
     1
176
     1
 42
1.0
176
     1
 92
        8
176
     1
 66
   257
176
     1
 43
1.0
176
     1
 76
     1
176
     1
 77
     6
176
     1
 78
     2
176
     1
 67
     7
176
     1
 79
     3
176
     1
170
     0
176
     1
171
     0
176
     1
290
     0
176
     1
 93
       13
176
     1
 44
0.0
176
     1
173
     0
176
     1
1001
ACAD
1000
AcDbSavedByObjectVersion
1070
     0
  0
VISUALSTYLE
  5
3E
102
{ACAD_XDICTIONARY
360
13D
102
}
102
{ACAD_REACTORS
330
29
102
}
330
29
100
AcDbVisualStyle
  2
Shaded
 70
    27
177
     2
291
     0
 71
     2
176
     1
 72
     2
176
     1
 73
     1
176
     1
 90
        2
176
     1
 40
0.6
176
     1
 41
30.0
176
     1
 63
     7
421
 16777215
176
     1
 74
     0
176
     1
 91
        4
176
     1
 64
     7
176
     1
 65
   257
176
     1
 75
     1
176
     1
175
     1
176
     1
 42
1.0
176
     1
 92
        8
176
     1
 66
   257
176
     1
 43
1.0
176
     1
 76
     1
176
     1
 77
     6
176
     1
 78
     2
176
     1
 67
     8
425
  7895160
176
     1
 79
     3
176
     1
170
     0
176
     1
171
     0
176
     1
290
     0
176
     1
 93
        5
176
     1
 44
0.0
176
     1
173
     0
176
     1
1001
ACAD
1000
AcDbSavedByObjectVersion
1070
     0
  0
VISUALSTYLE
  5
3D
102
{ACAD_XDICTIONARY
360
13B
102
}
102
{ACAD_REACTORS
330
29
102
}
330
29
100
AcDbVisualStyle
  2
Shaded with edges
 70
    26
177
     2
291
     0
 71
     2
176
     1
 72
     2
176
     1
 73
     1
176
     1
 90
        2
176
     1
 40
0.6
176
     1
 41
30.0
176
     1
 63
     7
421
 16777215
176
     1
 74
     1
176
     1
 91
        2
176
     1
 64
     7
176
     1
 65
   257
176
     1
 75
     2
176
     1
175
     1
176
     1
 42
1.0
176
     1
 92
        8
176
     1
 66
   257
176
     1
 43
1.0
176
     1
 76
     1
176
     1
 77
     6
176
     1
 78
     2
176
     1
 67
     7
176
     1
 79
     3
176
     1
170
     0
176
     1
171
     0
176
     1
290
     0
176
     1
 93
        5
176
     1
 44
0.0
176
     1
173
     0
176
     1
1001
ACAD
1000
AcDbSavedByObjectVersion
1070
     0
  0
VISUALSTYLE
  5
3A
102
{ACAD_XDICTIONARY
360
135
102
}
102
{ACAD_REACTORS
330
29
102
}
330
29
100
AcDbVisualStyle
  2
Shades of Gray
 70
    23
177
     2
291
     0
 71
     2
176
     1
 72
     2
176
     1
 73
     3
176
     1
 90
        0
176
     1
 40
0.6
176
     1
 41
30.0
176
     1
 63
     7
421
 16777215
176
     1
 74
     2
176
     1
 91
        2
176
     1
 64
     7
176
     1
 65
     7
176
     1
 75
     1
176
     1
175
     1
176
     1
 42
40.0
176
     1
 92
        8
176
     1
 66
     7
176
     1
 43
1.0
176
     1
 76
     1
176
     1
 77
     6
176
     1
 78
     2
176
     1
 67
     7
176
     1
 79
     3
176
     1
170
     0
176
     1
171
     0
176
     1
290
     0
176
     1
 93
        1
176
     1
 44
0.0
176
     1
173
     0
176
     1
1001
ACAD
1000
AcDbSavedByObjectVersion
1070
     0
  0
VISUALSTYLE
  5
3B
102
{ACAD_XDICTIONARY
360
137
102
}
102
{ACAD_REACTORS
330
29
102
}
330
29
100
AcDbVisualStyle
  2
Sketchy
 70
    24
177
     2
291
     0
 71
     1
176
     1
 72
     2
176
     1
 73
     2
176
     1
 90
        0
176
     1
 40
0.6
176
     1
 41
30.0
176
     1
 63
     7
421
 16777215
176
     1
 74
     2
176
     1
 91
        2
176
     1
 64
     7
176
     1
 65
     7
176
     1
 75
     1
176
     1
175
     1
176
     1
 42
40.0
176
     1
 92
       11
176
     1
 66
     7
176
     1
 43
1.0
176
     1
 76
     1
176
     1
 77
     6
176
     1
 78
     2
176
     1
 67
     7
176
     1
 79
     6
176
     1
170
     0
176
     1
171
     0
176
     1
290
     0
176
     1
 93
        1
176
     1
 44
0.0
176
     1
173
     0
176
     1
1001
ACAD
1000
AcDbSavedByObjectVersion
1070
     0
  0
VISUALSTYLE
  5
36
102
{ACAD_XDICTIONARY
360
12D
102
}
102
{ACAD_REACTORS
330
29
102
}
330
29
100
AcDbVisualStyle
  2
Thicken
 70
    13
177
     2
291
     1
 71
     2
176
     1
 72
     2
176
     1
 73
     0
176
     1
 90
        0
176
     1
 40
0.6
176
     1
 41
30.0
176
     1
 63
     7
421
 16777215
176
     1
 74
     1
176
     1
 91
        4
176
     1
 64
     7
176
     1
 65
   257
176
     1
 75
     1
176
     1
175
     1
176
     1
 42
1.0
176
     1
 92
       12
176
     1
 66
     7
176
     1
 43
1.0
176
     1
 76
     1
176
     1
 77
     6
176
     1
 78
     2
176
     1
 67
     7
176
     1
 79
     5
176
     1
170
     0
176
     1
171
     0
176
     1
290
     0
176
     1
 93
        1
176
     1
 44
0.0
176
     1
173
     0
176
     1
1001
ACAD
1000
AcDbSavedByObjectVersion
1070
     0
  0
VISUALSTYLE
  5
30
102
{ACAD_XDICTIONARY
360
121
102
}
102
{ACAD_REACTORS
330
29
102
}
330
29
100
AcDbVisualStyle
  2
Wireframe
 70
     5
177
     2
291
     0
 71
     0
176
     1
 72
     2
176
     1
 73
     0
176
     1
 90
        0
176
     1
 40
0.6
176
     1
 41
30.0
176
     1
 63
     7
421
 16777215
176
     1
 74
     1
176
     1
 91
        4
176
     1
 64
     7
176
     1
 65
   257
176
     1
 75
     1
176
     1
175
     1
176
     1
 42
1.0
176
     1
 92
        0
176
     1
 66
   257
176
     1
 43
1.0
176
     1
 76
     1
176
     1
 77
     6
176
     1
 78
     2
176
     1
 67
     7
176
     1
 79
     3
176
     1
170
     0
176
     1
171
     0
176
     1
290
     0
176
     1
 93
        1
176
     1
 44
0.0
176
     1
173
     0
176
     1
1001
ACAD
1000
AcDbSavedByObjectVersion
1070
     0
  0
VISUALSTYLE
  5
3C
102
{ACAD_XDICTIONARY
360
139
102
}
102
{ACAD_REACTORS
330
29
102
}
330
29
100
AcDbVisualStyle
  2
X-Ray
 70
    25
177
     2
291
     0
 71
     2
176
     1
 72
     2
176
     1
 73
     1
176
     1
 90
        1
176
     1
 40
0.5
176
     1
 41
30.0
176
     1
 63
     7
421
 16777215
176
     1
 74
     1
176
     1
 91
        0
176
     1
 64
     7
176
     1
 65
   257
176
     1
 75
     1
176
     1
175
     1
176
     1
 42
1.0
176
     1
 92
        8
176
     1
 66
     7
176
     1
 43
1.0
176
     1
 76
     1
176
     1
 77
     6
176
     1
 78
     2
176
     1
 67
     7
176
     1
 79
     3
176
     1
170
     0
176
     1
171
     0
176
     1
290
     0
176
     1
 93
       13
176
     1
 44
0.0
176
     1
173
     0
176
     1
1001
ACAD
1000
AcDbSavedByObjectVersion
1070
     0
  0
DICTIONARYVAR
  5
111
102
{ACAD_REACTORS
330
10C
102
}
330
10C
100
DictionaryVariables
280
     0
  1
1:1
  0
DICTIONARYVAR
  5
10E
102
{ACAD_REACTORS
330
10C
102
}
330
10C
100
DictionaryVariables
280
     0
  1
STANDARD
  0
DICTIONARYVAR
  5
10D
102
{ACAD_REACTORS
330
10C
102
}
330
10C
100
DictionaryVariables
280
     0
  1
STANDARD
  0
DICTIONARYVAR
  5
10F
102
{ACAD_REACTORS
330
10C
102
}
330
10C
100
DictionaryVariables
280
     0
  1
Imperial24
  0
DICTIONARYVAR
  5
110
102
{ACAD_REACTORS
330
10C
102
}
330
10C
100
DictionaryVariables
280
     0
  1
Imperial24
  0
DICTIONARY
  5
149
330
6B
100
AcDbDictionary
280
     1
281
     1
  3
ACAD_XREC_ROUNDTRIP
360
14A
  0
DICTIONARY
  5
1A
330
19
100
AcDbDictionary
280
     1
281
     1
  3
BUMPTILE
360
1C
  3
DIFFUSETILE
360
1B
  3
OPACITYTILE
360
1F
  3
REFLECTIONTILE
360
1E
  3
REFRACTIONTILE
360
20
  3
SPECULARTILE
360
1D
  0
DICTIONARY
  5
12
330
11
100
AcDbDictionary
280
     1
281
     1
  3
BUMPTILE
360
14
  3
DIFFUSETILE
360
13
  3
OPACITYTILE
360
17
  3
REFLECTIONTILE
360
16
  3
REFRACTIONTILE
360
18
  3
SPECULARTILE
360
15
  0
DICTIONARY
  5
22
330
21
100
AcDbDictionary
280
     1
281
     1
  3
BUMPTILE
360
24
  3
DIFFUSETILE
360
23
  3
OPACITYTILE
360
27
  3
REFLECTIONTILE
360
26
  3
REFRACTIONTILE
360
28
  3
SPECULARTILE
360
25
  0
DICTIONARY
  5
145
330
67
100
AcDbDictionary
280
     1
281
     1
  3
ACAD_XREC_ROUNDTRIP
360
146
  0
DICTIONARY
  5
147
330
69
100
AcDbDictionary
280
     1
281
     1
  3
ACAD_XREC_ROUNDTRIP
360
148
  0
DICTIONARY
  5
112
330
65
100
AcDbDictionary
280
     1
281
     1
  3
ACAD_ROUNDTRIP_2008_TABLESTYLE_CELLSTYLEMAP
360
113
  0
DICTIONARY
  5
11F
330
2F
100
AcDbDictionary
280
     1
281
     1
  3
ACAD_XREC_ROUNDTRIP
360
120
  0
DICTIONARY
  5
11D
330
2E
100
AcDbDictionary
280
     1
281
     1
  3
ACAD_XREC_ROUNDTRIP
360
11E
  0
DICTIONARY
  5
12B
330
35
100
AcDbDictionary
280
     1
281
     1
  3
ACAD_XREC_ROUNDTRIP
360
12C
  0
DICTIONARY
  5
133
330
39
100
AcDbDictionary
280
     1
281
     1
  3
ACAD_XREC_ROUNDTRIP
360
134
  0
DICTIONARY
  5
125
330
32
100
AcDbDictionary
280
     1
281
     1
  3
ACAD_XREC_ROUNDTRIP
360
126
  0
DICTIONARY
  5
129
330
34
100
AcDbDictionary
280
     1
281
     1
  3
ACAD_XREC_ROUNDTRIP
360
12A
  0
DICTIONARY
  5
143
330
41
100
AcDbDictionary
280
     1
281
     1
  3
ACAD_XREC_ROUNDTRIP
360
144
  0
DICTIONARY
  5
131
330
38
100
AcDbDictionary
280
     1
281
     1
  3
ACAD_XREC_ROUNDTRIP
360
132
  0
DICTIONARY
  5
115
330
2A
100
AcDbDictionary
280
     1
281
     1
  3
ACAD_XREC_ROUNDTRIP
360
116
  0
DICTIONARY
  5
117
330
2B
100
AcDbDictionary
280
     1
281
     1
  3
ACAD_XREC_ROUNDTRIP
360
118
  0
DICTIONARY
  5
119
330
2C
100
AcDbDictionary
280
     1
281
     1
  3
ACAD_XREC_ROUNDTRIP
360
11A
  0
DICTIONARY
  5
11B
330
2D
100
AcDbDictionary
280
     1
281
     1
  3
ACAD_XREC_ROUNDTRIP
360
11C
  0
DICTIONARY
  5
123
330
31
100
AcDbDictionary
280
     1
281
     1
  3
ACAD_XREC_ROUNDTRIP
360
124
  0
DICTIONARY
  5
13F
330
3F
100
AcDbDictionary
280
     1
281
     1
  3
ACAD_XREC_ROUNDTRIP
360
140
  0
DICTIONARY
  5
12F
330
37
100
AcDbDictionary
280
     1
281
     1
  3
ACAD_XREC_ROUNDTRIP
360
130
  0
DICTIONARY
  5
141
330
40
100
AcDbDictionary
280
     1
281
     1
  3
ACAD_XREC_ROUNDTRIP
360
142
  0
DICTIONARY
  5
127
330
33
100
AcDbDictionary
280
     1
281
     1
  3
ACAD_XREC_ROUNDTRIP
360
128
  0
DICTIONARY
  5
13D
330
3E
100
AcDbDictionary
280
     1
281
     1
  3
ACAD_XREC_ROUNDTRIP
360
13E
  0
DICTIONARY
  5
13B
330
3D
100
AcDbDictionary
280
     1
281
     1
  3
ACAD_XREC_ROUNDTRIP
360
13C
  0
DICTIONARY
  5
135
330
3A
100
AcDbDictionary
280
     1
281
     1
  3
ACAD_XREC_ROUNDTRIP
360
136
  0
DICTIONARY
  5
137
330
3B
100
AcDbDictionary
280
     1
281
     1
  3
ACAD_XREC_ROUNDTRIP
360
138
  0
DICTIONARY
  5
12D
330
36
100
AcDbDictionary
280
     1
281
     1
  3
ACAD_XREC_ROUNDTRIP
360
12E
  0
DICTIONARY
  5
121
330
30
100
AcDbDictionary
280
     1
281
     1
  3
ACAD_XREC_ROUNDTRIP
360
122
  0
DICTIONARY
  5
139
330
3C
100
AcDbDictionary
280
     1
281
     1
  3
ACAD_XREC_ROUNDTRIP
360
13A
  0
XRECORD
  5
14A
102
{ACAD_REACTORS
330
149
102
}
330
149
100
AcDbXrecord
280
     1
102
DISPLAYNAME
  1
Imperial24
102
FLAGS
 90
        0
  0
XRECORD
  5
1C
102
{ACAD_REACTORS
330
1A
102
}
330
1A
100
AcDbXrecord
280
     1
270
     1
271
     1
  0
XRECORD
  5
1B
102
{ACAD_REACTORS
330
1A
102
}
330
1A
100
AcDbXrecord
280
     1
270
     1
271
     1
  0
XRECORD
  5
1F
102
{ACAD_REACTORS
330
1A
102
}
330
1A
100
AcDbXrecord
280
     1
270
     1
271
     1
  0
XRECORD
  5
1E
102
{ACAD_REACTORS
330
1A
102
}
330
1A
100
AcDbXrecord
280
     1
270
     1
271
     1
  0
XRECORD
  5
20
102
{ACAD_REACTORS
330
1A
102
}
330
1A
100
AcDbXrecord
280
     1
270
     1
271
     1
  0
XRECORD
  5
1D
102
{ACAD_REACTORS
330
1A
102
}
330
1A
100
AcDbXrecord
280
     1
270
     1
271
     1
  0
XRECORD
  5
14
102
{ACAD_REACTORS
330
12
102
}
330
12
100
AcDbXrecord
280
     1
270
     1
271
     1
  0
XRECORD
  5
13
102
{ACAD_REACTORS
330
12
102
}
330
12
100
AcDbXrecord
280
     1
270
     1
271
     1
  0
XRECORD
  5
17
102
{ACAD_REACTORS
330
12
102
}
330
12
100
AcDbXrecord
280
     1
270
     1
271
     1
  0
XRECORD
  5
16
102
{ACAD_REACTORS
330
12
102
}
330
12
100
AcDbXrecord
280
     1
270
     1
271
     1
  0
XRECORD
  5
18
102
{ACAD_REACTORS
330
12
102
}
330
12
100
AcDbXrecord
280
     1
270
     1
271
     1
  0
XRECORD
  5
15
102
{ACAD_REACTORS
330
12
102
}
330
12
100
AcDbXrecord
280
     1
270
     1
271
     1
  0
XRECORD
  5
24
102
{ACAD_REACTORS
330
22
102
}
330
22
100
AcDbXrecord
280
     1
270
     1
271
     1
  0
XRECORD
  5
23
102
{ACAD_REACTORS
330
22
102
}
330
22
100
AcDbXrecord
280
     1
270
     1
271
     1
  0
XRECORD
  5
27
102
{ACAD_REACTORS
330
22
102
}
330
22
100
AcDbXrecord
280
     1
270
     1
271
     1
  0
XRECORD
  5
26
102
{ACAD_REACTORS
330
22
102
}
330
22
100
AcDbXrecord
280
     1
270
     1
271
     1
  0
XRECORD
  5
28
102
{ACAD_REACTORS
330
22
102
}
330
22
100
AcDbXrecord
280
     1
270
     1
271
     1
  0
XRECORD
  5
25
102
{ACAD_REACTORS
330
22
102
}
330
22
100
AcDbXrecord
280
     1
270
     1
271
     1
  0
XRECORD
  5
146
102
{ACAD_REACTORS
330
145
102
}
330
145
100
AcDbXrecord
280
     1
102
ACAD_ROUNDTRIP_2012_MLEADER_STYLE
298
     1
  0
XRECORD
  5
148
102
{ACAD_REACTORS
330
147
102
}
330
147
100
AcDbXrecord
280
     1
102
DISPLAYNAME
  1
Imperial24
102
FLAGS
 90
        0
  0
CELLSTYLEMAP
  5
113
102
{ACAD_REACTORS
330
112
102
}
330
112
100
AcDbCellStyleMap
 90
        3
300
CELLSTYLE
  1
TABLEFORMAT_BEGIN
 90
        5
170
     1
 91
        0
 92
    32768
 62
   257
 93
        1
300
CONTENTFORMAT
  1
CONTENTFORMAT_BEGIN
 90
        0
 91
        0
 92
      512
 93
        0
300

 40
0.0
140
1.0
 94
        5
 62
     0
340
55
144
0.25
309
CONTENTFORMAT_END
171
     0
 94
        0
309
TABLEFORMAT_END
  1
CELLSTYLE_BEGIN
 90
        1
 91
        1
300
_TITLE
309
CELLSTYLE_END
300
CELLSTYLE
  1
TABLEFORMAT_BEGIN
 90
        5
170
     1
 91
        0
 92
        0
 62
   257
 93
        1
300
CONTENTFORMAT
  1
CONTENTFORMAT_BEGIN
 90
        0
 91
        0
 92
      512
 93
        0
300

 40
0.0
140
1.0
 94
        5
 62
     0
340
55
144
0.18
309
CONTENTFORMAT_END
171
     0
 94
        0
309
TABLEFORMAT_END
  1
CELLSTYLE_BEGIN
 90
        2
 91
        1
300
_HEADER
309
CELLSTYLE_END
300
CELLSTYLE
  1
TABLEFORMAT_BEGIN
 90
        5
170
     1
 91
        0
 92
        0
 62
   257
 93
        1
300
CONTENTFORMAT
  1
CONTENTFORMAT_BEGIN
 90
        0
 91
        0
 92
      512
 93
        0
300

 40
0.0
140
1.0
 94
        2
 62
     0
340
55
144
0.18
309
CONTENTFORMAT_END
171
     0
 94
        0
309
TABLEFORMAT_END
  1
CELLSTYLE_BEGIN
 90
        3
 91
        2
300
_DATA
309
CELLSTYLE_END
  0
XRECORD
  5
120
102
{ACAD_REACTORS
330
11F
102
}
330
11F
100
AcDbXrecord
280
     1
102
RTVSPost2010Prop28
280
     1
102
RTVSPost2010PropOp28
 70
     1
102
RTVSPost2010Prop29
280
     1
102
RTVSPost2010PropOp29
 70
     1
102
RTVSPost2010Prop30
280
     0
102
RTVSPost2010PropOp30
 70
     1
102
RTVSPost2010Prop31
280
     0
102
RTVSPost2010PropOp31
 70
     1
102
RTVSPost2010Prop32
280
     0
102
RTVSPost2010PropOp32
 70
     1
102
RTVSPost2010Prop33
280
     0
102
RTVSPost2010PropOp33
 70
     1
102
RTVSPost2010Prop34
280
     0
102
RTVSPost2010PropOp34
 70
     1
102
RTVSPost2010Prop35
280
     0
102
RTVSPost2010PropOp35
 70
     1
102
RTVSPost2010Prop36
280
     0
102
RTVSPost2010PropOp36
 70
     1
102
RTVSPost2010Prop37
 90
       50
102
RTVSPost2010PropOp37
 70
     1
102
RTVSPost2010Prop38
140
0.0
102
RTVSPost2010PropOp38
 70
     1
102
RTVSPost2010Prop39
140
1.0
102
RTVSPost2010PropOp39
 70
     1
102
RTVSPost2010Prop40
 90
        0
102
RTVSPost2010PropOp40
 70
     1
102
RTVSPost2010Prop41ColorIndex
 90
       18
102
RTVSPost2010Prop41ColorRGB
 90
        0
102
RTVSPost2010PropOp41
 70
     1
102
RTVSPost2010Prop42
 90
       50
102
RTVSPost2010PropOp42
 70
     1
102
RTVSPost2010Prop43
 90
        3
102
RTVSPost2010PropOp43
 70
     1
102
RTVSPost2010Prop44ColorIndex
 90
        5
102
RTVSPost2010Prop44ColorRGB
 90
      255
102
RTVSPost2010PropOp44
 70
     1
102
RTVSPost2010Prop45
280
     0
102
RTVSPost2010PropOp45
 70
     1
102
RTVSPost2010Prop46
 90
       50
102
RTVSPost2010PropOp46
 70
     1
102
RTVSPost2010Prop47
 90
       50
102
RTVSPost2010PropOp47
 70
     1
102
RTVSPost2010Prop48
 90
       50
102
RTVSPost2010PropOp48
 70
     1
102
RTVSPost2010Prop49
280
     0
102
RTVSPost2010PropOp49
 70
     1
102
RTVSPost2010Prop50
 90
       50
102
RTVSPost2010PropOp50
 70
     1
102
RTVSPost2010Prop51ColorIndex
 90
      256
102
RTVSPost2010Prop51ColorRGB
 90
-16777216
102
RTVSPost2010PropOp51
 70
     0
102
RTVSPost2010Prop52
140
1.0
102
RTVSPost2010PropOp52
 70
     0
102
RTVSPost2010Prop53
 90
        2
102
RTVSPost2010PropOp53
 70
     1
102
RTVSPost2010Prop54
  1
strokes_ogs.tif
102
RTVSPost2010PropOp54
 70
     1
102
RTVSPost2010Prop55
280
     0
102
RTVSPost2010PropOp55
 70
     1
102
RTVSPost2010Prop56
140
1.0
102
RTVSPost2010PropOp56
 70
     1
102
RTVSPost2010Prop57
140
1.0
102
RTVSPost2010PropOp57
 70
     1
  0
XRECORD
  5
11E
102
{ACAD_REACTORS
330
11D
102
}
330
11D
100
AcDbXrecord
280
     1
102
RTVSPost2010Prop28
280
     0
102
RTVSPost2010PropOp28
 70
     1
102
RTVSPost2010Prop29
280
     1
102
RTVSPost2010PropOp29
 70
     1
102
RTVSPost2010Prop30
280
     1
102
RTVSPost2010PropOp30
 70
     1
102
RTVSPost2010Prop31
280
     0
102
RTVSPost2010PropOp31
 70
     1
102
RTVSPost2010Prop32
280
     0
102
RTVSPost2010PropOp32
 70
     1
102
RTVSPost2010Prop33
280
     0
102
RTVSPost2010PropOp33
 70
     1
102
RTVSPost2010Prop34
280
     0
102
RTVSPost2010PropOp34
 70
     1
102
RTVSPost2010Prop35
280
     0
102
RTVSPost2010PropOp35
 70
     1
102
RTVSPost2010Prop36
280
     0
102
RTVSPost2010PropOp36
 70
     1
102
RTVSPost2010Prop37
 90
       50
102
RTVSPost2010PropOp37
 70
     1
102
RTVSPost2010Prop38
140
0.0
102
RTVSPost2010PropOp38
 70
     1
102
RTVSPost2010Prop39
140
1.0
102
RTVSPost2010PropOp39
 70
     1
102
RTVSPost2010Prop40
 90
        0
102
RTVSPost2010PropOp40
 70
     1
102
RTVSPost2010Prop41ColorIndex
 90
       18
102
RTVSPost2010Prop41ColorRGB
 90
        0
102
RTVSPost2010PropOp41
 70
     1
102
RTVSPost2010Prop42
 90
       50
102
RTVSPost2010PropOp42
 70
     1
102
RTVSPost2010Prop43
 90
        3
102
RTVSPost2010PropOp43
 70
     1
102
RTVSPost2010Prop44ColorIndex
 90
        5
102
RTVSPost2010Prop44ColorRGB
 90
      255
102
RTVSPost2010PropOp44
 70
     1
102
RTVSPost2010Prop45
280
     0
102
RTVSPost2010PropOp45
 70
     1
102
RTVSPost2010Prop46
 90
       50
102
RTVSPost2010PropOp46
 70
     1
102
RTVSPost2010Prop47
 90
       50
102
RTVSPost2010PropOp47
 70
     1
102
RTVSPost2010Prop48
 90
       50
102
RTVSPost2010PropOp48
 70
     1
102
RTVSPost2010Prop49
280
     0
102
RTVSPost2010PropOp49
 70
     1
102
RTVSPost2010Prop50
 90
       50
102
RTVSPost2010PropOp50
 70
     1
102
RTVSPost2010Prop51ColorIndex
 90
      256
102
RTVSPost2010Prop51ColorRGB
 90
-16777216
102
RTVSPost2010PropOp51
 70
     0
102
RTVSPost2010Prop52
140
1.0
102
RTVSPost2010PropOp52
 70
     0
102
RTVSPost2010Prop53
 90
        2
102
RTVSPost2010PropOp53
 70
     1
102
RTVSPost2010Prop54
  1
strokes_ogs.tif
102
RTVSPost2010PropOp54
 70
     1
102
RTVSPost2010Prop55
280
     0
102
RTVSPost2010PropOp55
 70
     1
102
RTVSPost2010Prop56
140
1.0
102
RTVSPost2010PropOp56
 70
     1
102
RTVSPost2010Prop57
140
1.0
102
RTVSPost2010PropOp57
 70
     1
  0
XRECORD
  5
12C
102
{ACAD_REACTORS
330
12B
102
}
330
12B
100
AcDbXrecord
280
     1
102
RTVSPost2010Prop28
280
     0
102
RTVSPost2010PropOp28
 70
     1
102
RTVSPost2010Prop29
280
     1
102
RTVSPost2010PropOp29
 70
     1
102
RTVSPost2010Prop30
280
     1
102
RTVSPost2010PropOp30
 70
     1
102
RTVSPost2010Prop31
280
     0
102
RTVSPost2010PropOp31
 70
     1
102
RTVSPost2010Prop32
280
     0
102
RTVSPost2010PropOp32
 70
     1
102
RTVSPost2010Prop33
280
     0
102
RTVSPost2010PropOp33
 70
     1
102
RTVSPost2010Prop34
280
     0
102
RTVSPost2010PropOp34
 70
     1
102
RTVSPost2010Prop35
280
     0
102
RTVSPost2010PropOp35
 70
     1
102
RTVSPost2010Prop36
280
     0
102
RTVSPost2010PropOp36
 70
     1
102
RTVSPost2010Prop37
 90
       50
102
RTVSPost2010PropOp37
 70
     1
102
RTVSPost2010Prop38
140
0.0
102
RTVSPost2010PropOp38
 70
     1
102
RTVSPost2010Prop39
140
1.0
102
RTVSPost2010PropOp39
 70
     1
102
RTVSPost2010Prop40
 90
        0
102
RTVSPost2010PropOp40
 70
     1
102
RTVSPost2010Prop41ColorIndex
 90
       18
102
RTVSPost2010Prop41ColorRGB
 90
        0
102
RTVSPost2010PropOp41
 70
     1
102
RTVSPost2010Prop42
 90
       50
102
RTVSPost2010PropOp42
 70
     1
102
RTVSPost2010Prop43
 90
        3
102
RTVSPost2010PropOp43
 70
     1
102
RTVSPost2010Prop44ColorIndex
 90
        5
102
RTVSPost2010Prop44ColorRGB
 90
      255
102
RTVSPost2010PropOp44
 70
     1
102
RTVSPost2010Prop45
280
     0
102
RTVSPost2010PropOp45
 70
     1
102
RTVSPost2010Prop46
 90
       50
102
RTVSPost2010PropOp46
 70
     1
102
RTVSPost2010Prop47
 90
       50
102
RTVSPost2010PropOp47
 70
     1
102
RTVSPost2010Prop48
 90
       50
102
RTVSPost2010PropOp48
 70
     1
102
RTVSPost2010Prop49
280
     0
102
RTVSPost2010PropOp49
 70
     1
102
RTVSPost2010Prop50
 90
       50
102
RTVSPost2010PropOp50
 70
     1
102
RTVSPost2010Prop51ColorIndex
 90
      256
102
RTVSPost2010Prop51ColorRGB
 90
-16777216
102
RTVSPost2010PropOp51
 70
     0
102
RTVSPost2010Prop52
140
1.0
102
RTVSPost2010PropOp52
 70
     0
102
RTVSPost2010Prop53
 90
        2
102
RTVSPost2010PropOp53
 70
     1
102
RTVSPost2010Prop54
  1
strokes_ogs.tif
102
RTVSPost2010PropOp54
 70
     1
102
RTVSPost2010Prop55
280
     0
102
RTVSPost2010PropOp55
 70
     1
102
RTVSPost2010Prop56
140
1.0
102
RTVSPost2010PropOp56
 70
     1
102
RTVSPost2010Prop57
140
1.0
102
RTVSPost2010PropOp57
 70
     1
  0
XRECORD
  5
134
102
{ACAD_REACTORS
330
133
102
}
330
133
100
AcDbXrecord
280
     1
102
RTVSPost2010Prop28
280
     0
102
RTVSPost2010PropOp28
 70
     1
102
RTVSPost2010Prop29
280
     1
102
RTVSPost2010PropOp29
 70
     1
102
RTVSPost2010Prop30
280
     1
102
RTVSPost2010PropOp30
 70
     1
102
RTVSPost2010Prop31
280
     0
102
RTVSPost2010PropOp31
 70
     1
102
RTVSPost2010Prop32
280
     0
102
RTVSPost2010PropOp32
 70
     1
102
RTVSPost2010Prop33
280
     0
102
RTVSPost2010PropOp33
 70
     1
102
RTVSPost2010Prop34
280
     0
102
RTVSPost2010PropOp34
 70
     1
102
RTVSPost2010Prop35
280
     0
102
RTVSPost2010PropOp35
 70
     1
102
RTVSPost2010Prop36
280
     0
102
RTVSPost2010PropOp36
 70
     1
102
RTVSPost2010Prop37
 90
       50
102
RTVSPost2010PropOp37
 70
     1
102
RTVSPost2010Prop38
140
0.0
102
RTVSPost2010PropOp38
 70
     1
102
RTVSPost2010Prop39
140
1.0
102
RTVSPost2010PropOp39
 70
     1
102
RTVSPost2010Prop40
 90
        0
102
RTVSPost2010PropOp40
 70
     1
102
RTVSPost2010Prop41ColorIndex
 90
       18
102
RTVSPost2010Prop41ColorRGB
 90
        0
102
RTVSPost2010PropOp41
 70
     1
102
RTVSPost2010Prop42
 90
       50
102
RTVSPost2010PropOp42
 70
     1
102
RTVSPost2010Prop43
 90
        3
102
RTVSPost2010PropOp43
 70
     1
102
RTVSPost2010Prop44ColorIndex
 90
        5
102
RTVSPost2010Prop44ColorRGB
 90
      255
102
RTVSPost2010PropOp44
 70
     1
102
RTVSPost2010Prop45
280
     0
102
RTVSPost2010PropOp45
 70
     1
102
RTVSPost2010Prop46
 90
       50
102
RTVSPost2010PropOp46
 70
     1
102
RTVSPost2010Prop47
 90
       50
102
RTVSPost2010PropOp47
 70
     1
102
RTVSPost2010Prop48
 90
       50
102
RTVSPost2010PropOp48
 70
     1
102
RTVSPost2010Prop49
280
     0
102
RTVSPost2010PropOp49
 70
     1
102
RTVSPost2010Prop50
 90
       50
102
RTVSPost2010PropOp50
 70
     1
102
RTVSPost2010Prop51ColorIndex
 90
      256
102
RTVSPost2010Prop51ColorRGB
 90
-16777216
102
RTVSPost2010PropOp51
 70
     0
102
RTVSPost2010Prop52
140
1.0
102
RTVSPost2010PropOp52
 70
     0
102
RTVSPost2010Prop53
 90
        2
102
RTVSPost2010PropOp53
 70
     1
102
RTVSPost2010Prop54
  1
strokes_ogs.tif
102
RTVSPost2010PropOp54
 70
     1
102
RTVSPost2010Prop55
280
     0
102
RTVSPost2010PropOp55
 70
     1
102
RTVSPost2010Prop56
140
1.0
102
RTVSPost2010PropOp56
 70
     1
102
RTVSPost2010Prop57
140
1.0
102
RTVSPost2010PropOp57
 70
     1
  0
XRECORD
  5
126
102
{ACAD_REACTORS
330
125
102
}
330
125
100
AcDbXrecord
280
     1
102
RTVSPost2010Prop28
280
     0
102
RTVSPost2010PropOp28
 70
     1
102
RTVSPost2010Prop29
280
     1
102
RTVSPost2010PropOp29
 70
     1
102
RTVSPost2010Prop30
280
     1
102
RTVSPost2010PropOp30
 70
     1
102
RTVSPost2010Prop31
280
     0
102
RTVSPost2010PropOp31
 70
     1
102
RTVSPost2010Prop32
280
     0
102
RTVSPost2010PropOp32
 70
     1
102
RTVSPost2010Prop33
280
     0
102
RTVSPost2010PropOp33
 70
     1
102
RTVSPost2010Prop34
280
     0
102
RTVSPost2010PropOp34
 70
     1
102
RTVSPost2010Prop35
280
     0
102
RTVSPost2010PropOp35
 70
     1
102
RTVSPost2010Prop36
280
     0
102
RTVSPost2010PropOp36
 70
     1
102
RTVSPost2010Prop37
 90
       50
102
RTVSPost2010PropOp37
 70
     1
102
RTVSPost2010Prop38
140
0.0
102
RTVSPost2010PropOp38
 70
     1
102
RTVSPost2010Prop39
140
1.0
102
RTVSPost2010PropOp39
 70
     1
102
RTVSPost2010Prop40
 90
        0
102
RTVSPost2010PropOp40
 70
     1
102
RTVSPost2010Prop41ColorIndex
 90
       18
102
RTVSPost2010Prop41ColorRGB
 90
        0
102
RTVSPost2010PropOp41
 70
     1
102
RTVSPost2010Prop42
 90
       50
102
RTVSPost2010PropOp42
 70
     1
102
RTVSPost2010Prop43
 90
        3
102
RTVSPost2010PropOp43
 70
     1
102
RTVSPost2010Prop44ColorIndex
 90
        5
102
RTVSPost2010Prop44ColorRGB
 90
      255
102
RTVSPost2010PropOp44
 70
     1
102
RTVSPost2010Prop45
280
     0
102
RTVSPost2010PropOp45
 70
     1
102
RTVSPost2010Prop46
 90
       50
102
RTVSPost2010PropOp46
 70
     1
102
RTVSPost2010Prop47
 90
       50
102
RTVSPost2010PropOp47
 70
     1
102
RTVSPost2010Prop48
 90
       50
102
RTVSPost2010PropOp48
 70
     1
102
RTVSPost2010Prop49
280
     0
102
RTVSPost2010PropOp49
 70
     1
102
RTVSPost2010Prop50
 90
       50
102
RTVSPost2010PropOp50
 70
     1
102
RTVSPost2010Prop51ColorIndex
 90
      256
102
RTVSPost2010Prop51ColorRGB
 90
-16777216
102
RTVSPost2010PropOp51
 70
     0
102
RTVSPost2010Prop52
140
1.0
102
RTVSPost2010PropOp52
 70
     0
102
RTVSPost2010Prop53
 90
        2
102
RTVSPost2010PropOp53
 70
     1
102
RTVSPost2010Prop54
  1
strokes_ogs.tif
102
RTVSPost2010PropOp54
 70
     1
102
RTVSPost2010Prop55
280
     0
102
RTVSPost2010PropOp55
 70
     1
102
RTVSPost2010Prop56
140
1.0
102
RTVSPost2010PropOp56
 70
     1
102
RTVSPost2010Prop57
140
1.0
102
RTVSPost2010PropOp57
 70
     1
  0
XRECORD
  5
12A
102
{ACAD_REACTORS
330
129
102
}
330
129
100
AcDbXrecord
280
     1
102
RTVSPost2010Prop28
280
     0
102
RTVSPost2010PropOp28
 70
     1
102
RTVSPost2010Prop29
280
     1
102
RTVSPost2010PropOp29
 70
     1
102
RTVSPost2010Prop30
280
     1
102
RTVSPost2010PropOp30
 70
     1
102
RTVSPost2010Prop31
280
     0
102
RTVSPost2010PropOp31
 70
     1
102
RTVSPost2010Prop32
280
     0
102
RTVSPost2010PropOp32
 70
     1
102
RTVSPost2010Prop33
280
     0
102
RTVSPost2010PropOp33
 70
     1
102
RTVSPost2010Prop34
280
     0
102
RTVSPost2010PropOp34
 70
     1
102
RTVSPost2010Prop35
280
     0
102
RTVSPost2010PropOp35
 70
     1
102
RTVSPost2010Prop36
280
     0
102
RTVSPost2010PropOp36
 70
     1
102
RTVSPost2010Prop37
 90
       50
102
RTVSPost2010PropOp37
 70
     1
102
RTVSPost2010Prop38
140
0.0
102
RTVSPost2010PropOp38
 70
     1
102
RTVSPost2010Prop39
140
1.0
102
RTVSPost2010PropOp39
 70
     1
102
RTVSPost2010Prop40
 90
        0
102
RTVSPost2010PropOp40
 70
     1
102
RTVSPost2010Prop41ColorIndex
 90
       18
102
RTVSPost2010Prop41ColorRGB
 90
        0
102
RTVSPost2010PropOp41
 70
     1
102
RTVSPost2010Prop42
 90
       50
102
RTVSPost2010PropOp42
 70
     1
102
RTVSPost2010Prop43
 90
        3
102
RTVSPost2010PropOp43
 70
     1
102
RTVSPost2010Prop44ColorIndex
 90
        5
102
RTVSPost2010Prop44ColorRGB
 90
      255
102
RTVSPost2010PropOp44
 70
     1
102
RTVSPost2010Prop45
280
     0
102
RTVSPost2010PropOp45
 70
     1
102
RTVSPost2010Prop46
 90
       50
102
RTVSPost2010PropOp46
 70
     1
102
RTVSPost2010Prop47
 90
       50
102
RTVSPost2010PropOp47
 70
     1
102
RTVSPost2010Prop48
 90
       50
102
RTVSPost2010PropOp48
 70
     1
102
RTVSPost2010Prop49
280
     0
102
RTVSPost2010PropOp49
 70
     1
102
RTVSPost2010Prop50
 90
       50
102
RTVSPost2010PropOp50
 70
     1
102
RTVSPost2010Prop51ColorIndex
 90
      256
102
RTVSPost2010Prop51ColorRGB
 90
-16777216
102
RTVSPost2010PropOp51
 70
     0
102
RTVSPost2010Prop52
140
1.0
102
RTVSPost2010PropOp52
 70
     0
102
RTVSPost2010Prop53
 90
        2
102
RTVSPost2010PropOp53
 70
     1
102
RTVSPost2010Prop54
  1
strokes_ogs.tif
102
RTVSPost2010PropOp54
 70
     1
102
RTVSPost2010Prop55
280
     0
102
RTVSPost2010PropOp55
 70
     1
102
RTVSPost2010Prop56
140
1.0
102
RTVSPost2010PropOp56
 70
     1
102
RTVSPost2010Prop57
140
1.0
102
RTVSPost2010PropOp57
 70
     1
  0
XRECORD
  5
144
102
{ACAD_REACTORS
330
143
102
}
330
143
100
AcDbXrecord
280
     1
102
RTVSPost2010Prop28
280
     0
102
RTVSPost2010PropOp28
 70
     0
102
RTVSPost2010Prop29
280
     1
102
RTVSPost2010PropOp29
 70
     0
102
RTVSPost2010Prop30
280
     1
102
RTVSPost2010PropOp30
 70
     0
102
RTVSPost2010Prop31
280
     0
102
RTVSPost2010PropOp31
 70
     0
102
RTVSPost2010Prop32
280
     0
102
RTVSPost2010PropOp32
 70
     0
102
RTVSPost2010Prop33
280
     0
102
RTVSPost2010PropOp33
 70
     0
102
RTVSPost2010Prop34
280
     0
102
RTVSPost2010PropOp34
 70
     0
102
RTVSPost2010Prop35
280
     0
102
RTVSPost2010PropOp35
 70
     0
102
RTVSPost2010Prop36
280
     0
102
RTVSPost2010PropOp36
 70
     0
102
RTVSPost2010Prop37
 90
       50
102
RTVSPost2010PropOp37
 70
     0
102
RTVSPost2010Prop38
140
0.0
102
RTVSPost2010PropOp38
 70
     0
102
RTVSPost2010Prop39
140
1.0
102
RTVSPost2010PropOp39
 70
     0
102
RTVSPost2010Prop40
 90
        0
102
RTVSPost2010PropOp40
 70
     0
102
RTVSPost2010Prop41ColorIndex
 90
       18
102
RTVSPost2010Prop41ColorRGB
 90
        0
102
RTVSPost2010PropOp41
 70
     0
102
RTVSPost2010Prop42
 90
       50
102
RTVSPost2010PropOp42
 70
     0
102
RTVSPost2010Prop43
 90
        3
102
RTVSPost2010PropOp43
 70
     0
102
RTVSPost2010Prop44ColorIndex
 90
        5
102
RTVSPost2010Prop44ColorRGB
 90
      255
102
RTVSPost2010PropOp44
 70
     0
102
RTVSPost2010Prop45
280
     0
102
RTVSPost2010PropOp45
 70
     0
102
RTVSPost2010Prop46
 90
       50
102
RTVSPost2010PropOp46
 70
     0
102
RTVSPost2010Prop47
 90
       50
102
RTVSPost2010PropOp47
 70
     0
102
RTVSPost2010Prop48
 90
       50
102
RTVSPost2010PropOp48
 70
     0
102
RTVSPost2010Prop49
280
     0
102
RTVSPost2010PropOp49
 70
     0
102
RTVSPost2010Prop50
 90
       50
102
RTVSPost2010PropOp50
 70
     0
102
RTVSPost2010Prop51ColorIndex
 90
      256
102
RTVSPost2010Prop51ColorRGB
 90
-16777216
102
RTVSPost2010PropOp51
 70
     0
102
RTVSPost2010Prop52
140
1.0
102
RTVSPost2010PropOp52
 70
     0
102
RTVSPost2010Prop53
 90
        2
102
RTVSPost2010PropOp53
 70
     0
102
RTVSPost2010Prop54
  1
strokes_ogs.tif
102
RTVSPost2010PropOp54
 70
     0
102
RTVSPost2010Prop55
280
     0
102
RTVSPost2010PropOp55
 70
     0
102
RTVSPost2010Prop56
140
1.0
102
RTVSPost2010PropOp56
 70
     0
102
RTVSPost2010Prop57
140
1.0
102
RTVSPost2010PropOp57
 70
     0
  0
XRECORD
  5
132
102
{ACAD_REACTORS
330
131
102
}
330
131
100
AcDbXrecord
280
     1
102
RTVSPost2010Prop28
280
     0
102
RTVSPost2010PropOp28
 70
     1
102
RTVSPost2010Prop29
280
     1
102
RTVSPost2010PropOp29
 70
     1
102
RTVSPost2010Prop30
280
     1
102
RTVSPost2010PropOp30
 70
     1
102
RTVSPost2010Prop31
280
     0
102
RTVSPost2010PropOp31
 70
     1
102
RTVSPost2010Prop32
280
     0
102
RTVSPost2010PropOp32
 70
     1
102
RTVSPost2010Prop33
280
     0
102
RTVSPost2010PropOp33
 70
     1
102
RTVSPost2010Prop34
280
     0
102
RTVSPost2010PropOp34
 70
     1
102
RTVSPost2010Prop35
280
     0
102
RTVSPost2010PropOp35
 70
     1
102
RTVSPost2010Prop36
280
     0
102
RTVSPost2010PropOp36
 70
     1
102
RTVSPost2010Prop37
 90
       50
102
RTVSPost2010PropOp37
 70
     1
102
RTVSPost2010Prop38
140
0.0
102
RTVSPost2010PropOp38
 70
     1
102
RTVSPost2010Prop39
140
1.0
102
RTVSPost2010PropOp39
 70
     1
102
RTVSPost2010Prop40
 90
        0
102
RTVSPost2010PropOp40
 70
     1
102
RTVSPost2010Prop41ColorIndex
 90
       18
102
RTVSPost2010Prop41ColorRGB
 90
        0
102
RTVSPost2010PropOp41
 70
     1
102
RTVSPost2010Prop42
 90
       50
102
RTVSPost2010PropOp42
 70
     1
102
RTVSPost2010Prop43
 90
        3
102
RTVSPost2010PropOp43
 70
     1
102
RTVSPost2010Prop44ColorIndex
 90
        5
102
RTVSPost2010Prop44ColorRGB
 90
      255
102
RTVSPost2010PropOp44
 70
     1
102
RTVSPost2010Prop45
280
     0
102
RTVSPost2010PropOp45
 70
     1
102
RTVSPost2010Prop46
 90
       50
102
RTVSPost2010PropOp46
 70
     1
102
RTVSPost2010Prop47
 90
       50
102
RTVSPost2010PropOp47
 70
     1
102
RTVSPost2010Prop48
 90
       50
102
RTVSPost2010PropOp48
 70
     1
102
RTVSPost2010Prop49
280
     0
102
RTVSPost2010PropOp49
 70
     1
102
RTVSPost2010Prop50
 90
       50
102
RTVSPost2010PropOp50
 70
     1
102
RTVSPost2010Prop51ColorIndex
 90
      256
102
RTVSPost2010Prop51ColorRGB
 90
-16777216
102
RTVSPost2010PropOp51
 70
     0
102
RTVSPost2010Prop52
140
1.0
102
RTVSPost2010PropOp52
 70
     0
102
RTVSPost2010Prop53
 90
        2
102
RTVSPost2010PropOp53
 70
     1
102
RTVSPost2010Prop54
  1
strokes_ogs.tif
102
RTVSPost2010PropOp54
 70
     1
102
RTVSPost2010Prop55
280
     0
102
RTVSPost2010PropOp55
 70
     1
102
RTVSPost2010Prop56
140
1.0
102
RTVSPost2010PropOp56
 70
     1
102
RTVSPost2010Prop57
140
1.0
102
RTVSPost2010PropOp57
 70
     1
  0
XRECORD
  5
116
102
{ACAD_REACTORS
330
115
102
}
330
115
100
AcDbXrecord
280
     1
102
RTVSPost2010Prop28
280
     0
102
RTVSPost2010PropOp28
 70
     1
102
RTVSPost2010Prop29
280
     1
102
RTVSPost2010PropOp29
 70
     1
102
RTVSPost2010Prop30
280
     1
102
RTVSPost2010PropOp30
 70
     1
102
RTVSPost2010Prop31
280
     0
102
RTVSPost2010PropOp31
 70
     1
102
RTVSPost2010Prop32
280
     0
102
RTVSPost2010PropOp32
 70
     1
102
RTVSPost2010Prop33
280
     0
102
RTVSPost2010PropOp33
 70
     1
102
RTVSPost2010Prop34
280
     0
102
RTVSPost2010PropOp34
 70
     1
102
RTVSPost2010Prop35
280
     0
102
RTVSPost2010PropOp35
 70
     1
102
RTVSPost2010Prop36
280
     0
102
RTVSPost2010PropOp36
 70
     1
102
RTVSPost2010Prop37
 90
       50
102
RTVSPost2010PropOp37
 70
     1
102
RTVSPost2010Prop38
140
0.0
102
RTVSPost2010PropOp38
 70
     1
102
RTVSPost2010Prop39
140
1.0
102
RTVSPost2010PropOp39
 70
     1
102
RTVSPost2010Prop40
 90
        0
102
RTVSPost2010PropOp40
 70
     1
102
RTVSPost2010Prop41ColorIndex
 90
       18
102
RTVSPost2010Prop41ColorRGB
 90
        0
102
RTVSPost2010PropOp41
 70
     1
102
RTVSPost2010Prop42
 90
       50
102
RTVSPost2010PropOp42
 70
     1
102
RTVSPost2010Prop43
 90
        3
102
RTVSPost2010PropOp43
 70
     1
102
RTVSPost2010Prop44ColorIndex
 90
        5
102
RTVSPost2010Prop44ColorRGB
 90
      255
102
RTVSPost2010PropOp44
 70
     1
102
RTVSPost2010Prop45
280
     0
102
RTVSPost2010PropOp45
 70
     1
102
RTVSPost2010Prop46
 90
       50
102
RTVSPost2010PropOp46
 70
     1
102
RTVSPost2010Prop47
 90
       50
102
RTVSPost2010PropOp47
 70
     1
102
RTVSPost2010Prop48
 90
       50
102
RTVSPost2010PropOp48
 70
     1
102
RTVSPost2010Prop49
280
     0
102
RTVSPost2010PropOp49
 70
     1
102
RTVSPost2010Prop50
 90
       50
102
RTVSPost2010PropOp50
 70
     1
102
RTVSPost2010Prop51ColorIndex
 90
      256
102
RTVSPost2010Prop51ColorRGB
 90
-16777216
102
RTVSPost2010PropOp51
 70
     0
102
RTVSPost2010Prop52
140
1.0
102
RTVSPost2010PropOp52
 70
     0
102
RTVSPost2010Prop53
 90
        2
102
RTVSPost2010PropOp53
 70
     1
102
RTVSPost2010Prop54
  1
strokes_ogs.tif
102
RTVSPost2010PropOp54
 70
     1
102
RTVSPost2010Prop55
280
     0
102
RTVSPost2010PropOp55
 70
     1
102
RTVSPost2010Prop56
140
1.0
102
RTVSPost2010PropOp56
 70
     1
102
RTVSPost2010Prop57
140
1.0
102
RTVSPost2010PropOp57
 70
     1
  0
XRECORD
  5
118
102
{ACAD_REACTORS
330
117
102
}
330
117
100
AcDbXrecord
280
     1
102
RTVSPost2010Prop28
280
     0
102
RTVSPost2010PropOp28
 70
     1
102
RTVSPost2010Prop29
280
     1
102
RTVSPost2010PropOp29
 70
     1
102
RTVSPost2010Prop30
280
     1
102
RTVSPost2010PropOp30
 70
     1
102
RTVSPost2010Prop31
280
     0
102
RTVSPost2010PropOp31
 70
     1
102
RTVSPost2010Prop32
280
     0
102
RTVSPost2010PropOp32
 70
     1
102
RTVSPost2010Prop33
280
     0
102
RTVSPost2010PropOp33
 70
     1
102
RTVSPost2010Prop34
280
     0
102
RTVSPost2010PropOp34
 70
     1
102
RTVSPost2010Prop35
280
     0
102
RTVSPost2010PropOp35
 70
     1
102
RTVSPost2010Prop36
280
     0
102
RTVSPost2010PropOp36
 70
     1
102
RTVSPost2010Prop37
 90
       50
102
RTVSPost2010PropOp37
 70
     1
102
RTVSPost2010Prop38
140
0.0
102
RTVSPost2010PropOp38
 70
     1
102
RTVSPost2010Prop39
140
1.0
102
RTVSPost2010PropOp39
 70
     1
102
RTVSPost2010Prop40
 90
        0
102
RTVSPost2010PropOp40
 70
     1
102
RTVSPost2010Prop41ColorIndex
 90
       18
102
RTVSPost2010Prop41ColorRGB
 90
        0
102
RTVSPost2010PropOp41
 70
     1
102
RTVSPost2010Prop42
 90
       50
102
RTVSPost2010PropOp42
 70
     1
102
RTVSPost2010Prop43
 90
        3
102
RTVSPost2010PropOp43
 70
     1
102
RTVSPost2010Prop44ColorIndex
 90
        5
102
RTVSPost2010Prop44ColorRGB
 90
      255
102
RTVSPost2010PropOp44
 70
     1
102
RTVSPost2010Prop45
280
     0
102
RTVSPost2010PropOp45
 70
     1
102
RTVSPost2010Prop46
 90
       50
102
RTVSPost2010PropOp46
 70
     1
102
RTVSPost2010Prop47
 90
       50
102
RTVSPost2010PropOp47
 70
     1
102
RTVSPost2010Prop48
 90
       50
102
RTVSPost2010PropOp48
 70
     1
102
RTVSPost2010Prop49
280
     0
102
RTVSPost2010PropOp49
 70
     1
102
RTVSPost2010Prop50
 90
       50
102
RTVSPost2010PropOp50
 70
     1
102
RTVSPost2010Prop51ColorIndex
 90
      256
102
RTVSPost2010Prop51ColorRGB
 90
-16777216
102
RTVSPost2010PropOp51
 70
     0
102
RTVSPost2010Prop52
140
1.0
102
RTVSPost2010PropOp52
 70
     0
102
RTVSPost2010Prop53
 90
        2
102
RTVSPost2010PropOp53
 70
     1
102
RTVSPost2010Prop54
  1
strokes_ogs.tif
102
RTVSPost2010PropOp54
 70
     1
102
RTVSPost2010Prop55
280
     0
102
RTVSPost2010PropOp55
 70
     1
102
RTVSPost2010Prop56
140
1.0
102
RTVSPost2010PropOp56
 70
     1
102
RTVSPost2010Prop57
140
1.0
102
RTVSPost2010PropOp57
 70
     1
  0
XRECORD
  5
11A
102
{ACAD_REACTORS
330
119
102
}
330
119
100
AcDbXrecord
280
     1
102
RTVSPost2010Prop28
280
     0
102
RTVSPost2010PropOp28
 70
     1
102
RTVSPost2010Prop29
280
     1
102
RTVSPost2010PropOp29
 70
     1
102
RTVSPost2010Prop30
280
     1
102
RTVSPost2010PropOp30
 70
     1
102
RTVSPost2010Prop31
280
     0
102
RTVSPost2010PropOp31
 70
     1
102
RTVSPost2010Prop32
280
     0
102
RTVSPost2010PropOp32
 70
     1
102
RTVSPost2010Prop33
280
     0
102
RTVSPost2010PropOp33
 70
     1
102
RTVSPost2010Prop34
280
     0
102
RTVSPost2010PropOp34
 70
     1
102
RTVSPost2010Prop35
280
     0
102
RTVSPost2010PropOp35
 70
     1
102
RTVSPost2010Prop36
280
     0
102
RTVSPost2010PropOp36
 70
     1
102
RTVSPost2010Prop37
 90
       50
102
RTVSPost2010PropOp37
 70
     1
102
RTVSPost2010Prop38
140
0.0
102
RTVSPost2010PropOp38
 70
     1
102
RTVSPost2010Prop39
140
1.0
102
RTVSPost2010PropOp39
 70
     1
102
RTVSPost2010Prop40
 90
        0
102
RTVSPost2010PropOp40
 70
     1
102
RTVSPost2010Prop41ColorIndex
 90
       18
102
RTVSPost2010Prop41ColorRGB
 90
        0
102
RTVSPost2010PropOp41
 70
     1
102
RTVSPost2010Prop42
 90
       50
102
RTVSPost2010PropOp42
 70
     1
102
RTVSPost2010Prop43
 90
        3
102
RTVSPost2010PropOp43
 70
     1
102
RTVSPost2010Prop44ColorIndex
 90
        5
102
RTVSPost2010Prop44ColorRGB
 90
      255
102
RTVSPost2010PropOp44
 70
     1
102
RTVSPost2010Prop45
280
     0
102
RTVSPost2010PropOp45
 70
     1
102
RTVSPost2010Prop46
 90
       50
102
RTVSPost2010PropOp46
 70
     1
102
RTVSPost2010Prop47
 90
       50
102
RTVSPost2010PropOp47
 70
     1
102
RTVSPost2010Prop48
 90
       50
102
RTVSPost2010PropOp48
 70
     1
102
RTVSPost2010Prop49
280
     0
102
RTVSPost2010PropOp49
 70
     1
102
RTVSPost2010Prop50
 90
       50
102
RTVSPost2010PropOp50
 70
     1
102
RTVSPost2010Prop51ColorIndex
 90
      256
102
RTVSPost2010Prop51ColorRGB
 90
-16777216
102
RTVSPost2010PropOp51
 70
     0
102
RTVSPost2010Prop52
140
1.0
102
RTVSPost2010PropOp52
 70
     0
102
RTVSPost2010Prop53
 90
        2
102
RTVSPost2010PropOp53
 70
     1
102
RTVSPost2010Prop54
  1
strokes_ogs.tif
102
RTVSPost2010PropOp54
 70
     1
102
RTVSPost2010Prop55
280
     0
102
RTVSPost2010PropOp55
 70
     1
102
RTVSPost2010Prop56
140
1.0
102
RTVSPost2010PropOp56
 70
     1
102
RTVSPost2010Prop57
140
1.0
102
RTVSPost2010PropOp57
 70
     1
  0
XRECORD
  5
11C
102
{ACAD_REACTORS
330
11B
102
}
330
11B
100
AcDbXrecord
280
     1
102
RTVSPost2010Prop28
280
     0
102
RTVSPost2010PropOp28
 70
     1
102
RTVSPost2010Prop29
280
     1
102
RTVSPost2010PropOp29
 70
     1
102
RTVSPost2010Prop30
280
     1
102
RTVSPost2010PropOp30
 70
     1
102
RTVSPost2010Prop31
280
     0
102
RTVSPost2010PropOp31
 70
     1
102
RTVSPost2010Prop32
280
     0
102
RTVSPost2010PropOp32
 70
     1
102
RTVSPost2010Prop33
280
     0
102
RTVSPost2010PropOp33
 70
     1
102
RTVSPost2010Prop34
280
     0
102
RTVSPost2010PropOp34
 70
     1
102
RTVSPost2010Prop35
280
     0
102
RTVSPost2010PropOp35
 70
     1
102
RTVSPost2010Prop36
280
     0
102
RTVSPost2010PropOp36
 70
     1
102
RTVSPost2010Prop37
 90
       50
102
RTVSPost2010PropOp37
 70
     1
102
RTVSPost2010Prop38
140
0.0
102
RTVSPost2010PropOp38
 70
     1
102
RTVSPost2010Prop39
140
1.0
102
RTVSPost2010PropOp39
 70
     1
102
RTVSPost2010Prop40
 90
        0
102
RTVSPost2010PropOp40
 70
     1
102
RTVSPost2010Prop41ColorIndex
 90
       18
102
RTVSPost2010Prop41ColorRGB
 90
        0
102
RTVSPost2010PropOp41
 70
     1
102
RTVSPost2010Prop42
 90
       50
102
RTVSPost2010PropOp42
 70
     1
102
RTVSPost2010Prop43
 90
        3
102
RTVSPost2010PropOp43
 70
     1
102
RTVSPost2010Prop44ColorIndex
 90
        5
102
RTVSPost2010Prop44ColorRGB
 90
      255
102
RTVSPost2010PropOp44
 70
     1
102
RTVSPost2010Prop45
280
     0
102
RTVSPost2010PropOp45
 70
     1
102
RTVSPost2010Prop46
 90
       50
102
RTVSPost2010PropOp46
 70
     1
102
RTVSPost2010Prop47
 90
       50
102
RTVSPost2010PropOp47
 70
     1
102
RTVSPost2010Prop48
 90
       50
102
RTVSPost2010PropOp48
 70
     1
102
RTVSPost2010Prop49
280
     0
102
RTVSPost2010PropOp49
 70
     1
102
RTVSPost2010Prop50
 90
       50
102
RTVSPost2010PropOp50
 70
     1
102
RTVSPost2010Prop51ColorIndex
 90
      256
102
RTVSPost2010Prop51ColorRGB
 90
-16777216
102
RTVSPost2010PropOp51
 70
     0
102
RTVSPost2010Prop52
140
1.0
102
RTVSPost2010PropOp52
 70
     0
102
RTVSPost2010Prop53
 90
        2
102
RTVSPost2010PropOp53
 70
     1
102
RTVSPost2010Prop54
  1
strokes_ogs.tif
102
RTVSPost2010PropOp54
 70
     1
102
RTVSPost2010Prop55
280
     0
102
RTVSPost2010PropOp55
 70
     1
102
RTVSPost2010Prop56
140
1.0
102
RTVSPost2010PropOp56
 70
     1
102
RTVSPost2010Prop57
140
1.0
102
RTVSPost2010PropOp57
 70
     1
  0
XRECORD
  5
124
102
{ACAD_REACTORS
330
123
102
}
330
123
100
AcDbXrecord
280
     1
102
RTVSPost2010Prop28
280
     0
102
RTVSPost2010PropOp28
 70
     1
102
RTVSPost2010Prop29
280
     1
102
RTVSPost2010PropOp29
 70
     1
102
RTVSPost2010Prop30
280
     1
102
RTVSPost2010PropOp30
 70
     1
102
RTVSPost2010Prop31
280
     0
102
RTVSPost2010PropOp31
 70
     1
102
RTVSPost2010Prop32
280
     0
102
RTVSPost2010PropOp32
 70
     1
102
RTVSPost2010Prop33
280
     0
102
RTVSPost2010PropOp33
 70
     1
102
RTVSPost2010Prop34
280
     0
102
RTVSPost2010PropOp34
 70
     1
102
RTVSPost2010Prop35
280
     0
102
RTVSPost2010PropOp35
 70
     1
102
RTVSPost2010Prop36
280
     0
102
RTVSPost2010PropOp36
 70
     1
102
RTVSPost2010Prop37
 90
       50
102
RTVSPost2010PropOp37
 70
     1
102
RTVSPost2010Prop38
140
0.0
102
RTVSPost2010PropOp38
 70
     1
102
RTVSPost2010Prop39
140
1.0
102
RTVSPost2010PropOp39
 70
     1
102
RTVSPost2010Prop40
 90
        0
102
RTVSPost2010PropOp40
 70
     1
102
RTVSPost2010Prop41ColorIndex
 90
       18
102
RTVSPost2010Prop41ColorRGB
 90
        0
102
RTVSPost2010PropOp41
 70
     1
102
RTVSPost2010Prop42
 90
       50
102
RTVSPost2010PropOp42
 70
     1
102
RTVSPost2010Prop43
 90
        3
102
RTVSPost2010PropOp43
 70
     1
102
RTVSPost2010Prop44ColorIndex
 90
        5
102
RTVSPost2010Prop44ColorRGB
 90
      255
102
RTVSPost2010PropOp44
 70
     1
102
RTVSPost2010Prop45
280
     0
102
RTVSPost2010PropOp45
 70
     1
102
RTVSPost2010Prop46
 90
       50
102
RTVSPost2010PropOp46
 70
     1
102
RTVSPost2010Prop47
 90
       50
102
RTVSPost2010PropOp47
 70
     1
102
RTVSPost2010Prop48
 90
       50
102
RTVSPost2010PropOp48
 70
     1
102
RTVSPost2010Prop49
280
     0
102
RTVSPost2010PropOp49
 70
     1
102
RTVSPost2010Prop50
 90
       50
102
RTVSPost2010PropOp50
 70
     1
102
RTVSPost2010Prop51ColorIndex
 90
      256
102
RTVSPost2010Prop51ColorRGB
 90
-16777216
102
RTVSPost2010PropOp51
 70
     0
102
RTVSPost2010Prop52
140
1.0
102
RTVSPost2010PropOp52
 70
     0
102
RTVSPost2010Prop53
 90
        2
102
RTVSPost2010PropOp53
 70
     1
102
RTVSPost2010Prop54
  1
strokes_ogs.tif
102
RTVSPost2010PropOp54
 70
     1
102
RTVSPost2010Prop55
280
     0
102
RTVSPost2010PropOp55
 70
     1
102
RTVSPost2010Prop56
140
1.0
102
RTVSPost2010PropOp56
 70
     1
102
RTVSPost2010Prop57
140
1.0
102
RTVSPost2010PropOp57
 70
     1
  0
XRECORD
  5
140
102
{ACAD_REACTORS
330
13F
102
}
330
13F
100
AcDbXrecord
280
     1
102
RTVSPost2010Prop28
280
     0
102
RTVSPost2010PropOp28
 70
     0
102
RTVSPost2010Prop29
280
     1
102
RTVSPost2010PropOp29
 70
     0
102
RTVSPost2010Prop30
280
     1
102
RTVSPost2010PropOp30
 70
     0
102
RTVSPost2010Prop31
280
     0
102
RTVSPost2010PropOp31
 70
     0
102
RTVSPost2010Prop32
280
     0
102
RTVSPost2010PropOp32
 70
     0
102
RTVSPost2010Prop33
280
     0
102
RTVSPost2010PropOp33
 70
     0
102
RTVSPost2010Prop34
280
     0
102
RTVSPost2010PropOp34
 70
     0
102
RTVSPost2010Prop35
280
     0
102
RTVSPost2010PropOp35
 70
     0
102
RTVSPost2010Prop36
280
     0
102
RTVSPost2010PropOp36
 70
     0
102
RTVSPost2010Prop37
 90
       50
102
RTVSPost2010PropOp37
 70
     0
102
RTVSPost2010Prop38
140
0.0
102
RTVSPost2010PropOp38
 70
     0
102
RTVSPost2010Prop39
140
1.0
102
RTVSPost2010PropOp39
 70
     0
102
RTVSPost2010Prop40
 90
        0
102
RTVSPost2010PropOp40
 70
     0
102
RTVSPost2010Prop41ColorIndex
 90
       18
102
RTVSPost2010Prop41ColorRGB
 90
        0
102
RTVSPost2010PropOp41
 70
     0
102
RTVSPost2010Prop42
 90
       50
102
RTVSPost2010PropOp42
 70
     0
102
RTVSPost2010Prop43
 90
        3
102
RTVSPost2010PropOp43
 70
     0
102
RTVSPost2010Prop44ColorIndex
 90
        5
102
RTVSPost2010Prop44ColorRGB
 90
      255
102
RTVSPost2010PropOp44
 70
     0
102
RTVSPost2010Prop45
280
     0
102
RTVSPost2010PropOp45
 70
     0
102
RTVSPost2010Prop46
 90
       50
102
RTVSPost2010PropOp46
 70
     0
102
RTVSPost2010Prop47
 90
       50
102
RTVSPost2010PropOp47
 70
     0
102
RTVSPost2010Prop48
 90
       50
102
RTVSPost2010PropOp48
 70
     0
102
RTVSPost2010Prop49
280
     0
102
RTVSPost2010PropOp49
 70
     0
102
RTVSPost2010Prop50
 90
       50
102
RTVSPost2010PropOp50
 70
     0
102
RTVSPost2010Prop51ColorIndex
 90
      256
102
RTVSPost2010Prop51ColorRGB
 90
-16777216
102
RTVSPost2010PropOp51
 70
     0
102
RTVSPost2010Prop52
140
1.0
102
RTVSPost2010PropOp52
 70
     0
102
RTVSPost2010Prop53
 90
        2
102
RTVSPost2010PropOp53
 70
     0
102
RTVSPost2010Prop54
  1
strokes_ogs.tif
102
RTVSPost2010PropOp54
 70
     0
102
RTVSPost2010Prop55
280
     0
102
RTVSPost2010PropOp55
 70
     0
102
RTVSPost2010Prop56
140
1.0
102
RTVSPost2010PropOp56
 70
     0
102
RTVSPost2010Prop57
140
1.0
102
RTVSPost2010PropOp57
 70
     0
  0
XRECORD
  5
130
102
{ACAD_REACTORS
330
12F
102
}
330
12F
100
AcDbXrecord
280
     1
102
RTVSPost2010Prop28
280
     0
102
RTVSPost2010PropOp28
 70
     1
102
RTVSPost2010Prop29
280
     1
102
RTVSPost2010PropOp29
 70
     1
102
RTVSPost2010Prop30
280
     1
102
RTVSPost2010PropOp30
 70
     1
102
RTVSPost2010Prop31
280
     0
102
RTVSPost2010PropOp31
 70
     1
102
RTVSPost2010Prop32
280
     0
102
RTVSPost2010PropOp32
 70
     1
102
RTVSPost2010Prop33
280
     0
102
RTVSPost2010PropOp33
 70
     1
102
RTVSPost2010Prop34
280
     0
102
RTVSPost2010PropOp34
 70
     1
102
RTVSPost2010Prop35
280
     0
102
RTVSPost2010PropOp35
 70
     1
102
RTVSPost2010Prop36
280
     0
102
RTVSPost2010PropOp36
 70
     1
102
RTVSPost2010Prop37
 90
       50
102
RTVSPost2010PropOp37
 70
     1
102
RTVSPost2010Prop38
140
0.0
102
RTVSPost2010PropOp38
 70
     1
102
RTVSPost2010Prop39
140
1.0
102
RTVSPost2010PropOp39
 70
     1
102
RTVSPost2010Prop40
 90
        0
102
RTVSPost2010PropOp40
 70
     1
102
RTVSPost2010Prop41ColorIndex
 90
       18
102
RTVSPost2010Prop41ColorRGB
 90
        0
102
RTVSPost2010PropOp41
 70
     1
102
RTVSPost2010Prop42
 90
       50
102
RTVSPost2010PropOp42
 70
     1
102
RTVSPost2010Prop43
 90
        3
102
RTVSPost2010PropOp43
 70
     1
102
RTVSPost2010Prop44ColorIndex
 90
        5
102
RTVSPost2010Prop44ColorRGB
 90
      255
102
RTVSPost2010PropOp44
 70
     1
102
RTVSPost2010Prop45
280
     0
102
RTVSPost2010PropOp45
 70
     1
102
RTVSPost2010Prop46
 90
       50
102
RTVSPost2010PropOp46
 70
     1
102
RTVSPost2010Prop47
 90
       50
102
RTVSPost2010PropOp47
 70
     1
102
RTVSPost2010Prop48
 90
       50
102
RTVSPost2010PropOp48
 70
     1
102
RTVSPost2010Prop49
280
     0
102
RTVSPost2010PropOp49
 70
     1
102
RTVSPost2010Prop50
 90
       50
102
RTVSPost2010PropOp50
 70
     1
102
RTVSPost2010Prop51ColorIndex
 90
      256
102
RTVSPost2010Prop51ColorRGB
 90
-16777216
102
RTVSPost2010PropOp51
 70
     0
102
RTVSPost2010Prop52
140
1.0
102
RTVSPost2010PropOp52
 70
     0
102
RTVSPost2010Prop53
 90
        2
102
RTVSPost2010PropOp53
 70
     1
102
RTVSPost2010Prop54
  1
strokes_ogs.tif
102
RTVSPost2010PropOp54
 70
     1
102
RTVSPost2010Prop55
280
     0
102
RTVSPost2010PropOp55
 70
     1
102
RTVSPost2010Prop56
140
1.0
102
RTVSPost2010PropOp56
 70
     1
102
RTVSPost2010Prop57
140
1.0
102
RTVSPost2010PropOp57
 70
     1
  0
XRECORD
  5
142
102
{ACAD_REACTORS
330
141
102
}
330
141
100
AcDbXrecord
280
     1
102
RTVSPost2010Prop28
280
     0
102
RTVSPost2010PropOp28
 70
     0
102
RTVSPost2010Prop29
280
     1
102
RTVSPost2010PropOp29
 70
     0
102
RTVSPost2010Prop30
280
     1
102
RTVSPost2010PropOp30
 70
     0
102
RTVSPost2010Prop31
280
     0
102
RTVSPost2010PropOp31
 70
     0
102
RTVSPost2010Prop32
280
     0
102
RTVSPost2010PropOp32
 70
     0
102
RTVSPost2010Prop33
280
     0
102
RTVSPost2010PropOp33
 70
     0
102
RTVSPost2010Prop34
280
     0
102
RTVSPost2010PropOp34
 70
     0
102
RTVSPost2010Prop35
280
     0
102
RTVSPost2010PropOp35
 70
     0
102
RTVSPost2010Prop36
280
     0
102
RTVSPost2010PropOp36
 70
     0
102
RTVSPost2010Prop37
 90
       50
102
RTVSPost2010PropOp37
 70
     0
102
RTVSPost2010Prop38
140
0.0
102
RTVSPost2010PropOp38
 70
     0
102
RTVSPost2010Prop39
140
1.0
102
RTVSPost2010PropOp39
 70
     0
102
RTVSPost2010Prop40
 90
        0
102
RTVSPost2010PropOp40
 70
     0
102
RTVSPost2010Prop41ColorIndex
 90
       18
102
RTVSPost2010Prop41ColorRGB
 90
        0
102
RTVSPost2010PropOp41
 70
     0
102
RTVSPost2010Prop42
 90
       50
102
RTVSPost2010PropOp42
 70
     0
102
RTVSPost2010Prop43
 90
        3
102
RTVSPost2010PropOp43
 70
     0
102
RTVSPost2010Prop44ColorIndex
 90
        5
102
RTVSPost2010Prop44ColorRGB
 90
      255
102
RTVSPost2010PropOp44
 70
     0
102
RTVSPost2010Prop45
280
     0
102
RTVSPost2010PropOp45
 70
     0
102
RTVSPost2010Prop46
 90
       50
102
RTVSPost2010PropOp46
 70
     0
102
RTVSPost2010Prop47
 90
       50
102
RTVSPost2010PropOp47
 70
     0
102
RTVSPost2010Prop48
 90
       50
102
RTVSPost2010PropOp48
 70
     0
102
RTVSPost2010Prop49
280
     0
102
RTVSPost2010PropOp49
 70
     0
102
RTVSPost2010Prop50
 90
       50
102
RTVSPost2010PropOp50
 70
     0
102
RTVSPost2010Prop51ColorIndex
 90
      256
102
RTVSPost2010Prop51ColorRGB
 90
-16777216
102
RTVSPost2010PropOp51
 70
     0
102
RTVSPost2010Prop52
140
1.0
102
RTVSPost2010PropOp52
 70
     0
102
RTVSPost2010Prop53
 90
        2
102
RTVSPost2010PropOp53
 70
     0
102
RTVSPost2010Prop54
  1
strokes_ogs.tif
102
RTVSPost2010PropOp54
 70
     0
102
RTVSPost2010Prop55
280
     0
102
RTVSPost2010PropOp55
 70
     0
102
RTVSPost2010Prop56
140
1.0
102
RTVSPost2010PropOp56
 70
     0
102
RTVSPost2010Prop57
140
1.0
102
RTVSPost2010PropOp57
 70
     0
  0
XRECORD
  5
128
102
{ACAD_REACTORS
330
127
102
}
330
127
100
AcDbXrecord
280
     1
102
RTVSPost2010Prop28
280
     0
102
RTVSPost2010PropOp28
 70
     1
102
RTVSPost2010Prop29
280
     1
102
RTVSPost2010PropOp29
 70
     1
102
RTVSPost2010Prop30
280
     1
102
RTVSPost2010PropOp30
 70
     1
102
RTVSPost2010Prop31
280
     0
102
RTVSPost2010PropOp31
 70
     1
102
RTVSPost2010Prop32
280
     0
102
RTVSPost2010PropOp32
 70
     1
102
RTVSPost2010Prop33
280
     0
102
RTVSPost2010PropOp33
 70
     1
102
RTVSPost2010Prop34
280
     0
102
RTVSPost2010PropOp34
 70
     1
102
RTVSPost2010Prop35
280
     0
102
RTVSPost2010PropOp35
 70
     1
102
RTVSPost2010Prop36
280
     0
102
RTVSPost2010PropOp36
 70
     1
102
RTVSPost2010Prop37
 90
       50
102
RTVSPost2010PropOp37
 70
     1
102
RTVSPost2010Prop38
140
0.0
102
RTVSPost2010PropOp38
 70
     1
102
RTVSPost2010Prop39
140
1.0
102
RTVSPost2010PropOp39
 70
     1
102
RTVSPost2010Prop40
 90
        0
102
RTVSPost2010PropOp40
 70
     1
102
RTVSPost2010Prop41ColorIndex
 90
       18
102
RTVSPost2010Prop41ColorRGB
 90
        0
102
RTVSPost2010PropOp41
 70
     1
102
RTVSPost2010Prop42
 90
       50
102
RTVSPost2010PropOp42
 70
     1
102
RTVSPost2010Prop43
 90
        3
102
RTVSPost2010PropOp43
 70
     1
102
RTVSPost2010Prop44ColorIndex
 90
        5
102
RTVSPost2010Prop44ColorRGB
 90
      255
102
RTVSPost2010PropOp44
 70
     1
102
RTVSPost2010Prop45
280
     0
102
RTVSPost2010PropOp45
 70
     1
102
RTVSPost2010Prop46
 90
       50
102
RTVSPost2010PropOp46
 70
     1
102
RTVSPost2010Prop47
 90
       50
102
RTVSPost2010PropOp47
 70
     1
102
RTVSPost2010Prop48
 90
       50
102
RTVSPost2010PropOp48
 70
     1
102
RTVSPost2010Prop49
280
     0
102
RTVSPost2010PropOp49
 70
     1
102
RTVSPost2010Prop50
 90
       50
102
RTVSPost2010PropOp50
 70
     1
102
RTVSPost2010Prop51ColorIndex
 90
      256
102
RTVSPost2010Prop51ColorRGB
 90
-16777216
102
RTVSPost2010PropOp51
 70
     0
102
RTVSPost2010Prop52
140
1.0
102
RTVSPost2010PropOp52
 70
     0
102
RTVSPost2010Prop53
 90
        2
102
RTVSPost2010PropOp53
 70
     1
102
RTVSPost2010Prop54
  1
strokes_ogs.tif
102
RTVSPost2010PropOp54
 70
     1
102
RTVSPost2010Prop55
280
     0
102
RTVSPost2010PropOp55
 70
     1
102
RTVSPost2010Prop56
140
1.0
102
RTVSPost2010PropOp56
 70
     1
102
RTVSPost2010Prop57
140
1.0
102
RTVSPost2010PropOp57
 70
     1
  0
XRECORD
  5
13E
102
{ACAD_REACTORS
330
13D
102
}
330
13D
100
AcDbXrecord
280
     1
102
RTVSPost2010Prop28
280
     0
102
RTVSPost2010PropOp28
 70
     1
102
RTVSPost2010Prop29
280
     1
102
RTVSPost2010PropOp29
 70
     1
102
RTVSPost2010Prop30
280
     1
102
RTVSPost2010PropOp30
 70
     1
102
RTVSPost2010Prop31
280
     0
102
RTVSPost2010PropOp31
 70
     1
102
RTVSPost2010Prop32
280
     0
102
RTVSPost2010PropOp32
 70
     1
102
RTVSPost2010Prop33
280
     0
102
RTVSPost2010PropOp33
 70
     1
102
RTVSPost2010Prop34
280
     0
102
RTVSPost2010PropOp34
 70
     1
102
RTVSPost2010Prop35
280
     0
102
RTVSPost2010PropOp35
 70
     1
102
RTVSPost2010Prop36
280
     0
102
RTVSPost2010PropOp36
 70
     1
102
RTVSPost2010Prop37
 90
       50
102
RTVSPost2010PropOp37
 70
     1
102
RTVSPost2010Prop38
140
0.0
102
RTVSPost2010PropOp38
 70
     1
102
RTVSPost2010Prop39
140
1.0
102
RTVSPost2010PropOp39
 70
     1
102
RTVSPost2010Prop40
 90
        0
102
RTVSPost2010PropOp40
 70
     1
102
RTVSPost2010Prop41ColorIndex
 90
       18
102
RTVSPost2010Prop41ColorRGB
 90
        0
102
RTVSPost2010PropOp41
 70
     1
102
RTVSPost2010Prop42
 90
       50
102
RTVSPost2010PropOp42
 70
     1
102
RTVSPost2010Prop43
 90
        3
102
RTVSPost2010PropOp43
 70
     1
102
RTVSPost2010Prop44ColorIndex
 90
        5
102
RTVSPost2010Prop44ColorRGB
 90
      255
102
RTVSPost2010PropOp44
 70
     1
102
RTVSPost2010Prop45
280
     0
102
RTVSPost2010PropOp45
 70
     1
102
RTVSPost2010Prop46
 90
       50
102
RTVSPost2010PropOp46
 70
     1
102
RTVSPost2010Prop47
 90
       50
102
RTVSPost2010PropOp47
 70
     1
102
RTVSPost2010Prop48
 90
       50
102
RTVSPost2010PropOp48
 70
     1
102
RTVSPost2010Prop49
280
     0
102
RTVSPost2010PropOp49
 70
     1
102
RTVSPost2010Prop50
 90
       50
102
RTVSPost2010PropOp50
 70
     1
102
RTVSPost2010Prop51ColorIndex
 90
      256
102
RTVSPost2010Prop51ColorRGB
 90
-16777216
102
RTVSPost2010PropOp51
 70
     0
102
RTVSPost2010Prop52
140
1.0
102
RTVSPost2010PropOp52
 70
     0
102
RTVSPost2010Prop53
 90
        2
102
RTVSPost2010PropOp53
 70
     1
102
RTVSPost2010Prop54
  1
strokes_ogs.tif
102
RTVSPost2010PropOp54
 70
     1
102
RTVSPost2010Prop55
280
     0
102
RTVSPost2010PropOp55
 70
     1
102
RTVSPost2010Prop56
140
1.0
102
RTVSPost2010PropOp56
 70
     1
102
RTVSPost2010Prop57
140
1.0
102
RTVSPost2010PropOp57
 70
     1
  0
XRECORD
  5
13C
102
{ACAD_REACTORS
330
13B
102
}
330
13B
100
AcDbXrecord
280
     1
102
RTVSPost2010Prop28
280
     0
102
RTVSPost2010PropOp28
 70
     1
102
RTVSPost2010Prop29
280
     1
102
RTVSPost2010PropOp29
 70
     1
102
RTVSPost2010Prop30
280
     1
102
RTVSPost2010PropOp30
 70
     1
102
RTVSPost2010Prop31
280
     0
102
RTVSPost2010PropOp31
 70
     1
102
RTVSPost2010Prop32
280
     0
102
RTVSPost2010PropOp32
 70
     1
102
RTVSPost2010Prop33
280
     0
102
RTVSPost2010PropOp33
 70
     1
102
RTVSPost2010Prop34
280
     0
102
RTVSPost2010PropOp34
 70
     1
102
RTVSPost2010Prop35
280
     0
102
RTVSPost2010PropOp35
 70
     1
102
RTVSPost2010Prop36
280
     0
102
RTVSPost2010PropOp36
 70
     1
102
RTVSPost2010Prop37
 90
       50
102
RTVSPost2010PropOp37
 70
     1
102
RTVSPost2010Prop38
140
0.0
102
RTVSPost2010PropOp38
 70
     1
102
RTVSPost2010Prop39
140
1.0
102
RTVSPost2010PropOp39
 70
     1
102
RTVSPost2010Prop40
 90
        0
102
RTVSPost2010PropOp40
 70
     1
102
RTVSPost2010Prop41ColorIndex
 90
       18
102
RTVSPost2010Prop41ColorRGB
 90
        0
102
RTVSPost2010PropOp41
 70
     1
102
RTVSPost2010Prop42
 90
       50
102
RTVSPost2010PropOp42
 70
     1
102
RTVSPost2010Prop43
 90
        3
102
RTVSPost2010PropOp43
 70
     1
102
RTVSPost2010Prop44ColorIndex
 90
        5
102
RTVSPost2010Prop44ColorRGB
 90
      255
102
RTVSPost2010PropOp44
 70
     1
102
RTVSPost2010Prop45
280
     0
102
RTVSPost2010PropOp45
 70
     1
102
RTVSPost2010Prop46
 90
       50
102
RTVSPost2010PropOp46
 70
     1
102
RTVSPost2010Prop47
 90
       50
102
RTVSPost2010PropOp47
 70
     1
102
RTVSPost2010Prop48
 90
       50
102
RTVSPost2010PropOp48
 70
     1
102
RTVSPost2010Prop49
280
     0
102
RTVSPost2010PropOp49
 70
     1
102
RTVSPost2010Prop50
 90
       50
102
RTVSPost2010PropOp50
 70
     1
102
RTVSPost2010Prop51ColorIndex
 90
      256
102
RTVSPost2010Prop51ColorRGB
 90
-16777216
102
RTVSPost2010PropOp51
 70
     0
102
RTVSPost2010Prop52
140
1.0
102
RTVSPost2010PropOp52
 70
     0
102
RTVSPost2010Prop53
 90
        2
102
RTVSPost2010PropOp53
 70
     1
102
RTVSPost2010Prop54
  1
strokes_ogs.tif
102
RTVSPost2010PropOp54
 70
     1
102
RTVSPost2010Prop55
280
     0
102
RTVSPost2010PropOp55
 70
     1
102
RTVSPost2010Prop56
140
1.0
102
RTVSPost2010PropOp56
 70
     1
102
RTVSPost2010Prop57
140
1.0
102
RTVSPost2010PropOp57
 70
     1
  0
XRECORD
  5
136
102
{ACAD_REACTORS
330
135
102
}
330
135
100
AcDbXrecord
280
     1
102
RTVSPost2010Prop28
280
     0
102
RTVSPost2010PropOp28
 70
     1
102
RTVSPost2010Prop29
280
     1
102
RTVSPost2010PropOp29
 70
     1
102
RTVSPost2010Prop30
280
     1
102
RTVSPost2010PropOp30
 70
     1
102
RTVSPost2010Prop31
280
     0
102
RTVSPost2010PropOp31
 70
     1
102
RTVSPost2010Prop32
280
     0
102
RTVSPost2010PropOp32
 70
     1
102
RTVSPost2010Prop33
280
     0
102
RTVSPost2010PropOp33
 70
     1
102
RTVSPost2010Prop34
280
     0
102
RTVSPost2010PropOp34
 70
     1
102
RTVSPost2010Prop35
280
     0
102
RTVSPost2010PropOp35
 70
     1
102
RTVSPost2010Prop36
280
     0
102
RTVSPost2010PropOp36
 70
     1
102
RTVSPost2010Prop37
 90
       50
102
RTVSPost2010PropOp37
 70
     1
102
RTVSPost2010Prop38
140
0.0
102
RTVSPost2010PropOp38
 70
     1
102
RTVSPost2010Prop39
140
1.0
102
RTVSPost2010PropOp39
 70
     1
102
RTVSPost2010Prop40
 90
        0
102
RTVSPost2010PropOp40
 70
     1
102
RTVSPost2010Prop41ColorIndex
 90
       18
102
RTVSPost2010Prop41ColorRGB
 90
        0
102
RTVSPost2010PropOp41
 70
     1
102
RTVSPost2010Prop42
 90
       50
102
RTVSPost2010PropOp42
 70
     1
102
RTVSPost2010Prop43
 90
        3
102
RTVSPost2010PropOp43
 70
     1
102
RTVSPost2010Prop44ColorIndex
 90
        5
102
RTVSPost2010Prop44ColorRGB
 90
      255
102
RTVSPost2010PropOp44
 70
     1
102
RTVSPost2010Prop45
280
     0
102
RTVSPost2010PropOp45
 70
     1
102
RTVSPost2010Prop46
 90
       50
102
RTVSPost2010PropOp46
 70
     1
102
RTVSPost2010Prop47
 90
       50
102
RTVSPost2010PropOp47
 70
     1
102
RTVSPost2010Prop48
 90
       50
102
RTVSPost2010PropOp48
 70
     1
102
RTVSPost2010Prop49
280
     0
102
RTVSPost2010PropOp49
 70
     1
102
RTVSPost2010Prop50
 90
       50
102
RTVSPost2010PropOp50
 70
     1
102
RTVSPost2010Prop51ColorIndex
 90
      256
102
RTVSPost2010Prop51ColorRGB
 90
-16777216
102
RTVSPost2010PropOp51
 70
     0
102
RTVSPost2010Prop52
140
1.0
102
RTVSPost2010PropOp52
 70
     0
102
RTVSPost2010Prop53
 90
        2
102
RTVSPost2010PropOp53
 70
     1
102
RTVSPost2010Prop54
  1
strokes_ogs.tif
102
RTVSPost2010PropOp54
 70
     1
102
RTVSPost2010Prop55
280
     0
102
RTVSPost2010PropOp55
 70
     1
102
RTVSPost2010Prop56
140
1.0
102
RTVSPost2010PropOp56
 70
     1
102
RTVSPost2010Prop57
140
1.0
102
RTVSPost2010PropOp57
 70
     1
  0
XRECORD
  5
138
102
{ACAD_REACTORS
330
137
102
}
330
137
100
AcDbXrecord
280
     1
102
RTVSPost2010Prop28
280
     0
102
RTVSPost2010PropOp28
 70
     1
102
RTVSPost2010Prop29
280
     1
102
RTVSPost2010PropOp29
 70
     1
102
RTVSPost2010Prop30
280
     1
102
RTVSPost2010PropOp30
 70
     1
102
RTVSPost2010Prop31
280
     0
102
RTVSPost2010PropOp31
 70
     1
102
RTVSPost2010Prop32
280
     0
102
RTVSPost2010PropOp32
 70
     1
102
RTVSPost2010Prop33
280
     0
102
RTVSPost2010PropOp33
 70
     1
102
RTVSPost2010Prop34
280
     0
102
RTVSPost2010PropOp34
 70
     1
102
RTVSPost2010Prop35
280
     0
102
RTVSPost2010PropOp35
 70
     1
102
RTVSPost2010Prop36
280
     0
102
RTVSPost2010PropOp36
 70
     1
102
RTVSPost2010Prop37
 90
       50
102
RTVSPost2010PropOp37
 70
     1
102
RTVSPost2010Prop38
140
0.0
102
RTVSPost2010PropOp38
 70
     1
102
RTVSPost2010Prop39
140
1.0
102
RTVSPost2010PropOp39
 70
     1
102
RTVSPost2010Prop40
 90
        0
102
RTVSPost2010PropOp40
 70
     1
102
RTVSPost2010Prop41ColorIndex
 90
       18
102
RTVSPost2010Prop41ColorRGB
 90
        0
102
RTVSPost2010PropOp41
 70
     1
102
RTVSPost2010Prop42
 90
       50
102
RTVSPost2010PropOp42
 70
     1
102
RTVSPost2010Prop43
 90
        3
102
RTVSPost2010PropOp43
 70
     1
102
RTVSPost2010Prop44ColorIndex
 90
        5
102
RTVSPost2010Prop44ColorRGB
 90
      255
102
RTVSPost2010PropOp44
 70
     1
102
RTVSPost2010Prop45
280
     0
102
RTVSPost2010PropOp45
 70
     1
102
RTVSPost2010Prop46
 90
       50
102
RTVSPost2010PropOp46
 70
     1
102
RTVSPost2010Prop47
 90
       50
102
RTVSPost2010PropOp47
 70
     1
102
RTVSPost2010Prop48
 90
       50
102
RTVSPost2010PropOp48
 70
     1
102
RTVSPost2010Prop49
280
     0
102
RTVSPost2010PropOp49
 70
     1
102
RTVSPost2010Prop50
 90
       50
102
RTVSPost2010PropOp50
 70
     1
102
RTVSPost2010Prop51ColorIndex
 90
      256
102
RTVSPost2010Prop51ColorRGB
 90
-16777216
102
RTVSPost2010PropOp51
 70
     0
102
RTVSPost2010Prop52
140
1.0
102
RTVSPost2010PropOp52
 70
     0
102
RTVSPost2010Prop53
 90
        2
102
RTVSPost2010PropOp53
 70
     1
102
RTVSPost2010Prop54
  1
strokes_ogs.tif
102
RTVSPost2010PropOp54
 70
     1
102
RTVSPost2010Prop55
280
     0
102
RTVSPost2010PropOp55
 70
     1
102
RTVSPost2010Prop56
140
1.0
102
RTVSPost2010PropOp56
 70
     1
102
RTVSPost2010Prop57
140
1.0
102
RTVSPost2010PropOp57
 70
     1
  0
XRECORD
  5
12E
102
{ACAD_REACTORS
330
12D
102
}
330
12D
100
AcDbXrecord
280
     1
102
RTVSPost2010Prop28
280
     0
102
RTVSPost2010PropOp28
 70
     1
102
RTVSPost2010Prop29
280
     1
102
RTVSPost2010PropOp29
 70
     1
102
RTVSPost2010Prop30
280
     1
102
RTVSPost2010PropOp30
 70
     1
102
RTVSPost2010Prop31
280
     0
102
RTVSPost2010PropOp31
 70
     1
102
RTVSPost2010Prop32
280
     0
102
RTVSPost2010PropOp32
 70
     1
102
RTVSPost2010Prop33
280
     0
102
RTVSPost2010PropOp33
 70
     1
102
RTVSPost2010Prop34
280
     0
102
RTVSPost2010PropOp34
 70
     1
102
RTVSPost2010Prop35
280
     0
102
RTVSPost2010PropOp35
 70
     1
102
RTVSPost2010Prop36
280
     0
102
RTVSPost2010PropOp36
 70
     1
102
RTVSPost2010Prop37
 90
       50
102
RTVSPost2010PropOp37
 70
     1
102
RTVSPost2010Prop38
140
0.0
102
RTVSPost2010PropOp38
 70
     1
102
RTVSPost2010Prop39
140
1.0
102
RTVSPost2010PropOp39
 70
     1
102
RTVSPost2010Prop40
 90
        0
102
RTVSPost2010PropOp40
 70
     1
102
RTVSPost2010Prop41ColorIndex
 90
       18
102
RTVSPost2010Prop41ColorRGB
 90
        0
102
RTVSPost2010PropOp41
 70
     1
102
RTVSPost2010Prop42
 90
       50
102
RTVSPost2010PropOp42
 70
     1
102
RTVSPost2010Prop43
 90
        3
102
RTVSPost2010PropOp43
 70
     1
102
RTVSPost2010Prop44ColorIndex
 90
        5
102
RTVSPost2010Prop44ColorRGB
 90
      255
102
RTVSPost2010PropOp44
 70
     1
102
RTVSPost2010Prop45
280
     0
102
RTVSPost2010PropOp45
 70
     1
102
RTVSPost2010Prop46
 90
       50
102
RTVSPost2010PropOp46
 70
     1
102
RTVSPost2010Prop47
 90
       50
102
RTVSPost2010PropOp47
 70
     1
102
RTVSPost2010Prop48
 90
       50
102
RTVSPost2010PropOp48
 70
     1
102
RTVSPost2010Prop49
280
     0
102
RTVSPost2010PropOp49
 70
     1
102
RTVSPost2010Prop50
 90
       50
102
RTVSPost2010PropOp50
 70
     1
102
RTVSPost2010Prop51ColorIndex
 90
      256
102
RTVSPost2010Prop51ColorRGB
 90
-16777216
102
RTVSPost2010PropOp51
 70
     0
102
RTVSPost2010Prop52
140
1.0
102
RTVSPost2010PropOp52
 70
     0
102
RTVSPost2010Prop53
 90
        2
102
RTVSPost2010PropOp53
 70
     1
102
RTVSPost2010Prop54
  1
strokes_ogs.tif
102
RTVSPost2010PropOp54
 70
     1
102
RTVSPost2010Prop55
280
     0
102
RTVSPost2010PropOp55
 70
     1
102
RTVSPost2010Prop56
140
1.0
102
RTVSPost2010PropOp56
 70
     1
102
RTVSPost2010Prop57
140
1.0
102
RTVSPost2010PropOp57
 70
     1
  0
XRECORD
  5
122
102
{ACAD_REACTORS
330
121
102
}
330
121
100
AcDbXrecord
280
     1
102
RTVSPost2010Prop28
280
     0
102
RTVSPost2010PropOp28
 70
     1
102
RTVSPost2010Prop29
280
     1
102
RTVSPost2010PropOp29
 70
     1
102
RTVSPost2010Prop30
280
     1
102
RTVSPost2010PropOp30
 70
     1
102
RTVSPost2010Prop31
280
     0
102
RTVSPost2010PropOp31
 70
     1
102
RTVSPost2010Prop32
280
     0
102
RTVSPost2010PropOp32
 70
     1
102
RTVSPost2010Prop33
280
     0
102
RTVSPost2010PropOp33
 70
     1
102
RTVSPost2010Prop34
280
     0
102
RTVSPost2010PropOp34
 70
     1
102
RTVSPost2010Prop35
280
     0
102
RTVSPost2010PropOp35
 70
     1
102
RTVSPost2010Prop36
280
     0
102
RTVSPost2010PropOp36
 70
     1
102
RTVSPost2010Prop37
 90
       50
102
RTVSPost2010PropOp37
 70
     1
102
RTVSPost2010Prop38
140
0.0
102
RTVSPost2010PropOp38
 70
     1
102
RTVSPost2010Prop39
140
1.0
102
RTVSPost2010PropOp39
 70
     1
102
RTVSPost2010Prop40
 90
        0
102
RTVSPost2010PropOp40
 70
     1
102
RTVSPost2010Prop41ColorIndex
 90
       18
102
RTVSPost2010Prop41ColorRGB
 90
        0
102
RTVSPost2010PropOp41
 70
     1
102
RTVSPost2010Prop42
 90
       50
102
RTVSPost2010PropOp42
 70
     1
102
RTVSPost2010Prop43
 90
        3
102
RTVSPost2010PropOp43
 70
     1
102
RTVSPost2010Prop44ColorIndex
 90
        5
102
RTVSPost2010Prop44ColorRGB
 90
      255
102
RTVSPost2010PropOp44
 70
     1
102
RTVSPost2010Prop45
280
     0
102
RTVSPost2010PropOp45
 70
     1
102
RTVSPost2010Prop46
 90
       50
102
RTVSPost2010PropOp46
 70
     1
102
RTVSPost2010Prop47
 90
       50
102
RTVSPost2010PropOp47
 70
     1
102
RTVSPost2010Prop48
 90
       50
102
RTVSPost2010PropOp48
 70
     1
102
RTVSPost2010Prop49
280
     0
102
RTVSPost2010PropOp49
 70
     1
102
RTVSPost2010Prop50
 90
       50
102
RTVSPost2010PropOp50
 70
     1
102
RTVSPost2010Prop51ColorIndex
 90
      256
102
RTVSPost2010Prop51ColorRGB
 90
-16777216
102
RTVSPost2010PropOp51
 70
     0
102
RTVSPost2010Prop52
140
1.0
102
RTVSPost2010PropOp52
 70
     0
102
RTVSPost2010Prop53
 90
        2
102
RTVSPost2010PropOp53
 70
     1
102
RTVSPost2010Prop54
  1
strokes_ogs.tif
102
RTVSPost2010PropOp54
 70
     1
102
RTVSPost2010Prop55
280
     0
102
RTVSPost2010PropOp55
 70
     1
102
RTVSPost2010Prop56
140
1.0
102
RTVSPost2010PropOp56
 70
     1
102
RTVSPost2010Prop57
140
1.0
102
RTVSPost2010PropOp57
 70
     1
  0
XRECORD
  5
13A
102
{ACAD_REACTORS
330
139
102
}
330
139
100
AcDbXrecord
280
     1
102
RTVSPost2010Prop28
280
     0
102
RTVSPost2010PropOp28
 70
     1
102
RTVSPost2010Prop29
280
     1
102
RTVSPost2010PropOp29
 70
     1
102
RTVSPost2010Prop30
280
     1
102
RTVSPost2010PropOp30
 70
     1
102
RTVSPost2010Prop31
280
     0
102
RTVSPost2010PropOp31
 70
     1
102
RTVSPost2010Prop32
280
     0
102
RTVSPost2010PropOp32
 70
     1
102
RTVSPost2010Prop33
280
     0
102
RTVSPost2010PropOp33
 70
     1
102
RTVSPost2010Prop34
280
     0
102
RTVSPost2010PropOp34
 70
     1
102
RTVSPost2010Prop35
280
     0
102
RTVSPost2010PropOp35
 70
     1
102
RTVSPost2010Prop36
280
     0
102
RTVSPost2010PropOp36
 70
     1
102
RTVSPost2010Prop37
 90
       50
102
RTVSPost2010PropOp37
 70
     1
102
RTVSPost2010Prop38
140
0.0
102
RTVSPost2010PropOp38
 70
     1
102
RTVSPost2010Prop39
140
1.0
102
RTVSPost2010PropOp39
 70
     1
102
RTVSPost2010Prop40
 90
        0
102
RTVSPost2010PropOp40
 70
     1
102
RTVSPost2010Prop41ColorIndex
 90
       18
102
RTVSPost2010Prop41ColorRGB
 90
        0
102
RTVSPost2010PropOp41
 70
     1
102
RTVSPost2010Prop42
 90
       50
102
RTVSPost2010PropOp42
 70
     1
102
RTVSPost2010Prop43
 90
        3
102
RTVSPost2010PropOp43
 70
     1
102
RTVSPost2010Prop44ColorIndex
 90
        5
102
RTVSPost2010Prop44ColorRGB
 90
      255
102
RTVSPost2010PropOp44
 70
     1
102
RTVSPost2010Prop45
280
     0
102
RTVSPost2010PropOp45
 70
     1
102
RTVSPost2010Prop46
 90
       50
102
RTVSPost2010PropOp46
 70
     1
102
RTVSPost2010Prop47
 90
       50
102
RTVSPost2010PropOp47
 70
     1
102
RTVSPost2010Prop48
 90
       50
102
RTVSPost2010PropOp48
 70
     1
102
RTVSPost2010Prop49
280
     0
102
RTVSPost2010PropOp49
 70
     1
102
RTVSPost2010Prop50
 90
       50
102
RTVSPost2010PropOp50
 70
     1
102
RTVSPost2010Prop51ColorIndex
 90
      256
102
RTVSPost2010Prop51ColorRGB
 90
-16777216
102
RTVSPost2010PropOp51
 70
     0
102
RTVSPost2010Prop52
140
1.0
102
RTVSPost2010PropOp52
 70
     0
102
RTVSPost2010Prop53
 90
        2
102
RTVSPost2010PropOp53
 70
     1
102
RTVSPost2010Prop54
  1
strokes_ogs.tif
102
RTVSPost2010PropOp54
 70
     1
102
RTVSPost2010Prop55
280
     0
102
RTVSPost2010PropOp55
 70
     1
102
RTVSPost2010Prop56
140
1.0
102
RTVSPost2010PropOp56
 70
     1
102
RTVSPost2010Prop57
140
1.0
102
RTVSPost2010PropOp57
 70
     1
  0
ENDSEC
  0
EOF
