  0
SECTION
  2
HEADER
  9
$ACADVER
  1
AC1024
  9
$ACADMAINTVER
 70
     6
  9
$DWGCODEPAGE
  3
UNDEFINED
  9
$INSBASE
 10
0.0
 20
0.0
 30
0.0
  9
$EXTMIN
 10
1.000000000000000E+20
 20
1.000000000000000E+20
 30
1.000000000000000E+20
  9
$EXTMAX
 10
-1.000000000000000E+20
 20
-1.000000000000000E+20
 30
-1.000000000000000E+20
  9
$LIMMIN
 10
0.0
 20
0.0
  9
$LIMMAX
 10
12.0
 20
9.0
  9
$ORTHOMODE
 70
     0
  9
$REGENMODE
 70
     1
  9
$FILLMODE
 70
     1
  9
$QTEXTMODE
 70
     0
  9
$MIRRTEXT
 70
     1
  9
$LTSCALE
 40
1.0
  9
$ATTMODE
 70
     1
  9
$TEXTSIZE
 40
0.2
  9
$TRACEWID
 40
0.05
  9
$TEXTSTYLE
  7
Standard
  9
$CLAYER
  8
0
  9
$CELTYPE
  6
ByLayer
  9
$CECOLOR
 62
   256
  9
$CELTSCALE
 40
1.0
  9
$DISPSILH
 70
     0
  9
$DIMSCALE
 40
1.0
  9
$DIMASZ
 40
0.18
  9
$DIMEXO
 40
0.0625
  9
$DIMDLI
 40
0.38
  9
$DIMRND
 40
0.0
  9
$DIMDLE
 40
0.0
  9
$DIMEXE
 40
0.18
  9
$DIMTP
 40
0.0
  9
$DIMTM
 40
0.0
  9
$DIMTXT
 40
0.18
  9
$DIMCEN
 40
0.09
  9
$DIMTSZ
 40
0.0
  9
$DIMTOL
 70
     0
  9
$DIMLIM
 70
     0
  9
$DIMTIH
 70
     1
  9
$DIMTOH
 70
     1
  9
$DIMSE1
 70
     0
  9
$DIMSE2
 70
     0
  9
$DIMTAD
 70
     0
  9
$DIMZIN
 70
     0
  9
$DIMBLK
  1

  9
$DIMASO
 70
     1
  9
$DIMSHO
 70
     1
  9
$DIMPOST
  1

  9
$DIMAPOST
  1

  9
$DIMALT
 70
     0
  9
$DIMALTD
 70
     2
  9
$DIMALTF
 40
25.4
  9
$DIMLFAC
 40
1.0
  9
$DIMTOFL
 70
     0
  9
$DIMTVP
 40
0.0
  9
$DIMTIX
 70
     0
  9
$DIMSOXD
 70
     0
  9
$DIMSAH
 70
     0
  9
$DIMBLK1
  1

  9
$DIMBLK2
  1

  9
$DIMSTYLE
  2
Standard
  9
$DIMCLRD
 70
     0
  9
$DIMCLRE
 70
     0
  9
$DIMCLRT
 70
     0
  9
$DIMTFAC
 40
1.0
  9
$DIMGAP
 40
0.09
  9
$DIMJUST
 70
     0
  9
$DIMSD1
 70
     0
  9
$DIMSD2
 70
     0
  9
$DIMTOLJ
 70
     1
  9
$DIMTZIN
 70
     0
  9
$DIMALTZ
 70
     0
  9
$DIMALTTZ
 70
     0
  9
$DIMUPT
 70
     0
  9
$DIMDEC
 70
     4
  9
$DIMTDEC
 70
     4
  9
$DIMALTU
 70
     2
  9
$DIMALTTD
 70
     2
  9
$DIMTXSTY
  7
Standard
  9
$DIMAUNIT
 70
     0
  9
$DIMADEC
 70
     0
  9
$DIMALTRND
 40
0.0
  9
$DIMAZIN
 70
     0
  9
$DIMDSEP
 70
    46
  9
$DIMATFIT
 70
     3
  9
$DIMFRAC
 70
     0
  9
$DIMLDRBLK
  1

  9
$DIMLUNIT
 70
     2
  9
$DIMLWD
 70
    -2
  9
$DIMLWE
 70
    -2
  9
$DIMTMOVE
 70
     0
  9
$DIMFXL
 40
1.0
  9
$DIMFXLON
 70
     0
  9
$DIMJOGANG
 40
0.7853981633974483
  9
$DIMTFILL
 70
     0
  9
$DIMTFILLCLR
 70
     0
  9
$DIMARCSYM
 70
     0
  9
$DIMLTYPE
  6

  9
$DIMLTEX1
  6

  9
$DIMLTEX2
  6

  9
$DIMTXTDIRECTION
 70
     0
  9
$LUNITS
 70
     2
  9
$LUPREC
 70
     4
  9
$SKETCHINC
 40
0.1
  9
$FILLETRAD
 40
0.5
  9
$AUNITS
 70
     0
  9
$AUPREC
 70
     0
  9
$MENU
  1
.
  9
$ELEVATION
 40
0.0
  9
$PELEVATION
 40
0.0
  9
$THICKNESS
 40
0.0
  9
$LIMCHECK
 70
     0
  9
$CHAMFERA
 40
0.5
  9
$CHAMFERB
 40
0.5
  9
$CHAMFERC
 40
1.0
  9
$CHAMFERD
 40
0.0
  9
$SKPOLY
 70
     0
  9
$TDCREATE
 40
2457917.586203692
  9
$TDUCREATE
 40
2457917.211203704
  9
$TDUPDATE
 40
2457917.586203692
  9
$TDUUPDATE
 40
2457917.211203704
  9
$TDINDWG
 40
0.0000000116
  9
$TDUSRTIMER
 40
0.0000000116
  9
$USRTIMER
 70
     1
  9
$ANGBASE
 50
0.0
  9
$ANGDIR
 70
     0
  9
$PDMODE
 70
     0
  9
$PDSIZE
 40
0.0
  9
$PLINEWID
 40
0.0
  9
$SPLFRAME
 70
     0
  9
$SPLINETYPE
 70
     6
  9
$SPLINESEGS
 70
     8
  9
$HANDSEED
  5
106
  9
$SURFTAB1
 70
     6
  9
$SURFTAB2
 70
     6
  9
$SURFTYPE
 70
     6
  9
$SURFU
 70
     6
  9
$SURFV
 70
     6
  9
$UCSBASE
  2

  9
$UCSNAME
  2

  9
$UCSORG
 10
0.0
 20
0.0
 30
0.0
  9
$UCSXDIR
 10
1.0
 20
0.0
 30
0.0
  9
$UCSYDIR
 10
0.0
 20
1.0
 30
0.0
  9
$UCSORTHOREF
  2

  9
$UCSORTHOVIEW
 70
     0
  9
$UCSORGTOP
 10
0.0
 20
0.0
 30
0.0
  9
$UCSORGBOTTOM
 10
0.0
 20
0.0
 30
0.0
  9
$UCSORGLEFT
 10
0.0
 20
0.0
 30
0.0
  9
$UCSORGRIGHT
 10
0.0
 20
0.0
 30
0.0
  9
$UCSORGFRONT
 10
0.0
 20
0.0
 30
0.0
  9
$UCSORGBACK
 10
0.0
 20
0.0
 30
0.0
  9
$PUCSBASE
  2

  9
$PUCSNAME
  2

  9
$PUCSORG
 10
0.0
 20
0.0
 30
0.0
  9
$PUCSXDIR
 10
1.0
 20
0.0
 30
0.0
  9
$PUCSYDIR
 10
0.0
 20
1.0
 30
0.0
  9
$PUCSORTHOREF
  2

  9
$PUCSORTHOVIEW
 70
     0
  9
$PUCSORGTOP
 10
0.0
 20
0.0
 30
0.0
  9
$PUCSORGBOTTOM
 10
0.0
 20
0.0
 30
0.0
  9
$PUCSORGLEFT
 10
0.0
 20
0.0
 30
0.0
  9
$PUCSORGRIGHT
 10
0.0
 20
0.0
 30
0.0
  9
$PUCSORGFRONT
 10
0.0
 20
0.0
 30
0.0
  9
$PUCSORGBACK
 10
0.0
 20
0.0
 30
0.0
  9
$USERI1
 70
     0
  9
$USERI2
 70
     0
  9
$USERI3
 70
     0
  9
$USERI4
 70
     0
  9
$USERI5
 70
     0
  9
$USERR1
 40
0.0
  9
$USERR2
 40
0.0
  9
$USERR3
 40
0.0
  9
$USERR4
 40
0.0
  9
$USERR5
 40
0.0
  9
$WORLDVIEW
 70
     1
  9
$SHADEDGE
 70
     3
  9
$SHADEDIF
 70
    70
  9
$TILEMODE
 70
     1
  9
$MAXACTVP
 70
    64
  9
$PINSBASE
 10
0.0
 20
0.0
 30
0.0
  9
$PLIMCHECK
 70
     0
  9
$PEXTMIN
 10
1.000000000000000E+20
 20
1.000000000000000E+20
 30
1.000000000000000E+20
  9
$PEXTMAX
 10
-1.000000000000000E+20
 20
-1.000000000000000E+20
 30
-1.000000000000000E+20
  9
$PLIMMIN
 10
0.0
 20
0.0
  9
$PLIMMAX
 10
12.0
 20
9.0
  9
$UNITMODE
 70
     0
  9
$VISRETAIN
 70
     1
  9
$PLINEGEN
 70
     0
  9
$PSLTSCALE
 70
     1
  9
$TREEDEPTH
 70
  3020
  9
$CMLSTYLE
  2
Standard
  9
$CMLJUST
 70
     0
  9
$CMLSCALE
 40
1.0
  9
$PROXYGRAPHICS
 70
     1
  9
$MEASUREMENT
 70
     0
  9
$CELWEIGHT
370
    -1
  9
$ENDCAPS
280
     0
  9
$JOINSTYLE
280
     0
  9
$LWDISPLAY
290
     1
  9
$INSUNITS
 70
     1
  9
$HYPERLINKBASE
  1

  9
$STYLESHEET
  1

  9
$XEDIT
290
     1
  9
$CEPSNTYPE
380
     0
  9
$PSTYLEMODE
290
     1
  9
$FINGERPRINTGUID
  2
{F296FC18-3CCD-F1F4-2428-052E133CA958}
  9
$VERSIONGUID
  2
{FAEB1C32-E019-11D5-929B-00C0DF256EC4}
  9
$EXTNAMES
290
     1
  9
$PSVPSCALE
 40
0.0
  9
$OLESTARTUP
290
     0
  9
$SORTENTS
280
   127
  9
$INDEXCTL
280
     0
  9
$HIDETEXT
280
     1
  9
$XCLIPFRAME
280
     2
  9
$HALOGAP
280
     0
  9
$OBSCOLOR
 70
   257
  9
$OBSLTYPE
280
     0
  9
$INTERSECTIONDISPLAY
280
     0
  9
$INTERSECTIONCOLOR
 70
   257
  9
$DIMASSOC
280
     2
  9
$PROJECTNAME
  1

  9
$CAMERADISPLAY
290
     0
  9
$LENSLENGTH
 40
50.0
  9
$CAMERAHEIGHT
 40
0.0
  9
$STEPSPERSEC
 40
2.0
  9
$STEPSIZE
 40
6.0
  9
$3DDWFPREC
 40
2.0
  9
$PSOLWIDTH
 40
0.25
  9
$PSOLHEIGHT
 40
4.0
  9
$LOFTANG1
 40
1.570796326794897
  9
$LOFTANG2
 40
1.570796326794897
  9
$LOFTMAG1
 40
0.0
  9
$LOFTMAG2
 40
0.0
  9
$LOFTPARAM
 70
     7
  9
$LOFTNORMALS
280
     1
  9
$LATITUDE
 40
37.795
  9
$LONGITUDE
 40
-122.394
  9
$NORTHDIRECTION
 40
0.0
  9
$TIMEZONE
 70
 -8000
  9
$LIGHTGLYPHDISPLAY
280
     1
  9
$TILEMODELIGHTSYNCH
280
     1
  9
$CMATERIAL
347
3C
  9
$SOLIDHIST
280
     1
  9
$SHOWHIST
280
     1
  9
$DWFFRAME
280
     2
  9
$DGNFRAME
280
     2
  9
$REALWORLDSCALE
290
     1
  9
$INTERFERECOLOR
 62
   256
  9
$CSHADOW
280
     0
  9
$SHADOWPLANELOCATION
 40
0.0
  0
ENDSEC
  0
SECTION
  2
CLASSES
  0
CLASS
  1
ACDBDICTIONARYWDFLT
  2
AcDbDictionaryWithDefault
  3
ObjectDBX Classes
 90
        0
 91
        4
280
     0
281
     0
  0
CLASS
  1
VISUALSTYLE
  2
AcDbVisualStyle
  3
ObjectDBX Classes
 90
     4095
 91
        4
280
     0
281
     0
  0
CLASS
  1
MATERIAL
  2
AcDbMaterial
  3
ObjectDBX Classes
 90
     1153
 91
        4
280
     0
281
     0
  0
CLASS
  1
SUN
  2
AcDbSun
  3
SCENEOE
 90
     1024
 91
        4
280
     0
281
     0
  0
ENDSEC
  0
SECTION
  2
TABLES
  0
TABLE
  2
VPORT
  5
8
330
0
100
AcDbSymbolTable
 70
     1
  0
VPORT
  5
29
330
8
100
AcDbSymbolTableRecord
100
AcDbViewportTableRecord
  2
*Active
 70
     0
 10
0.0
 20
0.0
 11
1.0
 21
1.0
 12
0.0
 22
0.0
 13
0.0
 23
0.0
 14
0.5
 24
0.5
 15
0.5
 25
0.5
 16
0.0
 26
0.0
 36
1.0
 17
105.0008280156501
 27
-148.4999710739862
 37
0.0
 40
296.9999421479724
 41
0.7070764206636528
 42
50.0
 43
0.0
 44
0.0
 50
0.0
 51
0.0
 71
     0
 72
   100
 73
     1
 74
     3
 75
     0
 76
     0
 77
     0
 78
     0
281
     0
 65
     1
110
0.0
120
0.0
130
0.0
111
1.0
121
0.0
131
0.0
112
0.0
122
1.0
132
0.0
 79
     0
146
0.0
 60
     3
 61
     5
292
     1
282
     1
141
0.0
142
0.0
 63
   250
361
3F
  0
ENDTAB
  0
TABLE
  2
LTYPE
  5
5
330
0
100
AcDbSymbolTable
 70
     1
  0
LTYPE
  5
14
330
5
100
AcDbSymbolTableRecord
100
AcDbLinetypeTableRecord
  2
ByBlock
 70
     0
  3

 72
    65
 73
     0
 40
0.0
  0
LTYPE
  5
15
330
5
100
AcDbSymbolTableRecord
100
AcDbLinetypeTableRecord
  2
ByLayer
 70
     0
  3

 72
    65
 73
     0
 40
0.0
  0
LTYPE
  5
16
330
5
100
AcDbSymbolTableRecord
100
AcDbLinetypeTableRecord
  2
Continuous
 70
     0
  3
Solid line
 72
    65
 73
     0
 40
0.0
  0
ENDTAB
  0
TABLE
  2
LAYER
  5
2
330
0
100
AcDbSymbolTable
 70
     2
  0
LAYER
  5
10
330
2
100
AcDbSymbolTableRecord
100
AcDbLayerTableRecord
  2
0
 70
     0
 62
     7
  6
Continuous
370
    -3
390
F
347
3E
  0
LAYER
  5
40
330
2
100
AcDbSymbolTableRecord
100
AcDbLayerTableRecord
  2
_U+30EC_U+30A4_U+30E4_U+30FC 1
 70
     0
 62
     7
  6
Continuous
370
    -3
390
F
347
3E
  0
ENDTAB
  0
TABLE
  2
STYLE
  5
3
330
0
100
AcDbSymbolTable
 70
     1
  0
STYLE
  5
11
330
3
100
AcDbSymbolTableRecord
100
AcDbTextStyleTableRecord
  2
Standard
 70
     0
 40
0.0
 41
1.0
 50
0.0
 71
     0
 42
0.2
  3
txt
  4

  0
ENDTAB
  0
TABLE
  2
VIEW
  5
6
330
0
100
AcDbSymbolTable
 70
     0
  0
ENDTAB
  0
TABLE
  2
UCS
  5
7
330
0
100
AcDbSymbolTable
 70
     0
  0
ENDTAB
  0
TABLE
  2
APPID
  5
9
330
0
100
AcDbSymbolTable
 70
     1
  0
APPID
  5
12
330
9
100
AcDbSymbolTableRecord
100
AcDbRegAppTableRecord
  2
ACAD
 70
     0
  0
ENDTAB
  0
TABLE
  2
DIMSTYLE
  5
A
330
0
100
AcDbSymbolTable
 70
     1
100
AcDbDimStyleTable
  0
DIMSTYLE
105
27
330
A
100
AcDbSymbolTableRecord
100
AcDbDimStyleTableRecord
  2
Standard
 70
     0
178
     0
340
11
  0
ENDTAB
  0
TABLE
  2
BLOCK_RECORD
  5
1
330
0
100
AcDbSymbolTable
 70
     7
  0
BLOCK_RECORD
  5
1F
330
1
100
AcDbSymbolTableRecord
100
AcDbBlockTableRecord
  2
*Model_Space
340
22
 70
     0
280
     1
281
     0
  0
BLOCK_RECORD
  5
1B
330
1
100
AcDbSymbolTableRecord
100
AcDbBlockTableRecord
  2
*Paper_Space
340
1E
 70
     0
280
     1
281
     0
  0
BLOCK_RECORD
  5
23
330
1
100
AcDbSymbolTableRecord
100
AcDbBlockTableRecord
  2
*Paper_Space0
340
26
 70
     0
280
     1
281
     0
  0
BLOCK_RECORD
  5
41
330
1
100
AcDbSymbolTableRecord
100
AcDbBlockTableRecord
  2
block 2
340
0
102
{BLKREFS
331
42
102
}
 70
     0
280
     1
281
     0
  0
BLOCK_RECORD
  5
75
330
1
100
AcDbSymbolTableRecord
100
AcDbBlockTableRecord
  2
block 3
340
0
102
{BLKREFS
331
76
102
}
 70
     0
280
     1
281
     0
  0
BLOCK_RECORD
  5
8D
330
1
100
AcDbSymbolTableRecord
100
AcDbBlockTableRecord
  2
block 4
340
0
102
{BLKREFS
331
8E
102
}
 70
     0
280
     1
281
     0
  0
BLOCK_RECORD
  5
C1
330
1
100
AcDbSymbolTableRecord
100
AcDbBlockTableRecord
  2
block 5
340
0
102
{BLKREFS
331
C2
102
}
 70
     0
280
     1
281
     0
  0
BLOCK_RECORD
  5
DD
330
1
100
AcDbSymbolTableRecord
100
AcDbBlockTableRecord
  2
block 6
340
0
102
{BLKREFS
331
DE
102
}
 70
     0
280
     1
281
     0
  0
BLOCK_RECORD
  5
FB
330
1
100
AcDbSymbolTableRecord
100
AcDbBlockTableRecord
  2
block 7
340
0
102
{BLKREFS
331
FC
102
}
 70
     0
280
     1
281
     0
  0
ENDTAB
  0
ENDSEC
  0
SECTION
  2
BLOCKS
  0
BLOCK
  5
20
330
1F
100
AcDbEntity
  8
0
100
AcDbBlockBegin
  2
*Model_Space
 70
     0
 10
0.0
 20
0.0
 30
0.0
  3
*Model_Space
  1

  0
ENDBLK
  5
21
330
1F
100
AcDbEntity
  8
0
100
AcDbBlockEnd
  0
BLOCK
  5
1C
330
1B
100
AcDbEntity
 67
     1
  8
0
100
AcDbBlockBegin
  2
*Paper_Space
 70
     0
 10
0.0
 20
0.0
 30
0.0
  3
*Paper_Space
  1

  0
ENDBLK
  5
1D
330
1B
100
AcDbEntity
 67
     1
  8
0
100
AcDbBlockEnd
  0
BLOCK
  5
24
330
23
100
AcDbEntity
  8
0
100
AcDbBlockBegin
  2
*Paper_Space0
 70
     0
 10
0.0
 20
0.0
 30
0.0
  3
*Paper_Space0
  1

  0
ENDBLK
  5
25
330
23
100
AcDbEntity
  8
0
100
AcDbBlockEnd
  0
BLOCK
  5
43
330
41
100
AcDbEntity
  8
0
100
AcDbBlockBegin
  2
block 2
 70
     0
 10
0.0
 20
0.0
 30
0.0
  3
block 2
  1

  0
POLYLINE
  5
45
330
41
100
AcDbEntity
  8
_U+30EC_U+30A4_U+30E4_U+30FC 1
 62
   179
420
  2234388
370
    25
100
AcDb2dPolyline
 66
     1
 10
0.0
 20
0.0
 30
0.0
  0
VERTEX
  5
46
330
45
100
AcDbEntity
  8
_U+30EC_U+30A4_U+30E4_U+30FC 1
 62
   179
420
  2234388
370
    25
100
AcDbVertex
100
AcDb2dVertex
 10
89.98863464864311
 20
-142.6810427421076
 30
0.0
  0
VERTEX
  5
47
330
45
100
AcDbEntity
  8
_U+30EC_U+30A4_U+30E4_U+30FC 1
 62
   179
420
  2234388
370
    25
100
AcDbVertex
100
AcDb2dVertex
 10
101.0887518654555
 20
-142.6810427421076
 30
0.0
  0
SEQEND
  5
48
330
45
100
AcDbEntity
  8
_U+30EC_U+30A4_U+30E4_U+30FC 1
 62
   179
420
  2234388
370
    25
  0
POLYLINE
  5
49
330
41
100
AcDbEntity
  8
_U+30EC_U+30A4_U+30E4_U+30FC 1
 62
   179
420
  2234388
370
    25
100
AcDb2dPolyline
 66
     1
 10
0.0
 20
0.0
 30
0.0
  0
VERTEX
  5
4A
330
49
100
AcDbEntity
  8
_U+30EC_U+30A4_U+30E4_U+30FC 1
 62
   179
420
  2234388
370
    25
100
AcDbVertex
100
AcDb2dVertex
 10
99.988720226853
 20
-143.7810744084992
 30
0.0
  0
VERTEX
  5
4B
330
49
100
AcDbEntity
  8
_U+30EC_U+30A4_U+30E4_U+30FC 1
 62
   179
420
  2234388
370
    25
100
AcDbVertex
100
AcDb2dVertex
 10
99.988720226853
 20
-156.2809082942632
 30
0.0
  0
SEQEND
  5
4C
330
49
100
AcDbEntity
  8
_U+30EC_U+30A4_U+30E4_U+30FC 1
 62
   179
420
  2234388
370
    25
  0
POLYLINE
  5
4D
330
41
100
AcDbEntity
  8
_U+30EC_U+30A4_U+30E4_U+30FC 1
 62
   179
420
  2234388
370
    25
100
AcDb2dPolyline
 66
     1
 10
0.0
 20
0.0
 30
0.0
  0
VERTEX
  5
4E
330
4D
100
AcDbEntity
  8
_U+30EC_U+30A4_U+30E4_U+30FC 1
 62
   179
420
  2234388
370
    25
100
AcDbVertex
100
AcDb2dVertex
 10
89.98863464864311
 20
-142.6810427421076
 30
0.0
  0
VERTEX
  5
4F
330
4D
100
AcDbEntity
  8
_U+30EC_U+30A4_U+30E4_U+30FC 1
 62
   179
420
  2234388
370
    25
100
AcDbVertex
100
AcDb2dVertex
 10
89.98863464864311
 20
-143.7810744084992
 30
0.0
  0
SEQEND
  5
50
330
4D
100
AcDbEntity
  8
_U+30EC_U+30A4_U+30E4_U+30FC 1
 62
   179
420
  2234388
370
    25
  0
POLYLINE
  5
51
330
41
100
AcDbEntity
  8
_U+30EC_U+30A4_U+30E4_U+30FC 1
 62
   179
420
  2234388
370
    25
100
AcDb2dPolyline
 66
     1
 10
0.0
 20
0.0
 30
0.0
  0
VERTEX
  5
52
330
51
100
AcDbEntity
  8
_U+30EC_U+30A4_U+30E4_U+30FC 1
 62
   179
420
  2234388
370
    25
100
AcDbVertex
100
AcDb2dVertex
 10
101.0887518654555
 20
-142.6810427421076
 30
0.0
  0
VERTEX
  5
53
330
51
100
AcDbEntity
  8
_U+30EC_U+30A4_U+30E4_U+30FC 1
 62
   179
420
  2234388
370
    25
100
AcDbVertex
100
AcDb2dVertex
 10
101.0887518654555
 20
-155.181229405649
 30
0.0
  0
SEQEND
  5
54
330
51
100
AcDbEntity
  8
_U+30EC_U+30A4_U+30E4_U+30FC 1
 62
   179
420
  2234388
370
    25
  0
POLYLINE
  5
55
330
41
100
AcDbEntity
  8
_U+30EC_U+30A4_U+30E4_U+30FC 1
 62
   179
420
  2234388
370
    25
100
AcDb2dPolyline
 66
     1
 10
0.0
 20
0.0
 30
0.0
  0
VERTEX
  5
56
330
55
100
AcDbEntity
  8
_U+30EC_U+30A4_U+30E4_U+30FC 1
 62
   179
420
  2234388
370
    25
100
AcDbVertex
100
AcDb2dVertex
 10
116.9889045153644
 20
-155.181229405649
 30
0.0
  0
VERTEX
  5
57
330
55
100
AcDbEntity
  8
_U+30EC_U+30A4_U+30E4_U+30FC 1
 62
   179
420
  2234388
370
    25
100
AcDbVertex
100
AcDb2dVertex
 10
116.9889045153644
 20
-155.5812088499933
 30
0.0
  0
SEQEND
  5
58
330
55
100
AcDbEntity
  8
_U+30EC_U+30A4_U+30E4_U+30FC 1
 62
   179
420
  2234388
370
    25
  0
POLYLINE
  5
59
330
41
100
AcDbEntity
  8
_U+30EC_U+30A4_U+30E4_U+30FC 1
 62
   179
420
  2234388
370
    25
100
AcDb2dPolyline
 66
     1
 10
0.0
 20
0.0
 30
0.0
  0
VERTEX
  5
5A
330
59
100
AcDbEntity
  8
_U+30EC_U+30A4_U+30E4_U+30FC 1
 62
   179
420
  2234388
370
    25
100
AcDbVertex
100
AcDb2dVertex
 10
101.0887518654555
 20
-155.181229405649
 30
0.0
  0
VERTEX
  5
5B
330
59
100
AcDbEntity
  8
_U+30EC_U+30A4_U+30E4_U+30FC 1
 62
   179
420
  2234388
370
    25
100
AcDbVertex
100
AcDb2dVertex
 10
116.9889045153644
 20
-155.181229405649
 30
0.0
  0
SEQEND
  5
5C
330
59
100
AcDbEntity
  8
_U+30EC_U+30A4_U+30E4_U+30FC 1
 62
   179
420
  2234388
370
    25
  0
POLYLINE
  5
5D
330
41
100
AcDbEntity
  8
_U+30EC_U+30A4_U+30E4_U+30FC 1
 62
   179
420
  2234388
370
    25
100
AcDb2dPolyline
 66
     1
 10
0.0
 20
0.0
 30
0.0
  0
VERTEX
  5
5E
330
5D
100
AcDbEntity
  8
_U+30EC_U+30A4_U+30E4_U+30FC 1
 62
   179
420
  2234388
370
    25
100
AcDbVertex
100
AcDb2dVertex
 10
116.9889045153644
 20
-155.5812088499933
 30
0.0
  0
VERTEX
  5
5F
330
5D
100
AcDbEntity
  8
_U+30EC_U+30A4_U+30E4_U+30FC 1
 62
   179
420
  2234388
370
    25
100
AcDbVertex
100
AcDb2dVertex
 10
99.988720226853
 20
-156.2809082942632
 30
0.0
  0
SEQEND
  5
60
330
5D
100
AcDbEntity
  8
_U+30EC_U+30A4_U+30E4_U+30FC 1
 62
   179
420
  2234388
370
    25
  0
POLYLINE
  5
61
330
41
100
AcDbEntity
  8
_U+30EC_U+30A4_U+30E4_U+30FC 1
 62
   179
420
  2234388
370
    25
100
AcDb2dPolyline
 66
     1
 10
0.0
 20
0.0
 30
0.0
  0
VERTEX
  5
62
330
61
100
AcDbEntity
  8
_U+30EC_U+30A4_U+30E4_U+30FC 1
 62
   179
420
  2234388
370
    25
100
AcDbVertex
100
AcDb2dVertex
 10
89.98863464864311
 20
-143.7810744084992
 30
0.0
  0
VERTEX
  5
63
330
61
100
AcDbEntity
  8
_U+30EC_U+30A4_U+30E4_U+30FC 1
 62
   179
420
  2234388
370
    25
100
AcDbVertex
100
AcDb2dVertex
 10
99.988720226853
 20
-143.7810744084992
 30
0.0
  0
SEQEND
  5
64
330
61
100
AcDbEntity
  8
_U+30EC_U+30A4_U+30E4_U+30FC 1
 62
   179
420
  2234388
370
    25
  0
ENDBLK
  5
44
330
41
100
AcDbEntity
  8
0
100
AcDbBlockEnd
  0
BLOCK
  5
77
330
75
100
AcDbEntity
  8
0
100
AcDbBlockBegin
  2
block 3
 70
     0
 10
0.0
 20
0.0
 30
0.0
  3
block 3
  1

  0
SPLINE
  5
79
330
75
100
AcDbEntity
  8
_U+30EC_U+30A4_U+30E4_U+30FC 1
370
     0
100
AcDbSpline
210
0.0
220
0.0
230
1.0
 70
    11
 71
     3
 72
    26
 73
    22
 74
     0
 42
0.0000000001
 43
0.0000000001
 12
1.0
 22
0.0
 32
0.0
 13
1.0
 23
0.0
 33
0.0
 40
0.0
 40
0.0
 40
0.0
 40
0.0
 40
1.0
 40
1.0
 40
1.0
 40
2.0
 40
2.0
 40
2.0
 40
3.0
 40
3.0
 40
3.0
 40
4.0
 40
4.0
 40
4.0
 40
5.0
 40
5.0
 40
5.0
 40
6.0
 40
6.0
 40
6.0
 40
7.0
 40
7.0
 40
7.0
 40
7.0
 10
107.9468993870758
 20
-159.6350449904732
 30
0.0
 10
107.9468993870758
 20
-159.6350449904732
 30
0.0
 10
107.9468993870758
 20
-158.5308918874506
 30
0.0
 10
107.9468993870758
 20
-158.5308918874506
 30
0.0
 10
107.9468993870758
 20
-158.5308918874506
 30
0.0
 10
107.6654350859309
 20
-158.5308918874506
 30
0.0
 10
107.6654350859309
 20
-158.5308918874506
 30
0.0
 10
107.6654350859309
 20
-158.5308918874506
 30
0.0
 10
107.6654350859309
 20
-158.3827527815849
 30
0.0
 10
107.6654350859309
 20
-158.3827527815849
 30
0.0
 10
107.9486219348184
 20
-158.3679388709983
 30
0.0
 10
107.9882405328988
 20
-158.204985854546
 30
0.0
 10
108.0133897299411
 20
-158.0906086844357
 30
0.0
 10
108.0133897299411
 20
-158.0906086844357
 30
0.0
 10
108.1381021865071
 20
-158.0906086844357
 30
0.0
 10
108.1381021865071
 20
-158.0906086844357
 30
0.0
 10
108.1381021865071
 20
-158.0906086844357
 30
0.0
 10
108.1381021865071
 20
-159.6350449904732
 30
0.0
 10
108.1381021865071
 20
-159.6350449904732
 30
0.0
 10
108.1381021865071
 20
-159.6350449904732
 30
0.0
 10
107.9468993870758
 20
-159.6350449904732
 30
0.0
 10
107.9468993870758
 20
-159.6350449904732
 30
0.0
  0
HATCH
  5
7A
330
75
100
AcDbEntity
  8
_U+30EC_U+30A4_U+30E4_U+30FC 1
 62
   179
420
  2234388
100
AcDbHatch
 10
0.0
 20
0.0
 30
0.0
210
0.0
220
0.0
230
1.0
  2
SOLID
 70
     1
 71
     0
 91
        1
 92
        1
 93
        1
 72
     4
 94
        3
 73
     0
 74
     1
 95
       26
 96
       22
 40
0.0
 40
0.0
 40
0.0
 40
0.0
 40
1.0
 40
1.0
 40
1.0
 40
2.0
 40
2.0
 40
2.0
 40
3.0
 40
3.0
 40
3.0
 40
4.0
 40
4.0
 40
4.0
 40
5.0
 40
5.0
 40
5.0
 40
6.0
 40
6.0
 40
6.0
 40
7.0
 40
7.0
 40
7.0
 40
7.0
 10
107.9468993870758
 20
-159.6350449904732
 10
107.9468993870758
 20
-159.6350449904732
 10
107.9468993870758
 20
-158.5308918874506
 10
107.9468993870758
 20
-158.5308918874506
 10
107.9468993870758
 20
-158.5308918874506
 10
107.6654350859309
 20
-158.5308918874506
 10
107.6654350859309
 20
-158.5308918874506
 10
107.6654350859309
 20
-158.5308918874506
 10
107.6654350859309
 20
-158.3827527815849
 10
107.6654350859309
 20
-158.3827527815849
 10
107.9486219348184
 20
-158.3679388709983
 10
107.9882405328988
 20
-158.204985854546
 10
108.0133897299411
 20
-158.0906086844357
 10
108.0133897299411
 20
-158.0906086844357
 10
108.1381021865071
 20
-158.0906086844357
 10
108.1381021865071
 20
-158.0906086844357
 10
108.1381021865071
 20
-158.0906086844357
 10
108.1381021865071
 20
-159.6350449904732
 10
108.1381021865071
 20
-159.6350449904732
 10
108.1381021865071
 20
-159.6350449904732
 10
107.9468993870758
 20
-159.6350449904732
 10
107.9468993870758
 20
-159.6350449904732
 97
        0
 97
        0
 75
     2
 76
     1
 98
        0
  0
SPLINE
  5
7B
330
75
100
AcDbEntity
  8
_U+30EC_U+30A4_U+30E4_U+30FC 1
370
     0
100
AcDbSpline
210
0.0
220
0.0
230
1.0
 70
    11
 71
     3
 72
    26
 73
    22
 74
     0
 42
0.0000000001
 43
0.0000000001
 12
1.0
 22
0.0
 32
0.0
 13
1.0
 23
0.0
 33
0.0
 40
0.0
 40
0.0
 40
0.0
 40
0.0
 40
1.0
 40
1.0
 40
1.0
 40
2.0
 40
2.0
 40
2.0
 40
3.0
 40
3.0
 40
3.0
 40
4.0
 40
4.0
 40
4.0
 40
5.0
 40
5.0
 40
5.0
 40
6.0
 40
6.0
 40
6.0
 40
7.0
 40
7.0
 40
7.0
 40
7.0
 10
108.9142821993339
 20
-159.6350449904732
 30
0.0
 10
108.9142821993339
 20
-159.6350449904732
 30
0.0
 10
108.7123996038983
 20
-159.6350449904732
 30
0.0
 10
108.7123996038983
 20
-159.6350449904732
 30
0.0
 10
108.7341037054554
 20
-159.3260199254463
 30
0.0
 10
108.8980902505533
 20
-158.8078775644647
 30
0.0
 10
109.2443223468209
 20
-158.30213754723
 30
0.0
 10
109.2443223468209
 20
-158.30213754723
 30
0.0
 10
108.5301540527286
 20
-158.30213754723
 30
0.0
 10
108.5301540527286
 20
-158.30213754723
 30
0.0
 10
108.5301540527286
 20
-158.30213754723
 30
0.0
 10
108.5301540527286
 20
-158.0906086844357
 30
0.0
 10
108.5301540527286
 20
-158.0906086844357
 30
0.0
 10
108.5301540527286
 20
-158.0906086844357
 30
0.0
 10
109.4462049422565
 20
-158.0906086844357
 30
0.0
 10
109.4462049422565
 20
-158.0906086844357
 30
0.0
 10
109.4462049422565
 20
-158.0906086844357
 30
0.0
 10
109.4462049422565
 20
-158.30213754723
 30
0.0
 10
109.4462049422565
 20
-158.30213754723
 30
0.0
 10
109.1705973034365
 20
-158.5922145870881
 30
0.0
 10
108.94322100141
 20
-159.1844265010025
 30
0.0
 10
108.9142821993339
 20
-159.6350449904732
 30
0.0
  0
HATCH
  5
7C
330
75
100
AcDbEntity
  8
_U+30EC_U+30A4_U+30E4_U+30FC 1
 62
   179
420
  2234388
100
AcDbHatch
 10
0.0
 20
0.0
 30
0.0
210
0.0
220
0.0
230
1.0
  2
SOLID
 70
     1
 71
     0
 91
        1
 92
        1
 93
        1
 72
     4
 94
        3
 73
     0
 74
     1
 95
       26
 96
       22
 40
0.0
 40
0.0
 40
0.0
 40
0.0
 40
1.0
 40
1.0
 40
1.0
 40
2.0
 40
2.0
 40
2.0
 40
3.0
 40
3.0
 40
3.0
 40
4.0
 40
4.0
 40
4.0
 40
5.0
 40
5.0
 40
5.0
 40
6.0
 40
6.0
 40
6.0
 40
7.0
 40
7.0
 40
7.0
 40
7.0
 10
108.9142821993339
 20
-159.6350449904732
 10
108.9142821993339
 20
-159.6350449904732
 10
108.7123996038983
 20
-159.6350449904732
 10
108.7123996038983
 20
-159.6350449904732
 10
108.7341037054554
 20
-159.3260199254463
 10
108.8980902505533
 20
-158.8078775644647
 10
109.2443223468209
 20
-158.30213754723
 10
109.2443223468209
 20
-158.30213754723
 10
108.5301540527286
 20
-158.30213754723
 10
108.5301540527286
 20
-158.30213754723
 10
108.5301540527286
 20
-158.30213754723
 10
108.5301540527286
 20
-158.0906086844357
 10
108.5301540527286
 20
-158.0906086844357
 10
108.5301540527286
 20
-158.0906086844357
 10
109.4462049422565
 20
-158.0906086844357
 10
109.4462049422565
 20
-158.0906086844357
 10
109.4462049422565
 20
-158.0906086844357
 10
109.4462049422565
 20
-158.30213754723
 10
109.4462049422565
 20
-158.30213754723
 10
109.1705973034365
 20
-158.5922145870881
 10
108.94322100141
 20
-159.1844265010025
 10
108.9142821993339
 20
-159.6350449904732
 97
        0
 97
        0
 75
     2
 76
     1
 98
        0
  0
ENDBLK
  5
78
330
75
100
AcDbEntity
  8
0
100
AcDbBlockEnd
  0
BLOCK
  5
8F
330
8D
100
AcDbEntity
  8
0
100
AcDbBlockBegin
  2
block 4
 70
     0
 10
0.0
 20
0.0
 30
0.0
  3
block 4
  1

  0
SPLINE
  5
91
330
8D
100
AcDbEntity
  8
_U+30EC_U+30A4_U+30E4_U+30FC 1
370
     0
100
AcDbSpline
210
0.0
220
0.0
230
1.0
 70
    11
 71
     3
 72
    29
 73
    25
 74
     0
 42
0.0000000001
 43
0.0000000001
 12
1.0
 22
0.0
 32
0.0
 13
1.0
 23
0.0
 33
0.0
 40
0.0
 40
0.0
 40
0.0
 40
0.0
 40
1.0
 40
1.0
 40
1.0
 40
2.0
 40
2.0
 40
2.0
 40
3.0
 40
3.0
 40
3.0
 40
4.0
 40
4.0
 40
4.0
 40
5.0
 40
5.0
 40
5.0
 40
6.0
 40
6.0
 40
6.0
 40
7.0
 40
7.0
 40
7.0
 40
8.0
 40
8.0
 40
8.0
 40
8.0
 10
123.9014810888163
 20
-155.9977131771464
 30
0.0
 10
124.1109428943195
 20
-156.0896972266026
 30
0.0
 10
124.1298909194884
 20
-156.2374918229198
 30
0.0
 10
124.1298909194884
 20
-156.336710572895
 30
0.0
 10
124.1298909194884
 20
-156.4738253732079
 30
0.0
 10
124.0833821304375
 20
-156.5944037151917
 30
0.0
 10
123.9014810888163
 20
-156.6757079686436
 30
0.0
 10
123.7068331938997
 20
-156.763902413066
 30
0.0
 10
123.470155134063
 20
-156.7800943618466
 30
0.0
 10
123.3072021176107
 20
-156.7800943618466
 30
0.0
 10
123.1631971263273
 20
-156.7800943618466
 30
0.0
 10
122.9113606463555
 20
-156.7659694703571
 30
0.0
 10
122.7125786368566
 20
-156.6757079686436
 30
0.0
 10
122.5096625127754
 20
-156.5837239191874
 30
0.0
 10
122.4862358634757
 20
-156.4466091188745
 30
0.0
 10
122.4862358634757
 20
-156.336710572895
 30
0.0
 10
122.4862358634757
 20
-156.2013183203247
 30
0.0
 10
122.5306775952354
 20
-156.0786729210498
 30
0.0
 10
122.7125786368566
 20
-155.9977131771464
 30
0.0
 10
122.905159474482
 20
-155.9129638282093
 30
0.0
 10
123.1335693051541
 20
-155.8929822743948
 30
0.0
 10
123.3072021176107
 20
-155.8929822743948
 30
0.0
 10
123.4784233632276
 20
-155.8929822743948
 30
0.0
 10
123.7089002511908
 20
-155.9112412804666
 30
0.0
 10
123.9014810888163
 20
-155.9977131771464
 30
0.0
  0
SPLINE
  5
92
330
8D
100
AcDbEntity
  8
_U+30EC_U+30A4_U+30E4_U+30FC 1
370
     0
100
AcDbSpline
210
0.0
220
0.0
230
1.0
 70
    11
 71
     3
 72
    17
 73
    13
 74
     0
 42
0.0000000001
 43
0.0000000001
 12
1.0
 22
0.0
 32
0.0
 13
1.0
 23
0.0
 33
0.0
 40
0.0
 40
0.0
 40
0.0
 40
0.0
 40
1.0
 40
1.0
 40
1.0
 40
2.0
 40
2.0
 40
2.0
 40
3.0
 40
3.0
 40
3.0
 40
4.0
 40
4.0
 40
4.0
 40
4.0
 10
122.6788167011011
 20
-156.336710572895
 30
0.0
 10
122.6788167011011
 20
-156.5492729643349
 30
0.0
 10
122.9623480595372
 20
-156.5892360719638
 30
0.0
 10
123.3072021176107
 20
-156.5892360719638
 30
0.0
 10
123.6265624690934
 20
-156.5892360719638
 30
0.0
 10
123.9352430245717
 20
-156.5585747221451
 30
0.0
 10
123.9352430245717
 20
-156.336710572895
 30
0.0
 10
123.9352430245717
 20
-156.1255262196492
 30
0.0
 10
123.6541232329754
 20
-156.0841850738262
 30
0.0
 10
123.3072021176107
 20
-156.0841850738262
 30
0.0
 10
122.9874972565795
 20
-156.0841850738262
 30
0.0
 10
122.6788167011011
 20
-156.1165689713875
 30
0.0
 10
122.6788167011011
 20
-156.336710572895
 30
0.0
  0
HATCH
  5
93
330
8D
100
AcDbEntity
  8
_U+30EC_U+30A4_U+30E4_U+30FC 1
 62
   179
420
  2234388
100
AcDbHatch
 10
0.0
 20
0.0
 30
0.0
210
0.0
220
0.0
230
1.0
  2
SOLID
 70
     1
 71
     0
 91
        2
 92
        1
 93
        1
 72
     4
 94
        3
 73
     0
 74
     1
 95
       29
 96
       25
 40
0.0
 40
0.0
 40
0.0
 40
0.0
 40
1.0
 40
1.0
 40
1.0
 40
2.0
 40
2.0
 40
2.0
 40
3.0
 40
3.0
 40
3.0
 40
4.0
 40
4.0
 40
4.0
 40
5.0
 40
5.0
 40
5.0
 40
6.0
 40
6.0
 40
6.0
 40
7.0
 40
7.0
 40
7.0
 40
8.0
 40
8.0
 40
8.0
 40
8.0
 10
123.9014810888163
 20
-155.9977131771464
 10
124.1109428943195
 20
-156.0896972266026
 10
124.1298909194884
 20
-156.2374918229198
 10
124.1298909194884
 20
-156.336710572895
 10
124.1298909194884
 20
-156.4738253732079
 10
124.0833821304375
 20
-156.5944037151917
 10
123.9014810888163
 20
-156.6757079686436
 10
123.7068331938997
 20
-156.763902413066
 10
123.470155134063
 20
-156.7800943618466
 10
123.3072021176107
 20
-156.7800943618466
 10
123.1631971263273
 20
-156.7800943618466
 10
122.9113606463555
 20
-156.7659694703571
 10
122.7125786368566
 20
-156.6757079686436
 10
122.5096625127754
 20
-156.5837239191874
 10
122.4862358634757
 20
-156.4466091188745
 10
122.4862358634757
 20
-156.336710572895
 10
122.4862358634757
 20
-156.2013183203247
 10
122.5306775952354
 20
-156.0786729210498
 10
122.7125786368566
 20
-155.9977131771464
 10
122.905159474482
 20
-155.9129638282093
 10
123.1335693051541
 20
-155.8929822743948
 10
123.3072021176107
 20
-155.8929822743948
 10
123.4784233632276
 20
-155.8929822743948
 10
123.7089002511908
 20
-155.9112412804666
 10
123.9014810888163
 20
-155.9977131771464
 97
        0
 97
        0
 92
        1
 93
        1
 72
     4
 94
        3
 73
     0
 74
     1
 95
       17
 96
       13
 40
0.0
 40
0.0
 40
0.0
 40
0.0
 40
1.0
 40
1.0
 40
1.0
 40
2.0
 40
2.0
 40
2.0
 40
3.0
 40
3.0
 40
3.0
 40
4.0
 40
4.0
 40
4.0
 40
4.0
 10
122.6788167011011
 20
-156.336710572895
 10
122.6788167011011
 20
-156.5492729643349
 10
122.9623480595372
 20
-156.5892360719638
 10
123.3072021176107
 20
-156.5892360719638
 10
123.6265624690934
 20
-156.5892360719638
 10
123.9352430245717
 20
-156.5585747221451
 10
123.9352430245717
 20
-156.336710572895
 10
123.9352430245717
 20
-156.1255262196492
 10
123.6541232329754
 20
-156.0841850738262
 10
123.3072021176107
 20
-156.0841850738262
 10
122.9874972565795
 20
-156.0841850738262
 10
122.6788167011011
 20
-156.1165689713875
 10
122.6788167011011
 20
-156.336710572895
 97
        0
 97
        0
 75
     2
 76
     1
 98
        0
  0
POLYLINE
  5
94
330
8D
100
AcDbEntity
  8
_U+30EC_U+30A4_U+30E4_U+30FC 1
370
     0
100
AcDb2dPolyline
 66
     1
 10
0.0
 20
0.0
 30
0.0
  0
VERTEX
  5
95
330
94
100
AcDbEntity
  8
_U+30EC_U+30A4_U+30E4_U+30FC 1
370
     0
100
AcDbVertex
100
AcDb2dVertex
 10
124.0792480158552
 20
-155.710047704128
 30
0.0
  0
VERTEX
  5
96
330
94
100
AcDbEntity
  8
_U+30EC_U+30A4_U+30E4_U+30FC 1
370
     0
100
AcDbVertex
100
AcDb2dVertex
 10
123.8274115358834
 20
-155.710047704128
 30
0.0
  0
VERTEX
  5
97
330
94
100
AcDbEntity
  8
_U+30EC_U+30A4_U+30E4_U+30FC 1
370
     0
100
AcDbVertex
100
AcDb2dVertex
 10
123.8274115358834
 20
-155.495418255397
 30
0.0
  0
VERTEX
  5
98
330
94
100
AcDbEntity
  8
_U+30EC_U+30A4_U+30E4_U+30FC 1
370
     0
100
AcDbVertex
100
AcDb2dVertex
 10
124.0792480158552
 20
-155.495418255397
 30
0.0
  0
VERTEX
  5
99
330
94
100
AcDbEntity
  8
_U+30EC_U+30A4_U+30E4_U+30FC 1
370
     0
100
AcDbVertex
100
AcDb2dVertex
 10
124.0792480158552
 20
-155.710047704128
 30
0.0
  0
SEQEND
  5
9A
330
94
100
AcDbEntity
  8
_U+30EC_U+30A4_U+30E4_U+30FC 1
370
     0
  0
HATCH
  5
9B
330
8D
100
AcDbEntity
  8
_U+30EC_U+30A4_U+30E4_U+30FC 1
 62
   179
420
  2234388
100
AcDbHatch
 10
0.0
 20
0.0
 30
0.0
210
0.0
220
0.0
230
1.0
  2
SOLID
 70
     1
 71
     0
 91
        1
 92
        1
 93
        4
 72
     1
 10
124.0792480158552
 20
-155.710047704128
 11
123.8274115358834
 21
-155.710047704128
 72
     1
 10
123.8274115358834
 20
-155.710047704128
 11
123.8274115358834
 21
-155.495418255397
 72
     1
 10
123.8274115358834
 20
-155.495418255397
 11
124.0792480158552
 21
-155.495418255397
 72
     1
 10
124.0792480158552
 20
-155.495418255397
 11
124.0792480158552
 21
-155.710047704128
 97
        0
 75
     2
 76
     1
 98
        0
  0
POLYLINE
  5
9C
330
8D
100
AcDbEntity
  8
_U+30EC_U+30A4_U+30E4_U+30FC 1
370
     0
100
AcDb2dPolyline
 66
     1
 10
0.0
 20
0.0
 30
0.0
  0
VERTEX
  5
9D
330
9C
100
AcDbEntity
  8
_U+30EC_U+30A4_U+30E4_U+30FC 1
370
     0
100
AcDbVertex
100
AcDb2dVertex
 10
123.7323269004905
 20
-154.5848795186455
 30
0.0
  0
VERTEX
  5
9E
330
9C
100
AcDbEntity
  8
_U+30EC_U+30A4_U+30E4_U+30FC 1
370
     0
100
AcDbVertex
100
AcDb2dVertex
 10
124.0792480158552
 20
-154.5848795186455
 30
0.0
  0
VERTEX
  5
9F
330
9C
100
AcDbEntity
  8
_U+30EC_U+30A4_U+30E4_U+30FC 1
370
     0
100
AcDbVertex
100
AcDb2dVertex
 10
124.0792480158552
 20
-154.7705701653004
 30
0.0
  0
VERTEX
  5
A0
330
9C
100
AcDbEntity
  8
_U+30EC_U+30A4_U+30E4_U+30FC 1
370
     0
100
AcDbVertex
100
AcDb2dVertex
 10
123.7323269004905
 20
-154.7705701653004
 30
0.0
  0
VERTEX
  5
A1
330
9C
100
AcDbEntity
  8
_U+30EC_U+30A4_U+30E4_U+30FC 1
370
     0
100
AcDbVertex
100
AcDb2dVertex
 10
123.7323269004905
 20
-155.3297091625565
 30
0.0
  0
VERTEX
  5
A2
330
9C
100
AcDbEntity
  8
_U+30EC_U+30A4_U+30E4_U+30FC 1
370
     0
100
AcDbVertex
100
AcDb2dVertex
 10
123.5080511844008
 20
-155.3297091625565
 30
0.0
  0
VERTEX
  5
A3
330
9C
100
AcDbEntity
  8
_U+30EC_U+30A4_U+30E4_U+30FC 1
370
     0
100
AcDbVertex
100
AcDb2dVertex
 10
122.5348117098177
 20
-154.7509331210345
 30
0.0
  0
VERTEX
  5
A4
330
9C
100
AcDbEntity
  8
_U+30EC_U+30A4_U+30E4_U+30FC 1
370
     0
100
AcDbVertex
100
AcDb2dVertex
 10
122.5348117098177
 20
-154.5848795186455
 30
0.0
  0
VERTEX
  5
A5
330
9C
100
AcDbEntity
  8
_U+30EC_U+30A4_U+30E4_U+30FC 1
370
     0
100
AcDbVertex
100
AcDb2dVertex
 10
123.5335448909916
 20
-154.5848795186455
 30
0.0
  0
VERTEX
  5
A6
330
9C
100
AcDbEntity
  8
_U+30EC_U+30A4_U+30E4_U+30FC 1
370
     0
100
AcDbVertex
100
AcDb2dVertex
 10
123.5335448909916
 20
-154.4081461202521
 30
0.0
  0
VERTEX
  5
A7
330
9C
100
AcDbEntity
  8
_U+30EC_U+30A4_U+30E4_U+30FC 1
370
     0
100
AcDbVertex
100
AcDb2dVertex
 10
123.7323269004905
 20
-154.4081461202521
 30
0.0
  0
VERTEX
  5
A8
330
9C
100
AcDbEntity
  8
_U+30EC_U+30A4_U+30E4_U+30FC 1
370
     0
100
AcDbVertex
100
AcDb2dVertex
 10
123.7323269004905
 20
-154.5848795186455
 30
0.0
  0
SEQEND
  5
A9
330
9C
100
AcDbEntity
  8
_U+30EC_U+30A4_U+30E4_U+30FC 1
370
     0
  0
POLYLINE
  5
AA
330
8D
100
AcDbEntity
  8
_U+30EC_U+30A4_U+30E4_U+30FC 1
370
     0
100
AcDb2dPolyline
 66
     1
 10
0.0
 20
0.0
 30
0.0
  0
VERTEX
  5
AB
330
AA
100
AcDbEntity
  8
_U+30EC_U+30A4_U+30E4_U+30FC 1
370
     0
100
AcDbVertex
100
AcDb2dVertex
 10
122.8775987106001
 20
-154.7705701653004
 30
0.0
  0
VERTEX
  5
AC
330
AA
100
AcDbEntity
  8
_U+30EC_U+30A4_U+30E4_U+30FC 1
370
     0
100
AcDbVertex
100
AcDb2dVertex
 10
123.5335448909916
 20
-155.1602104646822
 30
0.0
  0
VERTEX
  5
AD
330
AA
100
AcDbEntity
  8
_U+30EC_U+30A4_U+30E4_U+30FC 1
370
     0
100
AcDbVertex
100
AcDb2dVertex
 10
123.5335448909916
 20
-154.7705701653004
 30
0.0
  0
VERTEX
  5
AE
330
AA
100
AcDbEntity
  8
_U+30EC_U+30A4_U+30E4_U+30FC 1
370
     0
100
AcDbVertex
100
AcDb2dVertex
 10
122.8775987106001
 20
-154.7705701653004
 30
0.0
  0
SEQEND
  5
AF
330
AA
100
AcDbEntity
  8
_U+30EC_U+30A4_U+30E4_U+30FC 1
370
     0
  0
HATCH
  5
B0
330
8D
100
AcDbEntity
  8
_U+30EC_U+30A4_U+30E4_U+30FC 1
 62
   179
420
  2234388
100
AcDbHatch
 10
0.0
 20
0.0
 30
0.0
210
0.0
220
0.0
230
1.0
  2
SOLID
 70
     1
 71
     0
 91
        2
 92
        1
 93
       11
 72
     1
 10
123.7323269004905
 20
-154.5848795186455
 11
124.0792480158552
 21
-154.5848795186455
 72
     1
 10
124.0792480158552
 20
-154.5848795186455
 11
124.0792480158552
 21
-154.7705701653004
 72
     1
 10
124.0792480158552
 20
-154.7705701653004
 11
123.7323269004905
 21
-154.7705701653004
 72
     1
 10
123.7323269004905
 20
-154.7705701653004
 11
123.7323269004905
 21
-155.3297091625565
 72
     1
 10
123.7323269004905
 20
-155.3297091625565
 11
123.5080511844008
 21
-155.3297091625565
 72
     1
 10
123.5080511844008
 20
-155.3297091625565
 11
122.5348117098177
 21
-154.7509331210345
 72
     1
 10
122.5348117098177
 20
-154.7509331210345
 11
122.5348117098177
 21
-154.5848795186455
 72
     1
 10
122.5348117098177
 20
-154.5848795186455
 11
123.5335448909916
 21
-154.5848795186455
 72
     1
 10
123.5335448909916
 20
-154.5848795186455
 11
123.5335448909916
 21
-154.4081461202521
 72
     1
 10
123.5335448909916
 20
-154.4081461202521
 11
123.7323269004905
 21
-154.4081461202521
 72
     1
 10
123.7323269004905
 20
-154.4081461202521
 11
123.7323269004905
 21
-154.5848795186455
 97
        0
 92
        1
 93
        3
 72
     1
 10
122.8775987106001
 20
-154.7705701653004
 11
123.5335448909916
 21
-155.1602104646822
 72
     1
 10
123.5335448909916
 20
-155.1602104646822
 11
123.5335448909916
 21
-154.7705701653004
 72
     1
 10
123.5335448909916
 20
-154.7705701653004
 11
122.8775987106001
 21
-154.7705701653004
 97
        0
 75
     2
 76
     1
 98
        0
  0
ENDBLK
  5
90
330
8D
100
AcDbEntity
  8
0
100
AcDbBlockEnd
  0
BLOCK
  5
C3
330
C1
100
AcDbEntity
  8
0
100
AcDbBlockBegin
  2
block 5
 70
     0
 10
0.0
 20
0.0
 30
0.0
  3
block 5
  1

  0
SPLINE
  5
C5
330
C1
100
AcDbEntity
  8
_U+30EC_U+30A4_U+30E4_U+30FC 1
370
     0
100
AcDbSpline
210
0.0
220
0.0
230
1.0
 70
    11
 71
     3
 72
    26
 73
    22
 74
     0
 42
0.0000000001
 43
0.0000000001
 12
1.0
 22
0.0
 32
0.0
 13
1.0
 23
0.0
 33
0.0
 40
0.0
 40
0.0
 40
0.0
 40
0.0
 40
1.0
 40
1.0
 40
1.0
 40
2.0
 40
2.0
 40
2.0
 40
3.0
 40
3.0
 40
3.0
 40
4.0
 40
4.0
 40
4.0
 40
5.0
 40
5.0
 40
5.0
 40
6.0
 40
6.0
 40
6.0
 40
7.0
 40
7.0
 40
7.0
 40
7.0
 10
87.4534043835186
 20
-140.4572319527329
 30
0.0
 10
87.4534043835186
 20
-140.4572319527329
 30
0.0
 10
86.34925128049602
 20
-140.4572319527329
 30
0.0
 10
86.34925128049602
 20
-140.4572319527329
 30
0.0
 10
86.34925128049602
 20
-140.4572319527329
 30
0.0
 10
86.34925128049602
 20
-140.7386962538778
 30
0.0
 10
86.34925128049602
 20
-140.7386962538778
 30
0.0
 10
86.34925128049602
 20
-140.7386962538778
 30
0.0
 10
86.20111217463028
 20
-140.7386962538778
 30
0.0
 10
86.20111217463028
 20
-140.7386962538778
 30
0.0
 10
86.18629826404371
 20
-140.4555094049903
 30
0.0
 10
86.0233452475914
 20
-140.4158908069099
 30
0.0
 10
85.90896807748109
 20
-140.3907416098676
 30
0.0
 10
85.90896807748109
 20
-140.3907416098676
 30
0.0
 10
85.90896807748109
 20
-140.2660291533016
 30
0.0
 10
85.90896807748109
 20
-140.2660291533016
 30
0.0
 10
85.90896807748109
 20
-140.2660291533016
 30
0.0
 10
87.4534043835186
 20
-140.2660291533016
 30
0.0
 10
87.4534043835186
 20
-140.2660291533016
 30
0.0
 10
87.4534043835186
 20
-140.2660291533016
 30
0.0
 10
87.4534043835186
 20
-140.4572319527329
 30
0.0
 10
87.4534043835186
 20
-140.4572319527329
 30
0.0
  0
HATCH
  5
C6
330
C1
100
AcDbEntity
  8
_U+30EC_U+30A4_U+30E4_U+30FC 1
 62
   179
420
  2234388
100
AcDbHatch
 10
0.0
 20
0.0
 30
0.0
210
0.0
220
0.0
230
1.0
  2
SOLID
 70
     1
 71
     0
 91
        1
 92
        1
 93
        1
 72
     4
 94
        3
 73
     0
 74
     1
 95
       26
 96
       22
 40
0.0
 40
0.0
 40
0.0
 40
0.0
 40
1.0
 40
1.0
 40
1.0
 40
2.0
 40
2.0
 40
2.0
 40
3.0
 40
3.0
 40
3.0
 40
4.0
 40
4.0
 40
4.0
 40
5.0
 40
5.0
 40
5.0
 40
6.0
 40
6.0
 40
6.0
 40
7.0
 40
7.0
 40
7.0
 40
7.0
 10
87.4534043835186
 20
-140.4572319527329
 10
87.4534043835186
 20
-140.4572319527329
 10
86.34925128049602
 20
-140.4572319527329
 10
86.34925128049602
 20
-140.4572319527329
 10
86.34925128049602
 20
-140.4572319527329
 10
86.34925128049602
 20
-140.7386962538778
 10
86.34925128049602
 20
-140.7386962538778
 10
86.34925128049602
 20
-140.7386962538778
 10
86.20111217463028
 20
-140.7386962538778
 10
86.20111217463028
 20
-140.7386962538778
 10
86.18629826404371
 20
-140.4555094049903
 10
86.0233452475914
 20
-140.4158908069099
 10
85.90896807748109
 20
-140.3907416098676
 10
85.90896807748109
 20
-140.3907416098676
 10
85.90896807748109
 20
-140.2660291533016
 10
85.90896807748109
 20
-140.2660291533016
 10
85.90896807748109
 20
-140.2660291533016
 10
87.4534043835186
 20
-140.2660291533016
 10
87.4534043835186
 20
-140.2660291533016
 10
87.4534043835186
 20
-140.2660291533016
 10
87.4534043835186
 20
-140.4572319527329
 10
87.4534043835186
 20
-140.4572319527329
 97
        0
 97
        0
 75
     2
 76
     1
 98
        0
  0
POLYLINE
  5
C7
330
C1
100
AcDbEntity
  8
_U+30EC_U+30A4_U+30E4_U+30FC 1
370
     0
100
AcDb2dPolyline
 66
     1
 10
0.0
 20
0.0
 30
0.0
  0
VERTEX
  5
C8
330
C7
100
AcDbEntity
  8
_U+30EC_U+30A4_U+30E4_U+30FC 1
370
     0
100
AcDbVertex
100
AcDb2dVertex
 10
87.4534043835186
 20
-139.789227938143
 30
0.0
  0
VERTEX
  5
C9
330
C7
100
AcDbEntity
  8
_U+30EC_U+30A4_U+30E4_U+30FC 1
370
     0
100
AcDbVertex
100
AcDb2dVertex
 10
87.20156790354683
 20
-139.789227938143
 30
0.0
  0
VERTEX
  5
CA
330
C7
100
AcDbEntity
  8
_U+30EC_U+30A4_U+30E4_U+30FC 1
370
     0
100
AcDbVertex
100
AcDb2dVertex
 10
87.20156790354683
 20
-139.5745984894119
 30
0.0
  0
VERTEX
  5
CB
330
C7
100
AcDbEntity
  8
_U+30EC_U+30A4_U+30E4_U+30FC 1
370
     0
100
AcDbVertex
100
AcDb2dVertex
 10
87.4534043835186
 20
-139.5745984894119
 30
0.0
  0
VERTEX
  5
CC
330
C7
100
AcDbEntity
  8
_U+30EC_U+30A4_U+30E4_U+30FC 1
370
     0
100
AcDbVertex
100
AcDb2dVertex
 10
87.4534043835186
 20
-139.789227938143
 30
0.0
  0
SEQEND
  5
CD
330
C7
100
AcDbEntity
  8
_U+30EC_U+30A4_U+30E4_U+30FC 1
370
     0
  0
HATCH
  5
CE
330
C1
100
AcDbEntity
  8
_U+30EC_U+30A4_U+30E4_U+30FC 1
 62
   179
420
  2234388
100
AcDbHatch
 10
0.0
 20
0.0
 30
0.0
210
0.0
220
0.0
230
1.0
  2
SOLID
 70
     1
 71
     0
 91
        1
 92
        1
 93
        4
 72
     1
 10
87.4534043835186
 20
-139.789227938143
 11
87.20156790354683
 21
-139.789227938143
 72
     1
 10
87.20156790354683
 20
-139.789227938143
 11
87.20156790354683
 21
-139.5745984894119
 72
     1
 10
87.20156790354683
 20
-139.5745984894119
 11
87.4534043835186
 21
-139.5745984894119
 72
     1
 10
87.4534043835186
 20
-139.5745984894119
 11
87.4534043835186
 21
-139.789227938143
 97
        0
 75
     2
 76
     1
 98
        0
  0
SPLINE
  5
CF
330
C1
100
AcDbEntity
  8
_U+30EC_U+30A4_U+30E4_U+30FC 1
370
     0
100
AcDbSpline
210
0.0
220
0.0
230
1.0
 70
    11
 71
     3
 72
    26
 73
    22
 74
     0
 42
0.0000000001
 43
0.0000000001
 12
1.0
 22
0.0
 32
0.0
 13
1.0
 23
0.0
 33
0.0
 40
0.0
 40
0.0
 40
0.0
 40
0.0
 40
1.0
 40
1.0
 40
1.0
 40
2.0
 40
2.0
 40
2.0
 40
3.0
 40
3.0
 40
3.0
 40
4.0
 40
4.0
 40
4.0
 40
5.0
 40
5.0
 40
5.0
 40
6.0
 40
6.0
 40
6.0
 40
7.0
 40
7.0
 40
7.0
 40
7.0
 10
87.4534043835186
 20
-138.9885877473709
 30
0.0
 10
87.4534043835186
 20
-138.9885877473709
 30
0.0
 10
86.34925128049602
 20
-138.9885877473709
 30
0.0
 10
86.34925128049602
 20
-138.9885877473709
 30
0.0
 10
86.34925128049602
 20
-138.9885877473709
 30
0.0
 10
86.34925128049602
 20
-139.2700520485158
 30
0.0
 10
86.34925128049602
 20
-139.2700520485158
 30
0.0
 10
86.34925128049602
 20
-139.2700520485158
 30
0.0
 10
86.20111217463028
 20
-139.2700520485158
 30
0.0
 10
86.20111217463028
 20
-139.2700520485158
 30
0.0
 10
86.18629826404371
 20
-138.9868651996283
 30
0.0
 10
86.0233452475914
 20
-138.9472466015479
 30
0.0
 10
85.90896807748109
 20
-138.9220974045056
 30
0.0
 10
85.90896807748109
 20
-138.9220974045056
 30
0.0
 10
85.90896807748109
 20
-138.7973849479395
 30
0.0
 10
85.90896807748109
 20
-138.7973849479395
 30
0.0
 10
85.90896807748109
 20
-138.7973849479395
 30
0.0
 10
87.4534043835186
 20
-138.7973849479395
 30
0.0
 10
87.4534043835186
 20
-138.7973849479395
 30
0.0
 10
87.4534043835186
 20
-138.7973849479395
 30
0.0
 10
87.4534043835186
 20
-138.9885877473709
 30
0.0
 10
87.4534043835186
 20
-138.9885877473709
 30
0.0
  0
HATCH
  5
D0
330
C1
100
AcDbEntity
  8
_U+30EC_U+30A4_U+30E4_U+30FC 1
 62
   179
420
  2234388
100
AcDbHatch
 10
0.0
 20
0.0
 30
0.0
210
0.0
220
0.0
230
1.0
  2
SOLID
 70
     1
 71
     0
 91
        1
 92
        1
 93
        1
 72
     4
 94
        3
 73
     0
 74
     1
 95
       26
 96
       22
 40
0.0
 40
0.0
 40
0.0
 40
0.0
 40
1.0
 40
1.0
 40
1.0
 40
2.0
 40
2.0
 40
2.0
 40
3.0
 40
3.0
 40
3.0
 40
4.0
 40
4.0
 40
4.0
 40
5.0
 40
5.0
 40
5.0
 40
6.0
 40
6.0
 40
6.0
 40
7.0
 40
7.0
 40
7.0
 40
7.0
 10
87.4534043835186
 20
-138.9885877473709
 10
87.4534043835186
 20
-138.9885877473709
 10
86.34925128049602
 20
-138.9885877473709
 10
86.34925128049602
 20
-138.9885877473709
 10
86.34925128049602
 20
-138.9885877473709
 10
86.34925128049602
 20
-139.2700520485158
 10
86.34925128049602
 20
-139.2700520485158
 10
86.34925128049602
 20
-139.2700520485158
 10
86.20111217463028
 20
-139.2700520485158
 10
86.20111217463028
 20
-139.2700520485158
 10
86.18629826404371
 20
-138.9868651996283
 10
86.0233452475914
 20
-138.9472466015479
 10
85.90896807748109
 20
-138.9220974045056
 10
85.90896807748109
 20
-138.9220974045056
 10
85.90896807748109
 20
-138.7973849479395
 10
85.90896807748109
 20
-138.7973849479395
 10
85.90896807748109
 20
-138.7973849479395
 10
87.4534043835186
 20
-138.7973849479395
 10
87.4534043835186
 20
-138.7973849479395
 10
87.4534043835186
 20
-138.7973849479395
 10
87.4534043835186
 20
-138.9885877473709
 10
87.4534043835186
 20
-138.9885877473709
 97
        0
 97
        0
 75
     2
 76
     1
 98
        0
  0
ENDBLK
  5
C4
330
C1
100
AcDbEntity
  8
0
100
AcDbBlockEnd
  0
BLOCK
  5
DF
330
DD
100
AcDbEntity
  8
0
100
AcDbBlockBegin
  2
block 6
 70
     0
 10
0.0
 20
0.0
 30
0.0
  3
block 6
  1

  0
SPLINE
  5
E1
330
DD
100
AcDbEntity
  8
_U+30EC_U+30A4_U+30E4_U+30FC 1
370
     0
100
AcDbSpline
210
0.0
220
0.0
230
1.0
 70
    11
 71
     3
 72
    26
 73
    22
 74
     0
 42
0.0000000001
 43
0.0000000001
 12
1.0
 22
0.0
 32
0.0
 13
1.0
 23
0.0
 33
0.0
 40
0.0
 40
0.0
 40
0.0
 40
0.0
 40
1.0
 40
1.0
 40
1.0
 40
2.0
 40
2.0
 40
2.0
 40
3.0
 40
3.0
 40
3.0
 40
4.0
 40
4.0
 40
4.0
 40
5.0
 40
5.0
 40
5.0
 40
6.0
 40
6.0
 40
6.0
 40
7.0
 40
7.0
 40
7.0
 40
7.0
 10
120.3430419621018
 20
-150.2082302141841
 30
0.0
 10
120.3430419621018
 20
-150.2082302141841
 30
0.0
 10
119.2388888590792
 20
-150.2082302141841
 30
0.0
 10
119.2388888590792
 20
-150.2082302141841
 30
0.0
 10
119.2388888590792
 20
-150.2082302141841
 30
0.0
 10
119.2388888590792
 20
-150.489694515329
 30
0.0
 10
119.2388888590792
 20
-150.489694515329
 30
0.0
 10
119.2388888590792
 20
-150.489694515329
 30
0.0
 10
119.0907497532134
 20
-150.489694515329
 30
0.0
 10
119.0907497532134
 20
-150.489694515329
 30
0.0
 10
119.0759358426268
 20
-150.2065076664414
 30
0.0
 10
118.9129828261745
 20
-150.1668890683611
 30
0.0
 10
118.7986056560642
 20
-150.1417398713187
 30
0.0
 10
118.7986056560642
 20
-150.1417398713187
 30
0.0
 10
118.7986056560642
 20
-150.0170274147527
 30
0.0
 10
118.7986056560642
 20
-150.0170274147527
 30
0.0
 10
118.7986056560642
 20
-150.0170274147527
 30
0.0
 10
120.3430419621018
 20
-150.0170274147527
 30
0.0
 10
120.3430419621018
 20
-150.0170274147527
 30
0.0
 10
120.3430419621018
 20
-150.0170274147527
 30
0.0
 10
120.3430419621018
 20
-150.2082302141841
 30
0.0
 10
120.3430419621018
 20
-150.2082302141841
 30
0.0
  0
HATCH
  5
E2
330
DD
100
AcDbEntity
  8
_U+30EC_U+30A4_U+30E4_U+30FC 1
 62
   179
420
  2234388
100
AcDbHatch
 10
0.0
 20
0.0
 30
0.0
210
0.0
220
0.0
230
1.0
  2
SOLID
 70
     1
 71
     0
 91
        1
 92
        1
 93
        1
 72
     4
 94
        3
 73
     0
 74
     1
 95
       26
 96
       22
 40
0.0
 40
0.0
 40
0.0
 40
0.0
 40
1.0
 40
1.0
 40
1.0
 40
2.0
 40
2.0
 40
2.0
 40
3.0
 40
3.0
 40
3.0
 40
4.0
 40
4.0
 40
4.0
 40
5.0
 40
5.0
 40
5.0
 40
6.0
 40
6.0
 40
6.0
 40
7.0
 40
7.0
 40
7.0
 40
7.0
 10
120.3430419621018
 20
-150.2082302141841
 10
120.3430419621018
 20
-150.2082302141841
 10
119.2388888590792
 20
-150.2082302141841
 10
119.2388888590792
 20
-150.2082302141841
 10
119.2388888590792
 20
-150.2082302141841
 10
119.2388888590792
 20
-150.489694515329
 10
119.2388888590792
 20
-150.489694515329
 10
119.2388888590792
 20
-150.489694515329
 10
119.0907497532134
 20
-150.489694515329
 10
119.0907497532134
 20
-150.489694515329
 10
119.0759358426268
 20
-150.2065076664414
 10
118.9129828261745
 20
-150.1668890683611
 10
118.7986056560642
 20
-150.1417398713187
 10
118.7986056560642
 20
-150.1417398713187
 10
118.7986056560642
 20
-150.0170274147527
 10
118.7986056560642
 20
-150.0170274147527
 10
118.7986056560642
 20
-150.0170274147527
 10
120.3430419621018
 20
-150.0170274147527
 10
120.3430419621018
 20
-150.0170274147527
 10
120.3430419621018
 20
-150.0170274147527
 10
120.3430419621018
 20
-150.2082302141841
 10
120.3430419621018
 20
-150.2082302141841
 97
        0
 97
        0
 75
     2
 76
     1
 98
        0
  0
SPLINE
  5
E3
330
DD
100
AcDbEntity
  8
_U+30EC_U+30A4_U+30E4_U+30FC 1
370
     0
100
AcDbSpline
210
0.0
220
0.0
230
1.0
 70
    11
 71
     3
 72
    44
 73
    40
 74
     0
 42
0.0000000001
 43
0.0000000001
 12
1.0
 22
0.0
 32
0.0
 13
1.0
 23
0.0
 33
0.0
 40
0.0
 40
0.0
 40
0.0
 40
0.0
 40
1.0
 40
1.0
 40
1.0
 40
2.0
 40
2.0
 40
2.0
 40
3.0
 40
3.0
 40
3.0
 40
4.0
 40
4.0
 40
4.0
 40
5.0
 40
5.0
 40
5.0
 40
6.0
 40
6.0
 40
6.0
 40
7.0
 40
7.0
 40
7.0
 40
8.0
 40
8.0
 40
8.0
 40
9.0
 40
9.0
 40
9.0
 40
10.0
 40
10.0
 40
10.0
 40
11.0
 40
11.0
 40
11.0
 40
12.0
 40
12.0
 40
12.0
 40
13.0
 40
13.0
 40
13.0
 40
13.0
 10
119.7611653346431
 20
-149.0858181050897
 30
0.0
 10
119.9199842365131
 20
-149.2715087517446
 30
0.0
 10
119.9940537894459
 20
-149.3507459479054
 30
0.0
 10
120.1377142711809
 20
-149.3920870937284
 30
0.0
 10
120.1377142711809
 20
-149.3920870937284
 30
0.0
 10
120.1377142711809
 20
-148.7285617032693
 30
0.0
 10
120.1377142711809
 20
-148.7285617032693
 30
0.0
 10
120.1377142711809
 20
-148.7285617032693
 30
0.0
 10
120.3430419621018
 20
-148.7285617032693
 30
0.0
 10
120.3430419621018
 20
-148.7285617032693
 30
0.0
 10
120.3430419621018
 20
-148.7285617032693
 30
0.0
 10
120.3430419621018
 20
-149.6049939947168
 30
0.0
 10
120.3430419621018
 20
-149.6049939947168
 30
0.0
 10
119.9854410507328
 20
-149.5781222499319
 30
0.0
 10
119.9072373832176
 20
-149.5219671935223
 30
0.0
 10
119.608892114195
 20
-149.1939941033265
 30
0.0
 10
119.4101101046961
 20
-148.9755750495617
 30
0.0
 10
119.3422417236367
 20
-148.9197645027006
 30
0.0
 10
119.2047824137752
 20
-148.9197645027006
 30
0.0
 10
119.0862711290826
 20
-148.9197645027006
 30
0.0
 10
118.9553575006431
 20
-148.9810872023381
 30
0.0
 10
118.9553575006431
 20
-149.1488633524697
 30
0.0
 10
118.9553575006431
 20
-149.3707275017198
 30
0.0
 10
119.1858343886063
 20
-149.3779622022388
 30
0.0
 10
119.3022786160078
 20
-149.3814072977241
 30
0.0
 10
119.3022786160078
 20
-149.3814072977241
 30
0.0
 10
119.3022786160078
 20
-149.5726100971555
 30
0.0
 10
119.3022786160078
 20
-149.5726100971555
 30
0.0
 10
119.1751545926021
 20
-149.5653753966365
 30
0.0
 10
119.0631889893314
 20
-149.5564181483748
 30
0.0
 10
118.9446777046388
 20
-149.4878607482183
 30
0.0
 10
118.7837917454777
 20
-149.3941541510195
 30
0.0
 10
118.7500298097222
 20
-149.2353352491495
 30
0.0
 10
118.7500298097222
 20
-149.1361164991743
 30
0.0
 10
118.7500298097222
 20
-148.8997829488862
 30
0.0
 10
118.9339979086346
 20
-148.7230495504928
 30
0.0
 10
119.2068494710663
 20
-148.7230495504928
 30
0.0
 10
119.4356038112869
 20
-148.7230495504928
 30
0.0
 10
119.5348225612621
 20
-148.822268300468
 30
0.0
 10
119.7611653346431
 20
-149.0858181050897
 30
0.0
  0
HATCH
  5
E4
330
DD
100
AcDbEntity
  8
_U+30EC_U+30A4_U+30E4_U+30FC 1
 62
   179
420
  2234388
100
AcDbHatch
 10
0.0
 20
0.0
 30
0.0
210
0.0
220
0.0
230
1.0
  2
SOLID
 70
     1
 71
     0
 91
        1
 92
        1
 93
        1
 72
     4
 94
        3
 73
     0
 74
     1
 95
       44
 96
       40
 40
0.0
 40
0.0
 40
0.0
 40
0.0
 40
1.0
 40
1.0
 40
1.0
 40
2.0
 40
2.0
 40
2.0
 40
3.0
 40
3.0
 40
3.0
 40
4.0
 40
4.0
 40
4.0
 40
5.0
 40
5.0
 40
5.0
 40
6.0
 40
6.0
 40
6.0
 40
7.0
 40
7.0
 40
7.0
 40
8.0
 40
8.0
 40
8.0
 40
9.0
 40
9.0
 40
9.0
 40
10.0
 40
10.0
 40
10.0
 40
11.0
 40
11.0
 40
11.0
 40
12.0
 40
12.0
 40
12.0
 40
13.0
 40
13.0
 40
13.0
 40
13.0
 10
119.7611653346431
 20
-149.0858181050897
 10
119.9199842365131
 20
-149.2715087517446
 10
119.9940537894459
 20
-149.3507459479054
 10
120.1377142711809
 20
-149.3920870937284
 10
120.1377142711809
 20
-149.3920870937284
 10
120.1377142711809
 20
-148.7285617032693
 10
120.1377142711809
 20
-148.7285617032693
 10
120.1377142711809
 20
-148.7285617032693
 10
120.3430419621018
 20
-148.7285617032693
 10
120.3430419621018
 20
-148.7285617032693
 10
120.3430419621018
 20
-148.7285617032693
 10
120.3430419621018
 20
-149.6049939947168
 10
120.3430419621018
 20
-149.6049939947168
 10
119.9854410507328
 20
-149.5781222499319
 10
119.9072373832176
 20
-149.5219671935223
 10
119.608892114195
 20
-149.1939941033265
 10
119.4101101046961
 20
-148.9755750495617
 10
119.3422417236367
 20
-148.9197645027006
 10
119.2047824137752
 20
-148.9197645027006
 10
119.0862711290826
 20
-148.9197645027006
 10
118.9553575006431
 20
-148.9810872023381
 10
118.9553575006431
 20
-149.1488633524697
 10
118.9553575006431
 20
-149.3707275017198
 10
119.1858343886063
 20
-149.3779622022388
 10
119.3022786160078
 20
-149.3814072977241
 10
119.3022786160078
 20
-149.3814072977241
 10
119.3022786160078
 20
-149.5726100971555
 10
119.3022786160078
 20
-149.5726100971555
 10
119.1751545926021
 20
-149.5653753966365
 10
119.0631889893314
 20
-149.5564181483748
 10
118.9446777046388
 20
-149.4878607482183
 10
118.7837917454777
 20
-149.3941541510195
 10
118.7500298097222
 20
-149.2353352491495
 10
118.7500298097222
 20
-149.1361164991743
 10
118.7500298097222
 20
-148.8997829488862
 10
118.9339979086346
 20
-148.7230495504928
 10
119.2068494710663
 20
-148.7230495504928
 10
119.4356038112869
 20
-148.7230495504928
 10
119.5348225612621
 20
-148.822268300468
 10
119.7611653346431
 20
-149.0858181050897
 97
        0
 97
        0
 75
     2
 76
     1
 98
        0
  0
POLYLINE
  5
E5
330
DD
100
AcDbEntity
  8
_U+30EC_U+30A4_U+30E4_U+30FC 1
370
     0
100
AcDb2dPolyline
 66
     1
 10
0.0
 20
0.0
 30
0.0
  0
VERTEX
  5
E6
330
E5
100
AcDbEntity
  8
_U+30EC_U+30A4_U+30E4_U+30FC 1
370
     0
100
AcDbVertex
100
AcDb2dVertex
 10
120.3430419621018
 20
-148.5383924324835
 30
0.0
  0
VERTEX
  5
E7
330
E5
100
AcDbEntity
  8
_U+30EC_U+30A4_U+30E4_U+30FC 1
370
     0
100
AcDbVertex
100
AcDb2dVertex
 10
120.09120548213
 20
-148.5383924324835
 30
0.0
  0
VERTEX
  5
E8
330
E5
100
AcDbEntity
  8
_U+30EC_U+30A4_U+30E4_U+30FC 1
370
     0
100
AcDbVertex
100
AcDb2dVertex
 10
120.09120548213
 20
-148.3237629837524
 30
0.0
  0
VERTEX
  5
E9
330
E5
100
AcDbEntity
  8
_U+30EC_U+30A4_U+30E4_U+30FC 1
370
     0
100
AcDbVertex
100
AcDb2dVertex
 10
120.3430419621018
 20
-148.3237629837524
 30
0.0
  0
VERTEX
  5
EA
330
E5
100
AcDbEntity
  8
_U+30EC_U+30A4_U+30E4_U+30FC 1
370
     0
100
AcDbVertex
100
AcDb2dVertex
 10
120.3430419621018
 20
-148.5383924324835
 30
0.0
  0
SEQEND
  5
EB
330
E5
100
AcDbEntity
  8
_U+30EC_U+30A4_U+30E4_U+30FC 1
370
     0
  0
HATCH
  5
EC
330
DD
100
AcDbEntity
  8
_U+30EC_U+30A4_U+30E4_U+30FC 1
 62
   179
420
  2234388
100
AcDbHatch
 10
0.0
 20
0.0
 30
0.0
210
0.0
220
0.0
230
1.0
  2
SOLID
 70
     1
 71
     0
 91
        1
 92
        1
 93
        4
 72
     1
 10
120.3430419621018
 20
-148.5383924324835
 11
120.09120548213
 21
-148.5383924324835
 72
     1
 10
120.09120548213
 20
-148.5383924324835
 11
120.09120548213
 21
-148.3237629837524
 72
     1
 10
120.09120548213
 20
-148.3237629837524
 11
120.3430419621018
 21
-148.3237629837524
 72
     1
 10
120.3430419621018
 20
-148.3237629837524
 11
120.3430419621018
 21
-148.5383924324835
 97
        0
 75
     2
 76
     1
 98
        0
  0
SPLINE
  5
ED
330
DD
100
AcDbEntity
  8
_U+30EC_U+30A4_U+30E4_U+30FC 1
370
     0
100
AcDbSpline
210
0.0
220
0.0
230
1.0
 70
    11
 71
     3
 72
    53
 73
    49
 74
     0
 42
0.0000000001
 43
0.0000000001
 12
1.0
 22
0.0
 32
0.0
 13
1.0
 23
0.0
 33
0.0
 40
0.0
 40
0.0
 40
0.0
 40
0.0
 40
1.0
 40
1.0
 40
1.0
 40
2.0
 40
2.0
 40
2.0
 40
3.0
 40
3.0
 40
3.0
 40
4.0
 40
4.0
 40
4.0
 40
5.0
 40
5.0
 40
5.0
 40
6.0
 40
6.0
 40
6.0
 40
7.0
 40
7.0
 40
7.0
 40
8.0
 40
8.0
 40
8.0
 40
9.0
 40
9.0
 40
9.0
 40
10.0
 40
10.0
 40
10.0
 40
11.0
 40
11.0
 40
11.0
 40
12.0
 40
12.0
 40
12.0
 40
13.0
 40
13.0
 40
13.0
 40
14.0
 40
14.0
 40
14.0
 40
15.0
 40
15.0
 40
15.0
 40
16.0
 40
16.0
 40
16.0
 40
16.0
 10
120.3936848657349
 20
-147.7126030446691
 30
0.0
 10
120.3936848657349
 20
-147.7794378970829
 30
0.0
 10
120.3768038978572
 20
-147.8659097937627
 30
0.0
 10
120.3134141409286
 20
-147.9523816904425
 30
0.0
 10
120.2035155949491
 20
-148.1001762867597
 30
0.0
 10
120.0722574569611
 20
-148.1184352928315
 30
0.0
 10
119.9644259682728
 20
-148.1346272416122
 30
0.0
 10
119.9644259682728
 20
-148.1346272416122
 30
0.0
 10
119.9644259682728
 20
-147.9451469899234
 30
0.0
 10
119.9644259682728
 20
-147.9451469899234
 30
0.0
 10
120.1632079777717
 20
-147.8982936913241
 30
0.0
 10
120.1928357989449
 20
-147.7901176930872
 30
0.0
 10
120.1928357989449
 20
-147.7108804969264
 30
0.0
 10
120.1928357989449
 20
-147.5916801931368
 30
0.0
 10
120.0932725394211
 20
-147.4618000933429
 30
0.0
 10
119.8607285941668
 20
-147.4618000933429
 30
0.0
 10
119.6047579996127
 20
-147.4618000933429
 30
0.0
 10
119.5348225612621
 20
-147.6151068424365
 30
0.0
 10
119.5348225612621
 20
-147.7181151974455
 30
0.0
 10
119.5348225612621
 20
-147.7449869422304
 30
0.0
 10
119.5348225612621
 20
-147.8659097937627
 30
0.0
 10
119.664013641959
 20
-147.9417018944382
 30
0.0
 10
119.664013641959
 20
-147.9417018944382
 30
0.0
 10
119.6450656167901
 20
-148.091219038498
 30
0.0
 10
119.6450656167901
 20
-148.091219038498
 30
0.0
 10
119.6450656167901
 20
-148.091219038498
 30
0.0
 10
118.7986056560642
 20
-147.9885551930376
 30
0.0
 10
118.7986056560642
 20
-147.9885551930376
 30
0.0
 10
118.7986056560642
 20
-147.9885551930376
 30
0.0
 10
118.7986056560642
 20
-147.3250298025785
 30
0.0
 10
118.7986056560642
 20
-147.3250298025785
 30
0.0
 10
118.7986056560642
 20
-147.3250298025785
 30
0.0
 10
118.9932535509809
 20
-147.3250298025785
 30
0.0
 10
118.9932535509809
 20
-147.3250298025785
 30
0.0
 10
118.9932535509809
 20
-147.3250298025785
 30
0.0
 10
118.9932535509809
 20
-147.849717844982
 30
0.0
 10
118.9932535509809
 20
-147.849717844982
 30
0.0
 10
118.9932535509809
 20
-147.849717844982
 30
0.0
 10
119.4163112765695
 20
-147.9055283918431
 30
0.0
 10
119.4163112765695
 20
-147.9055283918431
 30
0.0
 10
119.3825493408141
 20
-147.8531629404673
 30
0.0
 10
119.3422417236367
 20
-147.7828829925682
 30
0.0
 10
119.3422417236367
 20
-147.6819416948504
 30
0.0
 10
119.3422417236367
 20
-147.4655896983767
 30
0.0
 10
119.5286213893887
 20
-147.263707102941
 30
0.0
 10
119.8417805689979
 20
-147.263707102941
 30
0.0
 10
120.1590738631894
 20
-147.263707102941
 30
0.0
 10
120.3936848657349
 20
-147.4545653928239
 30
0.0
 10
120.3936848657349
 20
-147.7126030446691
 30
0.0
  0
HATCH
  5
EE
330
DD
100
AcDbEntity
  8
_U+30EC_U+30A4_U+30E4_U+30FC 1
 62
   179
420
  2234388
100
AcDbHatch
 10
0.0
 20
0.0
 30
0.0
210
0.0
220
0.0
230
1.0
  2
SOLID
 70
     1
 71
     0
 91
        1
 92
        1
 93
        1
 72
     4
 94
        3
 73
     0
 74
     1
 95
       53
 96
       49
 40
0.0
 40
0.0
 40
0.0
 40
0.0
 40
1.0
 40
1.0
 40
1.0
 40
2.0
 40
2.0
 40
2.0
 40
3.0
 40
3.0
 40
3.0
 40
4.0
 40
4.0
 40
4.0
 40
5.0
 40
5.0
 40
5.0
 40
6.0
 40
6.0
 40
6.0
 40
7.0
 40
7.0
 40
7.0
 40
8.0
 40
8.0
 40
8.0
 40
9.0
 40
9.0
 40
9.0
 40
10.0
 40
10.0
 40
10.0
 40
11.0
 40
11.0
 40
11.0
 40
12.0
 40
12.0
 40
12.0
 40
13.0
 40
13.0
 40
13.0
 40
14.0
 40
14.0
 40
14.0
 40
15.0
 40
15.0
 40
15.0
 40
16.0
 40
16.0
 40
16.0
 40
16.0
 10
120.3936848657349
 20
-147.7126030446691
 10
120.3936848657349
 20
-147.7794378970829
 10
120.3768038978572
 20
-147.8659097937627
 10
120.3134141409286
 20
-147.9523816904425
 10
120.2035155949491
 20
-148.1001762867597
 10
120.0722574569611
 20
-148.1184352928315
 10
119.9644259682728
 20
-148.1346272416122
 10
119.9644259682728
 20
-148.1346272416122
 10
119.9644259682728
 20
-147.9451469899234
 10
119.9644259682728
 20
-147.9451469899234
 10
120.1632079777717
 20
-147.8982936913241
 10
120.1928357989449
 20
-147.7901176930872
 10
120.1928357989449
 20
-147.7108804969264
 10
120.1928357989449
 20
-147.5916801931368
 10
120.0932725394211
 20
-147.4618000933429
 10
119.8607285941668
 20
-147.4618000933429
 10
119.6047579996127
 20
-147.4618000933429
 10
119.5348225612621
 20
-147.6151068424365
 10
119.5348225612621
 20
-147.7181151974455
 10
119.5348225612621
 20
-147.7449869422304
 10
119.5348225612621
 20
-147.8659097937627
 10
119.664013641959
 20
-147.9417018944382
 10
119.664013641959
 20
-147.9417018944382
 10
119.6450656167901
 20
-148.091219038498
 10
119.6450656167901
 20
-148.091219038498
 10
119.6450656167901
 20
-148.091219038498
 10
118.7986056560642
 20
-147.9885551930376
 10
118.7986056560642
 20
-147.9885551930376
 10
118.7986056560642
 20
-147.9885551930376
 10
118.7986056560642
 20
-147.3250298025785
 10
118.7986056560642
 20
-147.3250298025785
 10
118.7986056560642
 20
-147.3250298025785
 10
118.9932535509809
 20
-147.3250298025785
 10
118.9932535509809
 20
-147.3250298025785
 10
118.9932535509809
 20
-147.3250298025785
 10
118.9932535509809
 20
-147.849717844982
 10
118.9932535509809
 20
-147.849717844982
 10
118.9932535509809
 20
-147.849717844982
 10
119.4163112765695
 20
-147.9055283918431
 10
119.4163112765695
 20
-147.9055283918431
 10
119.3825493408141
 20
-147.8531629404673
 10
119.3422417236367
 20
-147.7828829925682
 10
119.3422417236367
 20
-147.6819416948504
 10
119.3422417236367
 20
-147.4655896983767
 10
119.5286213893887
 20
-147.263707102941
 10
119.8417805689979
 20
-147.263707102941
 10
120.1590738631894
 20
-147.263707102941
 10
120.3936848657349
 20
-147.4545653928239
 10
120.3936848657349
 20
-147.7126030446691
 97
        0
 97
        0
 75
     2
 76
     1
 98
        0
  0
ENDBLK
  5
E0
330
DD
100
AcDbEntity
  8
0
100
AcDbBlockEnd
  0
BLOCK
  5
FD
330
FB
100
AcDbEntity
  8
0
100
AcDbBlockBegin
  2
block 7
 70
     0
 10
0.0
 20
0.0
 30
0.0
  3
block 7
  1

  0
SPLINE
  5
FF
330
FB
100
AcDbEntity
  8
_U+30EC_U+30A4_U+30E4_U+30FC 1
370
     0
100
AcDbSpline
210
0.0
220
0.0
230
1.0
 70
    11
 71
     3
 72
    26
 73
    22
 74
     0
 42
0.0000000001
 43
0.0000000001
 12
1.0
 22
0.0
 32
0.0
 13
1.0
 23
0.0
 33
0.0
 40
0.0
 40
0.0
 40
0.0
 40
0.0
 40
1.0
 40
1.0
 40
1.0
 40
2.0
 40
2.0
 40
2.0
 40
3.0
 40
3.0
 40
3.0
 40
4.0
 40
4.0
 40
4.0
 40
5.0
 40
5.0
 40
5.0
 40
6.0
 40
6.0
 40
6.0
 40
7.0
 40
7.0
 40
7.0
 40
7.0
 10
94.44694821857577
 20
-159.6350449904732
 30
0.0
 10
94.44694821857577
 20
-159.6350449904732
 30
0.0
 10
94.44694821857577
 20
-158.5308918874506
 30
0.0
 10
94.44694821857577
 20
-158.5308918874506
 30
0.0
 10
94.44694821857577
 20
-158.5308918874506
 30
0.0
 10
94.16548391743086
 20
-158.5308918874506
 30
0.0
 10
94.16548391743086
 20
-158.5308918874506
 30
0.0
 10
94.16548391743086
 20
-158.5308918874506
 30
0.0
 10
94.16548391743086
 20
-158.3827527815849
 30
0.0
 10
94.16548391743086
 20
-158.3827527815849
 30
0.0
 10
94.44867076631839
 20
-158.3679388709983
 30
0.0
 10
94.48828936439877
 20
-158.204985854546
 30
0.0
 10
94.51361081621535
 20
-158.0906086844357
 30
0.0
 10
94.51361081621535
 20
-158.0906086844357
 30
0.0
 10
94.63797876323287
 20
-158.0906086844357
 30
0.0
 10
94.63797876323287
 20
-158.0906086844357
 30
0.0
 10
94.63797876323287
 20
-158.0906086844357
 30
0.0
 10
94.63797876323287
 20
-159.6350449904732
 30
0.0
 10
94.63797876323287
 20
-159.6350449904732
 30
0.0
 10
94.63797876323287
 20
-159.6350449904732
 30
0.0
 10
94.44694821857577
 20
-159.6350449904732
 30
0.0
 10
94.44694821857577
 20
-159.6350449904732
 30
0.0
  0
HATCH
  5
100
330
FB
100
AcDbEntity
  8
_U+30EC_U+30A4_U+30E4_U+30FC 1
 62
   179
420
  2234388
100
AcDbHatch
 10
0.0
 20
0.0
 30
0.0
210
0.0
220
0.0
230
1.0
  2
SOLID
 70
     1
 71
     0
 91
        1
 92
        1
 93
        1
 72
     4
 94
        3
 73
     0
 74
     1
 95
       26
 96
       22
 40
0.0
 40
0.0
 40
0.0
 40
0.0
 40
1.0
 40
1.0
 40
1.0
 40
2.0
 40
2.0
 40
2.0
 40
3.0
 40
3.0
 40
3.0
 40
4.0
 40
4.0
 40
4.0
 40
5.0
 40
5.0
 40
5.0
 40
6.0
 40
6.0
 40
6.0
 40
7.0
 40
7.0
 40
7.0
 40
7.0
 10
94.44694821857577
 20
-159.6350449904732
 10
94.44694821857577
 20
-159.6350449904732
 10
94.44694821857577
 20
-158.5308918874506
 10
94.44694821857577
 20
-158.5308918874506
 10
94.44694821857577
 20
-158.5308918874506
 10
94.16548391743086
 20
-158.5308918874506
 10
94.16548391743086
 20
-158.5308918874506
 10
94.16548391743086
 20
-158.5308918874506
 10
94.16548391743086
 20
-158.3827527815849
 10
94.16548391743086
 20
-158.3827527815849
 10
94.44867076631839
 20
-158.3679388709983
 10
94.48828936439877
 20
-158.204985854546
 10
94.51361081621535
 20
-158.0906086844357
 10
94.51361081621535
 20
-158.0906086844357
 10
94.63797876323287
 20
-158.0906086844357
 10
94.63797876323287
 20
-158.0906086844357
 10
94.63797876323287
 20
-158.0906086844357
 10
94.63797876323287
 20
-159.6350449904732
 10
94.63797876323287
 20
-159.6350449904732
 10
94.63797876323287
 20
-159.6350449904732
 10
94.44694821857577
 20
-159.6350449904732
 10
94.44694821857577
 20
-159.6350449904732
 97
        0
 97
        0
 75
     2
 76
     1
 98
        0
  0
SPLINE
  5
101
330
FB
100
AcDbEntity
  8
_U+30EC_U+30A4_U+30E4_U+30FC 1
370
     0
100
AcDbSpline
210
0.0
220
0.0
230
1.0
 70
    11
 71
     3
 72
    29
 73
    25
 74
     0
 42
0.0000000001
 43
0.0000000001
 12
1.0
 22
0.0
 32
0.0
 13
1.0
 23
0.0
 33
0.0
 40
0.0
 40
0.0
 40
0.0
 40
0.0
 40
1.0
 40
1.0
 40
1.0
 40
2.0
 40
2.0
 40
2.0
 40
3.0
 40
3.0
 40
3.0
 40
4.0
 40
4.0
 40
4.0
 40
5.0
 40
5.0
 40
5.0
 40
6.0
 40
6.0
 40
6.0
 40
7.0
 40
7.0
 40
7.0
 40
8.0
 40
8.0
 40
8.0
 40
8.0
 10
95.829120527258
 20
-159.4572780634343
 30
0.0
 10
95.7373087325761
 20
-159.6667398689375
 30
0.0
 10
95.58934188148461
 20
-159.6856878941064
 30
0.0
 10
95.49012313150942
 20
-159.6856878941064
 30
0.0
 10
95.35318058597073
 20
-159.6856878941064
 30
0.0
 10
95.23225773443846
 20
-159.6391791050555
 30
0.0
 10
95.15112573576083
 20
-159.4572780634343
 30
0.0
 10
95.06275903656417
 20
-159.2626301685177
 30
0.0
 10
95.0465670877835
 20
-159.025952108681
 30
0.0
 10
95.0465670877835
 20
-158.8629990922287
 30
0.0
 10
95.0465670877835
 20
-158.7189941009453
 30
0.0
 10
95.06103648882156
 20
-158.4671576209735
 30
0.0
 10
95.15112573576083
 20
-158.2683756114746
 30
0.0
 10
95.243109785217
 20
-158.0654594873934
 30
0.0
 10
95.38022458552994
 20
-158.0420328380937
 30
0.0
 10
95.49012313150942
 20
-158.0420328380937
 30
0.0
 10
95.62534312930548
 20
-158.0420328380937
 30
0.0
 10
95.74798852858036
 20
-158.0864745698534
 30
0.0
 10
95.829120527258
 20
-158.2683756114746
 30
0.0
 10
95.91386987619515
 20
-158.4609564491001
 30
0.0
 10
95.9338514300096
 20
-158.6893662797721
 30
0.0
 10
95.9338514300096
 20
-158.8629990922287
 30
0.0
 10
95.9338514300096
 20
-159.0342203378456
 30
0.0
 10
95.91576467871204
 20
-159.2646972258088
 30
0.0
 10
95.829120527258
 20
-159.4572780634343
 30
0.0
  0
SPLINE
  5
102
330
FB
100
AcDbEntity
  8
_U+30EC_U+30A4_U+30E4_U+30FC 1
370
     0
100
AcDbSpline
210
0.0
220
0.0
230
1.0
 70
    11
 71
     3
 72
    17
 73
    13
 74
     0
 42
0.0000000001
 43
0.0000000001
 12
1.0
 22
0.0
 32
0.0
 13
1.0
 23
0.0
 33
0.0
 40
0.0
 40
0.0
 40
0.0
 40
0.0
 40
1.0
 40
1.0
 40
1.0
 40
2.0
 40
2.0
 40
2.0
 40
3.0
 40
3.0
 40
3.0
 40
4.0
 40
4.0
 40
4.0
 40
4.0
 10
95.49012313150942
 20
-158.2346136757191
 30
0.0
 10
95.27738848529523
 20
-158.2346136757191
 30
0.0
 10
95.23776988721487
 20
-158.5181450341552
 30
0.0
 10
95.23776988721487
 20
-158.8629990922287
 30
0.0
 10
95.23776988721487
 20
-159.1823594437114
 30
0.0
 10
95.2684312370336
 20
-159.4910399991898
 30
0.0
 10
95.49012313150942
 20
-159.4910399991898
 30
0.0
 10
95.70113522998098
 20
-159.4910399991898
 30
0.0
 10
95.74264863057823
 20
-159.2099202075934
 30
0.0
 10
95.74264863057823
 20
-158.8629990922287
 30
0.0
 10
95.74264863057823
 20
-158.5432942311975
 30
0.0
 10
95.71026473301688
 20
-158.2346136757191
 30
0.0
 10
95.49012313150942
 20
-158.2346136757191
 30
0.0
  0
HATCH
  5
103
330
FB
100
AcDbEntity
  8
_U+30EC_U+30A4_U+30E4_U+30FC 1
 62
   179
420
  2234388
100
AcDbHatch
 10
0.0
 20
0.0
 30
0.0
210
0.0
220
0.0
230
1.0
  2
SOLID
 70
     1
 71
     0
 91
        2
 92
        1
 93
        1
 72
     4
 94
        3
 73
     0
 74
     1
 95
       29
 96
       25
 40
0.0
 40
0.0
 40
0.0
 40
0.0
 40
1.0
 40
1.0
 40
1.0
 40
2.0
 40
2.0
 40
2.0
 40
3.0
 40
3.0
 40
3.0
 40
4.0
 40
4.0
 40
4.0
 40
5.0
 40
5.0
 40
5.0
 40
6.0
 40
6.0
 40
6.0
 40
7.0
 40
7.0
 40
7.0
 40
8.0
 40
8.0
 40
8.0
 40
8.0
 10
95.829120527258
 20
-159.4572780634343
 10
95.7373087325761
 20
-159.6667398689375
 10
95.58934188148461
 20
-159.6856878941064
 10
95.49012313150942
 20
-159.6856878941064
 10
95.35318058597073
 20
-159.6856878941064
 10
95.23225773443846
 20
-159.6391791050555
 10
95.15112573576083
 20
-159.4572780634343
 10
95.06275903656417
 20
-159.2626301685177
 10
95.0465670877835
 20
-159.025952108681
 10
95.0465670877835
 20
-158.8629990922287
 10
95.0465670877835
 20
-158.7189941009453
 10
95.06103648882156
 20
-158.4671576209735
 10
95.15112573576083
 20
-158.2683756114746
 10
95.243109785217
 20
-158.0654594873934
 10
95.38022458552994
 20
-158.0420328380937
 10
95.49012313150942
 20
-158.0420328380937
 10
95.62534312930548
 20
-158.0420328380937
 10
95.74798852858036
 20
-158.0864745698534
 10
95.829120527258
 20
-158.2683756114746
 10
95.91386987619515
 20
-158.4609564491001
 10
95.9338514300096
 20
-158.6893662797721
 10
95.9338514300096
 20
-158.8629990922287
 10
95.9338514300096
 20
-159.0342203378456
 10
95.91576467871204
 20
-159.2646972258088
 10
95.829120527258
 20
-159.4572780634343
 97
        0
 97
        0
 92
        1
 93
        1
 72
     4
 94
        3
 73
     0
 74
     1
 95
       17
 96
       13
 40
0.0
 40
0.0
 40
0.0
 40
0.0
 40
1.0
 40
1.0
 40
1.0
 40
2.0
 40
2.0
 40
2.0
 40
3.0
 40
3.0
 40
3.0
 40
4.0
 40
4.0
 40
4.0
 40
4.0
 10
95.49012313150942
 20
-158.2346136757191
 10
95.27738848529523
 20
-158.2346136757191
 10
95.23776988721487
 20
-158.5181450341552
 10
95.23776988721487
 20
-158.8629990922287
 10
95.23776988721487
 20
-159.1823594437114
 10
95.2684312370336
 20
-159.4910399991898
 10
95.49012313150942
 20
-159.4910399991898
 10
95.70113522998098
 20
-159.4910399991898
 10
95.74264863057823
 20
-159.2099202075934
 10
95.74264863057823
 20
-158.8629990922287
 10
95.74264863057823
 20
-158.5432942311975
 10
95.71026473301688
 20
-158.2346136757191
 10
95.49012313150942
 20
-158.2346136757191
 97
        0
 97
        0
 75
     2
 76
     1
 98
        0
  0
ENDBLK
  5
FE
330
FB
100
AcDbEntity
  8
0
100
AcDbBlockEnd
  0
ENDSEC
  0
SECTION
  2
ENTITIES
  0
INSERT
  5
42
330
1F
100
AcDbEntity
  8
_U+30EC_U+30A4_U+30E4_U+30FC 1
100
AcDbBlockReference
  2
block 2
 10
0.0
 20
0.0
 30
0.0
  0
SPLINE
  5
65
330
1F
100
AcDbEntity
  8
_U+30EC_U+30A4_U+30E4_U+30FC 1
 62
   179
420
  2234388
370
     9
100
AcDbSpline
210
0.0
220
0.0
230
1.0
 70
    11
 71
     3
 72
    17
 73
    13
 74
     0
 42
0.0000000001
 43
0.0000000001
 12
1.0
 22
0.0
 32
0.0
 13
1.0
 23
0.0
 33
0.0
 40
0.0
 40
0.0
 40
0.0
 40
0.0
 40
1.0
 40
1.0
 40
1.0
 40
2.0
 40
2.0
 40
2.0
 40
3.0
 40
3.0
 40
3.0
 40
4.0
 40
4.0
 40
4.0
 40
4.0
 10
121.0888877440984
 20
-142.6810427421076
 30
0.0
 10
121.0888877440984
 20
-142.6255860754546
 30
0.0
 10
121.0441202452405
 20
-142.581136075466
 30
0.0
 10
120.9886666364192
 20
-142.581136075466
 30
0.0
 10
120.9335244147288
 20
-142.581136075466
 30
0.0
 10
120.8887569158709
 20
-142.6255860754546
 30
0.0
 10
120.8887569158709
 20
-142.6810427421076
 30
0.0
 10
120.8887569158709
 20
-142.7364994087603
 30
0.0
 10
120.9335244147288
 20
-142.781302186527
 30
0.0
 10
120.9886666364192
 20
-142.781302186527
 30
0.0
 10
121.0441202452405
 20
-142.781302186527
 30
0.0
 10
121.0888877440984
 20
-142.7364994087603
 30
0.0
 10
121.0888877440984
 20
-142.6810427421076
 30
0.0
  0
SPLINE
  5
66
330
1F
100
AcDbEntity
  8
_U+30EC_U+30A4_U+30E4_U+30FC 1
 62
   179
420
  2234388
370
     9
100
AcDbSpline
210
0.0
220
0.0
230
1.0
 70
    11
 71
     3
 72
    17
 73
    13
 74
     0
 42
0.0000000001
 43
0.0000000001
 12
1.0
 22
0.0
 32
0.0
 13
1.0
 23
0.0
 33
0.0
 40
0.0
 40
0.0
 40
0.0
 40
0.0
 40
1.0
 40
1.0
 40
1.0
 40
2.0
 40
2.0
 40
2.0
 40
3.0
 40
3.0
 40
3.0
 40
4.0
 40
4.0
 40
4.0
 40
4.0
 10
121.0888877440984
 20
-155.181229405649
 30
0.0
 10
121.0888877440984
 20
-155.1257727389963
 30
0.0
 10
121.0441202452405
 20
-155.0809699612296
 30
0.0
 10
120.9886666364192
 20
-155.0809699612296
 30
0.0
 10
120.9335244147288
 20
-155.0809699612296
 30
0.0
 10
120.8887569158709
 20
-155.1257727389963
 30
0.0
 10
120.8887569158709
 20
-155.181229405649
 30
0.0
 10
120.8887569158709
 20
-155.2363332945246
 30
0.0
 10
120.9335244147288
 20
-155.2811360722906
 30
0.0
 10
120.9886666364192
 20
-155.2811360722906
 30
0.0
 10
121.0441202452405
 20
-155.2811360722906
 30
0.0
 10
121.0888877440984
 20
-155.2363332945246
 30
0.0
 10
121.0888877440984
 20
-155.181229405649
 30
0.0
  0
SPLINE
  5
67
330
1F
100
AcDbEntity
  8
_U+30EC_U+30A4_U+30E4_U+30FC 1
 62
   179
420
  2234388
370
     9
100
AcDbSpline
210
0.0
220
0.0
230
1.0
 70
    11
 71
     3
 72
    17
 73
    13
 74
     0
 42
0.0000000001
 43
0.0000000001
 12
1.0
 22
0.0
 32
0.0
 13
1.0
 23
0.0
 33
0.0
 40
0.0
 40
0.0
 40
0.0
 40
0.0
 40
1.0
 40
1.0
 40
1.0
 40
2.0
 40
2.0
 40
2.0
 40
3.0
 40
3.0
 40
3.0
 40
4.0
 40
4.0
 40
4.0
 40
4.0
 10
121.0888877440984
 20
-155.5812088499933
 30
0.0
 10
121.0888877440984
 20
-155.5257521833406
 30
0.0
 10
121.0441202452405
 20
-155.4809494055739
 30
0.0
 10
120.9886666364192
 20
-155.4809494055739
 30
0.0
 10
120.9335244147288
 20
-155.4809494055739
 30
0.0
 10
120.8887569158709
 20
-155.5257521833406
 30
0.0
 10
120.8887569158709
 20
-155.5812088499933
 30
0.0
 10
120.8887569158709
 20
-155.6363127388689
 30
0.0
 10
120.9335244147288
 20
-155.6811155166356
 30
0.0
 10
120.9886666364192
 20
-155.6811155166356
 30
0.0
 10
121.0441202452405
 20
-155.6811155166356
 30
0.0
 10
121.0888877440984
 20
-155.6363127388689
 30
0.0
 10
121.0888877440984
 20
-155.5812088499933
 30
0.0
  0
SPLINE
  5
68
330
1F
100
AcDbEntity
  8
_U+30EC_U+30A4_U+30E4_U+30FC 1
 62
   179
420
  2234388
370
     9
100
AcDbSpline
210
0.0
220
0.0
230
1.0
 70
    11
 71
     3
 72
    17
 73
    13
 74
     0
 42
0.0000000001
 43
0.0000000001
 12
1.0
 22
0.0
 32
0.0
 13
1.0
 23
0.0
 33
0.0
 40
0.0
 40
0.0
 40
0.0
 40
0.0
 40
1.0
 40
1.0
 40
1.0
 40
2.0
 40
2.0
 40
2.0
 40
3.0
 40
3.0
 40
3.0
 40
4.0
 40
4.0
 40
4.0
 40
4.0
 10
117.0888111794822
 20
-160.2809849599297
 30
0.0
 10
117.0888111794822
 20
-160.2258810710547
 30
0.0
 10
117.0440084028475
 20
-160.181078293288
 30
0.0
 10
116.9889045153644
 20
-160.181078293288
 30
0.0
 10
116.9334125723357
 20
-160.181078293288
 30
0.0
 10
116.8886450734778
 20
-160.2258810710547
 30
0.0
 10
116.8886450734778
 20
-160.2809849599297
 30
0.0
 10
116.8886450734778
 20
-160.3361241265827
 30
0.0
 10
116.9334125723357
 20
-160.3808916265713
 30
0.0
 10
116.9889045153644
 20
-160.3808916265713
 30
0.0
 10
117.0440084028475
 20
-160.3808916265713
 30
0.0
 10
117.0888111794822
 20
-160.3361241265827
 30
0.0
 10
117.0888111794822
 20
-160.2809849599297
 30
0.0
  0
SPLINE
  5
69
330
1F
100
AcDbEntity
  8
_U+30EC_U+30A4_U+30E4_U+30FC 1
 62
   179
420
  2234388
370
     9
100
AcDbSpline
210
0.0
220
0.0
230
1.0
 70
    11
 71
     3
 72
    17
 73
    13
 74
     0
 42
0.0000000001
 43
0.0000000001
 12
1.0
 22
0.0
 32
0.0
 13
1.0
 23
0.0
 33
0.0
 40
0.0
 40
0.0
 40
0.0
 40
0.0
 40
1.0
 40
1.0
 40
1.0
 40
2.0
 40
2.0
 40
2.0
 40
3.0
 40
3.0
 40
3.0
 40
4.0
 40
4.0
 40
4.0
 40
4.0
 10
90.08854131276094
 20
-160.2809849599297
 30
0.0
 10
90.08854131276094
 20
-160.2258810710547
 30
0.0
 10
90.04377381390306
 20
-160.181078293288
 30
0.0
 10
89.98863464864311
 20
-160.181078293288
 30
0.0
 10
89.93353076116004
 20
-160.181078293288
 30
0.0
 10
89.88872798452527
 20
-160.2258810710547
 30
0.0
 10
89.88872798452527
 20
-160.2809849599297
 30
0.0
 10
89.88872798452527
 20
-160.3361241265827
 30
0.0
 10
89.93353076116004
 20
-160.3808916265713
 30
0.0
 10
89.98863464864311
 20
-160.3808916265713
 30
0.0
 10
90.04377381390306
 20
-160.3808916265713
 30
0.0
 10
90.08854131276094
 20
-160.3361241265827
 30
0.0
 10
90.08854131276094
 20
-160.2809849599297
 30
0.0
  0
SPLINE
  5
6A
330
1F
100
AcDbEntity
  8
_U+30EC_U+30A4_U+30E4_U+30FC 1
 62
   179
420
  2234388
370
     9
100
AcDbSpline
210
0.0
220
0.0
230
1.0
 70
    11
 71
     3
 72
    17
 73
    13
 74
     0
 42
0.0000000001
 43
0.0000000001
 12
1.0
 22
0.0
 32
0.0
 13
1.0
 23
0.0
 33
0.0
 40
0.0
 40
0.0
 40
0.0
 40
0.0
 40
1.0
 40
1.0
 40
1.0
 40
2.0
 40
2.0
 40
2.0
 40
3.0
 40
3.0
 40
3.0
 40
4.0
 40
4.0
 40
4.0
 40
4.0
 10
88.19927524984902
 20
-142.6810427421076
 30
0.0
 10
88.19927524984902
 20
-142.6255860754546
 30
0.0
 10
88.15447247321427
 20
-142.581136075466
 30
0.0
 10
88.09936858573118
 20
-142.581136075466
 30
0.0
 10
88.04422942047124
 20
-142.581136075466
 30
0.0
 10
87.99946192161336
 20
-142.6255860754546
 30
0.0
 10
87.99946192161336
 20
-142.6810427421076
 30
0.0
 10
87.99946192161336
 20
-142.7364994087603
 30
0.0
 10
88.04422942047124
 20
-142.781302186527
 30
0.0
 10
88.09936858573118
 20
-142.781302186527
 30
0.0
 10
88.15447247321427
 20
-142.781302186527
 30
0.0
 10
88.19927524984902
 20
-142.7364994087603
 30
0.0
 10
88.19927524984902
 20
-142.6810427421076
 30
0.0
  0
SPLINE
  5
6B
330
1F
100
AcDbEntity
  8
_U+30EC_U+30A4_U+30E4_U+30FC 1
 62
   179
420
  2234388
370
     9
100
AcDbSpline
210
0.0
220
0.0
230
1.0
 70
    11
 71
     3
 72
    17
 73
    13
 74
     0
 42
0.0000000001
 43
0.0000000001
 12
1.0
 22
0.0
 32
0.0
 13
1.0
 23
0.0
 33
0.0
 40
0.0
 40
0.0
 40
0.0
 40
0.0
 40
1.0
 40
1.0
 40
1.0
 40
2.0
 40
2.0
 40
2.0
 40
3.0
 40
3.0
 40
3.0
 40
4.0
 40
4.0
 40
4.0
 40
4.0
 10
88.19927524984902
 20
-143.7810744084992
 30
0.0
 10
88.19927524984902
 20
-143.7259352418461
 30
0.0
 10
88.15447247321427
 20
-143.6811677418576
 30
0.0
 10
88.09936858573118
 20
-143.6811677418576
 30
0.0
 10
88.04422942047124
 20
-143.6811677418576
 30
0.0
 10
87.99946192161336
 20
-143.7259352418461
 30
0.0
 10
87.99946192161336
 20
-143.7810744084992
 30
0.0
 10
87.99946192161336
 20
-143.8361782973741
 30
0.0
 10
88.04422942047124
 20
-143.8809810751409
 30
0.0
 10
88.09936858573118
 20
-143.8809810751409
 30
0.0
 10
88.15447247321427
 20
-143.8809810751409
 30
0.0
 10
88.19927524984902
 20
-143.8361782973741
 30
0.0
 10
88.19927524984902
 20
-143.7810744084992
 30
0.0
  0
SPLINE
  5
6C
330
1F
100
AcDbEntity
  8
_U+30EC_U+30A4_U+30E4_U+30FC 1
 62
   179
420
  2234388
370
     9
100
AcDbSpline
210
0.0
220
0.0
230
1.0
 70
    11
 71
     3
 72
    17
 73
    13
 74
     0
 42
0.0000000001
 43
0.0000000001
 12
1.0
 22
0.0
 32
0.0
 13
1.0
 23
0.0
 33
0.0
 40
0.0
 40
0.0
 40
0.0
 40
0.0
 40
1.0
 40
1.0
 40
1.0
 40
2.0
 40
2.0
 40
2.0
 40
3.0
 40
3.0
 40
3.0
 40
4.0
 40
4.0
 40
4.0
 40
4.0
 10
100.0889796687396
 20
-160.2809849599297
 30
0.0
 10
100.0889796687396
 20
-160.2258810710547
 30
0.0
 10
100.0441768921049
 20
-160.181078293288
 30
0.0
 10
99.988720226853
 20
-160.181078293288
 30
0.0
 10
99.93361633936993
 20
-160.181078293288
 30
0.0
 10
99.88881356273517
 20
-160.2258810710547
 30
0.0
 10
99.88881356273517
 20
-160.2809849599297
 30
0.0
 10
99.88881356273517
 20
-160.3361241265827
 30
0.0
 10
99.93361633936993
 20
-160.3808916265713
 30
0.0
 10
99.988720226853
 20
-160.3808916265713
 30
0.0
 10
100.0441768921049
 20
-160.3808916265713
 30
0.0
 10
100.0889796687396
 20
-160.3361241265827
 30
0.0
 10
100.0889796687396
 20
-160.2809849599297
 30
0.0
  0
POLYLINE
  5
6D
330
1F
100
AcDbEntity
  8
_U+30EC_U+30A4_U+30E4_U+30FC 1
 62
   179
420
  2234388
370
     9
100
AcDb2dPolyline
 66
     1
 10
0.0
 20
0.0
 30
0.0
  0
VERTEX
  5
6E
330
6D
100
AcDbEntity
  8
_U+30EC_U+30A4_U+30E4_U+30FC 1
 62
   179
420
  2234388
370
     9
100
AcDbVertex
100
AcDb2dVertex
 10
99.988720226853
 20
-160.2809849599297
 30
0.0
  0
VERTEX
  5
6F
330
6D
100
AcDbEntity
  8
_U+30EC_U+30A4_U+30E4_U+30FC 1
 62
   179
420
  2234388
370
     9
100
AcDbVertex
100
AcDb2dVertex
 10
116.9889045153644
 20
-160.2809849599297
 30
0.0
  0
SEQEND
  5
70
330
6D
100
AcDbEntity
  8
_U+30EC_U+30A4_U+30E4_U+30FC 1
 62
   179
420
  2234388
370
     9
  0
POLYLINE
  5
71
330
1F
100
AcDbEntity
  8
_U+30EC_U+30A4_U+30E4_U+30FC 1
 62
   179
420
  2234388
370
     9
100
AcDb2dPolyline
 66
     1
 10
0.0
 20
0.0
 30
0.0
  0
VERTEX
  5
72
330
71
100
AcDbEntity
  8
_U+30EC_U+30A4_U+30E4_U+30FC 1
 62
   179
420
  2234388
370
     9
100
AcDbVertex
100
AcDb2dVertex
 10
116.9889045153644
 20
-158.1209266271365
 30
0.0
  0
VERTEX
  5
73
330
71
100
AcDbEntity
  8
_U+30EC_U+30A4_U+30E4_U+30FC 1
 62
   179
420
  2234388
370
     9
100
AcDbVertex
100
AcDb2dVertex
 10
116.9889045153644
 20
-161.28110995968
 30
0.0
  0
SEQEND
  5
74
330
71
100
AcDbEntity
  8
_U+30EC_U+30A4_U+30E4_U+30FC 1
 62
   179
420
  2234388
370
     9
  0
INSERT
  5
76
330
1F
100
AcDbEntity
  8
_U+30EC_U+30A4_U+30E4_U+30FC 1
100
AcDbBlockReference
  2
block 3
 10
0.0
 20
0.0
 30
0.0
  0
POLYLINE
  5
7D
330
1F
100
AcDbEntity
  8
_U+30EC_U+30A4_U+30E4_U+30FC 1
 62
   179
420
  2234388
370
     9
100
AcDb2dPolyline
 66
     1
 10
0.0
 20
0.0
 30
0.0
  0
VERTEX
  5
7E
330
7D
100
AcDbEntity
  8
_U+30EC_U+30A4_U+30E4_U+30FC 1
 62
   179
420
  2234388
370
     9
100
AcDbVertex
100
AcDb2dVertex
 10
120.9886666364192
 20
-155.5812088499933
 30
0.0
  0
VERTEX
  5
7F
330
7D
100
AcDbEntity
  8
_U+30EC_U+30A4_U+30E4_U+30FC 1
 62
   179
420
  2234388
370
     9
100
AcDbVertex
100
AcDb2dVertex
 10
120.9886666364192
 20
-156.5809810719659
 30
0.0
  0
SEQEND
  5
80
330
7D
100
AcDbEntity
  8
_U+30EC_U+30A4_U+30E4_U+30FC 1
 62
   179
420
  2234388
370
     9
  0
POLYLINE
  5
81
330
1F
100
AcDbEntity
  8
_U+30EC_U+30A4_U+30E4_U+30FC 1
 62
   179
420
  2234388
370
     9
100
AcDb2dPolyline
 66
     1
 10
0.0
 20
0.0
 30
0.0
  0
VERTEX
  5
82
330
81
100
AcDbEntity
  8
_U+30EC_U+30A4_U+30E4_U+30FC 1
 62
   179
420
  2234388
370
     9
100
AcDbVertex
100
AcDb2dVertex
 10
120.9886666364192
 20
-155.181229405649
 30
0.0
  0
VERTEX
  5
83
330
81
100
AcDbEntity
  8
_U+30EC_U+30A4_U+30E4_U+30FC 1
 62
   179
420
  2234388
370
     9
100
AcDbVertex
100
AcDb2dVertex
 10
120.9886666364192
 20
-155.5812088499933
 30
0.0
  0
SEQEND
  5
84
330
81
100
AcDbEntity
  8
_U+30EC_U+30A4_U+30E4_U+30FC 1
 62
   179
420
  2234388
370
     9
  0
POLYLINE
  5
85
330
1F
100
AcDbEntity
  8
_U+30EC_U+30A4_U+30E4_U+30FC 1
 62
   179
420
  2234388
370
     9
100
AcDb2dPolyline
 66
     1
 10
0.0
 20
0.0
 30
0.0
  0
VERTEX
  5
86
330
85
100
AcDbEntity
  8
_U+30EC_U+30A4_U+30E4_U+30FC 1
 62
   179
420
  2234388
370
     9
100
AcDbVertex
100
AcDb2dVertex
 10
119.5286222283486
 20
-155.181229405649
 30
0.0
  0
VERTEX
  5
87
330
85
100
AcDbEntity
  8
_U+30EC_U+30A4_U+30E4_U+30FC 1
 62
   179
420
  2234388
370
     9
100
AcDbVertex
100
AcDb2dVertex
 10
121.9887532766965
 20
-155.181229405649
 30
0.0
  0
SEQEND
  5
88
330
85
100
AcDbEntity
  8
_U+30EC_U+30A4_U+30E4_U+30FC 1
 62
   179
420
  2234388
370
     9
  0
POLYLINE
  5
89
330
1F
100
AcDbEntity
  8
_U+30EC_U+30A4_U+30E4_U+30FC 1
 62
   179
420
  2234388
370
     9
100
AcDb2dPolyline
 66
     1
 10
0.0
 20
0.0
 30
0.0
  0
VERTEX
  5
8A
330
89
100
AcDbEntity
  8
_U+30EC_U+30A4_U+30E4_U+30FC 1
 62
   179
420
  2234388
370
     9
100
AcDbVertex
100
AcDb2dVertex
 10
119.5286222283486
 20
-155.5812088499933
 30
0.0
  0
VERTEX
  5
8B
330
89
100
AcDbEntity
  8
_U+30EC_U+30A4_U+30E4_U+30FC 1
 62
   179
420
  2234388
370
     9
100
AcDbVertex
100
AcDb2dVertex
 10
121.9887532766965
 20
-155.5812088499933
 30
0.0
  0
SEQEND
  5
8C
330
89
100
AcDbEntity
  8
_U+30EC_U+30A4_U+30E4_U+30FC 1
 62
   179
420
  2234388
370
     9
  0
INSERT
  5
8E
330
1F
100
AcDbEntity
  8
_U+30EC_U+30A4_U+30E4_U+30FC 1
100
AcDbBlockReference
  2
block 4
 10
0.0
 20
0.0
 30
0.0
  0
POLYLINE
  5
B1
330
1F
100
AcDbEntity
  8
_U+30EC_U+30A4_U+30E4_U+30FC 1
 62
   179
420
  2234388
370
     9
100
AcDb2dPolyline
 66
     1
 10
0.0
 20
0.0
 30
0.0
  0
VERTEX
  5
B2
330
B1
100
AcDbEntity
  8
_U+30EC_U+30A4_U+30E4_U+30FC 1
 62
   179
420
  2234388
370
     9
100
AcDbVertex
100
AcDb2dVertex
 10
88.09936858573118
 20
-142.6810427421076
 30
0.0
  0
VERTEX
  5
B3
330
B1
100
AcDbEntity
  8
_U+30EC_U+30A4_U+30E4_U+30FC 1
 62
   179
420
  2234388
370
     9
100
AcDbVertex
100
AcDb2dVertex
 10
88.09936858573118
 20
-141.6809177423576
 30
0.0
  0
SEQEND
  5
B4
330
B1
100
AcDbEntity
  8
_U+30EC_U+30A4_U+30E4_U+30FC 1
 62
   179
420
  2234388
370
     9
  0
POLYLINE
  5
B5
330
1F
100
AcDbEntity
  8
_U+30EC_U+30A4_U+30E4_U+30FC 1
 62
   179
420
  2234388
370
     9
100
AcDb2dPolyline
 66
     1
 10
0.0
 20
0.0
 30
0.0
  0
VERTEX
  5
B6
330
B5
100
AcDbEntity
  8
_U+30EC_U+30A4_U+30E4_U+30FC 1
 62
   179
420
  2234388
370
     9
100
AcDbVertex
100
AcDb2dVertex
 10
88.09936858573118
 20
-142.6810427421076
 30
0.0
  0
VERTEX
  5
B7
330
B5
100
AcDbEntity
  8
_U+30EC_U+30A4_U+30E4_U+30FC 1
 62
   179
420
  2234388
370
     9
100
AcDbVertex
100
AcDb2dVertex
 10
88.09936858573118
 20
-144.7808113526936
 30
0.0
  0
SEQEND
  5
B8
330
B5
100
AcDbEntity
  8
_U+30EC_U+30A4_U+30E4_U+30FC 1
 62
   179
420
  2234388
370
     9
  0
POLYLINE
  5
B9
330
1F
100
AcDbEntity
  8
_U+30EC_U+30A4_U+30E4_U+30FC 1
 62
   179
420
  2234388
370
     9
100
AcDb2dPolyline
 66
     1
 10
0.0
 20
0.0
 30
0.0
  0
VERTEX
  5
BA
330
B9
100
AcDbEntity
  8
_U+30EC_U+30A4_U+30E4_U+30FC 1
 62
   179
420
  2234388
370
     9
100
AcDbVertex
100
AcDb2dVertex
 10
89.55937465959444
 20
-142.6810427421076
 30
0.0
  0
VERTEX
  5
BB
330
B9
100
AcDbEntity
  8
_U+30EC_U+30A4_U+30E4_U+30FC 1
 62
   179
420
  2234388
370
     9
100
AcDbVertex
100
AcDb2dVertex
 10
87.09959638901529
 20
-142.6810427421076
 30
0.0
  0
SEQEND
  5
BC
330
B9
100
AcDbEntity
  8
_U+30EC_U+30A4_U+30E4_U+30FC 1
 62
   179
420
  2234388
370
     9
  0
POLYLINE
  5
BD
330
1F
100
AcDbEntity
  8
_U+30EC_U+30A4_U+30E4_U+30FC 1
 62
   179
420
  2234388
370
     9
100
AcDb2dPolyline
 66
     1
 10
0.0
 20
0.0
 30
0.0
  0
VERTEX
  5
BE
330
BD
100
AcDbEntity
  8
_U+30EC_U+30A4_U+30E4_U+30FC 1
 62
   179
420
  2234388
370
     9
100
AcDbVertex
100
AcDb2dVertex
 10
89.55937465959444
 20
-143.7810744084992
 30
0.0
  0
VERTEX
  5
BF
330
BD
100
AcDbEntity
  8
_U+30EC_U+30A4_U+30E4_U+30FC 1
 62
   179
420
  2234388
370
     9
100
AcDbVertex
100
AcDb2dVertex
 10
87.09959638901529
 20
-143.7810744084992
 30
0.0
  0
SEQEND
  5
C0
330
BD
100
AcDbEntity
  8
_U+30EC_U+30A4_U+30E4_U+30FC 1
 62
   179
420
  2234388
370
     9
  0
INSERT
  5
C2
330
1F
100
AcDbEntity
  8
_U+30EC_U+30A4_U+30E4_U+30FC 1
100
AcDbBlockReference
  2
block 5
 10
0.0
 20
0.0
 30
0.0
  0
POLYLINE
  5
D1
330
1F
100
AcDbEntity
  8
_U+30EC_U+30A4_U+30E4_U+30FC 1
 62
   179
420
  2234388
370
     9
100
AcDb2dPolyline
 66
     1
 10
0.0
 20
0.0
 30
0.0
  0
VERTEX
  5
D2
330
D1
100
AcDbEntity
  8
_U+30EC_U+30A4_U+30E4_U+30FC 1
 62
   179
420
  2234388
370
     9
100
AcDbVertex
100
AcDb2dVertex
 10
120.9886666364192
 20
-142.6810427421076
 30
0.0
  0
VERTEX
  5
D3
330
D1
100
AcDbEntity
  8
_U+30EC_U+30A4_U+30E4_U+30FC 1
 62
   179
420
  2234388
370
     9
100
AcDbVertex
100
AcDb2dVertex
 10
120.9886666364192
 20
-155.181229405649
 30
0.0
  0
SEQEND
  5
D4
330
D1
100
AcDbEntity
  8
_U+30EC_U+30A4_U+30E4_U+30FC 1
 62
   179
420
  2234388
370
     9
  0
POLYLINE
  5
D5
330
1F
100
AcDbEntity
  8
_U+30EC_U+30A4_U+30E4_U+30FC 1
 62
   179
420
  2234388
370
     9
100
AcDb2dPolyline
 66
     1
 10
0.0
 20
0.0
 30
0.0
  0
VERTEX
  5
D6
330
D5
100
AcDbEntity
  8
_U+30EC_U+30A4_U+30E4_U+30FC 1
 62
   179
420
  2234388
370
     9
100
AcDbVertex
100
AcDb2dVertex
 10
103.6288249740929
 20
-142.6810427421076
 30
0.0
  0
VERTEX
  5
D7
330
D5
100
AcDbEntity
  8
_U+30EC_U+30A4_U+30E4_U+30FC 1
 62
   179
420
  2234388
370
     9
100
AcDbVertex
100
AcDb2dVertex
 10
121.9887532766965
 20
-142.6810427421076
 30
0.0
  0
SEQEND
  5
D8
330
D5
100
AcDbEntity
  8
_U+30EC_U+30A4_U+30E4_U+30FC 1
 62
   179
420
  2234388
370
     9
  0
POLYLINE
  5
D9
330
1F
100
AcDbEntity
  8
_U+30EC_U+30A4_U+30E4_U+30FC 1
 62
   179
420
  2234388
370
     9
100
AcDb2dPolyline
 66
     1
 10
0.0
 20
0.0
 30
0.0
  0
VERTEX
  5
DA
330
D9
100
AcDbEntity
  8
_U+30EC_U+30A4_U+30E4_U+30FC 1
 62
   179
420
  2234388
370
     9
100
AcDbVertex
100
AcDb2dVertex
 10
119.5286222283486
 20
-155.181229405649
 30
0.0
  0
VERTEX
  5
DB
330
D9
100
AcDbEntity
  8
_U+30EC_U+30A4_U+30E4_U+30FC 1
 62
   179
420
  2234388
370
     9
100
AcDbVertex
100
AcDb2dVertex
 10
121.9887532766965
 20
-155.181229405649
 30
0.0
  0
SEQEND
  5
DC
330
D9
100
AcDbEntity
  8
_U+30EC_U+30A4_U+30E4_U+30FC 1
 62
   179
420
  2234388
370
     9
  0
INSERT
  5
DE
330
1F
100
AcDbEntity
  8
_U+30EC_U+30A4_U+30E4_U+30FC 1
100
AcDbBlockReference
  2
block 6
 10
0.0
 20
0.0
 30
0.0
  0
POLYLINE
  5
EF
330
1F
100
AcDbEntity
  8
_U+30EC_U+30A4_U+30E4_U+30FC 1
 62
   179
420
  2234388
370
     9
100
AcDb2dPolyline
 66
     1
 10
0.0
 20
0.0
 30
0.0
  0
VERTEX
  5
F0
330
EF
100
AcDbEntity
  8
_U+30EC_U+30A4_U+30E4_U+30FC 1
 62
   179
420
  2234388
370
     9
100
AcDbVertex
100
AcDb2dVertex
 10
89.98863464864311
 20
-160.2809849599297
 30
0.0
  0
VERTEX
  5
F1
330
EF
100
AcDbEntity
  8
_U+30EC_U+30A4_U+30E4_U+30FC 1
 62
   179
420
  2234388
370
     9
100
AcDbVertex
100
AcDb2dVertex
 10
99.988720226853
 20
-160.2809849599297
 30
0.0
  0
SEQEND
  5
F2
330
EF
100
AcDbEntity
  8
_U+30EC_U+30A4_U+30E4_U+30FC 1
 62
   179
420
  2234388
370
     9
  0
POLYLINE
  5
F3
330
1F
100
AcDbEntity
  8
_U+30EC_U+30A4_U+30E4_U+30FC 1
 62
   179
420
  2234388
370
     9
100
AcDb2dPolyline
 66
     1
 10
0.0
 20
0.0
 30
0.0
  0
VERTEX
  5
F4
330
F3
100
AcDbEntity
  8
_U+30EC_U+30A4_U+30E4_U+30FC 1
 62
   179
420
  2234388
370
     9
100
AcDbVertex
100
AcDb2dVertex
 10
89.98863464864311
 20
-146.3211449634198
 30
0.0
  0
VERTEX
  5
F5
330
F3
100
AcDbEntity
  8
_U+30EC_U+30A4_U+30E4_U+30FC 1
 62
   179
420
  2234388
370
     9
100
AcDbVertex
100
AcDb2dVertex
 10
89.98863464864311
 20
-161.28110995968
 30
0.0
  0
SEQEND
  5
F6
330
F3
100
AcDbEntity
  8
_U+30EC_U+30A4_U+30E4_U+30FC 1
 62
   179
420
  2234388
370
     9
  0
POLYLINE
  5
F7
330
1F
100
AcDbEntity
  8
_U+30EC_U+30A4_U+30E4_U+30FC 1
 62
   179
420
  2234388
370
     9
100
AcDb2dPolyline
 66
     1
 10
0.0
 20
0.0
 30
0.0
  0
VERTEX
  5
F8
330
F7
100
AcDbEntity
  8
_U+30EC_U+30A4_U+30E4_U+30FC 1
 62
   179
420
  2234388
370
     9
100
AcDbVertex
100
AcDb2dVertex
 10
99.988720226853
 20
-158.8209788491835
 30
0.0
  0
VERTEX
  5
F9
330
F7
100
AcDbEntity
  8
_U+30EC_U+30A4_U+30E4_U+30FC 1
 62
   179
420
  2234388
370
     9
100
AcDbVertex
100
AcDb2dVertex
 10
99.988720226853
 20
-161.28110995968
 30
0.0
  0
SEQEND
  5
FA
330
F7
100
AcDbEntity
  8
_U+30EC_U+30A4_U+30E4_U+30FC 1
 62
   179
420
  2234388
370
     9
  0
INSERT
  5
FC
330
1F
100
AcDbEntity
  8
_U+30EC_U+30A4_U+30E4_U+30FC 1
100
AcDbBlockReference
  2
block 7
 10
0.0
 20
0.0
 30
0.0
  0
ENDSEC
  0
SECTION
  2
OBJECTS
  0
DICTIONARY
  5
C
330
0
100
AcDbDictionary
281
     1
  3
ACAD_GROUP
350
D
  3
ACAD_LAYOUT
350
1A
  3
ACAD_MATERIAL
350
3B
  3
ACAD_MLEADERSTYLE
350
105
  3
ACAD_MLINESTYLE
350
17
  3
ACAD_PLOTSETTINGS
350
19
  3
ACAD_PLOTSTYLENAME
350
E
  3
ACAD_TABLESTYLE
350
104
  3
ACAD_VISUALSTYLE
350
2A
  0
SUN
  5
3F
330
29
100
AcDbSun
 90
        1
290
     0
 63
     7
421
 16777215
 40
1.0
291
     1
 91
  2455826
 92
 54000000
292
     0
 70
     2
 71
   256
280
     1
  0
DICTIONARY
  5
D
102
{ACAD_REACTORS
330
C
102
}
330
C
100
AcDbDictionary
281
     1
  0
DICTIONARY
  5
1A
102
{ACAD_REACTORS
330
C
102
}
330
C
100
AcDbDictionary
281
     1
  3
Layout1
350
1E
  3
Layout2
350
26
  3
Model
350
22
  0
DICTIONARY
  5
3B
102
{ACAD_REACTORS
330
C
102
}
330
C
100
AcDbDictionary
281
     1
  3
ByBlock
350
3D
  3
ByLayer
350
3C
  3
Global
350
3E
  0
DICTIONARY
  5
105
102
{ACAD_REACTORS
330
C
102
}
330
C
100
AcDbDictionary
281
     1
  0
DICTIONARY
  5
17
102
{ACAD_REACTORS
330
C
102
}
330
C
100
AcDbDictionary
281
     1
  3
Standard
350
18
  0
DICTIONARY
  5
19
102
{ACAD_REACTORS
330
C
102
}
330
C
100
AcDbDictionary
281
     1
  0
ACDBDICTIONARYWDFLT
  5
E
102
{ACAD_REACTORS
330
C
102
}
330
C
100
AcDbDictionary
281
     1
  3
Normal
350
F
100
AcDbDictionaryWithDefault
340
F
  0
DICTIONARY
  5
104
102
{ACAD_REACTORS
330
C
102
}
330
C
100
AcDbDictionary
281
     1
  0
DICTIONARY
  5
2A
102
{ACAD_REACTORS
330
C
102
}
330
C
100
AcDbDictionary
281
     1
  3
2dWireframe
350
2F
  3
3D Hidden
350
31
  3
3dWireframe
350
30
  3
Basic
350
32
  3
Brighten
350
36
  3
ColorChange
350
3A
  3
Conceptual
350
34
  3
Dim
350
35
  3
Facepattern
350
39
  3
Flat
350
2B
  3
FlatWithEdges
350
2C
  3
Gouraud
350
2D
  3
GouraudWithEdges
350
2E
  3
Linepattern
350
38
  3
Realistic
350
33
  3
Thicken
350
37
  0
LAYOUT
  5
1E
102
{ACAD_REACTORS
330
1A
102
}
330
1A
100
AcDbPlotSettings
  1

  2
none_device
  4

  6

 40
0.0
 41
0.0
 42
0.0
 43
0.0
 44
0.0
 45
0.0
 46
0.0
 47
0.0
 48
0.0
 49
0.0
140
0.0
141
0.0
142
1.0
143
1.0
 70
   688
 72
     0
 73
     0
 74
     5
  7

 75
    16
 76
     0
 77
     2
 78
   300
147
1.0
148
0.0
149
0.0
100
AcDbLayout
  1
Layout1
 70
     1
 71
     1
 10
0.0
 20
0.0
 11
12.0
 21
9.0
 12
0.0
 22
0.0
 32
0.0
 14
1.000000000000000E+20
 24
1.000000000000000E+20
 34
1.000000000000000E+20
 15
-1.000000000000000E+20
 25
-1.000000000000000E+20
 35
-1.000000000000000E+20
146
0.0
 13
0.0
 23
0.0
 33
0.0
 16
1.0
 26
0.0
 36
0.0
 17
0.0
 27
1.0
 37
0.0
 76
     0
330
1B
  0
LAYOUT
  5
26
102
{ACAD_REACTORS
330
1A
102
}
330
1A
100
AcDbPlotSettings
  1

  2
none_device
  4

  6

 40
0.0
 41
0.0
 42
0.0
 43
0.0
 44
0.0
 45
0.0
 46
0.0
 47
0.0
 48
0.0
 49
0.0
140
0.0
141
0.0
142
1.0
143
1.0
 70
   688
 72
     0
 73
     0
 74
     5
  7

 75
    16
 76
     0
 77
     2
 78
   300
147
1.0
148
0.0
149
0.0
100
AcDbLayout
  1
Layout2
 70
     1
 71
     2
 10
0.0
 20
0.0
 11
0.0
 21
0.0
 12
0.0
 22
0.0
 32
0.0
 14
0.0
 24
0.0
 34
0.0
 15
0.0
 25
0.0
 35
0.0
146
0.0
 13
0.0
 23
0.0
 33
0.0
 16
1.0
 26
0.0
 36
0.0
 17
0.0
 27
1.0
 37
0.0
 76
     0
330
23
  0
LAYOUT
  5
22
102
{ACAD_REACTORS
330
1A
102
}
330
1A
100
AcDbPlotSettings
  1

  2
none_device
  4

  6

 40
0.0
 41
0.0
 42
0.0
 43
0.0
 44
0.0
 45
0.0
 46
0.0
 47
0.0
 48
0.0
 49
0.0
140
0.0
141
0.0
142
1.0
143
1.0
 70
  1712
 72
     0
 73
     0
 74
     0
  7

 75
     0
 76
     0
 77
     2
 78
   300
147
1.0
148
0.0
149
0.0
100
AcDbLayout
  1
Model
 70
     1
 71
     0
 10
0.0
 20
0.0
 11
12.0
 21
9.0
 12
0.0
 22
0.0
 32
0.0
 14
1.000000000000000E+20
 24
1.000000000000000E+20
 34
1.000000000000000E+20
 15
-1.000000000000000E+20
 25
-1.000000000000000E+20
 35
-1.000000000000000E+20
146
0.0
 13
0.0
 23
0.0
 33
0.0
 16
1.0
 26
0.0
 36
0.0
 17
0.0
 27
1.0
 37
0.0
 76
     0
330
1F
331
29
  0
MATERIAL
  5
3D
102
{ACAD_REACTORS
330
3B
102
}
330
3B
100
AcDbMaterial
  1
ByBlock
 72
     1
 94
      127
  0
MATERIAL
  5
3C
102
{ACAD_REACTORS
330
3B
102
}
330
3B
100
AcDbMaterial
  1
ByLayer
 72
     1
 94
      127
  0
MATERIAL
  5
3E
102
{ACAD_REACTORS
330
3B
102
}
330
3B
100
AcDbMaterial
  1
Global
 72
     1
 94
      127
  0
MLINESTYLE
  5
18
102
{ACAD_REACTORS
330
17
102
}
330
17
100
AcDbMlineStyle
  2
Standard
 70
     0
  3

 62
   256
 51
90.0
 52
90.0
 71
     2
 49
0.5
 62
   256
  6
BYLAYER
 49
-0.5
 62
   256
  6
BYLAYER
  0
ACDBPLACEHOLDER
  5
F
102
{ACAD_REACTORS
330
E
102
}
330
E
  0
VISUALSTYLE
  5
2F
102
{ACAD_REACTORS
330
2A
102
}
330
2A
100
AcDbVisualStyle
  2
2dWireframe
 70
     4
177
     2
291
     0
 71
     0
176
     1
 72
     2
176
     1
 73
     0
176
     1
 90
        0
176
     1
 40
-0.6
176
     1
 41
-30.0
176
     1
 62
     5
 63
     7
421
 16777215
176
     1
 74
     1
176
     1
 91
        4
176
     1
 64
     7
176
     1
 65
   257
176
     1
 75
     1
176
     1
175
     1
176
     1
 42
1.0
176
     1
 92
        0
176
     1
 66
   257
176
     1
 43
1.0
176
     1
 76
     1
176
     1
 77
     6
176
     1
 78
     2
176
     1
 67
     7
176
     1
 79
     5
176
     1
170
     0
176
     1
171
     0
176
     1
290
     0
176
     1
 93
        1
176
     1
 44
0.0
176
     1
173
     0
176
     1
  0
VISUALSTYLE
  5
31
102
{ACAD_REACTORS
330
2A
102
}
330
2A
100
AcDbVisualStyle
  2
3D Hidden
 70
     6
177
     2
291
     0
 71
     1
176
     1
 72
     2
176
     1
 73
     2
176
     1
 90
        0
176
     1
 40
-0.6
176
     1
 41
-30.0
176
     1
 62
     5
 63
     7
421
 16777215
176
     1
 74
     2
176
     1
 91
        2
176
     1
 64
     7
176
     1
 65
   257
176
     1
 75
     2
176
     1
175
     1
176
     1
 42
40.0
176
     1
 92
        0
176
     1
 66
   257
176
     1
 43
1.0
176
     1
 76
     1
176
     1
 77
     6
176
     1
 78
     2
176
     1
 67
     7
176
     1
 79
     3
176
     1
170
     0
176
     1
171
     0
176
     1
290
     0
176
     1
 93
        1
176
     1
 44
0.0
176
     1
173
     0
176
     1
  0
VISUALSTYLE
  5
30
102
{ACAD_REACTORS
330
2A
102
}
330
2A
100
AcDbVisualStyle
  2
3dWireframe
 70
     5
177
     2
291
     0
 71
     0
176
     1
 72
     2
176
     1
 73
     0
176
     1
 90
        0
176
     1
 40
-0.6
176
     1
 41
-30.0
176
     1
 62
     5
 63
     7
421
 16777215
176
     1
 74
     1
176
     1
 91
        4
176
     1
 64
     7
176
     1
 65
   257
176
     1
 75
     1
176
     1
175
     1
176
     1
 42
1.0
176
     1
 92
        0
176
     1
 66
   257
176
     1
 43
1.0
176
     1
 76
     1
176
     1
 77
     6
176
     1
 78
     2
176
     1
 67
     7
176
     1
 79
     5
176
     1
170
     0
176
     1
171
     0
176
     1
290
     0
176
     1
 93
        1
176
     1
 44
0.0
176
     1
173
     0
176
     1
  0
VISUALSTYLE
  5
32
102
{ACAD_REACTORS
330
2A
102
}
330
2A
100
AcDbVisualStyle
  2
Basic
 70
     7
177
     2
291
     1
 71
     1
176
     1
 72
     0
176
     1
 73
     1
176
     1
 90
        0
176
     1
 40
-0.6
176
     1
 41
-30.0
176
     1
 62
     5
 63
     7
421
 16777215
176
     1
 74
     0
176
     1
 91
        4
176
     1
 64
     7
176
     1
 65
   257
176
     1
 75
     1
176
     1
175
     1
176
     1
 42
1.0
176
     1
 92
        8
176
     1
 66
     7
176
     1
 43
1.0
176
     1
 76
     1
176
     1
 77
     6
176
     1
 78
     2
176
     1
 67
     7
176
     1
 79
     5
176
     1
170
     0
176
     1
171
     0
176
     1
290
     0
176
     1
 93
        1
176
     1
 44
0.0
176
     1
173
     0
176
     1
  0
VISUALSTYLE
  5
36
102
{ACAD_REACTORS
330
2A
102
}
330
2A
100
AcDbVisualStyle
  2
Brighten
 70
    12
177
     2
291
     1
 71
     2
176
     1
 72
     2
176
     1
 73
     0
176
     1
 90
        0
176
     1
 40
-0.6
176
     1
 41
-30.0
176
     1
 62
     5
 63
     7
421
 16777215
176
     1
 74
     1
176
     1
 91
        4
176
     1
 64
     7
176
     1
 65
   257
176
     1
 75
     1
176
     1
175
     1
176
     1
 42
1.0
176
     1
 92
        8
176
     1
 66
     7
176
     1
 43
1.0
176
     1
 76
     1
176
     1
 77
     6
176
     1
 78
     2
176
     1
 67
     7
176
     1
 79
     5
176
     1
170
     0
176
     1
171
     0
176
     1
290
     0
176
     1
 93
        1
176
     1
 44
50.0
176
     1
173
     0
176
     1
  0
VISUALSTYLE
  5
3A
102
{ACAD_REACTORS
330
2A
102
}
330
2A
100
AcDbVisualStyle
  2
ColorChange
 70
    16
177
     2
291
     1
 71
     2
176
     1
 72
     2
176
     1
 73
     3
176
     1
 90
        0
176
     1
 40
-0.6
176
     1
 41
-30.0
176
     1
 62
     5
 63
     8
421
  8421504
176
     1
 74
     1
176
     1
 91
        4
176
     1
 64
     7
176
     1
 65
   257
176
     1
 75
     1
176
     1
175
     1
176
     1
 42
1.0
176
     1
 92
        8
176
     1
 66
     8
424
  8421504
176
     1
 43
1.0
176
     1
 76
     1
176
     1
 77
     6
176
     1
 78
     2
176
     1
 67
     7
176
     1
 79
     5
176
     1
170
     0
176
     1
171
     0
176
     1
290
     0
176
     1
 93
        1
176
     1
 44
0.0
176
     1
173
     0
176
     1
  0
VISUALSTYLE
  5
34
102
{ACAD_REACTORS
330
2A
102
}
330
2A
100
AcDbVisualStyle
  2
Conceptual
 70
     9
177
     2
291
     0
 71
     3
176
     1
 72
     2
176
     1
 73
     0
176
     1
 90
        0
176
     1
 40
-0.6
176
     1
 41
-30.0
176
     1
 62
     5
 63
     7
421
 16777215
176
     1
 74
     2
176
     1
 91
        2
176
     1
 64
     7
176
     1
 65
   257
176
     1
 75
     1
176
     1
175
     1
176
     1
 42
40.0
176
     1
 92
        8
176
     1
 66
     7
176
     1
 43
1.0
176
     1
 76
     1
176
     1
 77
     6
176
     1
 78
     2
176
     1
 67
     7
176
     1
 79
     3
176
     1
170
     0
176
     1
171
     0
176
     1
290
     0
176
     1
 93
        1
176
     1
 44
0.0
176
     1
173
     0
176
     1
  0
VISUALSTYLE
  5
35
102
{ACAD_REACTORS
330
2A
102
}
330
2A
100
AcDbVisualStyle
  2
Dim
 70
    11
177
     2
291
     1
 71
     2
176
     1
 72
     2
176
     1
 73
     0
176
     1
 90
        0
176
     1
 40
-0.6
176
     1
 41
-30.0
176
     1
 62
     5
 63
     7
421
 16777215
176
     1
 74
     1
176
     1
 91
        4
176
     1
 64
     7
176
     1
 65
   257
176
     1
 75
     1
176
     1
175
     1
176
     1
 42
1.0
176
     1
 92
        8
176
     1
 66
     7
176
     1
 43
1.0
176
     1
 76
     1
176
     1
 77
     6
176
     1
 78
     2
176
     1
 67
     7
176
     1
 79
     5
176
     1
170
     0
176
     1
171
     0
176
     1
290
     0
176
     1
 93
        1
176
     1
 44
-50.0
176
     1
173
     0
176
     1
  0
VISUALSTYLE
  5
39
102
{ACAD_REACTORS
330
2A
102
}
330
2A
100
AcDbVisualStyle
  2
Facepattern
 70
    15
177
     2
291
     1
 71
     2
176
     1
 72
     2
176
     1
 73
     0
176
     1
 90
        0
176
     1
 40
-0.6
176
     1
 41
-30.0
176
     1
 62
     5
 63
     7
421
 16777215
176
     1
 74
     1
176
     1
 91
        4
176
     1
 64
     7
176
     1
 65
   257
176
     1
 75
     1
176
     1
175
     1
176
     1
 42
1.0
176
     1
 92
        8
176
     1
 66
     7
176
     1
 43
1.0
176
     1
 76
     1
176
     1
 77
     6
176
     1
 78
     2
176
     1
 67
     7
176
     1
 79
     5
176
     1
170
     0
176
     1
171
     0
176
     1
290
     0
176
     1
 93
        1
176
     1
 44
0.0
176
     1
173
     0
176
     1
  0
VISUALSTYLE
  5
2B
102
{ACAD_REACTORS
330
2A
102
}
330
2A
100
AcDbVisualStyle
  2
Flat
 70
     0
177
     2
291
     1
 71
     2
176
     1
 72
     1
176
     1
 73
     1
176
     1
 90
        2
176
     1
 40
-0.6
176
     1
 41
30.0
176
     1
 62
     5
 63
     7
421
 16777215
176
     1
 74
     0
176
     1
 91
        4
176
     1
 64
     7
176
     1
 65
   257
176
     1
 75
     1
176
     1
175
     1
176
     1
 42
1.0
176
     1
 92
        8
176
     1
 66
     7
176
     1
 43
1.0
176
     1
 76
     1
176
     1
 77
     6
176
     1
 78
     2
176
     1
 67
     7
176
     1
 79
     5
176
     1
170
     0
176
     1
171
     0
176
     1
290
     0
176
     1
 93
       13
176
     1
 44
0.0
176
     1
173
     0
176
     1
  0
VISUALSTYLE
  5
2C
102
{ACAD_REACTORS
330
2A
102
}
330
2A
100
AcDbVisualStyle
  2
FlatWithEdges
 70
     1
177
     2
291
     1
 71
     2
176
     1
 72
     1
176
     1
 73
     1
176
     1
 90
        2
176
     1
 40
-0.6
176
     1
 41
30.0
176
     1
 62
     5
 63
     7
421
 16777215
176
     1
 74
     1
176
     1
 91
        4
176
     1
 64
     7
176
     1
 65
   257
176
     1
 75
     1
176
     1
175
     1
176
     1
 42
1.0
176
     1
 92
        0
176
     1
 66
   257
176
     1
 43
1.0
176
     1
 76
     1
176
     1
 77
     6
176
     1
 78
     2
176
     1
 67
     7
176
     1
 79
     5
176
     1
170
     0
176
     1
171
     0
176
     1
290
     0
176
     1
 93
       13
176
     1
 44
0.0
176
     1
173
     0
176
     1
  0
VISUALSTYLE
  5
2D
102
{ACAD_REACTORS
330
2A
102
}
330
2A
100
AcDbVisualStyle
  2
Gouraud
 70
     2
177
     2
291
     1
 71
     2
176
     1
 72
     2
176
     1
 73
     1
176
     1
 90
        2
176
     1
 40
-0.6
176
     1
 41
30.0
176
     1
 62
     5
 63
     7
421
 16777215
176
     1
 74
     0
176
     1
 91
        4
176
     1
 64
     7
176
     1
 65
   257
176
     1
 75
     1
176
     1
175
     1
176
     1
 42
1.0
176
     1
 92
        0
176
     1
 66
     7
176
     1
 43
1.0
176
     1
 76
     1
176
     1
 77
     6
176
     1
 78
     2
176
     1
 67
     7
176
     1
 79
     5
176
     1
170
     0
176
     1
171
     0
176
     1
290
     0
176
     1
 93
       13
176
     1
 44
0.0
176
     1
173
     0
176
     1
  0
VISUALSTYLE
  5
2E
102
{ACAD_REACTORS
330
2A
102
}
330
2A
100
AcDbVisualStyle
  2
GouraudWithEdges
 70
     3
177
     2
291
     1
 71
     2
176
     1
 72
     2
176
     1
 73
     1
176
     1
 90
        2
176
     1
 40
-0.6
176
     1
 41
30.0
176
     1
 62
     5
 63
     7
421
 16777215
176
     1
 74
     1
176
     1
 91
        4
176
     1
 64
     7
176
     1
 65
   257
176
     1
 75
     1
176
     1
175
     1
176
     1
 42
1.0
176
     1
 92
        0
176
     1
 66
   257
176
     1
 43
1.0
176
     1
 76
     1
176
     1
 77
     6
176
     1
 78
     2
176
     1
 67
     7
176
     1
 79
     5
176
     1
170
     0
176
     1
171
     0
176
     1
290
     0
176
     1
 93
       13
176
     1
 44
0.0
176
     1
173
     0
176
     1
  0
VISUALSTYLE
  5
38
102
{ACAD_REACTORS
330
2A
102
}
330
2A
100
AcDbVisualStyle
  2
Linepattern
 70
    14
177
     2
291
     1
 71
     2
176
     1
 72
     2
176
     1
 73
     0
176
     1
 90
        0
176
     1
 40
-0.6
176
     1
 41
-30.0
176
     1
 62
     5
 63
     7
421
 16777215
176
     1
 74
     1
176
     1
 91
        4
176
     1
 64
     7
176
     1
 65
   257
176
     1
 75
     7
176
     1
175
     7
176
     1
 42
1.0
176
     1
 92
        8
176
     1
 66
     7
176
     1
 43
1.0
176
     1
 76
     1
176
     1
 77
     6
176
     1
 78
     2
176
     1
 67
     7
176
     1
 79
     5
176
     1
170
     0
176
     1
171
     0
176
     1
290
     0
176
     1
 93
        1
176
     1
 44
0.0
176
     1
173
     0
176
     1
  0
VISUALSTYLE
  5
33
102
{ACAD_REACTORS
330
2A
102
}
330
2A
100
AcDbVisualStyle
  2
Realistic
 70
     8
177
     2
291
     0
 71
     2
176
     1
 72
     2
176
     1
 73
     0
176
     1
 90
        0
176
     1
 40
-0.6
176
     1
 41
-30.0
176
     1
 62
     5
 63
     7
421
 16777215
176
     1
 74
     1
176
     1
 91
        0
176
     1
 64
     7
176
     1
 65
   257
176
     1
 75
     1
176
     1
175
     1
176
     1
 42
1.0
176
     1
 92
        8
176
     1
 66
     8
424
  7895160
176
     1
 43
1.0
176
     1
 76
     1
176
     1
 77
     6
176
     1
 78
     2
176
     1
 67
     7
176
     1
 79
     5
176
     1
170
     0
176
     1
171
     0
176
     1
290
     0
176
     1
 93
       13
176
     1
 44
0.0
176
     1
173
     0
176
     1
  0
VISUALSTYLE
  5
37
102
{ACAD_REACTORS
330
2A
102
}
330
2A
100
AcDbVisualStyle
  2
Thicken
 70
    13
177
     2
291
     1
 71
     2
176
     1
 72
     2
176
     1
 73
     0
176
     1
 90
        0
176
     1
 40
-0.6
176
     1
 41
-30.0
176
     1
 62
     5
 63
     7
421
 16777215
176
     1
 74
     1
176
     1
 91
        4
176
     1
 64
     7
176
     1
 65
   257
176
     1
 75
     1
176
     1
175
     1
176
     1
 42
1.0
176
     1
 92
       12
176
     1
 66
     7
176
     1
 43
1.0
176
     1
 76
     1
176
     1
 77
     6
176
     1
 78
     2
176
     1
 67
     7
176
     1
 79
     5
176
     1
170
     0
176
     1
171
     0
176
     1
290
     0
176
     1
 93
        1
176
     1
 44
0.0
176
     1
173
     0
176
     1
  0
ENDSEC
  0
EOF
