  0
SECTION
  2
HEADER
  9
$ACADVER
  1
AC1024
  9
$ACADMAINTVER
 70
   226
  9
$DWGCODEPAGE
  3
ANSI_932
  9
$INSBASE
 10
0.0
 20
0.0
 30
0.0
  9
$EXTMIN
 10
1.000000000000000E+20
 20
1.000000000000000E+20
 30
1.000000000000000E+20
  9
$EXTMAX
 10
-1.000000000000000E+20
 20
-1.000000000000000E+20
 30
-1.000000000000000E+20
  9
$LIMMIN
 10
0.0
 20
0.0
  9
$LIMMAX
 10
12.0
 20
9.0
  9
$ORTHOMODE
 70
     0
  9
$REGENMODE
 70
     1
  9
$FILLMODE
 70
     1
  9
$QTEXTMODE
 70
     0
  9
$MIRRTEXT
 70
     0
  9
$LTSCALE
 40
1.0
  9
$ATTMODE
 70
     1
  9
$TEXTSIZE
 40
0.2
  9
$TRACEWID
 40
0.05
  9
$TEXTSTYLE
  7
Standard
  9
$CLAYER
  8
0
  9
$CELTYPE
  6
ByLayer
  9
$CECOLOR
 62
   256
  9
$CELTSCALE
 40
1.0
  9
$DISPSILH
 70
     0
  9
$DIMSCALE
 40
1.0
  9
$DIMASZ
 40
0.18
  9
$DIMEXO
 40
0.0625
  9
$DIMDLI
 40
0.38
  9
$DIMRND
 40
0.0
  9
$DIMDLE
 40
0.0
  9
$DIMEXE
 40
0.18
  9
$DIMTP
 40
0.0
  9
$DIMTM
 40
0.0
  9
$DIMTXT
 40
0.18
  9
$DIMCEN
 40
0.09
  9
$DIMTSZ
 40
0.0
  9
$DIMTOL
 70
     0
  9
$DIMLIM
 70
     0
  9
$DIMTIH
 70
     1
  9
$DIMTOH
 70
     1
  9
$DIMSE1
 70
     0
  9
$DIMSE2
 70
     0
  9
$DIMTAD
 70
     0
  9
$DIMZIN
 70
     0
  9
$DIMBLK
  1

  9
$DIMASO
 70
     1
  9
$DIMSHO
 70
     1
  9
$DIMPOST
  1

  9
$DIMAPOST
  1

  9
$DIMALT
 70
     0
  9
$DIMALTD
 70
     2
  9
$DIMALTF
 40
25.4
  9
$DIMLFAC
 40
1.0
  9
$DIMTOFL
 70
     0
  9
$DIMTVP
 40
0.0
  9
$DIMTIX
 70
     0
  9
$DIMSOXD
 70
     0
  9
$DIMSAH
 70
     0
  9
$DIMBLK1
  1

  9
$DIMBLK2
  1

  9
$DIMSTYLE
  2
Standard
  9
$DIMCLRD
 70
     0
  9
$DIMCLRE
 70
     0
  9
$DIMCLRT
 70
     0
  9
$DIMTFAC
 40
1.0
  9
$DIMGAP
 40
0.09
  9
$DIMJUST
 70
     0
  9
$DIMSD1
 70
     0
  9
$DIMSD2
 70
     0
  9
$DIMTOLJ
 70
     1
  9
$DIMTZIN
 70
     0
  9
$DIMALTZ
 70
     0
  9
$DIMALTTZ
 70
     0
  9
$DIMUPT
 70
     0
  9
$DIMDEC
 70
     4
  9
$DIMTDEC
 70
     4
  9
$DIMALTU
 70
     2
  9
$DIMALTTD
 70
     2
  9
$DIMTXSTY
  7
Standard
  9
$DIMAUNIT
 70
     0
  9
$DIMADEC
 70
     0
  9
$DIMALTRND
 40
0.0
  9
$DIMAZIN
 70
     0
  9
$DIMDSEP
 70
    46
  9
$DIMATFIT
 70
     3
  9
$DIMFRAC
 70
     0
  9
$DIMLDRBLK
  1

  9
$DIMLUNIT
 70
     2
  9
$DIMLWD
 70
    -2
  9
$DIMLWE
 70
    -2
  9
$DIMTMOVE
 70
     0
  9
$DIMFXL
 40
1.0
  9
$DIMFXLON
 70
     0
  9
$DIMJOGANG
 40
0.7853981633974483
  9
$DIMTFILL
 70
     0
  9
$DIMTFILLCLR
 70
     0
  9
$DIMARCSYM
 70
     0
  9
$DIMLTYPE
  6

  9
$DIMLTEX1
  6

  9
$DIMLTEX2
  6

  9
$DIMTXTDIRECTION
 70
     0
  9
$LUNITS
 70
     2
  9
$LUPREC
 70
     4
  9
$SKETCHINC
 40
0.1
  9
$FILLETRAD
 40
0.0
  9
$AUNITS
 70
     0
  9
$AUPREC
 70
     0
  9
$MENU
  1
.
  9
$ELEVATION
 40
0.0
  9
$PELEVATION
 40
0.0
  9
$THICKNESS
 40
0.0
  9
$LIMCHECK
 70
     0
  9
$CHAMFERA
 40
0.0
  9
$CHAMFERB
 40
0.0
  9
$CHAMFERC
 40
0.0
  9
$CHAMFERD
 40
0.0
  9
$SKPOLY
 70
     0
  9
$TDCREATE
 40
2459676.423819445
  9
$TDUCREATE
 40
2459676.048819445
  9
$TDUPDATE
 40
2459676.423819445
  9
$TDUUPDATE
 40
2459676.048819445
  9
$TDINDWG
 40
0.0000000000
  9
$TDUSRTIMER
 40
0.0000000000
  9
$USRTIMER
 70
     1
  9
$ANGBASE
 50
0.0
  9
$ANGDIR
 70
     0
  9
$PDMODE
 70
     0
  9
$PDSIZE
 40
0.0
  9
$PLINEWID
 40
0.0
  9
$SPLFRAME
 70
     0
  9
$SPLINETYPE
 70
     6
  9
$SPLINESEGS
 70
     8
  9
$HANDSEED
  5
149
  9
$SURFTAB1
 70
     6
  9
$SURFTAB2
 70
     6
  9
$SURFTYPE
 70
     6
  9
$SURFU
 70
     6
  9
$SURFV
 70
     6
  9
$UCSBASE
  2

  9
$UCSNAME
  2

  9
$UCSORG
 10
0.0
 20
0.0
 30
0.0
  9
$UCSXDIR
 10
1.0
 20
0.0
 30
0.0
  9
$UCSYDIR
 10
0.0
 20
1.0
 30
0.0
  9
$UCSORTHOREF
  2

  9
$UCSORTHOVIEW
 70
     0
  9
$UCSORGTOP
 10
0.0
 20
0.0
 30
0.0
  9
$UCSORGBOTTOM
 10
0.0
 20
0.0
 30
0.0
  9
$UCSORGLEFT
 10
0.0
 20
0.0
 30
0.0
  9
$UCSORGRIGHT
 10
0.0
 20
0.0
 30
0.0
  9
$UCSORGFRONT
 10
0.0
 20
0.0
 30
0.0
  9
$UCSORGBACK
 10
0.0
 20
0.0
 30
0.0
  9
$PUCSBASE
  2

  9
$PUCSNAME
  2

  9
$PUCSORG
 10
0.0
 20
0.0
 30
0.0
  9
$PUCSXDIR
 10
1.0
 20
0.0
 30
0.0
  9
$PUCSYDIR
 10
0.0
 20
1.0
 30
0.0
  9
$PUCSORTHOREF
  2

  9
$PUCSORTHOVIEW
 70
     0
  9
$PUCSORGTOP
 10
0.0
 20
0.0
 30
0.0
  9
$PUCSORGBOTTOM
 10
0.0
 20
0.0
 30
0.0
  9
$PUCSORGLEFT
 10
0.0
 20
0.0
 30
0.0
  9
$PUCSORGRIGHT
 10
0.0
 20
0.0
 30
0.0
  9
$PUCSORGFRONT
 10
0.0
 20
0.0
 30
0.0
  9
$PUCSORGBACK
 10
0.0
 20
0.0
 30
0.0
  9
$USERI1
 70
     0
  9
$USERI2
 70
     0
  9
$USERI3
 70
     0
  9
$USERI4
 70
     0
  9
$USERI5
 70
     0
  9
$USERR1
 40
0.0
  9
$USERR2
 40
0.0
  9
$USERR3
 40
0.0
  9
$USERR4
 40
0.0
  9
$USERR5
 40
0.0
  9
$WORLDVIEW
 70
     1
  9
$SHADEDGE
 70
     3
  9
$SHADEDIF
 70
    70
  9
$TILEMODE
 70
     1
  9
$MAXACTVP
 70
    64
  9
$PINSBASE
 10
0.0
 20
0.0
 30
0.0
  9
$PLIMCHECK
 70
     0
  9
$PEXTMIN
 10
1.000000000000000E+20
 20
1.000000000000000E+20
 30
1.000000000000000E+20
  9
$PEXTMAX
 10
-1.000000000000000E+20
 20
-1.000000000000000E+20
 30
-1.000000000000000E+20
  9
$PLIMMIN
 10
0.0
 20
0.0
  9
$PLIMMAX
 10
12.0
 20
9.0
  9
$UNITMODE
 70
     0
  9
$VISRETAIN
 70
     1
  9
$PLINEGEN
 70
     0
  9
$PSLTSCALE
 70
     1
  9
$TREEDEPTH
 70
  3020
  9
$CMLSTYLE
  2
Standard
  9
$CMLJUST
 70
     0
  9
$CMLSCALE
 40
1.0
  9
$PROXYGRAPHICS
 70
     1
  9
$MEASUREMENT
 70
     0
  9
$CELWEIGHT
370
    -1
  9
$ENDCAPS
280
     0
  9
$JOINSTYLE
280
     0
  9
$LWDISPLAY
290
     1
  9
$INSUNITS
 70
     4
  9
$HYPERLINKBASE
  1

  9
$STYLESHEET
  1

  9
$XEDIT
290
     1
  9
$CEPSNTYPE
380
     0
  9
$PSTYLEMODE
290
     1
  9
$FINGERPRINTGUID
  2
{9934B2BF-092E-824C-B4F9-E0A2F5F72117}
  9
$VERSIONGUID
  2
{1E41A31E-B01A-764E-81F7-8BFC8C121C24}
  9
$EXTNAMES
290
     1
  9
$PSVPSCALE
 40
0.0
  9
$OLESTARTUP
290
     0
  9
$SORTENTS
280
   127
  9
$INDEXCTL
280
     0
  9
$HIDETEXT
280
     1
  9
$XCLIPFRAME
280
     2
  9
$HALOGAP
280
     0
  9
$OBSCOLOR
 70
   257
  9
$OBSLTYPE
280
     0
  9
$INTERSECTIONDISPLAY
280
     0
  9
$INTERSECTIONCOLOR
 70
   257
  9
$DIMASSOC
280
     2
  9
$PROJECTNAME
  1

  9
$CAMERADISPLAY
290
     0
  9
$LENSLENGTH
 40
50.0
  9
$CAMERAHEIGHT
 40
0.0
  9
$STEPSPERSEC
 40
2.0
  9
$STEPSIZE
 40
6.0
  9
$3DDWFPREC
 40
2.0
  9
$PSOLWIDTH
 40
0.25
  9
$PSOLHEIGHT
 40
4.0
  9
$LOFTANG1
 40
1.570796326794896
  9
$LOFTANG2
 40
1.570796326794896
  9
$LOFTMAG1
 40
0.0
  9
$LOFTMAG2
 40
0.0
  9
$LOFTPARAM
 70
     7
  9
$LOFTNORMALS
280
     1
  9
$LATITUDE
 40
37.795
  9
$LONGITUDE
 40
-122.394
  9
$NORTHDIRECTION
 40
0.0
  9
$TIMEZONE
 70
 -8000
  9
$LIGHTGLYPHDISPLAY
280
     1
  9
$TILEMODELIGHTSYNCH
280
     1
  9
$CMATERIAL
347
11
  9
$SOLIDHIST
280
     0
  9
$SHOWHIST
280
     1
  9
$DWFFRAME
280
     2
  9
$DGNFRAME
280
     0
  9
$REALWORLDSCALE
290
     1
  9
$INTERFERECOLOR
 62
     1
  9
$INTERFEREOBJVS
345
33
  9
$INTERFEREVPVS
346
30
  9
$CSHADOW
280
     0
  9
$SHADOWPLANELOCATION
 40
0.0
  0
ENDSEC
  0
SECTION
  2
CLASSES
  0
CLASS
  1
ACDBDICTIONARYWDFLT
  2
AcDbDictionaryWithDefault
  3
ObjectDBX Classes
 90
        0
 91
        1
280
     0
281
     0
  0
CLASS
  1
MATERIAL
  2
AcDbMaterial
  3
ObjectDBX Classes
 90
     1153
 91
        3
280
     0
281
     0
  0
CLASS
  1
VISUALSTYLE
  2
AcDbVisualStyle
  3
ObjectDBX Classes
 90
     4095
 91
       24
280
     0
281
     0
  0
CLASS
  1
SCALE
  2
AcDbScale
  3
ObjectDBX Classes
 90
     1153
 91
       17
280
     0
281
     0
  0
CLASS
  1
TABLESTYLE
  2
AcDbTableStyle
  3
ObjectDBX Classes
 90
     4095
 91
        1
280
     0
281
     0
  0
CLASS
  1
MLEADERSTYLE
  2
AcDbMLeaderStyle
  3
ACDB_MLEADERSTYLE_CLASS
 90
     4095
 91
        1
280
     0
281
     0
  0
CLASS
  1
ACDBSECTIONVIEWSTYLE
  2
AcDbSectionViewStyle
  3
ObjectDBX Classes
 90
     1025
 91
        1
280
     0
281
     0
  0
CLASS
  1
ACDBDETAILVIEWSTYLE
  2
AcDbDetailViewStyle
  3
ObjectDBX Classes
 90
     1025
 91
        1
280
     0
281
     0
  0
CLASS
  1
DICTIONARYVAR
  2
AcDbDictionaryVar
  3
ObjectDBX Classes
 90
        0
 91
        5
280
     0
281
     0
  0
CLASS
  1
CELLSTYLEMAP
  2
AcDbCellStyleMap
  3
ObjectDBX Classes
 90
     1152
 91
        1
280
     0
281
     0
  0
ENDSEC
  0
SECTION
  2
TABLES
  0
TABLE
  2
VPORT
  5
8
330
0
100
AcDbSymbolTable
 70
     1
  0
VPORT
  5
57
330
8
100
AcDbSymbolTableRecord
100
AcDbViewportTableRecord
  2
*Active
 70
     0
 10
0.0
 20
0.0
 11
1.0
 21
1.0
 12
0.0
 22
0.0
 13
0.0
 23
0.0
 14
1.0
 24
1.0
 15
0.0
 25
0.0
 16
0.0
 26
0.0
 36
1.0
 17
104.9999999737534
 27
-148.4999999628701
 37
0.0
 40
302.939999924255
 41
0.7070707070707534
 42
50.0
 43
0.0
 44
0.0
 50
0.0
 51
0.0
 71
     0
 72
   100
 73
     1
 74
     0
 75
     1
 76
     0
 77
     0
 78
     0
281
     0
 65
     1
110
0.0
120
0.0
130
0.0
111
1.0
121
0.0
131
0.0
112
0.0
122
1.0
132
0.0
 79
     0
146
0.0
 60
     3
 61
     5
292
     1
282
     1
141
0.0
142
0.0
 63
   250
421
  3355443
  0
ENDTAB
  0
TABLE
  2
LTYPE
  5
5
330
0
100
AcDbSymbolTable
 70
     2
  0
LTYPE
  5
5B
330
5
100
AcDbSymbolTableRecord
100
AcDbLinetypeTableRecord
  2
ByBlock
 70
     0
  3

 72
    65
 73
     0
 40
0.0
  0
LTYPE
  5
5C
330
5
100
AcDbSymbolTableRecord
100
AcDbLinetypeTableRecord
  2
ByLayer
 70
     0
  3

 72
    65
 73
     0
 40
0.0
  0
LTYPE
  5
5D
330
5
100
AcDbSymbolTableRecord
100
AcDbLinetypeTableRecord
  2
Continuous
 70
     0
  3
Solid line
 72
    65
 73
     0
 40
0.0
  0
LTYPE
  5
7E
330
5
100
AcDbSymbolTableRecord
100
AcDbLinetypeTableRecord
  2
AI-Linetype-0
 70
     0
  3
Adobe Illustrator Linetype No. 0
 72
    65
 73
     2
 40
1.411111110758333
 49
0.7055555553791667
 74
     0
 49
-0.7055555553791667
 74
     0
  0
ENDTAB
  0
TABLE
  2
LAYER
  5
2
330
0
100
AcDbSymbolTable
 70
     2
  0
LAYER
  5
54
330
2
100
AcDbSymbolTableRecord
100
AcDbLayerTableRecord
  2
0
 70
     0
 62
     7
  6
Continuous
370
    -3
390
F
347
21
  0
LAYER
  5
78
330
2
100
AcDbSymbolTableRecord
100
AcDbLayerTableRecord
  2
レイヤー 1
 70
     0
 62
     7
  6
Continuous
370
     0
390
F
347
21
  0
ENDTAB
  0
TABLE
  2
STYLE
  5
3
330
0
100
AcDbSymbolTable
 70
     2
  0
STYLE
  5
55
330
3
100
AcDbSymbolTableRecord
100
AcDbTextStyleTableRecord
  2
Standard
 70
     0
 40
0.0
 41
1.0
 50
0.0
 71
     0
 42
0.2
  3
txt
  4

  0
STYLE
  5
5A
330
3
100
AcDbSymbolTableRecord
100
AcDbTextStyleTableRecord
  2
Annotative
 70
     0
 40
0.0
 41
1.0
 50
0.0
 71
     0
 42
0.2
  3
txt
  4

1001
AcadAnnotative
1000
AnnotativeData
1002
{
1070
     1
1070
     1
1002
}
  0
ENDTAB
  0
TABLE
  2
VIEW
  5
6
330
0
100
AcDbSymbolTable
 70
     0
  0
ENDTAB
  0
TABLE
  2
UCS
  5
7
330
0
100
AcDbSymbolTable
 70
     0
  0
ENDTAB
  0
TABLE
  2
APPID
  5
9
330
0
100
AcDbSymbolTable
 70
     2
  0
APPID
  5
56
330
9
100
AcDbSymbolTableRecord
100
AcDbRegAppTableRecord
  2
ACAD
 70
     0
  0
APPID
  5
5E
330
9
100
AcDbSymbolTableRecord
100
AcDbRegAppTableRecord
  2
AcadAnnotative
 70
     0
  0
ENDTAB
  0
TABLE
  2
DIMSTYLE
  5
A
330
0
100
AcDbSymbolTable
 70
     2
100
AcDbDimStyleTable
 71
     0
  0
DIMSTYLE
105
58
330
A
100
AcDbSymbolTableRecord
100
AcDbDimStyleTableRecord
  2
Standard
 70
     0
340
55
  0
DIMSTYLE
105
59
330
A
100
AcDbSymbolTableRecord
100
AcDbDimStyleTableRecord
  2
Annotative
 70
     0
340
55
1001
AcadAnnotative
1000
AnnotativeData
1002
{
1070
     1
1070
     1
1002
}
  0
ENDTAB
  0
TABLE
  2
BLOCK_RECORD
  5
1
330
0
100
AcDbSymbolTable
 70
    16
  0
BLOCK_RECORD
  5
70
330
1
100
AcDbSymbolTableRecord
100
AcDbBlockTableRecord
  2
*Model_Space
340
73
 70
     0
280
     1
281
     0
  0
BLOCK_RECORD
  5
6C
330
1
100
AcDbSymbolTableRecord
100
AcDbBlockTableRecord
  2
*Paper_Space
340
6F
 70
     0
280
     1
281
     0
  0
BLOCK_RECORD
  5
74
330
1
100
AcDbSymbolTableRecord
100
AcDbBlockTableRecord
  2
*Paper_Space0
340
77
 70
     0
280
     1
281
     0
  0
BLOCK_RECORD
  5
79
330
1
100
AcDbSymbolTableRecord
100
AcDbBlockTableRecord
  2
Block_0
340
0
102
{BLKREFS
331
7A
102
}
 70
     0
280
     1
281
     0
  0
BLOCK_RECORD
  5
7F
330
1
100
AcDbSymbolTableRecord
100
AcDbBlockTableRecord
  2
Block_1
340
0
102
{BLKREFS
331
80
102
}
 70
     0
280
     1
281
     0
  0
BLOCK_RECORD
  5
86
330
1
100
AcDbSymbolTableRecord
100
AcDbBlockTableRecord
  2
Block_2
340
0
102
{BLKREFS
331
87
102
}
 70
     0
280
     1
281
     0
  0
BLOCK_RECORD
  5
8A
330
1
100
AcDbSymbolTableRecord
100
AcDbBlockTableRecord
  2
Block_3
340
0
102
{BLKREFS
331
8B
102
}
 70
     0
280
     1
281
     0
  0
BLOCK_RECORD
  5
A1
330
1
100
AcDbSymbolTableRecord
100
AcDbBlockTableRecord
  2
Block_4
340
0
102
{BLKREFS
331
A2
102
}
 70
     0
280
     1
281
     0
  0
BLOCK_RECORD
  5
B7
330
1
100
AcDbSymbolTableRecord
100
AcDbBlockTableRecord
  2
Block_5
340
0
102
{BLKREFS
331
B8
102
}
 70
     0
280
     1
281
     0
  0
BLOCK_RECORD
  5
BB
330
1
100
AcDbSymbolTableRecord
100
AcDbBlockTableRecord
  2
Block_6
340
0
102
{BLKREFS
331
BC
102
}
 70
     0
280
     1
281
     0
  0
BLOCK_RECORD
  5
C7
330
1
100
AcDbSymbolTableRecord
100
AcDbBlockTableRecord
  2
Block_7
340
0
102
{BLKREFS
331
C8
102
}
 70
     0
280
     1
281
     0
  0
BLOCK_RECORD
  5
CB
330
1
100
AcDbSymbolTableRecord
100
AcDbBlockTableRecord
  2
Block_8
340
0
102
{BLKREFS
331
CC
102
}
 70
     0
280
     1
281
     0
  0
BLOCK_RECORD
  5
D8
330
1
100
AcDbSymbolTableRecord
100
AcDbBlockTableRecord
  2
Block_9
340
0
102
{BLKREFS
331
D9
102
}
 70
     0
280
     1
281
     0
  0
BLOCK_RECORD
  5
DC
330
1
100
AcDbSymbolTableRecord
100
AcDbBlockTableRecord
  2
Block_10
340
0
102
{BLKREFS
331
DD
102
}
 70
     0
280
     1
281
     0
  0
BLOCK_RECORD
  5
E8
330
1
100
AcDbSymbolTableRecord
100
AcDbBlockTableRecord
  2
Block_11
340
0
102
{BLKREFS
331
E9
102
}
 70
     0
280
     1
281
     0
  0
BLOCK_RECORD
  5
EC
330
1
100
AcDbSymbolTableRecord
100
AcDbBlockTableRecord
  2
Block_12
340
0
102
{BLKREFS
331
ED
102
}
 70
     0
280
     1
281
     0
  0
BLOCK_RECORD
  5
FA
330
1
100
AcDbSymbolTableRecord
100
AcDbBlockTableRecord
  2
Block_13
340
0
102
{BLKREFS
331
FB
102
}
 70
     0
280
     1
281
     0
  0
BLOCK_RECORD
  5
FE
330
1
100
AcDbSymbolTableRecord
100
AcDbBlockTableRecord
  2
Block_14
340
0
102
{BLKREFS
331
FF
102
}
 70
     0
280
     1
281
     0
  0
ENDTAB
  0
ENDSEC
  0
SECTION
  2
BLOCKS
  0
BLOCK
  5
71
330
70
100
AcDbEntity
  8
0
100
AcDbBlockBegin
  2
*Model_Space
 70
     0
 10
0.0
 20
0.0
 30
0.0
  3
*Model_Space
  1

  0
ENDBLK
  5
72
330
70
100
AcDbEntity
  8
0
100
AcDbBlockEnd
  0
BLOCK
  5
6D
330
6C
100
AcDbEntity
 67
     1
  8
0
100
AcDbBlockBegin
  2
*Paper_Space
 70
     0
 10
0.0
 20
0.0
 30
0.0
  3
*Paper_Space
  1

  0
ENDBLK
  5
6E
330
6C
100
AcDbEntity
 67
     1
  8
0
100
AcDbBlockEnd
  0
BLOCK
  5
75
330
74
100
AcDbEntity
 67
     1
  8
0
100
AcDbBlockBegin
  2
*Paper_Space0
 70
     0
 10
0.0
 20
0.0
 30
0.0
  3
*Paper_Space0
  1

  0
ENDBLK
  5
76
330
74
100
AcDbEntity
 67
     1
  8
0
100
AcDbBlockEnd
  0
BLOCK
  5
7B
330
79
100
AcDbEntity
  8
0
100
AcDbBlockBegin
  2
Block_0
 70
     0
 10
0.0
 20
0.0
 30
0.0
  3
Block_0
  1

  0
LINE
  5
7D
330
79
100
AcDbEntity
  8
レイヤー 1
  6
AI-Linetype-0
 62
   154
420
    23468
370
    25
100
AcDbLine
 10
107.3391185794243
 20
-152.4898747074276
 30
0.0
 11
117.3849729552342
 21
-152.4898747074276
 31
0.0
  0
INSERT
  5
80
330
79
100
AcDbEntity
  8
レイヤー 1
100
AcDbBlockReference
  2
Block_1
 10
0.0
 20
0.0
 30
0.0
  0
INSERT
  5
87
330
79
100
AcDbEntity
  8
レイヤー 1
100
AcDbBlockReference
  2
Block_2
 10
0.0
 20
0.0
 30
0.0
  0
ENDBLK
  5
7C
330
79
100
AcDbEntity
  8
0
100
AcDbBlockEnd
  0
BLOCK
  5
81
330
7F
100
AcDbEntity
  8
0
100
AcDbBlockBegin
  2
Block_1
 70
     0
 10
0.0
 20
0.0
 30
0.0
  3
Block_1
  1

  0
LINE
  5
83
330
7F
100
AcDbEntity
  8
レイヤー 1
 62
    18
420
        0
370
     9
100
AcDbLine
 10
112.1460961297396
 20
-152.2837970439002
 30
0.0
 11
111.8792512718793
 21
-151.3200248106291
 31
0.0
  0
LINE
  5
84
330
7F
100
AcDbEntity
  8
レイヤー 1
 62
    18
420
        0
370
     9
100
AcDbLine
 10
112.1460961297396
 20
-152.2837970439002
 30
0.0
 11
112.1116619223626
 21
-150.6698364810955
 31
0.0
  0
LINE
  5
85
330
7F
100
AcDbEntity
  8
レイヤー 1
 62
    18
420
        0
370
     9
100
AcDbLine
 10
112.1460961297396
 20
-152.2837970439002
 30
0.0
 11
112.3969442072456
 21
-151.3156165885127
 31
0.0
  0
ENDBLK
  5
82
330
7F
100
AcDbEntity
  8
0
100
AcDbBlockEnd
  0
BLOCK
  5
88
330
86
100
AcDbEntity
  8
0
100
AcDbBlockBegin
  2
Block_2
 70
     0
 10
0.0
 20
0.0
 30
0.0
  3
Block_2
  1

  0
INSERT
  5
8B
330
86
100
AcDbEntity
  8
レイヤー 1
100
AcDbBlockReference
  2
Block_3
 10
0.0
 20
0.0
 30
0.0
  0
ENDBLK
  5
89
330
86
100
AcDbEntity
  8
0
100
AcDbBlockEnd
  0
BLOCK
  5
8C
330
8A
100
AcDbEntity
  8
0
100
AcDbBlockBegin
  2
Block_3
 70
     0
 10
0.0
 20
0.0
 30
0.0
  3
Block_3
  1

  0
SPLINE
  5
8E
330
8A
100
AcDbEntity
  8
レイヤー 1
100
AcDbSpline
210
0.0
220
0.0
230
1.0
 70
     9
 71
     3
 72
    17
 73
    13
 74
     0
 42
0.0000000001
 43
0.0000000001
 40
0.0
 40
0.0
 40
0.0
 40
0.0
 40
1.0
 40
1.0
 40
1.0
 40
2.0
 40
2.0
 40
2.0
 40
3.0
 40
3.0
 40
3.0
 40
4.0
 40
4.0
 40
4.0
 40
4.0
 10
108.1601507976127
 20
-149.6036159565227
 30
0.0
 10
108.1429253201865
 20
-149.6328992681473
 30
0.0
 10
108.0922824165533
 20
-149.7262613557976
 30
0.0
 10
108.081602620549
 20
-149.7452093809665
 30
0.0
 10
108.2721164008833
 20
-149.8044650233128
 30
0.0
 10
108.2931314833434
 20
-149.8106661951862
 30
0.0
 10
108.3651339789851
 20
-149.8382269590682
 30
0.0
 10
108.4202555067491
 20
-149.7514105528399
 30
0.0
 10
108.4433376465003
 20
-149.6773409999071
 30
0.0
 10
108.4581515570868
 20
-149.6036159565227
 30
0.0
 10
108.4581515570868
 20
-149.6036159565227
 30
0.0
 10
108.1601507976127
 20
-149.6036159565227
 30
0.0
 10
108.1601507976127
 20
-149.6036159565227
 30
0.0
  0
SPLINE
  5
8F
330
8A
100
AcDbEntity
  8
レイヤー 1
100
AcDbSpline
210
0.0
220
0.0
230
1.0
 70
    11
 71
     3
 72
    20
 73
    16
 74
     0
 42
0.0000000001
 43
0.0000000001
 40
0.0
 40
0.0
 40
0.0
 40
0.0
 40
1.0
 40
1.0
 40
1.0
 40
2.0
 40
2.0
 40
2.0
 40
3.0
 40
3.0
 40
3.0
 40
4.0
 40
4.0
 40
4.0
 40
5.0
 40
5.0
 40
5.0
 40
5.0
 10
108.0964165311356
 20
-148.7530218812145
 30
0.0
 10
108.0964165311356
 20
-148.7530218812145
 30
0.0
 10
108.0647216526713
 20
-148.7530218812145
 30
0.0
 10
108.0647216526713
 20
-148.7530218812145
 30
0.0
 10
108.1112304417222
 20
-148.852412885964
 30
0.0
 10
108.1429253201865
 20
-148.9328558655446
 30
0.0
 10
108.1770317654904
 20
-149.0596353794017
 30
0.0
 10
108.1770317654904
 20
-149.0596353794017
 30
0.0
 10
108.384082004154
 20
-149.0596353794017
 30
0.0
 10
108.384082004154
 20
-149.0596353794017
 30
0.0
 10
108.4161213921668
 20
-148.9666178013
 30
0.0
 10
108.439203531918
 20
-148.8822129619114
 30
0.0
 10
108.4626301812177
 20
-148.7530218812145
 30
0.0
 10
108.4626301812177
 20
-148.7530218812145
 30
0.0
 10
108.0964165311356
 20
-148.7530218812145
 30
0.0
 10
108.0964165311356
 20
-148.7530218812145
 30
0.0
  0
SPLINE
  5
90
330
8A
100
AcDbEntity
  8
レイヤー 1
100
AcDbSpline
210
0.0
220
0.0
230
1.0
 70
     9
 71
     3
 72
   242
 73
   238
 74
     0
 42
0.0000000001
 43
0.0000000001
 40
0.0
 40
0.0
 40
0.0
 40
0.0
 40
1.0
 40
1.0
 40
1.0
 40
2.0
 40
2.0
 40
2.0
 40
3.0
 40
3.0
 40
3.0
 40
4.0
 40
4.0
 40
4.0
 40
5.0
 40
5.0
 40
5.0
 40
6.0
 40
6.0
 40
6.0
 40
7.0
 40
7.0
 40
7.0
 40
8.0
 40
8.0
 40
8.0
 40
9.0
 40
9.0
 40
9.0
 40
10.0
 40
10.0
 40
10.0
 40
11.0
 40
11.0
 40
11.0
 40
12.0
 40
12.0
 40
12.0
 40
13.0
 40
13.0
 40
13.0
 40
14.0
 40
14.0
 40
14.0
 40
15.0
 40
15.0
 40
15.0
 40
16.0
 40
16.0
 40
16.0
 40
17.0
 40
17.0
 40
17.0
 40
18.0
 40
18.0
 40
18.0
 40
19.0
 40
19.0
 40
19.0
 40
20.0
 40
20.0
 40
20.0
 40
21.0
 40
21.0
 40
21.0
 40
22.0
 40
22.0
 40
22.0
 40
23.0
 40
23.0
 40
23.0
 40
24.0
 40
24.0
 40
24.0
 40
25.0
 40
25.0
 40
25.0
 40
26.0
 40
26.0
 40
26.0
 40
27.0
 40
27.0
 40
27.0
 40
28.0
 40
28.0
 40
28.0
 40
29.0
 40
29.0
 40
29.0
 40
30.0
 40
30.0
 40
30.0
 40
31.0
 40
31.0
 40
31.0
 40
32.0
 40
32.0
 40
32.0
 40
33.0
 40
33.0
 40
33.0
 40
34.0
 40
34.0
 40
34.0
 40
35.0
 40
35.0
 40
35.0
 40
36.0
 40
36.0
 40
36.0
 40
37.0
 40
37.0
 40
37.0
 40
38.0
 40
38.0
 40
38.0
 40
39.0
 40
39.0
 40
39.0
 40
40.0
 40
40.0
 40
40.0
 40
41.0
 40
41.0
 40
41.0
 40
42.0
 40
42.0
 40
42.0
 40
43.0
 40
43.0
 40
43.0
 40
44.0
 40
44.0
 40
44.0
 40
45.0
 40
45.0
 40
45.0
 40
46.0
 40
46.0
 40
46.0
 40
47.0
 40
47.0
 40
47.0
 40
48.0
 40
48.0
 40
48.0
 40
49.0
 40
49.0
 40
49.0
 40
50.0
 40
50.0
 40
50.0
 40
51.0
 40
51.0
 40
51.0
 40
52.0
 40
52.0
 40
52.0
 40
53.0
 40
53.0
 40
53.0
 40
54.0
 40
54.0
 40
54.0
 40
55.0
 40
55.0
 40
55.0
 40
56.0
 40
56.0
 40
56.0
 40
57.0
 40
57.0
 40
57.0
 40
58.0
 40
58.0
 40
58.0
 40
59.0
 40
59.0
 40
59.0
 40
60.0
 40
60.0
 40
60.0
 40
61.0
 40
61.0
 40
61.0
 40
62.0
 40
62.0
 40
62.0
 40
63.0
 40
63.0
 40
63.0
 40
64.0
 40
64.0
 40
64.0
 40
65.0
 40
65.0
 40
65.0
 40
66.0
 40
66.0
 40
66.0
 40
67.0
 40
67.0
 40
67.0
 40
68.0
 40
68.0
 40
68.0
 40
69.0
 40
69.0
 40
69.0
 40
70.0
 40
70.0
 40
70.0
 40
71.0
 40
71.0
 40
71.0
 40
72.0
 40
72.0
 40
72.0
 40
73.0
 40
73.0
 40
73.0
 40
74.0
 40
74.0
 40
74.0
 40
75.0
 40
75.0
 40
75.0
 40
76.0
 40
76.0
 40
76.0
 40
77.0
 40
77.0
 40
77.0
 40
78.0
 40
78.0
 40
78.0
 40
79.0
 40
79.0
 40
79.0
 40
79.0
 10
108.7248019476452
 20
-149.2184542812718
 30
0.0
 10
108.7248019476452
 20
-149.2184542812718
 30
0.0
 10
108.4708984103823
 20
-149.2184542812718
 30
0.0
 10
108.4708984103823
 20
-149.2184542812718
 30
0.0
 10
108.4708984103823
 20
-149.2184542812718
 30
0.0
 10
108.1939127333682
 20
-149.2184542812718
 30
0.0
 10
108.1939127333682
 20
-149.2184542812718
 30
0.0
 10
108.1939127333682
 20
-149.2184542812718
 30
0.0
 10
108.3206922472254
 20
-149.2608289557403
 30
0.0
 10
108.3206922472254
 20
-149.2608289557403
 30
0.0
 10
108.3313720432296
 20
-149.2649630703226
 30
0.0
 10
108.3441188965251
 20
-149.2711642421961
 30
0.0
 10
108.3441188965251
 20
-149.2839110954915
 30
0.0
 10
108.3441188965251
 20
-149.3052706875
 30
0.0
 10
108.3124240180608
 20
-149.3114718593735
 30
0.0
 10
108.2910644260522
 20
-149.3156059739558
 30
0.0
 10
108.2807291395965
 20
-149.3390326232555
 30
0.0
 10
108.2511013184233
 20
-149.4044894374752
 30
0.0
 10
108.2318087837059
 20
-149.448931169235
 30
0.0
 10
108.2318087837059
 20
-149.448931169235
 30
0.0
 10
108.5025932888466
 20
-149.448931169235
 30
0.0
 10
108.5025932888466
 20
-149.448931169235
 30
0.0
 10
108.5935438096572
 20
-149.448931169235
 30
0.0
 10
108.7902587618649
 20
-149.4447970546527
 30
0.0
 10
108.9321966958572
 20
-149.4361843159396
 30
0.0
 10
108.9321966958572
 20
-149.4361843159396
 30
0.0
 10
108.9321966958572
 20
-149.6139512429784
 30
0.0
 10
108.9321966958572
 20
-149.6139512429784
 30
0.0
 10
108.8495144042112
 20
-149.6098171283962
 30
0.0
 10
108.8284993217512
 20
-149.6098171283962
 30
0.0
 10
108.6486653374212
 20
-149.6056830138138
 30
0.0
 10
108.6169704589568
 20
-149.760023291553
 30
0.0
 10
108.5725287271971
 20
-149.8402940163593
 30
0.0
 10
108.5280869954374
 20
-149.91022945471
 30
0.0
 10
108.6486653374212
 20
-149.9694850970562
 30
0.0
 10
108.7544297688183
 20
-150.0370089685671
 30
0.0
 10
108.8581271429243
 20
-150.1196912602131
 30
0.0
 10
108.8581271429243
 20
-150.1196912602131
 30
0.0
 10
108.7396158582317
 20
-150.2867783912478
 30
0.0
 10
108.7396158582317
 20
-150.2867783912478
 30
0.0
 10
108.7165337184806
 20
-150.2678303660788
 30
0.0
 10
108.7037868651851
 20
-150.2592176273657
 30
0.0
 10
108.591476752366
 20
-150.1744682784286
 30
0.0
 10
108.542900906024
 20
-150.1365722280908
 30
0.0
 10
108.4836452636777
 20
-150.1007432350442
 30
0.0
 10
108.4033745388714
 20
-150.0563015032845
 30
0.0
 10
108.191845676077
 20
-150.242336659488
 30
0.0
 10
107.9865179851561
 20
-150.2657633087877
 30
0.0
 10
107.6967854548466
 20
-150.2953911299609
 30
0.0
 10
107.6967854548466
 20
-150.2953911299609
 30
0.0
 10
107.5930880807406
 20
-150.1155571456308
 30
0.0
 10
107.5930880807406
 20
-150.1155571456308
 30
0.0
 10
107.9103813749321
 20
-150.1110785215
 30
0.0
 10
108.0860812446799
 20
-150.0859293244577
 30
0.0
 10
108.2383544651279
 20
-149.9756862689297
 30
0.0
 10
108.1198431804353
 20
-149.9250433652965
 30
0.0
 10
108.0309597169158
 20
-149.8974826014145
 30
0.0
 10
107.9951307238693
 20
-149.8847357481191
 30
0.0
 10
107.9758381891519
 20
-149.9122965120011
 30
0.0
 10
107.9610242785653
 20
-149.9312445371699
 30
0.0
 10
107.9334635146833
 20
-149.9653509824739
 30
0.0
 10
107.9334635146833
 20
-149.9653509824739
 30
0.0
 10
107.7367485624755
 20
-149.8826686908279
 30
0.0
 10
107.7367485624755
 20
-149.8826686908279
 30
0.0
 10
107.8194308541215
 20
-149.8023979660216
 30
0.0
 10
107.880753553759
 20
-149.7069688210802
 30
0.0
 10
107.9379421388141
 20
-149.6056830138138
 30
0.0
 10
107.7474283584798
 20
-149.6098171283962
 30
0.0
 10
107.7264132760198
 20
-149.6098171283962
 30
0.0
 10
107.6437309843738
 20
-149.6139512429784
 30
0.0
 10
107.6437309843738
 20
-149.6139512429784
 30
0.0
 10
107.6437309843738
 20
-149.4361843159396
 30
0.0
 10
107.6437309843738
 20
-149.4361843159396
 30
0.0
 10
107.7832573515264
 20
-149.4427299973615
 30
0.0
 10
107.9927191570296
 20
-149.4468641119438
 30
0.0
 10
108.0182128636204
 20
-149.4468641119438
 30
0.0
 10
108.0350938314982
 20
-149.4131021761884
 30
0.0
 10
108.0902153592621
 20
-149.2925238342046
 30
0.0
 10
108.109163384431
 20
-149.2184542812718
 30
0.0
 10
108.0902153592621
 20
-149.2184542812718
 30
0.0
 10
107.9124484322233
 20
-149.2246554531452
 30
0.0
 10
107.7178005373067
 20
-149.2374023064406
 30
0.0
 10
107.7178005373067
 20
-149.2374023064406
 30
0.0
 10
107.7178005373067
 20
-149.3707275017198
 30
0.0
 10
107.7178005373067
 20
-149.3707275017198
 30
0.0
 10
107.6692246909646
 20
-149.3962212083106
 30
0.0
 10
107.6099690486183
 20
-149.427916086775
 30
0.0
 10
107.4766438533392
 20
-149.4933729009947
 30
0.0
 10
107.4766438533392
 20
-149.4933729009947
 30
0.0
 10
107.4766438533392
 20
-149.6394449495693
 30
0.0
 10
107.4766438533392
 20
-149.6394449495693
 30
0.0
 10
107.4766438533392
 20
-149.6394449495693
 30
0.0
 10
107.4766438533392
 20
-150.1069444069177
 30
0.0
 10
107.4766438533392
 20
-150.1069444069177
 30
0.0
 10
107.4766438533392
 20
-150.2337239207749
 30
0.0
 10
107.4408148602925
 20
-150.2929795631212
 30
0.0
 10
107.1572835018565
 20
-150.2847113339566
 30
0.0
 10
107.1572835018565
 20
-150.2847113339566
 30
0.0
 10
107.0535861277505
 20
-150.0773165857445
 30
0.0
 10
107.0535861277505
 20
-150.0773165857445
 30
0.0
 10
107.1169758846791
 20
-150.09006343904
 30
0.0
 10
107.1655517310211
 20
-150.0941975536222
 30
0.0
 10
107.2058593481985
 20
-150.0941975536222
 30
0.0
 10
107.2819959584225
 20
-150.0941975536222
 30
0.0
 10
107.2926757544268
 20
-150.0711154138711
 30
0.0
 10
107.2926757544268
 20
-150.0053140901028
 30
0.0
 10
107.2926757544268
 20
-150.0053140901028
 30
0.0
 10
107.2926757544268
 20
-149.5760551926407
 30
0.0
 10
107.2926757544268
 20
-149.5760551926407
 30
0.0
 10
107.1951795521942
 20
-149.6160183002696
 30
0.0
 10
107.1782985843165
 20
-149.6225639816916
 30
0.0
 10
107.1317897952656
 20
-149.6415120068604
 30
0.0
 10
107.1276556806834
 20
-149.6625270893205
 30
0.0
 10
107.123521566101
 20
-149.6921549104936
 30
0.0
 10
107.1042290313837
 20
-149.6921549104936
 30
0.0
 10
107.0959608022191
 20
-149.6921549104936
 30
0.0
 10
107.0852810062148
 20
-149.6880207959113
 30
0.0
 10
107.0790798343413
 20
-149.6649386561601
 30
0.0
 10
107.0790798343413
 20
-149.6649386561601
 30
0.0
 10
107.0260253638685
 20
-149.4723578185347
 30
0.0
 10
107.0260253638685
 20
-149.4723578185347
 30
0.0
 10
107.1720974124431
 20
-149.4258490294838
 30
0.0
 10
107.2375542266628
 20
-149.4024223801841
 30
0.0
 10
107.2926757544268
 20
-149.3814072977241
 30
0.0
 10
107.2926757544268
 20
-149.3814072977241
 30
0.0
 10
107.2926757544268
 20
-148.9686848585911
 30
0.0
 10
107.2926757544268
 20
-148.9686848585911
 30
0.0
 10
107.2926757544268
 20
-148.9686848585911
 30
0.0
 10
107.239621283954
 20
-148.9686848585911
 30
0.0
 10
107.239621283954
 20
-148.9686848585911
 30
0.0
 10
107.239621283954
 20
-148.9686848585911
 30
0.0
 10
107.1614176164388
 20
-148.9686848585911
 30
0.0
 10
107.1614176164388
 20
-148.9686848585911
 30
0.0
 10
107.0938937449279
 20
-148.9686848585911
 30
0.0
 10
107.0852810062148
 20
-148.9686848585911
 30
0.0
 10
107.0494520131682
 20
-148.9752305400131
 30
0.0
 10
107.0494520131682
 20
-148.9752305400131
 30
0.0
 10
107.0494520131682
 20
-148.7804103903222
 30
0.0
 10
107.0494520131682
 20
-148.7804103903222
 30
0.0
 10
107.0770127770502
 20
-148.7867838169699
 30
0.0
 10
107.0852810062148
 20
-148.7867838169699
 30
0.0
 10
107.1552164445654
 20
-148.7867838169699
 30
0.0
 10
107.1552164445654
 20
-148.7867838169699
 30
0.0
 10
107.2885416398445
 20
-148.7867838169699
 30
0.0
 10
107.2885416398445
 20
-148.7867838169699
 30
0.0
 10
107.2885416398445
 20
-148.7170206333936
 30
0.0
 10
107.2885416398445
 20
-148.6345105965219
 30
0.0
 10
107.2861300730048
 20
-148.6302042271653
 30
0.0
 10
107.2778618438402
 20
-148.4503702428353
 30
0.0
 10
107.2778618438402
 20
-148.4314222176664
 30
0.0
 10
107.2757947865491
 20
-148.3849134286156
 30
0.0
 10
107.2757947865491
 20
-148.3849134286156
 30
0.0
 10
107.4914577639257
 20
-148.3933539125544
 30
0.0
 10
107.4914577639257
 20
-148.3933539125544
 30
0.0
 10
107.50213755993
 20
-148.3933539125544
 30
0.0
 10
107.52315264239
 20
-148.3954209698456
 30
0.0
 10
107.52315264239
 20
-148.4123019377233
 30
0.0
 10
107.52315264239
 20
-148.4314222176664
 30
0.0
 10
107.5083387318034
 20
-148.4419297588964
 30
0.0
 10
107.4831895347611
 20
-148.4610500388396
 30
0.0
 10
107.4831895347611
 20
-148.5116929424728
 30
0.0
 10
107.4766438533392
 20
-148.7402750279191
 30
0.0
 10
107.4787109106303
 20
-148.7867838169699
 30
0.0
 10
107.6079019913272
 20
-148.7867838169699
 30
0.0
 10
107.6206488446226
 20
-148.7867838169699
 30
0.0
 10
107.7178005373067
 20
-148.7783433330311
 30
0.0
 10
107.7178005373067
 20
-148.7783433330311
 30
0.0
 10
107.7178005373067
 20
-148.973163482722
 30
0.0
 10
107.7178005373067
 20
-148.973163482722
 30
0.0
 10
107.6799044869689
 20
-148.9707519158823
 30
0.0
 10
107.6120361059095
 20
-148.9666178013
 30
0.0
 10
107.4766438533392
 20
-148.9686848585911
 30
0.0
 10
107.4766438533392
 20
-148.9686848585911
 30
0.0
 10
107.4766438533392
 20
-149.3073377447912
 30
0.0
 10
107.4766438533392
 20
-149.3073377447912
 30
0.0
 10
107.5317653811032
 20
-149.2839110954915
 30
0.0
 10
107.5972221953229
 20
-149.2563503316095
 30
0.0
 10
107.6457980416649
 20
-149.2332681918583
 30
0.0
 10
107.6457980416649
 20
-149.2332681918583
 30
0.0
 10
107.6457980416649
 20
-149.0555012648195
 30
0.0
 10
107.6457980416649
 20
-149.0555012648195
 30
0.0
 10
107.7601752117752
 20
-149.0682481181149
 30
0.0
 10
107.8786864964678
 20
-149.0682481181149
 30
0.0
 10
107.9951307238693
 20
-149.0682481181149
 30
0.0
 10
107.9717040745695
 20
-148.973163482722
 30
0.0
 10
107.9441433106876
 20
-148.890481191076
 30
0.0
 10
107.880753553759
 20
-148.7571559957968
 30
0.0
 10
107.8363118219992
 20
-148.7592230530879
 30
0.0
 10
107.7539740399018
 20
-148.7635294224445
 30
0.0
 10
107.7157334800155
 20
-148.7655964797357
 30
0.0
 10
107.7157334800155
 20
-148.7655964797357
 30
0.0
 10
107.7157334800155
 20
-148.5857624954056
 30
0.0
 10
107.7157334800155
 20
-148.5857624954056
 30
0.0
 10
107.8404459365815
 20
-148.5942029793445
 30
0.0
 10
108.0140787490381
 20
-148.598509348701
 30
0.0
 10
108.0964165311356
 20
-148.598509348701
 30
0.0
 10
108.0964165311356
 20
-148.598509348701
 30
0.0
 10
108.1790988227816
 20
-148.598509348701
 30
0.0
 10
108.1790988227816
 20
-148.598509348701
 30
0.0
 10
108.1790988227816
 20
-148.4355563322487
 30
0.0
 10
108.1790988227816
 20
-148.4250487910187
 30
0.0
 10
108.1770317654904
 20
-148.370099518029
 30
0.0
 10
108.1770317654904
 20
-148.370099518029
 30
0.0
 10
108.4013074815802
 20
-148.3954209698456
 30
0.0
 10
108.4013074815802
 20
-148.3954209698456
 30
0.0
 10
108.4054415961625
 20
-148.3954209698456
 30
0.0
 10
108.4264566786225
 20
-148.3974880271367
 30
0.0
 10
108.4264566786225
 20
-148.4143689950144
 30
0.0
 10
108.4264566786225
 20
-148.429182905601
 30
0.0
 10
108.4161213921668
 20
-148.4377956443142
 30
0.0
 10
108.3885606282848
 20
-148.4526095549007
 30
0.0
 10
108.3820149468628
 20
-148.5180663691205
 30
0.0
 10
108.3799478895717
 20
-148.5392537063547
 30
0.0
 10
108.3799478895717
 20
-148.598509348701
 30
0.0
 10
108.3799478895717
 20
-148.598509348701
 30
0.0
 10
108.4750325249645
 20
-148.598509348701
 30
0.0
 10
108.4750325249645
 20
-148.598509348701
 30
0.0
 10
108.5577148166105
 20
-148.598509348701
 30
0.0
 10
108.7310031195186
 20
-148.5942029793445
 30
0.0
 10
108.8560600856332
 20
-148.5857624954056
 30
0.0
 10
108.8560600856332
 20
-148.5857624954056
 30
0.0
 10
108.8560600856332
 20
-148.7655964797357
 30
0.0
 10
108.8560600856332
 20
-148.7655964797357
 30
0.0
 10
108.82643226446
 20
-148.7635294224445
 30
0.0
 10
108.7079209797674
 20
-148.7592230530879
 30
0.0
 10
108.66761336259
 20
-148.7571559957968
 30
0.0
 10
108.6527994520035
 20
-148.8079711542042
 30
0.0
 10
108.619037516248
 20
-148.9201090122491
 30
0.0
 10
108.5535807020282
 20
-149.0596353794017
 30
0.0
 10
108.5956108669483
 20
-149.0596353794017
 30
0.0
 10
108.8729410535109
 20
-149.0406873542329
 30
0.0
 10
108.9342637531484
 20
-149.0386202969417
 30
0.0
 10
108.9342637531484
 20
-149.0386202969417
 30
0.0
 10
108.9342637531484
 20
-149.222588395854
 30
0.0
 10
108.9342637531484
 20
-149.222588395854
 30
0.0
 10
108.9046359319752
 20
-149.222588395854
 30
0.0
 10
108.8877549640975
 20
-149.2184542812718
 30
0.0
 10
108.7248019476452
 20
-149.2184542812718
 30
0.0
  0
HATCH
  5
91
330
8A
100
AcDbEntity
  8
レイヤー 1
 62
    18
420
        0
440
 33554687
100
AcDbHatch
 10
0.0
 20
0.0
 30
0.0
210
0.0
220
0.0
230
1.0
  2
SOLID
 70
     1
 71
     1
 91
        3
 92
        1
 93
        1
 72
     4
 94
        3
 73
     0
 74
     0
 95
       17
 96
       13
 40
0.0
 40
0.0
 40
0.0
 40
0.0
 40
1.0
 40
1.0
 40
1.0
 40
2.0
 40
2.0
 40
2.0
 40
3.0
 40
3.0
 40
3.0
 40
4.0
 40
4.0
 40
4.0
 40
4.0
 10
108.1601507976127
 20
-149.6036159565227
 10
108.1429253201865
 20
-149.6328992681473
 10
108.0922824165533
 20
-149.7262613557976
 10
108.081602620549
 20
-149.7452093809665
 10
108.2721164008833
 20
-149.8044650233128
 10
108.2931314833434
 20
-149.8106661951862
 10
108.3651339789851
 20
-149.8382269590682
 10
108.4202555067491
 20
-149.7514105528399
 10
108.4433376465003
 20
-149.6773409999071
 10
108.4581515570868
 20
-149.6036159565227
 10
108.4581515570868
 20
-149.6036159565227
 10
108.1601507976127
 20
-149.6036159565227
 10
108.1601507976127
 20
-149.6036159565227
 97
        0
 97
        1
330
8E
 92
        1
 93
        1
 72
     4
 94
        3
 73
     0
 74
     0
 95
       20
 96
       16
 40
0.0
 40
0.0
 40
0.0
 40
0.0
 40
1.0
 40
1.0
 40
1.0
 40
2.0
 40
2.0
 40
2.0
 40
3.0
 40
3.0
 40
3.0
 40
4.0
 40
4.0
 40
4.0
 40
5.0
 40
5.0
 40
5.0
 40
5.0
 10
108.0964165311356
 20
-148.7530218812145
 10
108.0964165311356
 20
-148.7530218812145
 10
108.0647216526713
 20
-148.7530218812145
 10
108.0647216526713
 20
-148.7530218812145
 10
108.1112304417222
 20
-148.852412885964
 10
108.1429253201865
 20
-148.9328558655446
 10
108.1770317654904
 20
-149.0596353794017
 10
108.1770317654904
 20
-149.0596353794017
 10
108.384082004154
 20
-149.0596353794017
 10
108.384082004154
 20
-149.0596353794017
 10
108.4161213921668
 20
-148.9666178013
 10
108.439203531918
 20
-148.8822129619114
 10
108.4626301812177
 20
-148.7530218812145
 10
108.4626301812177
 20
-148.7530218812145
 10
108.0964165311356
 20
-148.7530218812145
 10
108.0964165311356
 20
-148.7530218812145
 97
        0
 97
        1
330
8F
 92
        1
 93
        1
 72
     4
 94
        3
 73
     0
 74
     0
 95
      242
 96
      238
 40
0.0
 40
0.0
 40
0.0
 40
0.0
 40
1.0
 40
1.0
 40
1.0
 40
2.0
 40
2.0
 40
2.0
 40
3.0
 40
3.0
 40
3.0
 40
4.0
 40
4.0
 40
4.0
 40
5.0
 40
5.0
 40
5.0
 40
6.0
 40
6.0
 40
6.0
 40
7.0
 40
7.0
 40
7.0
 40
8.0
 40
8.0
 40
8.0
 40
9.0
 40
9.0
 40
9.0
 40
10.0
 40
10.0
 40
10.0
 40
11.0
 40
11.0
 40
11.0
 40
12.0
 40
12.0
 40
12.0
 40
13.0
 40
13.0
 40
13.0
 40
14.0
 40
14.0
 40
14.0
 40
15.0
 40
15.0
 40
15.0
 40
16.0
 40
16.0
 40
16.0
 40
17.0
 40
17.0
 40
17.0
 40
18.0
 40
18.0
 40
18.0
 40
19.0
 40
19.0
 40
19.0
 40
20.0
 40
20.0
 40
20.0
 40
21.0
 40
21.0
 40
21.0
 40
22.0
 40
22.0
 40
22.0
 40
23.0
 40
23.0
 40
23.0
 40
24.0
 40
24.0
 40
24.0
 40
25.0
 40
25.0
 40
25.0
 40
26.0
 40
26.0
 40
26.0
 40
27.0
 40
27.0
 40
27.0
 40
28.0
 40
28.0
 40
28.0
 40
29.0
 40
29.0
 40
29.0
 40
30.0
 40
30.0
 40
30.0
 40
31.0
 40
31.0
 40
31.0
 40
32.0
 40
32.0
 40
32.0
 40
33.0
 40
33.0
 40
33.0
 40
34.0
 40
34.0
 40
34.0
 40
35.0
 40
35.0
 40
35.0
 40
36.0
 40
36.0
 40
36.0
 40
37.0
 40
37.0
 40
37.0
 40
38.0
 40
38.0
 40
38.0
 40
39.0
 40
39.0
 40
39.0
 40
40.0
 40
40.0
 40
40.0
 40
41.0
 40
41.0
 40
41.0
 40
42.0
 40
42.0
 40
42.0
 40
43.0
 40
43.0
 40
43.0
 40
44.0
 40
44.0
 40
44.0
 40
45.0
 40
45.0
 40
45.0
 40
46.0
 40
46.0
 40
46.0
 40
47.0
 40
47.0
 40
47.0
 40
48.0
 40
48.0
 40
48.0
 40
49.0
 40
49.0
 40
49.0
 40
50.0
 40
50.0
 40
50.0
 40
51.0
 40
51.0
 40
51.0
 40
52.0
 40
52.0
 40
52.0
 40
53.0
 40
53.0
 40
53.0
 40
54.0
 40
54.0
 40
54.0
 40
55.0
 40
55.0
 40
55.0
 40
56.0
 40
56.0
 40
56.0
 40
57.0
 40
57.0
 40
57.0
 40
58.0
 40
58.0
 40
58.0
 40
59.0
 40
59.0
 40
59.0
 40
60.0
 40
60.0
 40
60.0
 40
61.0
 40
61.0
 40
61.0
 40
62.0
 40
62.0
 40
62.0
 40
63.0
 40
63.0
 40
63.0
 40
64.0
 40
64.0
 40
64.0
 40
65.0
 40
65.0
 40
65.0
 40
66.0
 40
66.0
 40
66.0
 40
67.0
 40
67.0
 40
67.0
 40
68.0
 40
68.0
 40
68.0
 40
69.0
 40
69.0
 40
69.0
 40
70.0
 40
70.0
 40
70.0
 40
71.0
 40
71.0
 40
71.0
 40
72.0
 40
72.0
 40
72.0
 40
73.0
 40
73.0
 40
73.0
 40
74.0
 40
74.0
 40
74.0
 40
75.0
 40
75.0
 40
75.0
 40
76.0
 40
76.0
 40
76.0
 40
77.0
 40
77.0
 40
77.0
 40
78.0
 40
78.0
 40
78.0
 40
79.0
 40
79.0
 40
79.0
 40
79.0
 10
108.7248019476452
 20
-149.2184542812718
 10
108.7248019476452
 20
-149.2184542812718
 10
108.4708984103823
 20
-149.2184542812718
 10
108.4708984103823
 20
-149.2184542812718
 10
108.4708984103823
 20
-149.2184542812718
 10
108.1939127333682
 20
-149.2184542812718
 10
108.1939127333682
 20
-149.2184542812718
 10
108.1939127333682
 20
-149.2184542812718
 10
108.3206922472254
 20
-149.2608289557403
 10
108.3206922472254
 20
-149.2608289557403
 10
108.3313720432296
 20
-149.2649630703226
 10
108.3441188965251
 20
-149.2711642421961
 10
108.3441188965251
 20
-149.2839110954915
 10
108.3441188965251
 20
-149.3052706875
 10
108.3124240180608
 20
-149.3114718593735
 10
108.2910644260522
 20
-149.3156059739558
 10
108.2807291395965
 20
-149.3390326232555
 10
108.2511013184233
 20
-149.4044894374752
 10
108.2318087837059
 20
-149.448931169235
 10
108.2318087837059
 20
-149.448931169235
 10
108.5025932888466
 20
-149.448931169235
 10
108.5025932888466
 20
-149.448931169235
 10
108.5935438096572
 20
-149.448931169235
 10
108.7902587618649
 20
-149.4447970546527
 10
108.9321966958572
 20
-149.4361843159396
 10
108.9321966958572
 20
-149.4361843159396
 10
108.9321966958572
 20
-149.6139512429784
 10
108.9321966958572
 20
-149.6139512429784
 10
108.8495144042112
 20
-149.6098171283962
 10
108.8284993217512
 20
-149.6098171283962
 10
108.6486653374212
 20
-149.6056830138138
 10
108.6169704589568
 20
-149.760023291553
 10
108.5725287271971
 20
-149.8402940163593
 10
108.5280869954374
 20
-149.91022945471
 10
108.6486653374212
 20
-149.9694850970562
 10
108.7544297688183
 20
-150.0370089685671
 10
108.8581271429243
 20
-150.1196912602131
 10
108.8581271429243
 20
-150.1196912602131
 10
108.7396158582317
 20
-150.2867783912478
 10
108.7396158582317
 20
-150.2867783912478
 10
108.7165337184806
 20
-150.2678303660788
 10
108.7037868651851
 20
-150.2592176273657
 10
108.591476752366
 20
-150.1744682784286
 10
108.542900906024
 20
-150.1365722280908
 10
108.4836452636777
 20
-150.1007432350442
 10
108.4033745388714
 20
-150.0563015032845
 10
108.191845676077
 20
-150.242336659488
 10
107.9865179851561
 20
-150.2657633087877
 10
107.6967854548466
 20
-150.2953911299609
 10
107.6967854548466
 20
-150.2953911299609
 10
107.5930880807406
 20
-150.1155571456308
 10
107.5930880807406
 20
-150.1155571456308
 10
107.9103813749321
 20
-150.1110785215
 10
108.0860812446799
 20
-150.0859293244577
 10
108.2383544651279
 20
-149.9756862689297
 10
108.1198431804353
 20
-149.9250433652965
 10
108.0309597169158
 20
-149.8974826014145
 10
107.9951307238693
 20
-149.8847357481191
 10
107.9758381891519
 20
-149.9122965120011
 10
107.9610242785653
 20
-149.9312445371699
 10
107.9334635146833
 20
-149.9653509824739
 10
107.9334635146833
 20
-149.9653509824739
 10
107.7367485624755
 20
-149.8826686908279
 10
107.7367485624755
 20
-149.8826686908279
 10
107.8194308541215
 20
-149.8023979660216
 10
107.880753553759
 20
-149.7069688210802
 10
107.9379421388141
 20
-149.6056830138138
 10
107.7474283584798
 20
-149.6098171283962
 10
107.7264132760198
 20
-149.6098171283962
 10
107.6437309843738
 20
-149.6139512429784
 10
107.6437309843738
 20
-149.6139512429784
 10
107.6437309843738
 20
-149.4361843159396
 10
107.6437309843738
 20
-149.4361843159396
 10
107.7832573515264
 20
-149.4427299973615
 10
107.9927191570296
 20
-149.4468641119438
 10
108.0182128636204
 20
-149.4468641119438
 10
108.0350938314982
 20
-149.4131021761884
 10
108.0902153592621
 20
-149.2925238342046
 10
108.109163384431
 20
-149.2184542812718
 10
108.0902153592621
 20
-149.2184542812718
 10
107.9124484322233
 20
-149.2246554531452
 10
107.7178005373067
 20
-149.2374023064406
 10
107.7178005373067
 20
-149.2374023064406
 10
107.7178005373067
 20
-149.3707275017198
 10
107.7178005373067
 20
-149.3707275017198
 10
107.6692246909646
 20
-149.3962212083106
 10
107.6099690486183
 20
-149.427916086775
 10
107.4766438533392
 20
-149.4933729009947
 10
107.4766438533392
 20
-149.4933729009947
 10
107.4766438533392
 20
-149.6394449495693
 10
107.4766438533392
 20
-149.6394449495693
 10
107.4766438533392
 20
-149.6394449495693
 10
107.4766438533392
 20
-150.1069444069177
 10
107.4766438533392
 20
-150.1069444069177
 10
107.4766438533392
 20
-150.2337239207749
 10
107.4408148602925
 20
-150.2929795631212
 10
107.1572835018565
 20
-150.2847113339566
 10
107.1572835018565
 20
-150.2847113339566
 10
107.0535861277505
 20
-150.0773165857445
 10
107.0535861277505
 20
-150.0773165857445
 10
107.1169758846791
 20
-150.09006343904
 10
107.1655517310211
 20
-150.0941975536222
 10
107.2058593481985
 20
-150.0941975536222
 10
107.2819959584225
 20
-150.0941975536222
 10
107.2926757544268
 20
-150.0711154138711
 10
107.2926757544268
 20
-150.0053140901028
 10
107.2926757544268
 20
-150.0053140901028
 10
107.2926757544268
 20
-149.5760551926407
 10
107.2926757544268
 20
-149.5760551926407
 10
107.1951795521942
 20
-149.6160183002696
 10
107.1782985843165
 20
-149.6225639816916
 10
107.1317897952656
 20
-149.6415120068604
 10
107.1276556806834
 20
-149.6625270893205
 10
107.123521566101
 20
-149.6921549104936
 10
107.1042290313837
 20
-149.6921549104936
 10
107.0959608022191
 20
-149.6921549104936
 10
107.0852810062148
 20
-149.6880207959113
 10
107.0790798343413
 20
-149.6649386561601
 10
107.0790798343413
 20
-149.6649386561601
 10
107.0260253638685
 20
-149.4723578185347
 10
107.0260253638685
 20
-149.4723578185347
 10
107.1720974124431
 20
-149.4258490294838
 10
107.2375542266628
 20
-149.4024223801841
 10
107.2926757544268
 20
-149.3814072977241
 10
107.2926757544268
 20
-149.3814072977241
 10
107.2926757544268
 20
-148.9686848585911
 10
107.2926757544268
 20
-148.9686848585911
 10
107.2926757544268
 20
-148.9686848585911
 10
107.239621283954
 20
-148.9686848585911
 10
107.239621283954
 20
-148.9686848585911
 10
107.239621283954
 20
-148.9686848585911
 10
107.1614176164388
 20
-148.9686848585911
 10
107.1614176164388
 20
-148.9686848585911
 10
107.0938937449279
 20
-148.9686848585911
 10
107.0852810062148
 20
-148.9686848585911
 10
107.0494520131682
 20
-148.9752305400131
 10
107.0494520131682
 20
-148.9752305400131
 10
107.0494520131682
 20
-148.7804103903222
 10
107.0494520131682
 20
-148.7804103903222
 10
107.0770127770502
 20
-148.7867838169699
 10
107.0852810062148
 20
-148.7867838169699
 10
107.1552164445654
 20
-148.7867838169699
 10
107.1552164445654
 20
-148.7867838169699
 10
107.2885416398445
 20
-148.7867838169699
 10
107.2885416398445
 20
-148.7867838169699
 10
107.2885416398445
 20
-148.7170206333936
 10
107.2885416398445
 20
-148.6345105965219
 10
107.2861300730048
 20
-148.6302042271653
 10
107.2778618438402
 20
-148.4503702428353
 10
107.2778618438402
 20
-148.4314222176664
 10
107.2757947865491
 20
-148.3849134286156
 10
107.2757947865491
 20
-148.3849134286156
 10
107.4914577639257
 20
-148.3933539125544
 10
107.4914577639257
 20
-148.3933539125544
 10
107.50213755993
 20
-148.3933539125544
 10
107.52315264239
 20
-148.3954209698456
 10
107.52315264239
 20
-148.4123019377233
 10
107.52315264239
 20
-148.4314222176664
 10
107.5083387318034
 20
-148.4419297588964
 10
107.4831895347611
 20
-148.4610500388396
 10
107.4831895347611
 20
-148.5116929424728
 10
107.4766438533392
 20
-148.7402750279191
 10
107.4787109106303
 20
-148.7867838169699
 10
107.6079019913272
 20
-148.7867838169699
 10
107.6206488446226
 20
-148.7867838169699
 10
107.7178005373067
 20
-148.7783433330311
 10
107.7178005373067
 20
-148.7783433330311
 10
107.7178005373067
 20
-148.973163482722
 10
107.7178005373067
 20
-148.973163482722
 10
107.6799044869689
 20
-148.9707519158823
 10
107.6120361059095
 20
-148.9666178013
 10
107.4766438533392
 20
-148.9686848585911
 10
107.4766438533392
 20
-148.9686848585911
 10
107.4766438533392
 20
-149.3073377447912
 10
107.4766438533392
 20
-149.3073377447912
 10
107.5317653811032
 20
-149.2839110954915
 10
107.5972221953229
 20
-149.2563503316095
 10
107.6457980416649
 20
-149.2332681918583
 10
107.6457980416649
 20
-149.2332681918583
 10
107.6457980416649
 20
-149.0555012648195
 10
107.6457980416649
 20
-149.0555012648195
 10
107.7601752117752
 20
-149.0682481181149
 10
107.8786864964678
 20
-149.0682481181149
 10
107.9951307238693
 20
-149.0682481181149
 10
107.9717040745695
 20
-148.973163482722
 10
107.9441433106876
 20
-148.890481191076
 10
107.880753553759
 20
-148.7571559957968
 10
107.8363118219992
 20
-148.7592230530879
 10
107.7539740399018
 20
-148.7635294224445
 10
107.7157334800155
 20
-148.7655964797357
 10
107.7157334800155
 20
-148.7655964797357
 10
107.7157334800155
 20
-148.5857624954056
 10
107.7157334800155
 20
-148.5857624954056
 10
107.8404459365815
 20
-148.5942029793445
 10
108.0140787490381
 20
-148.598509348701
 10
108.0964165311356
 20
-148.598509348701
 10
108.0964165311356
 20
-148.598509348701
 10
108.1790988227816
 20
-148.598509348701
 10
108.1790988227816
 20
-148.598509348701
 10
108.1790988227816
 20
-148.4355563322487
 10
108.1790988227816
 20
-148.4250487910187
 10
108.1770317654904
 20
-148.370099518029
 10
108.1770317654904
 20
-148.370099518029
 10
108.4013074815802
 20
-148.3954209698456
 10
108.4013074815802
 20
-148.3954209698456
 10
108.4054415961625
 20
-148.3954209698456
 10
108.4264566786225
 20
-148.3974880271367
 10
108.4264566786225
 20
-148.4143689950144
 10
108.4264566786225
 20
-148.429182905601
 10
108.4161213921668
 20
-148.4377956443142
 10
108.3885606282848
 20
-148.4526095549007
 10
108.3820149468628
 20
-148.5180663691205
 10
108.3799478895717
 20
-148.5392537063547
 10
108.3799478895717
 20
-148.598509348701
 10
108.3799478895717
 20
-148.598509348701
 10
108.4750325249645
 20
-148.598509348701
 10
108.4750325249645
 20
-148.598509348701
 10
108.5577148166105
 20
-148.598509348701
 10
108.7310031195186
 20
-148.5942029793445
 10
108.8560600856332
 20
-148.5857624954056
 10
108.8560600856332
 20
-148.5857624954056
 10
108.8560600856332
 20
-148.7655964797357
 10
108.8560600856332
 20
-148.7655964797357
 10
108.82643226446
 20
-148.7635294224445
 10
108.7079209797674
 20
-148.7592230530879
 10
108.66761336259
 20
-148.7571559957968
 10
108.6527994520035
 20
-148.8079711542042
 10
108.619037516248
 20
-148.9201090122491
 10
108.5535807020282
 20
-149.0596353794017
 10
108.5956108669483
 20
-149.0596353794017
 10
108.8729410535109
 20
-149.0406873542329
 10
108.9342637531484
 20
-149.0386202969417
 10
108.9342637531484
 20
-149.0386202969417
 10
108.9342637531484
 20
-149.222588395854
 10
108.9342637531484
 20
-149.222588395854
 10
108.9046359319752
 20
-149.222588395854
 10
108.8877549640975
 20
-149.2184542812718
 10
108.7248019476452
 20
-149.2184542812718
 97
        0
 97
        1
330
90
 75
     2
 76
     1
 98
        1
 10
0.0
 20
0.0
450
        0
451
        0
460
0.0
461
0.0
452
        0
462
0.0
453
        0
470

  0
SPLINE
  5
92
330
8A
100
AcDbEntity
  8
レイヤー 1
100
AcDbSpline
210
0.0
220
0.0
230
1.0
 70
    11
 71
     3
 72
    17
 73
    13
 74
     0
 42
0.0000000001
 43
0.0000000001
 40
0.0
 40
0.0
 40
0.0
 40
0.0
 40
1.0
 40
1.0
 40
1.0
 40
2.0
 40
2.0
 40
2.0
 40
3.0
 40
3.0
 40
3.0
 40
4.0
 40
4.0
 40
4.0
 40
4.0
 10
110.5813639046463
 20
-150.0180609433982
 30
0.0
 10
110.5813639046463
 20
-150.0180609433982
 30
0.0
 10
109.8747748206216
 20
-150.0180609433982
 30
0.0
 10
109.8747748206216
 20
-150.0180609433982
 30
0.0
 10
109.8747748206216
 20
-150.0180609433982
 30
0.0
 10
109.8747748206216
 20
-150.1324381135085
 30
0.0
 10
109.8747748206216
 20
-150.1324381135085
 30
0.0
 10
109.8747748206216
 20
-150.1324381135085
 30
0.0
 10
110.5813639046463
 20
-150.1324381135085
 30
0.0
 10
110.5813639046463
 20
-150.1324381135085
 30
0.0
 10
110.5813639046463
 20
-150.1324381135085
 30
0.0
 10
110.5813639046463
 20
-150.0180609433982
 30
0.0
 10
110.5813639046463
 20
-150.0180609433982
 30
0.0
  0
SPLINE
  5
93
330
8A
100
AcDbEntity
  8
レイヤー 1
100
AcDbSpline
210
0.0
220
0.0
230
1.0
 70
    11
 71
     3
 72
    17
 73
    13
 74
     0
 42
0.0000000001
 43
0.0000000001
 40
0.0
 40
0.0
 40
0.0
 40
0.0
 40
1.0
 40
1.0
 40
1.0
 40
2.0
 40
2.0
 40
2.0
 40
3.0
 40
3.0
 40
3.0
 40
4.0
 40
4.0
 40
4.0
 40
4.0
 10
110.5813639046463
 20
-149.7748372021396
 30
0.0
 10
110.5813639046463
 20
-149.7748372021396
 30
0.0
 10
109.8747748206216
 20
-149.7748372021396
 30
0.0
 10
109.8747748206216
 20
-149.7748372021396
 30
0.0
 10
109.8747748206216
 20
-149.7748372021396
 30
0.0
 10
109.8747748206216
 20
-149.8892143722499
 30
0.0
 10
109.8747748206216
 20
-149.8892143722499
 30
0.0
 10
109.8747748206216
 20
-149.8892143722499
 30
0.0
 10
110.5813639046463
 20
-149.8892143722499
 30
0.0
 10
110.5813639046463
 20
-149.8892143722499
 30
0.0
 10
110.5813639046463
 20
-149.8892143722499
 30
0.0
 10
110.5813639046463
 20
-149.7748372021396
 30
0.0
 10
110.5813639046463
 20
-149.7748372021396
 30
0.0
  0
SPLINE
  5
94
330
8A
100
AcDbEntity
  8
レイヤー 1
100
AcDbSpline
210
0.0
220
0.0
230
1.0
 70
    11
 71
     3
 72
    17
 73
    13
 74
     0
 42
0.0000000001
 43
0.0000000001
 40
0.0
 40
0.0
 40
0.0
 40
0.0
 40
1.0
 40
1.0
 40
1.0
 40
2.0
 40
2.0
 40
2.0
 40
3.0
 40
3.0
 40
3.0
 40
4.0
 40
4.0
 40
4.0
 40
4.0
 10
110.5813639046463
 20
-149.5419487473367
 30
0.0
 10
110.5813639046463
 20
-149.5419487473367
 30
0.0
 10
109.8747748206216
 20
-149.5419487473367
 30
0.0
 10
109.8747748206216
 20
-149.5419487473367
 30
0.0
 10
109.8747748206216
 20
-149.5419487473367
 30
0.0
 10
109.8747748206216
 20
-149.6501247455736
 30
0.0
 10
109.8747748206216
 20
-149.6501247455736
 30
0.0
 10
109.8747748206216
 20
-149.6501247455736
 30
0.0
 10
110.5813639046463
 20
-149.6501247455736
 30
0.0
 10
110.5813639046463
 20
-149.6501247455736
 30
0.0
 10
110.5813639046463
 20
-149.6501247455736
 30
0.0
 10
110.5813639046463
 20
-149.5419487473367
 30
0.0
 10
110.5813639046463
 20
-149.5419487473367
 30
0.0
  0
SPLINE
  5
95
330
8A
100
AcDbEntity
  8
レイヤー 1
100
AcDbSpline
210
0.0
220
0.0
230
1.0
 70
     9
 71
     3
 72
   203
 73
   199
 74
     0
 42
0.0000000001
 43
0.0000000001
 40
0.0
 40
0.0
 40
0.0
 40
0.0
 40
1.0
 40
1.0
 40
1.0
 40
2.0
 40
2.0
 40
2.0
 40
3.0
 40
3.0
 40
3.0
 40
4.0
 40
4.0
 40
4.0
 40
5.0
 40
5.0
 40
5.0
 40
6.0
 40
6.0
 40
6.0
 40
7.0
 40
7.0
 40
7.0
 40
8.0
 40
8.0
 40
8.0
 40
9.0
 40
9.0
 40
9.0
 40
10.0
 40
10.0
 40
10.0
 40
11.0
 40
11.0
 40
11.0
 40
12.0
 40
12.0
 40
12.0
 40
13.0
 40
13.0
 40
13.0
 40
14.0
 40
14.0
 40
14.0
 40
15.0
 40
15.0
 40
15.0
 40
16.0
 40
16.0
 40
16.0
 40
17.0
 40
17.0
 40
17.0
 40
18.0
 40
18.0
 40
18.0
 40
19.0
 40
19.0
 40
19.0
 40
20.0
 40
20.0
 40
20.0
 40
21.0
 40
21.0
 40
21.0
 40
22.0
 40
22.0
 40
22.0
 40
23.0
 40
23.0
 40
23.0
 40
24.0
 40
24.0
 40
24.0
 40
25.0
 40
25.0
 40
25.0
 40
26.0
 40
26.0
 40
26.0
 40
27.0
 40
27.0
 40
27.0
 40
28.0
 40
28.0
 40
28.0
 40
29.0
 40
29.0
 40
29.0
 40
30.0
 40
30.0
 40
30.0
 40
31.0
 40
31.0
 40
31.0
 40
32.0
 40
32.0
 40
32.0
 40
33.0
 40
33.0
 40
33.0
 40
34.0
 40
34.0
 40
34.0
 40
35.0
 40
35.0
 40
35.0
 40
36.0
 40
36.0
 40
36.0
 40
37.0
 40
37.0
 40
37.0
 40
38.0
 40
38.0
 40
38.0
 40
39.0
 40
39.0
 40
39.0
 40
40.0
 40
40.0
 40
40.0
 40
41.0
 40
41.0
 40
41.0
 40
42.0
 40
42.0
 40
42.0
 40
43.0
 40
43.0
 40
43.0
 40
44.0
 40
44.0
 40
44.0
 40
45.0
 40
45.0
 40
45.0
 40
46.0
 40
46.0
 40
46.0
 40
47.0
 40
47.0
 40
47.0
 40
48.0
 40
48.0
 40
48.0
 40
49.0
 40
49.0
 40
49.0
 40
50.0
 40
50.0
 40
50.0
 40
51.0
 40
51.0
 40
51.0
 40
52.0
 40
52.0
 40
52.0
 40
53.0
 40
53.0
 40
53.0
 40
54.0
 40
54.0
 40
54.0
 40
55.0
 40
55.0
 40
55.0
 40
56.0
 40
56.0
 40
56.0
 40
57.0
 40
57.0
 40
57.0
 40
58.0
 40
58.0
 40
58.0
 40
59.0
 40
59.0
 40
59.0
 40
60.0
 40
60.0
 40
60.0
 40
61.0
 40
61.0
 40
61.0
 40
62.0
 40
62.0
 40
62.0
 40
63.0
 40
63.0
 40
63.0
 40
64.0
 40
64.0
 40
64.0
 40
65.0
 40
65.0
 40
65.0
 40
66.0
 40
66.0
 40
66.0
 40
66.0
 10
110.4163438309028
 20
-149.2859781527827
 30
0.0
 10
110.4163438309028
 20
-149.2859781527827
 30
0.0
 10
109.8578938527438
 20
-149.2859781527827
 30
0.0
 10
109.8578938527438
 20
-149.2859781527827
 30
0.0
 10
109.8472140567396
 20
-149.3304198845424
 30
0.0
 10
109.8386013180264
 20
-149.3621147630067
 30
0.0
 10
109.8261989742795
 20
-149.4003553228929
 30
0.0
 10
109.8513481713219
 20
-149.4003553228929
 30
0.0
 10
109.8661620819084
 20
-149.4024223801841
 30
0.0
 10
109.8727077633304
 20
-149.4024223801841
 30
0.0
 10
109.8727077633304
 20
-149.4024223801841
 30
0.0
 10
110.0608099768251
 20
-149.4024223801841
 30
0.0
 10
110.0608099768251
 20
-149.4024223801841
 30
0.0
 10
110.0608099768251
 20
-149.4024223801841
 30
0.0
 10
110.4352918560717
 20
-149.4024223801841
 30
0.0
 10
110.4352918560717
 20
-149.4024223801841
 30
0.0
 10
110.4859347597049
 20
-149.4024223801841
 30
0.0
 10
110.769466118141
 20
-149.3896755268887
 30
0.0
 10
110.8011609966053
 20
-149.3896755268887
 30
0.0
 10
110.7990939393141
 20
-149.4172362907707
 30
0.0
 10
110.7970268820229
 20
-149.4361843159396
 30
0.0
 10
110.7970268820229
 20
-149.4658121371127
 30
0.0
 10
110.7949598247318
 20
-149.497507015577
 30
0.0
 10
110.7949598247318
 20
-149.6328992681473
 30
0.0
 10
110.7949598247318
 20
-149.6604600320293
 30
0.0
 10
110.7949598247318
 20
-149.6604600320293
 30
0.0
 10
110.7949598247318
 20
-149.9060953401276
 30
0.0
 10
110.7949598247318
 20
-149.9060953401276
 30
0.0
 10
110.7949598247318
 20
-149.9505370718873
 30
0.0
 10
110.7990939393141
 20
-150.1472520240951
 30
0.0
 10
110.8035725634449
 20
-150.2995252445432
 30
0.0
 10
110.8035725634449
 20
-150.2995252445432
 30
0.0
 10
110.5768852805155
 20
-150.2995252445432
 30
0.0
 10
110.5768852805155
 20
-150.2995252445432
 30
0.0
 10
110.5768852805155
 20
-150.2995252445432
 30
0.0
 10
110.5792968473552
 20
-150.2657633087877
 30
0.0
 10
110.5792968473552
 20
-150.2657633087877
 30
0.0
 10
110.5792968473552
 20
-150.2657633087877
 30
0.0
 10
109.8768418779127
 20
-150.2657633087877
 30
0.0
 10
109.8768418779127
 20
-150.2657633087877
 30
0.0
 10
109.8768418779127
 20
-150.2657633087877
 30
0.0
 10
109.8789089352039
 20
-150.2995252445432
 30
0.0
 10
109.8789089352039
 20
-150.2995252445432
 30
0.0
 10
109.8789089352039
 20
-150.2995252445432
 30
0.0
 10
109.6611789005361
 20
-150.2995252445432
 30
0.0
 10
109.6611789005361
 20
-150.2995252445432
 30
0.0
 10
109.6653130151184
 20
-150.2444037167792
 30
0.0
 10
109.6653130151184
 20
-150.2316568634837
 30
0.0
 10
109.6715141869918
 20
-150.117624202922
 30
0.0
 10
109.673581244283
 20
-150.09006343904
 30
0.0
 10
109.6759928111227
 20
-149.9567382437608
 30
0.0
 10
109.6759928111227
 20
-149.9377902185919
 30
0.0
 10
109.6759928111227
 20
-149.9377902185919
 30
0.0
 10
109.6759928111227
 20
-149.7345295849622
 30
0.0
 10
109.6759928111227
 20
-149.7345295849622
 30
0.0
 10
109.5361219344215
 20
-149.9842990076428
 30
0.0
 10
109.3669677460957
 20
-150.1155571456308
 30
0.0
 10
109.2612033146986
 20
-150.1810139598506
 30
0.0
 10
109.2612033146986
 20
-150.1810139598506
 30
0.0
 10
109.087570502242
 20
-150.0414875926979
 30
0.0
 10
109.087570502242
 20
-150.0414875926979
 30
0.0
 10
109.1764539657614
 20
-149.9905001795162
 30
0.0
 10
109.3204589570449
 20
-149.9036837732879
 30
0.0
 10
109.4579182669063
 20
-149.7093803879199
 30
0.0
 10
109.5488687877169
 20
-149.5822563645141
 30
0.0
 10
109.6146701114852
 20
-149.4385958827792
 30
0.0
 10
109.6484320472407
 20
-149.2859781527827
 30
0.0
 10
109.4200222165686
 20
-149.2883897196223
 30
0.0
 10
109.2401882322385
 20
-149.2945908914958
 30
0.0
 10
109.1447590872971
 20
-149.2966579487869
 30
0.0
 10
109.1447590872971
 20
-149.2966579487869
 30
0.0
 10
109.1447590872971
 20
-149.118891021748
 30
0.0
 10
109.1447590872971
 20
-149.118891021748
 30
0.0
 10
109.3414740395049
 20
-149.12543670317
 30
0.0
 10
109.6250053979409
 20
-149.1295708177523
 30
0.0
 10
109.7752115610978
 20
-149.1295708177523
 30
0.0
 10
109.7752115610978
 20
-149.1295708177523
 30
0.0
 10
109.9888074811833
 20
-149.1295708177523
 30
0.0
 10
109.9888074811833
 20
-149.1295708177523
 30
0.0
 10
109.9888074811833
 20
-149.1295708177523
 30
0.0
 10
109.9888074811833
 20
-149.021739329064
 30
0.0
 10
109.9888074811833
 20
-149.021739329064
 30
0.0
 10
109.9888074811833
 20
-149.021739329064
 30
0.0
 10
109.8430799421573
 20
-149.021739329064
 30
0.0
 10
109.8430799421573
 20
-149.021739329064
 30
0.0
 10
109.673581244283
 20
-149.021739329064
 30
0.0
 10
109.5044270559572
 20
-149.0258734436463
 30
0.0
 10
109.3373399249226
 20
-149.0324191250683
 30
0.0
 10
109.3373399249226
 20
-149.0324191250683
 30
0.0
 10
109.3373399249226
 20
-148.8608533699028
 30
0.0
 10
109.3373399249226
 20
-148.8608533699028
 30
0.0
 10
109.4916802026618
 20
-148.8713609111328
 30
0.0
 10
109.6780598684138
 20
-148.8713609111328
 30
0.0
 10
109.8430799421573
 20
-148.8713609111328
 30
0.0
 10
109.8430799421573
 20
-148.8713609111328
 30
0.0
 10
109.9888074811833
 20
-148.8713609111328
 30
0.0
 10
109.9888074811833
 20
-148.8713609111328
 30
0.0
 10
109.9888074811833
 20
-148.8713609111328
 30
0.0
 10
109.9888074811833
 20
-148.7530218812145
 30
0.0
 10
109.9888074811833
 20
-148.7530218812145
 30
0.0
 10
109.9888074811833
 20
-148.7530218812145
 30
0.0
 10
109.8578938527438
 20
-148.7530218812145
 30
0.0
 10
109.8578938527438
 20
-148.7530218812145
 30
0.0
 10
109.811385063693
 20
-148.7530218812145
 30
0.0
 10
109.6081244300632
 20
-148.7614623651534
 30
0.0
 10
109.5657497555946
 20
-148.7614623651534
 30
0.0
 10
109.3628336315134
 20
-148.7655964797357
 30
0.0
 10
109.2866970212894
 20
-148.7676635370268
 30
0.0
 10
109.2084933537742
 20
-148.7699028490922
 30
0.0
 10
109.2084933537742
 20
-148.7699028490922
 30
0.0
 10
109.2084933537742
 20
-148.5857624954056
 30
0.0
 10
109.2084933537742
 20
-148.5857624954056
 30
0.0
 10
109.322526014336
 20
-148.5942029793445
 30
0.0
 10
109.3669677460957
 20
-148.5942029793445
 30
0.0
 10
109.7500623640555
 20
-148.6028157180576
 30
0.0
 10
109.6863280975784
 20
-148.5075588278905
 30
0.0
 10
109.6587673336964
 20
-148.4799980640084
 30
0.0
 10
109.6229383406498
 20
-148.4439968161876
 30
0.0
 10
109.6229383406498
 20
-148.4439968161876
 30
0.0
 10
109.7986382103975
 20
-148.3614867793159
 30
0.0
 10
109.7986382103975
 20
-148.3614867793159
 30
0.0
 10
109.8386013180264
 20
-148.3974880271367
 30
0.0
 10
109.8830430497862
 20
-148.4398627016053
 30
0.0
 10
109.957112602719
 20
-148.5497612475848
 30
0.0
 10
109.957112602719
 20
-148.5497612475848
 30
0.0
 10
109.8430799421573
 20
-148.6048827753488
 30
0.0
 10
109.8430799421573
 20
-148.6048827753488
 30
0.0
 10
109.8430799421573
 20
-148.6048827753488
 30
0.0
 10
109.853415228613
 20
-148.6048827753488
 30
0.0
 10
109.853415228613
 20
-148.6048827753488
 30
0.0
 10
109.853415228613
 20
-148.6048827753488
 30
0.0
 10
110.3760362137254
 20
-148.6048827753488
 30
0.0
 10
110.3760362137254
 20
-148.6048827753488
 30
0.0
 10
110.3760362137254
 20
-148.6048827753488
 30
0.0
 10
110.2809515783325
 20
-148.560441043589
 30
0.0
 10
110.2809515783325
 20
-148.560441043589
 30
0.0
 10
110.3085123422145
 20
-148.522372738477
 30
0.0
 10
110.3653564177211
 20
-148.4419297588964
 30
0.0
 10
110.3801703283077
 20
-148.3678602059636
 30
0.0
 10
110.3801703283077
 20
-148.3678602059636
 30
0.0
 10
110.5941107579417
 20
-148.4314222176664
 30
0.0
 10
110.5941107579417
 20
-148.4314222176664
 30
0.0
 10
110.6023789871063
 20
-148.4334892749576
 30
0.0
 10
110.6237385791149
 20
-148.4439968161876
 30
0.0
 10
110.6237385791149
 20
-148.4651841534219
 30
0.0
 10
110.6237385791149
 20
-148.5032524585339
 30
0.0
 10
110.5579372553466
 20
-148.5032524585339
 30
0.0
 10
110.5389892301777
 20
-148.5032524585339
 30
0.0
 10
110.5283094341735
 20
-148.522372738477
 30
0.0
 10
110.5052272944223
 20
-148.5625081008802
 30
0.0
 10
110.4755994732491
 20
-148.6028157180576
 30
0.0
 10
110.8752305495381
 20
-148.5964422914099
 30
0.0
 10
110.9048583707113
 20
-148.5942029793445
 30
0.0
 10
110.9809949809353
 20
-148.588001807471
 30
0.0
 10
110.9809949809353
 20
-148.588001807471
 30
0.0
 10
110.9809949809353
 20
-148.7699028490922
 30
0.0
 10
110.9809949809353
 20
-148.7699028490922
 30
0.0
 10
110.9620469557664
 20
-148.7699028490922
 30
0.0
 10
110.9365532491756
 20
-148.7676635370268
 30
0.0
 10
110.7167561572166
 20
-148.7592230530879
 30
0.0
 10
110.6657687440349
 20
-148.7571559957968
 30
0.0
 10
110.445971652076
 20
-148.7530218812145
 30
0.0
 10
110.4015299203163
 20
-148.7530218812145
 30
0.0
 10
110.4015299203163
 20
-148.7530218812145
 30
0.0
 10
110.1855224333911
 20
-148.7530218812145
 30
0.0
 10
110.1855224333911
 20
-148.7530218812145
 30
0.0
 10
110.1855224333911
 20
-148.7530218812145
 30
0.0
 10
110.1855224333911
 20
-148.8713609111328
 30
0.0
 10
110.1855224333911
 20
-148.8713609111328
 30
0.0
 10
110.1855224333911
 20
-148.8713609111328
 30
0.0
 10
110.3591552458477
 20
-148.8713609111328
 30
0.0
 10
110.3591552458477
 20
-148.8713609111328
 30
0.0
 10
110.5221082623
 20
-148.8713609111328
 30
0.0
 10
110.7122775330858
 20
-148.8713609111328
 30
0.0
 10
110.8690293776647
 20
-148.8608533699028
 30
0.0
 10
110.8690293776647
 20
-148.8608533699028
 30
0.0
 10
110.8690293776647
 20
-149.0324191250683
 30
0.0
 10
110.8690293776647
 20
-149.0324191250683
 30
0.0
 10
110.6595675721615
 20
-149.0238063863551
 30
0.0
 10
110.4628526199537
 20
-149.021739329064
 30
0.0
 10
110.3591552458477
 20
-149.021739329064
 30
0.0
 10
110.3591552458477
 20
-149.021739329064
 30
0.0
 10
110.1855224333911
 20
-149.021739329064
 30
0.0
 10
110.1855224333911
 20
-149.021739329064
 30
0.0
 10
110.1855224333911
 20
-149.021739329064
 30
0.0
 10
110.1855224333911
 20
-149.1295708177523
 30
0.0
 10
110.1855224333911
 20
-149.1295708177523
 30
0.0
 10
110.1855224333911
 20
-149.1295708177523
 30
0.0
 10
110.4163438309028
 20
-149.1295708177523
 30
0.0
 10
110.4163438309028
 20
-149.1295708177523
 30
0.0
 10
110.549669026182
 20
-149.1295708177523
 30
0.0
 10
110.8373344992004
 20
-149.12543670317
 30
0.0
 10
111.0467963047036
 20
-149.118891021748
 30
0.0
 10
111.0467963047036
 20
-149.118891021748
 30
0.0
 10
111.0467963047036
 20
-149.2966579487869
 30
0.0
 10
111.0467963047036
 20
-149.2966579487869
 30
0.0
 10
110.8542154670781
 20
-149.2904567769135
 30
0.0
 10
110.5410562874689
 20
-149.2859781527827
 30
0.0
 10
110.4163438309028
 20
-149.2859781527827
 30
0.0
  0
HATCH
  5
96
330
8A
100
AcDbEntity
  8
レイヤー 1
 62
    18
420
        0
440
 33554687
100
AcDbHatch
 10
0.0
 20
0.0
 30
0.0
210
0.0
220
0.0
230
1.0
  2
SOLID
 70
     1
 71
     1
 91
        4
 92
        1
 93
        1
 72
     4
 94
        3
 73
     0
 74
     0
 95
       17
 96
       13
 40
0.0
 40
0.0
 40
0.0
 40
0.0
 40
1.0
 40
1.0
 40
1.0
 40
2.0
 40
2.0
 40
2.0
 40
3.0
 40
3.0
 40
3.0
 40
4.0
 40
4.0
 40
4.0
 40
4.0
 10
110.5813639046463
 20
-150.0180609433982
 10
110.5813639046463
 20
-150.0180609433982
 10
109.8747748206216
 20
-150.0180609433982
 10
109.8747748206216
 20
-150.0180609433982
 10
109.8747748206216
 20
-150.0180609433982
 10
109.8747748206216
 20
-150.1324381135085
 10
109.8747748206216
 20
-150.1324381135085
 10
109.8747748206216
 20
-150.1324381135085
 10
110.5813639046463
 20
-150.1324381135085
 10
110.5813639046463
 20
-150.1324381135085
 10
110.5813639046463
 20
-150.1324381135085
 10
110.5813639046463
 20
-150.0180609433982
 10
110.5813639046463
 20
-150.0180609433982
 97
        0
 97
        1
330
92
 92
        1
 93
        1
 72
     4
 94
        3
 73
     0
 74
     0
 95
       17
 96
       13
 40
0.0
 40
0.0
 40
0.0
 40
0.0
 40
1.0
 40
1.0
 40
1.0
 40
2.0
 40
2.0
 40
2.0
 40
3.0
 40
3.0
 40
3.0
 40
4.0
 40
4.0
 40
4.0
 40
4.0
 10
110.5813639046463
 20
-149.7748372021396
 10
110.5813639046463
 20
-149.7748372021396
 10
109.8747748206216
 20
-149.7748372021396
 10
109.8747748206216
 20
-149.7748372021396
 10
109.8747748206216
 20
-149.7748372021396
 10
109.8747748206216
 20
-149.8892143722499
 10
109.8747748206216
 20
-149.8892143722499
 10
109.8747748206216
 20
-149.8892143722499
 10
110.5813639046463
 20
-149.8892143722499
 10
110.5813639046463
 20
-149.8892143722499
 10
110.5813639046463
 20
-149.8892143722499
 10
110.5813639046463
 20
-149.7748372021396
 10
110.5813639046463
 20
-149.7748372021396
 97
        0
 97
        1
330
93
 92
        1
 93
        1
 72
     4
 94
        3
 73
     0
 74
     0
 95
       17
 96
       13
 40
0.0
 40
0.0
 40
0.0
 40
0.0
 40
1.0
 40
1.0
 40
1.0
 40
2.0
 40
2.0
 40
2.0
 40
3.0
 40
3.0
 40
3.0
 40
4.0
 40
4.0
 40
4.0
 40
4.0
 10
110.5813639046463
 20
-149.5419487473367
 10
110.5813639046463
 20
-149.5419487473367
 10
109.8747748206216
 20
-149.5419487473367
 10
109.8747748206216
 20
-149.5419487473367
 10
109.8747748206216
 20
-149.5419487473367
 10
109.8747748206216
 20
-149.6501247455736
 10
109.8747748206216
 20
-149.6501247455736
 10
109.8747748206216
 20
-149.6501247455736
 10
110.5813639046463
 20
-149.6501247455736
 10
110.5813639046463
 20
-149.6501247455736
 10
110.5813639046463
 20
-149.6501247455736
 10
110.5813639046463
 20
-149.5419487473367
 10
110.5813639046463
 20
-149.5419487473367
 97
        0
 97
        1
330
94
 92
        1
 93
        1
 72
     4
 94
        3
 73
     0
 74
     0
 95
      203
 96
      199
 40
0.0
 40
0.0
 40
0.0
 40
0.0
 40
1.0
 40
1.0
 40
1.0
 40
2.0
 40
2.0
 40
2.0
 40
3.0
 40
3.0
 40
3.0
 40
4.0
 40
4.0
 40
4.0
 40
5.0
 40
5.0
 40
5.0
 40
6.0
 40
6.0
 40
6.0
 40
7.0
 40
7.0
 40
7.0
 40
8.0
 40
8.0
 40
8.0
 40
9.0
 40
9.0
 40
9.0
 40
10.0
 40
10.0
 40
10.0
 40
11.0
 40
11.0
 40
11.0
 40
12.0
 40
12.0
 40
12.0
 40
13.0
 40
13.0
 40
13.0
 40
14.0
 40
14.0
 40
14.0
 40
15.0
 40
15.0
 40
15.0
 40
16.0
 40
16.0
 40
16.0
 40
17.0
 40
17.0
 40
17.0
 40
18.0
 40
18.0
 40
18.0
 40
19.0
 40
19.0
 40
19.0
 40
20.0
 40
20.0
 40
20.0
 40
21.0
 40
21.0
 40
21.0
 40
22.0
 40
22.0
 40
22.0
 40
23.0
 40
23.0
 40
23.0
 40
24.0
 40
24.0
 40
24.0
 40
25.0
 40
25.0
 40
25.0
 40
26.0
 40
26.0
 40
26.0
 40
27.0
 40
27.0
 40
27.0
 40
28.0
 40
28.0
 40
28.0
 40
29.0
 40
29.0
 40
29.0
 40
30.0
 40
30.0
 40
30.0
 40
31.0
 40
31.0
 40
31.0
 40
32.0
 40
32.0
 40
32.0
 40
33.0
 40
33.0
 40
33.0
 40
34.0
 40
34.0
 40
34.0
 40
35.0
 40
35.0
 40
35.0
 40
36.0
 40
36.0
 40
36.0
 40
37.0
 40
37.0
 40
37.0
 40
38.0
 40
38.0
 40
38.0
 40
39.0
 40
39.0
 40
39.0
 40
40.0
 40
40.0
 40
40.0
 40
41.0
 40
41.0
 40
41.0
 40
42.0
 40
42.0
 40
42.0
 40
43.0
 40
43.0
 40
43.0
 40
44.0
 40
44.0
 40
44.0
 40
45.0
 40
45.0
 40
45.0
 40
46.0
 40
46.0
 40
46.0
 40
47.0
 40
47.0
 40
47.0
 40
48.0
 40
48.0
 40
48.0
 40
49.0
 40
49.0
 40
49.0
 40
50.0
 40
50.0
 40
50.0
 40
51.0
 40
51.0
 40
51.0
 40
52.0
 40
52.0
 40
52.0
 40
53.0
 40
53.0
 40
53.0
 40
54.0
 40
54.0
 40
54.0
 40
55.0
 40
55.0
 40
55.0
 40
56.0
 40
56.0
 40
56.0
 40
57.0
 40
57.0
 40
57.0
 40
58.0
 40
58.0
 40
58.0
 40
59.0
 40
59.0
 40
59.0
 40
60.0
 40
60.0
 40
60.0
 40
61.0
 40
61.0
 40
61.0
 40
62.0
 40
62.0
 40
62.0
 40
63.0
 40
63.0
 40
63.0
 40
64.0
 40
64.0
 40
64.0
 40
65.0
 40
65.0
 40
65.0
 40
66.0
 40
66.0
 40
66.0
 40
66.0
 10
110.4163438309028
 20
-149.2859781527827
 10
110.4163438309028
 20
-149.2859781527827
 10
109.8578938527438
 20
-149.2859781527827
 10
109.8578938527438
 20
-149.2859781527827
 10
109.8472140567396
 20
-149.3304198845424
 10
109.8386013180264
 20
-149.3621147630067
 10
109.8261989742795
 20
-149.4003553228929
 10
109.8513481713219
 20
-149.4003553228929
 10
109.8661620819084
 20
-149.4024223801841
 10
109.8727077633304
 20
-149.4024223801841
 10
109.8727077633304
 20
-149.4024223801841
 10
110.0608099768251
 20
-149.4024223801841
 10
110.0608099768251
 20
-149.4024223801841
 10
110.0608099768251
 20
-149.4024223801841
 10
110.4352918560717
 20
-149.4024223801841
 10
110.4352918560717
 20
-149.4024223801841
 10
110.4859347597049
 20
-149.4024223801841
 10
110.769466118141
 20
-149.3896755268887
 10
110.8011609966053
 20
-149.3896755268887
 10
110.7990939393141
 20
-149.4172362907707
 10
110.7970268820229
 20
-149.4361843159396
 10
110.7970268820229
 20
-149.4658121371127
 10
110.7949598247318
 20
-149.497507015577
 10
110.7949598247318
 20
-149.6328992681473
 10
110.7949598247318
 20
-149.6604600320293
 10
110.7949598247318
 20
-149.6604600320293
 10
110.7949598247318
 20
-149.9060953401276
 10
110.7949598247318
 20
-149.9060953401276
 10
110.7949598247318
 20
-149.9505370718873
 10
110.7990939393141
 20
-150.1472520240951
 10
110.8035725634449
 20
-150.2995252445432
 10
110.8035725634449
 20
-150.2995252445432
 10
110.5768852805155
 20
-150.2995252445432
 10
110.5768852805155
 20
-150.2995252445432
 10
110.5768852805155
 20
-150.2995252445432
 10
110.5792968473552
 20
-150.2657633087877
 10
110.5792968473552
 20
-150.2657633087877
 10
110.5792968473552
 20
-150.2657633087877
 10
109.8768418779127
 20
-150.2657633087877
 10
109.8768418779127
 20
-150.2657633087877
 10
109.8768418779127
 20
-150.2657633087877
 10
109.8789089352039
 20
-150.2995252445432
 10
109.8789089352039
 20
-150.2995252445432
 10
109.8789089352039
 20
-150.2995252445432
 10
109.6611789005361
 20
-150.2995252445432
 10
109.6611789005361
 20
-150.2995252445432
 10
109.6653130151184
 20
-150.2444037167792
 10
109.6653130151184
 20
-150.2316568634837
 10
109.6715141869918
 20
-150.117624202922
 10
109.673581244283
 20
-150.09006343904
 10
109.6759928111227
 20
-149.9567382437608
 10
109.6759928111227
 20
-149.9377902185919
 10
109.6759928111227
 20
-149.9377902185919
 10
109.6759928111227
 20
-149.7345295849622
 10
109.6759928111227
 20
-149.7345295849622
 10
109.5361219344215
 20
-149.9842990076428
 10
109.3669677460957
 20
-150.1155571456308
 10
109.2612033146986
 20
-150.1810139598506
 10
109.2612033146986
 20
-150.1810139598506
 10
109.087570502242
 20
-150.0414875926979
 10
109.087570502242
 20
-150.0414875926979
 10
109.1764539657614
 20
-149.9905001795162
 10
109.3204589570449
 20
-149.9036837732879
 10
109.4579182669063
 20
-149.7093803879199
 10
109.5488687877169
 20
-149.5822563645141
 10
109.6146701114852
 20
-149.4385958827792
 10
109.6484320472407
 20
-149.2859781527827
 10
109.4200222165686
 20
-149.2883897196223
 10
109.2401882322385
 20
-149.2945908914958
 10
109.1447590872971
 20
-149.2966579487869
 10
109.1447590872971
 20
-149.2966579487869
 10
109.1447590872971
 20
-149.118891021748
 10
109.1447590872971
 20
-149.118891021748
 10
109.3414740395049
 20
-149.12543670317
 10
109.6250053979409
 20
-149.1295708177523
 10
109.7752115610978
 20
-149.1295708177523
 10
109.7752115610978
 20
-149.1295708177523
 10
109.9888074811833
 20
-149.1295708177523
 10
109.9888074811833
 20
-149.1295708177523
 10
109.9888074811833
 20
-149.1295708177523
 10
109.9888074811833
 20
-149.021739329064
 10
109.9888074811833
 20
-149.021739329064
 10
109.9888074811833
 20
-149.021739329064
 10
109.8430799421573
 20
-149.021739329064
 10
109.8430799421573
 20
-149.021739329064
 10
109.673581244283
 20
-149.021739329064
 10
109.5044270559572
 20
-149.0258734436463
 10
109.3373399249226
 20
-149.0324191250683
 10
109.3373399249226
 20
-149.0324191250683
 10
109.3373399249226
 20
-148.8608533699028
 10
109.3373399249226
 20
-148.8608533699028
 10
109.4916802026618
 20
-148.8713609111328
 10
109.6780598684138
 20
-148.8713609111328
 10
109.8430799421573
 20
-148.8713609111328
 10
109.8430799421573
 20
-148.8713609111328
 10
109.9888074811833
 20
-148.8713609111328
 10
109.9888074811833
 20
-148.8713609111328
 10
109.9888074811833
 20
-148.8713609111328
 10
109.9888074811833
 20
-148.7530218812145
 10
109.9888074811833
 20
-148.7530218812145
 10
109.9888074811833
 20
-148.7530218812145
 10
109.8578938527438
 20
-148.7530218812145
 10
109.8578938527438
 20
-148.7530218812145
 10
109.811385063693
 20
-148.7530218812145
 10
109.6081244300632
 20
-148.7614623651534
 10
109.5657497555946
 20
-148.7614623651534
 10
109.3628336315134
 20
-148.7655964797357
 10
109.2866970212894
 20
-148.7676635370268
 10
109.2084933537742
 20
-148.7699028490922
 10
109.2084933537742
 20
-148.7699028490922
 10
109.2084933537742
 20
-148.5857624954056
 10
109.2084933537742
 20
-148.5857624954056
 10
109.322526014336
 20
-148.5942029793445
 10
109.3669677460957
 20
-148.5942029793445
 10
109.7500623640555
 20
-148.6028157180576
 10
109.6863280975784
 20
-148.5075588278905
 10
109.6587673336964
 20
-148.4799980640084
 10
109.6229383406498
 20
-148.4439968161876
 10
109.6229383406498
 20
-148.4439968161876
 10
109.7986382103975
 20
-148.3614867793159
 10
109.7986382103975
 20
-148.3614867793159
 10
109.8386013180264
 20
-148.3974880271367
 10
109.8830430497862
 20
-148.4398627016053
 10
109.957112602719
 20
-148.5497612475848
 10
109.957112602719
 20
-148.5497612475848
 10
109.8430799421573
 20
-148.6048827753488
 10
109.8430799421573
 20
-148.6048827753488
 10
109.8430799421573
 20
-148.6048827753488
 10
109.853415228613
 20
-148.6048827753488
 10
109.853415228613
 20
-148.6048827753488
 10
109.853415228613
 20
-148.6048827753488
 10
110.3760362137254
 20
-148.6048827753488
 10
110.3760362137254
 20
-148.6048827753488
 10
110.3760362137254
 20
-148.6048827753488
 10
110.2809515783325
 20
-148.560441043589
 10
110.2809515783325
 20
-148.560441043589
 10
110.3085123422145
 20
-148.522372738477
 10
110.3653564177211
 20
-148.4419297588964
 10
110.3801703283077
 20
-148.3678602059636
 10
110.3801703283077
 20
-148.3678602059636
 10
110.5941107579417
 20
-148.4314222176664
 10
110.5941107579417
 20
-148.4314222176664
 10
110.6023789871063
 20
-148.4334892749576
 10
110.6237385791149
 20
-148.4439968161876
 10
110.6237385791149
 20
-148.4651841534219
 10
110.6237385791149
 20
-148.5032524585339
 10
110.5579372553466
 20
-148.5032524585339
 10
110.5389892301777
 20
-148.5032524585339
 10
110.5283094341735
 20
-148.522372738477
 10
110.5052272944223
 20
-148.5625081008802
 10
110.4755994732491
 20
-148.6028157180576
 10
110.8752305495381
 20
-148.5964422914099
 10
110.9048583707113
 20
-148.5942029793445
 10
110.9809949809353
 20
-148.588001807471
 10
110.9809949809353
 20
-148.588001807471
 10
110.9809949809353
 20
-148.7699028490922
 10
110.9809949809353
 20
-148.7699028490922
 10
110.9620469557664
 20
-148.7699028490922
 10
110.9365532491756
 20
-148.7676635370268
 10
110.7167561572166
 20
-148.7592230530879
 10
110.6657687440349
 20
-148.7571559957968
 10
110.445971652076
 20
-148.7530218812145
 10
110.4015299203163
 20
-148.7530218812145
 10
110.4015299203163
 20
-148.7530218812145
 10
110.1855224333911
 20
-148.7530218812145
 10
110.1855224333911
 20
-148.7530218812145
 10
110.1855224333911
 20
-148.7530218812145
 10
110.1855224333911
 20
-148.8713609111328
 10
110.1855224333911
 20
-148.8713609111328
 10
110.1855224333911
 20
-148.8713609111328
 10
110.3591552458477
 20
-148.8713609111328
 10
110.3591552458477
 20
-148.8713609111328
 10
110.5221082623
 20
-148.8713609111328
 10
110.7122775330858
 20
-148.8713609111328
 10
110.8690293776647
 20
-148.8608533699028
 10
110.8690293776647
 20
-148.8608533699028
 10
110.8690293776647
 20
-149.0324191250683
 10
110.8690293776647
 20
-149.0324191250683
 10
110.6595675721615
 20
-149.0238063863551
 10
110.4628526199537
 20
-149.021739329064
 10
110.3591552458477
 20
-149.021739329064
 10
110.3591552458477
 20
-149.021739329064
 10
110.1855224333911
 20
-149.021739329064
 10
110.1855224333911
 20
-149.021739329064
 10
110.1855224333911
 20
-149.021739329064
 10
110.1855224333911
 20
-149.1295708177523
 10
110.1855224333911
 20
-149.1295708177523
 10
110.1855224333911
 20
-149.1295708177523
 10
110.4163438309028
 20
-149.1295708177523
 10
110.4163438309028
 20
-149.1295708177523
 10
110.549669026182
 20
-149.1295708177523
 10
110.8373344992004
 20
-149.12543670317
 10
111.0467963047036
 20
-149.118891021748
 10
111.0467963047036
 20
-149.118891021748
 10
111.0467963047036
 20
-149.2966579487869
 10
111.0467963047036
 20
-149.2966579487869
 10
110.8542154670781
 20
-149.2904567769135
 10
110.5410562874689
 20
-149.2859781527827
 10
110.4163438309028
 20
-149.2859781527827
 97
        0
 97
        1
330
95
 75
     2
 76
     1
 98
        1
 10
0.0
 20
0.0
450
        0
451
        0
460
0.0
461
0.0
452
        0
462
0.0
453
        0
470

  0
SPLINE
  5
97
330
8A
100
AcDbEntity
  8
レイヤー 1
100
AcDbSpline
210
0.0
220
0.0
230
1.0
 70
     9
 71
     3
 72
    29
 73
    25
 74
     0
 42
0.0000000001
 43
0.0000000001
 40
0.0
 40
0.0
 40
0.0
 40
0.0
 40
1.0
 40
1.0
 40
1.0
 40
2.0
 40
2.0
 40
2.0
 40
3.0
 40
3.0
 40
3.0
 40
4.0
 40
4.0
 40
4.0
 40
5.0
 40
5.0
 40
5.0
 40
6.0
 40
6.0
 40
6.0
 40
7.0
 40
7.0
 40
7.0
 40
8.0
 40
8.0
 40
8.0
 40
8.0
 10
112.2918538130728
 20
-148.7339016012714
 30
0.0
 10
112.2918538130728
 20
-148.7339016012714
 30
0.0
 10
111.9383870162862
 20
-148.7339016012714
 30
0.0
 10
111.9383870162862
 20
-148.7339016012714
 30
0.0
 10
111.8264214130156
 20
-148.7339016012714
 30
0.0
 10
111.686895045863
 20
-148.7402750279191
 30
0.0
 10
111.5787190476261
 20
-148.7530218812145
 30
0.0
 10
111.5787190476261
 20
-148.7530218812145
 30
0.0
 10
111.5787190476261
 20
-148.5180663691205
 30
0.0
 10
111.5787190476261
 20
-148.5180663691205
 30
0.0
 10
111.6972303323187
 20
-148.532880279707
 30
0.0
 10
111.8811984312311
 20
-148.5371866490636
 30
0.0
 10
111.9383870162862
 20
-148.5371866490636
 30
0.0
 10
111.9383870162862
 20
-148.5371866490636
 30
0.0
 10
112.2918538130728
 20
-148.5371866490636
 30
0.0
 10
112.2918538130728
 20
-148.5371866490636
 30
0.0
 10
112.3108018382417
 20
-148.5371866490636
 30
0.0
 10
112.5140624718715
 20
-148.5371866490636
 30
0.0
 10
112.6556558963152
 20
-148.5180663691205
 30
0.0
 10
112.6556558963152
 20
-148.5180663691205
 30
0.0
 10
112.6556558963152
 20
-148.7530218812145
 30
0.0
 10
112.6556558963152
 20
-148.7530218812145
 30
0.0
 10
112.4992485612849
 20
-148.7339016012714
 30
0.0
 10
112.3087347809506
 20
-148.7339016012714
 30
0.0
 10
112.2918538130728
 20
-148.7339016012714
 30
0.0
  0
SPLINE
  5
98
330
8A
100
AcDbEntity
  8
レイヤー 1
100
AcDbSpline
210
0.0
220
0.0
230
1.0
 70
     9
 71
     3
 72
    47
 73
    43
 74
     0
 42
0.0000000001
 43
0.0000000001
 40
0.0
 40
0.0
 40
0.0
 40
0.0
 40
1.0
 40
1.0
 40
1.0
 40
2.0
 40
2.0
 40
2.0
 40
3.0
 40
3.0
 40
3.0
 40
4.0
 40
4.0
 40
4.0
 40
5.0
 40
5.0
 40
5.0
 40
6.0
 40
6.0
 40
6.0
 40
7.0
 40
7.0
 40
7.0
 40
8.0
 40
8.0
 40
8.0
 40
9.0
 40
9.0
 40
9.0
 40
10.0
 40
10.0
 40
10.0
 40
11.0
 40
11.0
 40
11.0
 40
12.0
 40
12.0
 40
12.0
 40
13.0
 40
13.0
 40
13.0
 40
14.0
 40
14.0
 40
14.0
 40
14.0
 10
112.3931396203392
 20
-149.2628960130315
 30
0.0
 10
112.3931396203392
 20
-149.2628960130315
 30
0.0
 10
112.2918538130728
 20
-149.2628960130315
 30
0.0
 10
112.2918538130728
 20
-149.2628960130315
 30
0.0
 10
112.2918538130728
 20
-149.3497124192598
 30
0.0
 10
112.2704942210643
 20
-149.739008209093
 30
0.0
 10
112.0737792688565
 20
-149.9588053010519
 30
0.0
 10
111.9215060484085
 20
-150.1279594893777
 30
0.0
 10
111.7141113001965
 20
-150.1978949277283
 30
0.0
 10
111.6297064608078
 20
-150.2254556916103
 30
0.0
 10
111.6297064608078
 20
-150.2254556916103
 30
0.0
 10
111.4350585658912
 20
-150.0583685605757
 30
0.0
 10
111.4350585658912
 20
-150.0583685605757
 30
0.0
 10
111.5322102585753
 20
-150.0456217072803
 30
0.0
 10
111.707910128323
 20
-150.0221950579805
 30
0.0
 10
111.8960123418176
 20
-149.8340928444859
 30
0.0
 10
111.9700818947505
 20
-149.7620903488442
 30
0.0
 10
112.0737792688565
 20
-149.6225639816916
 30
0.0
 10
112.0737792688565
 20
-149.2628960130315
 30
0.0
 10
112.0737792688565
 20
-149.2628960130315
 30
0.0
 10
111.8433023808933
 20
-149.2628960130315
 30
0.0
 10
111.8433023808933
 20
-149.2628960130315
 30
0.0
 10
111.6572672246898
 20
-149.2628960130315
 30
0.0
 10
111.4708875589378
 20
-149.2670301276138
 30
0.0
 10
111.2848524027343
 20
-149.2818440382003
 30
0.0
 10
111.2848524027343
 20
-149.2818440382003
 30
0.0
 10
111.2848524027343
 20
-149.0620469462414
 30
0.0
 10
111.2848524027343
 20
-149.0620469462414
 30
0.0
 10
111.472954616229
 20
-149.076860856828
 30
0.0
 10
111.7585530319562
 20
-149.0809949714103
 30
0.0
 10
111.8433023808933
 20
-149.0809949714103
 30
0.0
 10
111.8433023808933
 20
-149.0809949714103
 30
0.0
 10
112.3931396203392
 20
-149.0809949714103
 30
0.0
 10
112.3931396203392
 20
-149.0809949714103
 30
0.0
 10
112.4124321550566
 20
-149.0809949714103
 30
0.0
 10
112.7297254492481
 20
-149.0809949714103
 30
0.0
 10
112.9581352799202
 20
-149.0620469462414
 30
0.0
 10
112.9581352799202
 20
-149.0620469462414
 30
0.0
 10
112.9581352799202
 20
-149.2818440382003
 30
0.0
 10
112.9581352799202
 20
-149.2818440382003
 30
0.0
 10
112.7700330664255
 20
-149.2670301276138
 30
0.0
 10
112.5815863433824
 20
-149.2628960130315
 30
0.0
 10
112.3931396203392
 20
-149.2628960130315
 30
0.0
  0
HATCH
  5
99
330
8A
100
AcDbEntity
  8
レイヤー 1
 62
    18
420
        0
440
 33554687
100
AcDbHatch
 10
0.0
 20
0.0
 30
0.0
210
0.0
220
0.0
230
1.0
  2
SOLID
 70
     1
 71
     1
 91
        2
 92
        1
 93
        1
 72
     4
 94
        3
 73
     0
 74
     0
 95
       29
 96
       25
 40
0.0
 40
0.0
 40
0.0
 40
0.0
 40
1.0
 40
1.0
 40
1.0
 40
2.0
 40
2.0
 40
2.0
 40
3.0
 40
3.0
 40
3.0
 40
4.0
 40
4.0
 40
4.0
 40
5.0
 40
5.0
 40
5.0
 40
6.0
 40
6.0
 40
6.0
 40
7.0
 40
7.0
 40
7.0
 40
8.0
 40
8.0
 40
8.0
 40
8.0
 10
112.2918538130728
 20
-148.7339016012714
 10
112.2918538130728
 20
-148.7339016012714
 10
111.9383870162862
 20
-148.7339016012714
 10
111.9383870162862
 20
-148.7339016012714
 10
111.8264214130156
 20
-148.7339016012714
 10
111.686895045863
 20
-148.7402750279191
 10
111.5787190476261
 20
-148.7530218812145
 10
111.5787190476261
 20
-148.7530218812145
 10
111.5787190476261
 20
-148.5180663691205
 10
111.5787190476261
 20
-148.5180663691205
 10
111.6972303323187
 20
-148.532880279707
 10
111.8811984312311
 20
-148.5371866490636
 10
111.9383870162862
 20
-148.5371866490636
 10
111.9383870162862
 20
-148.5371866490636
 10
112.2918538130728
 20
-148.5371866490636
 10
112.2918538130728
 20
-148.5371866490636
 10
112.3108018382417
 20
-148.5371866490636
 10
112.5140624718715
 20
-148.5371866490636
 10
112.6556558963152
 20
-148.5180663691205
 10
112.6556558963152
 20
-148.5180663691205
 10
112.6556558963152
 20
-148.7530218812145
 10
112.6556558963152
 20
-148.7530218812145
 10
112.4992485612849
 20
-148.7339016012714
 10
112.3087347809506
 20
-148.7339016012714
 10
112.2918538130728
 20
-148.7339016012714
 97
        0
 97
        1
330
97
 92
        1
 93
        1
 72
     4
 94
        3
 73
     0
 74
     0
 95
       47
 96
       43
 40
0.0
 40
0.0
 40
0.0
 40
0.0
 40
1.0
 40
1.0
 40
1.0
 40
2.0
 40
2.0
 40
2.0
 40
3.0
 40
3.0
 40
3.0
 40
4.0
 40
4.0
 40
4.0
 40
5.0
 40
5.0
 40
5.0
 40
6.0
 40
6.0
 40
6.0
 40
7.0
 40
7.0
 40
7.0
 40
8.0
 40
8.0
 40
8.0
 40
9.0
 40
9.0
 40
9.0
 40
10.0
 40
10.0
 40
10.0
 40
11.0
 40
11.0
 40
11.0
 40
12.0
 40
12.0
 40
12.0
 40
13.0
 40
13.0
 40
13.0
 40
14.0
 40
14.0
 40
14.0
 40
14.0
 10
112.3931396203392
 20
-149.2628960130315
 10
112.3931396203392
 20
-149.2628960130315
 10
112.2918538130728
 20
-149.2628960130315
 10
112.2918538130728
 20
-149.2628960130315
 10
112.2918538130728
 20
-149.3497124192598
 10
112.2704942210643
 20
-149.739008209093
 10
112.0737792688565
 20
-149.9588053010519
 10
111.9215060484085
 20
-150.1279594893777
 10
111.7141113001965
 20
-150.1978949277283
 10
111.6297064608078
 20
-150.2254556916103
 10
111.6297064608078
 20
-150.2254556916103
 10
111.4350585658912
 20
-150.0583685605757
 10
111.4350585658912
 20
-150.0583685605757
 10
111.5322102585753
 20
-150.0456217072803
 10
111.707910128323
 20
-150.0221950579805
 10
111.8960123418176
 20
-149.8340928444859
 10
111.9700818947505
 20
-149.7620903488442
 10
112.0737792688565
 20
-149.6225639816916
 10
112.0737792688565
 20
-149.2628960130315
 10
112.0737792688565
 20
-149.2628960130315
 10
111.8433023808933
 20
-149.2628960130315
 10
111.8433023808933
 20
-149.2628960130315
 10
111.6572672246898
 20
-149.2628960130315
 10
111.4708875589378
 20
-149.2670301276138
 10
111.2848524027343
 20
-149.2818440382003
 10
111.2848524027343
 20
-149.2818440382003
 10
111.2848524027343
 20
-149.0620469462414
 10
111.2848524027343
 20
-149.0620469462414
 10
111.472954616229
 20
-149.076860856828
 10
111.7585530319562
 20
-149.0809949714103
 10
111.8433023808933
 20
-149.0809949714103
 10
111.8433023808933
 20
-149.0809949714103
 10
112.3931396203392
 20
-149.0809949714103
 10
112.3931396203392
 20
-149.0809949714103
 10
112.4124321550566
 20
-149.0809949714103
 10
112.7297254492481
 20
-149.0809949714103
 10
112.9581352799202
 20
-149.0620469462414
 10
112.9581352799202
 20
-149.0620469462414
 10
112.9581352799202
 20
-149.2818440382003
 10
112.9581352799202
 20
-149.2818440382003
 10
112.7700330664255
 20
-149.2670301276138
 10
112.5815863433824
 20
-149.2628960130315
 10
112.3931396203392
 20
-149.2628960130315
 97
        0
 97
        1
330
98
 75
     2
 76
     1
 98
        1
 10
0.0
 20
0.0
450
        0
451
        0
460
0.0
461
0.0
452
        0
462
0.0
453
        0
470

  0
SPLINE
  5
9A
330
8A
100
AcDbEntity
  8
レイヤー 1
100
AcDbSpline
210
0.0
220
0.0
230
1.0
 70
     9
 71
     3
 72
    29
 73
    25
 74
     0
 42
0.0000000001
 43
0.0000000001
 40
0.0
 40
0.0
 40
0.0
 40
0.0
 40
1.0
 40
1.0
 40
1.0
 40
2.0
 40
2.0
 40
2.0
 40
3.0
 40
3.0
 40
3.0
 40
4.0
 40
4.0
 40
4.0
 40
5.0
 40
5.0
 40
5.0
 40
6.0
 40
6.0
 40
6.0
 40
7.0
 40
7.0
 40
7.0
 40
8.0
 40
8.0
 40
8.0
 40
8.0
 10
114.239021781336
 20
-149.4258490294838
 30
0.0
 10
114.239021781336
 20
-149.4258490294838
 30
0.0
 10
113.7546413561099
 20
-149.4258490294838
 30
0.0
 10
113.7546413561099
 20
-149.4258490294838
 30
0.0
 10
113.7270805922279
 20
-149.4258490294838
 30
0.0
 10
113.4097872980364
 20
-149.4258490294838
 30
0.0
 10
113.1982584352421
 20
-149.4509982265261
 30
0.0
 10
113.1982584352421
 20
-149.4509982265261
 30
0.0
 10
113.1982584352421
 20
-149.2205213385629
 30
0.0
 10
113.1982584352421
 20
-149.2205213385629
 30
0.0
 10
113.3570773371121
 20
-149.2439479878626
 30
0.0
 10
113.5472466078979
 20
-149.2460150451537
 30
0.0
 10
113.7546413561099
 20
-149.2460150451537
 30
0.0
 10
113.7546413561099
 20
-149.2460150451537
 30
0.0
 10
114.239021781336
 20
-149.2460150451537
 30
0.0
 10
114.239021781336
 20
-149.2460150451537
 30
0.0
 10
114.4254014470881
 20
-149.2460150451537
 30
0.0
 10
114.6114366032916
 20
-149.2439479878626
 30
0.0
 10
114.7954047022039
 20
-149.2205213385629
 30
0.0
 10
114.7954047022039
 20
-149.2205213385629
 30
0.0
 10
114.7954047022039
 20
-149.4509982265261
 30
0.0
 10
114.7954047022039
 20
-149.4509982265261
 30
0.0
 10
114.6114366032916
 20
-149.427916086775
 30
0.0
 10
114.3640787474506
 20
-149.4258490294838
 30
0.0
 10
114.239021781336
 20
-149.4258490294838
 30
0.0
  0
HATCH
  5
9B
330
8A
100
AcDbEntity
  8
レイヤー 1
 62
    18
420
        0
440
 33554687
100
AcDbHatch
 10
0.0
 20
0.0
 30
0.0
210
0.0
220
0.0
230
1.0
  2
SOLID
 70
     1
 71
     1
 91
        1
 92
        1
 93
        1
 72
     4
 94
        3
 73
     0
 74
     0
 95
       29
 96
       25
 40
0.0
 40
0.0
 40
0.0
 40
0.0
 40
1.0
 40
1.0
 40
1.0
 40
2.0
 40
2.0
 40
2.0
 40
3.0
 40
3.0
 40
3.0
 40
4.0
 40
4.0
 40
4.0
 40
5.0
 40
5.0
 40
5.0
 40
6.0
 40
6.0
 40
6.0
 40
7.0
 40
7.0
 40
7.0
 40
8.0
 40
8.0
 40
8.0
 40
8.0
 10
114.239021781336
 20
-149.4258490294838
 10
114.239021781336
 20
-149.4258490294838
 10
113.7546413561099
 20
-149.4258490294838
 10
113.7546413561099
 20
-149.4258490294838
 10
113.7270805922279
 20
-149.4258490294838
 10
113.4097872980364
 20
-149.4258490294838
 10
113.1982584352421
 20
-149.4509982265261
 10
113.1982584352421
 20
-149.4509982265261
 10
113.1982584352421
 20
-149.2205213385629
 10
113.1982584352421
 20
-149.2205213385629
 10
113.3570773371121
 20
-149.2439479878626
 10
113.5472466078979
 20
-149.2460150451537
 10
113.7546413561099
 20
-149.2460150451537
 10
113.7546413561099
 20
-149.2460150451537
 10
114.239021781336
 20
-149.2460150451537
 10
114.239021781336
 20
-149.2460150451537
 10
114.4254014470881
 20
-149.2460150451537
 10
114.6114366032916
 20
-149.2439479878626
 10
114.7954047022039
 20
-149.2205213385629
 10
114.7954047022039
 20
-149.2205213385629
 10
114.7954047022039
 20
-149.4509982265261
 10
114.7954047022039
 20
-149.4509982265261
 10
114.6114366032916
 20
-149.427916086775
 10
114.3640787474506
 20
-149.4258490294838
 10
114.239021781336
 20
-149.4258490294838
 97
        0
 97
        1
330
9A
 75
     2
 76
     1
 98
        1
 10
0.0
 20
0.0
450
        0
451
        0
460
0.0
461
0.0
452
        0
462
0.0
453
        0
470

  0
SPLINE
  5
9C
330
8A
100
AcDbEntity
  8
レイヤー 1
100
AcDbSpline
210
0.0
220
0.0
230
1.0
 70
     9
 71
     3
 72
    47
 73
    43
 74
     0
 42
0.0000000001
 43
0.0000000001
 40
0.0
 40
0.0
 40
0.0
 40
0.0
 40
1.0
 40
1.0
 40
1.0
 40
2.0
 40
2.0
 40
2.0
 40
3.0
 40
3.0
 40
3.0
 40
4.0
 40
4.0
 40
4.0
 40
5.0
 40
5.0
 40
5.0
 40
6.0
 40
6.0
 40
6.0
 40
7.0
 40
7.0
 40
7.0
 40
8.0
 40
8.0
 40
8.0
 40
9.0
 40
9.0
 40
9.0
 40
10.0
 40
10.0
 40
10.0
 40
11.0
 40
11.0
 40
11.0
 40
12.0
 40
12.0
 40
12.0
 40
13.0
 40
13.0
 40
13.0
 40
14.0
 40
14.0
 40
14.0
 40
14.0
 10
116.4593858215796
 20
-148.8312255487297
 30
0.0
 10
116.389450383229
 20
-149.1106227925834
 30
0.0
 10
116.313313773005
 20
-149.4151692334795
 30
0.0
 10
116.0001545933958
 20
-149.7472764382576
 30
0.0
 10
115.7631320240106
 20
-149.9970458609382
 30
0.0
 10
115.5178412254608
 20
-150.0962646109134
 30
0.0
 10
115.4120767940636
 20
-150.138639285382
 30
0.0
 10
115.4120767940636
 20
-150.138639285382
 30
0.0
 10
115.217428899147
 20
-149.9567382437608
 30
0.0
 10
115.217428899147
 20
-149.9567382437608
 30
0.0
 10
115.4034640553505
 20
-149.91022945471
 30
0.0
 10
115.7655435908503
 20
-149.8172118766082
 30
0.0
 10
116.0614772930332
 20
-149.3221516553778
 30
0.0
 10
116.2223632521944
 20
-149.0555012648195
 30
0.0
 10
116.2351101054898
 20
-148.8822129619114
 30
0.0
 10
116.2433783346544
 20
-148.7910901863265
 30
0.0
 10
116.2433783346544
 20
-148.7910901863265
 30
0.0
 10
115.7379828269683
 20
-148.7910901863265
 30
0.0
 10
115.7379828269683
 20
-148.7910901863265
 30
0.0
 10
115.6194715422757
 20
-148.7910901863265
 30
0.0
 10
115.1984808739781
 20
-148.8100382114954
 30
0.0
 10
115.0462076535301
 20
-148.8205457527254
 30
0.0
 10
115.0462076535301
 20
-148.8205457527254
 30
0.0
 10
115.0462076535301
 20
-148.6112562019965
 30
0.0
 10
115.0462076535301
 20
-148.6112562019965
 30
0.0
 10
115.1878010779739
 20
-148.6238308005176
 30
0.0
 10
115.4651312645365
 20
-148.6281371698742
 30
0.0
 10
115.5812309823894
 20
-148.6281371698742
 30
0.0
 10
115.5812309823894
 20
-148.6281371698742
 30
0.0
 10
115.9367648364672
 20
-148.6281371698742
 30
0.0
 10
115.9367648364672
 20
-148.6281371698742
 30
0.0
 10
115.9643256003492
 20
-148.6281371698742
 30
0.0
 10
116.1248670499618
 20
-148.6260701125831
 30
0.0
 10
116.2351101054898
 20
-148.6112562019965
 30
0.0
 10
116.292298690545
 20
-148.6048827753488
 30
0.0
 10
116.3091796584227
 20
-148.5857624954056
 30
0.0
 10
116.3322617981739
 20
-148.5625081008802
 30
0.0
 10
116.3322617981739
 20
-148.5625081008802
 30
0.0
 10
116.520708521217
 20
-148.7127142640371
 30
0.0
 10
116.520708521217
 20
-148.7127142640371
 30
0.0
 10
116.5058946106305
 20
-148.7423420852102
 30
0.0
 10
116.4952148146262
 20
-148.7614623651534
 30
0.0
 10
116.4593858215796
 20
-148.8312255487297
 30
0.0
  0
HATCH
  5
9D
330
8A
100
AcDbEntity
  8
レイヤー 1
 62
    18
420
        0
440
 33554687
100
AcDbHatch
 10
0.0
 20
0.0
 30
0.0
210
0.0
220
0.0
230
1.0
  2
SOLID
 70
     1
 71
     1
 91
        1
 92
        1
 93
        1
 72
     4
 94
        3
 73
     0
 74
     0
 95
       47
 96
       43
 40
0.0
 40
0.0
 40
0.0
 40
0.0
 40
1.0
 40
1.0
 40
1.0
 40
2.0
 40
2.0
 40
2.0
 40
3.0
 40
3.0
 40
3.0
 40
4.0
 40
4.0
 40
4.0
 40
5.0
 40
5.0
 40
5.0
 40
6.0
 40
6.0
 40
6.0
 40
7.0
 40
7.0
 40
7.0
 40
8.0
 40
8.0
 40
8.0
 40
9.0
 40
9.0
 40
9.0
 40
10.0
 40
10.0
 40
10.0
 40
11.0
 40
11.0
 40
11.0
 40
12.0
 40
12.0
 40
12.0
 40
13.0
 40
13.0
 40
13.0
 40
14.0
 40
14.0
 40
14.0
 40
14.0
 10
116.4593858215796
 20
-148.8312255487297
 10
116.389450383229
 20
-149.1106227925834
 10
116.313313773005
 20
-149.4151692334795
 10
116.0001545933958
 20
-149.7472764382576
 10
115.7631320240106
 20
-149.9970458609382
 10
115.5178412254608
 20
-150.0962646109134
 10
115.4120767940636
 20
-150.138639285382
 10
115.4120767940636
 20
-150.138639285382
 10
115.217428899147
 20
-149.9567382437608
 10
115.217428899147
 20
-149.9567382437608
 10
115.4034640553505
 20
-149.91022945471
 10
115.7655435908503
 20
-149.8172118766082
 10
116.0614772930332
 20
-149.3221516553778
 10
116.2223632521944
 20
-149.0555012648195
 10
116.2351101054898
 20
-148.8822129619114
 10
116.2433783346544
 20
-148.7910901863265
 10
116.2433783346544
 20
-148.7910901863265
 10
115.7379828269683
 20
-148.7910901863265
 10
115.7379828269683
 20
-148.7910901863265
 10
115.6194715422757
 20
-148.7910901863265
 10
115.1984808739781
 20
-148.8100382114954
 10
115.0462076535301
 20
-148.8205457527254
 10
115.0462076535301
 20
-148.8205457527254
 10
115.0462076535301
 20
-148.6112562019965
 10
115.0462076535301
 20
-148.6112562019965
 10
115.1878010779739
 20
-148.6238308005176
 10
115.4651312645365
 20
-148.6281371698742
 10
115.5812309823894
 20
-148.6281371698742
 10
115.5812309823894
 20
-148.6281371698742
 10
115.9367648364672
 20
-148.6281371698742
 10
115.9367648364672
 20
-148.6281371698742
 10
115.9643256003492
 20
-148.6281371698742
 10
116.1248670499618
 20
-148.6260701125831
 10
116.2351101054898
 20
-148.6112562019965
 10
116.292298690545
 20
-148.6048827753488
 10
116.3091796584227
 20
-148.5857624954056
 10
116.3322617981739
 20
-148.5625081008802
 10
116.3322617981739
 20
-148.5625081008802
 10
116.520708521217
 20
-148.7127142640371
 10
116.520708521217
 20
-148.7127142640371
 10
116.5058946106305
 20
-148.7423420852102
 10
116.4952148146262
 20
-148.7614623651534
 10
116.4593858215796
 20
-148.8312255487297
 97
        0
 97
        1
330
9C
 75
     2
 76
     1
 98
        1
 10
0.0
 20
0.0
450
        0
451
        0
460
0.0
461
0.0
452
        0
462
0.0
453
        0
470

  0
SPLINE
  5
9E
330
8A
100
AcDbEntity
  8
レイヤー 1
100
AcDbSpline
210
0.0
220
0.0
230
1.0
 70
    11
 71
     3
 72
    17
 73
    13
 74
     0
 42
0.0000000001
 43
0.0000000001
 40
0.0
 40
0.0
 40
0.0
 40
0.0
 40
1.0
 40
1.0
 40
1.0
 40
2.0
 40
2.0
 40
2.0
 40
3.0
 40
3.0
 40
3.0
 40
4.0
 40
4.0
 40
4.0
 40
4.0
 10
116.8497151400584
 20
-148.6133232592876
 30
0.0
 10
116.8497151400584
 20
-148.6725789016339
 30
0.0
 10
116.8962239291092
 20
-148.7190876906848
 30
0.0
 10
116.9554795714556
 20
-148.7190876906848
 30
0.0
 10
117.0147352138019
 20
-148.7190876906848
 30
0.0
 10
117.0633110601439
 20
-148.6725789016339
 30
0.0
 10
117.0633110601439
 20
-148.6133232592876
 30
0.0
 10
117.0633110601439
 20
-148.5540676169413
 30
0.0
 10
117.0147352138019
 20
-148.5054917705993
 30
0.0
 10
116.9554795714556
 20
-148.5054917705993
 30
0.0
 10
116.8962239291092
 20
-148.5054917705993
 30
0.0
 10
116.8497151400584
 20
-148.5540676169413
 30
0.0
 10
116.8497151400584
 20
-148.6133232592876
 30
0.0
  0
SPLINE
  5
9F
330
8A
100
AcDbEntity
  8
レイヤー 1
100
AcDbSpline
210
0.0
220
0.0
230
1.0
 70
     9
 71
     3
 72
    17
 73
    13
 74
     0
 42
0.0000000001
 43
0.0000000001
 40
0.0
 40
0.0
 40
0.0
 40
0.0
 40
1.0
 40
1.0
 40
1.0
 40
2.0
 40
2.0
 40
2.0
 40
3.0
 40
3.0
 40
3.0
 40
4.0
 40
4.0
 40
4.0
 40
4.0
 10
117.1645968674102
 20
-148.6133232592876
 30
0.0
 10
117.1645968674102
 20
-148.7275281746236
 30
0.0
 10
117.0715792893085
 20
-148.8227850647908
 30
0.0
 10
116.9554795714556
 20
-148.8227850647908
 30
0.0
 10
116.8411024013453
 20
-148.8227850647908
 30
0.0
 10
116.7460177659524
 20
-148.7275281746236
 30
0.0
 10
116.7460177659524
 20
-148.6133232592876
 30
0.0
 10
116.7460177659524
 20
-148.4968790318862
 30
0.0
 10
116.8411024013453
 20
-148.4038614537844
 30
0.0
 10
116.9554795714556
 20
-148.4038614537844
 30
0.0
 10
117.0695122320173
 20
-148.4038614537844
 30
0.0
 10
117.1645968674102
 20
-148.4968790318862
 30
0.0
 10
117.1645968674102
 20
-148.6133232592876
 30
0.0
  0
HATCH
  5
A0
330
8A
100
AcDbEntity
  8
レイヤー 1
 62
    18
420
        0
440
 33554687
100
AcDbHatch
 10
0.0
 20
0.0
 30
0.0
210
0.0
220
0.0
230
1.0
  2
SOLID
 70
     1
 71
     1
 91
        2
 92
        1
 93
        1
 72
     4
 94
        3
 73
     0
 74
     0
 95
       17
 96
       13
 40
0.0
 40
0.0
 40
0.0
 40
0.0
 40
1.0
 40
1.0
 40
1.0
 40
2.0
 40
2.0
 40
2.0
 40
3.0
 40
3.0
 40
3.0
 40
4.0
 40
4.0
 40
4.0
 40
4.0
 10
116.8497151400584
 20
-148.6133232592876
 10
116.8497151400584
 20
-148.6725789016339
 10
116.8962239291092
 20
-148.7190876906848
 10
116.9554795714556
 20
-148.7190876906848
 10
117.0147352138019
 20
-148.7190876906848
 10
117.0633110601439
 20
-148.6725789016339
 10
117.0633110601439
 20
-148.6133232592876
 10
117.0633110601439
 20
-148.5540676169413
 10
117.0147352138019
 20
-148.5054917705993
 10
116.9554795714556
 20
-148.5054917705993
 10
116.8962239291092
 20
-148.5054917705993
 10
116.8497151400584
 20
-148.5540676169413
 10
116.8497151400584
 20
-148.6133232592876
 97
        0
 97
        1
330
9E
 92
        1
 93
        1
 72
     4
 94
        3
 73
     0
 74
     0
 95
       17
 96
       13
 40
0.0
 40
0.0
 40
0.0
 40
0.0
 40
1.0
 40
1.0
 40
1.0
 40
2.0
 40
2.0
 40
2.0
 40
3.0
 40
3.0
 40
3.0
 40
4.0
 40
4.0
 40
4.0
 40
4.0
 10
117.1645968674102
 20
-148.6133232592876
 10
117.1645968674102
 20
-148.7275281746236
 10
117.0715792893085
 20
-148.8227850647908
 10
116.9554795714556
 20
-148.8227850647908
 10
116.8411024013453
 20
-148.8227850647908
 10
116.7460177659524
 20
-148.7275281746236
 10
116.7460177659524
 20
-148.6133232592876
 10
116.7460177659524
 20
-148.4968790318862
 10
116.8411024013453
 20
-148.4038614537844
 10
116.9554795714556
 20
-148.4038614537844
 10
117.0695122320173
 20
-148.4038614537844
 10
117.1645968674102
 20
-148.4968790318862
 10
117.1645968674102
 20
-148.6133232592876
 97
        0
 97
        1
330
9F
 75
     2
 76
     1
 98
        1
 10
0.0
 20
0.0
450
        0
451
        0
460
0.0
461
0.0
452
        0
462
0.0
453
        0
470

  0
ENDBLK
  5
8D
330
8A
100
AcDbEntity
  8
0
100
AcDbBlockEnd
  0
BLOCK
  5
A3
330
A1
100
AcDbEntity
  8
0
100
AcDbBlockBegin
  2
Block_4
 70
     0
 10
0.0
 20
0.0
 30
0.0
  3
Block_4
  1

  0
LINE
  5
A5
330
A1
100
AcDbEntity
  8
レイヤー 1
 62
    18
420
        0
370
    25
100
AcDbLine
 10
90.31661987216711
 20
-143.5884910702197
 30
0.0
 11
101.4171893508513
 21
-143.5884910702197
 31
0.0
  0
LINE
  5
A6
330
A1
100
AcDbEntity
  8
レイヤー 1
 62
    18
420
        0
370
    25
100
AcDbLine
 10
100.3175105456484
 20
-144.6884874310454
 30
0.0
 11
100.3175105456484
 21
-154.1883694109058
 31
0.0
  0
LINE
  5
A7
330
A1
100
AcDbEntity
  8
レイヤー 1
 62
    18
420
        0
370
    25
100
AcDbLine
 10
90.31732542772264
 20
-144.6884874310454
 30
0.0
 11
100.3175104900176
 21
-144.6884874310454
 31
0.0
  0
LINE
  5
A8
330
A1
100
AcDbEntity
  8
レイヤー 1
 62
    18
420
        0
370
    25
100
AcDbLine
 10
90.31732542772264
 20
-143.5884910702197
 30
0.0
 11
90.31732542772264
 21
-144.6884874310454
 31
0.0
  0
LINE
  5
A9
330
A1
100
AcDbEntity
  8
レイヤー 1
 62
    18
420
        0
370
    25
100
AcDbLine
 10
101.4171894064821
 20
-143.5884910702197
 30
0.0
 11
101.4171894064821
 21
-153.088690550072
 31
0.0
  0
LINE
  5
AA
330
A1
100
AcDbEntity
  8
レイヤー 1
 62
    18
420
        0
370
    25
100
AcDbLine
 10
117.3176595563829
 20
-153.088690550072
 30
0.0
 11
117.3176595563829
 21
-153.4886699843115
 31
0.0
  0
LINE
  5
AB
330
A1
100
AcDbEntity
  8
レイヤー 1
 62
    18
420
        0
370
    25
100
AcDbLine
 10
101.4171894064821
 20
-153.088690550072
 30
0.0
 11
117.3176595563829
 21
-153.088690550072
 31
0.0
  0
LINE
  5
AC
330
A1
100
AcDbEntity
  8
レイヤー 1
 62
    18
420
        0
370
    25
100
AcDbLine
 10
117.3176595563829
 20
-153.4886699843115
 30
0.0
 11
100.3175105456484
 21
-154.1883694109058
 31
0.0
  0
ENDBLK
  5
A4
330
A1
100
AcDbEntity
  8
0
100
AcDbBlockEnd
  0
BLOCK
  5
B9
330
B7
100
AcDbEntity
  8
0
100
AcDbBlockBegin
  2
Block_5
 70
     0
 10
0.0
 20
0.0
 30
0.0
  3
Block_5
  1

  0
INSERT
  5
BC
330
B7
100
AcDbEntity
  8
レイヤー 1
100
AcDbBlockReference
  2
Block_6
 10
0.0
 20
0.0
 30
0.0
  0
ENDBLK
  5
BA
330
B7
100
AcDbEntity
  8
0
100
AcDbBlockEnd
  0
BLOCK
  5
BD
330
BB
100
AcDbEntity
  8
0
100
AcDbBlockBegin
  2
Block_6
 70
     0
 10
0.0
 20
0.0
 30
0.0
  3
Block_6
  1

  0
SPLINE
  5
BF
330
BB
100
AcDbEntity
  8
レイヤー 1
100
AcDbSpline
210
0.0
220
0.0
230
1.0
 70
    11
 71
     3
 72
    26
 73
    22
 74
     0
 42
0.0000000001
 43
0.0000000001
 40
0.0
 40
0.0
 40
0.0
 40
0.0
 40
1.0
 40
1.0
 40
1.0
 40
2.0
 40
2.0
 40
2.0
 40
3.0
 40
3.0
 40
3.0
 40
4.0
 40
4.0
 40
4.0
 40
5.0
 40
5.0
 40
5.0
 40
6.0
 40
6.0
 40
6.0
 40
7.0
 40
7.0
 40
7.0
 40
7.0
 10
108.1797878418786
 20
-157.5421494831839
 30
0.0
 10
108.1797878418786
 20
-157.5421494831839
 30
0.0
 10
108.1797878418786
 20
-156.4379963801613
 30
0.0
 10
108.1797878418786
 20
-156.4379963801613
 30
0.0
 10
108.1797878418786
 20
-156.4379963801613
 30
0.0
 10
107.8497476943917
 20
-156.4379963801613
 30
0.0
 10
107.8497476943917
 20
-156.4379963801613
 30
0.0
 10
107.8497476943917
 20
-156.4379963801613
 30
0.0
 10
107.8497476943917
 20
-156.2898572742956
 30
0.0
 10
107.8497476943917
 20
-156.2898572742956
 30
0.0
 10
108.1818548991698
 20
-156.275043363709
 30
0.0
 10
108.2283636882207
 20
-156.1120903472567
 30
0.0
 10
108.2579915093938
 20
-155.9977131771464
 30
0.0
 10
108.2579915093938
 20
-155.9977131771464
 30
0.0
 10
108.4040635579684
 20
-155.9977131771464
 30
0.0
 10
108.4040635579684
 20
-155.9977131771464
 30
0.0
 10
108.4040635579684
 20
-155.9977131771464
 30
0.0
 10
108.4040635579684
 20
-157.5421494831839
 30
0.0
 10
108.4040635579684
 20
-157.5421494831839
 30
0.0
 10
108.4040635579684
 20
-157.5421494831839
 30
0.0
 10
108.1797878418786
 20
-157.5421494831839
 30
0.0
 10
108.1797878418786
 20
-157.5421494831839
 30
0.0
  0
HATCH
  5
C0
330
BB
100
AcDbEntity
  8
レイヤー 1
 62
    18
420
        0
440
 33554687
100
AcDbHatch
 10
0.0
 20
0.0
 30
0.0
210
0.0
220
0.0
230
1.0
  2
SOLID
 70
     1
 71
     1
 91
        1
 92
        1
 93
        1
 72
     4
 94
        3
 73
     0
 74
     0
 95
       26
 96
       22
 40
0.0
 40
0.0
 40
0.0
 40
0.0
 40
1.0
 40
1.0
 40
1.0
 40
2.0
 40
2.0
 40
2.0
 40
3.0
 40
3.0
 40
3.0
 40
4.0
 40
4.0
 40
4.0
 40
5.0
 40
5.0
 40
5.0
 40
6.0
 40
6.0
 40
6.0
 40
7.0
 40
7.0
 40
7.0
 40
7.0
 10
108.1797878418786
 20
-157.5421494831839
 10
108.1797878418786
 20
-157.5421494831839
 10
108.1797878418786
 20
-156.4379963801613
 10
108.1797878418786
 20
-156.4379963801613
 10
108.1797878418786
 20
-156.4379963801613
 10
107.8497476943917
 20
-156.4379963801613
 10
107.8497476943917
 20
-156.4379963801613
 10
107.8497476943917
 20
-156.4379963801613
 10
107.8497476943917
 20
-156.2898572742956
 10
107.8497476943917
 20
-156.2898572742956
 10
108.1818548991698
 20
-156.275043363709
 10
108.2283636882207
 20
-156.1120903472567
 10
108.2579915093938
 20
-155.9977131771464
 10
108.2579915093938
 20
-155.9977131771464
 10
108.4040635579684
 20
-155.9977131771464
 10
108.4040635579684
 20
-155.9977131771464
 10
108.4040635579684
 20
-155.9977131771464
 10
108.4040635579684
 20
-157.5421494831839
 10
108.4040635579684
 20
-157.5421494831839
 10
108.4040635579684
 20
-157.5421494831839
 10
108.1797878418786
 20
-157.5421494831839
 10
108.1797878418786
 20
-157.5421494831839
 97
        0
 97
        1
330
BF
 75
     2
 76
     1
 98
        1
 10
0.0
 20
0.0
450
        0
451
        0
460
0.0
461
0.0
452
        0
462
0.0
453
        0
470

  0
SPLINE
  5
C1
330
BB
100
AcDbEntity
  8
レイヤー 1
100
AcDbSpline
210
0.0
220
0.0
230
1.0
 70
     9
 71
     3
 72
    26
 73
    22
 74
     0
 42
0.0000000001
 43
0.0000000001
 40
0.0
 40
0.0
 40
0.0
 40
0.0
 40
1.0
 40
1.0
 40
1.0
 40
2.0
 40
2.0
 40
2.0
 40
3.0
 40
3.0
 40
3.0
 40
4.0
 40
4.0
 40
4.0
 40
5.0
 40
5.0
 40
5.0
 40
6.0
 40
6.0
 40
6.0
 40
7.0
 40
7.0
 40
7.0
 40
7.0
 10
109.3163248424626
 20
-157.5421494831839
 30
0.0
 10
109.3163248424626
 20
-157.5421494831839
 30
0.0
 10
109.0793022730774
 20
-157.5421494831839
 30
0.0
 10
109.0793022730774
 20
-157.5421494831839
 30
0.0
 10
109.1047959796682
 20
-157.233124418157
 30
0.0
 10
109.2973768172937
 20
-156.7149820571754
 30
0.0
 10
109.7035535750046
 20
-156.2092420399407
 30
0.0
 10
109.7035535750046
 20
-156.2092420399407
 30
0.0
 10
108.8657063529919
 20
-156.2092420399407
 30
0.0
 10
108.8657063529919
 20
-156.2092420399407
 30
0.0
 10
108.8657063529919
 20
-156.2092420399407
 30
0.0
 10
108.8657063529919
 20
-155.9977131771464
 30
0.0
 10
108.8657063529919
 20
-155.9977131771464
 30
0.0
 10
108.8657063529919
 20
-155.9977131771464
 30
0.0
 10
109.9405761443899
 20
-155.9977131771464
 30
0.0
 10
109.9405761443899
 20
-155.9977131771464
 30
0.0
 10
109.9405761443899
 20
-155.9977131771464
 30
0.0
 10
109.9405761443899
 20
-156.2092420399407
 30
0.0
 10
109.9405761443899
 20
-156.2092420399407
 30
0.0
 10
109.6167371687764
 20
-156.4993190797988
 30
0.0
 10
109.350086778218
 20
-157.0915309937132
 30
0.0
 10
109.3163248424626
 20
-157.5421494831839
 30
0.0
  0
HATCH
  5
C2
330
BB
100
AcDbEntity
  8
レイヤー 1
 62
    18
420
        0
440
 33554687
100
AcDbHatch
 10
0.0
 20
0.0
 30
0.0
210
0.0
220
0.0
230
1.0
  2
SOLID
 70
     1
 71
     1
 91
        1
 92
        1
 93
        1
 72
     4
 94
        3
 73
     0
 74
     0
 95
       26
 96
       22
 40
0.0
 40
0.0
 40
0.0
 40
0.0
 40
1.0
 40
1.0
 40
1.0
 40
2.0
 40
2.0
 40
2.0
 40
3.0
 40
3.0
 40
3.0
 40
4.0
 40
4.0
 40
4.0
 40
5.0
 40
5.0
 40
5.0
 40
6.0
 40
6.0
 40
6.0
 40
7.0
 40
7.0
 40
7.0
 40
7.0
 10
109.3163248424626
 20
-157.5421494831839
 10
109.3163248424626
 20
-157.5421494831839
 10
109.0793022730774
 20
-157.5421494831839
 10
109.0793022730774
 20
-157.5421494831839
 10
109.1047959796682
 20
-157.233124418157
 10
109.2973768172937
 20
-156.7149820571754
 10
109.7035535750046
 20
-156.2092420399407
 10
109.7035535750046
 20
-156.2092420399407
 10
108.8657063529919
 20
-156.2092420399407
 10
108.8657063529919
 20
-156.2092420399407
 10
108.8657063529919
 20
-156.2092420399407
 10
108.8657063529919
 20
-155.9977131771464
 10
108.8657063529919
 20
-155.9977131771464
 10
108.8657063529919
 20
-155.9977131771464
 10
109.9405761443899
 20
-155.9977131771464
 10
109.9405761443899
 20
-155.9977131771464
 10
109.9405761443899
 20
-155.9977131771464
 10
109.9405761443899
 20
-156.2092420399407
 10
109.9405761443899
 20
-156.2092420399407
 10
109.6167371687764
 20
-156.4993190797988
 10
109.350086778218
 20
-157.0915309937132
 10
109.3163248424626
 20
-157.5421494831839
 97
        0
 97
        1
330
C1
 75
     2
 76
     1
 98
        1
 10
0.0
 20
0.0
450
        0
451
        0
460
0.0
461
0.0
452
        0
462
0.0
453
        0
470

  0
ENDBLK
  5
BE
330
BB
100
AcDbEntity
  8
0
100
AcDbBlockEnd
  0
BLOCK
  5
C9
330
C7
100
AcDbEntity
  8
0
100
AcDbBlockBegin
  2
Block_7
 70
     0
 10
0.0
 20
0.0
 30
0.0
  3
Block_7
  1

  0
INSERT
  5
CC
330
C7
100
AcDbEntity
  8
レイヤー 1
100
AcDbBlockReference
  2
Block_8
 10
0.0
 20
0.0
 30
0.0
  0
ENDBLK
  5
CA
330
C7
100
AcDbEntity
  8
0
100
AcDbBlockEnd
  0
BLOCK
  5
CD
330
CB
100
AcDbEntity
  8
0
100
AcDbBlockBegin
  2
Block_8
 70
     0
 10
0.0
 20
0.0
 30
0.0
  3
Block_8
  1

  0
SPLINE
  5
CF
330
CB
100
AcDbEntity
  8
レイヤー 1
100
AcDbSpline
210
0.0
220
0.0
230
1.0
 70
    11
 71
     3
 72
    26
 73
    22
 74
     0
 42
0.0000000001
 43
0.0000000001
 40
0.0
 40
0.0
 40
0.0
 40
0.0
 40
1.0
 40
1.0
 40
1.0
 40
2.0
 40
2.0
 40
2.0
 40
3.0
 40
3.0
 40
3.0
 40
4.0
 40
4.0
 40
4.0
 40
5.0
 40
5.0
 40
5.0
 40
6.0
 40
6.0
 40
6.0
 40
7.0
 40
7.0
 40
7.0
 40
7.0
 10
87.30388723945877
 20
-142.4998290659375
 30
0.0
 10
87.30388723945877
 20
-142.4998290659375
 30
0.0
 10
86.19973413643618
 20
-142.4998290659375
 30
0.0
 10
86.19973413643618
 20
-142.4998290659375
 30
0.0
 10
86.19973413643618
 20
-142.4998290659375
 30
0.0
 10
86.19973413643618
 20
-142.8298692134244
 30
0.0
 10
86.19973413643618
 20
-142.8298692134244
 30
0.0
 10
86.19973413643618
 20
-142.8298692134244
 30
0.0
 10
86.05159503057043
 20
-142.8298692134244
 30
0.0
 10
86.05159503057043
 20
-142.8298692134244
 30
0.0
 10
86.03678111998387
 20
-142.4977620086464
 30
0.0
 10
85.87382810353155
 20
-142.4512532195955
 30
0.0
 10
85.75945093342125
 20
-142.4216253984224
 30
0.0
 10
85.75945093342125
 20
-142.4216253984224
 30
0.0
 10
85.75945093342125
 20
-142.2755533498478
 30
0.0
 10
85.75945093342125
 20
-142.2755533498478
 30
0.0
 10
85.75945093342125
 20
-142.2755533498478
 30
0.0
 10
87.30388723945877
 20
-142.2755533498478
 30
0.0
 10
87.30388723945877
 20
-142.2755533498478
 30
0.0
 10
87.30388723945877
 20
-142.2755533498478
 30
0.0
 10
87.30388723945877
 20
-142.4998290659375
 30
0.0
 10
87.30388723945877
 20
-142.4998290659375
 30
0.0
  0
HATCH
  5
D0
330
CB
100
AcDbEntity
  8
レイヤー 1
 62
    18
420
        0
440
 33554687
100
AcDbHatch
 10
0.0
 20
0.0
 30
0.0
210
0.0
220
0.0
230
1.0
  2
SOLID
 70
     1
 71
     1
 91
        1
 92
        1
 93
        1
 72
     4
 94
        3
 73
     0
 74
     0
 95
       26
 96
       22
 40
0.0
 40
0.0
 40
0.0
 40
0.0
 40
1.0
 40
1.0
 40
1.0
 40
2.0
 40
2.0
 40
2.0
 40
3.0
 40
3.0
 40
3.0
 40
4.0
 40
4.0
 40
4.0
 40
5.0
 40
5.0
 40
5.0
 40
6.0
 40
6.0
 40
6.0
 40
7.0
 40
7.0
 40
7.0
 40
7.0
 10
87.30388723945877
 20
-142.4998290659375
 10
87.30388723945877
 20
-142.4998290659375
 10
86.19973413643618
 20
-142.4998290659375
 10
86.19973413643618
 20
-142.4998290659375
 10
86.19973413643618
 20
-142.4998290659375
 10
86.19973413643618
 20
-142.8298692134244
 10
86.19973413643618
 20
-142.8298692134244
 10
86.19973413643618
 20
-142.8298692134244
 10
86.05159503057043
 20
-142.8298692134244
 10
86.05159503057043
 20
-142.8298692134244
 10
86.03678111998387
 20
-142.4977620086464
 10
85.87382810353155
 20
-142.4512532195955
 10
85.75945093342125
 20
-142.4216253984224
 10
85.75945093342125
 20
-142.4216253984224
 10
85.75945093342125
 20
-142.2755533498478
 10
85.75945093342125
 20
-142.2755533498478
 10
85.75945093342125
 20
-142.2755533498478
 10
87.30388723945877
 20
-142.2755533498478
 10
87.30388723945877
 20
-142.2755533498478
 10
87.30388723945877
 20
-142.2755533498478
 10
87.30388723945877
 20
-142.4998290659375
 10
87.30388723945877
 20
-142.4998290659375
 97
        0
 97
        1
330
CF
 75
     2
 76
     1
 98
        1
 10
0.0
 20
0.0
450
        0
451
        0
460
0.0
461
0.0
452
        0
462
0.0
453
        0
470

  0
SPLINE
  5
D1
330
CB
100
AcDbEntity
  8
レイヤー 1
100
AcDbSpline
210
0.0
220
0.0
230
1.0
 70
    11
 71
     3
 72
    17
 73
    13
 74
     0
 42
0.0000000001
 43
0.0000000001
 40
0.0
 40
0.0
 40
0.0
 40
0.0
 40
1.0
 40
1.0
 40
1.0
 40
2.0
 40
2.0
 40
2.0
 40
3.0
 40
3.0
 40
3.0
 40
4.0
 40
4.0
 40
4.0
 40
4.0
 10
87.30388723945877
 20
-141.7143472953006
 30
0.0
 10
87.30388723945877
 20
-141.7143472953006
 30
0.0
 10
87.05205075948699
 20
-141.7143472953006
 30
0.0
 10
87.05205075948699
 20
-141.7143472953006
 30
0.0
 10
87.05205075948699
 20
-141.7143472953006
 30
0.0
 10
87.05205075948699
 20
-141.4625108153288
 30
0.0
 10
87.05205075948699
 20
-141.4625108153288
 30
0.0
 10
87.05205075948699
 20
-141.4625108153288
 30
0.0
 10
87.30388723945877
 20
-141.4625108153288
 30
0.0
 10
87.30388723945877
 20
-141.4625108153288
 30
0.0
 10
87.30388723945877
 20
-141.4625108153288
 30
0.0
 10
87.30388723945877
 20
-141.7143472953006
 30
0.0
 10
87.30388723945877
 20
-141.7143472953006
 30
0.0
  0
HATCH
  5
D2
330
CB
100
AcDbEntity
  8
レイヤー 1
 62
    18
420
        0
440
 33554687
100
AcDbHatch
 10
0.0
 20
0.0
 30
0.0
210
0.0
220
0.0
230
1.0
  2
SOLID
 70
     1
 71
     1
 91
        1
 92
        1
 93
        1
 72
     4
 94
        3
 73
     0
 74
     0
 95
       17
 96
       13
 40
0.0
 40
0.0
 40
0.0
 40
0.0
 40
1.0
 40
1.0
 40
1.0
 40
2.0
 40
2.0
 40
2.0
 40
3.0
 40
3.0
 40
3.0
 40
4.0
 40
4.0
 40
4.0
 40
4.0
 10
87.30388723945877
 20
-141.7143472953006
 10
87.30388723945877
 20
-141.7143472953006
 10
87.05205075948699
 20
-141.7143472953006
 10
87.05205075948699
 20
-141.7143472953006
 10
87.05205075948699
 20
-141.7143472953006
 10
87.05205075948699
 20
-141.4625108153288
 10
87.05205075948699
 20
-141.4625108153288
 10
87.05205075948699
 20
-141.4625108153288
 10
87.30388723945877
 20
-141.4625108153288
 10
87.30388723945877
 20
-141.4625108153288
 10
87.30388723945877
 20
-141.4625108153288
 10
87.30388723945877
 20
-141.7143472953006
 10
87.30388723945877
 20
-141.7143472953006
 97
        0
 97
        1
330
D1
 75
     2
 76
     1
 98
        1
 10
0.0
 20
0.0
450
        0
451
        0
460
0.0
461
0.0
452
        0
462
0.0
453
        0
470

  0
SPLINE
  5
D3
330
CB
100
AcDbEntity
  8
レイヤー 1
100
AcDbSpline
210
0.0
220
0.0
230
1.0
 70
    11
 71
     3
 72
    26
 73
    22
 74
     0
 42
0.0000000001
 43
0.0000000001
 40
0.0
 40
0.0
 40
0.0
 40
0.0
 40
1.0
 40
1.0
 40
1.0
 40
2.0
 40
2.0
 40
2.0
 40
3.0
 40
3.0
 40
3.0
 40
4.0
 40
4.0
 40
4.0
 40
5.0
 40
5.0
 40
5.0
 40
6.0
 40
6.0
 40
6.0
 40
7.0
 40
7.0
 40
7.0
 40
7.0
 10
87.30388723945877
 20
-140.7748697564729
 30
0.0
 10
87.30388723945877
 20
-140.7748697564729
 30
0.0
 10
86.19973413643618
 20
-140.7748697564729
 30
0.0
 10
86.19973413643618
 20
-140.7748697564729
 30
0.0
 10
86.19973413643618
 20
-140.7748697564729
 30
0.0
 10
86.19973413643618
 20
-141.1049099039598
 30
0.0
 10
86.19973413643618
 20
-141.1049099039598
 30
0.0
 10
86.19973413643618
 20
-141.1049099039598
 30
0.0
 10
86.05159503057043
 20
-141.1049099039598
 30
0.0
 10
86.05159503057043
 20
-141.1049099039598
 30
0.0
 10
86.03678111998387
 20
-140.7728026991818
 30
0.0
 10
85.87382810353155
 20
-140.7262939101309
 30
0.0
 10
85.75945093342125
 20
-140.6966660889578
 30
0.0
 10
85.75945093342125
 20
-140.6966660889578
 30
0.0
 10
85.75945093342125
 20
-140.5505940403832
 30
0.0
 10
85.75945093342125
 20
-140.5505940403832
 30
0.0
 10
85.75945093342125
 20
-140.5505940403832
 30
0.0
 10
87.30388723945877
 20
-140.5505940403832
 30
0.0
 10
87.30388723945877
 20
-140.5505940403832
 30
0.0
 10
87.30388723945877
 20
-140.5505940403832
 30
0.0
 10
87.30388723945877
 20
-140.7748697564729
 30
0.0
 10
87.30388723945877
 20
-140.7748697564729
 30
0.0
  0
HATCH
  5
D4
330
CB
100
AcDbEntity
  8
レイヤー 1
 62
    18
420
        0
440
 33554687
100
AcDbHatch
 10
0.0
 20
0.0
 30
0.0
210
0.0
220
0.0
230
1.0
  2
SOLID
 70
     1
 71
     1
 91
        1
 92
        1
 93
        1
 72
     4
 94
        3
 73
     0
 74
     0
 95
       26
 96
       22
 40
0.0
 40
0.0
 40
0.0
 40
0.0
 40
1.0
 40
1.0
 40
1.0
 40
2.0
 40
2.0
 40
2.0
 40
3.0
 40
3.0
 40
3.0
 40
4.0
 40
4.0
 40
4.0
 40
5.0
 40
5.0
 40
5.0
 40
6.0
 40
6.0
 40
6.0
 40
7.0
 40
7.0
 40
7.0
 40
7.0
 10
87.30388723945877
 20
-140.7748697564729
 10
87.30388723945877
 20
-140.7748697564729
 10
86.19973413643618
 20
-140.7748697564729
 10
86.19973413643618
 20
-140.7748697564729
 10
86.19973413643618
 20
-140.7748697564729
 10
86.19973413643618
 20
-141.1049099039598
 10
86.19973413643618
 20
-141.1049099039598
 10
86.19973413643618
 20
-141.1049099039598
 10
86.05159503057043
 20
-141.1049099039598
 10
86.05159503057043
 20
-141.1049099039598
 10
86.03678111998387
 20
-140.7728026991818
 10
85.87382810353155
 20
-140.7262939101309
 10
85.75945093342125
 20
-140.6966660889578
 10
85.75945093342125
 20
-140.6966660889578
 10
85.75945093342125
 20
-140.5505940403832
 10
85.75945093342125
 20
-140.5505940403832
 10
85.75945093342125
 20
-140.5505940403832
 10
87.30388723945877
 20
-140.5505940403832
 10
87.30388723945877
 20
-140.5505940403832
 10
87.30388723945877
 20
-140.5505940403832
 10
87.30388723945877
 20
-140.7748697564729
 10
87.30388723945877
 20
-140.7748697564729
 97
        0
 97
        1
330
D3
 75
     2
 76
     1
 98
        1
 10
0.0
 20
0.0
450
        0
451
        0
460
0.0
461
0.0
452
        0
462
0.0
453
        0
470

  0
ENDBLK
  5
CE
330
CB
100
AcDbEntity
  8
0
100
AcDbBlockEnd
  0
BLOCK
  5
DA
330
D8
100
AcDbEntity
  8
0
100
AcDbBlockBegin
  2
Block_9
 70
     0
 10
0.0
 20
0.0
 30
0.0
  3
Block_9
  1

  0
INSERT
  5
DD
330
D8
100
AcDbEntity
  8
レイヤー 1
100
AcDbBlockReference
  2
Block_10
 10
0.0
 20
0.0
 30
0.0
  0
ENDBLK
  5
DB
330
D8
100
AcDbEntity
  8
0
100
AcDbBlockEnd
  0
BLOCK
  5
DE
330
DC
100
AcDbEntity
  8
0
100
AcDbBlockBegin
  2
Block_10
 70
     0
 10
0.0
 20
0.0
 30
0.0
  3
Block_10
  1

  0
SPLINE
  5
E0
330
DC
100
AcDbEntity
  8
レイヤー 1
100
AcDbSpline
210
0.0
220
0.0
230
1.0
 70
    11
 71
     3
 72
    26
 73
    22
 74
     0
 42
0.0000000001
 43
0.0000000001
 40
0.0
 40
0.0
 40
0.0
 40
0.0
 40
1.0
 40
1.0
 40
1.0
 40
2.0
 40
2.0
 40
2.0
 40
3.0
 40
3.0
 40
3.0
 40
4.0
 40
4.0
 40
4.0
 40
5.0
 40
5.0
 40
5.0
 40
6.0
 40
6.0
 40
6.0
 40
7.0
 40
7.0
 40
7.0
 40
7.0
 10
94.67966441860438
 20
-157.5424939927324
 30
0.0
 10
94.67966441860438
 20
-157.5424939927324
 30
0.0
 10
94.67966441860438
 20
-156.4383408897098
 30
0.0
 10
94.67966441860438
 20
-156.4383408897098
 30
0.0
 10
94.67966441860438
 20
-156.4383408897098
 30
0.0
 10
94.34962427111747
 20
-156.4383408897098
 30
0.0
 10
94.34962427111747
 20
-156.4383408897098
 30
0.0
 10
94.34962427111747
 20
-156.4383408897098
 30
0.0
 10
94.34962427111747
 20
-156.2902017838441
 30
0.0
 10
94.34962427111747
 20
-156.2902017838441
 30
0.0
 10
94.68173147589554
 20
-156.2753878732575
 30
0.0
 10
94.72824026494642
 20
-156.1124348568052
 30
0.0
 10
94.75786808611957
 20
-155.9980576866949
 30
0.0
 10
94.75786808611957
 20
-155.9980576866949
 30
0.0
 10
94.90394013469416
 20
-155.9980576866949
 30
0.0
 10
94.90394013469416
 20
-155.9980576866949
 30
0.0
 10
94.90394013469416
 20
-155.9980576866949
 30
0.0
 10
94.90394013469416
 20
-157.5424939927324
 30
0.0
 10
94.90394013469416
 20
-157.5424939927324
 30
0.0
 10
94.90394013469416
 20
-157.5424939927324
 30
0.0
 10
94.67966441860438
 20
-157.5424939927324
 30
0.0
 10
94.67966441860438
 20
-157.5424939927324
 30
0.0
  0
HATCH
  5
E1
330
DC
100
AcDbEntity
  8
レイヤー 1
 62
    18
420
        0
440
 33554687
100
AcDbHatch
 10
0.0
 20
0.0
 30
0.0
210
0.0
220
0.0
230
1.0
  2
SOLID
 70
     1
 71
     1
 91
        1
 92
        1
 93
        1
 72
     4
 94
        3
 73
     0
 74
     0
 95
       26
 96
       22
 40
0.0
 40
0.0
 40
0.0
 40
0.0
 40
1.0
 40
1.0
 40
1.0
 40
2.0
 40
2.0
 40
2.0
 40
3.0
 40
3.0
 40
3.0
 40
4.0
 40
4.0
 40
4.0
 40
5.0
 40
5.0
 40
5.0
 40
6.0
 40
6.0
 40
6.0
 40
7.0
 40
7.0
 40
7.0
 40
7.0
 10
94.67966441860438
 20
-157.5424939927324
 10
94.67966441860438
 20
-157.5424939927324
 10
94.67966441860438
 20
-156.4383408897098
 10
94.67966441860438
 20
-156.4383408897098
 10
94.67966441860438
 20
-156.4383408897098
 10
94.34962427111747
 20
-156.4383408897098
 10
94.34962427111747
 20
-156.4383408897098
 10
94.34962427111747
 20
-156.4383408897098
 10
94.34962427111747
 20
-156.2902017838441
 10
94.34962427111747
 20
-156.2902017838441
 10
94.68173147589554
 20
-156.2753878732575
 10
94.72824026494642
 20
-156.1124348568052
 10
94.75786808611957
 20
-155.9980576866949
 10
94.75786808611957
 20
-155.9980576866949
 10
94.90394013469416
 20
-155.9980576866949
 10
94.90394013469416
 20
-155.9980576866949
 10
94.90394013469416
 20
-155.9980576866949
 10
94.90394013469416
 20
-157.5424939927324
 10
94.90394013469416
 20
-157.5424939927324
 10
94.90394013469416
 20
-157.5424939927324
 10
94.67966441860438
 20
-157.5424939927324
 10
94.67966441860438
 20
-157.5424939927324
 97
        0
 97
        1
330
E0
 75
     2
 76
     1
 98
        1
 10
0.0
 20
0.0
450
        0
451
        0
460
0.0
461
0.0
452
        0
462
0.0
453
        0
470

  0
SPLINE
  5
E2
330
DC
100
AcDbEntity
  8
レイヤー 1
100
AcDbSpline
210
0.0
220
0.0
230
1.0
 70
     9
 71
     3
 72
    17
 73
    13
 74
     0
 42
0.0000000001
 43
0.0000000001
 40
0.0
 40
0.0
 40
0.0
 40
0.0
 40
1.0
 40
1.0
 40
1.0
 40
2.0
 40
2.0
 40
2.0
 40
3.0
 40
3.0
 40
3.0
 40
4.0
 40
4.0
 40
4.0
 40
4.0
 10
95.90508488270776
 20
-156.1420626779783
 30
0.0
 10
95.65548771480141
 20
-156.1420626779783
 30
0.0
 10
95.60897892575054
 20
-156.4255940364144
 30
0.0
 10
95.60897892575054
 20
-156.7704480944879
 30
0.0
 10
95.60897892575054
 20
-157.0898084459706
 30
0.0
 10
95.6449801735714
 20
-157.398489001449
 30
0.0
 10
95.90508488270776
 20
-157.398489001449
 30
0.0
 10
96.15261499332296
 20
-157.398489001449
 30
0.0
 10
96.20136309443925
 20
-157.1173692098526
 30
0.0
 10
96.20136309443925
 20
-156.7704480944879
 30
0.0
 10
96.20136309443925
 20
-156.4507432334567
 30
0.0
 10
96.16312253455298
 20
-156.1420626779783
 30
0.0
 10
95.90508488270776
 20
-156.1420626779783
 30
0.0
  0
SPLINE
  5
E3
330
DC
100
AcDbEntity
  8
レイヤー 1
100
AcDbSpline
210
0.0
220
0.0
230
1.0
 70
     9
 71
     3
 72
    29
 73
    25
 74
     0
 42
0.0000000001
 43
0.0000000001
 40
0.0
 40
0.0
 40
0.0
 40
0.0
 40
1.0
 40
1.0
 40
1.0
 40
2.0
 40
2.0
 40
2.0
 40
3.0
 40
3.0
 40
3.0
 40
4.0
 40
4.0
 40
4.0
 40
5.0
 40
5.0
 40
5.0
 40
6.0
 40
6.0
 40
6.0
 40
7.0
 40
7.0
 40
7.0
 40
8.0
 40
8.0
 40
8.0
 40
8.0
 10
96.30282115647986
 20
-157.3647270656935
 30
0.0
 10
96.19498966779154
 20
-157.5741888711967
 30
0.0
 10
96.0215291101092
 20
-157.5931368963656
 30
0.0
 10
95.90508488270776
 20
-157.5931368963656
 30
0.0
 10
95.74437117832086
 20
-157.5931368963656
 30
0.0
 10
95.60260549910282
 20
-157.5466281073147
 30
0.0
 10
95.50734860893568
 20
-157.3647270656935
 30
0.0
 10
95.4038234896039
 20
-157.1700791707769
 30
0.0
 10
95.38470320966077
 20
-156.9330566013917
 30
0.0
 10
95.38470320966077
 20
-156.7704480944879
 30
0.0
 10
95.38470320966077
 20
-156.6264431032045
 30
0.0
 10
95.40158417753849
 20
-156.3746066232327
 30
0.0
 10
95.50734860893568
 20
-156.1758246137338
 30
0.0
 10
95.61535235239825
 20
-155.9729084896526
 30
0.0
 10
95.77606605678516
 20
-155.9494818403529
 30
0.0
 10
95.90508488270776
 20
-155.9494818403529
 30
0.0
 10
96.06373152980353
 20
-155.9494818403529
 30
0.0
 10
96.2075642663127
 20
-155.9939235721126
 30
0.0
 10
96.30282115647986
 20
-156.1758246137338
 30
0.0
 10
96.40221216122931
 20
-156.3684054513593
 30
0.0
 10
96.42546655575475
 20
-156.5968152820313
 30
0.0
 10
96.42546655575475
 20
-156.7704480944879
 30
0.0
 10
96.42546655575475
 20
-156.9416693401049
 30
0.0
 10
96.40445147329472
 20
-157.172146228068
 30
0.0
 10
96.30282115647986
 20
-157.3647270656935
 30
0.0
  0
HATCH
  5
E4
330
DC
100
AcDbEntity
  8
レイヤー 1
 62
    18
420
        0
440
 33554687
100
AcDbHatch
 10
0.0
 20
0.0
 30
0.0
210
0.0
220
0.0
230
1.0
  2
SOLID
 70
     1
 71
     1
 91
        2
 92
        1
 93
        1
 72
     4
 94
        3
 73
     0
 74
     0
 95
       17
 96
       13
 40
0.0
 40
0.0
 40
0.0
 40
0.0
 40
1.0
 40
1.0
 40
1.0
 40
2.0
 40
2.0
 40
2.0
 40
3.0
 40
3.0
 40
3.0
 40
4.0
 40
4.0
 40
4.0
 40
4.0
 10
95.90508488270776
 20
-156.1420626779783
 10
95.65548771480141
 20
-156.1420626779783
 10
95.60897892575054
 20
-156.4255940364144
 10
95.60897892575054
 20
-156.7704480944879
 10
95.60897892575054
 20
-157.0898084459706
 10
95.6449801735714
 20
-157.398489001449
 10
95.90508488270776
 20
-157.398489001449
 10
96.15261499332296
 20
-157.398489001449
 10
96.20136309443925
 20
-157.1173692098526
 10
96.20136309443925
 20
-156.7704480944879
 10
96.20136309443925
 20
-156.4507432334567
 10
96.16312253455298
 20
-156.1420626779783
 10
95.90508488270776
 20
-156.1420626779783
 97
        0
 97
        1
330
E2
 92
        1
 93
        1
 72
     4
 94
        3
 73
     0
 74
     0
 95
       29
 96
       25
 40
0.0
 40
0.0
 40
0.0
 40
0.0
 40
1.0
 40
1.0
 40
1.0
 40
2.0
 40
2.0
 40
2.0
 40
3.0
 40
3.0
 40
3.0
 40
4.0
 40
4.0
 40
4.0
 40
5.0
 40
5.0
 40
5.0
 40
6.0
 40
6.0
 40
6.0
 40
7.0
 40
7.0
 40
7.0
 40
8.0
 40
8.0
 40
8.0
 40
8.0
 10
96.30282115647986
 20
-157.3647270656935
 10
96.19498966779154
 20
-157.5741888711967
 10
96.0215291101092
 20
-157.5931368963656
 10
95.90508488270776
 20
-157.5931368963656
 10
95.74437117832086
 20
-157.5931368963656
 10
95.60260549910282
 20
-157.5466281073147
 10
95.50734860893568
 20
-157.3647270656935
 10
95.4038234896039
 20
-157.1700791707769
 10
95.38470320966077
 20
-156.9330566013917
 10
95.38470320966077
 20
-156.7704480944879
 10
95.38470320966077
 20
-156.6264431032045
 10
95.40158417753849
 20
-156.3746066232327
 10
95.50734860893568
 20
-156.1758246137338
 10
95.61535235239825
 20
-155.9729084896526
 10
95.77606605678516
 20
-155.9494818403529
 10
95.90508488270776
 20
-155.9494818403529
 10
96.06373152980353
 20
-155.9494818403529
 10
96.2075642663127
 20
-155.9939235721126
 10
96.30282115647986
 20
-156.1758246137338
 10
96.40221216122931
 20
-156.3684054513593
 10
96.42546655575475
 20
-156.5968152820313
 10
96.42546655575475
 20
-156.7704480944879
 10
96.42546655575475
 20
-156.9416693401049
 10
96.40445147329472
 20
-157.172146228068
 10
96.30282115647986
 20
-157.3647270656935
 97
        0
 97
        1
330
E3
 75
     2
 76
     1
 98
        1
 10
0.0
 20
0.0
450
        0
451
        0
460
0.0
461
0.0
452
        0
462
0.0
453
        0
470

  0
ENDBLK
  5
DF
330
DC
100
AcDbEntity
  8
0
100
AcDbBlockEnd
  0
BLOCK
  5
EA
330
E8
100
AcDbEntity
  8
0
100
AcDbBlockBegin
  2
Block_11
 70
     0
 10
0.0
 20
0.0
 30
0.0
  3
Block_11
  1

  0
INSERT
  5
ED
330
E8
100
AcDbEntity
  8
レイヤー 1
100
AcDbBlockReference
  2
Block_12
 10
0.0
 20
0.0
 30
0.0
  0
ENDBLK
  5
EB
330
E8
100
AcDbEntity
  8
0
100
AcDbBlockEnd
  0
BLOCK
  5
EE
330
EC
100
AcDbEntity
  8
0
100
AcDbBlockBegin
  2
Block_12
 70
     0
 10
0.0
 20
0.0
 30
0.0
  3
Block_12
  1

  0
SPLINE
  5
F0
330
EC
100
AcDbEntity
  8
レイヤー 1
100
AcDbSpline
210
0.0
220
0.0
230
1.0
 70
     9
 71
     3
 72
    17
 73
    13
 74
     0
 42
0.0000000001
 43
0.0000000001
 40
0.0
 40
0.0
 40
0.0
 40
0.0
 40
1.0
 40
1.0
 40
1.0
 40
2.0
 40
2.0
 40
2.0
 40
3.0
 40
3.0
 40
3.0
 40
4.0
 40
4.0
 40
4.0
 40
4.0
 10
119.2712727566405
 20
-149.2036403706852
 30
0.0
 10
119.2712727566405
 20
-149.3221516553778
 30
0.0
 10
119.3284613416957
 20
-149.4978515251255
 30
0.0
 10
119.6140597574228
 20
-149.4978515251255
 30
0.0
 10
119.8404025308038
 20
-149.4978515251255
 30
0.0
 10
119.9354871661967
 20
-149.3579806484244
 30
0.0
 10
119.9354871661967
 20
-149.222588395854
 30
0.0
 10
119.9354871661967
 20
-148.9604166294265
 30
0.0
 10
119.7260253606935
 20
-148.9221760695403
 30
0.0
 10
119.609581133292
 20
-148.9221760695403
 30
0.0
 10
119.4342257730928
 20
-148.9221760695403
 30
0.0
 10
119.2712727566405
 20
-149.0176052144817
 30
0.0
 10
119.2712727566405
 20
-149.2036403706852
 30
0.0
  0
SPLINE
  5
F1
330
EC
100
AcDbEntity
  8
レイヤー 1
100
AcDbSpline
210
0.0
220
0.0
230
1.0
 70
     9
 71
     3
 72
    32
 73
    28
 74
     0
 42
0.0000000001
 43
0.0000000001
 40
0.0
 40
0.0
 40
0.0
 40
0.0
 40
1.0
 40
1.0
 40
1.0
 40
2.0
 40
2.0
 40
2.0
 40
3.0
 40
3.0
 40
3.0
 40
4.0
 40
4.0
 40
4.0
 40
5.0
 40
5.0
 40
5.0
 40
6.0
 40
6.0
 40
6.0
 40
7.0
 40
7.0
 40
7.0
 40
8.0
 40
8.0
 40
8.0
 40
9.0
 40
9.0
 40
9.0
 40
9.0
 10
120.7223469750277
 20
-149.2439479878626
 30
0.0
 10
120.7223469750277
 20
-149.4172362907707
 30
0.0
 10
120.6527560462257
 20
-149.662871598869
 30
0.0
 10
120.3206488414476
 20
-149.7007676492067
 30
0.0
 10
120.3206488414476
 20
-149.7007676492067
 30
0.0
 10
120.3206488414476
 20
-149.4871717291212
 30
0.0
 10
120.3206488414476
 20
-149.4871717291212
 30
0.0
 10
120.3799044837939
 20
-149.476491933117
 30
0.0
 10
120.5276990801111
 20
-149.4447970546527
 30
0.0
 10
120.5276990801111
 20
-149.2418809305715
 30
0.0
 10
120.5276990801111
 20
-148.9497368334223
 30
0.0
 10
120.1976589326242
 20
-148.9118407830845
 30
0.0
 10
119.9926757512518
 20
-148.8990939297891
 30
0.0
 10
120.0729464760581
 20
-148.9900444505997
 30
0.0
 10
120.1301350611133
 20
-149.0575683221106
 30
0.0
 10
120.1301350611133
 20
-149.2394693637318
 30
0.0
 10
120.1301350611133
 20
-149.4193033480618
 30
0.0
 10
120.0243706297161
 20
-149.7217827316668
 30
0.0
 10
119.6181938720052
 20
-149.7217827316668
 30
0.0
 10
119.2988335205225
 20
-149.7217827316668
 30
0.0
 10
119.078691919015
 20
-149.5230007221678
 30
0.0
 10
119.078691919015
 20
-149.2057074279763
 30
0.0
 10
119.078691919015
 20
-148.6916991815771
 30
0.0
 10
119.6330077825917
 20
-148.6810193855728
 30
0.0
 10
119.8466037026772
 20
-148.6810193855728
 30
0.0
 10
120.0770805906404
 20
-148.6810193855728
 30
0.0
 10
120.7223469750277
 20
-148.7003119202902
 30
0.0
 10
120.7223469750277
 20
-149.2439479878626
 30
0.0
  0
HATCH
  5
F2
330
EC
100
AcDbEntity
  8
レイヤー 1
 62
    18
420
        0
440
 33554687
100
AcDbHatch
 10
0.0
 20
0.0
 30
0.0
210
0.0
220
0.0
230
1.0
  2
SOLID
 70
     1
 71
     1
 91
        2
 92
        1
 93
        1
 72
     4
 94
        3
 73
     0
 74
     0
 95
       17
 96
       13
 40
0.0
 40
0.0
 40
0.0
 40
0.0
 40
1.0
 40
1.0
 40
1.0
 40
2.0
 40
2.0
 40
2.0
 40
3.0
 40
3.0
 40
3.0
 40
4.0
 40
4.0
 40
4.0
 40
4.0
 10
119.2712727566405
 20
-149.2036403706852
 10
119.2712727566405
 20
-149.3221516553778
 10
119.3284613416957
 20
-149.4978515251255
 10
119.6140597574228
 20
-149.4978515251255
 10
119.8404025308038
 20
-149.4978515251255
 10
119.9354871661967
 20
-149.3579806484244
 10
119.9354871661967
 20
-149.222588395854
 10
119.9354871661967
 20
-148.9604166294265
 10
119.7260253606935
 20
-148.9221760695403
 10
119.609581133292
 20
-148.9221760695403
 10
119.4342257730928
 20
-148.9221760695403
 10
119.2712727566405
 20
-149.0176052144817
 10
119.2712727566405
 20
-149.2036403706852
 97
        0
 97
        1
330
F0
 92
        1
 93
        1
 72
     4
 94
        3
 73
     0
 74
     0
 95
       32
 96
       28
 40
0.0
 40
0.0
 40
0.0
 40
0.0
 40
1.0
 40
1.0
 40
1.0
 40
2.0
 40
2.0
 40
2.0
 40
3.0
 40
3.0
 40
3.0
 40
4.0
 40
4.0
 40
4.0
 40
5.0
 40
5.0
 40
5.0
 40
6.0
 40
6.0
 40
6.0
 40
7.0
 40
7.0
 40
7.0
 40
8.0
 40
8.0
 40
8.0
 40
9.0
 40
9.0
 40
9.0
 40
9.0
 10
120.7223469750277
 20
-149.2439479878626
 10
120.7223469750277
 20
-149.4172362907707
 10
120.6527560462257
 20
-149.662871598869
 10
120.3206488414476
 20
-149.7007676492067
 10
120.3206488414476
 20
-149.7007676492067
 10
120.3206488414476
 20
-149.4871717291212
 10
120.3206488414476
 20
-149.4871717291212
 10
120.3799044837939
 20
-149.476491933117
 10
120.5276990801111
 20
-149.4447970546527
 10
120.5276990801111
 20
-149.2418809305715
 10
120.5276990801111
 20
-148.9497368334223
 10
120.1976589326242
 20
-148.9118407830845
 10
119.9926757512518
 20
-148.8990939297891
 10
120.0729464760581
 20
-148.9900444505997
 10
120.1301350611133
 20
-149.0575683221106
 10
120.1301350611133
 20
-149.2394693637318
 10
120.1301350611133
 20
-149.4193033480618
 10
120.0243706297161
 20
-149.7217827316668
 10
119.6181938720052
 20
-149.7217827316668
 10
119.2988335205225
 20
-149.7217827316668
 10
119.078691919015
 20
-149.5230007221678
 10
119.078691919015
 20
-149.2057074279763
 10
119.078691919015
 20
-148.6916991815771
 10
119.6330077825917
 20
-148.6810193855728
 10
119.8466037026772
 20
-148.6810193855728
 10
120.0770805906404
 20
-148.6810193855728
 10
120.7223469750277
 20
-148.7003119202902
 10
120.7223469750277
 20
-149.2439479878626
 97
        0
 97
        1
330
F1
 75
     2
 76
     1
 98
        1
 10
0.0
 20
0.0
450
        0
451
        0
460
0.0
461
0.0
452
        0
462
0.0
453
        0
470

  0
SPLINE
  5
F3
330
EC
100
AcDbEntity
  8
レイヤー 1
100
AcDbSpline
210
0.0
220
0.0
230
1.0
 70
    11
 71
     3
 72
    17
 73
    13
 74
     0
 42
0.0000000001
 43
0.0000000001
 40
0.0
 40
0.0
 40
0.0
 40
0.0
 40
1.0
 40
1.0
 40
1.0
 40
2.0
 40
2.0
 40
2.0
 40
3.0
 40
3.0
 40
3.0
 40
4.0
 40
4.0
 40
4.0
 40
4.0
 10
120.6717040713946
 20
-148.4646673890991
 30
0.0
 10
120.6717040713946
 20
-148.4646673890991
 30
0.0
 10
120.4198675914228
 20
-148.4646673890991
 30
0.0
 10
120.4198675914228
 20
-148.4646673890991
 30
0.0
 10
120.4198675914228
 20
-148.4646673890991
 30
0.0
 10
120.4198675914228
 20
-148.2128309091273
 30
0.0
 10
120.4198675914228
 20
-148.2128309091273
 30
0.0
 10
120.4198675914228
 20
-148.2128309091273
 30
0.0
 10
120.6717040713946
 20
-148.2128309091273
 30
0.0
 10
120.6717040713946
 20
-148.2128309091273
 30
0.0
 10
120.6717040713946
 20
-148.2128309091273
 30
0.0
 10
120.6717040713946
 20
-148.4646673890991
 30
0.0
 10
120.6717040713946
 20
-148.4646673890991
 30
0.0
  0
HATCH
  5
F4
330
EC
100
AcDbEntity
  8
レイヤー 1
 62
    18
420
        0
440
 33554687
100
AcDbHatch
 10
0.0
 20
0.0
 30
0.0
210
0.0
220
0.0
230
1.0
  2
SOLID
 70
     1
 71
     1
 91
        1
 92
        1
 93
        1
 72
     4
 94
        3
 73
     0
 74
     0
 95
       17
 96
       13
 40
0.0
 40
0.0
 40
0.0
 40
0.0
 40
1.0
 40
1.0
 40
1.0
 40
2.0
 40
2.0
 40
2.0
 40
3.0
 40
3.0
 40
3.0
 40
4.0
 40
4.0
 40
4.0
 40
4.0
 10
120.6717040713946
 20
-148.4646673890991
 10
120.6717040713946
 20
-148.4646673890991
 10
120.4198675914228
 20
-148.4646673890991
 10
120.4198675914228
 20
-148.4646673890991
 10
120.4198675914228
 20
-148.4646673890991
 10
120.4198675914228
 20
-148.2128309091273
 10
120.4198675914228
 20
-148.2128309091273
 10
120.4198675914228
 20
-148.2128309091273
 10
120.6717040713946
 20
-148.2128309091273
 10
120.6717040713946
 20
-148.2128309091273
 10
120.6717040713946
 20
-148.2128309091273
 10
120.6717040713946
 20
-148.4646673890991
 10
120.6717040713946
 20
-148.4646673890991
 97
        0
 97
        1
330
F3
 75
     2
 76
     1
 98
        1
 10
0.0
 20
0.0
450
        0
451
        0
460
0.0
461
0.0
452
        0
462
0.0
453
        0
470

  0
SPLINE
  5
F5
330
EC
100
AcDbEntity
  8
レイヤー 1
100
AcDbSpline
210
0.0
220
0.0
230
1.0
 70
     9
 71
     3
 72
    53
 73
    49
 74
     0
 42
0.0000000001
 43
0.0000000001
 40
0.0
 40
0.0
 40
0.0
 40
0.0
 40
1.0
 40
1.0
 40
1.0
 40
2.0
 40
2.0
 40
2.0
 40
3.0
 40
3.0
 40
3.0
 40
4.0
 40
4.0
 40
4.0
 40
5.0
 40
5.0
 40
5.0
 40
6.0
 40
6.0
 40
6.0
 40
7.0
 40
7.0
 40
7.0
 40
8.0
 40
8.0
 40
8.0
 40
9.0
 40
9.0
 40
9.0
 40
10.0
 40
10.0
 40
10.0
 40
11.0
 40
11.0
 40
11.0
 40
12.0
 40
12.0
 40
12.0
 40
13.0
 40
13.0
 40
13.0
 40
14.0
 40
14.0
 40
14.0
 40
15.0
 40
15.0
 40
15.0
 40
16.0
 40
16.0
 40
16.0
 40
16.0
 10
120.7223469750277
 20
-147.4955620290983
 30
0.0
 10
120.7223469750277
 20
-147.5737656966135
 30
0.0
 10
120.70546600715
 20
-147.6753960134284
 30
0.0
 10
120.6420762502214
 20
-147.7770263302432
 30
0.0
 10
120.5321777042419
 20
-147.9503146331513
 30
0.0
 10
120.4009195662539
 20
-147.9716742251598
 30
0.0
 10
120.2930880775656
 20
-147.9906222503287
 30
0.0
 10
120.2930880775656
 20
-147.9906222503287
 30
0.0
 10
120.2930880775656
 20
-147.7684135915301
 30
0.0
 10
120.2930880775656
 20
-147.7684135915301
 30
0.0
 10
120.4918700870645
 20
-147.7136365733146
 30
0.0
 10
120.5214979082377
 20
-147.5865125499089
 30
0.0
 10
120.5214979082377
 20
-147.4934949718072
 30
0.0
 10
120.5214979082377
 20
-147.3539686046545
 30
0.0
 10
120.421934648714
 20
-147.2016953842065
 30
0.0
 10
120.1893907034596
 20
-147.2016953842065
 30
0.0
 10
119.9334201089055
 20
-147.2016953842065
 30
0.0
 10
119.8634846705549
 20
-147.3815293685365
 30
0.0
 10
119.8634846705549
 20
-147.5021077105203
 30
0.0
 10
119.8634846705549
 20
-147.5338025889846
 30
0.0
 10
119.8634846705549
 20
-147.6753960134284
 30
0.0
 10
119.9926757512518
 20
-147.7642794769478
 30
0.0
 10
119.9926757512518
 20
-147.7642794769478
 30
0.0
 10
119.9737277260829
 20
-147.9399793466955
 30
0.0
 10
119.9737277260829
 20
-147.9399793466955
 30
0.0
 10
119.9737277260829
 20
-147.9399793466955
 30
0.0
 10
119.127267765357
 20
-147.8194010047118
 30
0.0
 10
119.127267765357
 20
-147.8194010047118
 30
0.0
 10
119.127267765357
 20
-147.8194010047118
 30
0.0
 10
119.127267765357
 20
-147.0408094250453
 30
0.0
 10
119.127267765357
 20
-147.0408094250453
 30
0.0
 10
119.127267765357
 20
-147.0408094250453
 30
0.0
 10
119.3219156602737
 20
-147.0408094250453
 30
0.0
 10
119.3219156602737
 20
-147.0408094250453
 30
0.0
 10
119.3219156602737
 20
-147.0408094250453
 30
0.0
 10
119.3219156602737
 20
-147.6564479882595
 30
0.0
 10
119.3219156602737
 20
-147.6564479882595
 30
0.0
 10
119.3219156602737
 20
-147.6564479882595
 30
0.0
 10
119.7449733858624
 20
-147.7219048024792
 30
0.0
 10
119.7449733858624
 20
-147.7219048024792
 30
0.0
 10
119.7112114501069
 20
-147.6605821028418
 30
0.0
 10
119.6709038329295
 20
-147.5782443207443
 30
0.0
 10
119.6709038329295
 20
-147.4597330360517
 30
0.0
 10
119.6709038329295
 20
-147.2058294987888
 30
0.0
 10
119.8572834986815
 20
-146.9688069294036
 30
0.0
 10
120.1704426782907
 20
-146.9688069294036
 30
0.0
 10
120.4877359724822
 20
-146.9688069294036
 30
0.0
 10
120.7223469750277
 20
-147.1930826454934
 30
0.0
 10
120.7223469750277
 20
-147.4955620290983
 30
0.0
  0
HATCH
  5
F6
330
EC
100
AcDbEntity
  8
レイヤー 1
 62
    18
420
        0
440
 33554687
100
AcDbHatch
 10
0.0
 20
0.0
 30
0.0
210
0.0
220
0.0
230
1.0
  2
SOLID
 70
     1
 71
     1
 91
        1
 92
        1
 93
        1
 72
     4
 94
        3
 73
     0
 74
     0
 95
       53
 96
       49
 40
0.0
 40
0.0
 40
0.0
 40
0.0
 40
1.0
 40
1.0
 40
1.0
 40
2.0
 40
2.0
 40
2.0
 40
3.0
 40
3.0
 40
3.0
 40
4.0
 40
4.0
 40
4.0
 40
5.0
 40
5.0
 40
5.0
 40
6.0
 40
6.0
 40
6.0
 40
7.0
 40
7.0
 40
7.0
 40
8.0
 40
8.0
 40
8.0
 40
9.0
 40
9.0
 40
9.0
 40
10.0
 40
10.0
 40
10.0
 40
11.0
 40
11.0
 40
11.0
 40
12.0
 40
12.0
 40
12.0
 40
13.0
 40
13.0
 40
13.0
 40
14.0
 40
14.0
 40
14.0
 40
15.0
 40
15.0
 40
15.0
 40
16.0
 40
16.0
 40
16.0
 40
16.0
 10
120.7223469750277
 20
-147.4955620290983
 10
120.7223469750277
 20
-147.5737656966135
 10
120.70546600715
 20
-147.6753960134284
 10
120.6420762502214
 20
-147.7770263302432
 10
120.5321777042419
 20
-147.9503146331513
 10
120.4009195662539
 20
-147.9716742251598
 10
120.2930880775656
 20
-147.9906222503287
 10
120.2930880775656
 20
-147.9906222503287
 10
120.2930880775656
 20
-147.7684135915301
 10
120.2930880775656
 20
-147.7684135915301
 10
120.4918700870645
 20
-147.7136365733146
 10
120.5214979082377
 20
-147.5865125499089
 10
120.5214979082377
 20
-147.4934949718072
 10
120.5214979082377
 20
-147.3539686046545
 10
120.421934648714
 20
-147.2016953842065
 10
120.1893907034596
 20
-147.2016953842065
 10
119.9334201089055
 20
-147.2016953842065
 10
119.8634846705549
 20
-147.3815293685365
 10
119.8634846705549
 20
-147.5021077105203
 10
119.8634846705549
 20
-147.5338025889846
 10
119.8634846705549
 20
-147.6753960134284
 10
119.9926757512518
 20
-147.7642794769478
 10
119.9926757512518
 20
-147.7642794769478
 10
119.9737277260829
 20
-147.9399793466955
 10
119.9737277260829
 20
-147.9399793466955
 10
119.9737277260829
 20
-147.9399793466955
 10
119.127267765357
 20
-147.8194010047118
 10
119.127267765357
 20
-147.8194010047118
 10
119.127267765357
 20
-147.8194010047118
 10
119.127267765357
 20
-147.0408094250453
 10
119.127267765357
 20
-147.0408094250453
 10
119.127267765357
 20
-147.0408094250453
 10
119.3219156602737
 20
-147.0408094250453
 10
119.3219156602737
 20
-147.0408094250453
 10
119.3219156602737
 20
-147.0408094250453
 10
119.3219156602737
 20
-147.6564479882595
 10
119.3219156602737
 20
-147.6564479882595
 10
119.3219156602737
 20
-147.6564479882595
 10
119.7449733858624
 20
-147.7219048024792
 10
119.7449733858624
 20
-147.7219048024792
 10
119.7112114501069
 20
-147.6605821028418
 10
119.6709038329295
 20
-147.5782443207443
 10
119.6709038329295
 20
-147.4597330360517
 10
119.6709038329295
 20
-147.2058294987888
 10
119.8572834986815
 20
-146.9688069294036
 10
120.1704426782907
 20
-146.9688069294036
 10
120.4877359724822
 20
-146.9688069294036
 10
120.7223469750277
 20
-147.1930826454934
 10
120.7223469750277
 20
-147.4955620290983
 97
        0
 97
        1
330
F5
 75
     2
 76
     1
 98
        1
 10
0.0
 20
0.0
450
        0
451
        0
460
0.0
461
0.0
452
        0
462
0.0
453
        0
470

  0
ENDBLK
  5
EF
330
EC
100
AcDbEntity
  8
0
100
AcDbBlockEnd
  0
BLOCK
  5
FC
330
FA
100
AcDbEntity
  8
0
100
AcDbBlockBegin
  2
Block_13
 70
     0
 10
0.0
 20
0.0
 30
0.0
  3
Block_13
  1

  0
INSERT
  5
FF
330
FA
100
AcDbEntity
  8
レイヤー 1
100
AcDbBlockReference
  2
Block_14
 10
0.0
 20
0.0
 30
0.0
  0
ENDBLK
  5
FD
330
FA
100
AcDbEntity
  8
0
100
AcDbBlockEnd
  0
BLOCK
  5
100
330
FE
100
AcDbEntity
  8
0
100
AcDbBlockBegin
  2
Block_14
 70
     0
 10
0.0
 20
0.0
 30
0.0
  3
Block_14
  1

  0
SPLINE
  5
102
330
FE
100
AcDbEntity
  8
レイヤー 1
100
AcDbSpline
210
0.0
220
0.0
230
1.0
 70
     9
 71
     3
 72
    17
 73
    13
 74
     0
 42
0.0000000001
 43
0.0000000001
 40
0.0
 40
0.0
 40
0.0
 40
0.0
 40
1.0
 40
1.0
 40
1.0
 40
2.0
 40
2.0
 40
2.0
 40
3.0
 40
3.0
 40
3.0
 40
4.0
 40
4.0
 40
4.0
 40
4.0
 10
122.6226616446915
 20
-154.3530245924881
 30
0.0
 10
122.6226616446915
 20
-154.6027940151687
 30
0.0
 10
122.9061930031276
 20
-154.6493028042196
 30
0.0
 10
123.2510470612011
 20
-154.6493028042196
 30
0.0
 10
123.5704074126838
 20
-154.6493028042196
 30
0.0
 10
123.8790879681622
 20
-154.6131293016245
 30
0.0
 10
123.8790879681622
 20
-154.3530245924881
 30
0.0
 10
123.8790879681622
 20
-154.1053222270986
 30
0.0
 10
123.5979681765658
 20
-154.0567463807566
 30
0.0
 10
123.2510470612011
 20
-154.0567463807566
 30
0.0
 10
122.9313422001699
 20
-154.0567463807566
 30
0.0
 10
122.6226616446915
 20
-154.0949869406429
 30
0.0
 10
122.6226616446915
 20
-154.3530245924881
 30
0.0
  0
SPLINE
  5
103
330
FE
100
AcDbEntity
  8
レイヤー 1
100
AcDbSpline
210
0.0
220
0.0
230
1.0
 70
     9
 71
     3
 72
    29
 73
    25
 74
     0
 42
0.0000000001
 43
0.0000000001
 40
0.0
 40
0.0
 40
0.0
 40
0.0
 40
1.0
 40
1.0
 40
1.0
 40
2.0
 40
2.0
 40
2.0
 40
3.0
 40
3.0
 40
3.0
 40
4.0
 40
4.0
 40
4.0
 40
5.0
 40
5.0
 40
5.0
 40
6.0
 40
6.0
 40
6.0
 40
7.0
 40
7.0
 40
7.0
 40
8.0
 40
8.0
 40
8.0
 40
8.0
 10
123.8453260324067
 20
-153.9551160639417
 30
0.0
 10
124.0547878379099
 20
-154.0632920621786
 30
0.0
 10
124.0737358630788
 20
-154.2365803650867
 30
0.0
 10
124.0737358630788
 20
-154.3530245924881
 30
0.0
 10
124.0737358630788
 20
-154.5139105516493
 30
0.0
 10
124.0272270740279
 20
-154.6555039760931
 30
0.0
 10
123.8453260324067
 20
-154.7505886114859
 30
0.0
 10
123.6506781374901
 20
-154.854285985592
 30
0.0
 10
123.4140000776534
 20
-154.8735785203094
 30
0.0
 10
123.2510470612011
 20
-154.8735785203094
 30
0.0
 10
123.1070420699177
 20
-154.8735785203094
 30
0.0
 10
122.8552055899459
 20
-154.8563530428831
 30
0.0
 10
122.656423580447
 20
-154.7505886114859
 30
0.0
 10
122.4535074563658
 20
-154.6427571227976
 30
0.0
 10
122.4300808070661
 20
-154.4818711636365
 30
0.0
 10
122.4300808070661
 20
-154.3530245924881
 30
0.0
 10
122.4300808070661
 20
-154.1942056906181
 30
0.0
 10
122.4745225388258
 20
-154.0505452088832
 30
0.0
 10
122.656423580447
 20
-153.9551160639417
 30
0.0
 10
122.8490044180725
 20
-153.8558973139666
 30
0.0
 10
123.0774142487445
 20
-153.8324706646669
 30
0.0
 10
123.2510470612011
 20
-153.8324706646669
 30
0.0
 10
123.422268306818
 20
-153.8324706646669
 30
0.0
 10
123.6527451947812
 20
-153.8538302566754
 30
0.0
 10
123.8453260324067
 20
-153.9551160639417
 30
0.0
  0
HATCH
  5
104
330
FE
100
AcDbEntity
  8
レイヤー 1
 62
    18
420
        0
440
 33554687
100
AcDbHatch
 10
0.0
 20
0.0
 30
0.0
210
0.0
220
0.0
230
1.0
  2
SOLID
 70
     1
 71
     1
 91
        2
 92
        1
 93
        1
 72
     4
 94
        3
 73
     0
 74
     0
 95
       17
 96
       13
 40
0.0
 40
0.0
 40
0.0
 40
0.0
 40
1.0
 40
1.0
 40
1.0
 40
2.0
 40
2.0
 40
2.0
 40
3.0
 40
3.0
 40
3.0
 40
4.0
 40
4.0
 40
4.0
 40
4.0
 10
122.6226616446915
 20
-154.3530245924881
 10
122.6226616446915
 20
-154.6027940151687
 10
122.9061930031276
 20
-154.6493028042196
 10
123.2510470612011
 20
-154.6493028042196
 10
123.5704074126838
 20
-154.6493028042196
 10
123.8790879681622
 20
-154.6131293016245
 10
123.8790879681622
 20
-154.3530245924881
 10
123.8790879681622
 20
-154.1053222270986
 10
123.5979681765658
 20
-154.0567463807566
 10
123.2510470612011
 20
-154.0567463807566
 10
122.9313422001699
 20
-154.0567463807566
 10
122.6226616446915
 20
-154.0949869406429
 10
122.6226616446915
 20
-154.3530245924881
 97
        0
 97
        1
330
102
 92
        1
 93
        1
 72
     4
 94
        3
 73
     0
 74
     0
 95
       29
 96
       25
 40
0.0
 40
0.0
 40
0.0
 40
0.0
 40
1.0
 40
1.0
 40
1.0
 40
2.0
 40
2.0
 40
2.0
 40
3.0
 40
3.0
 40
3.0
 40
4.0
 40
4.0
 40
4.0
 40
5.0
 40
5.0
 40
5.0
 40
6.0
 40
6.0
 40
6.0
 40
7.0
 40
7.0
 40
7.0
 40
8.0
 40
8.0
 40
8.0
 40
8.0
 10
123.8453260324067
 20
-153.9551160639417
 10
124.0547878379099
 20
-154.0632920621786
 10
124.0737358630788
 20
-154.2365803650867
 10
124.0737358630788
 20
-154.3530245924881
 10
124.0737358630788
 20
-154.5139105516493
 10
124.0272270740279
 20
-154.6555039760931
 10
123.8453260324067
 20
-154.7505886114859
 10
123.6506781374901
 20
-154.854285985592
 10
123.4140000776534
 20
-154.8735785203094
 10
123.2510470612011
 20
-154.8735785203094
 10
123.1070420699177
 20
-154.8735785203094
 10
122.8552055899459
 20
-154.8563530428831
 10
122.656423580447
 20
-154.7505886114859
 10
122.4535074563658
 20
-154.6427571227976
 10
122.4300808070661
 20
-154.4818711636365
 10
122.4300808070661
 20
-154.3530245924881
 10
122.4300808070661
 20
-154.1942056906181
 10
122.4745225388258
 20
-154.0505452088832
 10
122.656423580447
 20
-153.9551160639417
 10
122.8490044180725
 20
-153.8558973139666
 10
123.0774142487445
 20
-153.8324706646669
 10
123.2510470612011
 20
-153.8324706646669
 10
123.422268306818
 20
-153.8324706646669
 10
123.6527451947812
 20
-153.8538302566754
 10
123.8453260324067
 20
-153.9551160639417
 97
        0
 97
        1
330
103
 75
     2
 76
     1
 98
        1
 10
0.0
 20
0.0
450
        0
451
        0
460
0.0
461
0.0
452
        0
462
0.0
453
        0
470

  0
SPLINE
  5
105
330
FE
100
AcDbEntity
  8
レイヤー 1
100
AcDbSpline
210
0.0
220
0.0
230
1.0
 70
    11
 71
     3
 72
    17
 73
    13
 74
     0
 42
0.0000000001
 43
0.0000000001
 40
0.0
 40
0.0
 40
0.0
 40
0.0
 40
1.0
 40
1.0
 40
1.0
 40
2.0
 40
2.0
 40
2.0
 40
3.0
 40
3.0
 40
3.0
 40
4.0
 40
4.0
 40
4.0
 40
4.0
 10
124.0230929594456
 20
-153.6161186681932
 30
0.0
 10
124.0230929594456
 20
-153.6161186681932
 30
0.0
 10
123.7712564794738
 20
-153.6161186681932
 30
0.0
 10
123.7712564794738
 20
-153.6161186681932
 30
0.0
 10
123.7712564794738
 20
-153.6161186681932
 30
0.0
 10
123.7712564794738
 20
-153.3642821882214
 30
0.0
 10
123.7712564794738
 20
-153.3642821882214
 30
0.0
 10
123.7712564794738
 20
-153.3642821882214
 30
0.0
 10
124.0230929594456
 20
-153.3642821882214
 30
0.0
 10
124.0230929594456
 20
-153.3642821882214
 30
0.0
 10
124.0230929594456
 20
-153.3642821882214
 30
0.0
 10
124.0230929594456
 20
-153.6161186681932
 30
0.0
 10
124.0230929594456
 20
-153.6161186681932
 30
0.0
  0
HATCH
  5
106
330
FE
100
AcDbEntity
  8
レイヤー 1
 62
    18
420
        0
440
 33554687
100
AcDbHatch
 10
0.0
 20
0.0
 30
0.0
210
0.0
220
0.0
230
1.0
  2
SOLID
 70
     1
 71
     1
 91
        1
 92
        1
 93
        1
 72
     4
 94
        3
 73
     0
 74
     0
 95
       17
 96
       13
 40
0.0
 40
0.0
 40
0.0
 40
0.0
 40
1.0
 40
1.0
 40
1.0
 40
2.0
 40
2.0
 40
2.0
 40
3.0
 40
3.0
 40
3.0
 40
4.0
 40
4.0
 40
4.0
 40
4.0
 10
124.0230929594456
 20
-153.6161186681932
 10
124.0230929594456
 20
-153.6161186681932
 10
123.7712564794738
 20
-153.6161186681932
 10
123.7712564794738
 20
-153.6161186681932
 10
123.7712564794738
 20
-153.6161186681932
 10
123.7712564794738
 20
-153.3642821882214
 10
123.7712564794738
 20
-153.3642821882214
 10
123.7712564794738
 20
-153.3642821882214
 10
124.0230929594456
 20
-153.3642821882214
 10
124.0230929594456
 20
-153.3642821882214
 10
124.0230929594456
 20
-153.3642821882214
 10
124.0230929594456
 20
-153.6161186681932
 10
124.0230929594456
 20
-153.6161186681932
 97
        0
 97
        1
330
105
 75
     2
 76
     1
 98
        1
 10
0.0
 20
0.0
450
        0
451
        0
460
0.0
461
0.0
452
        0
462
0.0
453
        0
470

  0
SPLINE
  5
107
330
FE
100
AcDbEntity
  8
レイヤー 1
100
AcDbSpline
210
0.0
220
0.0
230
1.0
 70
    11
 71
     3
 72
    14
 73
    10
 74
     0
 42
0.0000000001
 43
0.0000000001
 40
0.0
 40
0.0
 40
0.0
 40
0.0
 40
1.0
 40
1.0
 40
1.0
 40
2.0
 40
2.0
 40
2.0
 40
3.0
 40
3.0
 40
3.0
 40
3.0
 10
122.8214436541904
 20
-152.5136881129132
 30
0.0
 10
122.8214436541904
 20
-152.5136881129132
 30
0.0
 10
123.477389834582
 20
-152.9708522838059
 30
0.0
 10
123.477389834582
 20
-152.9708522838059
 30
0.0
 10
123.477389834582
 20
-152.9708522838059
 30
0.0
 10
123.477389834582
 20
-152.5136881129132
 30
0.0
 10
123.477389834582
 20
-152.5136881129132
 30
0.0
 10
123.477389834582
 20
-152.5136881129132
 30
0.0
 10
122.8214436541904
 20
-152.5136881129132
 30
0.0
 10
122.8214436541904
 20
-152.5136881129132
 30
0.0
  0
SPLINE
  5
108
330
FE
100
AcDbEntity
  8
レイヤー 1
100
AcDbSpline
210
0.0
220
0.0
230
1.0
 70
    11
 71
     3
 72
    38
 73
    34
 74
     0
 42
0.0000000001
 43
0.0000000001
 40
0.0
 40
0.0
 40
0.0
 40
0.0
 40
1.0
 40
1.0
 40
1.0
 40
2.0
 40
2.0
 40
2.0
 40
3.0
 40
3.0
 40
3.0
 40
4.0
 40
4.0
 40
4.0
 40
5.0
 40
5.0
 40
5.0
 40
6.0
 40
6.0
 40
6.0
 40
7.0
 40
7.0
 40
7.0
 40
8.0
 40
8.0
 40
8.0
 40
9.0
 40
9.0
 40
9.0
 40
10.0
 40
10.0
 40
10.0
 40
11.0
 40
11.0
 40
11.0
 40
11.0
 10
123.6761718440809
 20
-152.2959580782455
 30
0.0
 10
123.6761718440809
 20
-152.2959580782455
 30
0.0
 10
124.0230929594456
 20
-152.2959580782455
 30
0.0
 10
124.0230929594456
 20
-152.2959580782455
 30
0.0
 10
124.0230929594456
 20
-152.2959580782455
 30
0.0
 10
124.0230929594456
 20
-152.5136881129132
 30
0.0
 10
124.0230929594456
 20
-152.5136881129132
 30
0.0
 10
124.0230929594456
 20
-152.5136881129132
 30
0.0
 10
123.6761718440809
 20
-152.5136881129132
 30
0.0
 10
123.6761718440809
 20
-152.5136881129132
 30
0.0
 10
123.6761718440809
 20
-152.5136881129132
 30
0.0
 10
123.6761718440809
 20
-153.1696342933048
 30
0.0
 10
123.6761718440809
 20
-153.1696342933048
 30
0.0
 10
123.6761718440809
 20
-153.1696342933048
 30
0.0
 10
123.4518961279912
 20
-153.1696342933048
 30
0.0
 10
123.4518961279912
 20
-153.1696342933048
 30
0.0
 10
123.4518961279912
 20
-153.1696342933048
 30
0.0
 10
122.4786566534081
 20
-152.4906059731621
 30
0.0
 10
122.4786566534081
 20
-152.4906059731621
 30
0.0
 10
122.4786566534081
 20
-152.4906059731621
 30
0.0
 10
122.4786566534081
 20
-152.2959580782455
 30
0.0
 10
122.4786566534081
 20
-152.2959580782455
 30
0.0
 10
122.4786566534081
 20
-152.2959580782455
 30
0.0
 10
123.477389834582
 20
-152.2959580782455
 30
0.0
 10
123.477389834582
 20
-152.2959580782455
 30
0.0
 10
123.477389834582
 20
-152.2959580782455
 30
0.0
 10
123.477389834582
 20
-152.0885633300334
 30
0.0
 10
123.477389834582
 20
-152.0885633300334
 30
0.0
 10
123.477389834582
 20
-152.0885633300334
 30
0.0
 10
123.6761718440809
 20
-152.0885633300334
 30
0.0
 10
123.6761718440809
 20
-152.0885633300334
 30
0.0
 10
123.6761718440809
 20
-152.0885633300334
 30
0.0
 10
123.6761718440809
 20
-152.2959580782455
 30
0.0
 10
123.6761718440809
 20
-152.2959580782455
 30
0.0
  0
HATCH
  5
109
330
FE
100
AcDbEntity
  8
レイヤー 1
 62
    18
420
        0
440
 33554687
100
AcDbHatch
 10
0.0
 20
0.0
 30
0.0
210
0.0
220
0.0
230
1.0
  2
SOLID
 70
     1
 71
     1
 91
        2
 92
        1
 93
        1
 72
     4
 94
        3
 73
     0
 74
     0
 95
       14
 96
       10
 40
0.0
 40
0.0
 40
0.0
 40
0.0
 40
1.0
 40
1.0
 40
1.0
 40
2.0
 40
2.0
 40
2.0
 40
3.0
 40
3.0
 40
3.0
 40
3.0
 10
122.8214436541904
 20
-152.5136881129132
 10
122.8214436541904
 20
-152.5136881129132
 10
123.477389834582
 20
-152.9708522838059
 10
123.477389834582
 20
-152.9708522838059
 10
123.477389834582
 20
-152.9708522838059
 10
123.477389834582
 20
-152.5136881129132
 10
123.477389834582
 20
-152.5136881129132
 10
123.477389834582
 20
-152.5136881129132
 10
122.8214436541904
 20
-152.5136881129132
 10
122.8214436541904
 20
-152.5136881129132
 97
        0
 97
        1
330
107
 92
        1
 93
        1
 72
     4
 94
        3
 73
     0
 74
     0
 95
       38
 96
       34
 40
0.0
 40
0.0
 40
0.0
 40
0.0
 40
1.0
 40
1.0
 40
1.0
 40
2.0
 40
2.0
 40
2.0
 40
3.0
 40
3.0
 40
3.0
 40
4.0
 40
4.0
 40
4.0
 40
5.0
 40
5.0
 40
5.0
 40
6.0
 40
6.0
 40
6.0
 40
7.0
 40
7.0
 40
7.0
 40
8.0
 40
8.0
 40
8.0
 40
9.0
 40
9.0
 40
9.0
 40
10.0
 40
10.0
 40
10.0
 40
11.0
 40
11.0
 40
11.0
 40
11.0
 10
123.6761718440809
 20
-152.2959580782455
 10
123.6761718440809
 20
-152.2959580782455
 10
124.0230929594456
 20
-152.2959580782455
 10
124.0230929594456
 20
-152.2959580782455
 10
124.0230929594456
 20
-152.2959580782455
 10
124.0230929594456
 20
-152.5136881129132
 10
124.0230929594456
 20
-152.5136881129132
 10
124.0230929594456
 20
-152.5136881129132
 10
123.6761718440809
 20
-152.5136881129132
 10
123.6761718440809
 20
-152.5136881129132
 10
123.6761718440809
 20
-152.5136881129132
 10
123.6761718440809
 20
-153.1696342933048
 10
123.6761718440809
 20
-153.1696342933048
 10
123.6761718440809
 20
-153.1696342933048
 10
123.4518961279912
 20
-153.1696342933048
 10
123.4518961279912
 20
-153.1696342933048
 10
123.4518961279912
 20
-153.1696342933048
 10
122.4786566534081
 20
-152.4906059731621
 10
122.4786566534081
 20
-152.4906059731621
 10
122.4786566534081
 20
-152.4906059731621
 10
122.4786566534081
 20
-152.2959580782455
 10
122.4786566534081
 20
-152.2959580782455
 10
122.4786566534081
 20
-152.2959580782455
 10
123.477389834582
 20
-152.2959580782455
 10
123.477389834582
 20
-152.2959580782455
 10
123.477389834582
 20
-152.2959580782455
 10
123.477389834582
 20
-152.0885633300334
 10
123.477389834582
 20
-152.0885633300334
 10
123.477389834582
 20
-152.0885633300334
 10
123.6761718440809
 20
-152.0885633300334
 10
123.6761718440809
 20
-152.0885633300334
 10
123.6761718440809
 20
-152.0885633300334
 10
123.6761718440809
 20
-152.2959580782455
 10
123.6761718440809
 20
-152.2959580782455
 97
        0
 97
        1
330
108
 75
     2
 76
     1
 98
        1
 10
0.0
 20
0.0
450
        0
451
        0
460
0.0
461
0.0
452
        0
462
0.0
453
        0
470

  0
ENDBLK
  5
101
330
FE
100
AcDbEntity
  8
0
100
AcDbBlockEnd
  0
ENDSEC
  0
SECTION
  2
ENTITIES
  0
INSERT
  5
7A
330
70
100
AcDbEntity
  8
レイヤー 1
100
AcDbBlockReference
  2
Block_0
 10
0.0
 20
0.0
 30
0.0
  0
INSERT
  5
A2
330
70
100
AcDbEntity
  8
レイヤー 1
100
AcDbBlockReference
  2
Block_4
 10
0.0
 20
0.0
 30
0.0
  0
SPLINE
  5
AD
330
70
100
AcDbEntity
  8
レイヤー 1
 62
    18
420
        0
370
     9
100
AcDbSpline
210
0.0
220
0.0
230
1.0
 70
     9
 71
     3
 72
    17
 73
    13
 74
     0
 42
0.0000000001
 43
0.0000000001
 40
0.0
 40
0.0
 40
0.0
 40
0.0
 40
1.0
 40
1.0
 40
1.0
 40
2.0
 40
2.0
 40
2.0
 40
3.0
 40
3.0
 40
3.0
 40
4.0
 40
4.0
 40
4.0
 40
4.0
 10
121.417325285125
 20
-143.5884910702197
 30
0.0
 10
121.417325285125
 20
-143.5333519049601
 30
0.0
 10
121.3725577862671
 20
-143.4885844061019
 30
0.0
 10
121.3174226978258
 20
-143.4885844061019
 30
0.0
 10
121.2623147335241
 20
-143.4885844061019
 30
0.0
 10
121.2175119568894
 20
-143.5333519049601
 30
0.0
 10
121.2175119568894
 20
-143.5884910702197
 30
0.0
 10
121.2175119568894
 20
-143.6439414009527
 30
0.0
 10
121.2623147335241
 20
-143.6887441787194
 30
0.0
 10
121.3174226978258
 20
-143.6887441787194
 30
0.0
 10
121.3725577862671
 20
-143.6887441787194
 30
0.0
 10
121.417325285125
 20
-143.6439414009527
 30
0.0
 10
121.417325285125
 20
-143.5884910702197
 30
0.0
  0
SPLINE
  5
AE
330
70
100
AcDbEntity
  8
レイヤー 1
 62
    18
420
        0
370
     9
100
AcDbSpline
210
0.0
220
0.0
230
1.0
 70
     9
 71
     3
 72
    17
 73
    13
 74
     0
 42
0.0000000001
 43
0.0000000001
 40
0.0
 40
0.0
 40
0.0
 40
0.0
 40
1.0
 40
1.0
 40
1.0
 40
2.0
 40
2.0
 40
2.0
 40
3.0
 40
3.0
 40
3.0
 40
4.0
 40
4.0
 40
4.0
 40
4.0
 10
121.417325285125
 20
-153.088690550072
 30
0.0
 10
121.417325285125
 20
-153.0331986070433
 30
0.0
 10
121.3725577862671
 20
-152.9884311081854
 30
0.0
 10
121.3174226978258
 20
-152.9884311081854
 30
0.0
 10
121.2623147335241
 20
-152.9884311081854
 30
0.0
 10
121.2175119568894
 20
-153.0331986070433
 30
0.0
 10
121.2175119568894
 20
-153.088690550072
 30
0.0
 10
121.2175119568894
 20
-153.1437944375551
 30
0.0
 10
121.2623147335241
 20
-153.1885972141898
 30
0.0
 10
121.3174226978258
 20
-153.1885972141898
 30
0.0
 10
121.3725577862671
 20
-153.1885972141898
 30
0.0
 10
121.417325285125
 20
-153.1437944375551
 30
0.0
 10
121.417325285125
 20
-153.088690550072
 30
0.0
  0
SPLINE
  5
AF
330
70
100
AcDbEntity
  8
レイヤー 1
 62
    18
420
        0
370
     9
100
AcDbSpline
210
0.0
220
0.0
230
1.0
 70
     9
 71
     3
 72
    17
 73
    13
 74
     0
 42
0.0000000001
 43
0.0000000001
 40
0.0
 40
0.0
 40
0.0
 40
0.0
 40
1.0
 40
1.0
 40
1.0
 40
2.0
 40
2.0
 40
2.0
 40
3.0
 40
3.0
 40
3.0
 40
4.0
 40
4.0
 40
4.0
 40
4.0
 10
121.417325285125
 20
-153.4886699843115
 30
0.0
 10
121.417325285125
 20
-153.4331719540609
 30
0.0
 10
121.3725577862671
 20
-153.3884105424255
 30
0.0
 10
121.3174226978258
 20
-153.3884105424255
 30
0.0
 10
121.2623147335241
 20
-153.3884105424255
 30
0.0
 10
121.2175119568894
 20
-153.4331719540609
 30
0.0
 10
121.2175119568894
 20
-153.4886699843115
 30
0.0
 10
121.2175119568894
 20
-153.5437738717952
 30
0.0
 10
121.2623147335241
 20
-153.5885766484299
 30
0.0
 10
121.3174226978258
 20
-153.5885766484299
 30
0.0
 10
121.3725577862671
 20
-153.5885766484299
 30
0.0
 10
121.417325285125
 20
-153.5437738717952
 30
0.0
 10
121.417325285125
 20
-153.4886699843115
 30
0.0
  0
SPLINE
  5
B0
330
70
100
AcDbEntity
  8
レイヤー 1
 62
    18
420
        0
370
     9
100
AcDbSpline
210
0.0
220
0.0
230
1.0
 70
     9
 71
     3
 72
    17
 73
    13
 74
     0
 42
0.0000000001
 43
0.0000000001
 40
0.0
 40
0.0
 40
0.0
 40
0.0
 40
1.0
 40
1.0
 40
1.0
 40
2.0
 40
2.0
 40
2.0
 40
3.0
 40
3.0
 40
3.0
 40
4.0
 40
4.0
 40
4.0
 40
4.0
 10
117.4175662205007
 20
-158.188445975522
 30
0.0
 10
117.4175662205007
 20
-158.1333420880389
 30
0.0
 10
117.3727987216428
 20
-158.0885393114041
 30
0.0
 10
117.3176595563829
 20
-158.0885393114041
 30
0.0
 10
117.2618501133622
 20
-158.0885393114041
 30
0.0
 10
117.2170865877399
 20
-158.1333420880389
 30
0.0
 10
117.2170865877399
 20
-158.188445975522
 30
0.0
 10
117.2170865877399
 20
-158.2435851407819
 30
0.0
 10
117.2618501133622
 20
-158.2883526396398
 30
0.0
 10
117.3176595563829
 20
-158.2883526396398
 30
0.0
 10
117.3727987216428
 20
-158.2883526396398
 30
0.0
 10
117.4175662205007
 20
-158.2435851407819
 30
0.0
 10
117.4175662205007
 20
-158.188445975522
 30
0.0
  0
SPLINE
  5
B1
330
70
100
AcDbEntity
  8
レイヤー 1
 62
    18
420
        0
370
     9
100
AcDbSpline
210
0.0
220
0.0
230
1.0
 70
     9
 71
     3
 72
    17
 73
    13
 74
     0
 42
0.0000000001
 43
0.0000000001
 40
0.0
 40
0.0
 40
0.0
 40
0.0
 40
1.0
 40
1.0
 40
1.0
 40
2.0
 40
2.0
 40
2.0
 40
3.0
 40
3.0
 40
3.0
 40
4.0
 40
4.0
 40
4.0
 40
4.0
 10
90.41652319208836
 20
-158.188445975522
 30
0.0
 10
90.41652319208836
 20
-158.1333420880389
 30
0.0
 10
90.37175569323048
 20
-158.0885393114041
 30
0.0
 10
90.31661987216711
 20
-158.0885393114041
 30
0.0
 10
90.26151264048747
 20
-158.0885393114041
 30
0.0
 10
90.2167098638527
 20
-158.1333420880389
 30
0.0
 10
90.2167098638527
 20
-158.188445975522
 30
0.0
 10
90.2167098638527
 20
-158.2435851407819
 30
0.0
 10
90.26151264048747
 20
-158.2883526396398
 30
0.0
 10
90.31661987216711
 20
-158.2883526396398
 30
0.0
 10
90.37175569323048
 20
-158.2883526396398
 30
0.0
 10
90.41652319208836
 20
-158.2435851407819
 30
0.0
 10
90.41652319208836
 20
-158.188445975522
 30
0.0
  0
SPLINE
  5
B2
330
70
100
AcDbEntity
  8
レイヤー 1
 62
    18
420
        0
370
     9
100
AcDbSpline
210
0.0
220
0.0
230
1.0
 70
     9
 71
     3
 72
    17
 73
    13
 74
     0
 42
0.0000000001
 43
0.0000000001
 40
0.0
 40
0.0
 40
0.0
 40
0.0
 40
1.0
 40
1.0
 40
1.0
 40
2.0
 40
2.0
 40
2.0
 40
3.0
 40
3.0
 40
3.0
 40
4.0
 40
4.0
 40
4.0
 40
4.0
 10
88.04972946263687
 20
-143.5884910702197
 30
0.0
 10
88.04972946263687
 20
-143.5333519049601
 30
0.0
 10
88.00496196377897
 20
-143.4885844061019
 30
0.0
 10
87.94982279851902
 20
-143.4885844061019
 30
0.0
 10
87.89471891103595
 20
-143.4885844061019
 30
0.0
 10
87.84991613440118
 20
-143.5333519049601
 30
0.0
 10
87.84991613440118
 20
-143.5884910702197
 30
0.0
 10
87.84991613440118
 20
-143.6439414009527
 30
0.0
 10
87.89471891103595
 20
-143.6887441787194
 30
0.0
 10
87.94982279851902
 20
-143.6887441787194
 30
0.0
 10
88.00496196377897
 20
-143.6887441787194
 30
0.0
 10
88.04972946263687
 20
-143.6439414009527
 30
0.0
 10
88.04972946263687
 20
-143.5884910702197
 30
0.0
  0
CIRCLE
  5
B3
330
70
100
AcDbEntity
  8
レイヤー 1
 62
    18
420
        0
370
     9
100
AcDbCircle
 10
87.94982279851902
 20
-144.6884874310455
 30
0.0
 40
0.099906664117715
  0
CIRCLE
  5
B4
330
70
100
AcDbEntity
  8
レイヤー 1
 62
    18
420
        0
370
     9
100
AcDbCircle
 10
100.3175105456484
 20
-158.188445975522
 30
0.0
 40
0.0999066641178353
  0
LINE
  5
B5
330
70
100
AcDbEntity
  8
レイヤー 1
 62
    18
420
        0
370
     9
100
AcDbLine
 10
100.3175105456484
 20
-158.188445975522
 30
0.0
 11
117.3176595563829
 21
-158.188445975522
 31
0.0
  0
LINE
  5
B6
330
70
100
AcDbEntity
  8
レイヤー 1
 62
    18
420
        0
370
     9
100
AcDbLine
 10
117.3176595563829
 20
-156.0283876972963
 30
0.0
 11
117.3176595563829
 21
-159.1885709500066
 31
0.0
  0
INSERT
  5
B8
330
70
100
AcDbEntity
  8
レイヤー 1
100
AcDbBlockReference
  2
Block_5
 10
0.0
 20
0.0
 30
0.0
  0
LINE
  5
C3
330
70
100
AcDbEntity
  8
レイヤー 1
 62
    18
420
        0
370
     9
100
AcDbLine
 10
87.94982279851902
 20
-143.5884910702197
 30
0.0
 11
87.94982279851902
 21
-142.588366095735
 31
0.0
  0
LINE
  5
C4
330
70
100
AcDbEntity
  8
レイヤー 1
 62
    18
420
        0
370
     9
100
AcDbLine
 10
87.94982279851902
 20
-143.5884910702197
 30
0.0
 11
87.94982279851902
 21
-145.6882596277613
 31
0.0
  0
LINE
  5
C5
330
70
100
AcDbEntity
  8
レイヤー 1
 62
    18
420
        0
370
     9
100
AcDbLine
 10
89.40986415015915
 20
-143.5884910702197
 30
0.0
 11
86.95005060180312
 21
-143.5884910702197
 31
0.0
  0
LINE
  5
C6
330
70
100
AcDbEntity
  8
レイヤー 1
 62
    18
420
        0
370
     9
100
AcDbLine
 10
89.40986415015915
 20
-144.6884874310454
 30
0.0
 11
86.95005060180312
 21
-144.6884874310454
 31
0.0
  0
INSERT
  5
C8
330
70
100
AcDbEntity
  8
レイヤー 1
100
AcDbBlockReference
  2
Block_7
 10
0.0
 20
0.0
 30
0.0
  0
LINE
  5
D5
330
70
100
AcDbEntity
  8
レイヤー 1
 62
    18
420
        0
370
     9
100
AcDbLine
 10
90.31661987216711
 20
-158.188445975522
 30
0.0
 11
100.3175104900176
 21
-158.188445975522
 31
0.0
  0
LINE
  5
D6
330
70
100
AcDbEntity
  8
レイヤー 1
 62
    18
420
        0
370
     9
100
AcDbLine
 10
90.31661987216711
 20
-147.2285579217983
 30
0.0
 11
90.31661987216711
 21
-159.1885709500066
 31
0.0
  0
LINE
  5
D7
330
70
100
AcDbEntity
  8
レイヤー 1
 62
    18
420
        0
370
     9
100
AcDbLine
 10
100.3175105456484
 20
-156.7284399016587
 30
0.0
 11
100.3175105456484
 21
-159.1885709500066
 31
0.0
  0
INSERT
  5
D9
330
70
100
AcDbEntity
  8
レイヤー 1
100
AcDbBlockReference
  2
Block_9
 10
0.0
 20
0.0
 30
0.0
  0
LINE
  5
E5
330
70
100
AcDbEntity
  8
レイヤー 1
 62
    18
420
        0
370
     9
100
AcDbLine
 10
121.3174226978258
 20
-143.5884910702197
 30
0.0
 11
121.3174226978258
 21
-153.088690550072
 31
0.0
  0
LINE
  5
E6
330
70
100
AcDbEntity
  8
レイヤー 1
 62
    18
420
        0
370
     9
100
AcDbLine
 10
103.9575810354988
 20
-143.5884910702197
 30
0.0
 11
122.3171949197977
 21
-143.5884910702197
 31
0.0
  0
LINE
  5
E7
330
70
100
AcDbEntity
  8
レイヤー 1
 62
    18
420
        0
370
     9
100
AcDbLine
 10
119.8574125471439
 20
-153.088690550072
 30
0.0
 11
122.3171949197977
 21
-153.088690550072
 31
0.0
  0
INSERT
  5
E9
330
70
100
AcDbEntity
  8
レイヤー 1
100
AcDbBlockReference
  2
Block_11
 10
0.0
 20
0.0
 30
0.0
  0
LINE
  5
F7
330
70
100
AcDbEntity
  8
レイヤー 1
 62
    18
420
        0
370
     9
100
AcDbLine
 10
121.3174226978258
 20
-153.4886699843115
 30
0.0
 11
121.3174226978258
 21
-154.4884069032512
 31
0.0
  0
LINE
  5
F8
330
70
100
AcDbEntity
  8
レイヤー 1
 62
    18
420
        0
370
     9
100
AcDbLine
 10
121.3174226978258
 20
-153.088690550072
 30
0.0
 11
121.3174226978258
 21
-153.4886699843115
 31
0.0
  0
LINE
  5
F9
330
70
100
AcDbEntity
  8
レイヤー 1
 62
    18
420
        0
370
     9
100
AcDbLine
 10
119.8574125471439
 20
-153.4886699843115
 30
0.0
 11
122.3171949197977
 21
-153.4886699843115
 31
0.0
  0
INSERT
  5
FB
330
70
100
AcDbEntity
  8
レイヤー 1
100
AcDbBlockReference
  2
Block_13
 10
0.0
 20
0.0
 30
0.0
  0
ENDSEC
  0
SECTION
  2
OBJECTS
  0
DICTIONARY
  5
C
330
0
100
AcDbDictionary
281
     1
  3
ACAD_COLOR
350
63
  3
ACAD_DETAILVIEWSTYLE
350
6A
  3
ACAD_GROUP
350
D
  3
ACAD_LAYOUT
350
62
  3
ACAD_MATERIAL
350
10
  3
ACAD_MLEADERSTYLE
350
66
  3
ACAD_MLINESTYLE
350
5F
  3
ACAD_PLOTSETTINGS
350
61
  3
ACAD_PLOTSTYLENAME
350
E
  3
ACAD_SCALELIST
350
42
  3
ACAD_SECTIONVIEWSTYLE
350
68
  3
ACAD_TABLESTYLE
350
64
  3
ACAD_VISUALSTYLE
350
29
  3
ACDB_RECOMPOSE_DATA
350
112
  3
AcDbVariableDictionary
350
10A
  0
DICTIONARY
  5
63
102
{ACAD_REACTORS
330
C
102
}
330
C
100
AcDbDictionary
281
     1
  0
DICTIONARY
  5
6A
102
{ACAD_REACTORS
330
C
102
}
330
C
100
AcDbDictionary
281
     1
  3
Imperial24
350
6B
  0
DICTIONARY
  5
D
102
{ACAD_REACTORS
330
C
102
}
330
C
100
AcDbDictionary
281
     1
  0
DICTIONARY
  5
62
102
{ACAD_REACTORS
330
C
102
}
330
C
100
AcDbDictionary
281
     1
  3
Layout1
350
6F
  3
Layout2
350
77
  3
Model
350
73
  0
DICTIONARY
  5
10
102
{ACAD_REACTORS
330
C
102
}
330
C
100
AcDbDictionary
281
     1
  3
ByBlock
350
19
  3
ByLayer
350
11
  3
Global
350
21
  0
DICTIONARY
  5
66
102
{ACAD_REACTORS
330
C
102
}
330
C
100
AcDbDictionary
281
     1
  3
Standard
350
67
  0
DICTIONARY
  5
5F
102
{ACAD_REACTORS
330
C
102
}
330
C
100
AcDbDictionary
281
     1
  3
Standard
350
60
  0
DICTIONARY
  5
61
102
{ACAD_REACTORS
330
C
102
}
330
C
100
AcDbDictionary
281
     1
  0
ACDBDICTIONARYWDFLT
  5
E
102
{ACAD_REACTORS
330
C
102
}
330
C
100
AcDbDictionary
281
     1
  3
Normal
350
F
100
AcDbDictionaryWithDefault
340
F
  0
DICTIONARY
  5
42
102
{ACAD_REACTORS
330
C
102
}
330
C
100
AcDbDictionary
281
     1
  3
A0
350
43
  3
A1
350
44
  3
A2
350
45
  3
A3
350
46
  3
A4
350
47
  3
A5
350
48
  3
A6
350
49
  3
A7
350
4A
  3
A8
350
4B
  3
A9
350
4C
  3
B0
350
4D
  3
B1
350
4E
  3
B2
350
4F
  3
B3
350
50
  3
B4
350
51
  3
B5
350
52
  3
B6
350
53
  0
DICTIONARY
  5
68
102
{ACAD_REACTORS
330
C
102
}
330
C
100
AcDbDictionary
281
     1
  3
Imperial24
350
69
  0
DICTIONARY
  5
64
102
{ACAD_REACTORS
330
C
102
}
330
C
100
AcDbDictionary
281
     1
  3
Standard
350
65
  0
DICTIONARY
  5
29
102
{ACAD_REACTORS
330
C
102
}
330
C
100
AcDbDictionary
281
     1
  3
2dWireframe
350
2F
  3
Basic
350
2E
  3
Brighten
350
35
  3
ColorChange
350
39
  3
Conceptual
350
32
  3
Dim
350
34
  3
EdgeColorOff
350
41
  3
Facepattern
350
38
  3
Flat
350
2A
  3
FlatWithEdges
350
2B
  3
Gouraud
350
2C
  3
GouraudWithEdges
350
2D
  3
Hidden
350
31
  3
JitterOff
350
3F
  3
Linepattern
350
37
  3
OverhangOff
350
40
  3
Realistic
350
33
  3
Shaded
350
3E
  3
Shaded with edges
350
3D
  3
Shades of Gray
350
3A
  3
Sketchy
350
3B
  3
Thicken
350
36
  3
Wireframe
350
30
  3
X-Ray
350
3C
  0
XRECORD
  5
112
102
{ACAD_REACTORS
330
C
102
}
330
C
100
AcDbXrecord
280
     1
 90
        1
330
65
  0
DICTIONARY
  5
10A
102
{ACAD_REACTORS
330
C
102
}
330
C
100
AcDbDictionary
281
     1
  3
CANNOSCALE
350
10F
  3
CMLEADERSTYLE
350
10C
  3
CTABLESTYLE
350
10B
  3
CVIEWDETAILSTYLE
350
10D
  3
CVIEWSECTIONSTYLE
350
10E
  0
ACDBDETAILVIEWSTYLE
  5
6B
102
{ACAD_XDICTIONARY
360
147
102
}
102
{ACAD_REACTORS
330
6A
102
}
330
6A
100
AcDbModelDocViewStyle
 70
     0
  3
Imperial24
290
     0
100
AcDbDetailViewStyle
 70
     0
 71
     0
 90
        3
 71
     1
340
55
 62
   256
 40
0.24
340
0
 62
   256
 40
0.24
300

 40
0.36
280
     3
 71
     2
340
5D
 90
       25
 62
   256
 71
     3
340
55
 62
   256
 40
0.24
 90
        1
 40
0.75
 90
        1
300
%<\AcVar ViewType \f "%tc1">% %<\AcVar ViewDetailId>%\PSCALE %<\AcVar ViewScale \f "%sn">%
 71
     4
340
5D
 90
       25
 62
   256
340
5D
 90
       25
 62
   256
280
     0
  0
LAYOUT
  5
6F
102
{ACAD_REACTORS
330
62
102
}
330
62
100
AcDbPlotSettings
  1

  2

  4

  6

 40
0.0
 41
0.0
 42
0.0
 43
0.0
 44
0.0
 45
0.0
 46
0.0
 47
0.0
 48
0.0
 49
0.0
140
0.0
141
0.0
142
1.0
143
1.0
 70
   688
 72
     0
 73
     0
 74
     5
  7

 75
    16
147
1.0
 76
     0
 77
     2
 78
   300
148
0.0
149
0.0
100
AcDbLayout
  1
Layout1
 70
     1
 71
     1
 10
0.0
 20
0.0
 11
12.0
 21
9.0
 12
0.0
 22
0.0
 32
0.0
 14
0.0
 24
0.0
 34
0.0
 15
0.0
 25
0.0
 35
0.0
146
0.0
 13
0.0
 23
0.0
 33
0.0
 16
1.0
 26
0.0
 36
0.0
 17
0.0
 27
1.0
 37
0.0
 76
     0
330
6C
  0
LAYOUT
  5
77
102
{ACAD_REACTORS
330
62
102
}
330
62
100
AcDbPlotSettings
  1

  2

  4

  6

 40
0.0
 41
0.0
 42
0.0
 43
0.0
 44
0.0
 45
0.0
 46
0.0
 47
0.0
 48
0.0
 49
0.0
140
0.0
141
0.0
142
1.0
143
1.0
 70
   688
 72
     0
 73
     0
 74
     5
  7

 75
    16
147
1.0
 76
     0
 77
     2
 78
   300
148
0.0
149
0.0
100
AcDbLayout
  1
Layout2
 70
     1
 71
     2
 10
0.0
 20
0.0
 11
12.0
 21
9.0
 12
0.0
 22
0.0
 32
0.0
 14
0.0
 24
0.0
 34
0.0
 15
0.0
 25
0.0
 35
0.0
146
0.0
 13
0.0
 23
0.0
 33
0.0
 16
1.0
 26
0.0
 36
0.0
 17
0.0
 27
1.0
 37
0.0
 76
     0
330
74
  0
LAYOUT
  5
73
102
{ACAD_REACTORS
330
62
102
}
330
62
100
AcDbPlotSettings
  1

  2

  4

  6

 40
0.0
 41
0.0
 42
0.0
 43
0.0
 44
0.0
 45
0.0
 46
0.0
 47
0.0
 48
0.0
 49
0.0
140
0.0
141
0.0
142
1.0
143
1.0
 70
  1712
 72
     0
 73
     0
 74
     0
  7

 75
     0
147
1.0
 76
     0
 77
     2
 78
   300
148
0.0
149
0.0
100
AcDbLayout
  1
Model
 70
     1
 71
     0
 10
0.0
 20
0.0
 11
12.0
 21
9.0
 12
0.0
 22
0.0
 32
0.0
 14
0.0
 24
0.0
 34
0.0
 15
0.0
 25
0.0
 35
0.0
146
0.0
 13
0.0
 23
0.0
 33
0.0
 16
1.0
 26
0.0
 36
0.0
 17
0.0
 27
1.0
 37
0.0
 76
     0
330
70
  0
MATERIAL
  5
19
102
{ACAD_XDICTIONARY
360
1A
102
}
102
{ACAD_REACTORS
330
10
102
}
330
10
100
AcDbMaterial
  1
ByBlock
 72
     0
 43
0.0208333333333333
 43
0.0
 43
0.0
 43
0.0
 43
0.0
 43
0.0208333333333333
 43
0.0
 43
0.0
 43
0.0
 43
0.0
 43
1.0
 43
0.0
 43
0.0
 43
0.0
 43
0.0
 43
1.0
 77
     0
 47
0.0208333333333333
 47
0.0
 47
0.0
 47
0.0
 47
0.0
 47
0.0208333333333333
 47
0.0
 47
0.0
 47
0.0
 47
0.0
 47
1.0
 47
0.0
 47
0.0
 47
0.0
 47
0.0
 47
1.0
171
     0
 49
0.0208333333333333
 49
0.0
 49
0.0
 49
0.0
 49
0.0
 49
0.0208333333333333
 49
0.0
 49
0.0
 49
0.0
 49
0.0
 49
1.0
 49
0.0
 49
0.0
 49
0.0
 49
0.0
 49
1.0
175
     0
142
0.0208333333333333
142
0.0
142
0.0
142
0.0
142
0.0
142
0.0208333333333333
142
0.0
142
0.0
142
0.0
142
0.0
142
1.0
142
0.0
142
0.0
142
0.0
142
0.0
142
1.0
179
     0
144
0.0208333333333333
144
0.0
144
0.0
144
0.0
144
0.0
144
0.0208333333333333
144
0.0
144
0.0
144
0.0
144
0.0
144
1.0
144
0.0
144
0.0
144
0.0
144
0.0
144
1.0
147
0.0208333333333333
147
0.0
147
0.0
147
0.0
147
0.0
147
0.0208333333333333
147
0.0
147
0.0
147
0.0
147
0.0
147
1.0
147
0.0
147
0.0
147
0.0
147
0.0
147
1.0
  0
MATERIAL
  5
11
102
{ACAD_XDICTIONARY
360
12
102
}
102
{ACAD_REACTORS
330
10
102
}
330
10
100
AcDbMaterial
  1
ByLayer
 72
     0
 43
0.0208333333333333
 43
0.0
 43
0.0
 43
0.0
 43
0.0
 43
0.0208333333333333
 43
0.0
 43
0.0
 43
0.0
 43
0.0
 43
1.0
 43
0.0
 43
0.0
 43
0.0
 43
0.0
 43
1.0
 77
     0
 47
0.0208333333333333
 47
0.0
 47
0.0
 47
0.0
 47
0.0
 47
0.0208333333333333
 47
0.0
 47
0.0
 47
0.0
 47
0.0
 47
1.0
 47
0.0
 47
0.0
 47
0.0
 47
0.0
 47
1.0
171
     0
 49
0.0208333333333333
 49
0.0
 49
0.0
 49
0.0
 49
0.0
 49
0.0208333333333333
 49
0.0
 49
0.0
 49
0.0
 49
0.0
 49
1.0
 49
0.0
 49
0.0
 49
0.0
 49
0.0
 49
1.0
175
     0
142
0.0208333333333333
142
0.0
142
0.0
142
0.0
142
0.0
142
0.0208333333333333
142
0.0
142
0.0
142
0.0
142
0.0
142
1.0
142
0.0
142
0.0
142
0.0
142
0.0
142
1.0
179
     0
144
0.0208333333333333
144
0.0
144
0.0
144
0.0
144
0.0
144
0.0208333333333333
144
0.0
144
0.0
144
0.0
144
0.0
144
1.0
144
0.0
144
0.0
144
0.0
144
0.0
144
1.0
147
0.0208333333333333
147
0.0
147
0.0
147
0.0
147
0.0
147
0.0208333333333333
147
0.0
147
0.0
147
0.0
147
0.0
147
1.0
147
0.0
147
0.0
147
0.0
147
0.0
147
1.0
  0
MATERIAL
  5
21
102
{ACAD_XDICTIONARY
360
22
102
}
102
{ACAD_REACTORS
330
10
102
}
330
10
100
AcDbMaterial
  1
Global
 72
     0
 43
0.0208333333333333
 43
0.0
 43
0.0
 43
0.0
 43
0.0
 43
0.0208333333333333
 43
0.0
 43
0.0
 43
0.0
 43
0.0
 43
1.0
 43
0.0
 43
0.0
 43
0.0
 43
0.0
 43
1.0
 77
     0
 47
0.0208333333333333
 47
0.0
 47
0.0
 47
0.0
 47
0.0
 47
0.0208333333333333
 47
0.0
 47
0.0
 47
0.0
 47
0.0
 47
1.0
 47
0.0
 47
0.0
 47
0.0
 47
0.0
 47
1.0
171
     0
 49
0.0208333333333333
 49
0.0
 49
0.0
 49
0.0
 49
0.0
 49
0.0208333333333333
 49
0.0
 49
0.0
 49
0.0
 49
0.0
 49
1.0
 49
0.0
 49
0.0
 49
0.0
 49
0.0
 49
1.0
175
     0
142
0.0208333333333333
142
0.0
142
0.0
142
0.0
142
0.0
142
0.0208333333333333
142
0.0
142
0.0
142
0.0
142
0.0
142
1.0
142
0.0
142
0.0
142
0.0
142
0.0
142
1.0
179
     0
144
0.0208333333333333
144
0.0
144
0.0
144
0.0
144
0.0
144
0.0208333333333333
144
0.0
144
0.0
144
0.0
144
0.0
144
1.0
144
0.0
144
0.0
144
0.0
144
0.0
144
1.0
147
0.0208333333333333
147
0.0
147
0.0
147
0.0
147
0.0
147
0.0208333333333333
147
0.0
147
0.0
147
0.0
147
0.0
147
1.0
147
0.0
147
0.0
147
0.0
147
0.0
147
1.0
  0
MLEADERSTYLE
  5
67
102
{ACAD_XDICTIONARY
360
143
102
}
102
{ACAD_REACTORS
330
66
102
}
330
66
100
AcDbMLeaderStyle
179
     2
170
     2
171
     1
172
     0
 90
        2
 40
0.0
 41
0.0
173
     1
 91
-1056964608
340
5B
 92
       -2
290
     1
 42
0.09
291
     1
 43
0.36
  3
Standard
 44
0.18
300

342
55
174
     1
178
     6
175
     1
176
     0
 93
-1056964608
 45
0.18
292
     0
297
     0
 46
0.18
 94
-1056964608
 47
1.0
 49
1.0
140
1.0
293
     1
141
0.0
294
     1
177
     0
142
1.0
295
     0
296
     0
143
0.125
271
     0
272
     9
273
     9
  0
MLINESTYLE
  5
60
102
{ACAD_REACTORS
330
5F
102
}
330
5F
100
AcDbMlineStyle
  2
STANDARD
 70
     0
  3

 62
   256
 51
90.0
 52
90.0
 71
     2
 49
0.5
 62
   256
  6
BYLAYER
 49
-0.5
 62
   256
  6
BYLAYER
  0
ACDBPLACEHOLDER
  5
F
102
{ACAD_REACTORS
330
E
102
}
330
E
  0
SCALE
  5
43
102
{ACAD_REACTORS
330
42
102
}
330
42
100
AcDbScale
 70
     0
300
1:1
140
1.0
141
1.0
290
     1
  0
SCALE
  5
44
102
{ACAD_REACTORS
330
42
102
}
330
42
100
AcDbScale
 70
     0
300
1/128" = 1'-0"
140
0.0078125
141
12.0
290
     0
  0
SCALE
  5
45
102
{ACAD_REACTORS
330
42
102
}
330
42
100
AcDbScale
 70
     0
300
1/64" = 1'-0"
140
0.015625
141
12.0
290
     0
  0
SCALE
  5
46
102
{ACAD_REACTORS
330
42
102
}
330
42
100
AcDbScale
 70
     0
300
1/32" = 1'-0"
140
0.03125
141
12.0
290
     0
  0
SCALE
  5
47
102
{ACAD_REACTORS
330
42
102
}
330
42
100
AcDbScale
 70
     0
300
1/16" = 1'-0"
140
0.0625
141
12.0
290
     0
  0
SCALE
  5
48
102
{ACAD_REACTORS
330
42
102
}
330
42
100
AcDbScale
 70
     0
300
3/32" = 1'-0"
140
0.09375
141
12.0
290
     0
  0
SCALE
  5
49
102
{ACAD_REACTORS
330
42
102
}
330
42
100
AcDbScale
 70
     0
300
1/8" = 1'-0"
140
0.125
141
12.0
290
     0
  0
SCALE
  5
4A
102
{ACAD_REACTORS
330
42
102
}
330
42
100
AcDbScale
 70
     0
300
3/16" = 1'-0"
140
0.1875
141
12.0
290
     0
  0
SCALE
  5
4B
102
{ACAD_REACTORS
330
42
102
}
330
42
100
AcDbScale
 70
     0
300
1/4" = 1'-0"
140
0.25
141
12.0
290
     0
  0
SCALE
  5
4C
102
{ACAD_REACTORS
330
42
102
}
330
42
100
AcDbScale
 70
     0
300
3/8" = 1'-0"
140
0.375
141
12.0
290
     0
  0
SCALE
  5
4D
102
{ACAD_REACTORS
330
42
102
}
330
42
100
AcDbScale
 70
     0
300
1/2" = 1'-0"
140
0.5
141
12.0
290
     0
  0
SCALE
  5
4E
102
{ACAD_REACTORS
330
42
102
}
330
42
100
AcDbScale
 70
     0
300
3/4" = 1'-0"
140
0.75
141
12.0
290
     0
  0
SCALE
  5
4F
102
{ACAD_REACTORS
330
42
102
}
330
42
100
AcDbScale
 70
     0
300
1" = 1'-0"
140
1.0
141
12.0
290
     0
  0
SCALE
  5
50
102
{ACAD_REACTORS
330
42
102
}
330
42
100
AcDbScale
 70
     0
300
1-1/2" = 1'-0"
140
1.5
141
12.0
290
     0
  0
SCALE
  5
51
102
{ACAD_REACTORS
330
42
102
}
330
42
100
AcDbScale
 70
     0
300
3" = 1'-0"
140
3.0
141
12.0
290
     0
  0
SCALE
  5
52
102
{ACAD_REACTORS
330
42
102
}
330
42
100
AcDbScale
 70
     0
300
6" = 1'-0"
140
6.0
141
12.0
290
     0
  0
SCALE
  5
53
102
{ACAD_REACTORS
330
42
102
}
330
42
100
AcDbScale
 70
     0
300
1'-0" = 1'-0"
140
12.0
141
12.0
290
     0
  0
ACDBSECTIONVIEWSTYLE
  5
69
102
{ACAD_XDICTIONARY
360
145
102
}
102
{ACAD_REACTORS
330
68
102
}
330
68
100
AcDbModelDocViewStyle
 70
     0
  3
Imperial24
290
     0
100
AcDbSectionViewStyle
 70
     0
 71
     0
 90
       78
 71
     1
340
55
 62
   256
 40
0.24
340
0
340
0
 62
   256
 40
0.24
300
I, O, Q, S, X, Z
 40
0.48
 90
        3
 40
0.18
 90
        1
 71
     2
340
5D
 90
       25
 62
   256
340
5D
 90
       50
 62
   256
 40
0.24
 40
0.0
 40
0.24
 71
     3
340
55
 62
   256
 40
0.24
 90
        1
 40
0.75
 90
        1
300
%<\AcVar ViewType \f "%tc1">% %<\AcVar ViewSectionStartId>%-%<\AcVar ViewSectionEndId>%\PSCALE %<\AcVar ViewScale \f "%sn">%
 71
     4
 62
   256
 62
   257
300
ANSI31
 40
1.0
 90
        0
290
     0
290
     0
 90
        6
 40
0.0
 40
1.570796326794896
 40
0.2617993877991494
 40
1.308996938995747
 40
-0.2617993877991494
 40
1.832595714594046
  0
TABLESTYLE
  5
65
102
{ACAD_XDICTIONARY
360
110
102
}
102
{ACAD_REACTORS
330
64
102
}
330
64
100
AcDbTableStyle
280
     0
  3
Standard
 70
     0
 71
     0
 40
0.06
 41
0.06
280
     0
281
     0
  7
Standard
140
0.18
170
     2
 62
     0
 63
     7
283
     0
 90
      512
 91
        0
  1

274
    -2
284
     1
 64
     0
275
    -2
285
     1
 65
     0
276
    -2
286
     1
 66
     0
277
    -2
287
     1
 67
     0
278
    -2
288
     1
 68
     0
279
    -2
289
     1
 69
     0
  7
Standard
140
0.25
170
     5
 62
     0
 63
     7
283
     0
 90
      512
 91
        0
  1

274
    -2
284
     1
 64
     0
275
    -2
285
     1
 65
     0
276
    -2
286
     1
 66
     0
277
    -2
287
     1
 67
     0
278
    -2
288
     1
 68
     0
279
    -2
289
     1
 69
     0
  7
Standard
140
0.18
170
     5
 62
     0
 63
     7
283
     0
 90
      512
 91
        0
  1

274
    -2
284
     1
 64
     0
275
    -2
285
     1
 65
     0
276
    -2
286
     1
 66
     0
277
    -2
287
     1
 67
     0
278
    -2
288
     1
 68
     0
279
    -2
289
     1
 69
     0
  0
VISUALSTYLE
  5
2F
102
{ACAD_XDICTIONARY
360
11D
102
}
102
{ACAD_REACTORS
330
29
102
}
330
29
100
AcDbVisualStyle
  2
2dWireframe
 70
     4
177
     2
291
     0
 71
     0
176
     1
 72
     2
176
     1
 73
     0
176
     1
 90
        0
176
     1
 40
0.6
176
     1
 41
30.0
176
     1
 63
     7
421
 16777215
176
     1
 74
     1
176
     1
 91
        4
176
     1
 64
     7
176
     1
 65
   257
176
     1
 75
     1
176
     1
175
     1
176
     1
 42
1.0
176
     1
 92
        0
176
     1
 66
   257
176
     1
 43
1.0
176
     1
 76
     1
176
     1
 77
     6
176
     1
 78
     2
176
     1
 67
     7
176
     1
 79
     5
176
     1
170
     0
176
     1
171
     0
176
     1
290
     0
176
     1
 93
        1
176
     1
 44
0.0
176
     1
173
     0
176
     1
1001
ACAD
1000
AcDbSavedByObjectVersion
1070
     0
  0
VISUALSTYLE
  5
2E
102
{ACAD_XDICTIONARY
360
11B
102
}
102
{ACAD_REACTORS
330
29
102
}
330
29
100
AcDbVisualStyle
  2
Basic
 70
     7
177
     2
291
     1
 71
     1
176
     1
 72
     0
176
     1
 73
     1
176
     1
 90
        0
176
     1
 40
0.6
176
     1
 41
30.0
176
     1
 63
     7
421
 16777215
176
     1
 74
     0
176
     1
 91
        4
176
     1
 64
     7
176
     1
 65
   257
176
     1
 75
     1
176
     1
175
     1
176
     1
 42
1.0
176
     1
 92
        8
176
     1
 66
     7
176
     1
 43
1.0
176
     1
 76
     1
176
     1
 77
     6
176
     1
 78
     2
176
     1
 67
     7
176
     1
 79
     5
176
     1
170
     0
176
     1
171
     0
176
     1
290
     0
176
     1
 93
        1
176
     1
 44
0.0
176
     1
173
     0
176
     1
1001
ACAD
1000
AcDbSavedByObjectVersion
1070
     0
  0
VISUALSTYLE
  5
35
102
{ACAD_XDICTIONARY
360
129
102
}
102
{ACAD_REACTORS
330
29
102
}
330
29
100
AcDbVisualStyle
  2
Brighten
 70
    12
177
     2
291
     1
 71
     2
176
     1
 72
     2
176
     1
 73
     0
176
     1
 90
        0
176
     1
 40
0.6
176
     1
 41
30.0
176
     1
 63
     7
421
 16777215
176
     1
 74
     1
176
     1
 91
        4
176
     1
 64
     7
176
     1
 65
   257
176
     1
 75
     1
176
     1
175
     1
176
     1
 42
1.0
176
     1
 92
        8
176
     1
 66
     7
176
     1
 43
1.0
176
     1
 76
     1
176
     1
 77
     6
176
     1
 78
     2
176
     1
 67
     7
176
     1
 79
     5
176
     1
170
     0
176
     1
171
     0
176
     1
290
     0
176
     1
 93
        1
176
     1
 44
50.0
176
     1
173
     0
176
     1
1001
ACAD
1000
AcDbSavedByObjectVersion
1070
     0
  0
VISUALSTYLE
  5
39
102
{ACAD_XDICTIONARY
360
131
102
}
102
{ACAD_REACTORS
330
29
102
}
330
29
100
AcDbVisualStyle
  2
ColorChange
 70
    16
177
     2
291
     1
 71
     2
176
     1
 72
     2
176
     1
 73
     3
176
     1
 90
        0
176
     1
 40
0.6
176
     1
 41
30.0
176
     1
 63
     8
421
  8421504
176
     1
 74
     1
176
     1
 91
        4
176
     1
 64
     7
176
     1
 65
   257
176
     1
 75
     1
176
     1
175
     1
176
     1
 42
1.0
176
     1
 92
        8
176
     1
 66
     8
424
  8421504
176
     1
 43
1.0
176
     1
 76
     1
176
     1
 77
     6
176
     1
 78
     2
176
     1
 67
     7
176
     1
 79
     5
176
     1
170
     0
176
     1
171
     0
176
     1
290
     0
176
     1
 93
        1
176
     1
 44
0.0
176
     1
173
     0
176
     1
1001
ACAD
1000
AcDbSavedByObjectVersion
1070
     0
  0
VISUALSTYLE
  5
32
102
{ACAD_XDICTIONARY
360
123
102
}
102
{ACAD_REACTORS
330
29
102
}
330
29
100
AcDbVisualStyle
  2
Conceptual
 70
     9
177
     2
291
     0
 71
     3
176
     1
 72
     2
176
     1
 73
     0
176
     1
 90
        0
176
     1
 40
0.6
176
     1
 41
30.0
176
     1
 63
     7
421
 16777215
176
     1
 74
     2
176
     1
 91
        2
176
     1
 64
     7
176
     1
 65
   257
176
     1
 75
     1
176
     1
175
     1
176
     1
 42
179.0
176
     1
 92
        8
176
     1
 66
     7
176
     1
 43
1.0
176
     1
 76
     1
176
     1
 77
     6
176
     1
 78
     2
176
     1
 67
     7
176
     1
 79
     3
176
     1
170
     0
176
     1
171
     0
176
     1
290
     0
176
     1
 93
        1
176
     1
 44
0.0
176
     1
173
     0
176
     1
1001
ACAD
1000
AcDbSavedByObjectVersion
1070
     0
  0
VISUALSTYLE
  5
34
102
{ACAD_XDICTIONARY
360
127
102
}
102
{ACAD_REACTORS
330
29
102
}
330
29
100
AcDbVisualStyle
  2
Dim
 70
    11
177
     2
291
     1
 71
     2
176
     1
 72
     2
176
     1
 73
     0
176
     1
 90
        0
176
     1
 40
0.6
176
     1
 41
30.0
176
     1
 63
     7
421
 16777215
176
     1
 74
     1
176
     1
 91
        4
176
     1
 64
     7
176
     1
 65
   257
176
     1
 75
     1
176
     1
175
     1
176
     1
 42
1.0
176
     1
 92
        8
176
     1
 66
     7
176
     1
 43
1.0
176
     1
 76
     1
176
     1
 77
     6
176
     1
 78
     2
176
     1
 67
     7
176
     1
 79
     5
176
     1
170
     0
176
     1
171
     0
176
     1
290
     0
176
     1
 93
        1
176
     1
 44
-50.0
176
     1
173
     0
176
     1
1001
ACAD
1000
AcDbSavedByObjectVersion
1070
     0
  0
VISUALSTYLE
  5
41
102
{ACAD_XDICTIONARY
360
141
102
}
102
{ACAD_REACTORS
330
29
102
}
330
29
100
AcDbVisualStyle
  2
EdgeColorOff
 70
    22
177
     2
291
     1
 71
     2
176
     0
 72
     2
176
     0
 73
     0
176
     0
 90
        0
176
     0
 40
0.6
176
     0
 41
30.0
176
     0
 63
     7
421
 16777215
176
     0
 74
     1
176
     0
 91
        4
176
     0
 64
     7
176
     0
 65
   257
176
     0
 75
     1
176
     0
175
     1
176
     0
 42
1.0
176
     0
 92
        8
176
     2
 66
     7
176
     0
 43
1.0
176
     0
 76
     1
176
     0
 77
     6
176
     0
 78
     2
176
     0
 67
     7
176
     0
 79
     5
176
     0
170
     0
176
     0
171
     0
176
     0
290
     0
176
     0
 93
        1
176
     0
 44
0.0
176
     0
173
     0
176
     0
1001
ACAD
1000
AcDbSavedByObjectVersion
1070
     0
  0
VISUALSTYLE
  5
38
102
{ACAD_XDICTIONARY
360
12F
102
}
102
{ACAD_REACTORS
330
29
102
}
330
29
100
AcDbVisualStyle
  2
Facepattern
 70
    15
177
     2
291
     1
 71
     2
176
     1
 72
     2
176
     1
 73
     0
176
     1
 90
        0
176
     1
 40
0.6
176
     1
 41
30.0
176
     1
 63
     7
421
 16777215
176
     1
 74
     1
176
     1
 91
        4
176
     1
 64
     7
176
     1
 65
   257
176
     1
 75
     1
176
     1
175
     1
176
     1
 42
1.0
176
     1
 92
        8
176
     1
 66
     7
176
     1
 43
1.0
176
     1
 76
     1
176
     1
 77
     6
176
     1
 78
     2
176
     1
 67
     7
176
     1
 79
     5
176
     1
170
     0
176
     1
171
     0
176
     1
290
     0
176
     1
 93
        1
176
     1
 44
0.0
176
     1
173
     0
176
     1
1001
ACAD
1000
AcDbSavedByObjectVersion
1070
     0
  0
VISUALSTYLE
  5
2A
102
{ACAD_XDICTIONARY
360
113
102
}
102
{ACAD_REACTORS
330
29
102
}
330
29
100
AcDbVisualStyle
  2
Flat
 70
     0
177
     2
291
     1
 71
     2
176
     1
 72
     1
176
     1
 73
     1
176
     1
 90
        2
176
     1
 40
0.6
176
     1
 41
30.0
176
     1
 63
     7
421
 16777215
176
     1
 74
     0
176
     1
 91
        0
176
     1
 64
     7
176
     1
 65
   257
176
     1
 75
     1
176
     1
175
     1
176
     1
 42
1.0
176
     1
 92
        8
176
     1
 66
     7
176
     1
 43
1.0
176
     1
 76
     1
176
     1
 77
     6
176
     1
 78
     2
176
     1
 67
     7
176
     1
 79
     5
176
     1
170
     0
176
     1
171
     0
176
     1
290
     0
176
     1
 93
       13
176
     1
 44
0.0
176
     1
173
     0
176
     1
1001
ACAD
1000
AcDbSavedByObjectVersion
1070
     0
  0
VISUALSTYLE
  5
2B
102
{ACAD_XDICTIONARY
360
115
102
}
102
{ACAD_REACTORS
330
29
102
}
330
29
100
AcDbVisualStyle
  2
FlatWithEdges
 70
     1
177
     2
291
     1
 71
     2
176
     1
 72
     1
176
     1
 73
     1
176
     1
 90
        2
176
     1
 40
0.6
176
     1
 41
30.0
176
     1
 63
     7
421
 16777215
176
     1
 74
     1
176
     1
 91
        0
176
     1
 64
     7
176
     1
 65
   257
176
     1
 75
     1
176
     1
175
     1
176
     1
 42
1.0
176
     1
 92
        0
176
     1
 66
   257
176
     1
 43
1.0
176
     1
 76
     1
176
     1
 77
     6
176
     1
 78
     2
176
     1
 67
     7
176
     1
 79
     5
176
     1
170
     0
176
     1
171
     0
176
     1
290
     0
176
     1
 93
       13
176
     1
 44
0.0
176
     1
173
     0
176
     1
1001
ACAD
1000
AcDbSavedByObjectVersion
1070
     0
  0
VISUALSTYLE
  5
2C
102
{ACAD_XDICTIONARY
360
117
102
}
102
{ACAD_REACTORS
330
29
102
}
330
29
100
AcDbVisualStyle
  2
Gouraud
 70
     2
177
     2
291
     1
 71
     2
176
     1
 72
     2
176
     1
 73
     1
176
     1
 90
        2
176
     1
 40
0.6
176
     1
 41
30.0
176
     1
 63
     7
421
 16777215
176
     1
 74
     0
176
     1
 91
        0
176
     1
 64
     7
176
     1
 65
   257
176
     1
 75
     1
176
     1
175
     1
176
     1
 42
1.0
176
     1
 92
        0
176
     1
 66
     7
176
     1
 43
1.0
176
     1
 76
     1
176
     1
 77
     6
176
     1
 78
     2
176
     1
 67
     7
176
     1
 79
     5
176
     1
170
     0
176
     1
171
     0
176
     1
290
     0
176
     1
 93
       13
176
     1
 44
0.0
176
     1
173
     0
176
     1
1001
ACAD
1000
AcDbSavedByObjectVersion
1070
     0
  0
VISUALSTYLE
  5
2D
102
{ACAD_XDICTIONARY
360
119
102
}
102
{ACAD_REACTORS
330
29
102
}
330
29
100
AcDbVisualStyle
  2
GouraudWithEdges
 70
     3
177
     2
291
     1
 71
     2
176
     1
 72
     2
176
     1
 73
     1
176
     1
 90
        2
176
     1
 40
0.6
176
     1
 41
30.0
176
     1
 63
     7
421
 16777215
176
     1
 74
     1
176
     1
 91
        0
176
     1
 64
     7
176
     1
 65
   257
176
     1
 75
     1
176
     1
175
     1
176
     1
 42
1.0
176
     1
 92
        0
176
     1
 66
   257
176
     1
 43
1.0
176
     1
 76
     1
176
     1
 77
     6
176
     1
 78
     2
176
     1
 67
     7
176
     1
 79
     5
176
     1
170
     0
176
     1
171
     0
176
     1
290
     0
176
     1
 93
       13
176
     1
 44
0.0
176
     1
173
     0
176
     1
1001
ACAD
1000
AcDbSavedByObjectVersion
1070
     0
  0
VISUALSTYLE
  5
31
102
{ACAD_XDICTIONARY
360
121
102
}
102
{ACAD_REACTORS
330
29
102
}
330
29
100
AcDbVisualStyle
  2
Hidden
 70
     6
177
     2
291
     0
 71
     1
176
     1
 72
     2
176
     1
 73
     2
176
     1
 90
        0
176
     1
 40
0.6
176
     1
 41
30.0
176
     1
 63
     7
421
 16777215
176
     1
 74
     2
176
     1
 91
        2
176
     1
 64
     7
176
     1
 65
   257
176
     1
 75
     2
176
     1
175
     1
176
     1
 42
40.0
176
     1
 92
        0
176
     1
 66
   257
176
     1
 43
1.0
176
     1
 76
     1
176
     1
 77
     6
176
     1
 78
     2
176
     1
 67
     7
176
     1
 79
     3
176
     1
170
     0
176
     1
171
     0
176
     1
290
     0
176
     1
 93
        1
176
     1
 44
0.0
176
     1
173
     0
176
     1
1001
ACAD
1000
AcDbSavedByObjectVersion
1070
     0
  0
VISUALSTYLE
  5
3F
102
{ACAD_XDICTIONARY
360
13D
102
}
102
{ACAD_REACTORS
330
29
102
}
330
29
100
AcDbVisualStyle
  2
JitterOff
 70
    20
177
     2
291
     1
 71
     2
176
     0
 72
     2
176
     0
 73
     0
176
     0
 90
        0
176
     0
 40
0.6
176
     0
 41
30.0
176
     0
 63
     7
421
 16777215
176
     0
 74
     1
176
     0
 91
        4
176
     0
 64
     7
176
     0
 65
   257
176
     0
 75
     1
176
     0
175
     1
176
     0
 42
1.0
176
     0
 92
       10
176
     2
 66
     7
176
     0
 43
1.0
176
     0
 76
     1
176
     0
 77
     6
176
     0
 78
     2
176
     0
 67
     7
176
     0
 79
     5
176
     0
170
     0
176
     0
171
     0
176
     0
290
     0
176
     0
 93
        1
176
     0
 44
0.0
176
     0
173
     0
176
     0
1001
ACAD
1000
AcDbSavedByObjectVersion
1070
     0
  0
VISUALSTYLE
  5
37
102
{ACAD_XDICTIONARY
360
12D
102
}
102
{ACAD_REACTORS
330
29
102
}
330
29
100
AcDbVisualStyle
  2
Linepattern
 70
    14
177
     2
291
     1
 71
     2
176
     1
 72
     2
176
     1
 73
     0
176
     1
 90
        0
176
     1
 40
0.6
176
     1
 41
30.0
176
     1
 63
     7
421
 16777215
176
     1
 74
     1
176
     1
 91
        4
176
     1
 64
     7
176
     1
 65
   257
176
     1
 75
     7
176
     1
175
     7
176
     1
 42
1.0
176
     1
 92
        8
176
     1
 66
     7
176
     1
 43
1.0
176
     1
 76
     1
176
     1
 77
     6
176
     1
 78
     2
176
     1
 67
     7
176
     1
 79
     5
176
     1
170
     0
176
     1
171
     0
176
     1
290
     0
176
     1
 93
        1
176
     1
 44
0.0
176
     1
173
     0
176
     1
1001
ACAD
1000
AcDbSavedByObjectVersion
1070
     0
  0
VISUALSTYLE
  5
40
102
{ACAD_XDICTIONARY
360
13F
102
}
102
{ACAD_REACTORS
330
29
102
}
330
29
100
AcDbVisualStyle
  2
OverhangOff
 70
    21
177
     2
291
     1
 71
     2
176
     0
 72
     2
176
     0
 73
     0
176
     0
 90
        0
176
     0
 40
0.6
176
     0
 41
30.0
176
     0
 63
     7
421
 16777215
176
     0
 74
     1
176
     0
 91
        4
176
     0
 64
     7
176
     0
 65
   257
176
     0
 75
     1
176
     0
175
     1
176
     0
 42
1.0
176
     0
 92
        9
176
     2
 66
     7
176
     0
 43
1.0
176
     0
 76
     1
176
     0
 77
     6
176
     0
 78
     2
176
     0
 67
     7
176
     0
 79
     5
176
     0
170
     0
176
     0
171
     0
176
     0
290
     0
176
     0
 93
        1
176
     0
 44
0.0
176
     0
173
     0
176
     0
1001
ACAD
1000
AcDbSavedByObjectVersion
1070
     0
  0
VISUALSTYLE
  5
33
102
{ACAD_XDICTIONARY
360
125
102
}
102
{ACAD_REACTORS
330
29
102
}
330
29
100
AcDbVisualStyle
  2
Realistic
 70
     8
177
     2
291
     0
 71
     2
176
     1
 72
     3
176
     1
 73
     0
176
     1
 90
        2
176
     1
 40
0.6
176
     1
 41
30.0
176
     1
 63
     7
421
 16777215
176
     1
 74
     0
176
     1
 91
        0
176
     1
 64
     7
176
     1
 65
   257
176
     1
 75
     1
176
     1
175
     1
176
     1
 42
1.0
176
     1
 92
        8
176
     1
 66
   257
176
     1
 43
1.0
176
     1
 76
     1
176
     1
 77
     6
176
     1
 78
     2
176
     1
 67
     7
176
     1
 79
     3
176
     1
170
     0
176
     1
171
     0
176
     1
290
     0
176
     1
 93
       13
176
     1
 44
0.0
176
     1
173
     0
176
     1
1001
ACAD
1000
AcDbSavedByObjectVersion
1070
     0
  0
VISUALSTYLE
  5
3E
102
{ACAD_XDICTIONARY
360
13B
102
}
102
{ACAD_REACTORS
330
29
102
}
330
29
100
AcDbVisualStyle
  2
Shaded
 70
    27
177
     2
291
     0
 71
     2
176
     1
 72
     2
176
     1
 73
     1
176
     1
 90
        2
176
     1
 40
0.6
176
     1
 41
30.0
176
     1
 63
     7
421
 16777215
176
     1
 74
     0
176
     1
 91
        4
176
     1
 64
     7
176
     1
 65
   257
176
     1
 75
     1
176
     1
175
     1
176
     1
 42
1.0
176
     1
 92
        8
176
     1
 66
   257
176
     1
 43
1.0
176
     1
 76
     1
176
     1
 77
     6
176
     1
 78
     2
176
     1
 67
     8
425
  7895160
176
     1
 79
     3
176
     1
170
     0
176
     1
171
     0
176
     1
290
     0
176
     1
 93
        5
176
     1
 44
0.0
176
     1
173
     0
176
     1
1001
ACAD
1000
AcDbSavedByObjectVersion
1070
     0
  0
VISUALSTYLE
  5
3D
102
{ACAD_XDICTIONARY
360
139
102
}
102
{ACAD_REACTORS
330
29
102
}
330
29
100
AcDbVisualStyle
  2
Shaded with edges
 70
    26
177
     2
291
     0
 71
     2
176
     1
 72
     2
176
     1
 73
     1
176
     1
 90
        2
176
     1
 40
0.6
176
     1
 41
30.0
176
     1
 63
     7
421
 16777215
176
     1
 74
     1
176
     1
 91
        2
176
     1
 64
     7
176
     1
 65
   257
176
     1
 75
     2
176
     1
175
     1
176
     1
 42
1.0
176
     1
 92
        8
176
     1
 66
   257
176
     1
 43
1.0
176
     1
 76
     1
176
     1
 77
     6
176
     1
 78
     2
176
     1
 67
     7
176
     1
 79
     3
176
     1
170
     0
176
     1
171
     0
176
     1
290
     0
176
     1
 93
        5
176
     1
 44
0.0
176
     1
173
     0
176
     1
1001
ACAD
1000
AcDbSavedByObjectVersion
1070
     0
  0
VISUALSTYLE
  5
3A
102
{ACAD_XDICTIONARY
360
133
102
}
102
{ACAD_REACTORS
330
29
102
}
330
29
100
AcDbVisualStyle
  2
Shades of Gray
 70
    23
177
     2
291
     0
 71
     2
176
     1
 72
     2
176
     1
 73
     3
176
     1
 90
        0
176
     1
 40
0.6
176
     1
 41
30.0
176
     1
 63
     7
421
 16777215
176
     1
 74
     2
176
     1
 91
        2
176
     1
 64
     7
176
     1
 65
     7
176
     1
 75
     1
176
     1
175
     1
176
     1
 42
40.0
176
     1
 92
        8
176
     1
 66
     7
176
     1
 43
1.0
176
     1
 76
     1
176
     1
 77
     6
176
     1
 78
     2
176
     1
 67
     7
176
     1
 79
     3
176
     1
170
     0
176
     1
171
     0
176
     1
290
     0
176
     1
 93
        1
176
     1
 44
0.0
176
     1
173
     0
176
     1
1001
ACAD
1000
AcDbSavedByObjectVersion
1070
     0
  0
VISUALSTYLE
  5
3B
102
{ACAD_XDICTIONARY
360
135
102
}
102
{ACAD_REACTORS
330
29
102
}
330
29
100
AcDbVisualStyle
  2
Sketchy
 70
    24
177
     2
291
     0
 71
     1
176
     1
 72
     2
176
     1
 73
     2
176
     1
 90
        0
176
     1
 40
0.6
176
     1
 41
30.0
176
     1
 63
     7
421
 16777215
176
     1
 74
     2
176
     1
 91
        2
176
     1
 64
     7
176
     1
 65
     7
176
     1
 75
     1
176
     1
175
     1
176
     1
 42
40.0
176
     1
 92
       11
176
     1
 66
     7
176
     1
 43
1.0
176
     1
 76
     1
176
     1
 77
     6
176
     1
 78
     2
176
     1
 67
     7
176
     1
 79
     6
176
     1
170
     0
176
     1
171
     0
176
     1
290
     0
176
     1
 93
        1
176
     1
 44
0.0
176
     1
173
     0
176
     1
1001
ACAD
1000
AcDbSavedByObjectVersion
1070
     0
  0
VISUALSTYLE
  5
36
102
{ACAD_XDICTIONARY
360
12B
102
}
102
{ACAD_REACTORS
330
29
102
}
330
29
100
AcDbVisualStyle
  2
Thicken
 70
    13
177
     2
291
     1
 71
     2
176
     1
 72
     2
176
     1
 73
     0
176
     1
 90
        0
176
     1
 40
0.6
176
     1
 41
30.0
176
     1
 63
     7
421
 16777215
176
     1
 74
     1
176
     1
 91
        4
176
     1
 64
     7
176
     1
 65
   257
176
     1
 75
     1
176
     1
175
     1
176
     1
 42
1.0
176
     1
 92
       12
176
     1
 66
     7
176
     1
 43
1.0
176
     1
 76
     1
176
     1
 77
     6
176
     1
 78
     2
176
     1
 67
     7
176
     1
 79
     5
176
     1
170
     0
176
     1
171
     0
176
     1
290
     0
176
     1
 93
        1
176
     1
 44
0.0
176
     1
173
     0
176
     1
1001
ACAD
1000
AcDbSavedByObjectVersion
1070
     0
  0
VISUALSTYLE
  5
30
102
{ACAD_XDICTIONARY
360
11F
102
}
102
{ACAD_REACTORS
330
29
102
}
330
29
100
AcDbVisualStyle
  2
Wireframe
 70
     5
177
     2
291
     0
 71
     0
176
     1
 72
     2
176
     1
 73
     0
176
     1
 90
        0
176
     1
 40
0.6
176
     1
 41
30.0
176
     1
 63
     7
421
 16777215
176
     1
 74
     1
176
     1
 91
        4
176
     1
 64
     7
176
     1
 65
   257
176
     1
 75
     1
176
     1
175
     1
176
     1
 42
1.0
176
     1
 92
        0
176
     1
 66
   257
176
     1
 43
1.0
176
     1
 76
     1
176
     1
 77
     6
176
     1
 78
     2
176
     1
 67
     7
176
     1
 79
     3
176
     1
170
     0
176
     1
171
     0
176
     1
290
     0
176
     1
 93
        1
176
     1
 44
0.0
176
     1
173
     0
176
     1
1001
ACAD
1000
AcDbSavedByObjectVersion
1070
     0
  0
VISUALSTYLE
  5
3C
102
{ACAD_XDICTIONARY
360
137
102
}
102
{ACAD_REACTORS
330
29
102
}
330
29
100
AcDbVisualStyle
  2
X-Ray
 70
    25
177
     2
291
     0
 71
     2
176
     1
 72
     2
176
     1
 73
     1
176
     1
 90
        1
176
     1
 40
0.5
176
     1
 41
30.0
176
     1
 63
     7
421
 16777215
176
     1
 74
     1
176
     1
 91
        0
176
     1
 64
     7
176
     1
 65
   257
176
     1
 75
     1
176
     1
175
     1
176
     1
 42
1.0
176
     1
 92
        8
176
     1
 66
     7
176
     1
 43
1.0
176
     1
 76
     1
176
     1
 77
     6
176
     1
 78
     2
176
     1
 67
     7
176
     1
 79
     3
176
     1
170
     0
176
     1
171
     0
176
     1
290
     0
176
     1
 93
       13
176
     1
 44
0.0
176
     1
173
     0
176
     1
1001
ACAD
1000
AcDbSavedByObjectVersion
1070
     0
  0
DICTIONARYVAR
  5
10F
102
{ACAD_REACTORS
330
10A
102
}
330
10A
100
DictionaryVariables
280
     0
  1
1:1
  0
DICTIONARYVAR
  5
10C
102
{ACAD_REACTORS
330
10A
102
}
330
10A
100
DictionaryVariables
280
     0
  1
STANDARD
  0
DICTIONARYVAR
  5
10B
102
{ACAD_REACTORS
330
10A
102
}
330
10A
100
DictionaryVariables
280
     0
  1
STANDARD
  0
DICTIONARYVAR
  5
10D
102
{ACAD_REACTORS
330
10A
102
}
330
10A
100
DictionaryVariables
280
     0
  1
Imperial24
  0
DICTIONARYVAR
  5
10E
102
{ACAD_REACTORS
330
10A
102
}
330
10A
100
DictionaryVariables
280
     0
  1
Imperial24
  0
DICTIONARY
  5
147
330
6B
100
AcDbDictionary
280
     1
281
     1
  3
ACAD_XREC_ROUNDTRIP
360
148
  0
DICTIONARY
  5
1A
330
19
100
AcDbDictionary
280
     1
281
     1
  3
BUMPTILE
360
1C
  3
DIFFUSETILE
360
1B
  3
OPACITYTILE
360
1F
  3
REFLECTIONTILE
360
1E
  3
REFRACTIONTILE
360
20
  3
SPECULARTILE
360
1D
  0
DICTIONARY
  5
12
330
11
100
AcDbDictionary
280
     1
281
     1
  3
BUMPTILE
360
14
  3
DIFFUSETILE
360
13
  3
OPACITYTILE
360
17
  3
REFLECTIONTILE
360
16
  3
REFRACTIONTILE
360
18
  3
SPECULARTILE
360
15
  0
DICTIONARY
  5
22
330
21
100
AcDbDictionary
280
     1
281
     1
  3
BUMPTILE
360
24
  3
DIFFUSETILE
360
23
  3
OPACITYTILE
360
27
  3
REFLECTIONTILE
360
26
  3
REFRACTIONTILE
360
28
  3
SPECULARTILE
360
25
  0
DICTIONARY
  5
143
330
67
100
AcDbDictionary
280
     1
281
     1
  3
ACAD_XREC_ROUNDTRIP
360
144
  0
DICTIONARY
  5
145
330
69
100
AcDbDictionary
280
     1
281
     1
  3
ACAD_XREC_ROUNDTRIP
360
146
  0
DICTIONARY
  5
110
330
65
100
AcDbDictionary
280
     1
281
     1
  3
ACAD_ROUNDTRIP_2008_TABLESTYLE_CELLSTYLEMAP
360
111
  0
DICTIONARY
  5
11D
330
2F
100
AcDbDictionary
280
     1
281
     1
  3
ACAD_XREC_ROUNDTRIP
360
11E
  0
DICTIONARY
  5
11B
330
2E
100
AcDbDictionary
280
     1
281
     1
  3
ACAD_XREC_ROUNDTRIP
360
11C
  0
DICTIONARY
  5
129
330
35
100
AcDbDictionary
280
     1
281
     1
  3
ACAD_XREC_ROUNDTRIP
360
12A
  0
DICTIONARY
  5
131
330
39
100
AcDbDictionary
280
     1
281
     1
  3
ACAD_XREC_ROUNDTRIP
360
132
  0
DICTIONARY
  5
123
330
32
100
AcDbDictionary
280
     1
281
     1
  3
ACAD_XREC_ROUNDTRIP
360
124
  0
DICTIONARY
  5
127
330
34
100
AcDbDictionary
280
     1
281
     1
  3
ACAD_XREC_ROUNDTRIP
360
128
  0
DICTIONARY
  5
141
330
41
100
AcDbDictionary
280
     1
281
     1
  3
ACAD_XREC_ROUNDTRIP
360
142
  0
DICTIONARY
  5
12F
330
38
100
AcDbDictionary
280
     1
281
     1
  3
ACAD_XREC_ROUNDTRIP
360
130
  0
DICTIONARY
  5
113
330
2A
100
AcDbDictionary
280
     1
281
     1
  3
ACAD_XREC_ROUNDTRIP
360
114
  0
DICTIONARY
  5
115
330
2B
100
AcDbDictionary
280
     1
281
     1
  3
ACAD_XREC_ROUNDTRIP
360
116
  0
DICTIONARY
  5
117
330
2C
100
AcDbDictionary
280
     1
281
     1
  3
ACAD_XREC_ROUNDTRIP
360
118
  0
DICTIONARY
  5
119
330
2D
100
AcDbDictionary
280
     1
281
     1
  3
ACAD_XREC_ROUNDTRIP
360
11A
  0
DICTIONARY
  5
121
330
31
100
AcDbDictionary
280
     1
281
     1
  3
ACAD_XREC_ROUNDTRIP
360
122
  0
DICTIONARY
  5
13D
330
3F
100
AcDbDictionary
280
     1
281
     1
  3
ACAD_XREC_ROUNDTRIP
360
13E
  0
DICTIONARY
  5
12D
330
37
100
AcDbDictionary
280
     1
281
     1
  3
ACAD_XREC_ROUNDTRIP
360
12E
  0
DICTIONARY
  5
13F
330
40
100
AcDbDictionary
280
     1
281
     1
  3
ACAD_XREC_ROUNDTRIP
360
140
  0
DICTIONARY
  5
125
330
33
100
AcDbDictionary
280
     1
281
     1
  3
ACAD_XREC_ROUNDTRIP
360
126
  0
DICTIONARY
  5
13B
330
3E
100
AcDbDictionary
280
     1
281
     1
  3
ACAD_XREC_ROUNDTRIP
360
13C
  0
DICTIONARY
  5
139
330
3D
100
AcDbDictionary
280
     1
281
     1
  3
ACAD_XREC_ROUNDTRIP
360
13A
  0
DICTIONARY
  5
133
330
3A
100
AcDbDictionary
280
     1
281
     1
  3
ACAD_XREC_ROUNDTRIP
360
134
  0
DICTIONARY
  5
135
330
3B
100
AcDbDictionary
280
     1
281
     1
  3
ACAD_XREC_ROUNDTRIP
360
136
  0
DICTIONARY
  5
12B
330
36
100
AcDbDictionary
280
     1
281
     1
  3
ACAD_XREC_ROUNDTRIP
360
12C
  0
DICTIONARY
  5
11F
330
30
100
AcDbDictionary
280
     1
281
     1
  3
ACAD_XREC_ROUNDTRIP
360
120
  0
DICTIONARY
  5
137
330
3C
100
AcDbDictionary
280
     1
281
     1
  3
ACAD_XREC_ROUNDTRIP
360
138
  0
XRECORD
  5
148
102
{ACAD_REACTORS
330
147
102
}
330
147
100
AcDbXrecord
280
     1
102
DISPLAYNAME
  1
Imperial24
102
FLAGS
 90
        0
  0
XRECORD
  5
1C
102
{ACAD_REACTORS
330
1A
102
}
330
1A
100
AcDbXrecord
280
     1
270
     1
271
     1
  0
XRECORD
  5
1B
102
{ACAD_REACTORS
330
1A
102
}
330
1A
100
AcDbXrecord
280
     1
270
     1
271
     1
  0
XRECORD
  5
1F
102
{ACAD_REACTORS
330
1A
102
}
330
1A
100
AcDbXrecord
280
     1
270
     1
271
     1
  0
XRECORD
  5
1E
102
{ACAD_REACTORS
330
1A
102
}
330
1A
100
AcDbXrecord
280
     1
270
     1
271
     1
  0
XRECORD
  5
20
102
{ACAD_REACTORS
330
1A
102
}
330
1A
100
AcDbXrecord
280
     1
270
     1
271
     1
  0
XRECORD
  5
1D
102
{ACAD_REACTORS
330
1A
102
}
330
1A
100
AcDbXrecord
280
     1
270
     1
271
     1
  0
XRECORD
  5
14
102
{ACAD_REACTORS
330
12
102
}
330
12
100
AcDbXrecord
280
     1
270
     1
271
     1
  0
XRECORD
  5
13
102
{ACAD_REACTORS
330
12
102
}
330
12
100
AcDbXrecord
280
     1
270
     1
271
     1
  0
XRECORD
  5
17
102
{ACAD_REACTORS
330
12
102
}
330
12
100
AcDbXrecord
280
     1
270
     1
271
     1
  0
XRECORD
  5
16
102
{ACAD_REACTORS
330
12
102
}
330
12
100
AcDbXrecord
280
     1
270
     1
271
     1
  0
XRECORD
  5
18
102
{ACAD_REACTORS
330
12
102
}
330
12
100
AcDbXrecord
280
     1
270
     1
271
     1
  0
XRECORD
  5
15
102
{ACAD_REACTORS
330
12
102
}
330
12
100
AcDbXrecord
280
     1
270
     1
271
     1
  0
XRECORD
  5
24
102
{ACAD_REACTORS
330
22
102
}
330
22
100
AcDbXrecord
280
     1
270
     1
271
     1
  0
XRECORD
  5
23
102
{ACAD_REACTORS
330
22
102
}
330
22
100
AcDbXrecord
280
     1
270
     1
271
     1
  0
XRECORD
  5
27
102
{ACAD_REACTORS
330
22
102
}
330
22
100
AcDbXrecord
280
     1
270
     1
271
     1
  0
XRECORD
  5
26
102
{ACAD_REACTORS
330
22
102
}
330
22
100
AcDbXrecord
280
     1
270
     1
271
     1
  0
XRECORD
  5
28
102
{ACAD_REACTORS
330
22
102
}
330
22
100
AcDbXrecord
280
     1
270
     1
271
     1
  0
XRECORD
  5
25
102
{ACAD_REACTORS
330
22
102
}
330
22
100
AcDbXrecord
280
     1
270
     1
271
     1
  0
XRECORD
  5
144
102
{ACAD_REACTORS
330
143
102
}
330
143
100
AcDbXrecord
280
     1
102
ACAD_ROUNDTRIP_2012_MLEADER_STYLE
298
     1
  0
XRECORD
  5
146
102
{ACAD_REACTORS
330
145
102
}
330
145
100
AcDbXrecord
280
     1
102
DISPLAYNAME
  1
Imperial24
102
FLAGS
 90
        0
  0
CELLSTYLEMAP
  5
111
102
{ACAD_REACTORS
330
110
102
}
330
110
100
AcDbCellStyleMap
 90
        3
300
CELLSTYLE
  1
TABLEFORMAT_BEGIN
 90
        5
170
     1
 91
        0
 92
    32768
 62
   257
 93
        1
300
CONTENTFORMAT
  1
CONTENTFORMAT_BEGIN
 90
        0
 91
        0
 92
      512
 93
        0
300

 40
0.0
140
1.0
 94
        5
 62
     0
340
55
144
0.25
309
CONTENTFORMAT_END
171
     0
 94
        0
309
TABLEFORMAT_END
  1
CELLSTYLE_BEGIN
 90
        1
 91
        1
300
_TITLE
309
CELLSTYLE_END
300
CELLSTYLE
  1
TABLEFORMAT_BEGIN
 90
        5
170
     1
 91
        0
 92
        0
 62
   257
 93
        1
300
CONTENTFORMAT
  1
CONTENTFORMAT_BEGIN
 90
        0
 91
        0
 92
      512
 93
        0
300

 40
0.0
140
1.0
 94
        5
 62
     0
340
55
144
0.18
309
CONTENTFORMAT_END
171
     0
 94
        0
309
TABLEFORMAT_END
  1
CELLSTYLE_BEGIN
 90
        2
 91
        1
300
_HEADER
309
CELLSTYLE_END
300
CELLSTYLE
  1
TABLEFORMAT_BEGIN
 90
        5
170
     1
 91
        0
 92
        0
 62
   257
 93
        1
300
CONTENTFORMAT
  1
CONTENTFORMAT_BEGIN
 90
        0
 91
        0
 92
      512
 93
        0
300

 40
0.0
140
1.0
 94
        2
 62
     0
340
55
144
0.18
309
CONTENTFORMAT_END
171
     0
 94
        0
309
TABLEFORMAT_END
  1
CELLSTYLE_BEGIN
 90
        3
 91
        2
300
_DATA
309
CELLSTYLE_END
  0
XRECORD
  5
11E
102
{ACAD_REACTORS
330
11D
102
}
330
11D
100
AcDbXrecord
280
     1
102
RTVSPost2010Prop28
280
     1
102
RTVSPost2010PropOp28
 70
     1
102
RTVSPost2010Prop29
280
     1
102
RTVSPost2010PropOp29
 70
     1
102
RTVSPost2010Prop30
280
     0
102
RTVSPost2010PropOp30
 70
     1
102
RTVSPost2010Prop31
280
     0
102
RTVSPost2010PropOp31
 70
     1
102
RTVSPost2010Prop32
280
     0
102
RTVSPost2010PropOp32
 70
     1
102
RTVSPost2010Prop33
280
     0
102
RTVSPost2010PropOp33
 70
     1
102
RTVSPost2010Prop34
280
     0
102
RTVSPost2010PropOp34
 70
     1
102
RTVSPost2010Prop35
280
     0
102
RTVSPost2010PropOp35
 70
     1
102
RTVSPost2010Prop36
280
     0
102
RTVSPost2010PropOp36
 70
     1
102
RTVSPost2010Prop37
 90
       50
102
RTVSPost2010PropOp37
 70
     1
102
RTVSPost2010Prop38
140
0.0
102
RTVSPost2010PropOp38
 70
     1
102
RTVSPost2010Prop39
140
1.0
102
RTVSPost2010PropOp39
 70
     1
102
RTVSPost2010Prop40
 90
        0
102
RTVSPost2010PropOp40
 70
     1
102
RTVSPost2010Prop41ColorIndex
 90
       18
102
RTVSPost2010Prop41ColorRGB
 90
        0
102
RTVSPost2010PropOp41
 70
     1
102
RTVSPost2010Prop42
 90
       50
102
RTVSPost2010PropOp42
 70
     1
102
RTVSPost2010Prop43
 90
        3
102
RTVSPost2010PropOp43
 70
     1
102
RTVSPost2010Prop44ColorIndex
 90
        5
102
RTVSPost2010Prop44ColorRGB
 90
      255
102
RTVSPost2010PropOp44
 70
     1
102
RTVSPost2010Prop45
280
     0
102
RTVSPost2010PropOp45
 70
     1
102
RTVSPost2010Prop46
 90
       50
102
RTVSPost2010PropOp46
 70
     1
102
RTVSPost2010Prop47
 90
       50
102
RTVSPost2010PropOp47
 70
     1
102
RTVSPost2010Prop48
 90
       50
102
RTVSPost2010PropOp48
 70
     1
102
RTVSPost2010Prop49
280
     0
102
RTVSPost2010PropOp49
 70
     1
102
RTVSPost2010Prop50
 90
       50
102
RTVSPost2010PropOp50
 70
     1
102
RTVSPost2010Prop51ColorIndex
 90
      256
102
RTVSPost2010Prop51ColorRGB
 90
-16777216
102
RTVSPost2010PropOp51
 70
     0
102
RTVSPost2010Prop52
140
1.0
102
RTVSPost2010PropOp52
 70
     0
102
RTVSPost2010Prop53
 90
        2
102
RTVSPost2010PropOp53
 70
     1
102
RTVSPost2010Prop54
  1
strokes_ogs.tif
102
RTVSPost2010PropOp54
 70
     1
102
RTVSPost2010Prop55
280
     0
102
RTVSPost2010PropOp55
 70
     1
102
RTVSPost2010Prop56
140
1.0
102
RTVSPost2010PropOp56
 70
     1
102
RTVSPost2010Prop57
140
1.0
102
RTVSPost2010PropOp57
 70
     1
  0
XRECORD
  5
11C
102
{ACAD_REACTORS
330
11B
102
}
330
11B
100
AcDbXrecord
280
     1
102
RTVSPost2010Prop28
280
     0
102
RTVSPost2010PropOp28
 70
     1
102
RTVSPost2010Prop29
280
     1
102
RTVSPost2010PropOp29
 70
     1
102
RTVSPost2010Prop30
280
     1
102
RTVSPost2010PropOp30
 70
     1
102
RTVSPost2010Prop31
280
     0
102
RTVSPost2010PropOp31
 70
     1
102
RTVSPost2010Prop32
280
     0
102
RTVSPost2010PropOp32
 70
     1
102
RTVSPost2010Prop33
280
     0
102
RTVSPost2010PropOp33
 70
     1
102
RTVSPost2010Prop34
280
     0
102
RTVSPost2010PropOp34
 70
     1
102
RTVSPost2010Prop35
280
     0
102
RTVSPost2010PropOp35
 70
     1
102
RTVSPost2010Prop36
280
     0
102
RTVSPost2010PropOp36
 70
     1
102
RTVSPost2010Prop37
 90
       50
102
RTVSPost2010PropOp37
 70
     1
102
RTVSPost2010Prop38
140
0.0
102
RTVSPost2010PropOp38
 70
     1
102
RTVSPost2010Prop39
140
1.0
102
RTVSPost2010PropOp39
 70
     1
102
RTVSPost2010Prop40
 90
        0
102
RTVSPost2010PropOp40
 70
     1
102
RTVSPost2010Prop41ColorIndex
 90
       18
102
RTVSPost2010Prop41ColorRGB
 90
        0
102
RTVSPost2010PropOp41
 70
     1
102
RTVSPost2010Prop42
 90
       50
102
RTVSPost2010PropOp42
 70
     1
102
RTVSPost2010Prop43
 90
        3
102
RTVSPost2010PropOp43
 70
     1
102
RTVSPost2010Prop44ColorIndex
 90
        5
102
RTVSPost2010Prop44ColorRGB
 90
      255
102
RTVSPost2010PropOp44
 70
     1
102
RTVSPost2010Prop45
280
     0
102
RTVSPost2010PropOp45
 70
     1
102
RTVSPost2010Prop46
 90
       50
102
RTVSPost2010PropOp46
 70
     1
102
RTVSPost2010Prop47
 90
       50
102
RTVSPost2010PropOp47
 70
     1
102
RTVSPost2010Prop48
 90
       50
102
RTVSPost2010PropOp48
 70
     1
102
RTVSPost2010Prop49
280
     0
102
RTVSPost2010PropOp49
 70
     1
102
RTVSPost2010Prop50
 90
       50
102
RTVSPost2010PropOp50
 70
     1
102
RTVSPost2010Prop51ColorIndex
 90
      256
102
RTVSPost2010Prop51ColorRGB
 90
-16777216
102
RTVSPost2010PropOp51
 70
     0
102
RTVSPost2010Prop52
140
1.0
102
RTVSPost2010PropOp52
 70
     0
102
RTVSPost2010Prop53
 90
        2
102
RTVSPost2010PropOp53
 70
     1
102
RTVSPost2010Prop54
  1
strokes_ogs.tif
102
RTVSPost2010PropOp54
 70
     1
102
RTVSPost2010Prop55
280
     0
102
RTVSPost2010PropOp55
 70
     1
102
RTVSPost2010Prop56
140
1.0
102
RTVSPost2010PropOp56
 70
     1
102
RTVSPost2010Prop57
140
1.0
102
RTVSPost2010PropOp57
 70
     1
  0
XRECORD
  5
12A
102
{ACAD_REACTORS
330
129
102
}
330
129
100
AcDbXrecord
280
     1
102
RTVSPost2010Prop28
280
     0
102
RTVSPost2010PropOp28
 70
     1
102
RTVSPost2010Prop29
280
     1
102
RTVSPost2010PropOp29
 70
     1
102
RTVSPost2010Prop30
280
     1
102
RTVSPost2010PropOp30
 70
     1
102
RTVSPost2010Prop31
280
     0
102
RTVSPost2010PropOp31
 70
     1
102
RTVSPost2010Prop32
280
     0
102
RTVSPost2010PropOp32
 70
     1
102
RTVSPost2010Prop33
280
     0
102
RTVSPost2010PropOp33
 70
     1
102
RTVSPost2010Prop34
280
     0
102
RTVSPost2010PropOp34
 70
     1
102
RTVSPost2010Prop35
280
     0
102
RTVSPost2010PropOp35
 70
     1
102
RTVSPost2010Prop36
280
     0
102
RTVSPost2010PropOp36
 70
     1
102
RTVSPost2010Prop37
 90
       50
102
RTVSPost2010PropOp37
 70
     1
102
RTVSPost2010Prop38
140
0.0
102
RTVSPost2010PropOp38
 70
     1
102
RTVSPost2010Prop39
140
1.0
102
RTVSPost2010PropOp39
 70
     1
102
RTVSPost2010Prop40
 90
        0
102
RTVSPost2010PropOp40
 70
     1
102
RTVSPost2010Prop41ColorIndex
 90
       18
102
RTVSPost2010Prop41ColorRGB
 90
        0
102
RTVSPost2010PropOp41
 70
     1
102
RTVSPost2010Prop42
 90
       50
102
RTVSPost2010PropOp42
 70
     1
102
RTVSPost2010Prop43
 90
        3
102
RTVSPost2010PropOp43
 70
     1
102
RTVSPost2010Prop44ColorIndex
 90
        5
102
RTVSPost2010Prop44ColorRGB
 90
      255
102
RTVSPost2010PropOp44
 70
     1
102
RTVSPost2010Prop45
280
     0
102
RTVSPost2010PropOp45
 70
     1
102
RTVSPost2010Prop46
 90
       50
102
RTVSPost2010PropOp46
 70
     1
102
RTVSPost2010Prop47
 90
       50
102
RTVSPost2010PropOp47
 70
     1
102
RTVSPost2010Prop48
 90
       50
102
RTVSPost2010PropOp48
 70
     1
102
RTVSPost2010Prop49
280
     0
102
RTVSPost2010PropOp49
 70
     1
102
RTVSPost2010Prop50
 90
       50
102
RTVSPost2010PropOp50
 70
     1
102
RTVSPost2010Prop51ColorIndex
 90
      256
102
RTVSPost2010Prop51ColorRGB
 90
-16777216
102
RTVSPost2010PropOp51
 70
     0
102
RTVSPost2010Prop52
140
1.0
102
RTVSPost2010PropOp52
 70
     0
102
RTVSPost2010Prop53
 90
        2
102
RTVSPost2010PropOp53
 70
     1
102
RTVSPost2010Prop54
  1
strokes_ogs.tif
102
RTVSPost2010PropOp54
 70
     1
102
RTVSPost2010Prop55
280
     0
102
RTVSPost2010PropOp55
 70
     1
102
RTVSPost2010Prop56
140
1.0
102
RTVSPost2010PropOp56
 70
     1
102
RTVSPost2010Prop57
140
1.0
102
RTVSPost2010PropOp57
 70
     1
  0
XRECORD
  5
132
102
{ACAD_REACTORS
330
131
102
}
330
131
100
AcDbXrecord
280
     1
102
RTVSPost2010Prop28
280
     0
102
RTVSPost2010PropOp28
 70
     1
102
RTVSPost2010Prop29
280
     1
102
RTVSPost2010PropOp29
 70
     1
102
RTVSPost2010Prop30
280
     1
102
RTVSPost2010PropOp30
 70
     1
102
RTVSPost2010Prop31
280
     0
102
RTVSPost2010PropOp31
 70
     1
102
RTVSPost2010Prop32
280
     0
102
RTVSPost2010PropOp32
 70
     1
102
RTVSPost2010Prop33
280
     0
102
RTVSPost2010PropOp33
 70
     1
102
RTVSPost2010Prop34
280
     0
102
RTVSPost2010PropOp34
 70
     1
102
RTVSPost2010Prop35
280
     0
102
RTVSPost2010PropOp35
 70
     1
102
RTVSPost2010Prop36
280
     0
102
RTVSPost2010PropOp36
 70
     1
102
RTVSPost2010Prop37
 90
       50
102
RTVSPost2010PropOp37
 70
     1
102
RTVSPost2010Prop38
140
0.0
102
RTVSPost2010PropOp38
 70
     1
102
RTVSPost2010Prop39
140
1.0
102
RTVSPost2010PropOp39
 70
     1
102
RTVSPost2010Prop40
 90
        0
102
RTVSPost2010PropOp40
 70
     1
102
RTVSPost2010Prop41ColorIndex
 90
       18
102
RTVSPost2010Prop41ColorRGB
 90
        0
102
RTVSPost2010PropOp41
 70
     1
102
RTVSPost2010Prop42
 90
       50
102
RTVSPost2010PropOp42
 70
     1
102
RTVSPost2010Prop43
 90
        3
102
RTVSPost2010PropOp43
 70
     1
102
RTVSPost2010Prop44ColorIndex
 90
        5
102
RTVSPost2010Prop44ColorRGB
 90
      255
102
RTVSPost2010PropOp44
 70
     1
102
RTVSPost2010Prop45
280
     0
102
RTVSPost2010PropOp45
 70
     1
102
RTVSPost2010Prop46
 90
       50
102
RTVSPost2010PropOp46
 70
     1
102
RTVSPost2010Prop47
 90
       50
102
RTVSPost2010PropOp47
 70
     1
102
RTVSPost2010Prop48
 90
       50
102
RTVSPost2010PropOp48
 70
     1
102
RTVSPost2010Prop49
280
     0
102
RTVSPost2010PropOp49
 70
     1
102
RTVSPost2010Prop50
 90
       50
102
RTVSPost2010PropOp50
 70
     1
102
RTVSPost2010Prop51ColorIndex
 90
      256
102
RTVSPost2010Prop51ColorRGB
 90
-16777216
102
RTVSPost2010PropOp51
 70
     0
102
RTVSPost2010Prop52
140
1.0
102
RTVSPost2010PropOp52
 70
     0
102
RTVSPost2010Prop53
 90
        2
102
RTVSPost2010PropOp53
 70
     1
102
RTVSPost2010Prop54
  1
strokes_ogs.tif
102
RTVSPost2010PropOp54
 70
     1
102
RTVSPost2010Prop55
280
     0
102
RTVSPost2010PropOp55
 70
     1
102
RTVSPost2010Prop56
140
1.0
102
RTVSPost2010PropOp56
 70
     1
102
RTVSPost2010Prop57
140
1.0
102
RTVSPost2010PropOp57
 70
     1
  0
XRECORD
  5
124
102
{ACAD_REACTORS
330
123
102
}
330
123
100
AcDbXrecord
280
     1
102
RTVSPost2010Prop28
280
     0
102
RTVSPost2010PropOp28
 70
     1
102
RTVSPost2010Prop29
280
     1
102
RTVSPost2010PropOp29
 70
     1
102
RTVSPost2010Prop30
280
     1
102
RTVSPost2010PropOp30
 70
     1
102
RTVSPost2010Prop31
280
     0
102
RTVSPost2010PropOp31
 70
     1
102
RTVSPost2010Prop32
280
     0
102
RTVSPost2010PropOp32
 70
     1
102
RTVSPost2010Prop33
280
     0
102
RTVSPost2010PropOp33
 70
     1
102
RTVSPost2010Prop34
280
     0
102
RTVSPost2010PropOp34
 70
     1
102
RTVSPost2010Prop35
280
     0
102
RTVSPost2010PropOp35
 70
     1
102
RTVSPost2010Prop36
280
     0
102
RTVSPost2010PropOp36
 70
     1
102
RTVSPost2010Prop37
 90
       50
102
RTVSPost2010PropOp37
 70
     1
102
RTVSPost2010Prop38
140
0.0
102
RTVSPost2010PropOp38
 70
     1
102
RTVSPost2010Prop39
140
1.0
102
RTVSPost2010PropOp39
 70
     1
102
RTVSPost2010Prop40
 90
        0
102
RTVSPost2010PropOp40
 70
     1
102
RTVSPost2010Prop41ColorIndex
 90
       18
102
RTVSPost2010Prop41ColorRGB
 90
        0
102
RTVSPost2010PropOp41
 70
     1
102
RTVSPost2010Prop42
 90
       50
102
RTVSPost2010PropOp42
 70
     1
102
RTVSPost2010Prop43
 90
        3
102
RTVSPost2010PropOp43
 70
     1
102
RTVSPost2010Prop44ColorIndex
 90
        5
102
RTVSPost2010Prop44ColorRGB
 90
      255
102
RTVSPost2010PropOp44
 70
     1
102
RTVSPost2010Prop45
280
     0
102
RTVSPost2010PropOp45
 70
     1
102
RTVSPost2010Prop46
 90
       50
102
RTVSPost2010PropOp46
 70
     1
102
RTVSPost2010Prop47
 90
       50
102
RTVSPost2010PropOp47
 70
     1
102
RTVSPost2010Prop48
 90
       50
102
RTVSPost2010PropOp48
 70
     1
102
RTVSPost2010Prop49
280
     0
102
RTVSPost2010PropOp49
 70
     1
102
RTVSPost2010Prop50
 90
       50
102
RTVSPost2010PropOp50
 70
     1
102
RTVSPost2010Prop51ColorIndex
 90
      256
102
RTVSPost2010Prop51ColorRGB
 90
-16777216
102
RTVSPost2010PropOp51
 70
     0
102
RTVSPost2010Prop52
140
1.0
102
RTVSPost2010PropOp52
 70
     0
102
RTVSPost2010Prop53
 90
        2
102
RTVSPost2010PropOp53
 70
     1
102
RTVSPost2010Prop54
  1
strokes_ogs.tif
102
RTVSPost2010PropOp54
 70
     1
102
RTVSPost2010Prop55
280
     0
102
RTVSPost2010PropOp55
 70
     1
102
RTVSPost2010Prop56
140
1.0
102
RTVSPost2010PropOp56
 70
     1
102
RTVSPost2010Prop57
140
1.0
102
RTVSPost2010PropOp57
 70
     1
  0
XRECORD
  5
128
102
{ACAD_REACTORS
330
127
102
}
330
127
100
AcDbXrecord
280
     1
102
RTVSPost2010Prop28
280
     0
102
RTVSPost2010PropOp28
 70
     1
102
RTVSPost2010Prop29
280
     1
102
RTVSPost2010PropOp29
 70
     1
102
RTVSPost2010Prop30
280
     1
102
RTVSPost2010PropOp30
 70
     1
102
RTVSPost2010Prop31
280
     0
102
RTVSPost2010PropOp31
 70
     1
102
RTVSPost2010Prop32
280
     0
102
RTVSPost2010PropOp32
 70
     1
102
RTVSPost2010Prop33
280
     0
102
RTVSPost2010PropOp33
 70
     1
102
RTVSPost2010Prop34
280
     0
102
RTVSPost2010PropOp34
 70
     1
102
RTVSPost2010Prop35
280
     0
102
RTVSPost2010PropOp35
 70
     1
102
RTVSPost2010Prop36
280
     0
102
RTVSPost2010PropOp36
 70
     1
102
RTVSPost2010Prop37
 90
       50
102
RTVSPost2010PropOp37
 70
     1
102
RTVSPost2010Prop38
140
0.0
102
RTVSPost2010PropOp38
 70
     1
102
RTVSPost2010Prop39
140
1.0
102
RTVSPost2010PropOp39
 70
     1
102
RTVSPost2010Prop40
 90
        0
102
RTVSPost2010PropOp40
 70
     1
102
RTVSPost2010Prop41ColorIndex
 90
       18
102
RTVSPost2010Prop41ColorRGB
 90
        0
102
RTVSPost2010PropOp41
 70
     1
102
RTVSPost2010Prop42
 90
       50
102
RTVSPost2010PropOp42
 70
     1
102
RTVSPost2010Prop43
 90
        3
102
RTVSPost2010PropOp43
 70
     1
102
RTVSPost2010Prop44ColorIndex
 90
        5
102
RTVSPost2010Prop44ColorRGB
 90
      255
102
RTVSPost2010PropOp44
 70
     1
102
RTVSPost2010Prop45
280
     0
102
RTVSPost2010PropOp45
 70
     1
102
RTVSPost2010Prop46
 90
       50
102
RTVSPost2010PropOp46
 70
     1
102
RTVSPost2010Prop47
 90
       50
102
RTVSPost2010PropOp47
 70
     1
102
RTVSPost2010Prop48
 90
       50
102
RTVSPost2010PropOp48
 70
     1
102
RTVSPost2010Prop49
280
     0
102
RTVSPost2010PropOp49
 70
     1
102
RTVSPost2010Prop50
 90
       50
102
RTVSPost2010PropOp50
 70
     1
102
RTVSPost2010Prop51ColorIndex
 90
      256
102
RTVSPost2010Prop51ColorRGB
 90
-16777216
102
RTVSPost2010PropOp51
 70
     0
102
RTVSPost2010Prop52
140
1.0
102
RTVSPost2010PropOp52
 70
     0
102
RTVSPost2010Prop53
 90
        2
102
RTVSPost2010PropOp53
 70
     1
102
RTVSPost2010Prop54
  1
strokes_ogs.tif
102
RTVSPost2010PropOp54
 70
     1
102
RTVSPost2010Prop55
280
     0
102
RTVSPost2010PropOp55
 70
     1
102
RTVSPost2010Prop56
140
1.0
102
RTVSPost2010PropOp56
 70
     1
102
RTVSPost2010Prop57
140
1.0
102
RTVSPost2010PropOp57
 70
     1
  0
XRECORD
  5
142
102
{ACAD_REACTORS
330
141
102
}
330
141
100
AcDbXrecord
280
     1
102
RTVSPost2010Prop28
280
     0
102
RTVSPost2010PropOp28
 70
     0
102
RTVSPost2010Prop29
280
     1
102
RTVSPost2010PropOp29
 70
     0
102
RTVSPost2010Prop30
280
     1
102
RTVSPost2010PropOp30
 70
     0
102
RTVSPost2010Prop31
280
     0
102
RTVSPost2010PropOp31
 70
     0
102
RTVSPost2010Prop32
280
     0
102
RTVSPost2010PropOp32
 70
     0
102
RTVSPost2010Prop33
280
     0
102
RTVSPost2010PropOp33
 70
     0
102
RTVSPost2010Prop34
280
     0
102
RTVSPost2010PropOp34
 70
     0
102
RTVSPost2010Prop35
280
     0
102
RTVSPost2010PropOp35
 70
     0
102
RTVSPost2010Prop36
280
     0
102
RTVSPost2010PropOp36
 70
     0
102
RTVSPost2010Prop37
 90
       50
102
RTVSPost2010PropOp37
 70
     0
102
RTVSPost2010Prop38
140
0.0
102
RTVSPost2010PropOp38
 70
     0
102
RTVSPost2010Prop39
140
1.0
102
RTVSPost2010PropOp39
 70
     0
102
RTVSPost2010Prop40
 90
        0
102
RTVSPost2010PropOp40
 70
     0
102
RTVSPost2010Prop41ColorIndex
 90
       18
102
RTVSPost2010Prop41ColorRGB
 90
        0
102
RTVSPost2010PropOp41
 70
     0
102
RTVSPost2010Prop42
 90
       50
102
RTVSPost2010PropOp42
 70
     0
102
RTVSPost2010Prop43
 90
        3
102
RTVSPost2010PropOp43
 70
     0
102
RTVSPost2010Prop44ColorIndex
 90
        5
102
RTVSPost2010Prop44ColorRGB
 90
      255
102
RTVSPost2010PropOp44
 70
     0
102
RTVSPost2010Prop45
280
     0
102
RTVSPost2010PropOp45
 70
     0
102
RTVSPost2010Prop46
 90
       50
102
RTVSPost2010PropOp46
 70
     0
102
RTVSPost2010Prop47
 90
       50
102
RTVSPost2010PropOp47
 70
     0
102
RTVSPost2010Prop48
 90
       50
102
RTVSPost2010PropOp48
 70
     0
102
RTVSPost2010Prop49
280
     0
102
RTVSPost2010PropOp49
 70
     0
102
RTVSPost2010Prop50
 90
       50
102
RTVSPost2010PropOp50
 70
     0
102
RTVSPost2010Prop51ColorIndex
 90
      256
102
RTVSPost2010Prop51ColorRGB
 90
-16777216
102
RTVSPost2010PropOp51
 70
     0
102
RTVSPost2010Prop52
140
1.0
102
RTVSPost2010PropOp52
 70
     0
102
RTVSPost2010Prop53
 90
        2
102
RTVSPost2010PropOp53
 70
     0
102
RTVSPost2010Prop54
  1
strokes_ogs.tif
102
RTVSPost2010PropOp54
 70
     0
102
RTVSPost2010Prop55
280
     0
102
RTVSPost2010PropOp55
 70
     0
102
RTVSPost2010Prop56
140
1.0
102
RTVSPost2010PropOp56
 70
     0
102
RTVSPost2010Prop57
140
1.0
102
RTVSPost2010PropOp57
 70
     0
  0
XRECORD
  5
130
102
{ACAD_REACTORS
330
12F
102
}
330
12F
100
AcDbXrecord
280
     1
102
RTVSPost2010Prop28
280
     0
102
RTVSPost2010PropOp28
 70
     1
102
RTVSPost2010Prop29
280
     1
102
RTVSPost2010PropOp29
 70
     1
102
RTVSPost2010Prop30
280
     1
102
RTVSPost2010PropOp30
 70
     1
102
RTVSPost2010Prop31
280
     0
102
RTVSPost2010PropOp31
 70
     1
102
RTVSPost2010Prop32
280
     0
102
RTVSPost2010PropOp32
 70
     1
102
RTVSPost2010Prop33
280
     0
102
RTVSPost2010PropOp33
 70
     1
102
RTVSPost2010Prop34
280
     0
102
RTVSPost2010PropOp34
 70
     1
102
RTVSPost2010Prop35
280
     0
102
RTVSPost2010PropOp35
 70
     1
102
RTVSPost2010Prop36
280
     0
102
RTVSPost2010PropOp36
 70
     1
102
RTVSPost2010Prop37
 90
       50
102
RTVSPost2010PropOp37
 70
     1
102
RTVSPost2010Prop38
140
0.0
102
RTVSPost2010PropOp38
 70
     1
102
RTVSPost2010Prop39
140
1.0
102
RTVSPost2010PropOp39
 70
     1
102
RTVSPost2010Prop40
 90
        0
102
RTVSPost2010PropOp40
 70
     1
102
RTVSPost2010Prop41ColorIndex
 90
       18
102
RTVSPost2010Prop41ColorRGB
 90
        0
102
RTVSPost2010PropOp41
 70
     1
102
RTVSPost2010Prop42
 90
       50
102
RTVSPost2010PropOp42
 70
     1
102
RTVSPost2010Prop43
 90
        3
102
RTVSPost2010PropOp43
 70
     1
102
RTVSPost2010Prop44ColorIndex
 90
        5
102
RTVSPost2010Prop44ColorRGB
 90
      255
102
RTVSPost2010PropOp44
 70
     1
102
RTVSPost2010Prop45
280
     0
102
RTVSPost2010PropOp45
 70
     1
102
RTVSPost2010Prop46
 90
       50
102
RTVSPost2010PropOp46
 70
     1
102
RTVSPost2010Prop47
 90
       50
102
RTVSPost2010PropOp47
 70
     1
102
RTVSPost2010Prop48
 90
       50
102
RTVSPost2010PropOp48
 70
     1
102
RTVSPost2010Prop49
280
     0
102
RTVSPost2010PropOp49
 70
     1
102
RTVSPost2010Prop50
 90
       50
102
RTVSPost2010PropOp50
 70
     1
102
RTVSPost2010Prop51ColorIndex
 90
      256
102
RTVSPost2010Prop51ColorRGB
 90
-16777216
102
RTVSPost2010PropOp51
 70
     0
102
RTVSPost2010Prop52
140
1.0
102
RTVSPost2010PropOp52
 70
     0
102
RTVSPost2010Prop53
 90
        2
102
RTVSPost2010PropOp53
 70
     1
102
RTVSPost2010Prop54
  1
strokes_ogs.tif
102
RTVSPost2010PropOp54
 70
     1
102
RTVSPost2010Prop55
280
     0
102
RTVSPost2010PropOp55
 70
     1
102
RTVSPost2010Prop56
140
1.0
102
RTVSPost2010PropOp56
 70
     1
102
RTVSPost2010Prop57
140
1.0
102
RTVSPost2010PropOp57
 70
     1
  0
XRECORD
  5
114
102
{ACAD_REACTORS
330
113
102
}
330
113
100
AcDbXrecord
280
     1
102
RTVSPost2010Prop28
280
     0
102
RTVSPost2010PropOp28
 70
     1
102
RTVSPost2010Prop29
280
     1
102
RTVSPost2010PropOp29
 70
     1
102
RTVSPost2010Prop30
280
     1
102
RTVSPost2010PropOp30
 70
     1
102
RTVSPost2010Prop31
280
     0
102
RTVSPost2010PropOp31
 70
     1
102
RTVSPost2010Prop32
280
     0
102
RTVSPost2010PropOp32
 70
     1
102
RTVSPost2010Prop33
280
     0
102
RTVSPost2010PropOp33
 70
     1
102
RTVSPost2010Prop34
280
     0
102
RTVSPost2010PropOp34
 70
     1
102
RTVSPost2010Prop35
280
     0
102
RTVSPost2010PropOp35
 70
     1
102
RTVSPost2010Prop36
280
     0
102
RTVSPost2010PropOp36
 70
     1
102
RTVSPost2010Prop37
 90
       50
102
RTVSPost2010PropOp37
 70
     1
102
RTVSPost2010Prop38
140
0.0
102
RTVSPost2010PropOp38
 70
     1
102
RTVSPost2010Prop39
140
1.0
102
RTVSPost2010PropOp39
 70
     1
102
RTVSPost2010Prop40
 90
        0
102
RTVSPost2010PropOp40
 70
     1
102
RTVSPost2010Prop41ColorIndex
 90
       18
102
RTVSPost2010Prop41ColorRGB
 90
        0
102
RTVSPost2010PropOp41
 70
     1
102
RTVSPost2010Prop42
 90
       50
102
RTVSPost2010PropOp42
 70
     1
102
RTVSPost2010Prop43
 90
        3
102
RTVSPost2010PropOp43
 70
     1
102
RTVSPost2010Prop44ColorIndex
 90
        5
102
RTVSPost2010Prop44ColorRGB
 90
      255
102
RTVSPost2010PropOp44
 70
     1
102
RTVSPost2010Prop45
280
     0
102
RTVSPost2010PropOp45
 70
     1
102
RTVSPost2010Prop46
 90
       50
102
RTVSPost2010PropOp46
 70
     1
102
RTVSPost2010Prop47
 90
       50
102
RTVSPost2010PropOp47
 70
     1
102
RTVSPost2010Prop48
 90
       50
102
RTVSPost2010PropOp48
 70
     1
102
RTVSPost2010Prop49
280
     0
102
RTVSPost2010PropOp49
 70
     1
102
RTVSPost2010Prop50
 90
       50
102
RTVSPost2010PropOp50
 70
     1
102
RTVSPost2010Prop51ColorIndex
 90
      256
102
RTVSPost2010Prop51ColorRGB
 90
-16777216
102
RTVSPost2010PropOp51
 70
     0
102
RTVSPost2010Prop52
140
1.0
102
RTVSPost2010PropOp52
 70
     0
102
RTVSPost2010Prop53
 90
        2
102
RTVSPost2010PropOp53
 70
     1
102
RTVSPost2010Prop54
  1
strokes_ogs.tif
102
RTVSPost2010PropOp54
 70
     1
102
RTVSPost2010Prop55
280
     0
102
RTVSPost2010PropOp55
 70
     1
102
RTVSPost2010Prop56
140
1.0
102
RTVSPost2010PropOp56
 70
     1
102
RTVSPost2010Prop57
140
1.0
102
RTVSPost2010PropOp57
 70
     1
  0
XRECORD
  5
116
102
{ACAD_REACTORS
330
115
102
}
330
115
100
AcDbXrecord
280
     1
102
RTVSPost2010Prop28
280
     0
102
RTVSPost2010PropOp28
 70
     1
102
RTVSPost2010Prop29
280
     1
102
RTVSPost2010PropOp29
 70
     1
102
RTVSPost2010Prop30
280
     1
102
RTVSPost2010PropOp30
 70
     1
102
RTVSPost2010Prop31
280
     0
102
RTVSPost2010PropOp31
 70
     1
102
RTVSPost2010Prop32
280
     0
102
RTVSPost2010PropOp32
 70
     1
102
RTVSPost2010Prop33
280
     0
102
RTVSPost2010PropOp33
 70
     1
102
RTVSPost2010Prop34
280
     0
102
RTVSPost2010PropOp34
 70
     1
102
RTVSPost2010Prop35
280
     0
102
RTVSPost2010PropOp35
 70
     1
102
RTVSPost2010Prop36
280
     0
102
RTVSPost2010PropOp36
 70
     1
102
RTVSPost2010Prop37
 90
       50
102
RTVSPost2010PropOp37
 70
     1
102
RTVSPost2010Prop38
140
0.0
102
RTVSPost2010PropOp38
 70
     1
102
RTVSPost2010Prop39
140
1.0
102
RTVSPost2010PropOp39
 70
     1
102
RTVSPost2010Prop40
 90
        0
102
RTVSPost2010PropOp40
 70
     1
102
RTVSPost2010Prop41ColorIndex
 90
       18
102
RTVSPost2010Prop41ColorRGB
 90
        0
102
RTVSPost2010PropOp41
 70
     1
102
RTVSPost2010Prop42
 90
       50
102
RTVSPost2010PropOp42
 70
     1
102
RTVSPost2010Prop43
 90
        3
102
RTVSPost2010PropOp43
 70
     1
102
RTVSPost2010Prop44ColorIndex
 90
        5
102
RTVSPost2010Prop44ColorRGB
 90
      255
102
RTVSPost2010PropOp44
 70
     1
102
RTVSPost2010Prop45
280
     0
102
RTVSPost2010PropOp45
 70
     1
102
RTVSPost2010Prop46
 90
       50
102
RTVSPost2010PropOp46
 70
     1
102
RTVSPost2010Prop47
 90
       50
102
RTVSPost2010PropOp47
 70
     1
102
RTVSPost2010Prop48
 90
       50
102
RTVSPost2010PropOp48
 70
     1
102
RTVSPost2010Prop49
280
     0
102
RTVSPost2010PropOp49
 70
     1
102
RTVSPost2010Prop50
 90
       50
102
RTVSPost2010PropOp50
 70
     1
102
RTVSPost2010Prop51ColorIndex
 90
      256
102
RTVSPost2010Prop51ColorRGB
 90
-16777216
102
RTVSPost2010PropOp51
 70
     0
102
RTVSPost2010Prop52
140
1.0
102
RTVSPost2010PropOp52
 70
     0
102
RTVSPost2010Prop53
 90
        2
102
RTVSPost2010PropOp53
 70
     1
102
RTVSPost2010Prop54
  1
strokes_ogs.tif
102
RTVSPost2010PropOp54
 70
     1
102
RTVSPost2010Prop55
280
     0
102
RTVSPost2010PropOp55
 70
     1
102
RTVSPost2010Prop56
140
1.0
102
RTVSPost2010PropOp56
 70
     1
102
RTVSPost2010Prop57
140
1.0
102
RTVSPost2010PropOp57
 70
     1
  0
XRECORD
  5
118
102
{ACAD_REACTORS
330
117
102
}
330
117
100
AcDbXrecord
280
     1
102
RTVSPost2010Prop28
280
     0
102
RTVSPost2010PropOp28
 70
     1
102
RTVSPost2010Prop29
280
     1
102
RTVSPost2010PropOp29
 70
     1
102
RTVSPost2010Prop30
280
     1
102
RTVSPost2010PropOp30
 70
     1
102
RTVSPost2010Prop31
280
     0
102
RTVSPost2010PropOp31
 70
     1
102
RTVSPost2010Prop32
280
     0
102
RTVSPost2010PropOp32
 70
     1
102
RTVSPost2010Prop33
280
     0
102
RTVSPost2010PropOp33
 70
     1
102
RTVSPost2010Prop34
280
     0
102
RTVSPost2010PropOp34
 70
     1
102
RTVSPost2010Prop35
280
     0
102
RTVSPost2010PropOp35
 70
     1
102
RTVSPost2010Prop36
280
     0
102
RTVSPost2010PropOp36
 70
     1
102
RTVSPost2010Prop37
 90
       50
102
RTVSPost2010PropOp37
 70
     1
102
RTVSPost2010Prop38
140
0.0
102
RTVSPost2010PropOp38
 70
     1
102
RTVSPost2010Prop39
140
1.0
102
RTVSPost2010PropOp39
 70
     1
102
RTVSPost2010Prop40
 90
        0
102
RTVSPost2010PropOp40
 70
     1
102
RTVSPost2010Prop41ColorIndex
 90
       18
102
RTVSPost2010Prop41ColorRGB
 90
        0
102
RTVSPost2010PropOp41
 70
     1
102
RTVSPost2010Prop42
 90
       50
102
RTVSPost2010PropOp42
 70
     1
102
RTVSPost2010Prop43
 90
        3
102
RTVSPost2010PropOp43
 70
     1
102
RTVSPost2010Prop44ColorIndex
 90
        5
102
RTVSPost2010Prop44ColorRGB
 90
      255
102
RTVSPost2010PropOp44
 70
     1
102
RTVSPost2010Prop45
280
     0
102
RTVSPost2010PropOp45
 70
     1
102
RTVSPost2010Prop46
 90
       50
102
RTVSPost2010PropOp46
 70
     1
102
RTVSPost2010Prop47
 90
       50
102
RTVSPost2010PropOp47
 70
     1
102
RTVSPost2010Prop48
 90
       50
102
RTVSPost2010PropOp48
 70
     1
102
RTVSPost2010Prop49
280
     0
102
RTVSPost2010PropOp49
 70
     1
102
RTVSPost2010Prop50
 90
       50
102
RTVSPost2010PropOp50
 70
     1
102
RTVSPost2010Prop51ColorIndex
 90
      256
102
RTVSPost2010Prop51ColorRGB
 90
-16777216
102
RTVSPost2010PropOp51
 70
     0
102
RTVSPost2010Prop52
140
1.0
102
RTVSPost2010PropOp52
 70
     0
102
RTVSPost2010Prop53
 90
        2
102
RTVSPost2010PropOp53
 70
     1
102
RTVSPost2010Prop54
  1
strokes_ogs.tif
102
RTVSPost2010PropOp54
 70
     1
102
RTVSPost2010Prop55
280
     0
102
RTVSPost2010PropOp55
 70
     1
102
RTVSPost2010Prop56
140
1.0
102
RTVSPost2010PropOp56
 70
     1
102
RTVSPost2010Prop57
140
1.0
102
RTVSPost2010PropOp57
 70
     1
  0
XRECORD
  5
11A
102
{ACAD_REACTORS
330
119
102
}
330
119
100
AcDbXrecord
280
     1
102
RTVSPost2010Prop28
280
     0
102
RTVSPost2010PropOp28
 70
     1
102
RTVSPost2010Prop29
280
     1
102
RTVSPost2010PropOp29
 70
     1
102
RTVSPost2010Prop30
280
     1
102
RTVSPost2010PropOp30
 70
     1
102
RTVSPost2010Prop31
280
     0
102
RTVSPost2010PropOp31
 70
     1
102
RTVSPost2010Prop32
280
     0
102
RTVSPost2010PropOp32
 70
     1
102
RTVSPost2010Prop33
280
     0
102
RTVSPost2010PropOp33
 70
     1
102
RTVSPost2010Prop34
280
     0
102
RTVSPost2010PropOp34
 70
     1
102
RTVSPost2010Prop35
280
     0
102
RTVSPost2010PropOp35
 70
     1
102
RTVSPost2010Prop36
280
     0
102
RTVSPost2010PropOp36
 70
     1
102
RTVSPost2010Prop37
 90
       50
102
RTVSPost2010PropOp37
 70
     1
102
RTVSPost2010Prop38
140
0.0
102
RTVSPost2010PropOp38
 70
     1
102
RTVSPost2010Prop39
140
1.0
102
RTVSPost2010PropOp39
 70
     1
102
RTVSPost2010Prop40
 90
        0
102
RTVSPost2010PropOp40
 70
     1
102
RTVSPost2010Prop41ColorIndex
 90
       18
102
RTVSPost2010Prop41ColorRGB
 90
        0
102
RTVSPost2010PropOp41
 70
     1
102
RTVSPost2010Prop42
 90
       50
102
RTVSPost2010PropOp42
 70
     1
102
RTVSPost2010Prop43
 90
        3
102
RTVSPost2010PropOp43
 70
     1
102
RTVSPost2010Prop44ColorIndex
 90
        5
102
RTVSPost2010Prop44ColorRGB
 90
      255
102
RTVSPost2010PropOp44
 70
     1
102
RTVSPost2010Prop45
280
     0
102
RTVSPost2010PropOp45
 70
     1
102
RTVSPost2010Prop46
 90
       50
102
RTVSPost2010PropOp46
 70
     1
102
RTVSPost2010Prop47
 90
       50
102
RTVSPost2010PropOp47
 70
     1
102
RTVSPost2010Prop48
 90
       50
102
RTVSPost2010PropOp48
 70
     1
102
RTVSPost2010Prop49
280
     0
102
RTVSPost2010PropOp49
 70
     1
102
RTVSPost2010Prop50
 90
       50
102
RTVSPost2010PropOp50
 70
     1
102
RTVSPost2010Prop51ColorIndex
 90
      256
102
RTVSPost2010Prop51ColorRGB
 90
-16777216
102
RTVSPost2010PropOp51
 70
     0
102
RTVSPost2010Prop52
140
1.0
102
RTVSPost2010PropOp52
 70
     0
102
RTVSPost2010Prop53
 90
        2
102
RTVSPost2010PropOp53
 70
     1
102
RTVSPost2010Prop54
  1
strokes_ogs.tif
102
RTVSPost2010PropOp54
 70
     1
102
RTVSPost2010Prop55
280
     0
102
RTVSPost2010PropOp55
 70
     1
102
RTVSPost2010Prop56
140
1.0
102
RTVSPost2010PropOp56
 70
     1
102
RTVSPost2010Prop57
140
1.0
102
RTVSPost2010PropOp57
 70
     1
  0
XRECORD
  5
122
102
{ACAD_REACTORS
330
121
102
}
330
121
100
AcDbXrecord
280
     1
102
RTVSPost2010Prop28
280
     0
102
RTVSPost2010PropOp28
 70
     1
102
RTVSPost2010Prop29
280
     1
102
RTVSPost2010PropOp29
 70
     1
102
RTVSPost2010Prop30
280
     1
102
RTVSPost2010PropOp30
 70
     1
102
RTVSPost2010Prop31
280
     0
102
RTVSPost2010PropOp31
 70
     1
102
RTVSPost2010Prop32
280
     0
102
RTVSPost2010PropOp32
 70
     1
102
RTVSPost2010Prop33
280
     0
102
RTVSPost2010PropOp33
 70
     1
102
RTVSPost2010Prop34
280
     0
102
RTVSPost2010PropOp34
 70
     1
102
RTVSPost2010Prop35
280
     0
102
RTVSPost2010PropOp35
 70
     1
102
RTVSPost2010Prop36
280
     0
102
RTVSPost2010PropOp36
 70
     1
102
RTVSPost2010Prop37
 90
       50
102
RTVSPost2010PropOp37
 70
     1
102
RTVSPost2010Prop38
140
0.0
102
RTVSPost2010PropOp38
 70
     1
102
RTVSPost2010Prop39
140
1.0
102
RTVSPost2010PropOp39
 70
     1
102
RTVSPost2010Prop40
 90
        0
102
RTVSPost2010PropOp40
 70
     1
102
RTVSPost2010Prop41ColorIndex
 90
       18
102
RTVSPost2010Prop41ColorRGB
 90
        0
102
RTVSPost2010PropOp41
 70
     1
102
RTVSPost2010Prop42
 90
       50
102
RTVSPost2010PropOp42
 70
     1
102
RTVSPost2010Prop43
 90
        3
102
RTVSPost2010PropOp43
 70
     1
102
RTVSPost2010Prop44ColorIndex
 90
        5
102
RTVSPost2010Prop44ColorRGB
 90
      255
102
RTVSPost2010PropOp44
 70
     1
102
RTVSPost2010Prop45
280
     0
102
RTVSPost2010PropOp45
 70
     1
102
RTVSPost2010Prop46
 90
       50
102
RTVSPost2010PropOp46
 70
     1
102
RTVSPost2010Prop47
 90
       50
102
RTVSPost2010PropOp47
 70
     1
102
RTVSPost2010Prop48
 90
       50
102
RTVSPost2010PropOp48
 70
     1
102
RTVSPost2010Prop49
280
     0
102
RTVSPost2010PropOp49
 70
     1
102
RTVSPost2010Prop50
 90
       50
102
RTVSPost2010PropOp50
 70
     1
102
RTVSPost2010Prop51ColorIndex
 90
      256
102
RTVSPost2010Prop51ColorRGB
 90
-16777216
102
RTVSPost2010PropOp51
 70
     0
102
RTVSPost2010Prop52
140
1.0
102
RTVSPost2010PropOp52
 70
     0
102
RTVSPost2010Prop53
 90
        2
102
RTVSPost2010PropOp53
 70
     1
102
RTVSPost2010Prop54
  1
strokes_ogs.tif
102
RTVSPost2010PropOp54
 70
     1
102
RTVSPost2010Prop55
280
     0
102
RTVSPost2010PropOp55
 70
     1
102
RTVSPost2010Prop56
140
1.0
102
RTVSPost2010PropOp56
 70
     1
102
RTVSPost2010Prop57
140
1.0
102
RTVSPost2010PropOp57
 70
     1
  0
XRECORD
  5
13E
102
{ACAD_REACTORS
330
13D
102
}
330
13D
100
AcDbXrecord
280
     1
102
RTVSPost2010Prop28
280
     0
102
RTVSPost2010PropOp28
 70
     0
102
RTVSPost2010Prop29
280
     1
102
RTVSPost2010PropOp29
 70
     0
102
RTVSPost2010Prop30
280
     1
102
RTVSPost2010PropOp30
 70
     0
102
RTVSPost2010Prop31
280
     0
102
RTVSPost2010PropOp31
 70
     0
102
RTVSPost2010Prop32
280
     0
102
RTVSPost2010PropOp32
 70
     0
102
RTVSPost2010Prop33
280
     0
102
RTVSPost2010PropOp33
 70
     0
102
RTVSPost2010Prop34
280
     0
102
RTVSPost2010PropOp34
 70
     0
102
RTVSPost2010Prop35
280
     0
102
RTVSPost2010PropOp35
 70
     0
102
RTVSPost2010Prop36
280
     0
102
RTVSPost2010PropOp36
 70
     0
102
RTVSPost2010Prop37
 90
       50
102
RTVSPost2010PropOp37
 70
     0
102
RTVSPost2010Prop38
140
0.0
102
RTVSPost2010PropOp38
 70
     0
102
RTVSPost2010Prop39
140
1.0
102
RTVSPost2010PropOp39
 70
     0
102
RTVSPost2010Prop40
 90
        0
102
RTVSPost2010PropOp40
 70
     0
102
RTVSPost2010Prop41ColorIndex
 90
       18
102
RTVSPost2010Prop41ColorRGB
 90
        0
102
RTVSPost2010PropOp41
 70
     0
102
RTVSPost2010Prop42
 90
       50
102
RTVSPost2010PropOp42
 70
     0
102
RTVSPost2010Prop43
 90
        3
102
RTVSPost2010PropOp43
 70
     0
102
RTVSPost2010Prop44ColorIndex
 90
        5
102
RTVSPost2010Prop44ColorRGB
 90
      255
102
RTVSPost2010PropOp44
 70
     0
102
RTVSPost2010Prop45
280
     0
102
RTVSPost2010PropOp45
 70
     0
102
RTVSPost2010Prop46
 90
       50
102
RTVSPost2010PropOp46
 70
     0
102
RTVSPost2010Prop47
 90
       50
102
RTVSPost2010PropOp47
 70
     0
102
RTVSPost2010Prop48
 90
       50
102
RTVSPost2010PropOp48
 70
     0
102
RTVSPost2010Prop49
280
     0
102
RTVSPost2010PropOp49
 70
     0
102
RTVSPost2010Prop50
 90
       50
102
RTVSPost2010PropOp50
 70
     0
102
RTVSPost2010Prop51ColorIndex
 90
      256
102
RTVSPost2010Prop51ColorRGB
 90
-16777216
102
RTVSPost2010PropOp51
 70
     0
102
RTVSPost2010Prop52
140
1.0
102
RTVSPost2010PropOp52
 70
     0
102
RTVSPost2010Prop53
 90
        2
102
RTVSPost2010PropOp53
 70
     0
102
RTVSPost2010Prop54
  1
strokes_ogs.tif
102
RTVSPost2010PropOp54
 70
     0
102
RTVSPost2010Prop55
280
     0
102
RTVSPost2010PropOp55
 70
     0
102
RTVSPost2010Prop56
140
1.0
102
RTVSPost2010PropOp56
 70
     0
102
RTVSPost2010Prop57
140
1.0
102
RTVSPost2010PropOp57
 70
     0
  0
XRECORD
  5
12E
102
{ACAD_REACTORS
330
12D
102
}
330
12D
100
AcDbXrecord
280
     1
102
RTVSPost2010Prop28
280
     0
102
RTVSPost2010PropOp28
 70
     1
102
RTVSPost2010Prop29
280
     1
102
RTVSPost2010PropOp29
 70
     1
102
RTVSPost2010Prop30
280
     1
102
RTVSPost2010PropOp30
 70
     1
102
RTVSPost2010Prop31
280
     0
102
RTVSPost2010PropOp31
 70
     1
102
RTVSPost2010Prop32
280
     0
102
RTVSPost2010PropOp32
 70
     1
102
RTVSPost2010Prop33
280
     0
102
RTVSPost2010PropOp33
 70
     1
102
RTVSPost2010Prop34
280
     0
102
RTVSPost2010PropOp34
 70
     1
102
RTVSPost2010Prop35
280
     0
102
RTVSPost2010PropOp35
 70
     1
102
RTVSPost2010Prop36
280
     0
102
RTVSPost2010PropOp36
 70
     1
102
RTVSPost2010Prop37
 90
       50
102
RTVSPost2010PropOp37
 70
     1
102
RTVSPost2010Prop38
140
0.0
102
RTVSPost2010PropOp38
 70
     1
102
RTVSPost2010Prop39
140
1.0
102
RTVSPost2010PropOp39
 70
     1
102
RTVSPost2010Prop40
 90
        0
102
RTVSPost2010PropOp40
 70
     1
102
RTVSPost2010Prop41ColorIndex
 90
       18
102
RTVSPost2010Prop41ColorRGB
 90
        0
102
RTVSPost2010PropOp41
 70
     1
102
RTVSPost2010Prop42
 90
       50
102
RTVSPost2010PropOp42
 70
     1
102
RTVSPost2010Prop43
 90
        3
102
RTVSPost2010PropOp43
 70
     1
102
RTVSPost2010Prop44ColorIndex
 90
        5
102
RTVSPost2010Prop44ColorRGB
 90
      255
102
RTVSPost2010PropOp44
 70
     1
102
RTVSPost2010Prop45
280
     0
102
RTVSPost2010PropOp45
 70
     1
102
RTVSPost2010Prop46
 90
       50
102
RTVSPost2010PropOp46
 70
     1
102
RTVSPost2010Prop47
 90
       50
102
RTVSPost2010PropOp47
 70
     1
102
RTVSPost2010Prop48
 90
       50
102
RTVSPost2010PropOp48
 70
     1
102
RTVSPost2010Prop49
280
     0
102
RTVSPost2010PropOp49
 70
     1
102
RTVSPost2010Prop50
 90
       50
102
RTVSPost2010PropOp50
 70
     1
102
RTVSPost2010Prop51ColorIndex
 90
      256
102
RTVSPost2010Prop51ColorRGB
 90
-16777216
102
RTVSPost2010PropOp51
 70
     0
102
RTVSPost2010Prop52
140
1.0
102
RTVSPost2010PropOp52
 70
     0
102
RTVSPost2010Prop53
 90
        2
102
RTVSPost2010PropOp53
 70
     1
102
RTVSPost2010Prop54
  1
strokes_ogs.tif
102
RTVSPost2010PropOp54
 70
     1
102
RTVSPost2010Prop55
280
     0
102
RTVSPost2010PropOp55
 70
     1
102
RTVSPost2010Prop56
140
1.0
102
RTVSPost2010PropOp56
 70
     1
102
RTVSPost2010Prop57
140
1.0
102
RTVSPost2010PropOp57
 70
     1
  0
XRECORD
  5
140
102
{ACAD_REACTORS
330
13F
102
}
330
13F
100
AcDbXrecord
280
     1
102
RTVSPost2010Prop28
280
     0
102
RTVSPost2010PropOp28
 70
     0
102
RTVSPost2010Prop29
280
     1
102
RTVSPost2010PropOp29
 70
     0
102
RTVSPost2010Prop30
280
     1
102
RTVSPost2010PropOp30
 70
     0
102
RTVSPost2010Prop31
280
     0
102
RTVSPost2010PropOp31
 70
     0
102
RTVSPost2010Prop32
280
     0
102
RTVSPost2010PropOp32
 70
     0
102
RTVSPost2010Prop33
280
     0
102
RTVSPost2010PropOp33
 70
     0
102
RTVSPost2010Prop34
280
     0
102
RTVSPost2010PropOp34
 70
     0
102
RTVSPost2010Prop35
280
     0
102
RTVSPost2010PropOp35
 70
     0
102
RTVSPost2010Prop36
280
     0
102
RTVSPost2010PropOp36
 70
     0
102
RTVSPost2010Prop37
 90
       50
102
RTVSPost2010PropOp37
 70
     0
102
RTVSPost2010Prop38
140
0.0
102
RTVSPost2010PropOp38
 70
     0
102
RTVSPost2010Prop39
140
1.0
102
RTVSPost2010PropOp39
 70
     0
102
RTVSPost2010Prop40
 90
        0
102
RTVSPost2010PropOp40
 70
     0
102
RTVSPost2010Prop41ColorIndex
 90
       18
102
RTVSPost2010Prop41ColorRGB
 90
        0
102
RTVSPost2010PropOp41
 70
     0
102
RTVSPost2010Prop42
 90
       50
102
RTVSPost2010PropOp42
 70
     0
102
RTVSPost2010Prop43
 90
        3
102
RTVSPost2010PropOp43
 70
     0
102
RTVSPost2010Prop44ColorIndex
 90
        5
102
RTVSPost2010Prop44ColorRGB
 90
      255
102
RTVSPost2010PropOp44
 70
     0
102
RTVSPost2010Prop45
280
     0
102
RTVSPost2010PropOp45
 70
     0
102
RTVSPost2010Prop46
 90
       50
102
RTVSPost2010PropOp46
 70
     0
102
RTVSPost2010Prop47
 90
       50
102
RTVSPost2010PropOp47
 70
     0
102
RTVSPost2010Prop48
 90
       50
102
RTVSPost2010PropOp48
 70
     0
102
RTVSPost2010Prop49
280
     0
102
RTVSPost2010PropOp49
 70
     0
102
RTVSPost2010Prop50
 90
       50
102
RTVSPost2010PropOp50
 70
     0
102
RTVSPost2010Prop51ColorIndex
 90
      256
102
RTVSPost2010Prop51ColorRGB
 90
-16777216
102
RTVSPost2010PropOp51
 70
     0
102
RTVSPost2010Prop52
140
1.0
102
RTVSPost2010PropOp52
 70
     0
102
RTVSPost2010Prop53
 90
        2
102
RTVSPost2010PropOp53
 70
     0
102
RTVSPost2010Prop54
  1
strokes_ogs.tif
102
RTVSPost2010PropOp54
 70
     0
102
RTVSPost2010Prop55
280
     0
102
RTVSPost2010PropOp55
 70
     0
102
RTVSPost2010Prop56
140
1.0
102
RTVSPost2010PropOp56
 70
     0
102
RTVSPost2010Prop57
140
1.0
102
RTVSPost2010PropOp57
 70
     0
  0
XRECORD
  5
126
102
{ACAD_REACTORS
330
125
102
}
330
125
100
AcDbXrecord
280
     1
102
RTVSPost2010Prop28
280
     0
102
RTVSPost2010PropOp28
 70
     1
102
RTVSPost2010Prop29
280
     1
102
RTVSPost2010PropOp29
 70
     1
102
RTVSPost2010Prop30
280
     1
102
RTVSPost2010PropOp30
 70
     1
102
RTVSPost2010Prop31
280
     0
102
RTVSPost2010PropOp31
 70
     1
102
RTVSPost2010Prop32
280
     0
102
RTVSPost2010PropOp32
 70
     1
102
RTVSPost2010Prop33
280
     0
102
RTVSPost2010PropOp33
 70
     1
102
RTVSPost2010Prop34
280
     0
102
RTVSPost2010PropOp34
 70
     1
102
RTVSPost2010Prop35
280
     0
102
RTVSPost2010PropOp35
 70
     1
102
RTVSPost2010Prop36
280
     0
102
RTVSPost2010PropOp36
 70
     1
102
RTVSPost2010Prop37
 90
       50
102
RTVSPost2010PropOp37
 70
     1
102
RTVSPost2010Prop38
140
0.0
102
RTVSPost2010PropOp38
 70
     1
102
RTVSPost2010Prop39
140
1.0
102
RTVSPost2010PropOp39
 70
     1
102
RTVSPost2010Prop40
 90
        0
102
RTVSPost2010PropOp40
 70
     1
102
RTVSPost2010Prop41ColorIndex
 90
       18
102
RTVSPost2010Prop41ColorRGB
 90
        0
102
RTVSPost2010PropOp41
 70
     1
102
RTVSPost2010Prop42
 90
       50
102
RTVSPost2010PropOp42
 70
     1
102
RTVSPost2010Prop43
 90
        3
102
RTVSPost2010PropOp43
 70
     1
102
RTVSPost2010Prop44ColorIndex
 90
        5
102
RTVSPost2010Prop44ColorRGB
 90
      255
102
RTVSPost2010PropOp44
 70
     1
102
RTVSPost2010Prop45
280
     0
102
RTVSPost2010PropOp45
 70
     1
102
RTVSPost2010Prop46
 90
       50
102
RTVSPost2010PropOp46
 70
     1
102
RTVSPost2010Prop47
 90
       50
102
RTVSPost2010PropOp47
 70
     1
102
RTVSPost2010Prop48
 90
       50
102
RTVSPost2010PropOp48
 70
     1
102
RTVSPost2010Prop49
280
     0
102
RTVSPost2010PropOp49
 70
     1
102
RTVSPost2010Prop50
 90
       50
102
RTVSPost2010PropOp50
 70
     1
102
RTVSPost2010Prop51ColorIndex
 90
      256
102
RTVSPost2010Prop51ColorRGB
 90
-16777216
102
RTVSPost2010PropOp51
 70
     0
102
RTVSPost2010Prop52
140
1.0
102
RTVSPost2010PropOp52
 70
     0
102
RTVSPost2010Prop53
 90
        2
102
RTVSPost2010PropOp53
 70
     1
102
RTVSPost2010Prop54
  1
strokes_ogs.tif
102
RTVSPost2010PropOp54
 70
     1
102
RTVSPost2010Prop55
280
     0
102
RTVSPost2010PropOp55
 70
     1
102
RTVSPost2010Prop56
140
1.0
102
RTVSPost2010PropOp56
 70
     1
102
RTVSPost2010Prop57
140
1.0
102
RTVSPost2010PropOp57
 70
     1
  0
XRECORD
  5
13C
102
{ACAD_REACTORS
330
13B
102
}
330
13B
100
AcDbXrecord
280
     1
102
RTVSPost2010Prop28
280
     0
102
RTVSPost2010PropOp28
 70
     1
102
RTVSPost2010Prop29
280
     1
102
RTVSPost2010PropOp29
 70
     1
102
RTVSPost2010Prop30
280
     1
102
RTVSPost2010PropOp30
 70
     1
102
RTVSPost2010Prop31
280
     0
102
RTVSPost2010PropOp31
 70
     1
102
RTVSPost2010Prop32
280
     0
102
RTVSPost2010PropOp32
 70
     1
102
RTVSPost2010Prop33
280
     0
102
RTVSPost2010PropOp33
 70
     1
102
RTVSPost2010Prop34
280
     0
102
RTVSPost2010PropOp34
 70
     1
102
RTVSPost2010Prop35
280
     0
102
RTVSPost2010PropOp35
 70
     1
102
RTVSPost2010Prop36
280
     0
102
RTVSPost2010PropOp36
 70
     1
102
RTVSPost2010Prop37
 90
       50
102
RTVSPost2010PropOp37
 70
     1
102
RTVSPost2010Prop38
140
0.0
102
RTVSPost2010PropOp38
 70
     1
102
RTVSPost2010Prop39
140
1.0
102
RTVSPost2010PropOp39
 70
     1
102
RTVSPost2010Prop40
 90
        0
102
RTVSPost2010PropOp40
 70
     1
102
RTVSPost2010Prop41ColorIndex
 90
       18
102
RTVSPost2010Prop41ColorRGB
 90
        0
102
RTVSPost2010PropOp41
 70
     1
102
RTVSPost2010Prop42
 90
       50
102
RTVSPost2010PropOp42
 70
     1
102
RTVSPost2010Prop43
 90
        3
102
RTVSPost2010PropOp43
 70
     1
102
RTVSPost2010Prop44ColorIndex
 90
        5
102
RTVSPost2010Prop44ColorRGB
 90
      255
102
RTVSPost2010PropOp44
 70
     1
102
RTVSPost2010Prop45
280
     0
102
RTVSPost2010PropOp45
 70
     1
102
RTVSPost2010Prop46
 90
       50
102
RTVSPost2010PropOp46
 70
     1
102
RTVSPost2010Prop47
 90
       50
102
RTVSPost2010PropOp47
 70
     1
102
RTVSPost2010Prop48
 90
       50
102
RTVSPost2010PropOp48
 70
     1
102
RTVSPost2010Prop49
280
     0
102
RTVSPost2010PropOp49
 70
     1
102
RTVSPost2010Prop50
 90
       50
102
RTVSPost2010PropOp50
 70
     1
102
RTVSPost2010Prop51ColorIndex
 90
      256
102
RTVSPost2010Prop51ColorRGB
 90
-16777216
102
RTVSPost2010PropOp51
 70
     0
102
RTVSPost2010Prop52
140
1.0
102
RTVSPost2010PropOp52
 70
     0
102
RTVSPost2010Prop53
 90
        2
102
RTVSPost2010PropOp53
 70
     1
102
RTVSPost2010Prop54
  1
strokes_ogs.tif
102
RTVSPost2010PropOp54
 70
     1
102
RTVSPost2010Prop55
280
     0
102
RTVSPost2010PropOp55
 70
     1
102
RTVSPost2010Prop56
140
1.0
102
RTVSPost2010PropOp56
 70
     1
102
RTVSPost2010Prop57
140
1.0
102
RTVSPost2010PropOp57
 70
     1
  0
XRECORD
  5
13A
102
{ACAD_REACTORS
330
139
102
}
330
139
100
AcDbXrecord
280
     1
102
RTVSPost2010Prop28
280
     0
102
RTVSPost2010PropOp28
 70
     1
102
RTVSPost2010Prop29
280
     1
102
RTVSPost2010PropOp29
 70
     1
102
RTVSPost2010Prop30
280
     1
102
RTVSPost2010PropOp30
 70
     1
102
RTVSPost2010Prop31
280
     0
102
RTVSPost2010PropOp31
 70
     1
102
RTVSPost2010Prop32
280
     0
102
RTVSPost2010PropOp32
 70
     1
102
RTVSPost2010Prop33
280
     0
102
RTVSPost2010PropOp33
 70
     1
102
RTVSPost2010Prop34
280
     0
102
RTVSPost2010PropOp34
 70
     1
102
RTVSPost2010Prop35
280
     0
102
RTVSPost2010PropOp35
 70
     1
102
RTVSPost2010Prop36
280
     0
102
RTVSPost2010PropOp36
 70
     1
102
RTVSPost2010Prop37
 90
       50
102
RTVSPost2010PropOp37
 70
     1
102
RTVSPost2010Prop38
140
0.0
102
RTVSPost2010PropOp38
 70
     1
102
RTVSPost2010Prop39
140
1.0
102
RTVSPost2010PropOp39
 70
     1
102
RTVSPost2010Prop40
 90
        0
102
RTVSPost2010PropOp40
 70
     1
102
RTVSPost2010Prop41ColorIndex
 90
       18
102
RTVSPost2010Prop41ColorRGB
 90
        0
102
RTVSPost2010PropOp41
 70
     1
102
RTVSPost2010Prop42
 90
       50
102
RTVSPost2010PropOp42
 70
     1
102
RTVSPost2010Prop43
 90
        3
102
RTVSPost2010PropOp43
 70
     1
102
RTVSPost2010Prop44ColorIndex
 90
        5
102
RTVSPost2010Prop44ColorRGB
 90
      255
102
RTVSPost2010PropOp44
 70
     1
102
RTVSPost2010Prop45
280
     0
102
RTVSPost2010PropOp45
 70
     1
102
RTVSPost2010Prop46
 90
       50
102
RTVSPost2010PropOp46
 70
     1
102
RTVSPost2010Prop47
 90
       50
102
RTVSPost2010PropOp47
 70
     1
102
RTVSPost2010Prop48
 90
       50
102
RTVSPost2010PropOp48
 70
     1
102
RTVSPost2010Prop49
280
     0
102
RTVSPost2010PropOp49
 70
     1
102
RTVSPost2010Prop50
 90
       50
102
RTVSPost2010PropOp50
 70
     1
102
RTVSPost2010Prop51ColorIndex
 90
      256
102
RTVSPost2010Prop51ColorRGB
 90
-16777216
102
RTVSPost2010PropOp51
 70
     0
102
RTVSPost2010Prop52
140
1.0
102
RTVSPost2010PropOp52
 70
     0
102
RTVSPost2010Prop53
 90
        2
102
RTVSPost2010PropOp53
 70
     1
102
RTVSPost2010Prop54
  1
strokes_ogs.tif
102
RTVSPost2010PropOp54
 70
     1
102
RTVSPost2010Prop55
280
     0
102
RTVSPost2010PropOp55
 70
     1
102
RTVSPost2010Prop56
140
1.0
102
RTVSPost2010PropOp56
 70
     1
102
RTVSPost2010Prop57
140
1.0
102
RTVSPost2010PropOp57
 70
     1
  0
XRECORD
  5
134
102
{ACAD_REACTORS
330
133
102
}
330
133
100
AcDbXrecord
280
     1
102
RTVSPost2010Prop28
280
     0
102
RTVSPost2010PropOp28
 70
     1
102
RTVSPost2010Prop29
280
     1
102
RTVSPost2010PropOp29
 70
     1
102
RTVSPost2010Prop30
280
     1
102
RTVSPost2010PropOp30
 70
     1
102
RTVSPost2010Prop31
280
     0
102
RTVSPost2010PropOp31
 70
     1
102
RTVSPost2010Prop32
280
     0
102
RTVSPost2010PropOp32
 70
     1
102
RTVSPost2010Prop33
280
     0
102
RTVSPost2010PropOp33
 70
     1
102
RTVSPost2010Prop34
280
     0
102
RTVSPost2010PropOp34
 70
     1
102
RTVSPost2010Prop35
280
     0
102
RTVSPost2010PropOp35
 70
     1
102
RTVSPost2010Prop36
280
     0
102
RTVSPost2010PropOp36
 70
     1
102
RTVSPost2010Prop37
 90
       50
102
RTVSPost2010PropOp37
 70
     1
102
RTVSPost2010Prop38
140
0.0
102
RTVSPost2010PropOp38
 70
     1
102
RTVSPost2010Prop39
140
1.0
102
RTVSPost2010PropOp39
 70
     1
102
RTVSPost2010Prop40
 90
        0
102
RTVSPost2010PropOp40
 70
     1
102
RTVSPost2010Prop41ColorIndex
 90
       18
102
RTVSPost2010Prop41ColorRGB
 90
        0
102
RTVSPost2010PropOp41
 70
     1
102
RTVSPost2010Prop42
 90
       50
102
RTVSPost2010PropOp42
 70
     1
102
RTVSPost2010Prop43
 90
        3
102
RTVSPost2010PropOp43
 70
     1
102
RTVSPost2010Prop44ColorIndex
 90
        5
102
RTVSPost2010Prop44ColorRGB
 90
      255
102
RTVSPost2010PropOp44
 70
     1
102
RTVSPost2010Prop45
280
     0
102
RTVSPost2010PropOp45
 70
     1
102
RTVSPost2010Prop46
 90
       50
102
RTVSPost2010PropOp46
 70
     1
102
RTVSPost2010Prop47
 90
       50
102
RTVSPost2010PropOp47
 70
     1
102
RTVSPost2010Prop48
 90
       50
102
RTVSPost2010PropOp48
 70
     1
102
RTVSPost2010Prop49
280
     0
102
RTVSPost2010PropOp49
 70
     1
102
RTVSPost2010Prop50
 90
       50
102
RTVSPost2010PropOp50
 70
     1
102
RTVSPost2010Prop51ColorIndex
 90
      256
102
RTVSPost2010Prop51ColorRGB
 90
-16777216
102
RTVSPost2010PropOp51
 70
     0
102
RTVSPost2010Prop52
140
1.0
102
RTVSPost2010PropOp52
 70
     0
102
RTVSPost2010Prop53
 90
        2
102
RTVSPost2010PropOp53
 70
     1
102
RTVSPost2010Prop54
  1
strokes_ogs.tif
102
RTVSPost2010PropOp54
 70
     1
102
RTVSPost2010Prop55
280
     0
102
RTVSPost2010PropOp55
 70
     1
102
RTVSPost2010Prop56
140
1.0
102
RTVSPost2010PropOp56
 70
     1
102
RTVSPost2010Prop57
140
1.0
102
RTVSPost2010PropOp57
 70
     1
  0
XRECORD
  5
136
102
{ACAD_REACTORS
330
135
102
}
330
135
100
AcDbXrecord
280
     1
102
RTVSPost2010Prop28
280
     0
102
RTVSPost2010PropOp28
 70
     1
102
RTVSPost2010Prop29
280
     1
102
RTVSPost2010PropOp29
 70
     1
102
RTVSPost2010Prop30
280
     1
102
RTVSPost2010PropOp30
 70
     1
102
RTVSPost2010Prop31
280
     0
102
RTVSPost2010PropOp31
 70
     1
102
RTVSPost2010Prop32
280
     0
102
RTVSPost2010PropOp32
 70
     1
102
RTVSPost2010Prop33
280
     0
102
RTVSPost2010PropOp33
 70
     1
102
RTVSPost2010Prop34
280
     0
102
RTVSPost2010PropOp34
 70
     1
102
RTVSPost2010Prop35
280
     0
102
RTVSPost2010PropOp35
 70
     1
102
RTVSPost2010Prop36
280
     0
102
RTVSPost2010PropOp36
 70
     1
102
RTVSPost2010Prop37
 90
       50
102
RTVSPost2010PropOp37
 70
     1
102
RTVSPost2010Prop38
140
0.0
102
RTVSPost2010PropOp38
 70
     1
102
RTVSPost2010Prop39
140
1.0
102
RTVSPost2010PropOp39
 70
     1
102
RTVSPost2010Prop40
 90
        0
102
RTVSPost2010PropOp40
 70
     1
102
RTVSPost2010Prop41ColorIndex
 90
       18
102
RTVSPost2010Prop41ColorRGB
 90
        0
102
RTVSPost2010PropOp41
 70
     1
102
RTVSPost2010Prop42
 90
       50
102
RTVSPost2010PropOp42
 70
     1
102
RTVSPost2010Prop43
 90
        3
102
RTVSPost2010PropOp43
 70
     1
102
RTVSPost2010Prop44ColorIndex
 90
        5
102
RTVSPost2010Prop44ColorRGB
 90
      255
102
RTVSPost2010PropOp44
 70
     1
102
RTVSPost2010Prop45
280
     0
102
RTVSPost2010PropOp45
 70
     1
102
RTVSPost2010Prop46
 90
       50
102
RTVSPost2010PropOp46
 70
     1
102
RTVSPost2010Prop47
 90
       50
102
RTVSPost2010PropOp47
 70
     1
102
RTVSPost2010Prop48
 90
       50
102
RTVSPost2010PropOp48
 70
     1
102
RTVSPost2010Prop49
280
     0
102
RTVSPost2010PropOp49
 70
     1
102
RTVSPost2010Prop50
 90
       50
102
RTVSPost2010PropOp50
 70
     1
102
RTVSPost2010Prop51ColorIndex
 90
      256
102
RTVSPost2010Prop51ColorRGB
 90
-16777216
102
RTVSPost2010PropOp51
 70
     0
102
RTVSPost2010Prop52
140
1.0
102
RTVSPost2010PropOp52
 70
     0
102
RTVSPost2010Prop53
 90
        2
102
RTVSPost2010PropOp53
 70
     1
102
RTVSPost2010Prop54
  1
strokes_ogs.tif
102
RTVSPost2010PropOp54
 70
     1
102
RTVSPost2010Prop55
280
     0
102
RTVSPost2010PropOp55
 70
     1
102
RTVSPost2010Prop56
140
1.0
102
RTVSPost2010PropOp56
 70
     1
102
RTVSPost2010Prop57
140
1.0
102
RTVSPost2010PropOp57
 70
     1
  0
XRECORD
  5
12C
102
{ACAD_REACTORS
330
12B
102
}
330
12B
100
AcDbXrecord
280
     1
102
RTVSPost2010Prop28
280
     0
102
RTVSPost2010PropOp28
 70
     1
102
RTVSPost2010Prop29
280
     1
102
RTVSPost2010PropOp29
 70
     1
102
RTVSPost2010Prop30
280
     1
102
RTVSPost2010PropOp30
 70
     1
102
RTVSPost2010Prop31
280
     0
102
RTVSPost2010PropOp31
 70
     1
102
RTVSPost2010Prop32
280
     0
102
RTVSPost2010PropOp32
 70
     1
102
RTVSPost2010Prop33
280
     0
102
RTVSPost2010PropOp33
 70
     1
102
RTVSPost2010Prop34
280
     0
102
RTVSPost2010PropOp34
 70
     1
102
RTVSPost2010Prop35
280
     0
102
RTVSPost2010PropOp35
 70
     1
102
RTVSPost2010Prop36
280
     0
102
RTVSPost2010PropOp36
 70
     1
102
RTVSPost2010Prop37
 90
       50
102
RTVSPost2010PropOp37
 70
     1
102
RTVSPost2010Prop38
140
0.0
102
RTVSPost2010PropOp38
 70
     1
102
RTVSPost2010Prop39
140
1.0
102
RTVSPost2010PropOp39
 70
     1
102
RTVSPost2010Prop40
 90
        0
102
RTVSPost2010PropOp40
 70
     1
102
RTVSPost2010Prop41ColorIndex
 90
       18
102
RTVSPost2010Prop41ColorRGB
 90
        0
102
RTVSPost2010PropOp41
 70
     1
102
RTVSPost2010Prop42
 90
       50
102
RTVSPost2010PropOp42
 70
     1
102
RTVSPost2010Prop43
 90
        3
102
RTVSPost2010PropOp43
 70
     1
102
RTVSPost2010Prop44ColorIndex
 90
        5
102
RTVSPost2010Prop44ColorRGB
 90
      255
102
RTVSPost2010PropOp44
 70
     1
102
RTVSPost2010Prop45
280
     0
102
RTVSPost2010PropOp45
 70
     1
102
RTVSPost2010Prop46
 90
       50
102
RTVSPost2010PropOp46
 70
     1
102
RTVSPost2010Prop47
 90
       50
102
RTVSPost2010PropOp47
 70
     1
102
RTVSPost2010Prop48
 90
       50
102
RTVSPost2010PropOp48
 70
     1
102
RTVSPost2010Prop49
280
     0
102
RTVSPost2010PropOp49
 70
     1
102
RTVSPost2010Prop50
 90
       50
102
RTVSPost2010PropOp50
 70
     1
102
RTVSPost2010Prop51ColorIndex
 90
      256
102
RTVSPost2010Prop51ColorRGB
 90
-16777216
102
RTVSPost2010PropOp51
 70
     0
102
RTVSPost2010Prop52
140
1.0
102
RTVSPost2010PropOp52
 70
     0
102
RTVSPost2010Prop53
 90
        2
102
RTVSPost2010PropOp53
 70
     1
102
RTVSPost2010Prop54
  1
strokes_ogs.tif
102
RTVSPost2010PropOp54
 70
     1
102
RTVSPost2010Prop55
280
     0
102
RTVSPost2010PropOp55
 70
     1
102
RTVSPost2010Prop56
140
1.0
102
RTVSPost2010PropOp56
 70
     1
102
RTVSPost2010Prop57
140
1.0
102
RTVSPost2010PropOp57
 70
     1
  0
XRECORD
  5
120
102
{ACAD_REACTORS
330
11F
102
}
330
11F
100
AcDbXrecord
280
     1
102
RTVSPost2010Prop28
280
     0
102
RTVSPost2010PropOp28
 70
     1
102
RTVSPost2010Prop29
280
     1
102
RTVSPost2010PropOp29
 70
     1
102
RTVSPost2010Prop30
280
     1
102
RTVSPost2010PropOp30
 70
     1
102
RTVSPost2010Prop31
280
     0
102
RTVSPost2010PropOp31
 70
     1
102
RTVSPost2010Prop32
280
     0
102
RTVSPost2010PropOp32
 70
     1
102
RTVSPost2010Prop33
280
     0
102
RTVSPost2010PropOp33
 70
     1
102
RTVSPost2010Prop34
280
     0
102
RTVSPost2010PropOp34
 70
     1
102
RTVSPost2010Prop35
280
     0
102
RTVSPost2010PropOp35
 70
     1
102
RTVSPost2010Prop36
280
     0
102
RTVSPost2010PropOp36
 70
     1
102
RTVSPost2010Prop37
 90
       50
102
RTVSPost2010PropOp37
 70
     1
102
RTVSPost2010Prop38
140
0.0
102
RTVSPost2010PropOp38
 70
     1
102
RTVSPost2010Prop39
140
1.0
102
RTVSPost2010PropOp39
 70
     1
102
RTVSPost2010Prop40
 90
        0
102
RTVSPost2010PropOp40
 70
     1
102
RTVSPost2010Prop41ColorIndex
 90
       18
102
RTVSPost2010Prop41ColorRGB
 90
        0
102
RTVSPost2010PropOp41
 70
     1
102
RTVSPost2010Prop42
 90
       50
102
RTVSPost2010PropOp42
 70
     1
102
RTVSPost2010Prop43
 90
        3
102
RTVSPost2010PropOp43
 70
     1
102
RTVSPost2010Prop44ColorIndex
 90
        5
102
RTVSPost2010Prop44ColorRGB
 90
      255
102
RTVSPost2010PropOp44
 70
     1
102
RTVSPost2010Prop45
280
     0
102
RTVSPost2010PropOp45
 70
     1
102
RTVSPost2010Prop46
 90
       50
102
RTVSPost2010PropOp46
 70
     1
102
RTVSPost2010Prop47
 90
       50
102
RTVSPost2010PropOp47
 70
     1
102
RTVSPost2010Prop48
 90
       50
102
RTVSPost2010PropOp48
 70
     1
102
RTVSPost2010Prop49
280
     0
102
RTVSPost2010PropOp49
 70
     1
102
RTVSPost2010Prop50
 90
       50
102
RTVSPost2010PropOp50
 70
     1
102
RTVSPost2010Prop51ColorIndex
 90
      256
102
RTVSPost2010Prop51ColorRGB
 90
-16777216
102
RTVSPost2010PropOp51
 70
     0
102
RTVSPost2010Prop52
140
1.0
102
RTVSPost2010PropOp52
 70
     0
102
RTVSPost2010Prop53
 90
        2
102
RTVSPost2010PropOp53
 70
     1
102
RTVSPost2010Prop54
  1
strokes_ogs.tif
102
RTVSPost2010PropOp54
 70
     1
102
RTVSPost2010Prop55
280
     0
102
RTVSPost2010PropOp55
 70
     1
102
RTVSPost2010Prop56
140
1.0
102
RTVSPost2010PropOp56
 70
     1
102
RTVSPost2010Prop57
140
1.0
102
RTVSPost2010PropOp57
 70
     1
  0
XRECORD
  5
138
102
{ACAD_REACTORS
330
137
102
}
330
137
100
AcDbXrecord
280
     1
102
RTVSPost2010Prop28
280
     0
102
RTVSPost2010PropOp28
 70
     1
102
RTVSPost2010Prop29
280
     1
102
RTVSPost2010PropOp29
 70
     1
102
RTVSPost2010Prop30
280
     1
102
RTVSPost2010PropOp30
 70
     1
102
RTVSPost2010Prop31
280
     0
102
RTVSPost2010PropOp31
 70
     1
102
RTVSPost2010Prop32
280
     0
102
RTVSPost2010PropOp32
 70
     1
102
RTVSPost2010Prop33
280
     0
102
RTVSPost2010PropOp33
 70
     1
102
RTVSPost2010Prop34
280
     0
102
RTVSPost2010PropOp34
 70
     1
102
RTVSPost2010Prop35
280
     0
102
RTVSPost2010PropOp35
 70
     1
102
RTVSPost2010Prop36
280
     0
102
RTVSPost2010PropOp36
 70
     1
102
RTVSPost2010Prop37
 90
       50
102
RTVSPost2010PropOp37
 70
     1
102
RTVSPost2010Prop38
140
0.0
102
RTVSPost2010PropOp38
 70
     1
102
RTVSPost2010Prop39
140
1.0
102
RTVSPost2010PropOp39
 70
     1
102
RTVSPost2010Prop40
 90
        0
102
RTVSPost2010PropOp40
 70
     1
102
RTVSPost2010Prop41ColorIndex
 90
       18
102
RTVSPost2010Prop41ColorRGB
 90
        0
102
RTVSPost2010PropOp41
 70
     1
102
RTVSPost2010Prop42
 90
       50
102
RTVSPost2010PropOp42
 70
     1
102
RTVSPost2010Prop43
 90
        3
102
RTVSPost2010PropOp43
 70
     1
102
RTVSPost2010Prop44ColorIndex
 90
        5
102
RTVSPost2010Prop44ColorRGB
 90
      255
102
RTVSPost2010PropOp44
 70
     1
102
RTVSPost2010Prop45
280
     0
102
RTVSPost2010PropOp45
 70
     1
102
RTVSPost2010Prop46
 90
       50
102
RTVSPost2010PropOp46
 70
     1
102
RTVSPost2010Prop47
 90
       50
102
RTVSPost2010PropOp47
 70
     1
102
RTVSPost2010Prop48
 90
       50
102
RTVSPost2010PropOp48
 70
     1
102
RTVSPost2010Prop49
280
     0
102
RTVSPost2010PropOp49
 70
     1
102
RTVSPost2010Prop50
 90
       50
102
RTVSPost2010PropOp50
 70
     1
102
RTVSPost2010Prop51ColorIndex
 90
      256
102
RTVSPost2010Prop51ColorRGB
 90
-16777216
102
RTVSPost2010PropOp51
 70
     0
102
RTVSPost2010Prop52
140
1.0
102
RTVSPost2010PropOp52
 70
     0
102
RTVSPost2010Prop53
 90
        2
102
RTVSPost2010PropOp53
 70
     1
102
RTVSPost2010Prop54
  1
strokes_ogs.tif
102
RTVSPost2010PropOp54
 70
     1
102
RTVSPost2010Prop55
280
     0
102
RTVSPost2010PropOp55
 70
     1
102
RTVSPost2010Prop56
140
1.0
102
RTVSPost2010PropOp56
 70
     1
102
RTVSPost2010Prop57
140
1.0
102
RTVSPost2010PropOp57
 70
     1
  0
ENDSEC
  0
EOF
