  0
SECTION
  2
HEADER
  9
$ACADVER
  1
AC1024
  9
$ACADMAINTVER
 70
     6
  9
$DWGCODEPAGE
  3
UNDEFINED
  9
$INSBASE
 10
0.0
 20
0.0
 30
0.0
  9
$EXTMIN
 10
1.000000000000000E+20
 20
1.000000000000000E+20
 30
1.000000000000000E+20
  9
$EXTMAX
 10
-1.000000000000000E+20
 20
-1.000000000000000E+20
 30
-1.000000000000000E+20
  9
$LIMMIN
 10
0.0
 20
0.0
  9
$LIMMAX
 10
12.0
 20
9.0
  9
$ORTHOMODE
 70
     0
  9
$REGENMODE
 70
     1
  9
$FILLMODE
 70
     1
  9
$QTEXTMODE
 70
     0
  9
$MIRRTEXT
 70
     1
  9
$LTSCALE
 40
1.0
  9
$ATTMODE
 70
     1
  9
$TEXTSIZE
 40
0.2
  9
$TRACEWID
 40
0.05
  9
$TEXTSTYLE
  7
Standard
  9
$CLAYER
  8
0
  9
$CELTYPE
  6
ByLayer
  9
$CECOLOR
 62
   256
  9
$CELTSCALE
 40
1.0
  9
$DISPSILH
 70
     0
  9
$DIMSCALE
 40
1.0
  9
$DIMASZ
 40
0.18
  9
$DIMEXO
 40
0.0625
  9
$DIMDLI
 40
0.38
  9
$DIMRND
 40
0.0
  9
$DIMDLE
 40
0.0
  9
$DIMEXE
 40
0.18
  9
$DIMTP
 40
0.0
  9
$DIMTM
 40
0.0
  9
$DIMTXT
 40
0.18
  9
$DIMCEN
 40
0.09
  9
$DIMTSZ
 40
0.0
  9
$DIMTOL
 70
     0
  9
$DIMLIM
 70
     0
  9
$DIMTIH
 70
     1
  9
$DIMTOH
 70
     1
  9
$DIMSE1
 70
     0
  9
$DIMSE2
 70
     0
  9
$DIMTAD
 70
     0
  9
$DIMZIN
 70
     0
  9
$DIMBLK
  1

  9
$DIMASO
 70
     1
  9
$DIMSHO
 70
     1
  9
$DIMPOST
  1

  9
$DIMAPOST
  1

  9
$DIMALT
 70
     0
  9
$DIMALTD
 70
     2
  9
$DIMALTF
 40
25.4
  9
$DIMLFAC
 40
1.0
  9
$DIMTOFL
 70
     0
  9
$DIMTVP
 40
0.0
  9
$DIMTIX
 70
     0
  9
$DIMSOXD
 70
     0
  9
$DIMSAH
 70
     0
  9
$DIMBLK1
  1

  9
$DIMBLK2
  1

  9
$DIMSTYLE
  2
Standard
  9
$DIMCLRD
 70
     0
  9
$DIMCLRE
 70
     0
  9
$DIMCLRT
 70
     0
  9
$DIMTFAC
 40
1.0
  9
$DIMGAP
 40
0.09
  9
$DIMJUST
 70
     0
  9
$DIMSD1
 70
     0
  9
$DIMSD2
 70
     0
  9
$DIMTOLJ
 70
     1
  9
$DIMTZIN
 70
     0
  9
$DIMALTZ
 70
     0
  9
$DIMALTTZ
 70
     0
  9
$DIMUPT
 70
     0
  9
$DIMDEC
 70
     4
  9
$DIMTDEC
 70
     4
  9
$DIMALTU
 70
     2
  9
$DIMALTTD
 70
     2
  9
$DIMTXSTY
  7
Standard
  9
$DIMAUNIT
 70
     0
  9
$DIMADEC
 70
     0
  9
$DIMALTRND
 40
0.0
  9
$DIMAZIN
 70
     0
  9
$DIMDSEP
 70
    46
  9
$DIMATFIT
 70
     3
  9
$DIMFRAC
 70
     0
  9
$DIMLDRBLK
  1

  9
$DIMLUNIT
 70
     2
  9
$DIMLWD
 70
    -2
  9
$DIMLWE
 70
    -2
  9
$DIMTMOVE
 70
     0
  9
$DIMFXL
 40
1.0
  9
$DIMFXLON
 70
     0
  9
$DIMJOGANG
 40
0.7853981633974483
  9
$DIMTFILL
 70
     0
  9
$DIMTFILLCLR
 70
     0
  9
$DIMARCSYM
 70
     0
  9
$DIMLTYPE
  6

  9
$DIMLTEX1
  6

  9
$DIMLTEX2
  6

  9
$DIMTXTDIRECTION
 70
     0
  9
$LUNITS
 70
     2
  9
$LUPREC
 70
     4
  9
$SKETCHINC
 40
0.1
  9
$FILLETRAD
 40
0.5
  9
$AUNITS
 70
     0
  9
$AUPREC
 70
     0
  9
$MENU
  1
.
  9
$ELEVATION
 40
0.0
  9
$PELEVATION
 40
0.0
  9
$THICKNESS
 40
0.0
  9
$LIMCHECK
 70
     0
  9
$CHAMFERA
 40
0.5
  9
$CHAMFERB
 40
0.5
  9
$CHAMFERC
 40
1.0
  9
$CHAMFERD
 40
0.0
  9
$SKPOLY
 70
     0
  9
$TDCREATE
 40
2457917.586180556
  9
$TDUCREATE
 40
2457917.211180556
  9
$TDUPDATE
 40
2457917.586180556
  9
$TDUUPDATE
 40
2457917.211180556
  9
$TDINDWG
 40
0.0000000116
  9
$TDUSRTIMER
 40
0.0000000116
  9
$USRTIMER
 70
     1
  9
$ANGBASE
 50
0.0
  9
$ANGDIR
 70
     0
  9
$PDMODE
 70
     0
  9
$PDSIZE
 40
0.0
  9
$PLINEWID
 40
0.0
  9
$SPLFRAME
 70
     0
  9
$SPLINETYPE
 70
     6
  9
$SPLINESEGS
 70
     8
  9
$HANDSEED
  5
101
  9
$SURFTAB1
 70
     6
  9
$SURFTAB2
 70
     6
  9
$SURFTYPE
 70
     6
  9
$SURFU
 70
     6
  9
$SURFV
 70
     6
  9
$UCSBASE
  2

  9
$UCSNAME
  2

  9
$UCSORG
 10
0.0
 20
0.0
 30
0.0
  9
$UCSXDIR
 10
1.0
 20
0.0
 30
0.0
  9
$UCSYDIR
 10
0.0
 20
1.0
 30
0.0
  9
$UCSORTHOREF
  2

  9
$UCSORTHOVIEW
 70
     0
  9
$UCSORGTOP
 10
0.0
 20
0.0
 30
0.0
  9
$UCSORGBOTTOM
 10
0.0
 20
0.0
 30
0.0
  9
$UCSORGLEFT
 10
0.0
 20
0.0
 30
0.0
  9
$UCSORGRIGHT
 10
0.0
 20
0.0
 30
0.0
  9
$UCSORGFRONT
 10
0.0
 20
0.0
 30
0.0
  9
$UCSORGBACK
 10
0.0
 20
0.0
 30
0.0
  9
$PUCSBASE
  2

  9
$PUCSNAME
  2

  9
$PUCSORG
 10
0.0
 20
0.0
 30
0.0
  9
$PUCSXDIR
 10
1.0
 20
0.0
 30
0.0
  9
$PUCSYDIR
 10
0.0
 20
1.0
 30
0.0
  9
$PUCSORTHOREF
  2

  9
$PUCSORTHOVIEW
 70
     0
  9
$PUCSORGTOP
 10
0.0
 20
0.0
 30
0.0
  9
$PUCSORGBOTTOM
 10
0.0
 20
0.0
 30
0.0
  9
$PUCSORGLEFT
 10
0.0
 20
0.0
 30
0.0
  9
$PUCSORGRIGHT
 10
0.0
 20
0.0
 30
0.0
  9
$PUCSORGFRONT
 10
0.0
 20
0.0
 30
0.0
  9
$PUCSORGBACK
 10
0.0
 20
0.0
 30
0.0
  9
$USERI1
 70
     0
  9
$USERI2
 70
     0
  9
$USERI3
 70
     0
  9
$USERI4
 70
     0
  9
$USERI5
 70
     0
  9
$USERR1
 40
0.0
  9
$USERR2
 40
0.0
  9
$USERR3
 40
0.0
  9
$USERR4
 40
0.0
  9
$USERR5
 40
0.0
  9
$WORLDVIEW
 70
     1
  9
$SHADEDGE
 70
     3
  9
$SHADEDIF
 70
    70
  9
$TILEMODE
 70
     1
  9
$MAXACTVP
 70
    64
  9
$PINSBASE
 10
0.0
 20
0.0
 30
0.0
  9
$PLIMCHECK
 70
     0
  9
$PEXTMIN
 10
1.000000000000000E+20
 20
1.000000000000000E+20
 30
1.000000000000000E+20
  9
$PEXTMAX
 10
-1.000000000000000E+20
 20
-1.000000000000000E+20
 30
-1.000000000000000E+20
  9
$PLIMMIN
 10
0.0
 20
0.0
  9
$PLIMMAX
 10
12.0
 20
9.0
  9
$UNITMODE
 70
     0
  9
$VISRETAIN
 70
     1
  9
$PLINEGEN
 70
     0
  9
$PSLTSCALE
 70
     1
  9
$TREEDEPTH
 70
  3020
  9
$CMLSTYLE
  2
Standard
  9
$CMLJUST
 70
     0
  9
$CMLSCALE
 40
1.0
  9
$PROXYGRAPHICS
 70
     1
  9
$MEASUREMENT
 70
     0
  9
$CELWEIGHT
370
    -1
  9
$ENDCAPS
280
     0
  9
$JOINSTYLE
280
     0
  9
$LWDISPLAY
290
     1
  9
$INSUNITS
 70
     1
  9
$HYPERLINKBASE
  1

  9
$STYLESHEET
  1

  9
$XEDIT
290
     1
  9
$CEPSNTYPE
380
     0
  9
$PSTYLEMODE
290
     1
  9
$FINGERPRINTGUID
  2
{01BA2463-749D-2321-AC5C-0E50987B7CF4}
  9
$VERSIONGUID
  2
{FAEB1C32-E019-11D5-929B-00C0DF256EC4}
  9
$EXTNAMES
290
     1
  9
$PSVPSCALE
 40
0.0
  9
$OLESTARTUP
290
     0
  9
$SORTENTS
280
   127
  9
$INDEXCTL
280
     0
  9
$HIDETEXT
280
     1
  9
$XCLIPFRAME
280
     2
  9
$HALOGAP
280
     0
  9
$OBSCOLOR
 70
   257
  9
$OBSLTYPE
280
     0
  9
$INTERSECTIONDISPLAY
280
     0
  9
$INTERSECTIONCOLOR
 70
   257
  9
$DIMASSOC
280
     2
  9
$PROJECTNAME
  1

  9
$CAMERADISPLAY
290
     0
  9
$LENSLENGTH
 40
50.0
  9
$CAMERAHEIGHT
 40
0.0
  9
$STEPSPERSEC
 40
2.0
  9
$STEPSIZE
 40
6.0
  9
$3DDWFPREC
 40
2.0
  9
$PSOLWIDTH
 40
0.25
  9
$PSOLHEIGHT
 40
4.0
  9
$LOFTANG1
 40
1.570796326794897
  9
$LOFTANG2
 40
1.570796326794897
  9
$LOFTMAG1
 40
0.0
  9
$LOFTMAG2
 40
0.0
  9
$LOFTPARAM
 70
     7
  9
$LOFTNORMALS
280
     1
  9
$LATITUDE
 40
37.795
  9
$LONGITUDE
 40
-122.394
  9
$NORTHDIRECTION
 40
0.0
  9
$TIMEZONE
 70
 -8000
  9
$LIGHTGLYPHDISPLAY
280
     1
  9
$TILEMODELIGHTSYNCH
280
     1
  9
$CMATERIAL
347
3C
  9
$SOLIDHIST
280
     1
  9
$SHOWHIST
280
     1
  9
$DWFFRAME
280
     2
  9
$DGNFRAME
280
     2
  9
$REALWORLDSCALE
290
     1
  9
$INTERFERECOLOR
 62
   256
  9
$CSHADOW
280
     0
  9
$SHADOWPLANELOCATION
 40
0.0
  0
ENDSEC
  0
SECTION
  2
CLASSES
  0
CLASS
  1
ACDBDICTIONARYWDFLT
  2
AcDbDictionaryWithDefault
  3
ObjectDBX Classes
 90
        0
 91
        4
280
     0
281
     0
  0
CLASS
  1
VISUALSTYLE
  2
AcDbVisualStyle
  3
ObjectDBX Classes
 90
     4095
 91
        4
280
     0
281
     0
  0
CLASS
  1
MATERIAL
  2
AcDbMaterial
  3
ObjectDBX Classes
 90
     1153
 91
        4
280
     0
281
     0
  0
CLASS
  1
SUN
  2
AcDbSun
  3
SCENEOE
 90
     1024
 91
        4
280
     0
281
     0
  0
ENDSEC
  0
SECTION
  2
TABLES
  0
TABLE
  2
VPORT
  5
8
330
0
100
AcDbSymbolTable
 70
     1
  0
VPORT
  5
29
330
8
100
AcDbSymbolTableRecord
100
AcDbViewportTableRecord
  2
*Active
 70
     0
 10
0.0
 20
0.0
 11
1.0
 21
1.0
 12
0.0
 22
0.0
 13
0.0
 23
0.0
 14
0.5
 24
0.5
 15
0.5
 25
0.5
 16
0.0
 26
0.0
 36
1.0
 17
105.0008280156501
 27
-148.4999710739862
 37
0.0
 40
296.9999421479724
 41
0.7070764206636528
 42
50.0
 43
0.0
 44
0.0
 50
0.0
 51
0.0
 71
     0
 72
   100
 73
     1
 74
     3
 75
     0
 76
     0
 77
     0
 78
     0
281
     0
 65
     1
110
0.0
120
0.0
130
0.0
111
1.0
121
0.0
131
0.0
112
0.0
122
1.0
132
0.0
 79
     0
146
0.0
 60
     3
 61
     5
292
     1
282
     1
141
0.0
142
0.0
 63
   250
361
3F
  0
ENDTAB
  0
TABLE
  2
LTYPE
  5
5
330
0
100
AcDbSymbolTable
 70
     1
  0
LTYPE
  5
14
330
5
100
AcDbSymbolTableRecord
100
AcDbLinetypeTableRecord
  2
ByBlock
 70
     0
  3

 72
    65
 73
     0
 40
0.0
  0
LTYPE
  5
15
330
5
100
AcDbSymbolTableRecord
100
AcDbLinetypeTableRecord
  2
ByLayer
 70
     0
  3

 72
    65
 73
     0
 40
0.0
  0
LTYPE
  5
16
330
5
100
AcDbSymbolTableRecord
100
AcDbLinetypeTableRecord
  2
Continuous
 70
     0
  3
Solid line
 72
    65
 73
     0
 40
0.0
  0
ENDTAB
  0
TABLE
  2
LAYER
  5
2
330
0
100
AcDbSymbolTable
 70
     2
  0
LAYER
  5
10
330
2
100
AcDbSymbolTableRecord
100
AcDbLayerTableRecord
  2
0
 70
     0
 62
     7
  6
Continuous
370
    -3
390
F
347
3E
  0
LAYER
  5
40
330
2
100
AcDbSymbolTableRecord
100
AcDbLayerTableRecord
  2
_U+30EC_U+30A4_U+30E4_U+30FC 1
 70
     0
 62
     7
  6
Continuous
370
    -3
390
F
347
3E
  0
ENDTAB
  0
TABLE
  2
STYLE
  5
3
330
0
100
AcDbSymbolTable
 70
     1
  0
STYLE
  5
11
330
3
100
AcDbSymbolTableRecord
100
AcDbTextStyleTableRecord
  2
Standard
 70
     0
 40
0.0
 41
1.0
 50
0.0
 71
     0
 42
0.2
  3
txt
  4

  0
ENDTAB
  0
TABLE
  2
VIEW
  5
6
330
0
100
AcDbSymbolTable
 70
     0
  0
ENDTAB
  0
TABLE
  2
UCS
  5
7
330
0
100
AcDbSymbolTable
 70
     0
  0
ENDTAB
  0
TABLE
  2
APPID
  5
9
330
0
100
AcDbSymbolTable
 70
     1
  0
APPID
  5
12
330
9
100
AcDbSymbolTableRecord
100
AcDbRegAppTableRecord
  2
ACAD
 70
     0
  0
ENDTAB
  0
TABLE
  2
DIMSTYLE
  5
A
330
0
100
AcDbSymbolTable
 70
     1
100
AcDbDimStyleTable
  0
DIMSTYLE
105
27
330
A
100
AcDbSymbolTableRecord
100
AcDbDimStyleTableRecord
  2
Standard
 70
     0
178
     0
340
11
  0
ENDTAB
  0
TABLE
  2
BLOCK_RECORD
  5
1
330
0
100
AcDbSymbolTable
 70
     7
  0
BLOCK_RECORD
  5
1F
330
1
100
AcDbSymbolTableRecord
100
AcDbBlockTableRecord
  2
*Model_Space
340
22
 70
     0
280
     1
281
     0
  0
BLOCK_RECORD
  5
1B
330
1
100
AcDbSymbolTableRecord
100
AcDbBlockTableRecord
  2
*Paper_Space
340
1E
 70
     0
280
     1
281
     0
  0
BLOCK_RECORD
  5
23
330
1
100
AcDbSymbolTableRecord
100
AcDbBlockTableRecord
  2
*Paper_Space0
340
26
 70
     0
280
     1
281
     0
  0
BLOCK_RECORD
  5
41
330
1
100
AcDbSymbolTableRecord
100
AcDbBlockTableRecord
  2
block 2
340
0
102
{BLKREFS
331
42
102
}
 70
     0
280
     1
281
     0
  0
BLOCK_RECORD
  5
75
330
1
100
AcDbSymbolTableRecord
100
AcDbBlockTableRecord
  2
block 3
340
0
102
{BLKREFS
331
76
102
}
 70
     0
280
     1
281
     0
  0
BLOCK_RECORD
  5
8D
330
1
100
AcDbSymbolTableRecord
100
AcDbBlockTableRecord
  2
block 4
340
0
102
{BLKREFS
331
8E
102
}
 70
     0
280
     1
281
     0
  0
BLOCK_RECORD
  5
A9
330
1
100
AcDbSymbolTableRecord
100
AcDbBlockTableRecord
  2
block 5
340
0
102
{BLKREFS
331
AA
102
}
 70
     0
280
     1
281
     0
  0
BLOCK_RECORD
  5
BE
330
1
100
AcDbSymbolTableRecord
100
AcDbBlockTableRecord
  2
block 6
340
0
102
{BLKREFS
331
BF
102
}
 70
     0
280
     1
281
     0
  0
BLOCK_RECORD
  5
DB
330
1
100
AcDbSymbolTableRecord
100
AcDbBlockTableRecord
  2
block 7
340
0
102
{BLKREFS
331
DC
102
}
 70
     0
280
     1
281
     0
  0
ENDTAB
  0
ENDSEC
  0
SECTION
  2
BLOCKS
  0
BLOCK
  5
20
330
1F
100
AcDbEntity
  8
0
100
AcDbBlockBegin
  2
*Model_Space
 70
     0
 10
0.0
 20
0.0
 30
0.0
  3
*Model_Space
  1

  0
ENDBLK
  5
21
330
1F
100
AcDbEntity
  8
0
100
AcDbBlockEnd
  0
BLOCK
  5
1C
330
1B
100
AcDbEntity
 67
     1
  8
0
100
AcDbBlockBegin
  2
*Paper_Space
 70
     0
 10
0.0
 20
0.0
 30
0.0
  3
*Paper_Space
  1

  0
ENDBLK
  5
1D
330
1B
100
AcDbEntity
 67
     1
  8
0
100
AcDbBlockEnd
  0
BLOCK
  5
24
330
23
100
AcDbEntity
  8
0
100
AcDbBlockBegin
  2
*Paper_Space0
 70
     0
 10
0.0
 20
0.0
 30
0.0
  3
*Paper_Space0
  1

  0
ENDBLK
  5
25
330
23
100
AcDbEntity
  8
0
100
AcDbBlockEnd
  0
BLOCK
  5
43
330
41
100
AcDbEntity
  8
0
100
AcDbBlockBegin
  2
block 2
 70
     0
 10
0.0
 20
0.0
 30
0.0
  3
block 2
  1

  0
POLYLINE
  5
45
330
41
100
AcDbEntity
  8
_U+30EC_U+30A4_U+30E4_U+30FC 1
 62
   179
420
  2234388
370
    25
100
AcDb2dPolyline
 66
     1
 10
0.0
 20
0.0
 30
0.0
  0
VERTEX
  5
46
330
45
100
AcDbEntity
  8
_U+30EC_U+30A4_U+30E4_U+30FC 1
 62
   179
420
  2234388
370
    25
100
AcDbVertex
100
AcDb2dVertex
 10
91.32121739242388
 20
-144.4271869083378
 30
0.0
  0
VERTEX
  5
47
330
45
100
AcDbEntity
  8
_U+30EC_U+30A4_U+30E4_U+30FC 1
 62
   179
420
  2234388
370
    25
100
AcDbVertex
100
AcDb2dVertex
 10
102.4209465536906
 20
-144.4271869083378
 30
0.0
  0
SEQEND
  5
48
330
45
100
AcDbEntity
  8
_U+30EC_U+30A4_U+30E4_U+30FC 1
 62
   179
420
  2234388
370
    25
  0
POLYLINE
  5
49
330
41
100
AcDbEntity
  8
_U+30EC_U+30A4_U+30E4_U+30FC 1
 62
   179
420
  2234388
370
    25
100
AcDb2dPolyline
 66
     1
 10
0.0
 20
0.0
 30
0.0
  0
VERTEX
  5
4A
330
49
100
AcDbEntity
  8
_U+30EC_U+30A4_U+30E4_U+30FC 1
 62
   179
420
  2234388
370
    25
100
AcDbVertex
100
AcDb2dVertex
 10
101.3213055302252
 20
-145.5272185747294
 30
0.0
  0
VERTEX
  5
4B
330
49
100
AcDbEntity
  8
_U+30EC_U+30A4_U+30E4_U+30FC 1
 62
   179
420
  2234388
370
    25
100
AcDbVertex
100
AcDb2dVertex
 10
101.3213055302252
 20
-155.0272419056876
 30
0.0
  0
SEQEND
  5
4C
330
49
100
AcDbEntity
  8
_U+30EC_U+30A4_U+30E4_U+30FC 1
 62
   179
420
  2234388
370
    25
  0
POLYLINE
  5
4D
330
41
100
AcDbEntity
  8
_U+30EC_U+30A4_U+30E4_U+30FC 1
 62
   179
420
  2234388
370
    25
100
AcDb2dPolyline
 66
     1
 10
0.0
 20
0.0
 30
0.0
  0
VERTEX
  5
4E
330
4D
100
AcDbEntity
  8
_U+30EC_U+30A4_U+30E4_U+30FC 1
 62
   179
420
  2234388
370
    25
100
AcDbVertex
100
AcDb2dVertex
 10
91.32121739242388
 20
-145.5272185747294
 30
0.0
  0
VERTEX
  5
4F
330
4D
100
AcDbEntity
  8
_U+30EC_U+30A4_U+30E4_U+30FC 1
 62
   179
420
  2234388
370
    25
100
AcDbVertex
100
AcDb2dVertex
 10
101.3213055302252
 20
-145.5272185747294
 30
0.0
  0
SEQEND
  5
50
330
4D
100
AcDbEntity
  8
_U+30EC_U+30A4_U+30E4_U+30FC 1
 62
   179
420
  2234388
370
    25
  0
POLYLINE
  5
51
330
41
100
AcDbEntity
  8
_U+30EC_U+30A4_U+30E4_U+30FC 1
 62
   179
420
  2234388
370
    25
100
AcDb2dPolyline
 66
     1
 10
0.0
 20
0.0
 30
0.0
  0
VERTEX
  5
52
330
51
100
AcDbEntity
  8
_U+30EC_U+30A4_U+30E4_U+30FC 1
 62
   179
420
  2234388
370
    25
100
AcDbVertex
100
AcDb2dVertex
 10
91.32121739242388
 20
-144.4271869083378
 30
0.0
  0
VERTEX
  5
53
330
51
100
AcDbEntity
  8
_U+30EC_U+30A4_U+30E4_U+30FC 1
 62
   179
420
  2234388
370
    25
100
AcDbVertex
100
AcDb2dVertex
 10
91.32121739242388
 20
-145.5272185747294
 30
0.0
  0
SEQEND
  5
54
330
51
100
AcDbEntity
  8
_U+30EC_U+30A4_U+30E4_U+30FC 1
 62
   179
420
  2234388
370
    25
  0
POLYLINE
  5
55
330
41
100
AcDbEntity
  8
_U+30EC_U+30A4_U+30E4_U+30FC 1
 62
   179
420
  2234388
370
    25
100
AcDb2dPolyline
 66
     1
 10
0.0
 20
0.0
 30
0.0
  0
VERTEX
  5
56
330
55
100
AcDbEntity
  8
_U+30EC_U+30A4_U+30E4_U+30FC 1
 62
   179
420
  2234388
370
    25
100
AcDbVertex
100
AcDb2dVertex
 10
102.4209465536906
 20
-144.4271869083378
 30
0.0
  0
VERTEX
  5
57
330
55
100
AcDbEntity
  8
_U+30EC_U+30A4_U+30E4_U+30FC 1
 62
   179
420
  2234388
370
    25
100
AcDbVertex
100
AcDb2dVertex
 10
102.4209465536906
 20
-153.9275630170734
 30
0.0
  0
SEQEND
  5
58
330
55
100
AcDbEntity
  8
_U+30EC_U+30A4_U+30E4_U+30FC 1
 62
   179
420
  2234388
370
    25
  0
POLYLINE
  5
59
330
41
100
AcDbEntity
  8
_U+30EC_U+30A4_U+30E4_U+30FC 1
 62
   179
420
  2234388
370
    25
100
AcDb2dPolyline
 66
     1
 10
0.0
 20
0.0
 30
0.0
  0
VERTEX
  5
5A
330
59
100
AcDbEntity
  8
_U+30EC_U+30A4_U+30E4_U+30FC 1
 62
   179
420
  2234388
370
    25
100
AcDbVertex
100
AcDb2dVertex
 10
118.3214519813683
 20
-153.9275630170734
 30
0.0
  0
VERTEX
  5
5B
330
59
100
AcDbEntity
  8
_U+30EC_U+30A4_U+30E4_U+30FC 1
 62
   179
420
  2234388
370
    25
100
AcDbVertex
100
AcDb2dVertex
 10
118.3214519813683
 20
-154.3271896836406
 30
0.0
  0
SEQEND
  5
5C
330
59
100
AcDbEntity
  8
_U+30EC_U+30A4_U+30E4_U+30FC 1
 62
   179
420
  2234388
370
    25
  0
POLYLINE
  5
5D
330
41
100
AcDbEntity
  8
_U+30EC_U+30A4_U+30E4_U+30FC 1
 62
   179
420
  2234388
370
    25
100
AcDb2dPolyline
 66
     1
 10
0.0
 20
0.0
 30
0.0
  0
VERTEX
  5
5E
330
5D
100
AcDbEntity
  8
_U+30EC_U+30A4_U+30E4_U+30FC 1
 62
   179
420
  2234388
370
    25
100
AcDbVertex
100
AcDb2dVertex
 10
102.4209465536906
 20
-153.9275630170734
 30
0.0
  0
VERTEX
  5
5F
330
5D
100
AcDbEntity
  8
_U+30EC_U+30A4_U+30E4_U+30FC 1
 62
   179
420
  2234388
370
    25
100
AcDbVertex
100
AcDb2dVertex
 10
118.3214519813683
 20
-153.9275630170734
 30
0.0
  0
SEQEND
  5
60
330
5D
100
AcDbEntity
  8
_U+30EC_U+30A4_U+30E4_U+30FC 1
 62
   179
420
  2234388
370
    25
  0
POLYLINE
  5
61
330
41
100
AcDbEntity
  8
_U+30EC_U+30A4_U+30E4_U+30FC 1
 62
   179
420
  2234388
370
    25
100
AcDb2dPolyline
 66
     1
 10
0.0
 20
0.0
 30
0.0
  0
VERTEX
  5
62
330
61
100
AcDbEntity
  8
_U+30EC_U+30A4_U+30E4_U+30FC 1
 62
   179
420
  2234388
370
    25
100
AcDbVertex
100
AcDb2dVertex
 10
118.3214519813683
 20
-154.3271896836406
 30
0.0
  0
VERTEX
  5
63
330
61
100
AcDbEntity
  8
_U+30EC_U+30A4_U+30E4_U+30FC 1
 62
   179
420
  2234388
370
    25
100
AcDbVertex
100
AcDb2dVertex
 10
101.3213055302252
 20
-155.0272419056876
 30
0.0
  0
SEQEND
  5
64
330
61
100
AcDbEntity
  8
_U+30EC_U+30A4_U+30E4_U+30FC 1
 62
   179
420
  2234388
370
    25
  0
ENDBLK
  5
44
330
41
100
AcDbEntity
  8
0
100
AcDbBlockEnd
  0
BLOCK
  5
77
330
75
100
AcDbEntity
  8
0
100
AcDbBlockBegin
  2
block 3
 70
     0
 10
0.0
 20
0.0
 30
0.0
  3
block 3
  1

  0
SPLINE
  5
79
330
75
100
AcDbEntity
  8
_U+30EC_U+30A4_U+30E4_U+30FC 1
370
     0
100
AcDbSpline
210
0.0
220
0.0
230
1.0
 70
    11
 71
     3
 72
    26
 73
    22
 74
     0
 42
0.0000000001
 43
0.0000000001
 12
1.0
 22
0.0
 32
0.0
 13
1.0
 23
0.0
 33
0.0
 40
0.0
 40
0.0
 40
0.0
 40
0.0
 40
1.0
 40
1.0
 40
1.0
 40
2.0
 40
2.0
 40
2.0
 40
3.0
 40
3.0
 40
3.0
 40
4.0
 40
4.0
 40
4.0
 40
5.0
 40
5.0
 40
5.0
 40
6.0
 40
6.0
 40
6.0
 40
7.0
 40
7.0
 40
7.0
 40
7.0
 10
109.2794623207704
 20
-158.3806857242937
 30
0.0
 10
109.2794623207704
 20
-158.3806857242937
 30
0.0
 10
109.2794623207704
 20
-157.2765326212711
 30
0.0
 10
109.2794623207704
 20
-157.2765326212711
 30
0.0
 10
109.2794623207704
 20
-157.2765326212711
 30
0.0
 10
108.9979980196255
 20
-157.2765326212711
 30
0.0
 10
108.9979980196255
 20
-157.2765326212711
 30
0.0
 10
108.9979980196255
 20
-157.2765326212711
 30
0.0
 10
108.9979980196255
 20
-157.1283935154054
 30
0.0
 10
108.9979980196255
 20
-157.1283935154054
 30
0.0
 10
109.281184868513
 20
-157.1135796048188
 30
0.0
 10
109.3208034665934
 20
-156.9506265883665
 30
0.0
 10
109.3459526636357
 20
-156.8362494182562
 30
0.0
 10
109.3459526636357
 20
-156.8362494182562
 30
0.0
 10
109.4706651202018
 20
-156.8362494182562
 30
0.0
 10
109.4706651202018
 20
-156.8362494182562
 30
0.0
 10
109.4706651202018
 20
-156.8362494182562
 30
0.0
 10
109.4706651202018
 20
-158.3806857242937
 30
0.0
 10
109.4706651202018
 20
-158.3806857242937
 30
0.0
 10
109.4706651202018
 20
-158.3806857242937
 30
0.0
 10
109.2794623207704
 20
-158.3806857242937
 30
0.0
 10
109.2794623207704
 20
-158.3806857242937
 30
0.0
  0
HATCH
  5
7A
330
75
100
AcDbEntity
  8
_U+30EC_U+30A4_U+30E4_U+30FC 1
 62
   179
420
  2234388
100
AcDbHatch
 10
0.0
 20
0.0
 30
0.0
210
0.0
220
0.0
230
1.0
  2
SOLID
 70
     1
 71
     0
 91
        1
 92
        1
 93
        1
 72
     4
 94
        3
 73
     0
 74
     1
 95
       26
 96
       22
 40
0.0
 40
0.0
 40
0.0
 40
0.0
 40
1.0
 40
1.0
 40
1.0
 40
2.0
 40
2.0
 40
2.0
 40
3.0
 40
3.0
 40
3.0
 40
4.0
 40
4.0
 40
4.0
 40
5.0
 40
5.0
 40
5.0
 40
6.0
 40
6.0
 40
6.0
 40
7.0
 40
7.0
 40
7.0
 40
7.0
 10
109.2794623207704
 20
-158.3806857242937
 10
109.2794623207704
 20
-158.3806857242937
 10
109.2794623207704
 20
-157.2765326212711
 10
109.2794623207704
 20
-157.2765326212711
 10
109.2794623207704
 20
-157.2765326212711
 10
108.9979980196255
 20
-157.2765326212711
 10
108.9979980196255
 20
-157.2765326212711
 10
108.9979980196255
 20
-157.2765326212711
 10
108.9979980196255
 20
-157.1283935154054
 10
108.9979980196255
 20
-157.1283935154054
 10
109.281184868513
 20
-157.1135796048188
 10
109.3208034665934
 20
-156.9506265883665
 10
109.3459526636357
 20
-156.8362494182562
 10
109.3459526636357
 20
-156.8362494182562
 10
109.4706651202018
 20
-156.8362494182562
 10
109.4706651202018
 20
-156.8362494182562
 10
109.4706651202018
 20
-156.8362494182562
 10
109.4706651202018
 20
-158.3806857242937
 10
109.4706651202018
 20
-158.3806857242937
 10
109.4706651202018
 20
-158.3806857242937
 10
109.2794623207704
 20
-158.3806857242937
 10
109.2794623207704
 20
-158.3806857242937
 97
        0
 97
        0
 75
     2
 76
     1
 98
        0
  0
SPLINE
  5
7B
330
75
100
AcDbEntity
  8
_U+30EC_U+30A4_U+30E4_U+30FC 1
370
     0
100
AcDbSpline
210
0.0
220
0.0
230
1.0
 70
    11
 71
     3
 72
    26
 73
    22
 74
     0
 42
0.0000000001
 43
0.0000000001
 12
1.0
 22
0.0
 32
0.0
 13
1.0
 23
0.0
 33
0.0
 40
0.0
 40
0.0
 40
0.0
 40
0.0
 40
1.0
 40
1.0
 40
1.0
 40
2.0
 40
2.0
 40
2.0
 40
3.0
 40
3.0
 40
3.0
 40
4.0
 40
4.0
 40
4.0
 40
5.0
 40
5.0
 40
5.0
 40
6.0
 40
6.0
 40
6.0
 40
7.0
 40
7.0
 40
7.0
 40
7.0
 10
110.2468451330286
 20
-158.3806857242937
 30
0.0
 10
110.2468451330286
 20
-158.3806857242937
 30
0.0
 10
110.0449625375929
 20
-158.3806857242937
 30
0.0
 10
110.0449625375929
 20
-158.3806857242937
 30
0.0
 10
110.06666663915
 20
-158.0716606592668
 30
0.0
 10
110.2306531842479
 20
-157.5535182982852
 30
0.0
 10
110.5768852805155
 20
-157.0477782810506
 30
0.0
 10
110.5768852805155
 20
-157.0477782810506
 30
0.0
 10
109.8627169864232
 20
-157.0477782810506
 30
0.0
 10
109.8627169864232
 20
-157.0477782810506
 30
0.0
 10
109.8627169864232
 20
-157.0477782810506
 30
0.0
 10
109.8627169864232
 20
-156.8362494182562
 30
0.0
 10
109.8627169864232
 20
-156.8362494182562
 30
0.0
 10
109.8627169864232
 20
-156.8362494182562
 30
0.0
 10
110.7787678759511
 20
-156.8362494182562
 30
0.0
 10
110.7787678759511
 20
-156.8362494182562
 30
0.0
 10
110.7787678759511
 20
-156.8362494182562
 30
0.0
 10
110.7787678759511
 20
-157.0477782810506
 30
0.0
 10
110.7787678759511
 20
-157.0477782810506
 30
0.0
 10
110.5031602371312
 20
-157.3378553209086
 30
0.0
 10
110.2757839351047
 20
-157.930067234823
 30
0.0
 10
110.2468451330286
 20
-158.3806857242937
 30
0.0
  0
HATCH
  5
7C
330
75
100
AcDbEntity
  8
_U+30EC_U+30A4_U+30E4_U+30FC 1
 62
   179
420
  2234388
100
AcDbHatch
 10
0.0
 20
0.0
 30
0.0
210
0.0
220
0.0
230
1.0
  2
SOLID
 70
     1
 71
     0
 91
        1
 92
        1
 93
        1
 72
     4
 94
        3
 73
     0
 74
     1
 95
       26
 96
       22
 40
0.0
 40
0.0
 40
0.0
 40
0.0
 40
1.0
 40
1.0
 40
1.0
 40
2.0
 40
2.0
 40
2.0
 40
3.0
 40
3.0
 40
3.0
 40
4.0
 40
4.0
 40
4.0
 40
5.0
 40
5.0
 40
5.0
 40
6.0
 40
6.0
 40
6.0
 40
7.0
 40
7.0
 40
7.0
 40
7.0
 10
110.2468451330286
 20
-158.3806857242937
 10
110.2468451330286
 20
-158.3806857242937
 10
110.0449625375929
 20
-158.3806857242937
 10
110.0449625375929
 20
-158.3806857242937
 10
110.06666663915
 20
-158.0716606592668
 10
110.2306531842479
 20
-157.5535182982852
 10
110.5768852805155
 20
-157.0477782810506
 10
110.5768852805155
 20
-157.0477782810506
 10
109.8627169864232
 20
-157.0477782810506
 10
109.8627169864232
 20
-157.0477782810506
 10
109.8627169864232
 20
-157.0477782810506
 10
109.8627169864232
 20
-156.8362494182562
 10
109.8627169864232
 20
-156.8362494182562
 10
109.8627169864232
 20
-156.8362494182562
 10
110.7787678759511
 20
-156.8362494182562
 10
110.7787678759511
 20
-156.8362494182562
 10
110.7787678759511
 20
-156.8362494182562
 10
110.7787678759511
 20
-157.0477782810506
 10
110.7787678759511
 20
-157.0477782810506
 10
110.5031602371312
 20
-157.3378553209086
 10
110.2757839351047
 20
-157.930067234823
 10
110.2468451330286
 20
-158.3806857242937
 97
        0
 97
        0
 75
     2
 76
     1
 98
        0
  0
ENDBLK
  5
78
330
75
100
AcDbEntity
  8
0
100
AcDbBlockEnd
  0
BLOCK
  5
8F
330
8D
100
AcDbEntity
  8
0
100
AcDbBlockBegin
  2
block 4
 70
     0
 10
0.0
 20
0.0
 30
0.0
  3
block 4
  1

  0
SPLINE
  5
91
330
8D
100
AcDbEntity
  8
_U+30EC_U+30A4_U+30E4_U+30FC 1
370
     0
100
AcDbSpline
210
0.0
220
0.0
230
1.0
 70
    11
 71
     3
 72
    26
 73
    22
 74
     0
 42
0.0000000001
 43
0.0000000001
 12
1.0
 22
0.0
 32
0.0
 13
1.0
 23
0.0
 33
0.0
 40
0.0
 40
0.0
 40
0.0
 40
0.0
 40
1.0
 40
1.0
 40
1.0
 40
2.0
 40
2.0
 40
2.0
 40
3.0
 40
3.0
 40
3.0
 40
4.0
 40
4.0
 40
4.0
 40
5.0
 40
5.0
 40
5.0
 40
6.0
 40
6.0
 40
6.0
 40
7.0
 40
7.0
 40
7.0
 40
7.0
 10
86.67515731340066
 20
-142.2032063446575
 30
0.0
 10
86.67515731340066
 20
-142.2032063446575
 30
0.0
 10
85.57100421037809
 20
-142.2032063446575
 30
0.0
 10
85.57100421037809
 20
-142.2032063446575
 30
0.0
 10
85.57100421037809
 20
-142.2032063446575
 30
0.0
 10
85.57100421037809
 20
-142.4846706458025
 30
0.0
 10
85.57100421037809
 20
-142.4846706458025
 30
0.0
 10
85.57100421037809
 20
-142.4846706458025
 30
0.0
 10
85.42286510451234
 20
-142.4846706458025
 30
0.0
 10
85.42286510451234
 20
-142.4846706458025
 30
0.0
 10
85.40805119392577
 20
-142.2014837969149
 30
0.0
 10
85.24509817747345
 20
-142.1618651988345
 30
0.0
 10
85.13072100736316
 20
-142.1367160017922
 30
0.0
 10
85.13072100736316
 20
-142.1367160017922
 30
0.0
 10
85.13072100736316
 20
-142.0120035452262
 30
0.0
 10
85.13072100736316
 20
-142.0120035452262
 30
0.0
 10
85.13072100736316
 20
-142.0120035452262
 30
0.0
 10
86.67515731340066
 20
-142.0120035452262
 30
0.0
 10
86.67515731340066
 20
-142.0120035452262
 30
0.0
 10
86.67515731340066
 20
-142.0120035452262
 30
0.0
 10
86.67515731340066
 20
-142.2032063446575
 30
0.0
 10
86.67515731340066
 20
-142.2032063446575
 30
0.0
  0
HATCH
  5
92
330
8D
100
AcDbEntity
  8
_U+30EC_U+30A4_U+30E4_U+30FC 1
 62
   179
420
  2234388
100
AcDbHatch
 10
0.0
 20
0.0
 30
0.0
210
0.0
220
0.0
230
1.0
  2
SOLID
 70
     1
 71
     0
 91
        1
 92
        1
 93
        1
 72
     4
 94
        3
 73
     0
 74
     1
 95
       26
 96
       22
 40
0.0
 40
0.0
 40
0.0
 40
0.0
 40
1.0
 40
1.0
 40
1.0
 40
2.0
 40
2.0
 40
2.0
 40
3.0
 40
3.0
 40
3.0
 40
4.0
 40
4.0
 40
4.0
 40
5.0
 40
5.0
 40
5.0
 40
6.0
 40
6.0
 40
6.0
 40
7.0
 40
7.0
 40
7.0
 40
7.0
 10
86.67515731340066
 20
-142.2032063446575
 10
86.67515731340066
 20
-142.2032063446575
 10
85.57100421037809
 20
-142.2032063446575
 10
85.57100421037809
 20
-142.2032063446575
 10
85.57100421037809
 20
-142.2032063446575
 10
85.57100421037809
 20
-142.4846706458025
 10
85.57100421037809
 20
-142.4846706458025
 10
85.57100421037809
 20
-142.4846706458025
 10
85.42286510451234
 20
-142.4846706458025
 10
85.42286510451234
 20
-142.4846706458025
 10
85.40805119392577
 20
-142.2014837969149
 10
85.24509817747345
 20
-142.1618651988345
 10
85.13072100736316
 20
-142.1367160017922
 10
85.13072100736316
 20
-142.1367160017922
 10
85.13072100736316
 20
-142.0120035452262
 10
85.13072100736316
 20
-142.0120035452262
 10
85.13072100736316
 20
-142.0120035452262
 10
86.67515731340066
 20
-142.0120035452262
 10
86.67515731340066
 20
-142.0120035452262
 10
86.67515731340066
 20
-142.0120035452262
 10
86.67515731340066
 20
-142.2032063446575
 10
86.67515731340066
 20
-142.2032063446575
 97
        0
 97
        0
 75
     2
 76
     1
 98
        0
  0
POLYLINE
  5
93
330
8D
100
AcDbEntity
  8
_U+30EC_U+30A4_U+30E4_U+30FC 1
370
     0
100
AcDb2dPolyline
 66
     1
 10
0.0
 20
0.0
 30
0.0
  0
VERTEX
  5
94
330
93
100
AcDbEntity
  8
_U+30EC_U+30A4_U+30E4_U+30FC 1
370
     0
100
AcDbVertex
100
AcDb2dVertex
 10
86.67515731340066
 20
-141.5352023300676
 30
0.0
  0
VERTEX
  5
95
330
93
100
AcDbEntity
  8
_U+30EC_U+30A4_U+30E4_U+30FC 1
370
     0
100
AcDbVertex
100
AcDb2dVertex
 10
86.42332083342889
 20
-141.5352023300676
 30
0.0
  0
VERTEX
  5
96
330
93
100
AcDbEntity
  8
_U+30EC_U+30A4_U+30E4_U+30FC 1
370
     0
100
AcDbVertex
100
AcDb2dVertex
 10
86.42332083342889
 20
-141.3205728813365
 30
0.0
  0
VERTEX
  5
97
330
93
100
AcDbEntity
  8
_U+30EC_U+30A4_U+30E4_U+30FC 1
370
     0
100
AcDbVertex
100
AcDb2dVertex
 10
86.67515731340066
 20
-141.3205728813365
 30
0.0
  0
VERTEX
  5
98
330
93
100
AcDbEntity
  8
_U+30EC_U+30A4_U+30E4_U+30FC 1
370
     0
100
AcDbVertex
100
AcDb2dVertex
 10
86.67515731340066
 20
-141.5352023300676
 30
0.0
  0
SEQEND
  5
99
330
93
100
AcDbEntity
  8
_U+30EC_U+30A4_U+30E4_U+30FC 1
370
     0
  0
HATCH
  5
9A
330
8D
100
AcDbEntity
  8
_U+30EC_U+30A4_U+30E4_U+30FC 1
 62
   179
420
  2234388
100
AcDbHatch
 10
0.0
 20
0.0
 30
0.0
210
0.0
220
0.0
230
1.0
  2
SOLID
 70
     1
 71
     0
 91
        1
 92
        1
 93
        4
 72
     1
 10
86.67515731340066
 20
-141.5352023300676
 11
86.42332083342889
 21
-141.5352023300676
 72
     1
 10
86.42332083342889
 20
-141.5352023300676
 11
86.42332083342889
 21
-141.3205728813365
 72
     1
 10
86.42332083342889
 20
-141.3205728813365
 11
86.67515731340066
 21
-141.3205728813365
 72
     1
 10
86.67515731340066
 20
-141.3205728813365
 11
86.67515731340066
 21
-141.5352023300676
 97
        0
 75
     2
 76
     1
 98
        0
  0
SPLINE
  5
9B
330
8D
100
AcDbEntity
  8
_U+30EC_U+30A4_U+30E4_U+30FC 1
370
     0
100
AcDbSpline
210
0.0
220
0.0
230
1.0
 70
    11
 71
     3
 72
    26
 73
    22
 74
     0
 42
0.0000000001
 43
0.0000000001
 12
1.0
 22
0.0
 32
0.0
 13
1.0
 23
0.0
 33
0.0
 40
0.0
 40
0.0
 40
0.0
 40
0.0
 40
1.0
 40
1.0
 40
1.0
 40
2.0
 40
2.0
 40
2.0
 40
3.0
 40
3.0
 40
3.0
 40
4.0
 40
4.0
 40
4.0
 40
5.0
 40
5.0
 40
5.0
 40
6.0
 40
6.0
 40
6.0
 40
7.0
 40
7.0
 40
7.0
 40
7.0
 10
86.67515731340066
 20
-140.7345621392955
 30
0.0
 10
86.67515731340066
 20
-140.7345621392955
 30
0.0
 10
85.57100421037809
 20
-140.7345621392955
 30
0.0
 10
85.57100421037809
 20
-140.7345621392955
 30
0.0
 10
85.57100421037809
 20
-140.7345621392955
 30
0.0
 10
85.57100421037809
 20
-141.0160264404404
 30
0.0
 10
85.57100421037809
 20
-141.0160264404404
 30
0.0
 10
85.57100421037809
 20
-141.0160264404404
 30
0.0
 10
85.42286510451234
 20
-141.0160264404404
 30
0.0
 10
85.42286510451234
 20
-141.0160264404404
 30
0.0
 10
85.40805119392577
 20
-140.7328395915529
 30
0.0
 10
85.24509817747345
 20
-140.6932209934725
 30
0.0
 10
85.13072100736316
 20
-140.6680717964302
 30
0.0
 10
85.13072100736316
 20
-140.6680717964302
 30
0.0
 10
85.13072100736316
 20
-140.5433593398642
 30
0.0
 10
85.13072100736316
 20
-140.5433593398642
 30
0.0
 10
85.13072100736316
 20
-140.5433593398642
 30
0.0
 10
86.67515731340066
 20
-140.5433593398642
 30
0.0
 10
86.67515731340066
 20
-140.5433593398642
 30
0.0
 10
86.67515731340066
 20
-140.5433593398642
 30
0.0
 10
86.67515731340066
 20
-140.7345621392955
 30
0.0
 10
86.67515731340066
 20
-140.7345621392955
 30
0.0
  0
HATCH
  5
9C
330
8D
100
AcDbEntity
  8
_U+30EC_U+30A4_U+30E4_U+30FC 1
 62
   179
420
  2234388
100
AcDbHatch
 10
0.0
 20
0.0
 30
0.0
210
0.0
220
0.0
230
1.0
  2
SOLID
 70
     1
 71
     0
 91
        1
 92
        1
 93
        1
 72
     4
 94
        3
 73
     0
 74
     1
 95
       26
 96
       22
 40
0.0
 40
0.0
 40
0.0
 40
0.0
 40
1.0
 40
1.0
 40
1.0
 40
2.0
 40
2.0
 40
2.0
 40
3.0
 40
3.0
 40
3.0
 40
4.0
 40
4.0
 40
4.0
 40
5.0
 40
5.0
 40
5.0
 40
6.0
 40
6.0
 40
6.0
 40
7.0
 40
7.0
 40
7.0
 40
7.0
 10
86.67515731340066
 20
-140.7345621392955
 10
86.67515731340066
 20
-140.7345621392955
 10
85.57100421037809
 20
-140.7345621392955
 10
85.57100421037809
 20
-140.7345621392955
 10
85.57100421037809
 20
-140.7345621392955
 10
85.57100421037809
 20
-141.0160264404404
 10
85.57100421037809
 20
-141.0160264404404
 10
85.57100421037809
 20
-141.0160264404404
 10
85.42286510451234
 20
-141.0160264404404
 10
85.42286510451234
 20
-141.0160264404404
 10
85.40805119392577
 20
-140.7328395915529
 10
85.24509817747345
 20
-140.6932209934725
 10
85.13072100736316
 20
-140.6680717964302
 10
85.13072100736316
 20
-140.6680717964302
 10
85.13072100736316
 20
-140.5433593398642
 10
85.13072100736316
 20
-140.5433593398642
 10
85.13072100736316
 20
-140.5433593398642
 10
86.67515731340066
 20
-140.5433593398642
 10
86.67515731340066
 20
-140.5433593398642
 10
86.67515731340066
 20
-140.5433593398642
 10
86.67515731340066
 20
-140.7345621392955
 10
86.67515731340066
 20
-140.7345621392955
 97
        0
 97
        0
 75
     2
 76
     1
 98
        0
  0
ENDBLK
  5
90
330
8D
100
AcDbEntity
  8
0
100
AcDbBlockEnd
  0
BLOCK
  5
AB
330
A9
100
AcDbEntity
  8
0
100
AcDbBlockBegin
  2
block 5
 70
     0
 10
0.0
 20
0.0
 30
0.0
  3
block 5
  1

  0
SPLINE
  5
AD
330
A9
100
AcDbEntity
  8
_U+30EC_U+30A4_U+30E4_U+30FC 1
370
     0
100
AcDbSpline
210
0.0
220
0.0
230
1.0
 70
    11
 71
     3
 72
    26
 73
    22
 74
     0
 42
0.0000000001
 43
0.0000000001
 12
1.0
 22
0.0
 32
0.0
 13
1.0
 23
0.0
 33
0.0
 40
0.0
 40
0.0
 40
0.0
 40
0.0
 40
1.0
 40
1.0
 40
1.0
 40
2.0
 40
2.0
 40
2.0
 40
3.0
 40
3.0
 40
3.0
 40
4.0
 40
4.0
 40
4.0
 40
5.0
 40
5.0
 40
5.0
 40
6.0
 40
6.0
 40
6.0
 40
7.0
 40
7.0
 40
7.0
 40
7.0
 10
95.77933889749615
 20
-158.3806857242937
 30
0.0
 10
95.77933889749615
 20
-158.3806857242937
 30
0.0
 10
95.77933889749615
 20
-157.2765326212711
 30
0.0
 10
95.77933889749615
 20
-157.2765326212711
 30
0.0
 10
95.77933889749615
 20
-157.2765326212711
 30
0.0
 10
95.49787459635122
 20
-157.2765326212711
 30
0.0
 10
95.49787459635122
 20
-157.2765326212711
 30
0.0
 10
95.49787459635122
 20
-157.2765326212711
 30
0.0
 10
95.49787459635122
 20
-157.1283935154054
 30
0.0
 10
95.49787459635122
 20
-157.1283935154054
 30
0.0
 10
95.78106144523876
 20
-157.1135796048188
 30
0.0
 10
95.82068004331914
 20
-156.9506265883665
 30
0.0
 10
95.84600149513572
 20
-156.8362494182562
 30
0.0
 10
95.84600149513572
 20
-156.8362494182562
 30
0.0
 10
95.97036944215324
 20
-156.8362494182562
 30
0.0
 10
95.97036944215324
 20
-156.8362494182562
 30
0.0
 10
95.97036944215324
 20
-156.8362494182562
 30
0.0
 10
95.97036944215324
 20
-158.3806857242937
 30
0.0
 10
95.97036944215324
 20
-158.3806857242937
 30
0.0
 10
95.97036944215324
 20
-158.3806857242937
 30
0.0
 10
95.77933889749615
 20
-158.3806857242937
 30
0.0
 10
95.77933889749615
 20
-158.3806857242937
 30
0.0
  0
HATCH
  5
AE
330
A9
100
AcDbEntity
  8
_U+30EC_U+30A4_U+30E4_U+30FC 1
 62
   179
420
  2234388
100
AcDbHatch
 10
0.0
 20
0.0
 30
0.0
210
0.0
220
0.0
230
1.0
  2
SOLID
 70
     1
 71
     0
 91
        1
 92
        1
 93
        1
 72
     4
 94
        3
 73
     0
 74
     1
 95
       26
 96
       22
 40
0.0
 40
0.0
 40
0.0
 40
0.0
 40
1.0
 40
1.0
 40
1.0
 40
2.0
 40
2.0
 40
2.0
 40
3.0
 40
3.0
 40
3.0
 40
4.0
 40
4.0
 40
4.0
 40
5.0
 40
5.0
 40
5.0
 40
6.0
 40
6.0
 40
6.0
 40
7.0
 40
7.0
 40
7.0
 40
7.0
 10
95.77933889749615
 20
-158.3806857242937
 10
95.77933889749615
 20
-158.3806857242937
 10
95.77933889749615
 20
-157.2765326212711
 10
95.77933889749615
 20
-157.2765326212711
 10
95.77933889749615
 20
-157.2765326212711
 10
95.49787459635122
 20
-157.2765326212711
 10
95.49787459635122
 20
-157.2765326212711
 10
95.49787459635122
 20
-157.2765326212711
 10
95.49787459635122
 20
-157.1283935154054
 10
95.49787459635122
 20
-157.1283935154054
 10
95.78106144523876
 20
-157.1135796048188
 10
95.82068004331914
 20
-156.9506265883665
 10
95.84600149513572
 20
-156.8362494182562
 10
95.84600149513572
 20
-156.8362494182562
 10
95.97036944215324
 20
-156.8362494182562
 10
95.97036944215324
 20
-156.8362494182562
 10
95.97036944215324
 20
-156.8362494182562
 10
95.97036944215324
 20
-158.3806857242937
 10
95.97036944215324
 20
-158.3806857242937
 10
95.97036944215324
 20
-158.3806857242937
 10
95.77933889749615
 20
-158.3806857242937
 10
95.77933889749615
 20
-158.3806857242937
 97
        0
 97
        0
 75
     2
 76
     1
 98
        0
  0
SPLINE
  5
AF
330
A9
100
AcDbEntity
  8
_U+30EC_U+30A4_U+30E4_U+30FC 1
370
     0
100
AcDbSpline
210
0.0
220
0.0
230
1.0
 70
    11
 71
     3
 72
    29
 73
    25
 74
     0
 42
0.0000000001
 43
0.0000000001
 12
1.0
 22
0.0
 32
0.0
 13
1.0
 23
0.0
 33
0.0
 40
0.0
 40
0.0
 40
0.0
 40
0.0
 40
1.0
 40
1.0
 40
1.0
 40
2.0
 40
2.0
 40
2.0
 40
3.0
 40
3.0
 40
3.0
 40
4.0
 40
4.0
 40
4.0
 40
5.0
 40
5.0
 40
5.0
 40
6.0
 40
6.0
 40
6.0
 40
7.0
 40
7.0
 40
7.0
 40
8.0
 40
8.0
 40
8.0
 40
8.0
 10
97.16151120617837
 20
-158.2029187972548
 30
0.0
 10
97.06969941149647
 20
-158.412380602758
 30
0.0
 10
96.92173256040499
 20
-158.4313286279269
 30
0.0
 10
96.8225138104298
 20
-158.4313286279269
 30
0.0
 10
96.68557126489111
 20
-158.4313286279269
 30
0.0
 10
96.56464841335884
 20
-158.384819838876
 30
0.0
 10
96.4835164146812
 20
-158.2029187972548
 30
0.0
 10
96.39514971548455
 20
-158.0082709023382
 30
0.0
 10
96.37895776670388
 20
-157.7715928425015
 30
0.0
 10
96.37895776670388
 20
-157.6086398260492
 30
0.0
 10
96.37895776670388
 20
-157.4646348347658
 30
0.0
 10
96.39342716774192
 20
-157.212798354794
 30
0.0
 10
96.4835164146812
 20
-157.0140163452951
 30
0.0
 10
96.57550046413738
 20
-156.8111002212139
 30
0.0
 10
96.71261526445032
 20
-156.7876735719142
 30
0.0
 10
96.8225138104298
 20
-156.7876735719142
 30
0.0
 10
96.95773380822585
 20
-156.7876735719142
 30
0.0
 10
97.08037920750074
 20
-156.8321153036739
 30
0.0
 10
97.16151120617837
 20
-157.0140163452951
 30
0.0
 10
97.24626055511553
 20
-157.2065971829206
 30
0.0
 10
97.26624210892997
 20
-157.4350070135926
 30
0.0
 10
97.26624210892997
 20
-157.6086398260492
 30
0.0
 10
97.26624210892997
 20
-157.7798610716661
 30
0.0
 10
97.24815535763241
 20
-158.0103379596294
 30
0.0
 10
97.16151120617837
 20
-158.2029187972548
 30
0.0
  0
SPLINE
  5
B0
330
A9
100
AcDbEntity
  8
_U+30EC_U+30A4_U+30E4_U+30FC 1
370
     0
100
AcDbSpline
210
0.0
220
0.0
230
1.0
 70
    11
 71
     3
 72
    17
 73
    13
 74
     0
 42
0.0000000001
 43
0.0000000001
 12
1.0
 22
0.0
 32
0.0
 13
1.0
 23
0.0
 33
0.0
 40
0.0
 40
0.0
 40
0.0
 40
0.0
 40
1.0
 40
1.0
 40
1.0
 40
2.0
 40
2.0
 40
2.0
 40
3.0
 40
3.0
 40
3.0
 40
4.0
 40
4.0
 40
4.0
 40
4.0
 10
96.8225138104298
 20
-156.9802544095397
 30
0.0
 10
96.60977916421561
 20
-156.9802544095397
 30
0.0
 10
96.57016056613524
 20
-157.2637857679757
 30
0.0
 10
96.57016056613524
 20
-157.6086398260492
 30
0.0
 10
96.57016056613524
 20
-157.9280001775319
 30
0.0
 10
96.60082191595397
 20
-158.2366807330103
 30
0.0
 10
96.8225138104298
 20
-158.2366807330103
 30
0.0
 10
97.03352590890134
 20
-158.2366807330103
 30
0.0
 10
97.0750393094986
 20
-157.9555609414139
 30
0.0
 10
97.0750393094986
 20
-157.6086398260492
 30
0.0
 10
97.0750393094986
 20
-157.2889349650181
 30
0.0
 10
97.04265541193726
 20
-156.9802544095397
 30
0.0
 10
96.8225138104298
 20
-156.9802544095397
 30
0.0
  0
HATCH
  5
B1
330
A9
100
AcDbEntity
  8
_U+30EC_U+30A4_U+30E4_U+30FC 1
 62
   179
420
  2234388
100
AcDbHatch
 10
0.0
 20
0.0
 30
0.0
210
0.0
220
0.0
230
1.0
  2
SOLID
 70
     1
 71
     0
 91
        2
 92
        1
 93
        1
 72
     4
 94
        3
 73
     0
 74
     1
 95
       29
 96
       25
 40
0.0
 40
0.0
 40
0.0
 40
0.0
 40
1.0
 40
1.0
 40
1.0
 40
2.0
 40
2.0
 40
2.0
 40
3.0
 40
3.0
 40
3.0
 40
4.0
 40
4.0
 40
4.0
 40
5.0
 40
5.0
 40
5.0
 40
6.0
 40
6.0
 40
6.0
 40
7.0
 40
7.0
 40
7.0
 40
8.0
 40
8.0
 40
8.0
 40
8.0
 10
97.16151120617837
 20
-158.2029187972548
 10
97.06969941149647
 20
-158.412380602758
 10
96.92173256040499
 20
-158.4313286279269
 10
96.8225138104298
 20
-158.4313286279269
 10
96.68557126489111
 20
-158.4313286279269
 10
96.56464841335884
 20
-158.384819838876
 10
96.4835164146812
 20
-158.2029187972548
 10
96.39514971548455
 20
-158.0082709023382
 10
96.37895776670388
 20
-157.7715928425015
 10
96.37895776670388
 20
-157.6086398260492
 10
96.37895776670388
 20
-157.4646348347658
 10
96.39342716774192
 20
-157.212798354794
 10
96.4835164146812
 20
-157.0140163452951
 10
96.57550046413738
 20
-156.8111002212139
 10
96.71261526445032
 20
-156.7876735719142
 10
96.8225138104298
 20
-156.7876735719142
 10
96.95773380822585
 20
-156.7876735719142
 10
97.08037920750074
 20
-156.8321153036739
 10
97.16151120617837
 20
-157.0140163452951
 10
97.24626055511553
 20
-157.2065971829206
 10
97.26624210892997
 20
-157.4350070135926
 10
97.26624210892997
 20
-157.6086398260492
 10
97.26624210892997
 20
-157.7798610716661
 10
97.24815535763241
 20
-158.0103379596294
 10
97.16151120617837
 20
-158.2029187972548
 97
        0
 97
        0
 92
        1
 93
        1
 72
     4
 94
        3
 73
     0
 74
     1
 95
       17
 96
       13
 40
0.0
 40
0.0
 40
0.0
 40
0.0
 40
1.0
 40
1.0
 40
1.0
 40
2.0
 40
2.0
 40
2.0
 40
3.0
 40
3.0
 40
3.0
 40
4.0
 40
4.0
 40
4.0
 40
4.0
 10
96.8225138104298
 20
-156.9802544095397
 10
96.60977916421561
 20
-156.9802544095397
 10
96.57016056613524
 20
-157.2637857679757
 10
96.57016056613524
 20
-157.6086398260492
 10
96.57016056613524
 20
-157.9280001775319
 10
96.60082191595397
 20
-158.2366807330103
 10
96.8225138104298
 20
-158.2366807330103
 10
97.03352590890134
 20
-158.2366807330103
 10
97.0750393094986
 20
-157.9555609414139
 10
97.0750393094986
 20
-157.6086398260492
 10
97.0750393094986
 20
-157.2889349650181
 10
97.04265541193726
 20
-156.9802544095397
 10
96.8225138104298
 20
-156.9802544095397
 97
        0
 97
        0
 75
     2
 76
     1
 98
        0
  0
ENDBLK
  5
AC
330
A9
100
AcDbEntity
  8
0
100
AcDbBlockEnd
  0
BLOCK
  5
C0
330
BE
100
AcDbEntity
  8
0
100
AcDbBlockBegin
  2
block 6
 70
     0
 10
0.0
 20
0.0
 30
0.0
  3
block 6
  1

  0
SPLINE
  5
C2
330
BE
100
AcDbEntity
  8
_U+30EC_U+30A4_U+30E4_U+30FC 1
370
     0
100
AcDbSpline
210
0.0
220
0.0
230
1.0
 70
    11
 71
     3
 72
    32
 73
    28
 74
     0
 42
0.0000000001
 43
0.0000000001
 12
1.0
 22
0.0
 32
0.0
 13
1.0
 23
0.0
 33
0.0
 40
0.0
 40
0.0
 40
0.0
 40
0.0
 40
1.0
 40
1.0
 40
1.0
 40
2.0
 40
2.0
 40
2.0
 40
3.0
 40
3.0
 40
3.0
 40
4.0
 40
4.0
 40
4.0
 40
5.0
 40
5.0
 40
5.0
 40
6.0
 40
6.0
 40
6.0
 40
7.0
 40
7.0
 40
7.0
 40
8.0
 40
8.0
 40
8.0
 40
9.0
 40
9.0
 40
9.0
 40
9.0
 10
121.7262477994296
 20
-149.9481255050477
 30
0.0
 10
121.7262477994296
 20
-150.0959201013649
 30
0.0
 10
121.6566568706275
 20
-150.3050373973196
 30
0.0
 10
121.3245496658494
 20
-150.3374212948809
 30
0.0
 10
121.3245496658494
 20
-150.3374212948809
 30
0.0
 10
121.3245496658494
 20
-150.1551757437112
 30
0.0
 10
121.3245496658494
 20
-150.1551757437112
 30
0.0
 10
121.3838053081957
 20
-150.1462184954496
 30
0.0
 10
121.5315999045129
 20
-150.1193467506646
 30
0.0
 10
121.5315999045129
 20
-149.9460584477565
 30
0.0
 10
121.5315999045129
 20
-149.6973225537215
 30
0.0
 10
121.201559757026
 20
-149.6649386561602
 30
0.0
 10
120.9965765756536
 20
-149.6539143506074
 30
0.0
 10
121.07684730046
 20
-149.7314289990255
 30
0.0
 10
121.1340358855151
 20
-149.7893066031777
 30
0.0
 10
121.1340358855151
 20
-149.9443359000139
 30
0.0
 10
121.1340358855151
 20
-150.0976426491075
 30
0.0
 10
121.0282714541179
 20
-150.3556803009527
 30
0.0
 10
120.622094696407
 20
-150.3556803009527
 30
0.0
 10
120.3027343449243
 20
-150.3556803009527
 30
0.0
 10
120.0825927434169
 20
-150.1858370935299
 30
0.0
 10
120.0825927434169
 20
-149.9153970979378
 30
0.0
 10
120.0825927434169
 20
-149.477180952214
 30
0.0
 10
120.6369086069936
 20
-149.4682237039524
 30
0.0
 10
120.850504527079
 20
-149.4682237039524
 30
0.0
 10
121.0809814150423
 20
-149.4682237039524
 30
0.0
 10
121.7262477994296
 20
-149.4844156527331
 30
0.0
 10
121.7262477994296
 20
-149.9481255050477
 30
0.0
  0
SPLINE
  5
C3
330
BE
100
AcDbEntity
  8
_U+30EC_U+30A4_U+30E4_U+30FC 1
370
     0
100
AcDbSpline
210
0.0
220
0.0
230
1.0
 70
    11
 71
     3
 72
    17
 73
    13
 74
     0
 42
0.0000000001
 43
0.0000000001
 12
1.0
 22
0.0
 32
0.0
 13
1.0
 23
0.0
 33
0.0
 40
0.0
 40
0.0
 40
0.0
 40
0.0
 40
1.0
 40
1.0
 40
1.0
 40
2.0
 40
2.0
 40
2.0
 40
3.0
 40
3.0
 40
3.0
 40
4.0
 40
4.0
 40
4.0
 40
4.0
 10
120.2751735810423
 20
-149.9136745501952
 30
0.0
 10
120.2751735810423
 20
-150.014615847913
 30
0.0
 10
120.3323621660975
 20
-150.1644775015214
 30
0.0
 10
120.6179605818247
 20
-150.1644775015214
 30
0.0
 10
120.8443033552056
 20
-150.1644775015214
 30
0.0
 10
120.9393879905985
 20
-150.0452771977317
 30
0.0
 10
120.9393879905985
 20
-149.9298664989759
 30
0.0
 10
120.9393879905985
 20
-149.7062798019832
 30
0.0
 10
120.7299261850953
 20
-149.6738959044218
 30
0.0
 10
120.6134819576939
 20
-149.6738959044218
 30
0.0
 10
120.4381265974946
 20
-149.6738959044218
 30
0.0
 10
120.2751735810423
 20
-149.7548556483252
 30
0.0
 10
120.2751735810423
 20
-149.9136745501952
 30
0.0
  0
HATCH
  5
C4
330
BE
100
AcDbEntity
  8
_U+30EC_U+30A4_U+30E4_U+30FC 1
 62
   179
420
  2234388
100
AcDbHatch
 10
0.0
 20
0.0
 30
0.0
210
0.0
220
0.0
230
1.0
  2
SOLID
 70
     1
 71
     0
 91
        2
 92
        1
 93
        1
 72
     4
 94
        3
 73
     0
 74
     1
 95
       32
 96
       28
 40
0.0
 40
0.0
 40
0.0
 40
0.0
 40
1.0
 40
1.0
 40
1.0
 40
2.0
 40
2.0
 40
2.0
 40
3.0
 40
3.0
 40
3.0
 40
4.0
 40
4.0
 40
4.0
 40
5.0
 40
5.0
 40
5.0
 40
6.0
 40
6.0
 40
6.0
 40
7.0
 40
7.0
 40
7.0
 40
8.0
 40
8.0
 40
8.0
 40
9.0
 40
9.0
 40
9.0
 40
9.0
 10
121.7262477994296
 20
-149.9481255050477
 10
121.7262477994296
 20
-150.0959201013649
 10
121.6566568706275
 20
-150.3050373973196
 10
121.3245496658494
 20
-150.3374212948809
 10
121.3245496658494
 20
-150.3374212948809
 10
121.3245496658494
 20
-150.1551757437112
 10
121.3245496658494
 20
-150.1551757437112
 10
121.3838053081957
 20
-150.1462184954496
 10
121.5315999045129
 20
-150.1193467506646
 10
121.5315999045129
 20
-149.9460584477565
 10
121.5315999045129
 20
-149.6973225537215
 10
121.201559757026
 20
-149.6649386561602
 10
120.9965765756536
 20
-149.6539143506074
 10
121.07684730046
 20
-149.7314289990255
 10
121.1340358855151
 20
-149.7893066031777
 10
121.1340358855151
 20
-149.9443359000139
 10
121.1340358855151
 20
-150.0976426491075
 10
121.0282714541179
 20
-150.3556803009527
 10
120.622094696407
 20
-150.3556803009527
 10
120.3027343449243
 20
-150.3556803009527
 10
120.0825927434169
 20
-150.1858370935299
 10
120.0825927434169
 20
-149.9153970979378
 10
120.0825927434169
 20
-149.477180952214
 10
120.6369086069936
 20
-149.4682237039524
 10
120.850504527079
 20
-149.4682237039524
 10
121.0809814150423
 20
-149.4682237039524
 10
121.7262477994296
 20
-149.4844156527331
 10
121.7262477994296
 20
-149.9481255050477
 97
        0
 97
        0
 92
        1
 93
        1
 72
     4
 94
        3
 73
     0
 74
     1
 95
       17
 96
       13
 40
0.0
 40
0.0
 40
0.0
 40
0.0
 40
1.0
 40
1.0
 40
1.0
 40
2.0
 40
2.0
 40
2.0
 40
3.0
 40
3.0
 40
3.0
 40
4.0
 40
4.0
 40
4.0
 40
4.0
 10
120.2751735810423
 20
-149.9136745501952
 10
120.2751735810423
 20
-150.014615847913
 10
120.3323621660975
 20
-150.1644775015214
 10
120.6179605818247
 20
-150.1644775015214
 10
120.8443033552056
 20
-150.1644775015214
 10
120.9393879905985
 20
-150.0452771977317
 10
120.9393879905985
 20
-149.9298664989759
 10
120.9393879905985
 20
-149.7062798019832
 10
120.7299261850953
 20
-149.6738959044218
 10
120.6134819576939
 20
-149.6738959044218
 10
120.4381265974946
 20
-149.6738959044218
 10
120.2751735810423
 20
-149.7548556483252
 10
120.2751735810423
 20
-149.9136745501952
 97
        0
 97
        0
 75
     2
 76
     1
 98
        0
  0
POLYLINE
  5
C5
330
BE
100
AcDbEntity
  8
_U+30EC_U+30A4_U+30E4_U+30FC 1
370
     0
100
AcDb2dPolyline
 66
     1
 10
0.0
 20
0.0
 30
0.0
  0
VERTEX
  5
C6
330
C5
100
AcDbEntity
  8
_U+30EC_U+30A4_U+30E4_U+30FC 1
370
     0
100
AcDbVertex
100
AcDb2dVertex
 10
121.6756048957964
 20
-149.2852891336856
 30
0.0
  0
VERTEX
  5
C7
330
C5
100
AcDbEntity
  8
_U+30EC_U+30A4_U+30E4_U+30FC 1
370
     0
100
AcDbVertex
100
AcDb2dVertex
 10
121.4237684158246
 20
-149.2852891336856
 30
0.0
  0
VERTEX
  5
C8
330
C5
100
AcDbEntity
  8
_U+30EC_U+30A4_U+30E4_U+30FC 1
370
     0
100
AcDbVertex
100
AcDb2dVertex
 10
121.4237684158246
 20
-149.0706596849546
 30
0.0
  0
VERTEX
  5
C9
330
C5
100
AcDbEntity
  8
_U+30EC_U+30A4_U+30E4_U+30FC 1
370
     0
100
AcDbVertex
100
AcDb2dVertex
 10
121.6756048957964
 20
-149.0706596849546
 30
0.0
  0
VERTEX
  5
CA
330
C5
100
AcDbEntity
  8
_U+30EC_U+30A4_U+30E4_U+30FC 1
370
     0
100
AcDbVertex
100
AcDb2dVertex
 10
121.6756048957964
 20
-149.2852891336856
 30
0.0
  0
SEQEND
  5
CB
330
C5
100
AcDbEntity
  8
_U+30EC_U+30A4_U+30E4_U+30FC 1
370
     0
  0
HATCH
  5
CC
330
BE
100
AcDbEntity
  8
_U+30EC_U+30A4_U+30E4_U+30FC 1
 62
   179
420
  2234388
100
AcDbHatch
 10
0.0
 20
0.0
 30
0.0
210
0.0
220
0.0
230
1.0
  2
SOLID
 70
     1
 71
     0
 91
        1
 92
        1
 93
        4
 72
     1
 10
121.6756048957964
 20
-149.2852891336856
 11
121.4237684158246
 21
-149.2852891336856
 72
     1
 10
121.4237684158246
 20
-149.2852891336856
 11
121.4237684158246
 21
-149.0706596849546
 72
     1
 10
121.4237684158246
 20
-149.0706596849546
 11
121.6756048957964
 21
-149.0706596849546
 72
     1
 10
121.6756048957964
 20
-149.0706596849546
 11
121.6756048957964
 21
-149.2852891336856
 97
        0
 75
     2
 76
     1
 98
        0
  0
SPLINE
  5
CD
330
BE
100
AcDbEntity
  8
_U+30EC_U+30A4_U+30E4_U+30FC 1
370
     0
100
AcDbSpline
210
0.0
220
0.0
230
1.0
 70
    11
 71
     3
 72
    53
 73
    49
 74
     0
 42
0.0000000001
 43
0.0000000001
 12
1.0
 22
0.0
 32
0.0
 13
1.0
 23
0.0
 33
0.0
 40
0.0
 40
0.0
 40
0.0
 40
0.0
 40
1.0
 40
1.0
 40
1.0
 40
2.0
 40
2.0
 40
2.0
 40
3.0
 40
3.0
 40
3.0
 40
4.0
 40
4.0
 40
4.0
 40
5.0
 40
5.0
 40
5.0
 40
6.0
 40
6.0
 40
6.0
 40
7.0
 40
7.0
 40
7.0
 40
8.0
 40
8.0
 40
8.0
 40
9.0
 40
9.0
 40
9.0
 40
10.0
 40
10.0
 40
10.0
 40
11.0
 40
11.0
 40
11.0
 40
12.0
 40
12.0
 40
12.0
 40
13.0
 40
13.0
 40
13.0
 40
14.0
 40
14.0
 40
14.0
 40
15.0
 40
15.0
 40
15.0
 40
16.0
 40
16.0
 40
16.0
 40
16.0
 10
121.7262477994296
 20
-148.4594997458713
 30
0.0
 10
121.7262477994296
 20
-148.5263345982851
 30
0.0
 10
121.7093668315518
 20
-148.6128064949649
 30
0.0
 10
121.6459770746232
 20
-148.6992783916446
 30
0.0
 10
121.5360785286438
 20
-148.8470729879618
 30
0.0
 10
121.4048203906557
 20
-148.8653319940337
 30
0.0
 10
121.2969889019674
 20
-148.8815239428143
 30
0.0
 10
121.2969889019674
 20
-148.8815239428143
 30
0.0
 10
121.2969889019674
 20
-148.6920436911256
 30
0.0
 10
121.2969889019674
 20
-148.6920436911256
 30
0.0
 10
121.4957709114663
 20
-148.6451903925262
 30
0.0
 10
121.5253987326395
 20
-148.5370143942894
 30
0.0
 10
121.5253987326395
 20
-148.4577771981286
 30
0.0
 10
121.5253987326395
 20
-148.338576894339
 30
0.0
 10
121.4258354731158
 20
-148.2086967945451
 30
0.0
 10
121.1932915278614
 20
-148.2086967945451
 30
0.0
 10
120.9373209333073
 20
-148.2086967945451
 30
0.0
 10
120.8673854949568
 20
-148.3620035436387
 30
0.0
 10
120.8673854949568
 20
-148.4650118986476
 30
0.0
 10
120.8673854949568
 20
-148.4918836434326
 30
0.0
 10
120.8673854949568
 20
-148.6128064949649
 30
0.0
 10
120.9965765756536
 20
-148.6885985956403
 30
0.0
 10
120.9965765756536
 20
-148.6885985956403
 30
0.0
 10
120.9776285504848
 20
-148.8381157397002
 30
0.0
 10
120.9776285504848
 20
-148.8381157397002
 30
0.0
 10
120.9776285504848
 20
-148.8381157397002
 30
0.0
 10
120.1311685897589
 20
-148.7354518942398
 30
0.0
 10
120.1311685897589
 20
-148.7354518942398
 30
0.0
 10
120.1311685897589
 20
-148.7354518942398
 30
0.0
 10
120.1311685897589
 20
-148.0719265037806
 30
0.0
 10
120.1311685897589
 20
-148.0719265037806
 30
0.0
 10
120.1311685897589
 20
-148.0719265037806
 30
0.0
 10
120.3258164846755
 20
-148.0719265037806
 30
0.0
 10
120.3258164846755
 20
-148.0719265037806
 30
0.0
 10
120.3258164846755
 20
-148.0719265037806
 30
0.0
 10
120.3258164846755
 20
-148.5966145461842
 30
0.0
 10
120.3258164846755
 20
-148.5966145461842
 30
0.0
 10
120.3258164846755
 20
-148.5966145461842
 30
0.0
 10
120.7488742102642
 20
-148.6524250930452
 30
0.0
 10
120.7488742102642
 20
-148.6524250930452
 30
0.0
 10
120.7151122745087
 20
-148.6000596416694
 30
0.0
 10
120.6748046573313
 20
-148.5297796937703
 30
0.0
 10
120.6748046573313
 20
-148.4288383960525
 30
0.0
 10
120.6748046573313
 20
-148.2124863995788
 30
0.0
 10
120.8611843230833
 20
-148.0106038041432
 30
0.0
 10
121.1743435026925
 20
-148.0106038041432
 30
0.0
 10
121.491636796884
 20
-148.0106038041432
 30
0.0
 10
121.7262477994296
 20
-148.201462094026
 30
0.0
 10
121.7262477994296
 20
-148.4594997458713
 30
0.0
  0
HATCH
  5
CE
330
BE
100
AcDbEntity
  8
_U+30EC_U+30A4_U+30E4_U+30FC 1
 62
   179
420
  2234388
100
AcDbHatch
 10
0.0
 20
0.0
 30
0.0
210
0.0
220
0.0
230
1.0
  2
SOLID
 70
     1
 71
     0
 91
        1
 92
        1
 93
        1
 72
     4
 94
        3
 73
     0
 74
     1
 95
       53
 96
       49
 40
0.0
 40
0.0
 40
0.0
 40
0.0
 40
1.0
 40
1.0
 40
1.0
 40
2.0
 40
2.0
 40
2.0
 40
3.0
 40
3.0
 40
3.0
 40
4.0
 40
4.0
 40
4.0
 40
5.0
 40
5.0
 40
5.0
 40
6.0
 40
6.0
 40
6.0
 40
7.0
 40
7.0
 40
7.0
 40
8.0
 40
8.0
 40
8.0
 40
9.0
 40
9.0
 40
9.0
 40
10.0
 40
10.0
 40
10.0
 40
11.0
 40
11.0
 40
11.0
 40
12.0
 40
12.0
 40
12.0
 40
13.0
 40
13.0
 40
13.0
 40
14.0
 40
14.0
 40
14.0
 40
15.0
 40
15.0
 40
15.0
 40
16.0
 40
16.0
 40
16.0
 40
16.0
 10
121.7262477994296
 20
-148.4594997458713
 10
121.7262477994296
 20
-148.5263345982851
 10
121.7093668315518
 20
-148.6128064949649
 10
121.6459770746232
 20
-148.6992783916446
 10
121.5360785286438
 20
-148.8470729879618
 10
121.4048203906557
 20
-148.8653319940337
 10
121.2969889019674
 20
-148.8815239428143
 10
121.2969889019674
 20
-148.8815239428143
 10
121.2969889019674
 20
-148.6920436911256
 10
121.2969889019674
 20
-148.6920436911256
 10
121.4957709114663
 20
-148.6451903925262
 10
121.5253987326395
 20
-148.5370143942894
 10
121.5253987326395
 20
-148.4577771981286
 10
121.5253987326395
 20
-148.338576894339
 10
121.4258354731158
 20
-148.2086967945451
 10
121.1932915278614
 20
-148.2086967945451
 10
120.9373209333073
 20
-148.2086967945451
 10
120.8673854949568
 20
-148.3620035436387
 10
120.8673854949568
 20
-148.4650118986476
 10
120.8673854949568
 20
-148.4918836434326
 10
120.8673854949568
 20
-148.6128064949649
 10
120.9965765756536
 20
-148.6885985956403
 10
120.9965765756536
 20
-148.6885985956403
 10
120.9776285504848
 20
-148.8381157397002
 10
120.9776285504848
 20
-148.8381157397002
 10
120.9776285504848
 20
-148.8381157397002
 10
120.1311685897589
 20
-148.7354518942398
 10
120.1311685897589
 20
-148.7354518942398
 10
120.1311685897589
 20
-148.7354518942398
 10
120.1311685897589
 20
-148.0719265037806
 10
120.1311685897589
 20
-148.0719265037806
 10
120.1311685897589
 20
-148.0719265037806
 10
120.3258164846755
 20
-148.0719265037806
 10
120.3258164846755
 20
-148.0719265037806
 10
120.3258164846755
 20
-148.0719265037806
 10
120.3258164846755
 20
-148.5966145461842
 10
120.3258164846755
 20
-148.5966145461842
 10
120.3258164846755
 20
-148.5966145461842
 10
120.7488742102642
 20
-148.6524250930452
 10
120.7488742102642
 20
-148.6524250930452
 10
120.7151122745087
 20
-148.6000596416694
 10
120.6748046573313
 20
-148.5297796937703
 10
120.6748046573313
 20
-148.4288383960525
 10
120.6748046573313
 20
-148.2124863995788
 10
120.8611843230833
 20
-148.0106038041432
 10
121.1743435026925
 20
-148.0106038041432
 10
121.491636796884
 20
-148.0106038041432
 10
121.7262477994296
 20
-148.201462094026
 10
121.7262477994296
 20
-148.4594997458713
 97
        0
 97
        0
 75
     2
 76
     1
 98
        0
  0
ENDBLK
  5
C1
330
BE
100
AcDbEntity
  8
0
100
AcDbBlockEnd
  0
BLOCK
  5
DD
330
DB
100
AcDbEntity
  8
0
100
AcDbBlockBegin
  2
block 7
 70
     0
 10
0.0
 20
0.0
 30
0.0
  3
block 7
  1

  0
SPLINE
  5
DF
330
DB
100
AcDbEntity
  8
_U+30EC_U+30A4_U+30E4_U+30FC 1
370
     0
100
AcDbSpline
210
0.0
220
0.0
230
1.0
 70
    11
 71
     3
 72
    29
 73
    25
 74
     0
 42
0.0000000001
 43
0.0000000001
 12
1.0
 22
0.0
 32
0.0
 13
1.0
 23
0.0
 33
0.0
 40
0.0
 40
0.0
 40
0.0
 40
0.0
 40
1.0
 40
1.0
 40
1.0
 40
2.0
 40
2.0
 40
2.0
 40
3.0
 40
3.0
 40
3.0
 40
4.0
 40
4.0
 40
4.0
 40
5.0
 40
5.0
 40
5.0
 40
6.0
 40
6.0
 40
6.0
 40
7.0
 40
7.0
 40
7.0
 40
8.0
 40
8.0
 40
8.0
 40
8.0
 10
124.8492268568085
 20
-154.7244058857981
 30
0.0
 10
125.0586886623117
 20
-154.8163899352543
 30
0.0
 10
125.0776366874806
 20
-154.9641845315714
 30
0.0
 10
125.0776366874806
 20
-155.0634032815467
 30
0.0
 10
125.0776366874806
 20
-155.2005180818596
 30
0.0
 10
125.0311278984297
 20
-155.3210964238434
 30
0.0
 10
124.8492268568085
 20
-155.4024006772952
 30
0.0
 10
124.6545789618919
 20
-155.4905951217176
 30
0.0
 10
124.4179009020553
 20
-155.5067870704983
 30
0.0
 10
124.2549478856029
 20
-155.5067870704983
 30
0.0
 10
124.1109428943195
 20
-155.5067870704983
 30
0.0
 10
123.8591064143477
 20
-155.4926621790088
 30
0.0
 10
123.6603244048488
 20
-155.4024006772952
 30
0.0
 10
123.4574082807676
 20
-155.3104166278391
 30
0.0
 10
123.4339816314679
 20
-155.1733018275261
 30
0.0
 10
123.4339816314679
 20
-155.0634032815467
 30
0.0
 10
123.4339816314679
 20
-154.9280110289763
 30
0.0
 10
123.4784233632276
 20
-154.8053656297014
 30
0.0
 10
123.6603244048488
 20
-154.7244058857981
 30
0.0
 10
123.8529052424743
 20
-154.6396565368609
 30
0.0
 10
124.0813150731463
 20
-154.6196749830465
 30
0.0
 10
124.2549478856029
 20
-154.6196749830465
 30
0.0
 10
124.4261691312199
 20
-154.6196749830465
 30
0.0
 10
124.6566460191831
 20
-154.6379339891183
 30
0.0
 10
124.8492268568085
 20
-154.7244058857981
 30
0.0
  0
SPLINE
  5
E0
330
DB
100
AcDbEntity
  8
_U+30EC_U+30A4_U+30E4_U+30FC 1
370
     0
100
AcDbSpline
210
0.0
220
0.0
230
1.0
 70
    11
 71
     3
 72
    17
 73
    13
 74
     0
 42
0.0000000001
 43
0.0000000001
 12
1.0
 22
0.0
 32
0.0
 13
1.0
 23
0.0
 33
0.0
 40
0.0
 40
0.0
 40
0.0
 40
0.0
 40
1.0
 40
1.0
 40
1.0
 40
2.0
 40
2.0
 40
2.0
 40
3.0
 40
3.0
 40
3.0
 40
4.0
 40
4.0
 40
4.0
 40
4.0
 10
123.6265624690934
 20
-155.0634032815467
 30
0.0
 10
123.6265624690934
 20
-155.2759656729866
 30
0.0
 10
123.9100938275294
 20
-155.3159287806155
 30
0.0
 10
124.2549478856029
 20
-155.3159287806155
 30
0.0
 10
124.5743082370856
 20
-155.3159287806155
 30
0.0
 10
124.882988792564
 20
-155.2852674307968
 30
0.0
 10
124.882988792564
 20
-155.0634032815467
 30
0.0
 10
124.882988792564
 20
-154.8522189283008
 30
0.0
 10
124.6018690009676
 20
-154.8108777824778
 30
0.0
 10
124.2549478856029
 20
-154.8108777824778
 30
0.0
 10
123.9352430245717
 20
-154.8108777824778
 30
0.0
 10
123.6265624690934
 20
-154.8432616800392
 30
0.0
 10
123.6265624690934
 20
-155.0634032815467
 30
0.0
  0
HATCH
  5
E1
330
DB
100
AcDbEntity
  8
_U+30EC_U+30A4_U+30E4_U+30FC 1
 62
   179
420
  2234388
100
AcDbHatch
 10
0.0
 20
0.0
 30
0.0
210
0.0
220
0.0
230
1.0
  2
SOLID
 70
     1
 71
     0
 91
        2
 92
        1
 93
        1
 72
     4
 94
        3
 73
     0
 74
     1
 95
       29
 96
       25
 40
0.0
 40
0.0
 40
0.0
 40
0.0
 40
1.0
 40
1.0
 40
1.0
 40
2.0
 40
2.0
 40
2.0
 40
3.0
 40
3.0
 40
3.0
 40
4.0
 40
4.0
 40
4.0
 40
5.0
 40
5.0
 40
5.0
 40
6.0
 40
6.0
 40
6.0
 40
7.0
 40
7.0
 40
7.0
 40
8.0
 40
8.0
 40
8.0
 40
8.0
 10
124.8492268568085
 20
-154.7244058857981
 10
125.0586886623117
 20
-154.8163899352543
 10
125.0776366874806
 20
-154.9641845315714
 10
125.0776366874806
 20
-155.0634032815467
 10
125.0776366874806
 20
-155.2005180818596
 10
125.0311278984297
 20
-155.3210964238434
 10
124.8492268568085
 20
-155.4024006772952
 10
124.6545789618919
 20
-155.4905951217176
 10
124.4179009020553
 20
-155.5067870704983
 10
124.2549478856029
 20
-155.5067870704983
 10
124.1109428943195
 20
-155.5067870704983
 10
123.8591064143477
 20
-155.4926621790088
 10
123.6603244048488
 20
-155.4024006772952
 10
123.4574082807676
 20
-155.3104166278391
 10
123.4339816314679
 20
-155.1733018275261
 10
123.4339816314679
 20
-155.0634032815467
 10
123.4339816314679
 20
-154.9280110289763
 10
123.4784233632276
 20
-154.8053656297014
 10
123.6603244048488
 20
-154.7244058857981
 10
123.8529052424743
 20
-154.6396565368609
 10
124.0813150731463
 20
-154.6196749830465
 10
124.2549478856029
 20
-154.6196749830465
 10
124.4261691312199
 20
-154.6196749830465
 10
124.6566460191831
 20
-154.6379339891183
 10
124.8492268568085
 20
-154.7244058857981
 97
        0
 97
        0
 92
        1
 93
        1
 72
     4
 94
        3
 73
     0
 74
     1
 95
       17
 96
       13
 40
0.0
 40
0.0
 40
0.0
 40
0.0
 40
1.0
 40
1.0
 40
1.0
 40
2.0
 40
2.0
 40
2.0
 40
3.0
 40
3.0
 40
3.0
 40
4.0
 40
4.0
 40
4.0
 40
4.0
 10
123.6265624690934
 20
-155.0634032815467
 10
123.6265624690934
 20
-155.2759656729866
 10
123.9100938275294
 20
-155.3159287806155
 10
124.2549478856029
 20
-155.3159287806155
 10
124.5743082370856
 20
-155.3159287806155
 10
124.882988792564
 20
-155.2852674307968
 10
124.882988792564
 20
-155.0634032815467
 10
124.882988792564
 20
-154.8522189283008
 10
124.6018690009676
 20
-154.8108777824778
 10
124.2549478856029
 20
-154.8108777824778
 10
123.9352430245717
 20
-154.8108777824778
 10
123.6265624690934
 20
-154.8432616800392
 10
123.6265624690934
 20
-155.0634032815467
 97
        0
 97
        0
 75
     2
 76
     1
 98
        0
  0
POLYLINE
  5
E2
330
DB
100
AcDbEntity
  8
_U+30EC_U+30A4_U+30E4_U+30FC 1
370
     0
100
AcDb2dPolyline
 66
     1
 10
0.0
 20
0.0
 30
0.0
  0
VERTEX
  5
E3
330
E2
100
AcDbEntity
  8
_U+30EC_U+30A4_U+30E4_U+30FC 1
370
     0
100
AcDbVertex
100
AcDb2dVertex
 10
125.0269937838474
 20
-154.4367404127797
 30
0.0
  0
VERTEX
  5
E4
330
E2
100
AcDbEntity
  8
_U+30EC_U+30A4_U+30E4_U+30FC 1
370
     0
100
AcDbVertex
100
AcDb2dVertex
 10
124.7751573038757
 20
-154.4367404127797
 30
0.0
  0
VERTEX
  5
E5
330
E2
100
AcDbEntity
  8
_U+30EC_U+30A4_U+30E4_U+30FC 1
370
     0
100
AcDbVertex
100
AcDb2dVertex
 10
124.7751573038757
 20
-154.2221109640487
 30
0.0
  0
VERTEX
  5
E6
330
E2
100
AcDbEntity
  8
_U+30EC_U+30A4_U+30E4_U+30FC 1
370
     0
100
AcDbVertex
100
AcDb2dVertex
 10
125.0269937838474
 20
-154.2221109640487
 30
0.0
  0
VERTEX
  5
E7
330
E2
100
AcDbEntity
  8
_U+30EC_U+30A4_U+30E4_U+30FC 1
370
     0
100
AcDbVertex
100
AcDb2dVertex
 10
125.0269937838474
 20
-154.4367404127797
 30
0.0
  0
SEQEND
  5
E8
330
E2
100
AcDbEntity
  8
_U+30EC_U+30A4_U+30E4_U+30FC 1
370
     0
  0
HATCH
  5
E9
330
DB
100
AcDbEntity
  8
_U+30EC_U+30A4_U+30E4_U+30FC 1
 62
   179
420
  2234388
100
AcDbHatch
 10
0.0
 20
0.0
 30
0.0
210
0.0
220
0.0
230
1.0
  2
SOLID
 70
     1
 71
     0
 91
        1
 92
        1
 93
        4
 72
     1
 10
125.0269937838474
 20
-154.4367404127797
 11
124.7751573038757
 21
-154.4367404127797
 72
     1
 10
124.7751573038757
 20
-154.4367404127797
 11
124.7751573038757
 21
-154.2221109640487
 72
     1
 10
124.7751573038757
 20
-154.2221109640487
 11
125.0269937838474
 21
-154.2221109640487
 72
     1
 10
125.0269937838474
 20
-154.2221109640487
 11
125.0269937838474
 21
-154.4367404127797
 97
        0
 75
     2
 76
     1
 98
        0
  0
POLYLINE
  5
EA
330
DB
100
AcDbEntity
  8
_U+30EC_U+30A4_U+30E4_U+30FC 1
370
     0
100
AcDb2dPolyline
 66
     1
 10
0.0
 20
0.0
 30
0.0
  0
VERTEX
  5
EB
330
EA
100
AcDbEntity
  8
_U+30EC_U+30A4_U+30E4_U+30FC 1
370
     0
100
AcDbVertex
100
AcDb2dVertex
 10
124.6800726684828
 20
-153.3115722272971
 30
0.0
  0
VERTEX
  5
EC
330
EA
100
AcDbEntity
  8
_U+30EC_U+30A4_U+30E4_U+30FC 1
370
     0
100
AcDbVertex
100
AcDb2dVertex
 10
125.0269937838474
 20
-153.3115722272971
 30
0.0
  0
VERTEX
  5
ED
330
EA
100
AcDbEntity
  8
_U+30EC_U+30A4_U+30E4_U+30FC 1
370
     0
100
AcDbVertex
100
AcDb2dVertex
 10
125.0269937838474
 20
-153.4972628739521
 30
0.0
  0
VERTEX
  5
EE
330
EA
100
AcDbEntity
  8
_U+30EC_U+30A4_U+30E4_U+30FC 1
370
     0
100
AcDbVertex
100
AcDb2dVertex
 10
124.6800726684828
 20
-153.4972628739521
 30
0.0
  0
VERTEX
  5
EF
330
EA
100
AcDbEntity
  8
_U+30EC_U+30A4_U+30E4_U+30FC 1
370
     0
100
AcDbVertex
100
AcDb2dVertex
 10
124.6800726684828
 20
-154.0564018712081
 30
0.0
  0
VERTEX
  5
F0
330
EA
100
AcDbEntity
  8
_U+30EC_U+30A4_U+30E4_U+30FC 1
370
     0
100
AcDbVertex
100
AcDb2dVertex
 10
124.455796952393
 20
-154.0564018712081
 30
0.0
  0
VERTEX
  5
F1
330
EA
100
AcDbEntity
  8
_U+30EC_U+30A4_U+30E4_U+30FC 1
370
     0
100
AcDbVertex
100
AcDb2dVertex
 10
123.4825574778099
 20
-153.4776258296862
 30
0.0
  0
VERTEX
  5
F2
330
EA
100
AcDbEntity
  8
_U+30EC_U+30A4_U+30E4_U+30FC 1
370
     0
100
AcDbVertex
100
AcDb2dVertex
 10
123.4825574778099
 20
-153.3115722272971
 30
0.0
  0
VERTEX
  5
F3
330
EA
100
AcDbEntity
  8
_U+30EC_U+30A4_U+30E4_U+30FC 1
370
     0
100
AcDbVertex
100
AcDb2dVertex
 10
124.4812906589839
 20
-153.3115722272971
 30
0.0
  0
VERTEX
  5
F4
330
EA
100
AcDbEntity
  8
_U+30EC_U+30A4_U+30E4_U+30FC 1
370
     0
100
AcDbVertex
100
AcDb2dVertex
 10
124.4812906589839
 20
-153.1348388289038
 30
0.0
  0
VERTEX
  5
F5
330
EA
100
AcDbEntity
  8
_U+30EC_U+30A4_U+30E4_U+30FC 1
370
     0
100
AcDbVertex
100
AcDb2dVertex
 10
124.6800726684828
 20
-153.1348388289038
 30
0.0
  0
VERTEX
  5
F6
330
EA
100
AcDbEntity
  8
_U+30EC_U+30A4_U+30E4_U+30FC 1
370
     0
100
AcDbVertex
100
AcDb2dVertex
 10
124.6800726684828
 20
-153.3115722272971
 30
0.0
  0
SEQEND
  5
F7
330
EA
100
AcDbEntity
  8
_U+30EC_U+30A4_U+30E4_U+30FC 1
370
     0
  0
POLYLINE
  5
F8
330
DB
100
AcDbEntity
  8
_U+30EC_U+30A4_U+30E4_U+30FC 1
370
     0
100
AcDb2dPolyline
 66
     1
 10
0.0
 20
0.0
 30
0.0
  0
VERTEX
  5
F9
330
F8
100
AcDbEntity
  8
_U+30EC_U+30A4_U+30E4_U+30FC 1
370
     0
100
AcDbVertex
100
AcDb2dVertex
 10
123.8253444785923
 20
-153.4972628739521
 30
0.0
  0
VERTEX
  5
FA
330
F8
100
AcDbEntity
  8
_U+30EC_U+30A4_U+30E4_U+30FC 1
370
     0
100
AcDbVertex
100
AcDb2dVertex
 10
124.4812906589839
 20
-153.8869031733338
 30
0.0
  0
VERTEX
  5
FB
330
F8
100
AcDbEntity
  8
_U+30EC_U+30A4_U+30E4_U+30FC 1
370
     0
100
AcDbVertex
100
AcDb2dVertex
 10
124.4812906589839
 20
-153.4972628739521
 30
0.0
  0
VERTEX
  5
FC
330
F8
100
AcDbEntity
  8
_U+30EC_U+30A4_U+30E4_U+30FC 1
370
     0
100
AcDbVertex
100
AcDb2dVertex
 10
123.8253444785923
 20
-153.4972628739521
 30
0.0
  0
SEQEND
  5
FD
330
F8
100
AcDbEntity
  8
_U+30EC_U+30A4_U+30E4_U+30FC 1
370
     0
  0
HATCH
  5
FE
330
DB
100
AcDbEntity
  8
_U+30EC_U+30A4_U+30E4_U+30FC 1
 62
   179
420
  2234388
100
AcDbHatch
 10
0.0
 20
0.0
 30
0.0
210
0.0
220
0.0
230
1.0
  2
SOLID
 70
     1
 71
     0
 91
        2
 92
        1
 93
       11
 72
     1
 10
124.6800726684828
 20
-153.3115722272971
 11
125.0269937838474
 21
-153.3115722272971
 72
     1
 10
125.0269937838474
 20
-153.3115722272971
 11
125.0269937838474
 21
-153.4972628739521
 72
     1
 10
125.0269937838474
 20
-153.4972628739521
 11
124.6800726684828
 21
-153.4972628739521
 72
     1
 10
124.6800726684828
 20
-153.4972628739521
 11
124.6800726684828
 21
-154.0564018712081
 72
     1
 10
124.6800726684828
 20
-154.0564018712081
 11
124.455796952393
 21
-154.0564018712081
 72
     1
 10
124.455796952393
 20
-154.0564018712081
 11
123.4825574778099
 21
-153.4776258296862
 72
     1
 10
123.4825574778099
 20
-153.4776258296862
 11
123.4825574778099
 21
-153.3115722272971
 72
     1
 10
123.4825574778099
 20
-153.3115722272971
 11
124.4812906589839
 21
-153.3115722272971
 72
     1
 10
124.4812906589839
 20
-153.3115722272971
 11
124.4812906589839
 21
-153.1348388289038
 72
     1
 10
124.4812906589839
 20
-153.1348388289038
 11
124.6800726684828
 21
-153.1348388289038
 72
     1
 10
124.6800726684828
 20
-153.1348388289038
 11
124.6800726684828
 21
-153.3115722272971
 97
        0
 92
        1
 93
        3
 72
     1
 10
123.8253444785923
 20
-153.4972628739521
 11
124.4812906589839
 21
-153.8869031733338
 72
     1
 10
124.4812906589839
 20
-153.8869031733338
 11
124.4812906589839
 21
-153.4972628739521
 72
     1
 10
124.4812906589839
 20
-153.4972628739521
 11
123.8253444785923
 21
-153.4972628739521
 97
        0
 75
     2
 76
     1
 98
        0
  0
ENDBLK
  5
DE
330
DB
100
AcDbEntity
  8
0
100
AcDbBlockEnd
  0
ENDSEC
  0
SECTION
  2
ENTITIES
  0
INSERT
  5
42
330
1F
100
AcDbEntity
  8
_U+30EC_U+30A4_U+30E4_U+30FC 1
100
AcDbBlockReference
  2
block 2
 10
0.0
 20
0.0
 30
0.0
  0
SPLINE
  5
65
330
1F
100
AcDbEntity
  8
_U+30EC_U+30A4_U+30E4_U+30FC 1
 62
   179
420
  2234388
370
     9
100
AcDbSpline
210
0.0
220
0.0
230
1.0
 70
    11
 71
     3
 72
    17
 73
    13
 74
     0
 42
0.0000000001
 43
0.0000000001
 12
1.0
 22
0.0
 32
0.0
 13
1.0
 23
0.0
 33
0.0
 40
0.0
 40
0.0
 40
0.0
 40
0.0
 40
1.0
 40
1.0
 40
1.0
 40
2.0
 40
2.0
 40
2.0
 40
3.0
 40
3.0
 40
3.0
 40
4.0
 40
4.0
 40
4.0
 40
4.0
 10
122.4211177101104
 20
-144.4271869083378
 30
0.0
 10
122.4211177101104
 20
-144.3720830194625
 30
0.0
 10
122.3763502112525
 20
-144.3272802416961
 30
0.0
 10
122.3212110459926
 20
-144.3272802416961
 30
0.0
 10
122.2661071585095
 20
-144.3272802416961
 30
0.0
 10
122.2213043818747
 20
-144.3720830194625
 30
0.0
 10
122.2213043818747
 20
-144.4271869083378
 30
0.0
 10
122.2213043818747
 20
-144.4826435749904
 30
0.0
 10
122.2661071585095
 20
-144.5274463527572
 30
0.0
 10
122.3212110459926
 20
-144.5274463527572
 30
0.0
 10
122.3763502112525
 20
-144.5274463527572
 30
0.0
 10
122.4211177101104
 20
-144.4826435749904
 30
0.0
 10
122.4211177101104
 20
-144.4271869083378
 30
0.0
  0
SPLINE
  5
66
330
1F
100
AcDbEntity
  8
_U+30EC_U+30A4_U+30E4_U+30FC 1
 62
   179
420
  2234388
370
     9
100
AcDbSpline
210
0.0
220
0.0
230
1.0
 70
    11
 71
     3
 72
    17
 73
    13
 74
     0
 42
0.0000000001
 43
0.0000000001
 12
1.0
 22
0.0
 32
0.0
 13
1.0
 23
0.0
 33
0.0
 40
0.0
 40
0.0
 40
0.0
 40
0.0
 40
1.0
 40
1.0
 40
1.0
 40
2.0
 40
2.0
 40
2.0
 40
3.0
 40
3.0
 40
3.0
 40
4.0
 40
4.0
 40
4.0
 40
4.0
 10
122.4211177101104
 20
-153.9275630170734
 30
0.0
 10
122.4211177101104
 20
-153.8717535726429
 30
0.0
 10
122.3763502112525
 20
-153.8269507948769
 30
0.0
 10
122.3212110459926
 20
-153.8269507948769
 30
0.0
 10
122.2661071585095
 20
-153.8269507948769
 30
0.0
 10
122.2213043818747
 20
-153.8717535726429
 30
0.0
 10
122.2213043818747
 20
-153.9275630170734
 30
0.0
 10
122.2213043818747
 20
-153.9826669059489
 30
0.0
 10
122.2661071585095
 20
-154.0274696837157
 30
0.0
 10
122.3212110459926
 20
-154.0274696837157
 30
0.0
 10
122.3763502112525
 20
-154.0274696837157
 30
0.0
 10
122.4211177101104
 20
-153.9826669059489
 30
0.0
 10
122.4211177101104
 20
-153.9275630170734
 30
0.0
  0
SPLINE
  5
67
330
1F
100
AcDbEntity
  8
_U+30EC_U+30A4_U+30E4_U+30FC 1
 62
   179
420
  2234388
370
     9
100
AcDbSpline
210
0.0
220
0.0
230
1.0
 70
    11
 71
     3
 72
    17
 73
    13
 74
     0
 42
0.0000000001
 43
0.0000000001
 12
1.0
 22
0.0
 32
0.0
 13
1.0
 23
0.0
 33
0.0
 40
0.0
 40
0.0
 40
0.0
 40
0.0
 40
1.0
 40
1.0
 40
1.0
 40
2.0
 40
2.0
 40
2.0
 40
3.0
 40
3.0
 40
3.0
 40
4.0
 40
4.0
 40
4.0
 40
4.0
 10
122.4211177101104
 20
-154.3271896836406
 30
0.0
 10
122.4211177101104
 20
-154.2720505169875
 30
0.0
 10
122.3763502112525
 20
-154.2272830169989
 30
0.0
 10
122.3212110459926
 20
-154.2272830169989
 30
0.0
 10
122.2661071585095
 20
-154.2272830169989
 30
0.0
 10
122.2213043818747
 20
-154.2720505169875
 30
0.0
 10
122.2213043818747
 20
-154.3271896836406
 30
0.0
 10
122.2213043818747
 20
-154.3822935725155
 30
0.0
 10
122.2661071585095
 20
-154.4270963502822
 30
0.0
 10
122.3212110459926
 20
-154.4270963502822
 30
0.0
 10
122.3763502112525
 20
-154.4270963502822
 30
0.0
 10
122.4211177101104
 20
-154.3822935725155
 30
0.0
 10
122.4211177101104
 20
-154.3271896836406
 30
0.0
  0
SPLINE
  5
68
330
1F
100
AcDbEntity
  8
_U+30EC_U+30A4_U+30E4_U+30FC 1
 62
   179
420
  2234388
370
     9
100
AcDbSpline
210
0.0
220
0.0
230
1.0
 70
    11
 71
     3
 72
    17
 73
    13
 74
     0
 42
0.0000000001
 43
0.0000000001
 12
1.0
 22
0.0
 32
0.0
 13
1.0
 23
0.0
 33
0.0
 40
0.0
 40
0.0
 40
0.0
 40
0.0
 40
1.0
 40
1.0
 40
1.0
 40
2.0
 40
2.0
 40
2.0
 40
3.0
 40
3.0
 40
3.0
 40
4.0
 40
4.0
 40
4.0
 40
4.0
 10
118.4213586454861
 20
-159.0270010713544
 30
0.0
 10
118.4213586454861
 20
-158.9718619047014
 30
0.0
 10
118.3765911466282
 20
-158.9270944047128
 30
0.0
 10
118.3214519813683
 20
-158.9270944047128
 30
0.0
 10
118.2656425383476
 20
-158.9270944047128
 30
0.0
 10
118.2208750394898
 20
-158.9718619047014
 30
0.0
 10
118.2208750394898
 20
-159.0270010713544
 30
0.0
 10
118.2208750394898
 20
-159.0821049602294
 30
0.0
 10
118.2656425383476
 20
-159.1269077379961
 30
0.0
 10
118.3214519813683
 20
-159.1269077379961
 30
0.0
 10
118.3765911466282
 20
-159.1269077379961
 30
0.0
 10
118.4213586454861
 20
-159.0821049602294
 30
0.0
 10
118.4213586454861
 20
-159.0270010713544
 30
0.0
  0
SPLINE
  5
69
330
1F
100
AcDbEntity
  8
_U+30EC_U+30A4_U+30E4_U+30FC 1
 62
   179
420
  2234388
370
     9
100
AcDbSpline
210
0.0
220
0.0
230
1.0
 70
    11
 71
     3
 72
    17
 73
    13
 74
     0
 42
0.0000000001
 43
0.0000000001
 12
1.0
 22
0.0
 32
0.0
 13
1.0
 23
0.0
 33
0.0
 40
0.0
 40
0.0
 40
0.0
 40
0.0
 40
1.0
 40
1.0
 40
1.0
 40
2.0
 40
2.0
 40
2.0
 40
3.0
 40
3.0
 40
3.0
 40
4.0
 40
4.0
 40
4.0
 40
4.0
 10
91.4211240565417
 20
-159.0270010713544
 30
0.0
 10
91.4211240565417
 20
-158.9718619047014
 30
0.0
 10
91.37632127990695
 20
-158.9270944047128
 30
0.0
 10
91.32121739242388
 20
-158.9270944047128
 30
0.0
 10
91.26576072717202
 20
-158.9270944047128
 30
0.0
 10
91.22095795053725
 20
-158.9718619047014
 30
0.0
 10
91.22095795053725
 20
-159.0270010713544
 30
0.0
 10
91.22095795053725
 20
-159.0821049602294
 30
0.0
 10
91.26576072717202
 20
-159.1269077379961
 30
0.0
 10
91.32121739242388
 20
-159.1269077379961
 30
0.0
 10
91.37632127990695
 20
-159.1269077379961
 30
0.0
 10
91.4211240565417
 20
-159.0821049602294
 30
0.0
 10
91.4211240565417
 20
-159.0270010713544
 30
0.0
  0
SPLINE
  5
6A
330
1F
100
AcDbEntity
  8
_U+30EC_U+30A4_U+30E4_U+30FC 1
 62
   179
420
  2234388
370
     9
100
AcDbSpline
210
0.0
220
0.0
230
1.0
 70
    11
 71
     3
 72
    17
 73
    13
 74
     0
 42
0.0000000001
 43
0.0000000001
 12
1.0
 22
0.0
 32
0.0
 13
1.0
 23
0.0
 33
0.0
 40
0.0
 40
0.0
 40
0.0
 40
0.0
 40
1.0
 40
1.0
 40
1.0
 40
2.0
 40
2.0
 40
2.0
 40
3.0
 40
3.0
 40
3.0
 40
4.0
 40
4.0
 40
4.0
 40
4.0
 10
87.42101221414862
 20
-144.4271869083378
 30
0.0
 10
87.42101221414862
 20
-144.3720830194625
 30
0.0
 10
87.37624471529072
 20
-144.3272802416961
 30
0.0
 10
87.32110555003078
 20
-144.3272802416961
 30
0.0
 10
87.26600166254771
 20
-144.3272802416961
 30
0.0
 10
87.22119888591294
 20
-144.3720830194625
 30
0.0
 10
87.22119888591294
 20
-144.4271869083378
 30
0.0
 10
87.22119888591294
 20
-144.4826435749904
 30
0.0
 10
87.26600166254771
 20
-144.5274463527572
 30
0.0
 10
87.32110555003078
 20
-144.5274463527572
 30
0.0
 10
87.37624471529072
 20
-144.5274463527572
 30
0.0
 10
87.42101221414862
 20
-144.4826435749904
 30
0.0
 10
87.42101221414862
 20
-144.4271869083378
 30
0.0
  0
SPLINE
  5
6B
330
1F
100
AcDbEntity
  8
_U+30EC_U+30A4_U+30E4_U+30FC 1
 62
   179
420
  2234388
370
     9
100
AcDbSpline
210
0.0
220
0.0
230
1.0
 70
    11
 71
     3
 72
    17
 73
    13
 74
     0
 42
0.0000000001
 43
0.0000000001
 12
1.0
 22
0.0
 32
0.0
 13
1.0
 23
0.0
 33
0.0
 40
0.0
 40
0.0
 40
0.0
 40
0.0
 40
1.0
 40
1.0
 40
1.0
 40
2.0
 40
2.0
 40
2.0
 40
3.0
 40
3.0
 40
3.0
 40
4.0
 40
4.0
 40
4.0
 40
4.0
 10
87.42101221414862
 20
-145.5272185747294
 30
0.0
 10
87.42101221414862
 20
-145.4720794080763
 30
0.0
 10
87.37624471529072
 20
-145.4273119080877
 30
0.0
 10
87.32110555003078
 20
-145.4273119080877
 30
0.0
 10
87.26600166254771
 20
-145.4273119080877
 30
0.0
 10
87.22119888591294
 20
-145.4720794080763
 30
0.0
 10
87.22119888591294
 20
-145.5272185747294
 30
0.0
 10
87.22119888591294
 20
-145.5823224636043
 30
0.0
 10
87.26600166254771
 20
-145.627125241371
 30
0.0
 10
87.32110555003078
 20
-145.627125241371
 30
0.0
 10
87.37624471529072
 20
-145.627125241371
 30
0.0
 10
87.42101221414862
 20
-145.5823224636043
 30
0.0
 10
87.42101221414862
 20
-145.5272185747294
 30
0.0
  0
SPLINE
  5
6C
330
1F
100
AcDbEntity
  8
_U+30EC_U+30A4_U+30E4_U+30FC 1
 62
   179
420
  2234388
370
     9
100
AcDbSpline
210
0.0
220
0.0
230
1.0
 70
    11
 71
     3
 72
    17
 73
    13
 74
     0
 42
0.0000000001
 43
0.0000000001
 12
1.0
 22
0.0
 32
0.0
 13
1.0
 23
0.0
 33
0.0
 40
0.0
 40
0.0
 40
0.0
 40
0.0
 40
1.0
 40
1.0
 40
1.0
 40
2.0
 40
2.0
 40
2.0
 40
3.0
 40
3.0
 40
3.0
 40
4.0
 40
4.0
 40
4.0
 40
4.0
 10
101.4212096347516
 20
-159.0270010713544
 30
0.0
 10
101.4212096347516
 20
-158.9718619047014
 30
0.0
 10
101.3764068581168
 20
-158.9270944047128
 30
0.0
 10
101.3213055302252
 20
-158.9270944047128
 30
0.0
 10
101.2661638053738
 20
-158.9270944047128
 30
0.0
 10
101.2213963065159
 20
-158.9718619047014
 30
0.0
 10
101.2213963065159
 20
-159.0270010713544
 30
0.0
 10
101.2213963065159
 20
-159.0821049602294
 30
0.0
 10
101.2661638053738
 20
-159.1269077379961
 30
0.0
 10
101.3213055302252
 20
-159.1269077379961
 30
0.0
 10
101.3764068581168
 20
-159.1269077379961
 30
0.0
 10
101.4212096347516
 20
-159.0821049602294
 30
0.0
 10
101.4212096347516
 20
-159.0270010713544
 30
0.0
  0
POLYLINE
  5
6D
330
1F
100
AcDbEntity
  8
_U+30EC_U+30A4_U+30E4_U+30FC 1
 62
   179
420
  2234388
370
     9
100
AcDb2dPolyline
 66
     1
 10
0.0
 20
0.0
 30
0.0
  0
VERTEX
  5
6E
330
6D
100
AcDbEntity
  8
_U+30EC_U+30A4_U+30E4_U+30FC 1
 62
   179
420
  2234388
370
     9
100
AcDbVertex
100
AcDb2dVertex
 10
101.3213055302252
 20
-159.0270010713544
 30
0.0
  0
VERTEX
  5
6F
330
6D
100
AcDbEntity
  8
_U+30EC_U+30A4_U+30E4_U+30FC 1
 62
   179
420
  2234388
370
     9
100
AcDbVertex
100
AcDb2dVertex
 10
118.3214519813683
 20
-159.0270010713544
 30
0.0
  0
SEQEND
  5
70
330
6D
100
AcDbEntity
  8
_U+30EC_U+30A4_U+30E4_U+30FC 1
 62
   179
420
  2234388
370
     9
  0
POLYLINE
  5
71
330
1F
100
AcDbEntity
  8
_U+30EC_U+30A4_U+30E4_U+30FC 1
 62
   179
420
  2234388
370
     9
100
AcDb2dPolyline
 66
     1
 10
0.0
 20
0.0
 30
0.0
  0
VERTEX
  5
72
330
71
100
AcDbEntity
  8
_U+30EC_U+30A4_U+30E4_U+30FC 1
 62
   179
420
  2234388
370
     9
100
AcDbVertex
100
AcDb2dVertex
 10
118.3214519813683
 20
-156.8669074607831
 30
0.0
  0
VERTEX
  5
73
330
71
100
AcDbEntity
  8
_U+30EC_U+30A4_U+30E4_U+30FC 1
 62
   179
420
  2234388
370
     9
100
AcDbVertex
100
AcDb2dVertex
 10
118.3214519813683
 20
-160.0274435711044
 30
0.0
  0
SEQEND
  5
74
330
71
100
AcDbEntity
  8
_U+30EC_U+30A4_U+30E4_U+30FC 1
 62
   179
420
  2234388
370
     9
  0
INSERT
  5
76
330
1F
100
AcDbEntity
  8
_U+30EC_U+30A4_U+30E4_U+30FC 1
100
AcDbBlockReference
  2
block 3
 10
0.0
 20
0.0
 30
0.0
  0
POLYLINE
  5
7D
330
1F
100
AcDbEntity
  8
_U+30EC_U+30A4_U+30E4_U+30FC 1
 62
   179
420
  2234388
370
     9
100
AcDb2dPolyline
 66
     1
 10
0.0
 20
0.0
 30
0.0
  0
VERTEX
  5
7E
330
7D
100
AcDbEntity
  8
_U+30EC_U+30A4_U+30E4_U+30FC 1
 62
   179
420
  2234388
370
     9
100
AcDbVertex
100
AcDb2dVertex
 10
87.32110555003078
 20
-144.4271869083378
 30
0.0
  0
VERTEX
  5
7F
330
7D
100
AcDbEntity
  8
_U+30EC_U+30A4_U+30E4_U+30FC 1
 62
   179
420
  2234388
370
     9
100
AcDbVertex
100
AcDb2dVertex
 10
87.32110555003078
 20
-143.4270619085878
 30
0.0
  0
SEQEND
  5
80
330
7D
100
AcDbEntity
  8
_U+30EC_U+30A4_U+30E4_U+30FC 1
 62
   179
420
  2234388
370
     9
  0
POLYLINE
  5
81
330
1F
100
AcDbEntity
  8
_U+30EC_U+30A4_U+30E4_U+30FC 1
 62
   179
420
  2234388
370
     9
100
AcDb2dPolyline
 66
     1
 10
0.0
 20
0.0
 30
0.0
  0
VERTEX
  5
82
330
81
100
AcDbEntity
  8
_U+30EC_U+30A4_U+30E4_U+30FC 1
 62
   179
420
  2234388
370
     9
100
AcDbVertex
100
AcDb2dVertex
 10
87.32110555003078
 20
-144.4271869083378
 30
0.0
  0
VERTEX
  5
83
330
81
100
AcDbEntity
  8
_U+30EC_U+30A4_U+30E4_U+30FC 1
 62
   179
420
  2234388
370
     9
100
AcDbVertex
100
AcDb2dVertex
 10
87.32110555003078
 20
-146.5269907967016
 30
0.0
  0
SEQEND
  5
84
330
81
100
AcDbEntity
  8
_U+30EC_U+30A4_U+30E4_U+30FC 1
 62
   179
420
  2234388
370
     9
  0
POLYLINE
  5
85
330
1F
100
AcDbEntity
  8
_U+30EC_U+30A4_U+30E4_U+30FC 1
 62
   179
420
  2234388
370
     9
100
AcDb2dPolyline
 66
     1
 10
0.0
 20
0.0
 30
0.0
  0
VERTEX
  5
86
330
85
100
AcDbEntity
  8
_U+30EC_U+30A4_U+30E4_U+30FC 1
 62
   179
420
  2234388
370
     9
100
AcDbVertex
100
AcDb2dVertex
 10
88.78114690167091
 20
-144.4271869083378
 30
0.0
  0
VERTEX
  5
87
330
85
100
AcDbEntity
  8
_U+30EC_U+30A4_U+30E4_U+30FC 1
 62
   179
420
  2234388
370
     9
100
AcDbVertex
100
AcDb2dVertex
 10
86.32133335331487
 20
-144.4271869083378
 30
0.0
  0
SEQEND
  5
88
330
85
100
AcDbEntity
  8
_U+30EC_U+30A4_U+30E4_U+30FC 1
 62
   179
420
  2234388
370
     9
  0
POLYLINE
  5
89
330
1F
100
AcDbEntity
  8
_U+30EC_U+30A4_U+30E4_U+30FC 1
 62
   179
420
  2234388
370
     9
100
AcDb2dPolyline
 66
     1
 10
0.0
 20
0.0
 30
0.0
  0
VERTEX
  5
8A
330
89
100
AcDbEntity
  8
_U+30EC_U+30A4_U+30E4_U+30FC 1
 62
   179
420
  2234388
370
     9
100
AcDbVertex
100
AcDb2dVertex
 10
88.78114690167091
 20
-145.5272185747294
 30
0.0
  0
VERTEX
  5
8B
330
89
100
AcDbEntity
  8
_U+30EC_U+30A4_U+30E4_U+30FC 1
 62
   179
420
  2234388
370
     9
100
AcDbVertex
100
AcDb2dVertex
 10
86.32133335331487
 20
-145.5272185747294
 30
0.0
  0
SEQEND
  5
8C
330
89
100
AcDbEntity
  8
_U+30EC_U+30A4_U+30E4_U+30FC 1
 62
   179
420
  2234388
370
     9
  0
INSERT
  5
8E
330
1F
100
AcDbEntity
  8
_U+30EC_U+30A4_U+30E4_U+30FC 1
100
AcDbBlockReference
  2
block 4
 10
0.0
 20
0.0
 30
0.0
  0
POLYLINE
  5
9D
330
1F
100
AcDbEntity
  8
_U+30EC_U+30A4_U+30E4_U+30FC 1
 62
   179
420
  2234388
370
     9
100
AcDb2dPolyline
 66
     1
 10
0.0
 20
0.0
 30
0.0
  0
VERTEX
  5
9E
330
9D
100
AcDbEntity
  8
_U+30EC_U+30A4_U+30E4_U+30FC 1
 62
   179
420
  2234388
370
     9
100
AcDbVertex
100
AcDb2dVertex
 10
91.32121739242388
 20
-159.0270010713544
 30
0.0
  0
VERTEX
  5
9F
330
9D
100
AcDbEntity
  8
_U+30EC_U+30A4_U+30E4_U+30FC 1
 62
   179
420
  2234388
370
     9
100
AcDbVertex
100
AcDb2dVertex
 10
101.3213055302252
 20
-159.0270010713544
 30
0.0
  0
SEQEND
  5
A0
330
9D
100
AcDbEntity
  8
_U+30EC_U+30A4_U+30E4_U+30FC 1
 62
   179
420
  2234388
370
     9
  0
POLYLINE
  5
A1
330
1F
100
AcDbEntity
  8
_U+30EC_U+30A4_U+30E4_U+30FC 1
 62
   179
420
  2234388
370
     9
100
AcDb2dPolyline
 66
     1
 10
0.0
 20
0.0
 30
0.0
  0
VERTEX
  5
A2
330
A1
100
AcDbEntity
  8
_U+30EC_U+30A4_U+30E4_U+30FC 1
 62
   179
420
  2234388
370
     9
100
AcDbVertex
100
AcDb2dVertex
 10
91.32121739242388
 20
-148.06728912965
 30
0.0
  0
VERTEX
  5
A3
330
A1
100
AcDbEntity
  8
_U+30EC_U+30A4_U+30E4_U+30FC 1
 62
   179
420
  2234388
370
     9
100
AcDbVertex
100
AcDb2dVertex
 10
91.32121739242388
 20
-160.0274435711044
 30
0.0
  0
SEQEND
  5
A4
330
A1
100
AcDbEntity
  8
_U+30EC_U+30A4_U+30E4_U+30FC 1
 62
   179
420
  2234388
370
     9
  0
POLYLINE
  5
A5
330
1F
100
AcDbEntity
  8
_U+30EC_U+30A4_U+30E4_U+30FC 1
 62
   179
420
  2234388
370
     9
100
AcDb2dPolyline
 66
     1
 10
0.0
 20
0.0
 30
0.0
  0
VERTEX
  5
A6
330
A5
100
AcDbEntity
  8
_U+30EC_U+30A4_U+30E4_U+30FC 1
 62
   179
420
  2234388
370
     9
100
AcDbVertex
100
AcDb2dVertex
 10
101.3213055302252
 20
-157.5669596828307
 30
0.0
  0
VERTEX
  5
A7
330
A5
100
AcDbEntity
  8
_U+30EC_U+30A4_U+30E4_U+30FC 1
 62
   179
420
  2234388
370
     9
100
AcDbVertex
100
AcDb2dVertex
 10
101.3213055302252
 20
-160.0274435711044
 30
0.0
  0
SEQEND
  5
A8
330
A5
100
AcDbEntity
  8
_U+30EC_U+30A4_U+30E4_U+30FC 1
 62
   179
420
  2234388
370
     9
  0
INSERT
  5
AA
330
1F
100
AcDbEntity
  8
_U+30EC_U+30A4_U+30E4_U+30FC 1
100
AcDbBlockReference
  2
block 5
 10
0.0
 20
0.0
 30
0.0
  0
POLYLINE
  5
B2
330
1F
100
AcDbEntity
  8
_U+30EC_U+30A4_U+30E4_U+30FC 1
 62
   179
420
  2234388
370
     9
100
AcDb2dPolyline
 66
     1
 10
0.0
 20
0.0
 30
0.0
  0
VERTEX
  5
B3
330
B2
100
AcDbEntity
  8
_U+30EC_U+30A4_U+30E4_U+30FC 1
 62
   179
420
  2234388
370
     9
100
AcDbVertex
100
AcDb2dVertex
 10
122.3212110459926
 20
-144.4271869083378
 30
0.0
  0
VERTEX
  5
B4
330
B2
100
AcDbEntity
  8
_U+30EC_U+30A4_U+30E4_U+30FC 1
 62
   179
420
  2234388
370
     9
100
AcDbVertex
100
AcDb2dVertex
 10
122.3212110459926
 20
-153.9275630170734
 30
0.0
  0
SEQEND
  5
B5
330
B2
100
AcDbEntity
  8
_U+30EC_U+30A4_U+30E4_U+30FC 1
 62
   179
420
  2234388
370
     9
  0
POLYLINE
  5
B6
330
1F
100
AcDbEntity
  8
_U+30EC_U+30A4_U+30E4_U+30FC 1
 62
   179
420
  2234388
370
     9
100
AcDb2dPolyline
 66
     1
 10
0.0
 20
0.0
 30
0.0
  0
VERTEX
  5
B7
330
B6
100
AcDbEntity
  8
_U+30EC_U+30A4_U+30E4_U+30FC 1
 62
   179
420
  2234388
370
     9
100
AcDbVertex
100
AcDb2dVertex
 10
104.9613698222124
 20
-144.4271869083378
 30
0.0
  0
VERTEX
  5
B8
330
B6
100
AcDbEntity
  8
_U+30EC_U+30A4_U+30E4_U+30FC 1
 62
   179
420
  2234388
370
     9
100
AcDbVertex
100
AcDb2dVertex
 10
123.3209832427085
 20
-144.4271869083378
 30
0.0
  0
SEQEND
  5
B9
330
B6
100
AcDbEntity
  8
_U+30EC_U+30A4_U+30E4_U+30FC 1
 62
   179
420
  2234388
370
     9
  0
POLYLINE
  5
BA
330
1F
100
AcDbEntity
  8
_U+30EC_U+30A4_U+30E4_U+30FC 1
 62
   179
420
  2234388
370
     9
100
AcDb2dPolyline
 66
     1
 10
0.0
 20
0.0
 30
0.0
  0
VERTEX
  5
BB
330
BA
100
AcDbEntity
  8
_U+30EC_U+30A4_U+30E4_U+30FC 1
 62
   179
420
  2234388
370
     9
100
AcDbVertex
100
AcDb2dVertex
 10
120.8611696943525
 20
-153.9275630170734
 30
0.0
  0
VERTEX
  5
BC
330
BA
100
AcDbEntity
  8
_U+30EC_U+30A4_U+30E4_U+30FC 1
 62
   179
420
  2234388
370
     9
100
AcDbVertex
100
AcDb2dVertex
 10
123.3209832427085
 20
-153.9275630170734
 30
0.0
  0
SEQEND
  5
BD
330
BA
100
AcDbEntity
  8
_U+30EC_U+30A4_U+30E4_U+30FC 1
 62
   179
420
  2234388
370
     9
  0
INSERT
  5
BF
330
1F
100
AcDbEntity
  8
_U+30EC_U+30A4_U+30E4_U+30FC 1
100
AcDbBlockReference
  2
block 6
 10
0.0
 20
0.0
 30
0.0
  0
POLYLINE
  5
CF
330
1F
100
AcDbEntity
  8
_U+30EC_U+30A4_U+30E4_U+30FC 1
 62
   179
420
  2234388
370
     9
100
AcDb2dPolyline
 66
     1
 10
0.0
 20
0.0
 30
0.0
  0
VERTEX
  5
D0
330
CF
100
AcDbEntity
  8
_U+30EC_U+30A4_U+30E4_U+30FC 1
 62
   179
420
  2234388
370
     9
100
AcDbVertex
100
AcDb2dVertex
 10
122.3212110459926
 20
-154.3271896836406
 30
0.0
  0
VERTEX
  5
D1
330
CF
100
AcDbEntity
  8
_U+30EC_U+30A4_U+30E4_U+30FC 1
 62
   179
420
  2234388
370
     9
100
AcDbVertex
100
AcDb2dVertex
 10
122.3212110459926
 20
-155.3269619056125
 30
0.0
  0
SEQEND
  5
D2
330
CF
100
AcDbEntity
  8
_U+30EC_U+30A4_U+30E4_U+30FC 1
 62
   179
420
  2234388
370
     9
  0
POLYLINE
  5
D3
330
1F
100
AcDbEntity
  8
_U+30EC_U+30A4_U+30E4_U+30FC 1
 62
   179
420
  2234388
370
     9
100
AcDb2dPolyline
 66
     1
 10
0.0
 20
0.0
 30
0.0
  0
VERTEX
  5
D4
330
D3
100
AcDbEntity
  8
_U+30EC_U+30A4_U+30E4_U+30FC 1
 62
   179
420
  2234388
370
     9
100
AcDbVertex
100
AcDb2dVertex
 10
122.3212110459926
 20
-153.9275630170734
 30
0.0
  0
VERTEX
  5
D5
330
D3
100
AcDbEntity
  8
_U+30EC_U+30A4_U+30E4_U+30FC 1
 62
   179
420
  2234388
370
     9
100
AcDbVertex
100
AcDb2dVertex
 10
122.3212110459926
 20
-154.3271896836406
 30
0.0
  0
SEQEND
  5
D6
330
D3
100
AcDbEntity
  8
_U+30EC_U+30A4_U+30E4_U+30FC 1
 62
   179
420
  2234388
370
     9
  0
POLYLINE
  5
D7
330
1F
100
AcDbEntity
  8
_U+30EC_U+30A4_U+30E4_U+30FC 1
 62
   179
420
  2234388
370
     9
100
AcDb2dPolyline
 66
     1
 10
0.0
 20
0.0
 30
0.0
  0
VERTEX
  5
D8
330
D7
100
AcDbEntity
  8
_U+30EC_U+30A4_U+30E4_U+30FC 1
 62
   179
420
  2234388
370
     9
100
AcDbVertex
100
AcDb2dVertex
 10
120.8611696943525
 20
-154.3271896836406
 30
0.0
  0
VERTEX
  5
D9
330
D7
100
AcDbEntity
  8
_U+30EC_U+30A4_U+30E4_U+30FC 1
 62
   179
420
  2234388
370
     9
100
AcDbVertex
100
AcDb2dVertex
 10
123.3209832427085
 20
-154.3271896836406
 30
0.0
  0
SEQEND
  5
DA
330
D7
100
AcDbEntity
  8
_U+30EC_U+30A4_U+30E4_U+30FC 1
 62
   179
420
  2234388
370
     9
  0
INSERT
  5
DC
330
1F
100
AcDbEntity
  8
_U+30EC_U+30A4_U+30E4_U+30FC 1
100
AcDbBlockReference
  2
block 7
 10
0.0
 20
0.0
 30
0.0
  0
ENDSEC
  0
SECTION
  2
OBJECTS
  0
DICTIONARY
  5
C
330
0
100
AcDbDictionary
281
     1
  3
ACAD_GROUP
350
D
  3
ACAD_LAYOUT
350
1A
  3
ACAD_MATERIAL
350
3B
  3
ACAD_MLEADERSTYLE
350
100
  3
ACAD_MLINESTYLE
350
17
  3
ACAD_PLOTSETTINGS
350
19
  3
ACAD_PLOTSTYLENAME
350
E
  3
ACAD_TABLESTYLE
350
FF
  3
ACAD_VISUALSTYLE
350
2A
  0
SUN
  5
3F
330
29
100
AcDbSun
 90
        1
290
     0
 63
     7
421
 16777215
 40
1.0
291
     1
 91
  2455826
 92
 54000000
292
     0
 70
     2
 71
   256
280
     1
  0
DICTIONARY
  5
D
102
{ACAD_REACTORS
330
C
102
}
330
C
100
AcDbDictionary
281
     1
  0
DICTIONARY
  5
1A
102
{ACAD_REACTORS
330
C
102
}
330
C
100
AcDbDictionary
281
     1
  3
Layout1
350
1E
  3
Layout2
350
26
  3
Model
350
22
  0
DICTIONARY
  5
3B
102
{ACAD_REACTORS
330
C
102
}
330
C
100
AcDbDictionary
281
     1
  3
ByBlock
350
3D
  3
ByLayer
350
3C
  3
Global
350
3E
  0
DICTIONARY
  5
100
102
{ACAD_REACTORS
330
C
102
}
330
C
100
AcDbDictionary
281
     1
  0
DICTIONARY
  5
17
102
{ACAD_REACTORS
330
C
102
}
330
C
100
AcDbDictionary
281
     1
  3
Standard
350
18
  0
DICTIONARY
  5
19
102
{ACAD_REACTORS
330
C
102
}
330
C
100
AcDbDictionary
281
     1
  0
ACDBDICTIONARYWDFLT
  5
E
102
{ACAD_REACTORS
330
C
102
}
330
C
100
AcDbDictionary
281
     1
  3
Normal
350
F
100
AcDbDictionaryWithDefault
340
F
  0
DICTIONARY
  5
FF
102
{ACAD_REACTORS
330
C
102
}
330
C
100
AcDbDictionary
281
     1
  0
DICTIONARY
  5
2A
102
{ACAD_REACTORS
330
C
102
}
330
C
100
AcDbDictionary
281
     1
  3
2dWireframe
350
2F
  3
3D Hidden
350
31
  3
3dWireframe
350
30
  3
Basic
350
32
  3
Brighten
350
36
  3
ColorChange
350
3A
  3
Conceptual
350
34
  3
Dim
350
35
  3
Facepattern
350
39
  3
Flat
350
2B
  3
FlatWithEdges
350
2C
  3
Gouraud
350
2D
  3
GouraudWithEdges
350
2E
  3
Linepattern
350
38
  3
Realistic
350
33
  3
Thicken
350
37
  0
LAYOUT
  5
1E
102
{ACAD_REACTORS
330
1A
102
}
330
1A
100
AcDbPlotSettings
  1

  2
none_device
  4

  6

 40
0.0
 41
0.0
 42
0.0
 43
0.0
 44
0.0
 45
0.0
 46
0.0
 47
0.0
 48
0.0
 49
0.0
140
0.0
141
0.0
142
1.0
143
1.0
 70
   688
 72
     0
 73
     0
 74
     5
  7

 75
    16
 76
     0
 77
     2
 78
   300
147
1.0
148
0.0
149
0.0
100
AcDbLayout
  1
Layout1
 70
     1
 71
     1
 10
0.0
 20
0.0
 11
12.0
 21
9.0
 12
0.0
 22
0.0
 32
0.0
 14
1.000000000000000E+20
 24
1.000000000000000E+20
 34
1.000000000000000E+20
 15
-1.000000000000000E+20
 25
-1.000000000000000E+20
 35
-1.000000000000000E+20
146
0.0
 13
0.0
 23
0.0
 33
0.0
 16
1.0
 26
0.0
 36
0.0
 17
0.0
 27
1.0
 37
0.0
 76
     0
330
1B
  0
LAYOUT
  5
26
102
{ACAD_REACTORS
330
1A
102
}
330
1A
100
AcDbPlotSettings
  1

  2
none_device
  4

  6

 40
0.0
 41
0.0
 42
0.0
 43
0.0
 44
0.0
 45
0.0
 46
0.0
 47
0.0
 48
0.0
 49
0.0
140
0.0
141
0.0
142
1.0
143
1.0
 70
   688
 72
     0
 73
     0
 74
     5
  7

 75
    16
 76
     0
 77
     2
 78
   300
147
1.0
148
0.0
149
0.0
100
AcDbLayout
  1
Layout2
 70
     1
 71
     2
 10
0.0
 20
0.0
 11
0.0
 21
0.0
 12
0.0
 22
0.0
 32
0.0
 14
0.0
 24
0.0
 34
0.0
 15
0.0
 25
0.0
 35
0.0
146
0.0
 13
0.0
 23
0.0
 33
0.0
 16
1.0
 26
0.0
 36
0.0
 17
0.0
 27
1.0
 37
0.0
 76
     0
330
23
  0
LAYOUT
  5
22
102
{ACAD_REACTORS
330
1A
102
}
330
1A
100
AcDbPlotSettings
  1

  2
none_device
  4

  6

 40
0.0
 41
0.0
 42
0.0
 43
0.0
 44
0.0
 45
0.0
 46
0.0
 47
0.0
 48
0.0
 49
0.0
140
0.0
141
0.0
142
1.0
143
1.0
 70
  1712
 72
     0
 73
     0
 74
     0
  7

 75
     0
 76
     0
 77
     2
 78
   300
147
1.0
148
0.0
149
0.0
100
AcDbLayout
  1
Model
 70
     1
 71
     0
 10
0.0
 20
0.0
 11
12.0
 21
9.0
 12
0.0
 22
0.0
 32
0.0
 14
1.000000000000000E+20
 24
1.000000000000000E+20
 34
1.000000000000000E+20
 15
-1.000000000000000E+20
 25
-1.000000000000000E+20
 35
-1.000000000000000E+20
146
0.0
 13
0.0
 23
0.0
 33
0.0
 16
1.0
 26
0.0
 36
0.0
 17
0.0
 27
1.0
 37
0.0
 76
     0
330
1F
331
29
  0
MATERIAL
  5
3D
102
{ACAD_REACTORS
330
3B
102
}
330
3B
100
AcDbMaterial
  1
ByBlock
 72
     1
 94
      127
  0
MATERIAL
  5
3C
102
{ACAD_REACTORS
330
3B
102
}
330
3B
100
AcDbMaterial
  1
ByLayer
 72
     1
 94
      127
  0
MATERIAL
  5
3E
102
{ACAD_REACTORS
330
3B
102
}
330
3B
100
AcDbMaterial
  1
Global
 72
     1
 94
      127
  0
MLINESTYLE
  5
18
102
{ACAD_REACTORS
330
17
102
}
330
17
100
AcDbMlineStyle
  2
Standard
 70
     0
  3

 62
   256
 51
90.0
 52
90.0
 71
     2
 49
0.5
 62
   256
  6
BYLAYER
 49
-0.5
 62
   256
  6
BYLAYER
  0
ACDBPLACEHOLDER
  5
F
102
{ACAD_REACTORS
330
E
102
}
330
E
  0
VISUALSTYLE
  5
2F
102
{ACAD_REACTORS
330
2A
102
}
330
2A
100
AcDbVisualStyle
  2
2dWireframe
 70
     4
177
     2
291
     0
 71
     0
176
     1
 72
     2
176
     1
 73
     0
176
     1
 90
        0
176
     1
 40
-0.6
176
     1
 41
-30.0
176
     1
 62
     5
 63
     7
421
 16777215
176
     1
 74
     1
176
     1
 91
        4
176
     1
 64
     7
176
     1
 65
   257
176
     1
 75
     1
176
     1
175
     1
176
     1
 42
1.0
176
     1
 92
        0
176
     1
 66
   257
176
     1
 43
1.0
176
     1
 76
     1
176
     1
 77
     6
176
     1
 78
     2
176
     1
 67
     7
176
     1
 79
     5
176
     1
170
     0
176
     1
171
     0
176
     1
290
     0
176
     1
 93
        1
176
     1
 44
0.0
176
     1
173
     0
176
     1
  0
VISUALSTYLE
  5
31
102
{ACAD_REACTORS
330
2A
102
}
330
2A
100
AcDbVisualStyle
  2
3D Hidden
 70
     6
177
     2
291
     0
 71
     1
176
     1
 72
     2
176
     1
 73
     2
176
     1
 90
        0
176
     1
 40
-0.6
176
     1
 41
-30.0
176
     1
 62
     5
 63
     7
421
 16777215
176
     1
 74
     2
176
     1
 91
        2
176
     1
 64
     7
176
     1
 65
   257
176
     1
 75
     2
176
     1
175
     1
176
     1
 42
40.0
176
     1
 92
        0
176
     1
 66
   257
176
     1
 43
1.0
176
     1
 76
     1
176
     1
 77
     6
176
     1
 78
     2
176
     1
 67
     7
176
     1
 79
     3
176
     1
170
     0
176
     1
171
     0
176
     1
290
     0
176
     1
 93
        1
176
     1
 44
0.0
176
     1
173
     0
176
     1
  0
VISUALSTYLE
  5
30
102
{ACAD_REACTORS
330
2A
102
}
330
2A
100
AcDbVisualStyle
  2
3dWireframe
 70
     5
177
     2
291
     0
 71
     0
176
     1
 72
     2
176
     1
 73
     0
176
     1
 90
        0
176
     1
 40
-0.6
176
     1
 41
-30.0
176
     1
 62
     5
 63
     7
421
 16777215
176
     1
 74
     1
176
     1
 91
        4
176
     1
 64
     7
176
     1
 65
   257
176
     1
 75
     1
176
     1
175
     1
176
     1
 42
1.0
176
     1
 92
        0
176
     1
 66
   257
176
     1
 43
1.0
176
     1
 76
     1
176
     1
 77
     6
176
     1
 78
     2
176
     1
 67
     7
176
     1
 79
     5
176
     1
170
     0
176
     1
171
     0
176
     1
290
     0
176
     1
 93
        1
176
     1
 44
0.0
176
     1
173
     0
176
     1
  0
VISUALSTYLE
  5
32
102
{ACAD_REACTORS
330
2A
102
}
330
2A
100
AcDbVisualStyle
  2
Basic
 70
     7
177
     2
291
     1
 71
     1
176
     1
 72
     0
176
     1
 73
     1
176
     1
 90
        0
176
     1
 40
-0.6
176
     1
 41
-30.0
176
     1
 62
     5
 63
     7
421
 16777215
176
     1
 74
     0
176
     1
 91
        4
176
     1
 64
     7
176
     1
 65
   257
176
     1
 75
     1
176
     1
175
     1
176
     1
 42
1.0
176
     1
 92
        8
176
     1
 66
     7
176
     1
 43
1.0
176
     1
 76
     1
176
     1
 77
     6
176
     1
 78
     2
176
     1
 67
     7
176
     1
 79
     5
176
     1
170
     0
176
     1
171
     0
176
     1
290
     0
176
     1
 93
        1
176
     1
 44
0.0
176
     1
173
     0
176
     1
  0
VISUALSTYLE
  5
36
102
{ACAD_REACTORS
330
2A
102
}
330
2A
100
AcDbVisualStyle
  2
Brighten
 70
    12
177
     2
291
     1
 71
     2
176
     1
 72
     2
176
     1
 73
     0
176
     1
 90
        0
176
     1
 40
-0.6
176
     1
 41
-30.0
176
     1
 62
     5
 63
     7
421
 16777215
176
     1
 74
     1
176
     1
 91
        4
176
     1
 64
     7
176
     1
 65
   257
176
     1
 75
     1
176
     1
175
     1
176
     1
 42
1.0
176
     1
 92
        8
176
     1
 66
     7
176
     1
 43
1.0
176
     1
 76
     1
176
     1
 77
     6
176
     1
 78
     2
176
     1
 67
     7
176
     1
 79
     5
176
     1
170
     0
176
     1
171
     0
176
     1
290
     0
176
     1
 93
        1
176
     1
 44
50.0
176
     1
173
     0
176
     1
  0
VISUALSTYLE
  5
3A
102
{ACAD_REACTORS
330
2A
102
}
330
2A
100
AcDbVisualStyle
  2
ColorChange
 70
    16
177
     2
291
     1
 71
     2
176
     1
 72
     2
176
     1
 73
     3
176
     1
 90
        0
176
     1
 40
-0.6
176
     1
 41
-30.0
176
     1
 62
     5
 63
     8
421
  8421504
176
     1
 74
     1
176
     1
 91
        4
176
     1
 64
     7
176
     1
 65
   257
176
     1
 75
     1
176
     1
175
     1
176
     1
 42
1.0
176
     1
 92
        8
176
     1
 66
     8
424
  8421504
176
     1
 43
1.0
176
     1
 76
     1
176
     1
 77
     6
176
     1
 78
     2
176
     1
 67
     7
176
     1
 79
     5
176
     1
170
     0
176
     1
171
     0
176
     1
290
     0
176
     1
 93
        1
176
     1
 44
0.0
176
     1
173
     0
176
     1
  0
VISUALSTYLE
  5
34
102
{ACAD_REACTORS
330
2A
102
}
330
2A
100
AcDbVisualStyle
  2
Conceptual
 70
     9
177
     2
291
     0
 71
     3
176
     1
 72
     2
176
     1
 73
     0
176
     1
 90
        0
176
     1
 40
-0.6
176
     1
 41
-30.0
176
     1
 62
     5
 63
     7
421
 16777215
176
     1
 74
     2
176
     1
 91
        2
176
     1
 64
     7
176
     1
 65
   257
176
     1
 75
     1
176
     1
175
     1
176
     1
 42
40.0
176
     1
 92
        8
176
     1
 66
     7
176
     1
 43
1.0
176
     1
 76
     1
176
     1
 77
     6
176
     1
 78
     2
176
     1
 67
     7
176
     1
 79
     3
176
     1
170
     0
176
     1
171
     0
176
     1
290
     0
176
     1
 93
        1
176
     1
 44
0.0
176
     1
173
     0
176
     1
  0
VISUALSTYLE
  5
35
102
{ACAD_REACTORS
330
2A
102
}
330
2A
100
AcDbVisualStyle
  2
Dim
 70
    11
177
     2
291
     1
 71
     2
176
     1
 72
     2
176
     1
 73
     0
176
     1
 90
        0
176
     1
 40
-0.6
176
     1
 41
-30.0
176
     1
 62
     5
 63
     7
421
 16777215
176
     1
 74
     1
176
     1
 91
        4
176
     1
 64
     7
176
     1
 65
   257
176
     1
 75
     1
176
     1
175
     1
176
     1
 42
1.0
176
     1
 92
        8
176
     1
 66
     7
176
     1
 43
1.0
176
     1
 76
     1
176
     1
 77
     6
176
     1
 78
     2
176
     1
 67
     7
176
     1
 79
     5
176
     1
170
     0
176
     1
171
     0
176
     1
290
     0
176
     1
 93
        1
176
     1
 44
-50.0
176
     1
173
     0
176
     1
  0
VISUALSTYLE
  5
39
102
{ACAD_REACTORS
330
2A
102
}
330
2A
100
AcDbVisualStyle
  2
Facepattern
 70
    15
177
     2
291
     1
 71
     2
176
     1
 72
     2
176
     1
 73
     0
176
     1
 90
        0
176
     1
 40
-0.6
176
     1
 41
-30.0
176
     1
 62
     5
 63
     7
421
 16777215
176
     1
 74
     1
176
     1
 91
        4
176
     1
 64
     7
176
     1
 65
   257
176
     1
 75
     1
176
     1
175
     1
176
     1
 42
1.0
176
     1
 92
        8
176
     1
 66
     7
176
     1
 43
1.0
176
     1
 76
     1
176
     1
 77
     6
176
     1
 78
     2
176
     1
 67
     7
176
     1
 79
     5
176
     1
170
     0
176
     1
171
     0
176
     1
290
     0
176
     1
 93
        1
176
     1
 44
0.0
176
     1
173
     0
176
     1
  0
VISUALSTYLE
  5
2B
102
{ACAD_REACTORS
330
2A
102
}
330
2A
100
AcDbVisualStyle
  2
Flat
 70
     0
177
     2
291
     1
 71
     2
176
     1
 72
     1
176
     1
 73
     1
176
     1
 90
        2
176
     1
 40
-0.6
176
     1
 41
30.0
176
     1
 62
     5
 63
     7
421
 16777215
176
     1
 74
     0
176
     1
 91
        4
176
     1
 64
     7
176
     1
 65
   257
176
     1
 75
     1
176
     1
175
     1
176
     1
 42
1.0
176
     1
 92
        8
176
     1
 66
     7
176
     1
 43
1.0
176
     1
 76
     1
176
     1
 77
     6
176
     1
 78
     2
176
     1
 67
     7
176
     1
 79
     5
176
     1
170
     0
176
     1
171
     0
176
     1
290
     0
176
     1
 93
       13
176
     1
 44
0.0
176
     1
173
     0
176
     1
  0
VISUALSTYLE
  5
2C
102
{ACAD_REACTORS
330
2A
102
}
330
2A
100
AcDbVisualStyle
  2
FlatWithEdges
 70
     1
177
     2
291
     1
 71
     2
176
     1
 72
     1
176
     1
 73
     1
176
     1
 90
        2
176
     1
 40
-0.6
176
     1
 41
30.0
176
     1
 62
     5
 63
     7
421
 16777215
176
     1
 74
     1
176
     1
 91
        4
176
     1
 64
     7
176
     1
 65
   257
176
     1
 75
     1
176
     1
175
     1
176
     1
 42
1.0
176
     1
 92
        0
176
     1
 66
   257
176
     1
 43
1.0
176
     1
 76
     1
176
     1
 77
     6
176
     1
 78
     2
176
     1
 67
     7
176
     1
 79
     5
176
     1
170
     0
176
     1
171
     0
176
     1
290
     0
176
     1
 93
       13
176
     1
 44
0.0
176
     1
173
     0
176
     1
  0
VISUALSTYLE
  5
2D
102
{ACAD_REACTORS
330
2A
102
}
330
2A
100
AcDbVisualStyle
  2
Gouraud
 70
     2
177
     2
291
     1
 71
     2
176
     1
 72
     2
176
     1
 73
     1
176
     1
 90
        2
176
     1
 40
-0.6
176
     1
 41
30.0
176
     1
 62
     5
 63
     7
421
 16777215
176
     1
 74
     0
176
     1
 91
        4
176
     1
 64
     7
176
     1
 65
   257
176
     1
 75
     1
176
     1
175
     1
176
     1
 42
1.0
176
     1
 92
        0
176
     1
 66
     7
176
     1
 43
1.0
176
     1
 76
     1
176
     1
 77
     6
176
     1
 78
     2
176
     1
 67
     7
176
     1
 79
     5
176
     1
170
     0
176
     1
171
     0
176
     1
290
     0
176
     1
 93
       13
176
     1
 44
0.0
176
     1
173
     0
176
     1
  0
VISUALSTYLE
  5
2E
102
{ACAD_REACTORS
330
2A
102
}
330
2A
100
AcDbVisualStyle
  2
GouraudWithEdges
 70
     3
177
     2
291
     1
 71
     2
176
     1
 72
     2
176
     1
 73
     1
176
     1
 90
        2
176
     1
 40
-0.6
176
     1
 41
30.0
176
     1
 62
     5
 63
     7
421
 16777215
176
     1
 74
     1
176
     1
 91
        4
176
     1
 64
     7
176
     1
 65
   257
176
     1
 75
     1
176
     1
175
     1
176
     1
 42
1.0
176
     1
 92
        0
176
     1
 66
   257
176
     1
 43
1.0
176
     1
 76
     1
176
     1
 77
     6
176
     1
 78
     2
176
     1
 67
     7
176
     1
 79
     5
176
     1
170
     0
176
     1
171
     0
176
     1
290
     0
176
     1
 93
       13
176
     1
 44
0.0
176
     1
173
     0
176
     1
  0
VISUALSTYLE
  5
38
102
{ACAD_REACTORS
330
2A
102
}
330
2A
100
AcDbVisualStyle
  2
Linepattern
 70
    14
177
     2
291
     1
 71
     2
176
     1
 72
     2
176
     1
 73
     0
176
     1
 90
        0
176
     1
 40
-0.6
176
     1
 41
-30.0
176
     1
 62
     5
 63
     7
421
 16777215
176
     1
 74
     1
176
     1
 91
        4
176
     1
 64
     7
176
     1
 65
   257
176
     1
 75
     7
176
     1
175
     7
176
     1
 42
1.0
176
     1
 92
        8
176
     1
 66
     7
176
     1
 43
1.0
176
     1
 76
     1
176
     1
 77
     6
176
     1
 78
     2
176
     1
 67
     7
176
     1
 79
     5
176
     1
170
     0
176
     1
171
     0
176
     1
290
     0
176
     1
 93
        1
176
     1
 44
0.0
176
     1
173
     0
176
     1
  0
VISUALSTYLE
  5
33
102
{ACAD_REACTORS
330
2A
102
}
330
2A
100
AcDbVisualStyle
  2
Realistic
 70
     8
177
     2
291
     0
 71
     2
176
     1
 72
     2
176
     1
 73
     0
176
     1
 90
        0
176
     1
 40
-0.6
176
     1
 41
-30.0
176
     1
 62
     5
 63
     7
421
 16777215
176
     1
 74
     1
176
     1
 91
        0
176
     1
 64
     7
176
     1
 65
   257
176
     1
 75
     1
176
     1
175
     1
176
     1
 42
1.0
176
     1
 92
        8
176
     1
 66
     8
424
  7895160
176
     1
 43
1.0
176
     1
 76
     1
176
     1
 77
     6
176
     1
 78
     2
176
     1
 67
     7
176
     1
 79
     5
176
     1
170
     0
176
     1
171
     0
176
     1
290
     0
176
     1
 93
       13
176
     1
 44
0.0
176
     1
173
     0
176
     1
  0
VISUALSTYLE
  5
37
102
{ACAD_REACTORS
330
2A
102
}
330
2A
100
AcDbVisualStyle
  2
Thicken
 70
    13
177
     2
291
     1
 71
     2
176
     1
 72
     2
176
     1
 73
     0
176
     1
 90
        0
176
     1
 40
-0.6
176
     1
 41
-30.0
176
     1
 62
     5
 63
     7
421
 16777215
176
     1
 74
     1
176
     1
 91
        4
176
     1
 64
     7
176
     1
 65
   257
176
     1
 75
     1
176
     1
175
     1
176
     1
 42
1.0
176
     1
 92
       12
176
     1
 66
     7
176
     1
 43
1.0
176
     1
 76
     1
176
     1
 77
     6
176
     1
 78
     2
176
     1
 67
     7
176
     1
 79
     5
176
     1
170
     0
176
     1
171
     0
176
     1
290
     0
176
     1
 93
        1
176
     1
 44
0.0
176
     1
173
     0
176
     1
  0
ENDSEC
  0
EOF
