  0
SECTION
  2
HEADER
  9
$ACADVER
  1
AC1024
  9
$ACADMAINTVER
 70
   226
  9
$DWGCODEPAGE
  3
ANSI_932
  9
$INSBASE
 10
0.0
 20
0.0
 30
0.0
  9
$EXTMIN
 10
1.000000000000000E+20
 20
1.000000000000000E+20
 30
1.000000000000000E+20
  9
$EXTMAX
 10
-1.000000000000000E+20
 20
-1.000000000000000E+20
 30
-1.000000000000000E+20
  9
$LIMMIN
 10
0.0
 20
0.0
  9
$LIMMAX
 10
12.0
 20
9.0
  9
$ORTHOMODE
 70
     0
  9
$REGENMODE
 70
     1
  9
$FILLMODE
 70
     1
  9
$QTEXTMODE
 70
     0
  9
$MIRRTEXT
 70
     0
  9
$LTSCALE
 40
1.0
  9
$ATTMODE
 70
     1
  9
$TEXTSIZE
 40
0.2
  9
$TRACEWID
 40
0.05
  9
$TEXTSTYLE
  7
Standard
  9
$CLAYER
  8
0
  9
$CELTYPE
  6
ByLayer
  9
$CECOLOR
 62
   256
  9
$CELTSCALE
 40
1.0
  9
$DISPSILH
 70
     0
  9
$DIMSCALE
 40
1.0
  9
$DIMASZ
 40
0.18
  9
$DIMEXO
 40
0.0625
  9
$DIMDLI
 40
0.38
  9
$DIMRND
 40
0.0
  9
$DIMDLE
 40
0.0
  9
$DIMEXE
 40
0.18
  9
$DIMTP
 40
0.0
  9
$DIMTM
 40
0.0
  9
$DIMTXT
 40
0.18
  9
$DIMCEN
 40
0.09
  9
$DIMTSZ
 40
0.0
  9
$DIMTOL
 70
     0
  9
$DIMLIM
 70
     0
  9
$DIMTIH
 70
     1
  9
$DIMTOH
 70
     1
  9
$DIMSE1
 70
     0
  9
$DIMSE2
 70
     0
  9
$DIMTAD
 70
     0
  9
$DIMZIN
 70
     0
  9
$DIMBLK
  1

  9
$DIMASO
 70
     1
  9
$DIMSHO
 70
     1
  9
$DIMPOST
  1

  9
$DIMAPOST
  1

  9
$DIMALT
 70
     0
  9
$DIMALTD
 70
     2
  9
$DIMALTF
 40
25.4
  9
$DIMLFAC
 40
1.0
  9
$DIMTOFL
 70
     0
  9
$DIMTVP
 40
0.0
  9
$DIMTIX
 70
     0
  9
$DIMSOXD
 70
     0
  9
$DIMSAH
 70
     0
  9
$DIMBLK1
  1

  9
$DIMBLK2
  1

  9
$DIMSTYLE
  2
Standard
  9
$DIMCLRD
 70
     0
  9
$DIMCLRE
 70
     0
  9
$DIMCLRT
 70
     0
  9
$DIMTFAC
 40
1.0
  9
$DIMGAP
 40
0.09
  9
$DIMJUST
 70
     0
  9
$DIMSD1
 70
     0
  9
$DIMSD2
 70
     0
  9
$DIMTOLJ
 70
     1
  9
$DIMTZIN
 70
     0
  9
$DIMALTZ
 70
     0
  9
$DIMALTTZ
 70
     0
  9
$DIMUPT
 70
     0
  9
$DIMDEC
 70
     4
  9
$DIMTDEC
 70
     4
  9
$DIMALTU
 70
     2
  9
$DIMALTTD
 70
     2
  9
$DIMTXSTY
  7
Standard
  9
$DIMAUNIT
 70
     0
  9
$DIMADEC
 70
     0
  9
$DIMALTRND
 40
0.0
  9
$DIMAZIN
 70
     0
  9
$DIMDSEP
 70
    46
  9
$DIMATFIT
 70
     3
  9
$DIMFRAC
 70
     0
  9
$DIMLDRBLK
  1

  9
$DIMLUNIT
 70
     2
  9
$DIMLWD
 70
    -2
  9
$DIMLWE
 70
    -2
  9
$DIMTMOVE
 70
     0
  9
$DIMFXL
 40
1.0
  9
$DIMFXLON
 70
     0
  9
$DIMJOGANG
 40
0.7853981633974483
  9
$DIMTFILL
 70
     0
  9
$DIMTFILLCLR
 70
     0
  9
$DIMARCSYM
 70
     0
  9
$DIMLTYPE
  6

  9
$DIMLTEX1
  6

  9
$DIMLTEX2
  6

  9
$DIMTXTDIRECTION
 70
     0
  9
$LUNITS
 70
     2
  9
$LUPREC
 70
     4
  9
$SKETCHINC
 40
0.1
  9
$FILLETRAD
 40
0.0
  9
$AUNITS
 70
     0
  9
$AUPREC
 70
     0
  9
$MENU
  1
.
  9
$ELEVATION
 40
0.0
  9
$PELEVATION
 40
0.0
  9
$THICKNESS
 40
0.0
  9
$LIMCHECK
 70
     0
  9
$CHAMFERA
 40
0.0
  9
$CHAMFERB
 40
0.0
  9
$CHAMFERC
 40
0.0
  9
$CHAMFERD
 40
0.0
  9
$SKPOLY
 70
     0
  9
$TDCREATE
 40
2459676.423576389
  9
$TDUCREATE
 40
2459676.048576389
  9
$TDUPDATE
 40
2459676.423576389
  9
$TDUUPDATE
 40
2459676.048576389
  9
$TDINDWG
 40
0.0000000000
  9
$TDUSRTIMER
 40
0.0000000000
  9
$USRTIMER
 70
     1
  9
$ANGBASE
 50
0.0
  9
$ANGDIR
 70
     0
  9
$PDMODE
 70
     0
  9
$PDSIZE
 40
0.0
  9
$PLINEWID
 40
0.0
  9
$SPLFRAME
 70
     0
  9
$SPLINETYPE
 70
     6
  9
$SPLINESEGS
 70
     8
  9
$HANDSEED
  5
145
  9
$SURFTAB1
 70
     6
  9
$SURFTAB2
 70
     6
  9
$SURFTYPE
 70
     6
  9
$SURFU
 70
     6
  9
$SURFV
 70
     6
  9
$UCSBASE
  2

  9
$UCSNAME
  2

  9
$UCSORG
 10
0.0
 20
0.0
 30
0.0
  9
$UCSXDIR
 10
1.0
 20
0.0
 30
0.0
  9
$UCSYDIR
 10
0.0
 20
1.0
 30
0.0
  9
$UCSORTHOREF
  2

  9
$UCSORTHOVIEW
 70
     0
  9
$UCSORGTOP
 10
0.0
 20
0.0
 30
0.0
  9
$UCSORGBOTTOM
 10
0.0
 20
0.0
 30
0.0
  9
$UCSORGLEFT
 10
0.0
 20
0.0
 30
0.0
  9
$UCSORGRIGHT
 10
0.0
 20
0.0
 30
0.0
  9
$UCSORGFRONT
 10
0.0
 20
0.0
 30
0.0
  9
$UCSORGBACK
 10
0.0
 20
0.0
 30
0.0
  9
$PUCSBASE
  2

  9
$PUCSNAME
  2

  9
$PUCSORG
 10
0.0
 20
0.0
 30
0.0
  9
$PUCSXDIR
 10
1.0
 20
0.0
 30
0.0
  9
$PUCSYDIR
 10
0.0
 20
1.0
 30
0.0
  9
$PUCSORTHOREF
  2

  9
$PUCSORTHOVIEW
 70
     0
  9
$PUCSORGTOP
 10
0.0
 20
0.0
 30
0.0
  9
$PUCSORGBOTTOM
 10
0.0
 20
0.0
 30
0.0
  9
$PUCSORGLEFT
 10
0.0
 20
0.0
 30
0.0
  9
$PUCSORGRIGHT
 10
0.0
 20
0.0
 30
0.0
  9
$PUCSORGFRONT
 10
0.0
 20
0.0
 30
0.0
  9
$PUCSORGBACK
 10
0.0
 20
0.0
 30
0.0
  9
$USERI1
 70
     0
  9
$USERI2
 70
     0
  9
$USERI3
 70
     0
  9
$USERI4
 70
     0
  9
$USERI5
 70
     0
  9
$USERR1
 40
0.0
  9
$USERR2
 40
0.0
  9
$USERR3
 40
0.0
  9
$USERR4
 40
0.0
  9
$USERR5
 40
0.0
  9
$WORLDVIEW
 70
     1
  9
$SHADEDGE
 70
     3
  9
$SHADEDIF
 70
    70
  9
$TILEMODE
 70
     1
  9
$MAXACTVP
 70
    64
  9
$PINSBASE
 10
0.0
 20
0.0
 30
0.0
  9
$PLIMCHECK
 70
     0
  9
$PEXTMIN
 10
1.000000000000000E+20
 20
1.000000000000000E+20
 30
1.000000000000000E+20
  9
$PEXTMAX
 10
-1.000000000000000E+20
 20
-1.000000000000000E+20
 30
-1.000000000000000E+20
  9
$PLIMMIN
 10
0.0
 20
0.0
  9
$PLIMMAX
 10
12.0
 20
9.0
  9
$UNITMODE
 70
     0
  9
$VISRETAIN
 70
     1
  9
$PLINEGEN
 70
     0
  9
$PSLTSCALE
 70
     1
  9
$TREEDEPTH
 70
  3020
  9
$CMLSTYLE
  2
Standard
  9
$CMLJUST
 70
     0
  9
$CMLSCALE
 40
1.0
  9
$PROXYGRAPHICS
 70
     1
  9
$MEASUREMENT
 70
     0
  9
$CELWEIGHT
370
    -1
  9
$ENDCAPS
280
     0
  9
$JOINSTYLE
280
     0
  9
$LWDISPLAY
290
     1
  9
$INSUNITS
 70
     4
  9
$HYPERLINKBASE
  1

  9
$STYLESHEET
  1

  9
$XEDIT
290
     1
  9
$CEPSNTYPE
380
     0
  9
$PSTYLEMODE
290
     1
  9
$FINGERPRINTGUID
  2
{1FE133AE-2F9A-6E40-872D-5FA3C9F0214B}
  9
$VERSIONGUID
  2
{7D8EADBE-F6C4-EE40-9DFC-E2673E76A70B}
  9
$EXTNAMES
290
     1
  9
$PSVPSCALE
 40
0.0
  9
$OLESTARTUP
290
     0
  9
$SORTENTS
280
   127
  9
$INDEXCTL
280
     0
  9
$HIDETEXT
280
     1
  9
$XCLIPFRAME
280
     2
  9
$HALOGAP
280
     0
  9
$OBSCOLOR
 70
   257
  9
$OBSLTYPE
280
     0
  9
$INTERSECTIONDISPLAY
280
     0
  9
$INTERSECTIONCOLOR
 70
   257
  9
$DIMASSOC
280
     2
  9
$PROJECTNAME
  1

  9
$CAMERADISPLAY
290
     0
  9
$LENSLENGTH
 40
50.0
  9
$CAMERAHEIGHT
 40
0.0
  9
$STEPSPERSEC
 40
2.0
  9
$STEPSIZE
 40
6.0
  9
$3DDWFPREC
 40
2.0
  9
$PSOLWIDTH
 40
0.25
  9
$PSOLHEIGHT
 40
4.0
  9
$LOFTANG1
 40
1.570796326794896
  9
$LOFTANG2
 40
1.570796326794896
  9
$LOFTMAG1
 40
0.0
  9
$LOFTMAG2
 40
0.0
  9
$LOFTPARAM
 70
     7
  9
$LOFTNORMALS
280
     1
  9
$LATITUDE
 40
37.795
  9
$LONGITUDE
 40
-122.394
  9
$NORTHDIRECTION
 40
0.0
  9
$TIMEZONE
 70
 -8000
  9
$LIGHTGLYPHDISPLAY
280
     1
  9
$TILEMODELIGHTSYNCH
280
     1
  9
$CMATERIAL
347
11
  9
$SOLIDHIST
280
     0
  9
$SHOWHIST
280
     1
  9
$DWFFRAME
280
     2
  9
$DGNFRAME
280
     0
  9
$REALWORLDSCALE
290
     1
  9
$INTERFERECOLOR
 62
     1
  9
$INTERFEREOBJVS
345
33
  9
$INTERFEREVPVS
346
30
  9
$CSHADOW
280
     0
  9
$SHADOWPLANELOCATION
 40
0.0
  0
ENDSEC
  0
SECTION
  2
CLASSES
  0
CLASS
  1
ACDBDICTIONARYWDFLT
  2
AcDbDictionaryWithDefault
  3
ObjectDBX Classes
 90
        0
 91
        1
280
     0
281
     0
  0
CLASS
  1
MATERIAL
  2
AcDbMaterial
  3
ObjectDBX Classes
 90
     1153
 91
        3
280
     0
281
     0
  0
CLASS
  1
VISUALSTYLE
  2
AcDbVisualStyle
  3
ObjectDBX Classes
 90
     4095
 91
       24
280
     0
281
     0
  0
CLASS
  1
SCALE
  2
AcDbScale
  3
ObjectDBX Classes
 90
     1153
 91
       17
280
     0
281
     0
  0
CLASS
  1
TABLESTYLE
  2
AcDbTableStyle
  3
ObjectDBX Classes
 90
     4095
 91
        1
280
     0
281
     0
  0
CLASS
  1
MLEADERSTYLE
  2
AcDbMLeaderStyle
  3
ACDB_MLEADERSTYLE_CLASS
 90
     4095
 91
        1
280
     0
281
     0
  0
CLASS
  1
ACDBSECTIONVIEWSTYLE
  2
AcDbSectionViewStyle
  3
ObjectDBX Classes
 90
     1025
 91
        1
280
     0
281
     0
  0
CLASS
  1
ACDBDETAILVIEWSTYLE
  2
AcDbDetailViewStyle
  3
ObjectDBX Classes
 90
     1025
 91
        1
280
     0
281
     0
  0
CLASS
  1
DICTIONARYVAR
  2
AcDbDictionaryVar
  3
ObjectDBX Classes
 90
        0
 91
        5
280
     0
281
     0
  0
CLASS
  1
CELLSTYLEMAP
  2
AcDbCellStyleMap
  3
ObjectDBX Classes
 90
     1152
 91
        1
280
     0
281
     0
  0
ENDSEC
  0
SECTION
  2
TABLES
  0
TABLE
  2
VPORT
  5
8
330
0
100
AcDbSymbolTable
 70
     1
  0
VPORT
  5
57
330
8
100
AcDbSymbolTableRecord
100
AcDbViewportTableRecord
  2
*Active
 70
     0
 10
0.0
 20
0.0
 11
1.0
 21
1.0
 12
0.0
 22
0.0
 13
0.0
 23
0.0
 14
1.0
 24
1.0
 15
0.0
 25
0.0
 16
0.0
 26
0.0
 36
1.0
 17
104.9999999737534
 27
-148.4999999628701
 37
0.0
 40
302.939999924255
 41
0.7070707070707534
 42
50.0
 43
0.0
 44
0.0
 50
0.0
 51
0.0
 71
     0
 72
   100
 73
     1
 74
     0
 75
     1
 76
     0
 77
     0
 78
     0
281
     0
 65
     1
110
0.0
120
0.0
130
0.0
111
1.0
121
0.0
131
0.0
112
0.0
122
1.0
132
0.0
 79
     0
146
0.0
 60
     3
 61
     5
292
     1
282
     1
141
0.0
142
0.0
 63
   250
421
  3355443
  0
ENDTAB
  0
TABLE
  2
LTYPE
  5
5
330
0
100
AcDbSymbolTable
 70
     2
  0
LTYPE
  5
5B
330
5
100
AcDbSymbolTableRecord
100
AcDbLinetypeTableRecord
  2
ByBlock
 70
     0
  3

 72
    65
 73
     0
 40
0.0
  0
LTYPE
  5
5C
330
5
100
AcDbSymbolTableRecord
100
AcDbLinetypeTableRecord
  2
ByLayer
 70
     0
  3

 72
    65
 73
     0
 40
0.0
  0
LTYPE
  5
5D
330
5
100
AcDbSymbolTableRecord
100
AcDbLinetypeTableRecord
  2
Continuous
 70
     0
  3
Solid line
 72
    65
 73
     0
 40
0.0
  0
LTYPE
  5
E3
330
5
100
AcDbSymbolTableRecord
100
AcDbLinetypeTableRecord
  2
AI-Linetype-0
 70
     0
  3
Adobe Illustrator Linetype No. 0
 72
    65
 73
     2
 40
1.411111110758333
 49
0.7055555553791667
 74
     0
 49
-0.7055555553791667
 74
     0
  0
ENDTAB
  0
TABLE
  2
LAYER
  5
2
330
0
100
AcDbSymbolTable
 70
     2
  0
LAYER
  5
54
330
2
100
AcDbSymbolTableRecord
100
AcDbLayerTableRecord
  2
0
 70
     0
 62
     7
  6
Continuous
370
    -3
390
F
347
21
  0
LAYER
  5
78
330
2
100
AcDbSymbolTableRecord
100
AcDbLayerTableRecord
  2
レイヤー 1
 70
     0
 62
     7
  6
Continuous
370
     0
390
F
347
21
  0
ENDTAB
  0
TABLE
  2
STYLE
  5
3
330
0
100
AcDbSymbolTable
 70
     2
  0
STYLE
  5
55
330
3
100
AcDbSymbolTableRecord
100
AcDbTextStyleTableRecord
  2
Standard
 70
     0
 40
0.0
 41
1.0
 50
0.0
 71
     0
 42
0.2
  3
txt
  4

  0
STYLE
  5
5A
330
3
100
AcDbSymbolTableRecord
100
AcDbTextStyleTableRecord
  2
Annotative
 70
     0
 40
0.0
 41
1.0
 50
0.0
 71
     0
 42
0.2
  3
txt
  4

1001
AcadAnnotative
1000
AnnotativeData
1002
{
1070
     1
1070
     1
1002
}
  0
ENDTAB
  0
TABLE
  2
VIEW
  5
6
330
0
100
AcDbSymbolTable
 70
     0
  0
ENDTAB
  0
TABLE
  2
UCS
  5
7
330
0
100
AcDbSymbolTable
 70
     0
  0
ENDTAB
  0
TABLE
  2
APPID
  5
9
330
0
100
AcDbSymbolTable
 70
     2
  0
APPID
  5
56
330
9
100
AcDbSymbolTableRecord
100
AcDbRegAppTableRecord
  2
ACAD
 70
     0
  0
APPID
  5
5E
330
9
100
AcDbSymbolTableRecord
100
AcDbRegAppTableRecord
  2
AcadAnnotative
 70
     0
  0
ENDTAB
  0
TABLE
  2
DIMSTYLE
  5
A
330
0
100
AcDbSymbolTable
 70
     2
100
AcDbDimStyleTable
 71
     0
  0
DIMSTYLE
105
58
330
A
100
AcDbSymbolTableRecord
100
AcDbDimStyleTableRecord
  2
Standard
 70
     0
340
55
  0
DIMSTYLE
105
59
330
A
100
AcDbSymbolTableRecord
100
AcDbDimStyleTableRecord
  2
Annotative
 70
     0
340
55
1001
AcadAnnotative
1000
AnnotativeData
1002
{
1070
     1
1070
     1
1002
}
  0
ENDTAB
  0
TABLE
  2
BLOCK_RECORD
  5
1
330
0
100
AcDbSymbolTable
 70
    15
  0
BLOCK_RECORD
  5
70
330
1
100
AcDbSymbolTableRecord
100
AcDbBlockTableRecord
  2
*Model_Space
340
73
 70
     0
280
     1
281
     0
  0
BLOCK_RECORD
  5
6C
330
1
100
AcDbSymbolTableRecord
100
AcDbBlockTableRecord
  2
*Paper_Space
340
6F
 70
     0
280
     1
281
     0
  0
BLOCK_RECORD
  5
74
330
1
100
AcDbSymbolTableRecord
100
AcDbBlockTableRecord
  2
*Paper_Space0
340
77
 70
     0
280
     1
281
     0
  0
BLOCK_RECORD
  5
79
330
1
100
AcDbSymbolTableRecord
100
AcDbBlockTableRecord
  2
Block_0
340
0
102
{BLKREFS
331
7A
102
}
 70
     0
280
     1
281
     0
  0
BLOCK_RECORD
  5
7D
330
1
100
AcDbSymbolTableRecord
100
AcDbBlockTableRecord
  2
Block_1
340
0
102
{BLKREFS
331
7E
102
}
 70
     0
280
     1
281
     0
  0
BLOCK_RECORD
  5
94
330
1
100
AcDbSymbolTableRecord
100
AcDbBlockTableRecord
  2
Block_2
340
0
102
{BLKREFS
331
95
102
}
 70
     0
280
     1
281
     0
  0
BLOCK_RECORD
  5
9D
330
1
100
AcDbSymbolTableRecord
100
AcDbBlockTableRecord
  2
Block_3
340
0
102
{BLKREFS
331
9E
102
}
 70
     0
280
     1
281
     0
  0
BLOCK_RECORD
  5
A1
330
1
100
AcDbSymbolTableRecord
100
AcDbBlockTableRecord
  2
Block_4
340
0
102
{BLKREFS
331
A2
102
}
 70
     0
280
     1
281
     0
  0
BLOCK_RECORD
  5
AB
330
1
100
AcDbSymbolTableRecord
100
AcDbBlockTableRecord
  2
Block_5
340
0
102
{BLKREFS
331
AC
102
}
 70
     0
280
     1
281
     0
  0
BLOCK_RECORD
  5
AF
330
1
100
AcDbSymbolTableRecord
100
AcDbBlockTableRecord
  2
Block_6
340
0
102
{BLKREFS
331
B0
102
}
 70
     0
280
     1
281
     0
  0
BLOCK_RECORD
  5
BF
330
1
100
AcDbSymbolTableRecord
100
AcDbBlockTableRecord
  2
Block_7
340
0
102
{BLKREFS
331
C0
102
}
 70
     0
280
     1
281
     0
  0
BLOCK_RECORD
  5
C3
330
1
100
AcDbSymbolTableRecord
100
AcDbBlockTableRecord
  2
Block_8
340
0
102
{BLKREFS
331
C4
102
}
 70
     0
280
     1
281
     0
  0
BLOCK_RECORD
  5
D3
330
1
100
AcDbSymbolTableRecord
100
AcDbBlockTableRecord
  2
Block_9
340
0
102
{BLKREFS
331
D4
102
}
 70
     0
280
     1
281
     0
  0
BLOCK_RECORD
  5
D7
330
1
100
AcDbSymbolTableRecord
100
AcDbBlockTableRecord
  2
Block_10
340
0
102
{BLKREFS
331
D8
102
}
 70
     0
280
     1
281
     0
  0
BLOCK_RECORD
  5
E4
330
1
100
AcDbSymbolTableRecord
100
AcDbBlockTableRecord
  2
Block_11
340
0
102
{BLKREFS
331
E5
102
}
 70
     0
280
     1
281
     0
  0
BLOCK_RECORD
  5
EB
330
1
100
AcDbSymbolTableRecord
100
AcDbBlockTableRecord
  2
Block_12
340
0
102
{BLKREFS
331
EC
102
}
 70
     0
280
     1
281
     0
  0
BLOCK_RECORD
  5
EF
330
1
100
AcDbSymbolTableRecord
100
AcDbBlockTableRecord
  2
Block_13
340
0
102
{BLKREFS
331
F0
102
}
 70
     0
280
     1
281
     0
  0
ENDTAB
  0
ENDSEC
  0
SECTION
  2
BLOCKS
  0
BLOCK
  5
71
330
70
100
AcDbEntity
  8
0
100
AcDbBlockBegin
  2
*Model_Space
 70
     0
 10
0.0
 20
0.0
 30
0.0
  3
*Model_Space
  1

  0
ENDBLK
  5
72
330
70
100
AcDbEntity
  8
0
100
AcDbBlockEnd
  0
BLOCK
  5
6D
330
6C
100
AcDbEntity
 67
     1
  8
0
100
AcDbBlockBegin
  2
*Paper_Space
 70
     0
 10
0.0
 20
0.0
 30
0.0
  3
*Paper_Space
  1

  0
ENDBLK
  5
6E
330
6C
100
AcDbEntity
 67
     1
  8
0
100
AcDbBlockEnd
  0
BLOCK
  5
75
330
74
100
AcDbEntity
 67
     1
  8
0
100
AcDbBlockBegin
  2
*Paper_Space0
 70
     0
 10
0.0
 20
0.0
 30
0.0
  3
*Paper_Space0
  1

  0
ENDBLK
  5
76
330
74
100
AcDbEntity
 67
     1
  8
0
100
AcDbBlockEnd
  0
BLOCK
  5
7B
330
79
100
AcDbEntity
  8
0
100
AcDbBlockBegin
  2
Block_0
 70
     0
 10
0.0
 20
0.0
 30
0.0
  3
Block_0
  1

  0
INSERT
  5
7E
330
79
100
AcDbEntity
  8
レイヤー 1
100
AcDbBlockReference
  2
Block_1
 10
0.0
 20
0.0
 30
0.0
  0
ENDBLK
  5
7C
330
79
100
AcDbEntity
  8
0
100
AcDbBlockEnd
  0
BLOCK
  5
7F
330
7D
100
AcDbEntity
  8
0
100
AcDbBlockBegin
  2
Block_1
 70
     0
 10
0.0
 20
0.0
 30
0.0
  3
Block_1
  1

  0
LINE
  5
81
330
7D
100
AcDbEntity
  8
レイヤー 1
 62
   250
420
  2299925
370
    25
100
AcDbLine
 10
91.7177402680503
 20
-141.5274070475201
 30
0.0
 11
98.71774776630029
 21
-141.5274070475201
 31
0.0
  0
LINE
  5
82
330
7D
100
AcDbEntity
  8
レイヤー 1
 62
   250
420
  2299925
370
    25
100
AcDbLine
 10
97.71775150283131
 20
-142.5271795091454
 30
0.0
 11
97.71775150283131
 21
-155.027236296364
 31
0.0
  0
LINE
  5
83
330
7D
100
AcDbEntity
  8
レイヤー 1
 62
   250
420
  2299925
370
    25
100
AcDbLine
 10
91.7177402680503
 20
-142.5271792442363
 30
0.0
 11
97.7177513776615
 21
-142.5271792442363
 31
0.0
  0
LINE
  5
84
330
7D
100
AcDbEntity
  8
レイヤー 1
 62
   250
420
  2299925
370
    25
100
AcDbLine
 10
91.7177402680503
 20
-141.5274070475201
 30
0.0
 11
91.7177402680503
 21
-142.5271792442363
 31
0.0
  0
LINE
  5
85
330
7D
100
AcDbEntity
  8
レイヤー 1
 62
   250
420
  2299925
370
    25
100
AcDbLine
 10
98.7177478865855
 20
-141.5274073124295
 30
0.0
 11
98.7177478865855
 21
-154.0275574355062
 31
0.0
  0
LINE
  5
86
330
7D
100
AcDbEntity
  8
レイヤー 1
 62
   250
420
  2299925
370
    25
100
AcDbLine
 10
114.7177235721243
 20
-154.0275574355062
 30
0.0
 11
114.7177235721243
 21
-154.4275368697463
 31
0.0
  0
LINE
  5
87
330
7D
100
AcDbEntity
  8
レイヤー 1
 62
   250
420
  2299925
370
    25
100
AcDbLine
 10
98.71774789146947
 20
-154.0275574355062
 30
0.0
 11
114.7177235721243
 21
-154.0275574355062
 31
0.0
  0
LINE
  5
88
330
7D
100
AcDbEntity
  8
レイヤー 1
 62
   250
420
  2299925
370
    25
100
AcDbLine
 10
114.7177235721243
 20
-154.4275368697463
 30
0.0
 11
97.71775150283131
 21
-155.027236296364
 31
0.0
  0
SPLINE
  5
89
330
7D
100
AcDbEntity
  8
レイヤー 1
 62
   250
420
  2299925
370
     9
100
AcDbSpline
210
0.0
220
0.0
230
1.0
 70
    11
 71
     3
 72
    17
 73
    13
 74
     0
 42
0.0000000001
 43
0.0000000001
 40
0.0
 40
0.0
 40
0.0
 40
0.0
 40
1.0
 40
1.0
 40
1.0
 40
2.0
 40
2.0
 40
2.0
 40
3.0
 40
3.0
 40
3.0
 40
4.0
 40
4.0
 40
4.0
 40
4.0
 10
118.8180959420003
 20
-141.5274070475201
 30
0.0
 10
118.8180959420003
 20
-141.4721267711526
 30
0.0
 10
118.7732931642336
 20
-141.4273239945179
 30
0.0
 10
118.7174826367486
 20
-141.4273239945179
 30
0.0
 10
118.6623787492662
 20
-141.4273239945179
 30
0.0
 10
118.6175759726308
 20
-141.4721267711526
 30
0.0
 10
118.6175759726308
 20
-141.5274070475201
 30
0.0
 10
118.6175759726308
 20
-141.5826873238876
 30
0.0
 10
118.6623787492662
 20
-141.6274901005226
 30
0.0
 10
118.7174826367486
 20
-141.6274901005226
 30
0.0
 10
118.7732931642336
 20
-141.6274901005226
 30
0.0
 10
118.8180959420003
 20
-141.5826873238876
 30
0.0
 10
118.8180959420003
 20
-141.5274070475201
 30
0.0
  0
SPLINE
  5
8A
330
7D
100
AcDbEntity
  8
レイヤー 1
 62
   250
420
  2299925
370
     9
100
AcDbSpline
210
0.0
220
0.0
230
1.0
 70
     9
 71
     3
 72
    17
 73
    13
 74
     0
 42
0.0000000001
 43
0.0000000001
 40
0.0
 40
0.0
 40
0.0
 40
0.0
 40
1.0
 40
1.0
 40
1.0
 40
2.0
 40
2.0
 40
2.0
 40
3.0
 40
3.0
 40
3.0
 40
4.0
 40
4.0
 40
4.0
 40
4.0
 10
118.8180959420003
 20
-154.0275574355062
 30
0.0
 10
118.8180959420003
 20
-153.9721007702543
 30
0.0
 10
118.7732931642336
 20
-153.9272979936195
 30
0.0
 10
118.7174826367486
 20
-153.9272979936195
 30
0.0
 10
118.6623787492662
 20
-153.9272979936195
 30
0.0
 10
118.6175759726308
 20
-153.9721007702543
 30
0.0
 10
118.6175759726308
 20
-154.0275574355062
 30
0.0
 10
118.6175759726308
 20
-154.0826613229892
 30
0.0
 10
118.6623787492662
 20
-154.127464099624
 30
0.0
 10
118.7174826367486
 20
-154.127464099624
 30
0.0
 10
118.7732931642336
 20
-154.127464099624
 30
0.0
 10
118.8180959420003
 20
-154.0826613229892
 30
0.0
 10
118.8180959420003
 20
-154.0275574355062
 30
0.0
  0
SPLINE
  5
8B
330
7D
100
AcDbEntity
  8
レイヤー 1
 62
   250
420
  2299925
370
     9
100
AcDbSpline
210
0.0
220
0.0
230
1.0
 70
     9
 71
     3
 72
    17
 73
    13
 74
     0
 42
0.0000000001
 43
0.0000000001
 40
0.0
 40
0.0
 40
0.0
 40
0.0
 40
1.0
 40
1.0
 40
1.0
 40
2.0
 40
2.0
 40
2.0
 40
3.0
 40
3.0
 40
3.0
 40
4.0
 40
4.0
 40
4.0
 40
4.0
 10
118.8180959420003
 20
-154.4275368697463
 30
0.0
 10
118.8180959420003
 20
-154.3720802044944
 30
0.0
 10
118.7732931642336
 20
-154.3272774278596
 30
0.0
 10
118.7174826367486
 20
-154.3272774278596
 30
0.0
 10
118.6623787492662
 20
-154.3272774278596
 30
0.0
 10
118.6175759726308
 20
-154.3720802044944
 30
0.0
 10
118.6175759726308
 20
-154.4275368697463
 30
0.0
 10
118.6175759726308
 20
-154.4826407572293
 30
0.0
 10
118.6623787492662
 20
-154.5274435338641
 30
0.0
 10
118.7174826367486
 20
-154.5274435338641
 30
0.0
 10
118.7732931642336
 20
-154.5274435338641
 30
0.0
 10
118.8180959420003
 20
-154.4826407572293
 30
0.0
 10
118.8180959420003
 20
-154.4275368697463
 30
0.0
  0
CIRCLE
  5
8C
330
7D
100
AcDbEntity
  8
レイヤー 1
 62
   250
420
  2299925
370
     9
100
AcDbCircle
 10
114.7177235721245
 20
-159.1271717498486
 30
0.0
 40
0.0999066641175947
  0
SPLINE
  5
8D
330
7D
100
AcDbEntity
  8
レイヤー 1
 62
   250
420
  2299925
370
     9
100
AcDbSpline
210
0.0
220
0.0
230
1.0
 70
     9
 71
     3
 72
    17
 73
    13
 74
     0
 42
0.0000000001
 43
0.0000000001
 40
0.0
 40
0.0
 40
0.0
 40
0.0
 40
1.0
 40
1.0
 40
1.0
 40
2.0
 40
2.0
 40
2.0
 40
3.0
 40
3.0
 40
3.0
 40
4.0
 40
4.0
 40
4.0
 40
4.0
 10
91.8178233235805
 20
-159.1271717498486
 30
0.0
 10
91.8178233235805
 20
-159.0720265939187
 30
0.0
 10
91.77302054581378
 20
-159.0272650857308
 30
0.0
 10
91.7177402680503
 20
-159.0272650857308
 30
0.0
 10
91.66245999028618
 20
-159.0272650857308
 30
0.0
 10
91.61783360140836
 20
-159.0720265939187
 30
0.0
 10
91.61783360140836
 20
-159.1271717498486
 30
0.0
 10
91.61783360140836
 20
-159.1822756373317
 30
0.0
 10
91.66245999028618
 20
-159.2270784139664
 30
0.0
 10
91.7177402680503
 20
-159.2270784139664
 30
0.0
 10
91.77302054581378
 20
-159.2270784139664
 30
0.0
 10
91.8178233235805
 20
-159.1822756373317
 30
0.0
 10
91.8178233235805
 20
-159.1271717498486
 30
0.0
  0
SPLINE
  5
8E
330
7D
100
AcDbEntity
  8
レイヤー 1
 62
   250
420
  2299925
370
     9
100
AcDbSpline
210
0.0
220
0.0
230
1.0
 70
    11
 71
     3
 72
    17
 73
    13
 74
     0
 42
0.0000000001
 43
0.0000000001
 40
0.0
 40
0.0
 40
0.0
 40
0.0
 40
1.0
 40
1.0
 40
1.0
 40
2.0
 40
2.0
 40
2.0
 40
3.0
 40
3.0
 40
3.0
 40
4.0
 40
4.0
 40
4.0
 40
4.0
 10
89.76797276853748
 20
-141.5274070475201
 30
0.0
 10
89.76797276853748
 20
-141.4721267711526
 30
0.0
 10
89.7232052685486
 20
-141.4273239945179
 30
0.0
 10
89.66806610189584
 20
-141.4273239945179
 30
0.0
 10
89.61278582413108
 20
-141.4273239945179
 30
0.0
 10
89.56801832414283
 20
-141.4721267711526
 30
0.0
 10
89.56801832414283
 20
-141.5274070475201
 30
0.0
 10
89.56801832414283
 20
-141.5826873238876
 30
0.0
 10
89.61278582413108
 20
-141.6274901005226
 30
0.0
 10
89.66806610189584
 20
-141.6274901005226
 30
0.0
 10
89.7232052685486
 20
-141.6274901005226
 30
0.0
 10
89.76797276853748
 20
-141.5826873238876
 30
0.0
 10
89.76797276853748
 20
-141.5274070475201
 30
0.0
  0
SPLINE
  5
8F
330
7D
100
AcDbEntity
  8
レイヤー 1
 62
   250
420
  2299925
370
     9
100
AcDbSpline
210
0.0
220
0.0
230
1.0
 70
     9
 71
     3
 72
    17
 73
    13
 74
     0
 42
0.0000000001
 43
0.0000000001
 40
0.0
 40
0.0
 40
0.0
 40
0.0
 40
1.0
 40
1.0
 40
1.0
 40
2.0
 40
2.0
 40
2.0
 40
3.0
 40
3.0
 40
3.0
 40
4.0
 40
4.0
 40
4.0
 40
4.0
 10
89.76797276853748
 20
-142.5271792442363
 30
0.0
 10
89.76797276853748
 20
-142.4720400789761
 30
0.0
 10
89.7232052685486
 20
-142.4272725801182
 30
0.0
 10
89.66806610189584
 20
-142.4272725801182
 30
0.0
 10
89.61278582413108
 20
-142.4272725801182
 30
0.0
 10
89.56801832414283
 20
-142.4720400789761
 30
0.0
 10
89.56801832414283
 20
-142.5271792442363
 30
0.0
 10
89.56801832414283
 20
-142.5826359094879
 30
0.0
 10
89.61278582413108
 20
-142.6274386861226
 30
0.0
 10
89.66806610189584
 20
-142.6274386861226
 30
0.0
 10
89.7232052685486
 20
-142.6274386861226
 30
0.0
 10
89.76797276853748
 20
-142.5826359094879
 30
0.0
 10
89.76797276853748
 20
-142.5271792442363
 30
0.0
  0
SPLINE
  5
90
330
7D
100
AcDbEntity
  8
レイヤー 1
 62
   250
420
  2299925
370
     9
100
AcDbSpline
210
0.0
220
0.0
230
1.0
 70
     9
 71
     3
 72
    17
 73
    13
 74
     0
 42
0.0000000001
 43
0.0000000001
 40
0.0
 40
0.0
 40
0.0
 40
0.0
 40
1.0
 40
1.0
 40
1.0
 40
2.0
 40
2.0
 40
2.0
 40
3.0
 40
3.0
 40
3.0
 40
4.0
 40
4.0
 40
4.0
 40
4.0
 10
97.81779928058368
 20
-159.1271717498486
 30
0.0
 10
97.81779928058368
 20
-159.0720265939187
 30
0.0
 10
97.77303178059511
 20
-159.0272650857308
 30
0.0
 10
97.71775150283131
 20
-159.0272650857308
 30
0.0
 10
97.66261233617791
 20
-159.0272650857308
 30
0.0
 10
97.61784483618935
 20
-159.0720265939187
 30
0.0
 10
97.61784483618935
 20
-159.1271717498486
 30
0.0
 10
97.61784483618935
 20
-159.1822756373317
 30
0.0
 10
97.66261233617791
 20
-159.2270784139664
 30
0.0
 10
97.71775150283131
 20
-159.2270784139664
 30
0.0
 10
97.77303178059511
 20
-159.2270784139664
 30
0.0
 10
97.81779928058368
 20
-159.1822756373317
 30
0.0
 10
97.81779928058368
 20
-159.1271717498486
 30
0.0
  0
LINE
  5
91
330
7D
100
AcDbEntity
  8
レイヤー 1
 62
   250
420
  2299925
370
     9
100
AcDbLine
 10
91.71791665693886
 20
-159.1271717498486
 30
0.0
 11
97.7177513776615
 21
-159.1271717498486
 31
0.0
  0
LINE
  5
92
330
7D
100
AcDbEntity
  8
レイヤー 1
 62
   250
420
  2299925
370
     9
100
AcDbLine
 10
91.7177402680503
 20
-145.1673330529006
 30
0.0
 11
91.7177402680503
 21
-160.1276142243252
 31
0.0
  0
LINE
  5
93
330
7D
100
AcDbEntity
  8
レイヤー 1
 62
   250
420
  2299925
370
     9
100
AcDbLine
 10
97.71775150283131
 20
-157.6671303982085
 30
0.0
 11
97.71775150283131
 21
-160.1276142243252
 31
0.0
  0
INSERT
  5
95
330
7D
100
AcDbEntity
  8
レイヤー 1
100
AcDbBlockReference
  2
Block_2
 10
0.0
 20
0.0
 30
0.0
  0
LINE
  5
9B
330
7D
100
AcDbEntity
  8
レイヤー 1
 62
   250
420
  2299925
370
     9
100
AcDbLine
 10
97.71775150283131
 20
-159.1271717498486
 30
0.0
 11
114.7177235721243
 21
-159.1271717498486
 31
0.0
  0
LINE
  5
9C
330
7D
100
AcDbEntity
  8
レイヤー 1
 62
   250
420
  2299925
370
     9
100
AcDbLine
 10
114.7177235721243
 20
-156.967078193846
 30
0.0
 11
114.7177235721243
 21
-160.1276142243252
 31
0.0
  0
INSERT
  5
9E
330
7D
100
AcDbEntity
  8
レイヤー 1
100
AcDbBlockReference
  2
Block_3
 10
0.0
 20
0.0
 30
0.0
  0
LINE
  5
A9
330
7D
100
AcDbEntity
  8
レイヤー 1
 62
   250
420
  2299925
370
     9
100
AcDbLine
 10
118.7174826367486
 20
-154.0275574355062
 30
0.0
 11
118.7174826367486
 21
-141.5274073124295
 31
0.0
  0
LINE
  5
AA
330
7D
100
AcDbEntity
  8
レイヤー 1
 62
   250
420
  2299925
370
     9
100
AcDbLine
 10
101.3578184463653
 20
-141.5274070475201
 30
0.0
 11
119.7179251112252
 21
-141.5274070475201
 31
0.0
  0
INSERT
  5
AC
330
7D
100
AcDbEntity
  8
レイヤー 1
100
AcDbBlockReference
  2
Block_5
 10
0.0
 20
0.0
 30
0.0
  0
LINE
  5
BB
330
7D
100
AcDbEntity
  8
レイヤー 1
 62
   250
420
  2299925
370
     9
100
AcDbLine
 10
118.7174826367486
 20
-154.4275368697463
 30
0.0
 11
118.7174826367486
 21
-155.4273090664622
 31
0.0
  0
LINE
  5
BC
330
7D
100
AcDbEntity
  8
レイヤー 1
 62
   250
420
  2299925
370
     9
100
AcDbLine
 10
118.7174826367486
 20
-154.0275574355062
 30
0.0
 11
118.7174826367486
 21
-154.4275368697463
 31
0.0
  0
LINE
  5
BD
330
7D
100
AcDbEntity
  8
レイヤー 1
 62
   250
420
  2299925
370
     9
100
AcDbLine
 10
117.2574412851085
 20
-154.0275574355062
 30
0.0
 11
119.7179251112252
 21
-154.0275574355062
 31
0.0
  0
LINE
  5
BE
330
7D
100
AcDbEntity
  8
レイヤー 1
 62
   250
420
  2299925
370
     9
100
AcDbLine
 10
117.2574412851085
 20
-154.4275368697463
 30
0.0
 11
119.7179251112252
 21
-154.4275368697463
 31
0.0
  0
INSERT
  5
C0
330
7D
100
AcDbEntity
  8
レイヤー 1
100
AcDbBlockReference
  2
Block_7
 10
0.0
 20
0.0
 30
0.0
  0
LINE
  5
CF
330
7D
100
AcDbEntity
  8
レイヤー 1
 62
   250
420
  2299925
370
     9
100
AcDbLine
 10
89.66806610189584
 20
-141.5274070475201
 30
0.0
 11
89.66806610189584
 21
-140.5274584619198
 31
0.0
  0
LINE
  5
D0
330
7D
100
AcDbEntity
  8
レイヤー 1
 62
   250
420
  2299925
370
     9
100
AcDbLine
 10
89.66806610189584
 20
-141.5274070475201
 30
0.0
 11
89.66806610189584
 21
-143.5272689409438
 31
0.0
  0
LINE
  5
D1
330
7D
100
AcDbEntity
  8
レイヤー 1
 62
   250
420
  2299925
370
     9
100
AcDbLine
 10
91.12793110153067
 20
-141.5274070475201
 30
0.0
 11
88.66797637992338
 21
-141.5274070475201
 31
0.0
  0
LINE
  5
D2
330
7D
100
AcDbEntity
  8
レイヤー 1
 62
   250
420
  2299925
370
     9
100
AcDbLine
 10
91.12793110153067
 20
-142.5271792442363
 30
0.0
 11
88.66797637992338
 21
-142.5271792442363
 31
0.0
  0
INSERT
  5
D4
330
7D
100
AcDbEntity
  8
レイヤー 1
100
AcDbBlockReference
  2
Block_9
 10
0.0
 20
0.0
 30
0.0
  0
ENDBLK
  5
80
330
7D
100
AcDbEntity
  8
0
100
AcDbBlockEnd
  0
BLOCK
  5
96
330
94
100
AcDbEntity
  8
0
100
AcDbBlockBegin
  2
Block_2
 70
     0
 10
0.0
 20
0.0
 30
0.0
  3
Block_2
  1

  0
SPLINE
  5
98
330
94
100
AcDbEntity
  8
レイヤー 1
100
AcDbSpline
210
0.0
220
0.0
230
1.0
 70
     9
 71
     3
 72
    17
 73
    13
 74
     0
 42
0.0000000001
 43
0.0000000001
 40
0.0
 40
0.0
 40
0.0
 40
0.0
 40
1.0
 40
1.0
 40
1.0
 40
2.0
 40
2.0
 40
2.0
 40
3.0
 40
3.0
 40
3.0
 40
4.0
 40
4.0
 40
4.0
 40
4.0
 10
94.72358938604132
 20
-157.6734076211719
 30
0.0
 10
94.50000268904862
 20
-157.6734076211719
 30
0.0
 10
94.46761879148727
 20
-157.8849364839662
 30
0.0
 10
94.46761879148727
 20
-158.0013807113677
 30
0.0
 10
94.46761879148727
 20
-158.1770805811154
 30
0.0
 10
94.54892304493915
 20
-158.3400335975678
 30
0.0
 10
94.70567488951804
 20
-158.3400335975678
 30
0.0
 10
94.808683244527
 20
-158.3400335975678
 30
0.0
 10
94.95820038858685
 20
-158.2807779552215
 30
0.0
 10
94.95820038858685
 20
-157.9951795394942
 30
0.0
 10
94.95820038858685
 20
-157.7709038234045
 30
0.0
 10
94.83934459434571
 20
-157.6734076211719
 30
0.0
 10
94.72358938604132
 20
-157.6734076211719
 30
0.0
  0
SPLINE
  5
99
330
94
100
AcDbEntity
  8
レイヤー 1
100
AcDbSpline
210
0.0
220
0.0
230
1.0
 70
     9
 71
     3
 72
    32
 73
    28
 74
     0
 42
0.0000000001
 43
0.0000000001
 40
0.0
 40
0.0
 40
0.0
 40
0.0
 40
1.0
 40
1.0
 40
1.0
 40
2.0
 40
2.0
 40
2.0
 40
3.0
 40
3.0
 40
3.0
 40
4.0
 40
4.0
 40
4.0
 40
5.0
 40
5.0
 40
5.0
 40
6.0
 40
6.0
 40
6.0
 40
7.0
 40
7.0
 40
7.0
 40
8.0
 40
8.0
 40
8.0
 40
9.0
 40
9.0
 40
9.0
 40
9.0
 10
94.70946449455182
 20
-158.5322699256447
 30
0.0
 10
94.26918129153689
 20
-158.5322699256447
 30
0.0
 10
94.26194659101785
 20
-157.9782985716165
 30
0.0
 10
94.26194659101785
 20
-157.7643581419825
 30
0.0
 10
94.26194659101785
 20
-157.5338812540193
 30
0.0
 10
94.27848304934704
 20
-156.8865478123408
 30
0.0
 10
94.74184839211316
 20
-156.8865478123408
 30
0.0
 10
94.88964298843036
 20
-156.8865478123408
 30
0.0
 10
95.09876028438503
 20
-156.9564832506914
 30
0.0
 10
95.13114418194637
 20
-157.2885904554695
 30
0.0
 10
95.13114418194637
 20
-157.2885904554695
 30
0.0
 10
94.9492431403252
 20
-157.2885904554695
 30
0.0
 10
94.9492431403252
 20
-157.2885904554695
 30
0.0
 10
94.94028589206354
 20
-157.2314018704144
 30
0.0
 10
94.91306963773007
 20
-157.0832627645486
 30
0.0
 10
94.74012584437053
 20
-157.0832627645486
 30
0.0
 10
94.49104544078696
 20
-157.0832627645486
 30
0.0
 10
94.45693899548299
 20
-157.4112358547444
 30
0.0
 10
94.44591468993019
 20
-157.6162190361167
 30
0.0
 10
94.52549639563946
 20
-157.5380153686016
 30
0.0
 10
94.58302949024313
 20
-157.4787597262553
 30
0.0
 10
94.73805878707938
 20
-157.4787597262553
 30
0.0
 10
94.89136553617299
 20
-157.4787597262553
 30
0.0
 10
95.14940318801821
 20
-157.5869357244921
 30
0.0
 10
95.14940318801821
 20
-157.9931124822031
 30
0.0
 10
95.14940318801821
 20
-158.3124728336857
 30
0.0
 10
94.97990449014393
 20
-158.5322699256447
 30
0.0
 10
94.70946449455182
 20
-158.5322699256447
 30
0.0
  0
HATCH
  5
9A
330
94
100
AcDbEntity
  8
レイヤー 1
 62
   250
420
  2299925
440
 33554687
100
AcDbHatch
 10
0.0
 20
0.0
 30
0.0
210
0.0
220
0.0
230
1.0
  2
SOLID
 70
     1
 71
     1
 91
        2
 92
        1
 93
        1
 72
     4
 94
        3
 73
     0
 74
     0
 95
       17
 96
       13
 40
0.0
 40
0.0
 40
0.0
 40
0.0
 40
1.0
 40
1.0
 40
1.0
 40
2.0
 40
2.0
 40
2.0
 40
3.0
 40
3.0
 40
3.0
 40
4.0
 40
4.0
 40
4.0
 40
4.0
 10
94.72358938604132
 20
-157.6734076211719
 10
94.50000268904862
 20
-157.6734076211719
 10
94.46761879148727
 20
-157.8849364839662
 10
94.46761879148727
 20
-158.0013807113677
 10
94.46761879148727
 20
-158.1770805811154
 10
94.54892304493915
 20
-158.3400335975678
 10
94.70567488951804
 20
-158.3400335975678
 10
94.808683244527
 20
-158.3400335975678
 10
94.95820038858685
 20
-158.2807779552215
 10
94.95820038858685
 20
-157.9951795394942
 10
94.95820038858685
 20
-157.7709038234045
 10
94.83934459434571
 20
-157.6734076211719
 10
94.72358938604132
 20
-157.6734076211719
 97
        0
 97
        1
330
98
 92
        1
 93
        1
 72
     4
 94
        3
 73
     0
 74
     0
 95
       32
 96
       28
 40
0.0
 40
0.0
 40
0.0
 40
0.0
 40
1.0
 40
1.0
 40
1.0
 40
2.0
 40
2.0
 40
2.0
 40
3.0
 40
3.0
 40
3.0
 40
4.0
 40
4.0
 40
4.0
 40
5.0
 40
5.0
 40
5.0
 40
6.0
 40
6.0
 40
6.0
 40
7.0
 40
7.0
 40
7.0
 40
8.0
 40
8.0
 40
8.0
 40
9.0
 40
9.0
 40
9.0
 40
9.0
 10
94.70946449455182
 20
-158.5322699256447
 10
94.26918129153689
 20
-158.5322699256447
 10
94.26194659101785
 20
-157.9782985716165
 10
94.26194659101785
 20
-157.7643581419825
 10
94.26194659101785
 20
-157.5338812540193
 10
94.27848304934704
 20
-156.8865478123408
 10
94.74184839211316
 20
-156.8865478123408
 10
94.88964298843036
 20
-156.8865478123408
 10
95.09876028438503
 20
-156.9564832506914
 10
95.13114418194637
 20
-157.2885904554695
 10
95.13114418194637
 20
-157.2885904554695
 10
94.9492431403252
 20
-157.2885904554695
 10
94.9492431403252
 20
-157.2885904554695
 10
94.94028589206354
 20
-157.2314018704144
 10
94.91306963773007
 20
-157.0832627645486
 10
94.74012584437053
 20
-157.0832627645486
 10
94.49104544078696
 20
-157.0832627645486
 10
94.45693899548299
 20
-157.4112358547444
 10
94.44591468993019
 20
-157.6162190361167
 10
94.52549639563946
 20
-157.5380153686016
 10
94.58302949024313
 20
-157.4787597262553
 10
94.73805878707938
 20
-157.4787597262553
 10
94.89136553617299
 20
-157.4787597262553
 10
95.14940318801821
 20
-157.5869357244921
 10
95.14940318801821
 20
-157.9931124822031
 10
95.14940318801821
 20
-158.3124728336857
 10
94.97990449014393
 20
-158.5322699256447
 10
94.70946449455182
 20
-158.5322699256447
 97
        0
 97
        1
330
99
 75
     2
 76
     1
 98
        1
 10
0.0
 20
0.0
450
        0
451
        0
460
0.0
461
0.0
452
        0
462
0.0
453
        0
470

  0
ENDBLK
  5
97
330
94
100
AcDbEntity
  8
0
100
AcDbBlockEnd
  0
BLOCK
  5
9F
330
9D
100
AcDbEntity
  8
0
100
AcDbBlockBegin
  2
Block_3
 70
     0
 10
0.0
 20
0.0
 30
0.0
  3
Block_3
  1

  0
INSERT
  5
A2
330
9D
100
AcDbEntity
  8
レイヤー 1
100
AcDbBlockReference
  2
Block_4
 10
0.0
 20
0.0
 30
0.0
  0
ENDBLK
  5
A0
330
9D
100
AcDbEntity
  8
0
100
AcDbBlockEnd
  0
BLOCK
  5
A3
330
A1
100
AcDbEntity
  8
0
100
AcDbBlockBegin
  2
Block_4
 70
     0
 10
0.0
 20
0.0
 30
0.0
  3
Block_4
  1

  0
SPLINE
  5
A5
330
A1
100
AcDbEntity
  8
レイヤー 1
100
AcDbSpline
210
0.0
220
0.0
230
1.0
 70
    11
 71
     3
 72
    26
 73
    22
 74
     0
 42
0.0000000001
 43
0.0000000001
 40
0.0
 40
0.0
 40
0.0
 40
0.0
 40
1.0
 40
1.0
 40
1.0
 40
2.0
 40
2.0
 40
2.0
 40
3.0
 40
3.0
 40
3.0
 40
4.0
 40
4.0
 40
4.0
 40
5.0
 40
5.0
 40
5.0
 40
6.0
 40
6.0
 40
6.0
 40
7.0
 40
7.0
 40
7.0
 40
7.0
 10
105.6758924431991
 20
-158.4816270220115
 30
0.0
 10
105.6758924431991
 20
-158.4816270220115
 30
0.0
 10
105.6758924431991
 20
-157.377473918989
 30
0.0
 10
105.6758924431991
 20
-157.377473918989
 30
0.0
 10
105.6758924431991
 20
-157.377473918989
 30
0.0
 10
105.3944281420541
 20
-157.377473918989
 30
0.0
 10
105.3944281420541
 20
-157.377473918989
 30
0.0
 10
105.3944281420541
 20
-157.377473918989
 30
0.0
 10
105.3944281420541
 20
-157.2293348131232
 30
0.0
 10
105.3944281420541
 20
-157.2293348131232
 30
0.0
 10
105.6776149909417
 20
-157.2145209025366
 30
0.0
 10
105.7172335890221
 20
-157.0515678860843
 30
0.0
 10
105.7423827860644
 20
-156.937190715974
 30
0.0
 10
105.7423827860644
 20
-156.937190715974
 30
0.0
 10
105.8670952426304
 20
-156.937190715974
 30
0.0
 10
105.8670952426304
 20
-156.937190715974
 30
0.0
 10
105.8670952426304
 20
-156.937190715974
 30
0.0
 10
105.8670952426304
 20
-158.4816270220115
 30
0.0
 10
105.8670952426304
 20
-158.4816270220115
 30
0.0
 10
105.8670952426304
 20
-158.4816270220115
 30
0.0
 10
105.6758924431991
 20
-158.4816270220115
 30
0.0
 10
105.6758924431991
 20
-158.4816270220115
 30
0.0
  0
HATCH
  5
A6
330
A1
100
AcDbEntity
  8
レイヤー 1
 62
   250
420
  2299925
440
 33554687
100
AcDbHatch
 10
0.0
 20
0.0
 30
0.0
210
0.0
220
0.0
230
1.0
  2
SOLID
 70
     1
 71
     1
 91
        1
 92
        1
 93
        1
 72
     4
 94
        3
 73
     0
 74
     0
 95
       26
 96
       22
 40
0.0
 40
0.0
 40
0.0
 40
0.0
 40
1.0
 40
1.0
 40
1.0
 40
2.0
 40
2.0
 40
2.0
 40
3.0
 40
3.0
 40
3.0
 40
4.0
 40
4.0
 40
4.0
 40
5.0
 40
5.0
 40
5.0
 40
6.0
 40
6.0
 40
6.0
 40
7.0
 40
7.0
 40
7.0
 40
7.0
 10
105.6758924431991
 20
-158.4816270220115
 10
105.6758924431991
 20
-158.4816270220115
 10
105.6758924431991
 20
-157.377473918989
 10
105.6758924431991
 20
-157.377473918989
 10
105.6758924431991
 20
-157.377473918989
 10
105.3944281420541
 20
-157.377473918989
 10
105.3944281420541
 20
-157.377473918989
 10
105.3944281420541
 20
-157.377473918989
 10
105.3944281420541
 20
-157.2293348131232
 10
105.3944281420541
 20
-157.2293348131232
 10
105.6776149909417
 20
-157.2145209025366
 10
105.7172335890221
 20
-157.0515678860843
 10
105.7423827860644
 20
-156.937190715974
 10
105.7423827860644
 20
-156.937190715974
 10
105.8670952426304
 20
-156.937190715974
 10
105.8670952426304
 20
-156.937190715974
 10
105.8670952426304
 20
-156.937190715974
 10
105.8670952426304
 20
-158.4816270220115
 10
105.8670952426304
 20
-158.4816270220115
 10
105.8670952426304
 20
-158.4816270220115
 10
105.6758924431991
 20
-158.4816270220115
 10
105.6758924431991
 20
-158.4816270220115
 97
        0
 97
        1
330
A5
 75
     2
 76
     1
 98
        1
 10
0.0
 20
0.0
450
        0
451
        0
460
0.0
461
0.0
452
        0
462
0.0
453
        0
470

  0
SPLINE
  5
A7
330
A1
100
AcDbEntity
  8
レイヤー 1
100
AcDbSpline
210
0.0
220
0.0
230
1.0
 70
     9
 71
     3
 72
    26
 73
    22
 74
     0
 42
0.0000000001
 43
0.0000000001
 40
0.0
 40
0.0
 40
0.0
 40
0.0
 40
1.0
 40
1.0
 40
1.0
 40
2.0
 40
2.0
 40
2.0
 40
3.0
 40
3.0
 40
3.0
 40
4.0
 40
4.0
 40
4.0
 40
5.0
 40
5.0
 40
5.0
 40
6.0
 40
6.0
 40
6.0
 40
7.0
 40
7.0
 40
7.0
 40
7.0
 10
106.6432752554572
 20
-158.4816270220115
 30
0.0
 10
106.6432752554572
 20
-158.4816270220115
 30
0.0
 10
106.4413926600216
 20
-158.4816270220115
 30
0.0
 10
106.4413926600216
 20
-158.4816270220115
 30
0.0
 10
106.4630967615787
 20
-158.1726019569846
 30
0.0
 10
106.6270833066765
 20
-157.654459596003
 30
0.0
 10
106.9733154029442
 20
-157.1487195787684
 30
0.0
 10
106.9733154029442
 20
-157.1487195787684
 30
0.0
 10
106.2591471088519
 20
-157.1487195787684
 30
0.0
 10
106.2591471088519
 20
-157.1487195787684
 30
0.0
 10
106.2591471088519
 20
-157.1487195787684
 30
0.0
 10
106.2591471088519
 20
-156.937190715974
 30
0.0
 10
106.2591471088519
 20
-156.937190715974
 30
0.0
 10
106.2591471088519
 20
-156.937190715974
 30
0.0
 10
107.1751979983798
 20
-156.937190715974
 30
0.0
 10
107.1751979983798
 20
-156.937190715974
 30
0.0
 10
107.1751979983798
 20
-156.937190715974
 30
0.0
 10
107.1751979983798
 20
-157.1487195787684
 30
0.0
 10
107.1751979983798
 20
-157.1487195787684
 30
0.0
 10
106.8995903595598
 20
-157.4387966186264
 30
0.0
 10
106.6722140575333
 20
-158.0310085325408
 30
0.0
 10
106.6432752554572
 20
-158.4816270220115
 30
0.0
  0
HATCH
  5
A8
330
A1
100
AcDbEntity
  8
レイヤー 1
 62
   250
420
  2299925
440
 33554687
100
AcDbHatch
 10
0.0
 20
0.0
 30
0.0
210
0.0
220
0.0
230
1.0
  2
SOLID
 70
     1
 71
     1
 91
        1
 92
        1
 93
        1
 72
     4
 94
        3
 73
     0
 74
     0
 95
       26
 96
       22
 40
0.0
 40
0.0
 40
0.0
 40
0.0
 40
1.0
 40
1.0
 40
1.0
 40
2.0
 40
2.0
 40
2.0
 40
3.0
 40
3.0
 40
3.0
 40
4.0
 40
4.0
 40
4.0
 40
5.0
 40
5.0
 40
5.0
 40
6.0
 40
6.0
 40
6.0
 40
7.0
 40
7.0
 40
7.0
 40
7.0
 10
106.6432752554572
 20
-158.4816270220115
 10
106.6432752554572
 20
-158.4816270220115
 10
106.4413926600216
 20
-158.4816270220115
 10
106.4413926600216
 20
-158.4816270220115
 10
106.4630967615787
 20
-158.1726019569846
 10
106.6270833066765
 20
-157.654459596003
 10
106.9733154029442
 20
-157.1487195787684
 10
106.9733154029442
 20
-157.1487195787684
 10
106.2591471088519
 20
-157.1487195787684
 10
106.2591471088519
 20
-157.1487195787684
 10
106.2591471088519
 20
-157.1487195787684
 10
106.2591471088519
 20
-156.937190715974
 10
106.2591471088519
 20
-156.937190715974
 10
106.2591471088519
 20
-156.937190715974
 10
107.1751979983798
 20
-156.937190715974
 10
107.1751979983798
 20
-156.937190715974
 10
107.1751979983798
 20
-156.937190715974
 10
107.1751979983798
 20
-157.1487195787684
 10
107.1751979983798
 20
-157.1487195787684
 10
106.8995903595598
 20
-157.4387966186264
 10
106.6722140575333
 20
-158.0310085325408
 10
106.6432752554572
 20
-158.4816270220115
 97
        0
 97
        1
330
A7
 75
     2
 76
     1
 98
        1
 10
0.0
 20
0.0
450
        0
451
        0
460
0.0
461
0.0
452
        0
462
0.0
453
        0
470

  0
ENDBLK
  5
A4
330
A1
100
AcDbEntity
  8
0
100
AcDbBlockEnd
  0
BLOCK
  5
AD
330
AB
100
AcDbEntity
  8
0
100
AcDbBlockBegin
  2
Block_5
 70
     0
 10
0.0
 20
0.0
 30
0.0
  3
Block_5
  1

  0
INSERT
  5
B0
330
AB
100
AcDbEntity
  8
レイヤー 1
100
AcDbBlockReference
  2
Block_6
 10
0.0
 20
0.0
 30
0.0
  0
ENDBLK
  5
AE
330
AB
100
AcDbEntity
  8
0
100
AcDbBlockEnd
  0
BLOCK
  5
B1
330
AF
100
AcDbEntity
  8
0
100
AcDbBlockBegin
  2
Block_6
 70
     0
 10
0.0
 20
0.0
 30
0.0
  3
Block_6
  1

  0
SPLINE
  5
B3
330
AF
100
AcDbEntity
  8
レイヤー 1
100
AcDbSpline
210
0.0
220
0.0
230
1.0
 70
    11
 71
     3
 72
    26
 73
    22
 74
     0
 42
0.0000000001
 43
0.0000000001
 40
0.0
 40
0.0
 40
0.0
 40
0.0
 40
1.0
 40
1.0
 40
1.0
 40
2.0
 40
2.0
 40
2.0
 40
3.0
 40
3.0
 40
3.0
 40
4.0
 40
4.0
 40
4.0
 40
5.0
 40
5.0
 40
5.0
 40
6.0
 40
6.0
 40
6.0
 40
7.0
 40
7.0
 40
7.0
 40
7.0
 10
118.0716905086765
 20
-149.0541232266253
 30
0.0
 10
118.0716905086765
 20
-149.0541232266253
 30
0.0
 10
116.9675374056539
 20
-149.0541232266253
 30
0.0
 10
116.9675374056539
 20
-149.0541232266253
 30
0.0
 10
116.9675374056539
 20
-149.0541232266253
 30
0.0
 10
116.9675374056539
 20
-149.3355875277703
 30
0.0
 10
116.9675374056539
 20
-149.3355875277703
 30
0.0
 10
116.9675374056539
 20
-149.3355875277703
 30
0.0
 10
116.8193982997882
 20
-149.3355875277703
 30
0.0
 10
116.8193982997882
 20
-149.3355875277703
 30
0.0
 10
116.8045843892016
 20
-149.0524006788827
 30
0.0
 10
116.6416313727493
 20
-149.0127820808023
 30
0.0
 10
116.527254202639
 20
-148.98763288376
 30
0.0
 10
116.527254202639
 20
-148.98763288376
 30
0.0
 10
116.527254202639
 20
-148.862920427194
 30
0.0
 10
116.527254202639
 20
-148.862920427194
 30
0.0
 10
116.527254202639
 20
-148.862920427194
 30
0.0
 10
118.0716905086765
 20
-148.862920427194
 30
0.0
 10
118.0716905086765
 20
-148.862920427194
 30
0.0
 10
118.0716905086765
 20
-148.862920427194
 30
0.0
 10
118.0716905086765
 20
-149.0541232266253
 30
0.0
 10
118.0716905086765
 20
-149.0541232266253
 30
0.0
  0
HATCH
  5
B4
330
AF
100
AcDbEntity
  8
レイヤー 1
 62
   250
420
  2299925
440
 33554687
100
AcDbHatch
 10
0.0
 20
0.0
 30
0.0
210
0.0
220
0.0
230
1.0
  2
SOLID
 70
     1
 71
     1
 91
        1
 92
        1
 93
        1
 72
     4
 94
        3
 73
     0
 74
     0
 95
       26
 96
       22
 40
0.0
 40
0.0
 40
0.0
 40
0.0
 40
1.0
 40
1.0
 40
1.0
 40
2.0
 40
2.0
 40
2.0
 40
3.0
 40
3.0
 40
3.0
 40
4.0
 40
4.0
 40
4.0
 40
5.0
 40
5.0
 40
5.0
 40
6.0
 40
6.0
 40
6.0
 40
7.0
 40
7.0
 40
7.0
 40
7.0
 10
118.0716905086765
 20
-149.0541232266253
 10
118.0716905086765
 20
-149.0541232266253
 10
116.9675374056539
 20
-149.0541232266253
 10
116.9675374056539
 20
-149.0541232266253
 10
116.9675374056539
 20
-149.0541232266253
 10
116.9675374056539
 20
-149.3355875277703
 10
116.9675374056539
 20
-149.3355875277703
 10
116.9675374056539
 20
-149.3355875277703
 10
116.8193982997882
 20
-149.3355875277703
 10
116.8193982997882
 20
-149.3355875277703
 10
116.8045843892016
 20
-149.0524006788827
 10
116.6416313727493
 20
-149.0127820808023
 10
116.527254202639
 20
-148.98763288376
 10
116.527254202639
 20
-148.98763288376
 10
116.527254202639
 20
-148.862920427194
 10
116.527254202639
 20
-148.862920427194
 10
116.527254202639
 20
-148.862920427194
 10
118.0716905086765
 20
-148.862920427194
 10
118.0716905086765
 20
-148.862920427194
 10
118.0716905086765
 20
-148.862920427194
 10
118.0716905086765
 20
-149.0541232266253
 10
118.0716905086765
 20
-149.0541232266253
 97
        0
 97
        1
330
B3
 75
     2
 76
     1
 98
        1
 10
0.0
 20
0.0
450
        0
451
        0
460
0.0
461
0.0
452
        0
462
0.0
453
        0
470

  0
SPLINE
  5
B5
330
AF
100
AcDbEntity
  8
レイヤー 1
100
AcDbSpline
210
0.0
220
0.0
230
1.0
 70
     9
 71
     3
 72
    44
 73
    40
 74
     0
 42
0.0000000001
 43
0.0000000001
 40
0.0
 40
0.0
 40
0.0
 40
0.0
 40
1.0
 40
1.0
 40
1.0
 40
2.0
 40
2.0
 40
2.0
 40
3.0
 40
3.0
 40
3.0
 40
4.0
 40
4.0
 40
4.0
 40
5.0
 40
5.0
 40
5.0
 40
6.0
 40
6.0
 40
6.0
 40
7.0
 40
7.0
 40
7.0
 40
8.0
 40
8.0
 40
8.0
 40
9.0
 40
9.0
 40
9.0
 40
10.0
 40
10.0
 40
10.0
 40
11.0
 40
11.0
 40
11.0
 40
12.0
 40
12.0
 40
12.0
 40
13.0
 40
13.0
 40
13.0
 40
13.0
 10
117.4898138812178
 20
-147.9317111175309
 30
0.0
 10
117.6486327830878
 20
-148.1174017641859
 30
0.0
 10
117.7227023360207
 20
-148.1966389603467
 30
0.0
 10
117.8663628177556
 20
-148.2379801061697
 30
0.0
 10
117.8663628177556
 20
-148.2379801061697
 30
0.0
 10
117.8663628177556
 20
-147.5744547157106
 30
0.0
 10
117.8663628177556
 20
-147.5744547157106
 30
0.0
 10
117.8663628177556
 20
-147.5744547157106
 30
0.0
 10
118.0716905086765
 20
-147.5744547157106
 30
0.0
 10
118.0716905086765
 20
-147.5744547157106
 30
0.0
 10
118.0716905086765
 20
-147.5744547157106
 30
0.0
 10
118.0716905086765
 20
-148.4508870071581
 30
0.0
 10
118.0716905086765
 20
-148.4508870071581
 30
0.0
 10
117.7140895973076
 20
-148.4240152623731
 30
0.0
 10
117.6358859297924
 20
-148.3678602059636
 30
0.0
 10
117.3375406607698
 20
-148.0398871157678
 30
0.0
 10
117.1387586512709
 20
-147.8214680620029
 30
0.0
 10
117.0708902702114
 20
-147.7656575151419
 30
0.0
 10
116.93343096035
 20
-147.7656575151419
 30
0.0
 10
116.8149196756574
 20
-147.7656575151419
 30
0.0
 10
116.6840060472179
 20
-147.8269802147794
 30
0.0
 10
116.6840060472179
 20
-147.994756364911
 30
0.0
 10
116.6840060472179
 20
-148.2166205141611
 30
0.0
 10
116.9144829351811
 20
-148.2238552146801
 30
0.0
 10
117.0309271625825
 20
-148.2273003101654
 30
0.0
 10
117.0309271625825
 20
-148.2273003101654
 30
0.0
 10
117.0309271625825
 20
-148.4185031095967
 30
0.0
 10
117.0309271625825
 20
-148.4185031095967
 30
0.0
 10
116.9038031391768
 20
-148.4112684090777
 30
0.0
 10
116.7918375359062
 20
-148.4023111608161
 30
0.0
 10
116.6733262512136
 20
-148.3337537606596
 30
0.0
 10
116.5124402920524
 20
-148.2400471634608
 30
0.0
 10
116.478678356297
 20
-148.0812282615908
 30
0.0
 10
116.478678356297
 20
-147.9820095116156
 30
0.0
 10
116.478678356297
 20
-147.7456759613274
 30
0.0
 10
116.6626464552093
 20
-147.5689425629341
 30
0.0
 10
116.9354980176411
 20
-147.5689425629341
 30
0.0
 10
117.1642523578617
 20
-147.5689425629341
 30
0.0
 10
117.2634711078369
 20
-147.6681613129093
 30
0.0
 10
117.4898138812178
 20
-147.9317111175309
 30
0.0
  0
HATCH
  5
B6
330
AF
100
AcDbEntity
  8
レイヤー 1
 62
   250
420
  2299925
440
 33554687
100
AcDbHatch
 10
0.0
 20
0.0
 30
0.0
210
0.0
220
0.0
230
1.0
  2
SOLID
 70
     1
 71
     1
 91
        1
 92
        1
 93
        1
 72
     4
 94
        3
 73
     0
 74
     0
 95
       44
 96
       40
 40
0.0
 40
0.0
 40
0.0
 40
0.0
 40
1.0
 40
1.0
 40
1.0
 40
2.0
 40
2.0
 40
2.0
 40
3.0
 40
3.0
 40
3.0
 40
4.0
 40
4.0
 40
4.0
 40
5.0
 40
5.0
 40
5.0
 40
6.0
 40
6.0
 40
6.0
 40
7.0
 40
7.0
 40
7.0
 40
8.0
 40
8.0
 40
8.0
 40
9.0
 40
9.0
 40
9.0
 40
10.0
 40
10.0
 40
10.0
 40
11.0
 40
11.0
 40
11.0
 40
12.0
 40
12.0
 40
12.0
 40
13.0
 40
13.0
 40
13.0
 40
13.0
 10
117.4898138812178
 20
-147.9317111175309
 10
117.6486327830878
 20
-148.1174017641859
 10
117.7227023360207
 20
-148.1966389603467
 10
117.8663628177556
 20
-148.2379801061697
 10
117.8663628177556
 20
-148.2379801061697
 10
117.8663628177556
 20
-147.5744547157106
 10
117.8663628177556
 20
-147.5744547157106
 10
117.8663628177556
 20
-147.5744547157106
 10
118.0716905086765
 20
-147.5744547157106
 10
118.0716905086765
 20
-147.5744547157106
 10
118.0716905086765
 20
-147.5744547157106
 10
118.0716905086765
 20
-148.4508870071581
 10
118.0716905086765
 20
-148.4508870071581
 10
117.7140895973076
 20
-148.4240152623731
 10
117.6358859297924
 20
-148.3678602059636
 10
117.3375406607698
 20
-148.0398871157678
 10
117.1387586512709
 20
-147.8214680620029
 10
117.0708902702114
 20
-147.7656575151419
 10
116.93343096035
 20
-147.7656575151419
 10
116.8149196756574
 20
-147.7656575151419
 10
116.6840060472179
 20
-147.8269802147794
 10
116.6840060472179
 20
-147.994756364911
 10
116.6840060472179
 20
-148.2166205141611
 10
116.9144829351811
 20
-148.2238552146801
 10
117.0309271625825
 20
-148.2273003101654
 10
117.0309271625825
 20
-148.2273003101654
 10
117.0309271625825
 20
-148.4185031095967
 10
117.0309271625825
 20
-148.4185031095967
 10
116.9038031391768
 20
-148.4112684090777
 10
116.7918375359062
 20
-148.4023111608161
 10
116.6733262512136
 20
-148.3337537606596
 10
116.5124402920524
 20
-148.2400471634608
 10
116.478678356297
 20
-148.0812282615908
 10
116.478678356297
 20
-147.9820095116156
 10
116.478678356297
 20
-147.7456759613274
 10
116.6626464552093
 20
-147.5689425629341
 10
116.9354980176411
 20
-147.5689425629341
 10
117.1642523578617
 20
-147.5689425629341
 10
117.2634711078369
 20
-147.6681613129093
 10
117.4898138812178
 20
-147.9317111175309
 97
        0
 97
        1
330
B5
 75
     2
 76
     1
 98
        1
 10
0.0
 20
0.0
450
        0
451
        0
460
0.0
461
0.0
452
        0
462
0.0
453
        0
470

  0
SPLINE
  5
B7
330
AF
100
AcDbEntity
  8
レイヤー 1
100
AcDbSpline
210
0.0
220
0.0
230
1.0
 70
    11
 71
     3
 72
    17
 73
    13
 74
     0
 42
0.0000000001
 43
0.0000000001
 40
0.0
 40
0.0
 40
0.0
 40
0.0
 40
1.0
 40
1.0
 40
1.0
 40
2.0
 40
2.0
 40
2.0
 40
3.0
 40
3.0
 40
3.0
 40
4.0
 40
4.0
 40
4.0
 40
4.0
 10
118.0716905086765
 20
-147.3842854449247
 30
0.0
 10
118.0716905086765
 20
-147.3842854449247
 30
0.0
 10
117.8198540287047
 20
-147.3842854449247
 30
0.0
 10
117.8198540287047
 20
-147.3842854449247
 30
0.0
 10
117.8198540287047
 20
-147.3842854449247
 30
0.0
 10
117.8198540287047
 20
-147.1696559961937
 30
0.0
 10
117.8198540287047
 20
-147.1696559961937
 30
0.0
 10
117.8198540287047
 20
-147.1696559961937
 30
0.0
 10
118.0716905086765
 20
-147.1696559961937
 30
0.0
 10
118.0716905086765
 20
-147.1696559961937
 30
0.0
 10
118.0716905086765
 20
-147.1696559961937
 30
0.0
 10
118.0716905086765
 20
-147.3842854449247
 30
0.0
 10
118.0716905086765
 20
-147.3842854449247
 30
0.0
  0
HATCH
  5
B8
330
AF
100
AcDbEntity
  8
レイヤー 1
 62
   250
420
  2299925
440
 33554687
100
AcDbHatch
 10
0.0
 20
0.0
 30
0.0
210
0.0
220
0.0
230
1.0
  2
SOLID
 70
     1
 71
     1
 91
        1
 92
        1
 93
        1
 72
     4
 94
        3
 73
     0
 74
     0
 95
       17
 96
       13
 40
0.0
 40
0.0
 40
0.0
 40
0.0
 40
1.0
 40
1.0
 40
1.0
 40
2.0
 40
2.0
 40
2.0
 40
3.0
 40
3.0
 40
3.0
 40
4.0
 40
4.0
 40
4.0
 40
4.0
 10
118.0716905086765
 20
-147.3842854449247
 10
118.0716905086765
 20
-147.3842854449247
 10
117.8198540287047
 20
-147.3842854449247
 10
117.8198540287047
 20
-147.3842854449247
 10
117.8198540287047
 20
-147.3842854449247
 10
117.8198540287047
 20
-147.1696559961937
 10
117.8198540287047
 20
-147.1696559961937
 10
117.8198540287047
 20
-147.1696559961937
 10
118.0716905086765
 20
-147.1696559961937
 10
118.0716905086765
 20
-147.1696559961937
 10
118.0716905086765
 20
-147.1696559961937
 10
118.0716905086765
 20
-147.3842854449247
 10
118.0716905086765
 20
-147.3842854449247
 97
        0
 97
        1
330
B7
 75
     2
 76
     1
 98
        1
 10
0.0
 20
0.0
450
        0
451
        0
460
0.0
461
0.0
452
        0
462
0.0
453
        0
470

  0
SPLINE
  5
B9
330
AF
100
AcDbEntity
  8
レイヤー 1
100
AcDbSpline
210
0.0
220
0.0
230
1.0
 70
     9
 71
     3
 72
    53
 73
    49
 74
     0
 42
0.0000000001
 43
0.0000000001
 40
0.0
 40
0.0
 40
0.0
 40
0.0
 40
1.0
 40
1.0
 40
1.0
 40
2.0
 40
2.0
 40
2.0
 40
3.0
 40
3.0
 40
3.0
 40
4.0
 40
4.0
 40
4.0
 40
5.0
 40
5.0
 40
5.0
 40
6.0
 40
6.0
 40
6.0
 40
7.0
 40
7.0
 40
7.0
 40
8.0
 40
8.0
 40
8.0
 40
9.0
 40
9.0
 40
9.0
 40
10.0
 40
10.0
 40
10.0
 40
11.0
 40
11.0
 40
11.0
 40
12.0
 40
12.0
 40
12.0
 40
13.0
 40
13.0
 40
13.0
 40
14.0
 40
14.0
 40
14.0
 40
15.0
 40
15.0
 40
15.0
 40
16.0
 40
16.0
 40
16.0
 40
16.0
 10
118.1223334123097
 20
-146.5584960571104
 30
0.0
 10
118.1223334123097
 20
-146.6253309095242
 30
0.0
 10
118.105452444432
 20
-146.711802806204
 30
0.0
 10
118.0420626875033
 20
-146.7982747028837
 30
0.0
 10
117.9321641415239
 20
-146.946069299201
 30
0.0
 10
117.8009060035359
 20
-146.9643283052728
 30
0.0
 10
117.6930745148475
 20
-146.9805202540535
 30
0.0
 10
117.6930745148475
 20
-146.9805202540535
 30
0.0
 10
117.6930745148475
 20
-146.7910400023647
 30
0.0
 10
117.6930745148475
 20
-146.7910400023647
 30
0.0
 10
117.8918565243465
 20
-146.7441867037653
 30
0.0
 10
117.9214843455196
 20
-146.6360107055285
 30
0.0
 10
117.9214843455196
 20
-146.5567735093677
 30
0.0
 10
117.9214843455196
 20
-146.4375732055781
 30
0.0
 10
117.8219210859959
 20
-146.3076931057841
 30
0.0
 10
117.5893771407415
 20
-146.3076931057841
 30
0.0
 10
117.3334065461875
 20
-146.3076931057841
 30
0.0
 10
117.2634711078369
 20
-146.4609998548778
 30
0.0
 10
117.2634711078369
 20
-146.5640082098868
 30
0.0
 10
117.2634711078369
 20
-146.5908799546717
 30
0.0
 10
117.2634711078369
 20
-146.711802806204
 30
0.0
 10
117.3926621885338
 20
-146.7875949068795
 30
0.0
 10
117.3926621885338
 20
-146.7875949068795
 30
0.0
 10
117.3737141633649
 20
-146.9371120509393
 30
0.0
 10
117.3737141633649
 20
-146.9371120509393
 30
0.0
 10
117.3737141633649
 20
-146.9371120509393
 30
0.0
 10
116.527254202639
 20
-146.8344482054789
 30
0.0
 10
116.527254202639
 20
-146.8344482054789
 30
0.0
 10
116.527254202639
 20
-146.8344482054789
 30
0.0
 10
116.527254202639
 20
-146.1709228150198
 30
0.0
 10
116.527254202639
 20
-146.1709228150198
 30
0.0
 10
116.527254202639
 20
-146.1709228150198
 30
0.0
 10
116.7219020975556
 20
-146.1709228150198
 30
0.0
 10
116.7219020975556
 20
-146.1709228150198
 30
0.0
 10
116.7219020975556
 20
-146.1709228150198
 30
0.0
 10
116.7219020975556
 20
-146.6956108574233
 30
0.0
 10
116.7219020975556
 20
-146.6956108574233
 30
0.0
 10
116.7219020975556
 20
-146.6956108574233
 30
0.0
 10
117.1449598231443
 20
-146.7514214042843
 30
0.0
 10
117.1449598231443
 20
-146.7514214042843
 30
0.0
 10
117.1111978873888
 20
-146.6990559529086
 30
0.0
 10
117.0708902702114
 20
-146.6287760050095
 30
0.0
 10
117.0708902702114
 20
-146.5278347072916
 30
0.0
 10
117.0708902702114
 20
-146.3114827108179
 30
0.0
 10
117.2572699359634
 20
-146.1096001153823
 30
0.0
 10
117.5704291155726
 20
-146.1096001153823
 30
0.0
 10
117.8877224097641
 20
-146.1096001153823
 30
0.0
 10
118.1223334123097
 20
-146.3004584052652
 30
0.0
 10
118.1223334123097
 20
-146.5584960571104
 30
0.0
  0
HATCH
  5
BA
330
AF
100
AcDbEntity
  8
レイヤー 1
 62
   250
420
  2299925
440
 33554687
100
AcDbHatch
 10
0.0
 20
0.0
 30
0.0
210
0.0
220
0.0
230
1.0
  2
SOLID
 70
     1
 71
     1
 91
        1
 92
        1
 93
        1
 72
     4
 94
        3
 73
     0
 74
     0
 95
       53
 96
       49
 40
0.0
 40
0.0
 40
0.0
 40
0.0
 40
1.0
 40
1.0
 40
1.0
 40
2.0
 40
2.0
 40
2.0
 40
3.0
 40
3.0
 40
3.0
 40
4.0
 40
4.0
 40
4.0
 40
5.0
 40
5.0
 40
5.0
 40
6.0
 40
6.0
 40
6.0
 40
7.0
 40
7.0
 40
7.0
 40
8.0
 40
8.0
 40
8.0
 40
9.0
 40
9.0
 40
9.0
 40
10.0
 40
10.0
 40
10.0
 40
11.0
 40
11.0
 40
11.0
 40
12.0
 40
12.0
 40
12.0
 40
13.0
 40
13.0
 40
13.0
 40
14.0
 40
14.0
 40
14.0
 40
15.0
 40
15.0
 40
15.0
 40
16.0
 40
16.0
 40
16.0
 40
16.0
 10
118.1223334123097
 20
-146.5584960571104
 10
118.1223334123097
 20
-146.6253309095242
 10
118.105452444432
 20
-146.711802806204
 10
118.0420626875033
 20
-146.7982747028837
 10
117.9321641415239
 20
-146.946069299201
 10
117.8009060035359
 20
-146.9643283052728
 10
117.6930745148475
 20
-146.9805202540535
 10
117.6930745148475
 20
-146.9805202540535
 10
117.6930745148475
 20
-146.7910400023647
 10
117.6930745148475
 20
-146.7910400023647
 10
117.8918565243465
 20
-146.7441867037653
 10
117.9214843455196
 20
-146.6360107055285
 10
117.9214843455196
 20
-146.5567735093677
 10
117.9214843455196
 20
-146.4375732055781
 10
117.8219210859959
 20
-146.3076931057841
 10
117.5893771407415
 20
-146.3076931057841
 10
117.3334065461875
 20
-146.3076931057841
 10
117.2634711078369
 20
-146.4609998548778
 10
117.2634711078369
 20
-146.5640082098868
 10
117.2634711078369
 20
-146.5908799546717
 10
117.2634711078369
 20
-146.711802806204
 10
117.3926621885338
 20
-146.7875949068795
 10
117.3926621885338
 20
-146.7875949068795
 10
117.3737141633649
 20
-146.9371120509393
 10
117.3737141633649
 20
-146.9371120509393
 10
117.3737141633649
 20
-146.9371120509393
 10
116.527254202639
 20
-146.8344482054789
 10
116.527254202639
 20
-146.8344482054789
 10
116.527254202639
 20
-146.8344482054789
 10
116.527254202639
 20
-146.1709228150198
 10
116.527254202639
 20
-146.1709228150198
 10
116.527254202639
 20
-146.1709228150198
 10
116.7219020975556
 20
-146.1709228150198
 10
116.7219020975556
 20
-146.1709228150198
 10
116.7219020975556
 20
-146.1709228150198
 10
116.7219020975556
 20
-146.6956108574233
 10
116.7219020975556
 20
-146.6956108574233
 10
116.7219020975556
 20
-146.6956108574233
 10
117.1449598231443
 20
-146.7514214042843
 10
117.1449598231443
 20
-146.7514214042843
 10
117.1111978873888
 20
-146.6990559529086
 10
117.0708902702114
 20
-146.6287760050095
 10
117.0708902702114
 20
-146.5278347072916
 10
117.0708902702114
 20
-146.3114827108179
 10
117.2572699359634
 20
-146.1096001153823
 10
117.5704291155726
 20
-146.1096001153823
 10
117.8877224097641
 20
-146.1096001153823
 10
118.1223334123097
 20
-146.3004584052652
 10
118.1223334123097
 20
-146.5584960571104
 97
        0
 97
        1
330
B9
 75
     2
 76
     1
 98
        1
 10
0.0
 20
0.0
450
        0
451
        0
460
0.0
461
0.0
452
        0
462
0.0
453
        0
470

  0
ENDBLK
  5
B2
330
AF
100
AcDbEntity
  8
0
100
AcDbBlockEnd
  0
BLOCK
  5
C1
330
BF
100
AcDbEntity
  8
0
100
AcDbBlockBegin
  2
Block_7
 70
     0
 10
0.0
 20
0.0
 30
0.0
  3
Block_7
  1

  0
INSERT
  5
C4
330
BF
100
AcDbEntity
  8
レイヤー 1
100
AcDbBlockReference
  2
Block_8
 10
0.0
 20
0.0
 30
0.0
  0
ENDBLK
  5
C2
330
BF
100
AcDbEntity
  8
0
100
AcDbBlockEnd
  0
BLOCK
  5
C5
330
C3
100
AcDbEntity
  8
0
100
AcDbBlockBegin
  2
Block_8
 70
     0
 10
0.0
 20
0.0
 30
0.0
  3
Block_8
  1

  0
SPLINE
  5
C7
330
C3
100
AcDbEntity
  8
レイヤー 1
100
AcDbSpline
210
0.0
220
0.0
230
1.0
 70
     9
 71
     3
 72
    17
 73
    13
 74
     0
 42
0.0000000001
 43
0.0000000001
 40
0.0
 40
0.0
 40
0.0
 40
0.0
 40
1.0
 40
1.0
 40
1.0
 40
2.0
 40
2.0
 40
2.0
 40
3.0
 40
3.0
 40
3.0
 40
4.0
 40
4.0
 40
4.0
 40
4.0
 10
120.9045925261974
 20
-151.8539523274879
 30
0.0
 10
120.9045925261974
 20
-152.0665147189278
 30
0.0
 10
121.1881238846335
 20
-152.1064778265567
 30
0.0
 10
121.532977942707
 20
-152.1064778265567
 30
0.0
 10
121.8523382941897
 20
-152.1064778265567
 30
0.0
 10
122.1610188496681
 20
-152.075816476738
 30
0.0
 10
122.1610188496681
 20
-151.8539523274879
 30
0.0
 10
122.1610188496681
 20
-151.6427679742421
 30
0.0
 10
121.8798990580717
 20
-151.6014268284191
 30
0.0
 10
121.532977942707
 20
-151.6014268284191
 30
0.0
 10
121.2132730816758
 20
-151.6014268284191
 30
0.0
 10
120.9045925261974
 20
-151.6338107259804
 30
0.0
 10
120.9045925261974
 20
-151.8539523274879
 30
0.0
  0
SPLINE
  5
C8
330
C3
100
AcDbEntity
  8
レイヤー 1
100
AcDbSpline
210
0.0
220
0.0
230
1.0
 70
     9
 71
     3
 72
    29
 73
    25
 74
     0
 42
0.0000000001
 43
0.0000000001
 40
0.0
 40
0.0
 40
0.0
 40
0.0
 40
1.0
 40
1.0
 40
1.0
 40
2.0
 40
2.0
 40
2.0
 40
3.0
 40
3.0
 40
3.0
 40
4.0
 40
4.0
 40
4.0
 40
5.0
 40
5.0
 40
5.0
 40
6.0
 40
6.0
 40
6.0
 40
7.0
 40
7.0
 40
7.0
 40
8.0
 40
8.0
 40
8.0
 40
8.0
 10
122.1272569139126
 20
-151.5149549317393
 30
0.0
 10
122.3367187194158
 20
-151.6069389811955
 30
0.0
 10
122.3556667445847
 20
-151.7547335775127
 30
0.0
 10
122.3556667445847
 20
-151.8539523274879
 30
0.0
 10
122.3556667445847
 20
-151.9910671278008
 30
0.0
 10
122.3091579555338
 20
-152.1116454697846
 30
0.0
 10
122.1272569139126
 20
-152.1929497232365
 30
0.0
 10
121.932609018996
 20
-152.2811441676588
 30
0.0
 10
121.6955864496108
 20
-152.2973361164395
 30
0.0
 10
121.532977942707
 20
-152.2973361164395
 30
0.0
 10
121.3889729514236
 20
-152.2973361164395
 30
0.0
 10
121.1371364714518
 20
-152.28321122495
 30
0.0
 10
120.9383544619529
 20
-152.1929497232365
 30
0.0
 10
120.7354383378717
 20
-152.1009656737803
 30
0.0
 10
120.712011688572
 20
-151.9638508734673
 30
0.0
 10
120.712011688572
 20
-151.8539523274879
 30
0.0
 10
120.712011688572
 20
-151.7185600749176
 30
0.0
 10
120.7564534203317
 20
-151.5959146756427
 30
0.0
 10
120.9383544619529
 20
-151.5149549317393
 30
0.0
 10
121.1309352995784
 20
-151.4302055828022
 30
0.0
 10
121.3593451302504
 20
-151.4102240289877
 30
0.0
 10
121.532977942707
 20
-151.4102240289877
 30
0.0
 10
121.7041991883239
 20
-151.4102240289877
 30
0.0
 10
121.9346760762872
 20
-151.4284830350595
 30
0.0
 10
122.1272569139126
 20
-151.5149549317393
 30
0.0
  0
HATCH
  5
C9
330
C3
100
AcDbEntity
  8
レイヤー 1
 62
   250
420
  2299925
440
 33554687
100
AcDbHatch
 10
0.0
 20
0.0
 30
0.0
210
0.0
220
0.0
230
1.0
  2
SOLID
 70
     1
 71
     1
 91
        2
 92
        1
 93
        1
 72
     4
 94
        3
 73
     0
 74
     0
 95
       17
 96
       13
 40
0.0
 40
0.0
 40
0.0
 40
0.0
 40
1.0
 40
1.0
 40
1.0
 40
2.0
 40
2.0
 40
2.0
 40
3.0
 40
3.0
 40
3.0
 40
4.0
 40
4.0
 40
4.0
 40
4.0
 10
120.9045925261974
 20
-151.8539523274879
 10
120.9045925261974
 20
-152.0665147189278
 10
121.1881238846335
 20
-152.1064778265567
 10
121.532977942707
 20
-152.1064778265567
 10
121.8523382941897
 20
-152.1064778265567
 10
122.1610188496681
 20
-152.075816476738
 10
122.1610188496681
 20
-151.8539523274879
 10
122.1610188496681
 20
-151.6427679742421
 10
121.8798990580717
 20
-151.6014268284191
 10
121.532977942707
 20
-151.6014268284191
 10
121.2132730816758
 20
-151.6014268284191
 10
120.9045925261974
 20
-151.6338107259804
 10
120.9045925261974
 20
-151.8539523274879
 97
        0
 97
        1
330
C7
 92
        1
 93
        1
 72
     4
 94
        3
 73
     0
 74
     0
 95
       29
 96
       25
 40
0.0
 40
0.0
 40
0.0
 40
0.0
 40
1.0
 40
1.0
 40
1.0
 40
2.0
 40
2.0
 40
2.0
 40
3.0
 40
3.0
 40
3.0
 40
4.0
 40
4.0
 40
4.0
 40
5.0
 40
5.0
 40
5.0
 40
6.0
 40
6.0
 40
6.0
 40
7.0
 40
7.0
 40
7.0
 40
8.0
 40
8.0
 40
8.0
 40
8.0
 10
122.1272569139126
 20
-151.5149549317393
 10
122.3367187194158
 20
-151.6069389811955
 10
122.3556667445847
 20
-151.7547335775127
 10
122.3556667445847
 20
-151.8539523274879
 10
122.3556667445847
 20
-151.9910671278008
 10
122.3091579555338
 20
-152.1116454697846
 10
122.1272569139126
 20
-152.1929497232365
 10
121.932609018996
 20
-152.2811441676588
 10
121.6955864496108
 20
-152.2973361164395
 10
121.532977942707
 20
-152.2973361164395
 10
121.3889729514236
 20
-152.2973361164395
 10
121.1371364714518
 20
-152.28321122495
 10
120.9383544619529
 20
-152.1929497232365
 10
120.7354383378717
 20
-152.1009656737803
 10
120.712011688572
 20
-151.9638508734673
 10
120.712011688572
 20
-151.8539523274879
 10
120.712011688572
 20
-151.7185600749176
 10
120.7564534203317
 20
-151.5959146756427
 10
120.9383544619529
 20
-151.5149549317393
 10
121.1309352995784
 20
-151.4302055828022
 10
121.3593451302504
 20
-151.4102240289877
 10
121.532977942707
 20
-151.4102240289877
 10
121.7041991883239
 20
-151.4102240289877
 10
121.9346760762872
 20
-151.4284830350595
 10
122.1272569139126
 20
-151.5149549317393
 97
        0
 97
        1
330
C8
 75
     2
 76
     1
 98
        1
 10
0.0
 20
0.0
450
        0
451
        0
460
0.0
461
0.0
452
        0
462
0.0
453
        0
470

  0
SPLINE
  5
CA
330
C3
100
AcDbEntity
  8
レイヤー 1
100
AcDbSpline
210
0.0
220
0.0
230
1.0
 70
    11
 71
     3
 72
    17
 73
    13
 74
     0
 42
0.0000000001
 43
0.0000000001
 40
0.0
 40
0.0
 40
0.0
 40
0.0
 40
1.0
 40
1.0
 40
1.0
 40
2.0
 40
2.0
 40
2.0
 40
3.0
 40
3.0
 40
3.0
 40
4.0
 40
4.0
 40
4.0
 40
4.0
 10
122.3050238409515
 20
-151.2272894587209
 30
0.0
 10
122.3050238409515
 20
-151.2272894587209
 30
0.0
 10
122.0531873609797
 20
-151.2272894587209
 30
0.0
 10
122.0531873609797
 20
-151.2272894587209
 30
0.0
 10
122.0531873609797
 20
-151.2272894587209
 30
0.0
 10
122.0531873609797
 20
-151.0126600099899
 30
0.0
 10
122.0531873609797
 20
-151.0126600099899
 30
0.0
 10
122.0531873609797
 20
-151.0126600099899
 30
0.0
 10
122.3050238409515
 20
-151.0126600099899
 30
0.0
 10
122.3050238409515
 20
-151.0126600099899
 30
0.0
 10
122.3050238409515
 20
-151.0126600099899
 30
0.0
 10
122.3050238409515
 20
-151.2272894587209
 30
0.0
 10
122.3050238409515
 20
-151.2272894587209
 30
0.0
  0
HATCH
  5
CB
330
C3
100
AcDbEntity
  8
レイヤー 1
 62
   250
420
  2299925
440
 33554687
100
AcDbHatch
 10
0.0
 20
0.0
 30
0.0
210
0.0
220
0.0
230
1.0
  2
SOLID
 70
     1
 71
     1
 91
        1
 92
        1
 93
        1
 72
     4
 94
        3
 73
     0
 74
     0
 95
       17
 96
       13
 40
0.0
 40
0.0
 40
0.0
 40
0.0
 40
1.0
 40
1.0
 40
1.0
 40
2.0
 40
2.0
 40
2.0
 40
3.0
 40
3.0
 40
3.0
 40
4.0
 40
4.0
 40
4.0
 40
4.0
 10
122.3050238409515
 20
-151.2272894587209
 10
122.3050238409515
 20
-151.2272894587209
 10
122.0531873609797
 20
-151.2272894587209
 10
122.0531873609797
 20
-151.2272894587209
 10
122.0531873609797
 20
-151.2272894587209
 10
122.0531873609797
 20
-151.0126600099899
 10
122.0531873609797
 20
-151.0126600099899
 10
122.0531873609797
 20
-151.0126600099899
 10
122.3050238409515
 20
-151.0126600099899
 10
122.3050238409515
 20
-151.0126600099899
 10
122.3050238409515
 20
-151.0126600099899
 10
122.3050238409515
 20
-151.2272894587209
 10
122.3050238409515
 20
-151.2272894587209
 97
        0
 97
        1
330
CA
 75
     2
 76
     1
 98
        1
 10
0.0
 20
0.0
450
        0
451
        0
460
0.0
461
0.0
452
        0
462
0.0
453
        0
470

  0
SPLINE
  5
CC
330
C3
100
AcDbEntity
  8
レイヤー 1
100
AcDbSpline
210
0.0
220
0.0
230
1.0
 70
    11
 71
     3
 72
    14
 73
    10
 74
     0
 42
0.0000000001
 43
0.0000000001
 40
0.0
 40
0.0
 40
0.0
 40
0.0
 40
1.0
 40
1.0
 40
1.0
 40
2.0
 40
2.0
 40
2.0
 40
3.0
 40
3.0
 40
3.0
 40
3.0
 10
121.1033745356964
 20
-150.2878119198933
 30
0.0
 10
121.1033745356964
 20
-150.2878119198933
 30
0.0
 10
121.7593207160879
 20
-150.6774522192751
 30
0.0
 10
121.7593207160879
 20
-150.6774522192751
 30
0.0
 10
121.7593207160879
 20
-150.6774522192751
 30
0.0
 10
121.7593207160879
 20
-150.2878119198933
 30
0.0
 10
121.7593207160879
 20
-150.2878119198933
 30
0.0
 10
121.7593207160879
 20
-150.2878119198933
 30
0.0
 10
121.1033745356964
 20
-150.2878119198933
 30
0.0
 10
121.1033745356964
 20
-150.2878119198933
 30
0.0
  0
SPLINE
  5
CD
330
C3
100
AcDbEntity
  8
レイヤー 1
100
AcDbSpline
210
0.0
220
0.0
230
1.0
 70
    11
 71
     3
 72
    38
 73
    34
 74
     0
 42
0.0000000001
 43
0.0000000001
 40
0.0
 40
0.0
 40
0.0
 40
0.0
 40
1.0
 40
1.0
 40
1.0
 40
2.0
 40
2.0
 40
2.0
 40
3.0
 40
3.0
 40
3.0
 40
4.0
 40
4.0
 40
4.0
 40
5.0
 40
5.0
 40
5.0
 40
6.0
 40
6.0
 40
6.0
 40
7.0
 40
7.0
 40
7.0
 40
8.0
 40
8.0
 40
8.0
 40
9.0
 40
9.0
 40
9.0
 40
10.0
 40
10.0
 40
10.0
 40
11.0
 40
11.0
 40
11.0
 40
11.0
 10
121.9581027255868
 20
-150.1021212732383
 30
0.0
 10
121.9581027255868
 20
-150.1021212732383
 30
0.0
 10
122.3050238409515
 20
-150.1021212732383
 30
0.0
 10
122.3050238409515
 20
-150.1021212732383
 30
0.0
 10
122.3050238409515
 20
-150.1021212732383
 30
0.0
 10
122.3050238409515
 20
-150.2878119198933
 30
0.0
 10
122.3050238409515
 20
-150.2878119198933
 30
0.0
 10
122.3050238409515
 20
-150.2878119198933
 30
0.0
 10
121.9581027255868
 20
-150.2878119198933
 30
0.0
 10
121.9581027255868
 20
-150.2878119198933
 30
0.0
 10
121.9581027255868
 20
-150.2878119198933
 30
0.0
 10
121.9581027255868
 20
-150.8469509171493
 30
0.0
 10
121.9581027255868
 20
-150.8469509171493
 30
0.0
 10
121.9581027255868
 20
-150.8469509171493
 30
0.0
 10
121.7338270094971
 20
-150.8469509171493
 30
0.0
 10
121.7338270094971
 20
-150.8469509171493
 30
0.0
 10
121.7338270094971
 20
-150.8469509171493
 30
0.0
 10
120.760587534914
 20
-150.2681748756274
 30
0.0
 10
120.760587534914
 20
-150.2681748756274
 30
0.0
 10
120.760587534914
 20
-150.2681748756274
 30
0.0
 10
120.760587534914
 20
-150.1021212732383
 30
0.0
 10
120.760587534914
 20
-150.1021212732383
 30
0.0
 10
120.760587534914
 20
-150.1021212732383
 30
0.0
 10
121.7593207160879
 20
-150.1021212732383
 30
0.0
 10
121.7593207160879
 20
-150.1021212732383
 30
0.0
 10
121.7593207160879
 20
-150.1021212732383
 30
0.0
 10
121.7593207160879
 20
-149.925387874845
 30
0.0
 10
121.7593207160879
 20
-149.925387874845
 30
0.0
 10
121.7593207160879
 20
-149.925387874845
 30
0.0
 10
121.9581027255868
 20
-149.925387874845
 30
0.0
 10
121.9581027255868
 20
-149.925387874845
 30
0.0
 10
121.9581027255868
 20
-149.925387874845
 30
0.0
 10
121.9581027255868
 20
-150.1021212732383
 30
0.0
 10
121.9581027255868
 20
-150.1021212732383
 30
0.0
  0
HATCH
  5
CE
330
C3
100
AcDbEntity
  8
レイヤー 1
 62
   250
420
  2299925
440
 33554687
100
AcDbHatch
 10
0.0
 20
0.0
 30
0.0
210
0.0
220
0.0
230
1.0
  2
SOLID
 70
     1
 71
     1
 91
        2
 92
        1
 93
        1
 72
     4
 94
        3
 73
     0
 74
     0
 95
       14
 96
       10
 40
0.0
 40
0.0
 40
0.0
 40
0.0
 40
1.0
 40
1.0
 40
1.0
 40
2.0
 40
2.0
 40
2.0
 40
3.0
 40
3.0
 40
3.0
 40
3.0
 10
121.1033745356964
 20
-150.2878119198933
 10
121.1033745356964
 20
-150.2878119198933
 10
121.7593207160879
 20
-150.6774522192751
 10
121.7593207160879
 20
-150.6774522192751
 10
121.7593207160879
 20
-150.6774522192751
 10
121.7593207160879
 20
-150.2878119198933
 10
121.7593207160879
 20
-150.2878119198933
 10
121.7593207160879
 20
-150.2878119198933
 10
121.1033745356964
 20
-150.2878119198933
 10
121.1033745356964
 20
-150.2878119198933
 97
        0
 97
        1
330
CC
 92
        1
 93
        1
 72
     4
 94
        3
 73
     0
 74
     0
 95
       38
 96
       34
 40
0.0
 40
0.0
 40
0.0
 40
0.0
 40
1.0
 40
1.0
 40
1.0
 40
2.0
 40
2.0
 40
2.0
 40
3.0
 40
3.0
 40
3.0
 40
4.0
 40
4.0
 40
4.0
 40
5.0
 40
5.0
 40
5.0
 40
6.0
 40
6.0
 40
6.0
 40
7.0
 40
7.0
 40
7.0
 40
8.0
 40
8.0
 40
8.0
 40
9.0
 40
9.0
 40
9.0
 40
10.0
 40
10.0
 40
10.0
 40
11.0
 40
11.0
 40
11.0
 40
11.0
 10
121.9581027255868
 20
-150.1021212732383
 10
121.9581027255868
 20
-150.1021212732383
 10
122.3050238409515
 20
-150.1021212732383
 10
122.3050238409515
 20
-150.1021212732383
 10
122.3050238409515
 20
-150.1021212732383
 10
122.3050238409515
 20
-150.2878119198933
 10
122.3050238409515
 20
-150.2878119198933
 10
122.3050238409515
 20
-150.2878119198933
 10
121.9581027255868
 20
-150.2878119198933
 10
121.9581027255868
 20
-150.2878119198933
 10
121.9581027255868
 20
-150.2878119198933
 10
121.9581027255868
 20
-150.8469509171493
 10
121.9581027255868
 20
-150.8469509171493
 10
121.9581027255868
 20
-150.8469509171493
 10
121.7338270094971
 20
-150.8469509171493
 10
121.7338270094971
 20
-150.8469509171493
 10
121.7338270094971
 20
-150.8469509171493
 10
120.760587534914
 20
-150.2681748756274
 10
120.760587534914
 20
-150.2681748756274
 10
120.760587534914
 20
-150.2681748756274
 10
120.760587534914
 20
-150.1021212732383
 10
120.760587534914
 20
-150.1021212732383
 10
120.760587534914
 20
-150.1021212732383
 10
121.7593207160879
 20
-150.1021212732383
 10
121.7593207160879
 20
-150.1021212732383
 10
121.7593207160879
 20
-150.1021212732383
 10
121.7593207160879
 20
-149.925387874845
 10
121.7593207160879
 20
-149.925387874845
 10
121.7593207160879
 20
-149.925387874845
 10
121.9581027255868
 20
-149.925387874845
 10
121.9581027255868
 20
-149.925387874845
 10
121.9581027255868
 20
-149.925387874845
 10
121.9581027255868
 20
-150.1021212732383
 10
121.9581027255868
 20
-150.1021212732383
 97
        0
 97
        1
330
CD
 75
     2
 76
     1
 98
        1
 10
0.0
 20
0.0
450
        0
451
        0
460
0.0
461
0.0
452
        0
462
0.0
453
        0
470

  0
ENDBLK
  5
C6
330
C3
100
AcDbEntity
  8
0
100
AcDbBlockEnd
  0
BLOCK
  5
D5
330
D3
100
AcDbEntity
  8
0
100
AcDbBlockBegin
  2
Block_9
 70
     0
 10
0.0
 20
0.0
 30
0.0
  3
Block_9
  1

  0
INSERT
  5
D8
330
D3
100
AcDbEntity
  8
レイヤー 1
100
AcDbBlockReference
  2
Block_10
 10
0.0
 20
0.0
 30
0.0
  0
ENDBLK
  5
D6
330
D3
100
AcDbEntity
  8
0
100
AcDbBlockEnd
  0
BLOCK
  5
D9
330
D7
100
AcDbEntity
  8
0
100
AcDbBlockBegin
  2
Block_10
 70
     0
 10
0.0
 20
0.0
 30
0.0
  3
Block_10
  1

  0
SPLINE
  5
DB
330
D7
100
AcDbEntity
  8
レイヤー 1
100
AcDbSpline
210
0.0
220
0.0
230
1.0
 70
    11
 71
     3
 72
    26
 73
    22
 74
     0
 42
0.0000000001
 43
0.0000000001
 40
0.0
 40
0.0
 40
0.0
 40
0.0
 40
1.0
 40
1.0
 40
1.0
 40
2.0
 40
2.0
 40
2.0
 40
3.0
 40
3.0
 40
3.0
 40
4.0
 40
4.0
 40
4.0
 40
5.0
 40
5.0
 40
5.0
 40
6.0
 40
6.0
 40
6.0
 40
7.0
 40
7.0
 40
7.0
 40
7.0
 10
89.02195635795285
 20
-141.030840351027
 30
0.0
 10
89.02195635795285
 20
-141.030840351027
 30
0.0
 10
87.91780325493027
 20
-141.030840351027
 30
0.0
 10
87.91780325493027
 20
-141.030840351027
 30
0.0
 10
87.91780325493027
 20
-141.030840351027
 30
0.0
 10
87.91780325493027
 20
-141.3123046521719
 30
0.0
 10
87.91780325493027
 20
-141.3123046521719
 30
0.0
 10
87.91780325493027
 20
-141.3123046521719
 30
0.0
 10
87.76966414906453
 20
-141.3123046521719
 30
0.0
 10
87.76966414906453
 20
-141.3123046521719
 30
0.0
 10
87.75485023847796
 20
-141.0291178032844
 30
0.0
 10
87.59189722202563
 20
-140.989499205204
 30
0.0
 10
87.47752005191534
 20
-140.9643500081617
 30
0.0
 10
87.47752005191534
 20
-140.9643500081617
 30
0.0
 10
87.47752005191534
 20
-140.8396375515956
 30
0.0
 10
87.47752005191534
 20
-140.8396375515956
 30
0.0
 10
87.47752005191534
 20
-140.8396375515956
 30
0.0
 10
89.02195635795285
 20
-140.8396375515956
 30
0.0
 10
89.02195635795285
 20
-140.8396375515956
 30
0.0
 10
89.02195635795285
 20
-140.8396375515956
 30
0.0
 10
89.02195635795285
 20
-141.030840351027
 30
0.0
 10
89.02195635795285
 20
-141.030840351027
 30
0.0
  0
HATCH
  5
DC
330
D7
100
AcDbEntity
  8
レイヤー 1
 62
   250
420
  2299925
440
 33554687
100
AcDbHatch
 10
0.0
 20
0.0
 30
0.0
210
0.0
220
0.0
230
1.0
  2
SOLID
 70
     1
 71
     1
 91
        1
 92
        1
 93
        1
 72
     4
 94
        3
 73
     0
 74
     0
 95
       26
 96
       22
 40
0.0
 40
0.0
 40
0.0
 40
0.0
 40
1.0
 40
1.0
 40
1.0
 40
2.0
 40
2.0
 40
2.0
 40
3.0
 40
3.0
 40
3.0
 40
4.0
 40
4.0
 40
4.0
 40
5.0
 40
5.0
 40
5.0
 40
6.0
 40
6.0
 40
6.0
 40
7.0
 40
7.0
 40
7.0
 40
7.0
 10
89.02195635795285
 20
-141.030840351027
 10
89.02195635795285
 20
-141.030840351027
 10
87.91780325493027
 20
-141.030840351027
 10
87.91780325493027
 20
-141.030840351027
 10
87.91780325493027
 20
-141.030840351027
 10
87.91780325493027
 20
-141.3123046521719
 10
87.91780325493027
 20
-141.3123046521719
 10
87.91780325493027
 20
-141.3123046521719
 10
87.76966414906453
 20
-141.3123046521719
 10
87.76966414906453
 20
-141.3123046521719
 10
87.75485023847796
 20
-141.0291178032844
 10
87.59189722202563
 20
-140.989499205204
 10
87.47752005191534
 20
-140.9643500081617
 10
87.47752005191534
 20
-140.9643500081617
 10
87.47752005191534
 20
-140.8396375515956
 10
87.47752005191534
 20
-140.8396375515956
 10
87.47752005191534
 20
-140.8396375515956
 10
89.02195635795285
 20
-140.8396375515956
 10
89.02195635795285
 20
-140.8396375515956
 10
89.02195635795285
 20
-140.8396375515956
 10
89.02195635795285
 20
-141.030840351027
 10
89.02195635795285
 20
-141.030840351027
 97
        0
 97
        1
330
DB
 75
     2
 76
     1
 98
        1
 10
0.0
 20
0.0
450
        0
451
        0
460
0.0
461
0.0
452
        0
462
0.0
453
        0
470

  0
SPLINE
  5
DD
330
D7
100
AcDbEntity
  8
レイヤー 1
100
AcDbSpline
210
0.0
220
0.0
230
1.0
 70
    11
 71
     3
 72
    17
 73
    13
 74
     0
 42
0.0000000001
 43
0.0000000001
 40
0.0
 40
0.0
 40
0.0
 40
0.0
 40
1.0
 40
1.0
 40
1.0
 40
2.0
 40
2.0
 40
2.0
 40
3.0
 40
3.0
 40
3.0
 40
4.0
 40
4.0
 40
4.0
 40
4.0
 10
89.02195635795285
 20
-140.3628363364371
 30
0.0
 10
89.02195635795285
 20
-140.3628363364371
 30
0.0
 10
88.77011987798109
 20
-140.3628363364371
 30
0.0
 10
88.77011987798109
 20
-140.3628363364371
 30
0.0
 10
88.77011987798109
 20
-140.3628363364371
 30
0.0
 10
88.77011987798109
 20
-140.148206887706
 30
0.0
 10
88.77011987798109
 20
-140.148206887706
 30
0.0
 10
88.77011987798109
 20
-140.148206887706
 30
0.0
 10
89.02195635795285
 20
-140.148206887706
 30
0.0
 10
89.02195635795285
 20
-140.148206887706
 30
0.0
 10
89.02195635795285
 20
-140.148206887706
 30
0.0
 10
89.02195635795285
 20
-140.3628363364371
 30
0.0
 10
89.02195635795285
 20
-140.3628363364371
 30
0.0
  0
HATCH
  5
DE
330
D7
100
AcDbEntity
  8
レイヤー 1
 62
   250
420
  2299925
440
 33554687
100
AcDbHatch
 10
0.0
 20
0.0
 30
0.0
210
0.0
220
0.0
230
1.0
  2
SOLID
 70
     1
 71
     1
 91
        1
 92
        1
 93
        1
 72
     4
 94
        3
 73
     0
 74
     0
 95
       17
 96
       13
 40
0.0
 40
0.0
 40
0.0
 40
0.0
 40
1.0
 40
1.0
 40
1.0
 40
2.0
 40
2.0
 40
2.0
 40
3.0
 40
3.0
 40
3.0
 40
4.0
 40
4.0
 40
4.0
 40
4.0
 10
89.02195635795285
 20
-140.3628363364371
 10
89.02195635795285
 20
-140.3628363364371
 10
88.77011987798109
 20
-140.3628363364371
 10
88.77011987798109
 20
-140.3628363364371
 10
88.77011987798109
 20
-140.3628363364371
 10
88.77011987798109
 20
-140.148206887706
 10
88.77011987798109
 20
-140.148206887706
 10
88.77011987798109
 20
-140.148206887706
 10
89.02195635795285
 20
-140.148206887706
 10
89.02195635795285
 20
-140.148206887706
 10
89.02195635795285
 20
-140.148206887706
 10
89.02195635795285
 20
-140.3628363364371
 10
89.02195635795285
 20
-140.3628363364371
 97
        0
 97
        1
330
DD
 75
     2
 76
     1
 98
        1
 10
0.0
 20
0.0
450
        0
451
        0
460
0.0
461
0.0
452
        0
462
0.0
453
        0
470

  0
SPLINE
  5
DF
330
D7
100
AcDbEntity
  8
レイヤー 1
100
AcDbSpline
210
0.0
220
0.0
230
1.0
 70
     9
 71
     3
 72
    17
 73
    13
 74
     0
 42
0.0000000001
 43
0.0000000001
 40
0.0
 40
0.0
 40
0.0
 40
0.0
 40
1.0
 40
1.0
 40
1.0
 40
2.0
 40
2.0
 40
2.0
 40
3.0
 40
3.0
 40
3.0
 40
4.0
 40
4.0
 40
4.0
 40
4.0
 10
87.62152504319878
 20
-139.520854999842
 30
0.0
 10
87.62152504319878
 20
-139.7337619008304
 30
0.0
 10
87.90505640163486
 20
-139.7733804989108
 30
0.0
 10
88.24991045970836
 20
-139.7733804989108
 30
0.0
 10
88.56927081119101
 20
-139.7733804989108
 30
0.0
 10
88.87795136666941
 20
-139.7427191490921
 30
0.0
 10
88.87795136666941
 20
-139.520854999842
 30
0.0
 10
88.87795136666941
 20
-139.3096706465962
 30
0.0
 10
88.59683157507301
 20
-139.2683295007732
 30
0.0
 10
88.24991045970836
 20
-139.2683295007732
 30
0.0
 10
87.93020559867718
 20
-139.2683295007732
 30
0.0
 10
87.62152504319878
 20
-139.3007133983345
 30
0.0
 10
87.62152504319878
 20
-139.520854999842
 30
0.0
  0
SPLINE
  5
E0
330
D7
100
AcDbEntity
  8
レイヤー 1
100
AcDbSpline
210
0.0
220
0.0
230
1.0
 70
     9
 71
     3
 72
    29
 73
    25
 74
     0
 42
0.0000000001
 43
0.0000000001
 40
0.0
 40
0.0
 40
0.0
 40
0.0
 40
1.0
 40
1.0
 40
1.0
 40
2.0
 40
2.0
 40
2.0
 40
3.0
 40
3.0
 40
3.0
 40
4.0
 40
4.0
 40
4.0
 40
5.0
 40
5.0
 40
5.0
 40
6.0
 40
6.0
 40
6.0
 40
7.0
 40
7.0
 40
7.0
 40
8.0
 40
8.0
 40
8.0
 40
8.0
 10
88.84418943091395
 20
-139.1818576040934
 30
0.0
 10
89.05365123641715
 20
-139.2738416535496
 30
0.0
 10
89.07259926158602
 20
-139.4216362498668
 30
0.0
 10
89.07259926158602
 20
-139.520854999842
 30
0.0
 10
89.07259926158602
 20
-139.6579698001549
 30
0.0
 10
89.02609047253514
 20
-139.7785481421387
 30
0.0
 10
88.84418943091395
 20
-139.8598523955906
 30
0.0
 10
88.64954153599734
 20
-139.948046840013
 30
0.0
 10
88.41251896661216
 20
-139.9645832983422
 30
0.0
 10
88.24991045970836
 20
-139.9645832983422
 30
0.0
 10
88.10590546842492
 20
-139.9645832983422
 30
0.0
 10
87.85406898845314
 20
-139.9501138973041
 30
0.0
 10
87.65528697895424
 20
-139.8598523955906
 30
0.0
 10
87.45237085487302
 20
-139.7678683461344
 30
0.0
 10
87.42894420557332
 20
-139.6307535458215
 30
0.0
 10
87.42894420557332
 20
-139.520854999842
 30
0.0
 10
87.42894420557332
 20
-139.3854627472717
 30
0.0
 10
87.47338593733305
 20
-139.2628173479968
 30
0.0
 10
87.65528697895424
 20
-139.1818576040934
 30
0.0
 10
87.8478678165797
 20
-139.0971082551563
 30
0.0
 10
88.07627764725177
 20
-139.0771267013418
 30
0.0
 10
88.24991045970836
 20
-139.0771267013418
 30
0.0
 10
88.42113170532527
 20
-139.0771267013418
 30
0.0
 10
88.65160859328849
 20
-139.0953857074136
 30
0.0
 10
88.84418943091395
 20
-139.1818576040934
 30
0.0
  0
HATCH
  5
E1
330
D7
100
AcDbEntity
  8
レイヤー 1
 62
   250
420
  2299925
440
 33554687
100
AcDbHatch
 10
0.0
 20
0.0
 30
0.0
210
0.0
220
0.0
230
1.0
  2
SOLID
 70
     1
 71
     1
 91
        2
 92
        1
 93
        1
 72
     4
 94
        3
 73
     0
 74
     0
 95
       17
 96
       13
 40
0.0
 40
0.0
 40
0.0
 40
0.0
 40
1.0
 40
1.0
 40
1.0
 40
2.0
 40
2.0
 40
2.0
 40
3.0
 40
3.0
 40
3.0
 40
4.0
 40
4.0
 40
4.0
 40
4.0
 10
87.62152504319878
 20
-139.520854999842
 10
87.62152504319878
 20
-139.7337619008304
 10
87.90505640163486
 20
-139.7733804989108
 10
88.24991045970836
 20
-139.7733804989108
 10
88.56927081119101
 20
-139.7733804989108
 10
88.87795136666941
 20
-139.7427191490921
 10
88.87795136666941
 20
-139.520854999842
 10
88.87795136666941
 20
-139.3096706465962
 10
88.59683157507301
 20
-139.2683295007732
 10
88.24991045970836
 20
-139.2683295007732
 10
87.93020559867718
 20
-139.2683295007732
 10
87.62152504319878
 20
-139.3007133983345
 10
87.62152504319878
 20
-139.520854999842
 97
        0
 97
        1
330
DF
 92
        1
 93
        1
 72
     4
 94
        3
 73
     0
 74
     0
 95
       29
 96
       25
 40
0.0
 40
0.0
 40
0.0
 40
0.0
 40
1.0
 40
1.0
 40
1.0
 40
2.0
 40
2.0
 40
2.0
 40
3.0
 40
3.0
 40
3.0
 40
4.0
 40
4.0
 40
4.0
 40
5.0
 40
5.0
 40
5.0
 40
6.0
 40
6.0
 40
6.0
 40
7.0
 40
7.0
 40
7.0
 40
8.0
 40
8.0
 40
8.0
 40
8.0
 10
88.84418943091395
 20
-139.1818576040934
 10
89.05365123641715
 20
-139.2738416535496
 10
89.07259926158602
 20
-139.4216362498668
 10
89.07259926158602
 20
-139.520854999842
 10
89.07259926158602
 20
-139.6579698001549
 10
89.02609047253514
 20
-139.7785481421387
 10
88.84418943091395
 20
-139.8598523955906
 10
88.64954153599734
 20
-139.948046840013
 10
88.41251896661216
 20
-139.9645832983422
 10
88.24991045970836
 20
-139.9645832983422
 10
88.10590546842492
 20
-139.9645832983422
 10
87.85406898845314
 20
-139.9501138973041
 10
87.65528697895424
 20
-139.8598523955906
 10
87.45237085487302
 20
-139.7678683461344
 10
87.42894420557332
 20
-139.6307535458215
 10
87.42894420557332
 20
-139.520854999842
 10
87.42894420557332
 20
-139.3854627472717
 10
87.47338593733305
 20
-139.2628173479968
 10
87.65528697895424
 20
-139.1818576040934
 10
87.8478678165797
 20
-139.0971082551563
 10
88.07627764725177
 20
-139.0771267013418
 10
88.24991045970836
 20
-139.0771267013418
 10
88.42113170532527
 20
-139.0771267013418
 10
88.65160859328849
 20
-139.0953857074136
 10
88.84418943091395
 20
-139.1818576040934
 97
        0
 97
        1
330
E0
 75
     2
 76
     1
 98
        1
 10
0.0
 20
0.0
450
        0
451
        0
460
0.0
461
0.0
452
        0
462
0.0
453
        0
470

  0
ENDBLK
  5
DA
330
D7
100
AcDbEntity
  8
0
100
AcDbBlockEnd
  0
BLOCK
  5
E6
330
E4
100
AcDbEntity
  8
0
100
AcDbBlockBegin
  2
Block_11
 70
     0
 10
0.0
 20
0.0
 30
0.0
  3
Block_11
  1

  0
LINE
  5
E8
330
E4
100
AcDbEntity
  8
レイヤー 1
 62
    18
420
        0
370
     9
100
AcDbLine
 10
109.413204114459
 20
-153.2341118724161
 30
0.0
 11
109.1463592565986
 21
-152.270339639145
 31
0.0
  0
LINE
  5
E9
330
E4
100
AcDbEntity
  8
レイヤー 1
 62
    18
420
        0
370
     9
100
AcDbLine
 10
109.413204114459
 20
-153.2341118724161
 30
0.0
 11
109.3787699070819
 21
-151.6201513096113
 31
0.0
  0
LINE
  5
EA
330
E4
100
AcDbEntity
  8
レイヤー 1
 62
    18
420
        0
370
     9
100
AcDbLine
 10
109.413204114459
 20
-153.2341118724161
 30
0.0
 11
109.6640521919649
 21
-152.2659314170286
 31
0.0
  0
ENDBLK
  5
E7
330
E4
100
AcDbEntity
  8
0
100
AcDbBlockEnd
  0
BLOCK
  5
ED
330
EB
100
AcDbEntity
  8
0
100
AcDbBlockBegin
  2
Block_12
 70
     0
 10
0.0
 20
0.0
 30
0.0
  3
Block_12
  1

  0
INSERT
  5
F0
330
EB
100
AcDbEntity
  8
レイヤー 1
100
AcDbBlockReference
  2
Block_13
 10
0.0
 20
0.0
 30
0.0
  0
ENDBLK
  5
EE
330
EB
100
AcDbEntity
  8
0
100
AcDbBlockEnd
  0
BLOCK
  5
F1
330
EF
100
AcDbEntity
  8
0
100
AcDbBlockBegin
  2
Block_13
 70
     0
 10
0.0
 20
0.0
 30
0.0
  3
Block_13
  1

  0
SPLINE
  5
F3
330
EF
100
AcDbEntity
  8
レイヤー 1
100
AcDbSpline
210
0.0
220
0.0
230
1.0
 70
     9
 71
     3
 72
    17
 73
    13
 74
     0
 42
0.0000000001
 43
0.0000000001
 40
0.0
 40
0.0
 40
0.0
 40
0.0
 40
1.0
 40
1.0
 40
1.0
 40
2.0
 40
2.0
 40
2.0
 40
3.0
 40
3.0
 40
3.0
 40
4.0
 40
4.0
 40
4.0
 40
4.0
 10
105.427156549164
 20
-150.5537732913546
 30
0.0
 10
105.410103326512
 20
-150.5834011125278
 30
0.0
 10
105.3594604228789
 20
-150.6764186906295
 30
0.0
 10
105.3487806268746
 20
-150.6953667157984
 30
0.0
 10
105.5391221524347
 20
-150.7546223581447
 30
0.0
 10
105.5601372348947
 20
-150.7611680395666
 30
0.0
 10
105.6321397305364
 20
-150.7887288034486
 30
0.0
 10
105.6872612583004
 20
-150.7019123972203
 30
0.0
 10
105.7103433980516
 20
-150.6278428442875
 30
0.0
 10
105.7251573086381
 20
-150.5537732913546
 30
0.0
 10
105.7251573086381
 20
-150.5537732913546
 30
0.0
 10
105.427156549164
 20
-150.5537732913546
 30
0.0
 10
105.427156549164
 20
-150.5537732913546
 30
0.0
  0
SPLINE
  5
F4
330
EF
100
AcDbEntity
  8
レイヤー 1
100
AcDbSpline
210
0.0
220
0.0
230
1.0
 70
    11
 71
     3
 72
    20
 73
    16
 74
     0
 42
0.0000000001
 43
0.0000000001
 40
0.0
 40
0.0
 40
0.0
 40
0.0
 40
1.0
 40
1.0
 40
1.0
 40
2.0
 40
2.0
 40
2.0
 40
3.0
 40
3.0
 40
3.0
 40
4.0
 40
4.0
 40
4.0
 40
5.0
 40
5.0
 40
5.0
 40
5.0
 10
105.3635945374612
 20
-149.7035237255949
 30
0.0
 10
105.3635945374612
 20
-149.7035237255949
 30
0.0
 10
105.3318996589969
 20
-149.7035237255949
 30
0.0
 10
105.3318996589969
 20
-149.7035237255949
 30
0.0
 10
105.3784084480477
 20
-149.8027424755701
 30
0.0
 10
105.410103326512
 20
-149.8830132003764
 30
0.0
 10
105.4440375170418
 20
-150.0101372237821
 30
0.0
 10
105.4440375170418
 20
-150.0101372237821
 30
0.0
 10
105.6510877557053
 20
-150.0101372237821
 30
0.0
 10
105.6510877557053
 20
-150.0101372237821
 30
0.0
 10
105.6831271437181
 20
-149.9171196456804
 30
0.0
 10
105.7062092834693
 20
-149.8323702967433
 30
0.0
 10
105.729635932769
 20
-149.7035237255949
 30
0.0
 10
105.729635932769
 20
-149.7035237255949
 30
0.0
 10
105.3635945374612
 20
-149.7035237255949
 30
0.0
 10
105.3635945374612
 20
-149.7035237255949
 30
0.0
  0
SPLINE
  5
F5
330
EF
100
AcDbEntity
  8
レイヤー 1
100
AcDbSpline
210
0.0
220
0.0
230
1.0
 70
     9
 71
     3
 72
   242
 73
   238
 74
     0
 42
0.0000000001
 43
0.0000000001
 40
0.0
 40
0.0
 40
0.0
 40
0.0
 40
1.0
 40
1.0
 40
1.0
 40
2.0
 40
2.0
 40
2.0
 40
3.0
 40
3.0
 40
3.0
 40
4.0
 40
4.0
 40
4.0
 40
5.0
 40
5.0
 40
5.0
 40
6.0
 40
6.0
 40
6.0
 40
7.0
 40
7.0
 40
7.0
 40
8.0
 40
8.0
 40
8.0
 40
9.0
 40
9.0
 40
9.0
 40
10.0
 40
10.0
 40
10.0
 40
11.0
 40
11.0
 40
11.0
 40
12.0
 40
12.0
 40
12.0
 40
13.0
 40
13.0
 40
13.0
 40
14.0
 40
14.0
 40
14.0
 40
15.0
 40
15.0
 40
15.0
 40
16.0
 40
16.0
 40
16.0
 40
17.0
 40
17.0
 40
17.0
 40
18.0
 40
18.0
 40
18.0
 40
19.0
 40
19.0
 40
19.0
 40
20.0
 40
20.0
 40
20.0
 40
21.0
 40
21.0
 40
21.0
 40
22.0
 40
22.0
 40
22.0
 40
23.0
 40
23.0
 40
23.0
 40
24.0
 40
24.0
 40
24.0
 40
25.0
 40
25.0
 40
25.0
 40
26.0
 40
26.0
 40
26.0
 40
27.0
 40
27.0
 40
27.0
 40
28.0
 40
28.0
 40
28.0
 40
29.0
 40
29.0
 40
29.0
 40
30.0
 40
30.0
 40
30.0
 40
31.0
 40
31.0
 40
31.0
 40
32.0
 40
32.0
 40
32.0
 40
33.0
 40
33.0
 40
33.0
 40
34.0
 40
34.0
 40
34.0
 40
35.0
 40
35.0
 40
35.0
 40
36.0
 40
36.0
 40
36.0
 40
37.0
 40
37.0
 40
37.0
 40
38.0
 40
38.0
 40
38.0
 40
39.0
 40
39.0
 40
39.0
 40
40.0
 40
40.0
 40
40.0
 40
41.0
 40
41.0
 40
41.0
 40
42.0
 40
42.0
 40
42.0
 40
43.0
 40
43.0
 40
43.0
 40
44.0
 40
44.0
 40
44.0
 40
45.0
 40
45.0
 40
45.0
 40
46.0
 40
46.0
 40
46.0
 40
47.0
 40
47.0
 40
47.0
 40
48.0
 40
48.0
 40
48.0
 40
49.0
 40
49.0
 40
49.0
 40
50.0
 40
50.0
 40
50.0
 40
51.0
 40
51.0
 40
51.0
 40
52.0
 40
52.0
 40
52.0
 40
53.0
 40
53.0
 40
53.0
 40
54.0
 40
54.0
 40
54.0
 40
55.0
 40
55.0
 40
55.0
 40
56.0
 40
56.0
 40
56.0
 40
57.0
 40
57.0
 40
57.0
 40
58.0
 40
58.0
 40
58.0
 40
59.0
 40
59.0
 40
59.0
 40
60.0
 40
60.0
 40
60.0
 40
61.0
 40
61.0
 40
61.0
 40
62.0
 40
62.0
 40
62.0
 40
63.0
 40
63.0
 40
63.0
 40
64.0
 40
64.0
 40
64.0
 40
65.0
 40
65.0
 40
65.0
 40
66.0
 40
66.0
 40
66.0
 40
67.0
 40
67.0
 40
67.0
 40
68.0
 40
68.0
 40
68.0
 40
69.0
 40
69.0
 40
69.0
 40
70.0
 40
70.0
 40
70.0
 40
71.0
 40
71.0
 40
71.0
 40
72.0
 40
72.0
 40
72.0
 40
73.0
 40
73.0
 40
73.0
 40
74.0
 40
74.0
 40
74.0
 40
75.0
 40
75.0
 40
75.0
 40
76.0
 40
76.0
 40
76.0
 40
77.0
 40
77.0
 40
77.0
 40
78.0
 40
78.0
 40
78.0
 40
79.0
 40
79.0
 40
79.0
 40
79.0
 10
105.9918076991965
 20
-150.1686116161037
 30
0.0
 10
105.9918076991965
 20
-150.1686116161037
 30
0.0
 10
105.7379041619336
 20
-150.1686116161037
 30
0.0
 10
105.7379041619336
 20
-150.1686116161037
 30
0.0
 10
105.7379041619336
 20
-150.1686116161037
 30
0.0
 10
105.4609184849195
 20
-150.1686116161037
 30
0.0
 10
105.4609184849195
 20
-150.1686116161037
 30
0.0
 10
105.4609184849195
 20
-150.1686116161037
 30
0.0
 10
105.5876979987767
 20
-150.2109862905722
 30
0.0
 10
105.5876979987767
 20
-150.2109862905722
 30
0.0
 10
105.598377794781
 20
-150.2154649147031
 30
0.0
 10
105.6111246480764
 20
-150.2216660865765
 30
0.0
 10
105.6111246480764
 20
-150.2344129398719
 30
0.0
 10
105.6111246480764
 20
-150.255428022332
 30
0.0
 10
105.5794297696121
 20
-150.2619737037539
 30
0.0
 10
105.5580701776035
 20
-150.2661078183362
 30
0.0
 10
105.5477348911478
 20
-150.2891899580874
 30
0.0
 10
105.5181070699746
 20
-150.3549912818557
 30
0.0
 10
105.4988145352572
 20
-150.3994330136154
 30
0.0
 10
105.4988145352572
 20
-150.3994330136154
 30
0.0
 10
105.7695990403979
 20
-150.3994330136154
 30
0.0
 10
105.7695990403979
 20
-150.3994330136154
 30
0.0
 10
105.8605495612084
 20
-150.3994330136154
 30
0.0
 10
106.0572645134162
 20
-150.3949543894846
 30
0.0
 10
106.1992024474085
 20
-150.38668616032
 30
0.0
 10
106.1992024474085
 20
-150.38668616032
 30
0.0
 10
106.1992024474085
 20
-150.5644530873589
 30
0.0
 10
106.1992024474085
 20
-150.5644530873589
 30
0.0
 10
106.1165201557625
 20
-150.559974463228
 30
0.0
 10
106.0955050733025
 20
-150.559974463228
 30
0.0
 10
105.9156710889725
 20
-150.5558403486458
 30
0.0
 10
105.8839762105082
 20
-150.7101806263849
 30
0.0
 10
105.8395344787484
 20
-150.7907958607398
 30
0.0
 10
105.7950927469887
 20
-150.8603867895418
 30
0.0
 10
105.9156710889725
 20
-150.9196424318881
 30
0.0
 10
106.0214355203696
 20
-150.9875108129475
 30
0.0
 10
106.1251328944756
 20
-151.069848595045
 30
0.0
 10
106.1251328944756
 20
-151.069848595045
 30
0.0
 10
106.006621609783
 20
-151.2369357260796
 30
0.0
 10
106.006621609783
 20
-151.2369357260796
 30
0.0
 10
105.9835394700319
 20
-151.2179877009108
 30
0.0
 10
105.9707926167364
 20
-151.2097194717462
 30
0.0
 10
105.8584825039173
 20
-151.124970122809
 30
0.0
 10
105.8099066575753
 20
-151.0867295629227
 30
0.0
 10
105.750651015229
 20
-151.0509005698762
 30
0.0
 10
105.6703802904227
 20
-151.0064588381164
 30
0.0
 10
105.4588514276283
 20
-151.1928385038684
 30
0.0
 10
105.2535237367074
 20
-151.2159206436196
 30
0.0
 10
104.9637912063979
 20
-151.2455484647928
 30
0.0
 10
104.9637912063979
 20
-151.2455484647928
 30
0.0
 10
104.8600938322919
 20
-151.0657144804627
 30
0.0
 10
104.8600938322919
 20
-151.0657144804627
 30
0.0
 10
105.1773871264834
 20
-151.0615803658804
 30
0.0
 10
105.3530869962312
 20
-151.0360866592896
 30
0.0
 10
105.5053602166792
 20
-150.9261881133101
 30
0.0
 10
105.3868489319866
 20
-150.8752007001284
 30
0.0
 10
105.2979654684672
 20
-150.8479844457949
 30
0.0
 10
105.2621364754205
 20
-150.8352375924995
 30
0.0
 10
105.2430161954774
 20
-150.8627983563815
 30
0.0
 10
105.2282022848908
 20
-150.8817463815504
 30
0.0
 10
105.2006415210088
 20
-150.9155083173058
 30
0.0
 10
105.2006415210088
 20
-150.9155083173058
 30
0.0
 10
105.0039265688011
 20
-150.8331705352084
 30
0.0
 10
105.0039265688011
 20
-150.8331705352084
 30
0.0
 10
105.0864366056728
 20
-150.7525553008535
 30
0.0
 10
105.1477593053103
 20
-150.6574706654606
 30
0.0
 10
105.2049478903654
 20
-150.5558403486458
 30
0.0
 10
105.0146063648053
 20
-150.559974463228
 30
0.0
 10
104.9934190275711
 20
-150.559974463228
 30
0.0
 10
104.9109089906993
 20
-150.5644530873589
 30
0.0
 10
104.9109089906993
 20
-150.5644530873589
 30
0.0
 10
104.9109089906993
 20
-150.38668616032
 30
0.0
 10
104.9109089906993
 20
-150.38668616032
 30
0.0
 10
105.050435357852
 20
-150.3928873321934
 30
0.0
 10
105.2598971633551
 20
-150.3973659563243
 30
0.0
 10
105.285390869946
 20
-150.3973659563243
 30
0.0
 10
105.3022718378237
 20
-150.3632595110203
 30
0.0
 10
105.3572211108135
 20
-150.2426811690365
 30
0.0
 10
105.3763413907566
 20
-150.1686116161037
 30
0.0
 10
105.3572211108135
 20
-150.1686116161037
 30
0.0
 10
105.1796264385488
 20
-150.1751572975256
 30
0.0
 10
104.9849785436322
 20
-150.1879041508211
 30
0.0
 10
104.9849785436322
 20
-150.1879041508211
 30
0.0
 10
104.9849785436322
 20
-150.3212293461002
 30
0.0
 10
104.9849785436322
 20
-150.3212293461002
 30
0.0
 10
104.9362304425159
 20
-150.3463785431426
 30
0.0
 10
104.8769748001696
 20
-150.3780734216068
 30
0.0
 10
104.7438218596647
 20
-150.4438747453751
 30
0.0
 10
104.7438218596647
 20
-150.4438747453751
 30
0.0
 10
104.7438218596647
 20
-150.5896022844012
 30
0.0
 10
104.7438218596647
 20
-150.5896022844012
 30
0.0
 10
104.7438218596647
 20
-150.5896022844012
 30
0.0
 10
104.7438218596647
 20
-151.0574462512981
 30
0.0
 10
104.7438218596647
 20
-151.0574462512981
 30
0.0
 10
104.7438218596647
 20
-151.1842257651553
 30
0.0
 10
104.7078206118439
 20
-151.2434814075016
 30
0.0
 10
104.4242892534078
 20
-151.2348686687885
 30
0.0
 10
104.4242892534078
 20
-151.2348686687885
 30
0.0
 10
104.3205918793018
 20
-151.027818430125
 30
0.0
 10
104.3205918793018
 20
-151.027818430125
 30
0.0
 10
104.3841538910046
 20
-151.0402207738719
 30
0.0
 10
104.4327297373467
 20
-151.0446993980027
 30
0.0
 10
104.4730373545241
 20
-151.0446993980027
 30
0.0
 10
104.5491739647481
 20
-151.0446993980027
 30
0.0
 10
104.5596815059781
 20
-151.021272748703
 30
0.0
 10
104.5596815059781
 20
-150.9558159344832
 30
0.0
 10
104.5596815059781
 20
-150.9558159344832
 30
0.0
 10
104.5596815059781
 20
-150.5262125274726
 30
0.0
 10
104.5596815059781
 20
-150.5262125274726
 30
0.0
 10
104.4623575585198
 20
-150.56652014465
 30
0.0
 10
104.4454765906421
 20
-150.5727213165235
 30
0.0
 10
104.3989678015912
 20
-150.5920138512409
 30
0.0
 10
104.3946614322347
 20
-150.6130289337009
 30
0.0
 10
104.3905273176523
 20
-150.642656754874
 30
0.0
 10
104.3714070377092
 20
-150.642656754874
 30
0.0
 10
104.3629665537703
 20
-150.642656754874
 30
0.0
 10
104.3524590125403
 20
-150.6385226402917
 30
0.0
 10
104.3460855858926
 20
-150.6150959909921
 30
0.0
 10
104.3460855858926
 20
-150.6150959909921
 30
0.0
 10
104.293203370194
 20
-150.4225151533666
 30
0.0
 10
104.293203370194
 20
-150.4225151533666
 30
0.0
 10
104.4391031639944
 20
-150.3760063643157
 30
0.0
 10
104.5047322329884
 20
-150.3529242245645
 30
0.0
 10
104.5596815059781
 20
-150.331564632556
 30
0.0
 10
104.5596815059781
 20
-150.331564632556
 30
0.0
 10
104.5596815059781
 20
-149.9191867029716
 30
0.0
 10
104.5596815059781
 20
-149.9191867029716
 30
0.0
 10
104.5596815059781
 20
-149.9191867029716
 30
0.0
 10
104.5067992902795
 20
-149.9191867029716
 30
0.0
 10
104.5067992902795
 20
-149.9191867029716
 30
0.0
 10
104.5067992902795
 20
-149.9191867029716
 30
0.0
 10
104.4285956227644
 20
-149.9191867029716
 30
0.0
 10
104.4285956227644
 20
-149.9191867029716
 30
0.0
 10
104.3608994964792
 20
-149.9191867029716
 30
0.0
 10
104.3524590125403
 20
-149.9191867029716
 30
0.0
 10
104.3164577647195
 20
-149.925387874845
 30
0.0
 10
104.3164577647195
 20
-149.925387874845
 30
0.0
 10
104.3164577647195
 20
-149.7307399799284
 30
0.0
 10
104.3164577647195
 20
-149.7307399799284
 30
0.0
 10
104.3440185286015
 20
-149.7372856613504
 30
0.0
 10
104.3524590125403
 20
-149.7372856613504
 30
0.0
 10
104.4222221961166
 20
-149.7372856613504
 30
0.0
 10
104.4222221961166
 20
-149.7372856613504
 30
0.0
 10
104.5555473913958
 20
-149.7372856613504
 30
0.0
 10
104.5555473913958
 20
-149.7372856613504
 30
0.0
 10
104.5555473913958
 20
-149.6673502229998
 30
0.0
 10
104.5555473913958
 20
-149.5850124409024
 30
0.0
 10
104.5533080793304
 20
-149.5805338167715
 30
0.0
 10
104.5448675953915
 20
-149.4006998324415
 30
0.0
 10
104.5448675953915
 20
-149.3817518072726
 30
0.0
 10
104.5428005381004
 20
-149.3352430182217
 30
0.0
 10
104.5428005381004
 20
-149.3352430182217
 30
0.0
 10
104.7586357702513
 20
-149.3438557569349
 30
0.0
 10
104.7586357702513
 20
-149.3438557569349
 30
0.0
 10
104.7691433114813
 20
-149.3438557569349
 30
0.0
 10
104.7903306487156
 20
-149.345922814226
 30
0.0
 10
104.7903306487156
 20
-149.3628037821037
 30
0.0
 10
104.7903306487156
 20
-149.3817518072726
 30
0.0
 10
104.775516738129
 20
-149.3924316032769
 30
0.0
 10
104.7501952863124
 20
-149.4113796284458
 30
0.0
 10
104.7501952863124
 20
-149.4620225320789
 30
0.0
 10
104.7438218596647
 20
-149.6907768722995
 30
0.0
 10
104.7458889169559
 20
-149.7372856613504
 30
0.0
 10
104.8749077428785
 20
-149.7372856613504
 30
0.0
 10
104.8876545961739
 20
-149.7372856613504
 30
0.0
 10
104.9849785436322
 20
-149.7286729226373
 30
0.0
 10
104.9849785436322
 20
-149.7286729226373
 30
0.0
 10
104.9849785436322
 20
-149.9233208175539
 30
0.0
 10
104.9849785436322
 20
-149.9233208175539
 30
0.0
 10
104.9469102385202
 20
-149.9212537602627
 30
0.0
 10
104.879214112235
 20
-149.9171196456804
 30
0.0
 10
104.7438218596647
 20
-149.9191867029716
 30
0.0
 10
104.7438218596647
 20
-149.9191867029716
 30
0.0
 10
104.7438218596647
 20
-150.2574950796231
 30
0.0
 10
104.7438218596647
 20
-150.2574950796231
 30
0.0
 10
104.7987711326545
 20
-150.2344129398719
 30
0.0
 10
104.8644002016485
 20
-150.2068521759899
 30
0.0
 10
104.9129760479905
 20
-150.1834255266902
 30
0.0
 10
104.9129760479905
 20
-150.1834255266902
 30
0.0
 10
104.9129760479905
 20
-150.0060031091999
 30
0.0
 10
104.9129760479905
 20
-150.0060031091999
 30
0.0
 10
105.0271809633265
 20
-150.0184054529468
 30
0.0
 10
105.1456922480191
 20
-150.0184054529468
 30
0.0
 10
105.2621364754205
 20
-150.0184054529468
 30
0.0
 10
105.2387098261209
 20
-149.9233208175539
 30
0.0
 10
105.2113213170131
 20
-149.8409830354564
 30
0.0
 10
105.1477593053103
 20
-149.7076578401772
 30
0.0
 10
105.1033175735506
 20
-149.7097248974684
 30
0.0
 10
105.0209797914531
 20
-149.7138590120507
 30
0.0
 10
104.9827392315668
 20
-149.7159260693418
 30
0.0
 10
104.9827392315668
 20
-149.7159260693418
 30
0.0
 10
104.9827392315668
 20
-149.5360920850118
 30
0.0
 10
104.9827392315668
 20
-149.5360920850118
 30
0.0
 10
105.1076239429071
 20
-149.5447048237249
 30
0.0
 10
105.2810845005894
 20
-149.5488389383072
 30
0.0
 10
105.3635945374612
 20
-149.5488389383072
 30
0.0
 10
105.3635945374612
 20
-149.5488389383072
 30
0.0
 10
105.4461045743329
 20
-149.5488389383072
 30
0.0
 10
105.4461045743329
 20
-149.5488389383072
 30
0.0
 10
105.4461045743329
 20
-149.3858859218549
 30
0.0
 10
105.4461045743329
 20
-149.3755506353991
 30
0.0
 10
105.4440375170418
 20
-149.3204291076351
 30
0.0
 10
105.4440375170418
 20
-149.3204291076351
 30
0.0
 10
105.6683132331315
 20
-149.345922814226
 30
0.0
 10
105.6683132331315
 20
-149.345922814226
 30
0.0
 10
105.6724473477138
 20
-149.345922814226
 30
0.0
 10
105.6934624301739
 20
-149.3479898715172
 30
0.0
 10
105.6934624301739
 20
-149.3648708393949
 30
0.0
 10
105.6934624301739
 20
-149.3796847499814
 30
0.0
 10
105.6831271437181
 20
-149.3882974886946
 30
0.0
 10
105.6555663798361
 20
-149.4031113992812
 30
0.0
 10
105.6490206984141
 20
-149.4685682135009
 30
0.0
 10
105.646953641123
 20
-149.4895832959609
 30
0.0
 10
105.646953641123
 20
-149.5488389383072
 30
0.0
 10
105.646953641123
 20
-149.5488389383072
 30
0.0
 10
105.7420382765159
 20
-149.5488389383072
 30
0.0
 10
105.7420382765159
 20
-149.5488389383072
 30
0.0
 10
105.8247205681619
 20
-149.5488389383072
 30
0.0
 10
105.9980088710699
 20
-149.5447048237249
 30
0.0
 10
106.1230658371845
 20
-149.5360920850118
 30
0.0
 10
106.1230658371845
 20
-149.5360920850118
 30
0.0
 10
106.1230658371845
 20
-149.7159260693418
 30
0.0
 10
106.1230658371845
 20
-149.7159260693418
 30
0.0
 10
106.0934380160113
 20
-149.7138590120507
 30
0.0
 10
105.9749267313188
 20
-149.7097248974684
 30
0.0
 10
105.9346191141413
 20
-149.7076578401772
 30
0.0
 10
105.9198052035547
 20
-149.7583007438104
 30
0.0
 10
105.8860432677993
 20
-149.8706108566296
 30
0.0
 10
105.8205864535796
 20
-150.0101372237821
 30
0.0
 10
105.8626166184996
 20
-150.0101372237821
 30
0.0
 10
106.1399468050622
 20
-149.9911891986133
 30
0.0
 10
106.2012695046997
 20
-149.9887776317736
 30
0.0
 10
106.2012695046997
 20
-149.9887776317736
 30
0.0
 10
106.2012695046997
 20
-150.1730902402345
 30
0.0
 10
106.2012695046997
 20
-150.1730902402345
 30
0.0
 10
106.1716416835265
 20
-150.1730902402345
 30
0.0
 10
106.1547607156488
 20
-150.1686116161037
 30
0.0
 10
105.9918076991965
 20
-150.1686116161037
 30
0.0
  0
HATCH
  5
F6
330
EF
100
AcDbEntity
  8
レイヤー 1
 62
    18
420
        0
440
 33554687
100
AcDbHatch
 10
0.0
 20
0.0
 30
0.0
210
0.0
220
0.0
230
1.0
  2
SOLID
 70
     1
 71
     1
 91
        3
 92
        1
 93
        1
 72
     4
 94
        3
 73
     0
 74
     0
 95
       17
 96
       13
 40
0.0
 40
0.0
 40
0.0
 40
0.0
 40
1.0
 40
1.0
 40
1.0
 40
2.0
 40
2.0
 40
2.0
 40
3.0
 40
3.0
 40
3.0
 40
4.0
 40
4.0
 40
4.0
 40
4.0
 10
105.427156549164
 20
-150.5537732913546
 10
105.410103326512
 20
-150.5834011125278
 10
105.3594604228789
 20
-150.6764186906295
 10
105.3487806268746
 20
-150.6953667157984
 10
105.5391221524347
 20
-150.7546223581447
 10
105.5601372348947
 20
-150.7611680395666
 10
105.6321397305364
 20
-150.7887288034486
 10
105.6872612583004
 20
-150.7019123972203
 10
105.7103433980516
 20
-150.6278428442875
 10
105.7251573086381
 20
-150.5537732913546
 10
105.7251573086381
 20
-150.5537732913546
 10
105.427156549164
 20
-150.5537732913546
 10
105.427156549164
 20
-150.5537732913546
 97
        0
 97
        1
330
F3
 92
        1
 93
        1
 72
     4
 94
        3
 73
     0
 74
     0
 95
       20
 96
       16
 40
0.0
 40
0.0
 40
0.0
 40
0.0
 40
1.0
 40
1.0
 40
1.0
 40
2.0
 40
2.0
 40
2.0
 40
3.0
 40
3.0
 40
3.0
 40
4.0
 40
4.0
 40
4.0
 40
5.0
 40
5.0
 40
5.0
 40
5.0
 10
105.3635945374612
 20
-149.7035237255949
 10
105.3635945374612
 20
-149.7035237255949
 10
105.3318996589969
 20
-149.7035237255949
 10
105.3318996589969
 20
-149.7035237255949
 10
105.3784084480477
 20
-149.8027424755701
 10
105.410103326512
 20
-149.8830132003764
 10
105.4440375170418
 20
-150.0101372237821
 10
105.4440375170418
 20
-150.0101372237821
 10
105.6510877557053
 20
-150.0101372237821
 10
105.6510877557053
 20
-150.0101372237821
 10
105.6831271437181
 20
-149.9171196456804
 10
105.7062092834693
 20
-149.8323702967433
 10
105.729635932769
 20
-149.7035237255949
 10
105.729635932769
 20
-149.7035237255949
 10
105.3635945374612
 20
-149.7035237255949
 10
105.3635945374612
 20
-149.7035237255949
 97
        0
 97
        1
330
F4
 92
        1
 93
        1
 72
     4
 94
        3
 73
     0
 74
     0
 95
      242
 96
      238
 40
0.0
 40
0.0
 40
0.0
 40
0.0
 40
1.0
 40
1.0
 40
1.0
 40
2.0
 40
2.0
 40
2.0
 40
3.0
 40
3.0
 40
3.0
 40
4.0
 40
4.0
 40
4.0
 40
5.0
 40
5.0
 40
5.0
 40
6.0
 40
6.0
 40
6.0
 40
7.0
 40
7.0
 40
7.0
 40
8.0
 40
8.0
 40
8.0
 40
9.0
 40
9.0
 40
9.0
 40
10.0
 40
10.0
 40
10.0
 40
11.0
 40
11.0
 40
11.0
 40
12.0
 40
12.0
 40
12.0
 40
13.0
 40
13.0
 40
13.0
 40
14.0
 40
14.0
 40
14.0
 40
15.0
 40
15.0
 40
15.0
 40
16.0
 40
16.0
 40
16.0
 40
17.0
 40
17.0
 40
17.0
 40
18.0
 40
18.0
 40
18.0
 40
19.0
 40
19.0
 40
19.0
 40
20.0
 40
20.0
 40
20.0
 40
21.0
 40
21.0
 40
21.0
 40
22.0
 40
22.0
 40
22.0
 40
23.0
 40
23.0
 40
23.0
 40
24.0
 40
24.0
 40
24.0
 40
25.0
 40
25.0
 40
25.0
 40
26.0
 40
26.0
 40
26.0
 40
27.0
 40
27.0
 40
27.0
 40
28.0
 40
28.0
 40
28.0
 40
29.0
 40
29.0
 40
29.0
 40
30.0
 40
30.0
 40
30.0
 40
31.0
 40
31.0
 40
31.0
 40
32.0
 40
32.0
 40
32.0
 40
33.0
 40
33.0
 40
33.0
 40
34.0
 40
34.0
 40
34.0
 40
35.0
 40
35.0
 40
35.0
 40
36.0
 40
36.0
 40
36.0
 40
37.0
 40
37.0
 40
37.0
 40
38.0
 40
38.0
 40
38.0
 40
39.0
 40
39.0
 40
39.0
 40
40.0
 40
40.0
 40
40.0
 40
41.0
 40
41.0
 40
41.0
 40
42.0
 40
42.0
 40
42.0
 40
43.0
 40
43.0
 40
43.0
 40
44.0
 40
44.0
 40
44.0
 40
45.0
 40
45.0
 40
45.0
 40
46.0
 40
46.0
 40
46.0
 40
47.0
 40
47.0
 40
47.0
 40
48.0
 40
48.0
 40
48.0
 40
49.0
 40
49.0
 40
49.0
 40
50.0
 40
50.0
 40
50.0
 40
51.0
 40
51.0
 40
51.0
 40
52.0
 40
52.0
 40
52.0
 40
53.0
 40
53.0
 40
53.0
 40
54.0
 40
54.0
 40
54.0
 40
55.0
 40
55.0
 40
55.0
 40
56.0
 40
56.0
 40
56.0
 40
57.0
 40
57.0
 40
57.0
 40
58.0
 40
58.0
 40
58.0
 40
59.0
 40
59.0
 40
59.0
 40
60.0
 40
60.0
 40
60.0
 40
61.0
 40
61.0
 40
61.0
 40
62.0
 40
62.0
 40
62.0
 40
63.0
 40
63.0
 40
63.0
 40
64.0
 40
64.0
 40
64.0
 40
65.0
 40
65.0
 40
65.0
 40
66.0
 40
66.0
 40
66.0
 40
67.0
 40
67.0
 40
67.0
 40
68.0
 40
68.0
 40
68.0
 40
69.0
 40
69.0
 40
69.0
 40
70.0
 40
70.0
 40
70.0
 40
71.0
 40
71.0
 40
71.0
 40
72.0
 40
72.0
 40
72.0
 40
73.0
 40
73.0
 40
73.0
 40
74.0
 40
74.0
 40
74.0
 40
75.0
 40
75.0
 40
75.0
 40
76.0
 40
76.0
 40
76.0
 40
77.0
 40
77.0
 40
77.0
 40
78.0
 40
78.0
 40
78.0
 40
79.0
 40
79.0
 40
79.0
 40
79.0
 10
105.9918076991965
 20
-150.1686116161037
 10
105.9918076991965
 20
-150.1686116161037
 10
105.7379041619336
 20
-150.1686116161037
 10
105.7379041619336
 20
-150.1686116161037
 10
105.7379041619336
 20
-150.1686116161037
 10
105.4609184849195
 20
-150.1686116161037
 10
105.4609184849195
 20
-150.1686116161037
 10
105.4609184849195
 20
-150.1686116161037
 10
105.5876979987767
 20
-150.2109862905722
 10
105.5876979987767
 20
-150.2109862905722
 10
105.598377794781
 20
-150.2154649147031
 10
105.6111246480764
 20
-150.2216660865765
 10
105.6111246480764
 20
-150.2344129398719
 10
105.6111246480764
 20
-150.255428022332
 10
105.5794297696121
 20
-150.2619737037539
 10
105.5580701776035
 20
-150.2661078183362
 10
105.5477348911478
 20
-150.2891899580874
 10
105.5181070699746
 20
-150.3549912818557
 10
105.4988145352572
 20
-150.3994330136154
 10
105.4988145352572
 20
-150.3994330136154
 10
105.7695990403979
 20
-150.3994330136154
 10
105.7695990403979
 20
-150.3994330136154
 10
105.8605495612084
 20
-150.3994330136154
 10
106.0572645134162
 20
-150.3949543894846
 10
106.1992024474085
 20
-150.38668616032
 10
106.1992024474085
 20
-150.38668616032
 10
106.1992024474085
 20
-150.5644530873589
 10
106.1992024474085
 20
-150.5644530873589
 10
106.1165201557625
 20
-150.559974463228
 10
106.0955050733025
 20
-150.559974463228
 10
105.9156710889725
 20
-150.5558403486458
 10
105.8839762105082
 20
-150.7101806263849
 10
105.8395344787484
 20
-150.7907958607398
 10
105.7950927469887
 20
-150.8603867895418
 10
105.9156710889725
 20
-150.9196424318881
 10
106.0214355203696
 20
-150.9875108129475
 10
106.1251328944756
 20
-151.069848595045
 10
106.1251328944756
 20
-151.069848595045
 10
106.006621609783
 20
-151.2369357260796
 10
106.006621609783
 20
-151.2369357260796
 10
105.9835394700319
 20
-151.2179877009108
 10
105.9707926167364
 20
-151.2097194717462
 10
105.8584825039173
 20
-151.124970122809
 10
105.8099066575753
 20
-151.0867295629227
 10
105.750651015229
 20
-151.0509005698762
 10
105.6703802904227
 20
-151.0064588381164
 10
105.4588514276283
 20
-151.1928385038684
 10
105.2535237367074
 20
-151.2159206436196
 10
104.9637912063979
 20
-151.2455484647928
 10
104.9637912063979
 20
-151.2455484647928
 10
104.8600938322919
 20
-151.0657144804627
 10
104.8600938322919
 20
-151.0657144804627
 10
105.1773871264834
 20
-151.0615803658804
 10
105.3530869962312
 20
-151.0360866592896
 10
105.5053602166792
 20
-150.9261881133101
 10
105.3868489319866
 20
-150.8752007001284
 10
105.2979654684672
 20
-150.8479844457949
 10
105.2621364754205
 20
-150.8352375924995
 10
105.2430161954774
 20
-150.8627983563815
 10
105.2282022848908
 20
-150.8817463815504
 10
105.2006415210088
 20
-150.9155083173058
 10
105.2006415210088
 20
-150.9155083173058
 10
105.0039265688011
 20
-150.8331705352084
 10
105.0039265688011
 20
-150.8331705352084
 10
105.0864366056728
 20
-150.7525553008535
 10
105.1477593053103
 20
-150.6574706654606
 10
105.2049478903654
 20
-150.5558403486458
 10
105.0146063648053
 20
-150.559974463228
 10
104.9934190275711
 20
-150.559974463228
 10
104.9109089906993
 20
-150.5644530873589
 10
104.9109089906993
 20
-150.5644530873589
 10
104.9109089906993
 20
-150.38668616032
 10
104.9109089906993
 20
-150.38668616032
 10
105.050435357852
 20
-150.3928873321934
 10
105.2598971633551
 20
-150.3973659563243
 10
105.285390869946
 20
-150.3973659563243
 10
105.3022718378237
 20
-150.3632595110203
 10
105.3572211108135
 20
-150.2426811690365
 10
105.3763413907566
 20
-150.1686116161037
 10
105.3572211108135
 20
-150.1686116161037
 10
105.1796264385488
 20
-150.1751572975256
 10
104.9849785436322
 20
-150.1879041508211
 10
104.9849785436322
 20
-150.1879041508211
 10
104.9849785436322
 20
-150.3212293461002
 10
104.9849785436322
 20
-150.3212293461002
 10
104.9362304425159
 20
-150.3463785431426
 10
104.8769748001696
 20
-150.3780734216068
 10
104.7438218596647
 20
-150.4438747453751
 10
104.7438218596647
 20
-150.4438747453751
 10
104.7438218596647
 20
-150.5896022844012
 10
104.7438218596647
 20
-150.5896022844012
 10
104.7438218596647
 20
-150.5896022844012
 10
104.7438218596647
 20
-151.0574462512981
 10
104.7438218596647
 20
-151.0574462512981
 10
104.7438218596647
 20
-151.1842257651553
 10
104.7078206118439
 20
-151.2434814075016
 10
104.4242892534078
 20
-151.2348686687885
 10
104.4242892534078
 20
-151.2348686687885
 10
104.3205918793018
 20
-151.027818430125
 10
104.3205918793018
 20
-151.027818430125
 10
104.3841538910046
 20
-151.0402207738719
 10
104.4327297373467
 20
-151.0446993980027
 10
104.4730373545241
 20
-151.0446993980027
 10
104.5491739647481
 20
-151.0446993980027
 10
104.5596815059781
 20
-151.021272748703
 10
104.5596815059781
 20
-150.9558159344832
 10
104.5596815059781
 20
-150.9558159344832
 10
104.5596815059781
 20
-150.5262125274726
 10
104.5596815059781
 20
-150.5262125274726
 10
104.4623575585198
 20
-150.56652014465
 10
104.4454765906421
 20
-150.5727213165235
 10
104.3989678015912
 20
-150.5920138512409
 10
104.3946614322347
 20
-150.6130289337009
 10
104.3905273176523
 20
-150.642656754874
 10
104.3714070377092
 20
-150.642656754874
 10
104.3629665537703
 20
-150.642656754874
 10
104.3524590125403
 20
-150.6385226402917
 10
104.3460855858926
 20
-150.6150959909921
 10
104.3460855858926
 20
-150.6150959909921
 10
104.293203370194
 20
-150.4225151533666
 10
104.293203370194
 20
-150.4225151533666
 10
104.4391031639944
 20
-150.3760063643157
 10
104.5047322329884
 20
-150.3529242245645
 10
104.5596815059781
 20
-150.331564632556
 10
104.5596815059781
 20
-150.331564632556
 10
104.5596815059781
 20
-149.9191867029716
 10
104.5596815059781
 20
-149.9191867029716
 10
104.5596815059781
 20
-149.9191867029716
 10
104.5067992902795
 20
-149.9191867029716
 10
104.5067992902795
 20
-149.9191867029716
 10
104.5067992902795
 20
-149.9191867029716
 10
104.4285956227644
 20
-149.9191867029716
 10
104.4285956227644
 20
-149.9191867029716
 10
104.3608994964792
 20
-149.9191867029716
 10
104.3524590125403
 20
-149.9191867029716
 10
104.3164577647195
 20
-149.925387874845
 10
104.3164577647195
 20
-149.925387874845
 10
104.3164577647195
 20
-149.7307399799284
 10
104.3164577647195
 20
-149.7307399799284
 10
104.3440185286015
 20
-149.7372856613504
 10
104.3524590125403
 20
-149.7372856613504
 10
104.4222221961166
 20
-149.7372856613504
 10
104.4222221961166
 20
-149.7372856613504
 10
104.5555473913958
 20
-149.7372856613504
 10
104.5555473913958
 20
-149.7372856613504
 10
104.5555473913958
 20
-149.6673502229998
 10
104.5555473913958
 20
-149.5850124409024
 10
104.5533080793304
 20
-149.5805338167715
 10
104.5448675953915
 20
-149.4006998324415
 10
104.5448675953915
 20
-149.3817518072726
 10
104.5428005381004
 20
-149.3352430182217
 10
104.5428005381004
 20
-149.3352430182217
 10
104.7586357702513
 20
-149.3438557569349
 10
104.7586357702513
 20
-149.3438557569349
 10
104.7691433114813
 20
-149.3438557569349
 10
104.7903306487156
 20
-149.345922814226
 10
104.7903306487156
 20
-149.3628037821037
 10
104.7903306487156
 20
-149.3817518072726
 10
104.775516738129
 20
-149.3924316032769
 10
104.7501952863124
 20
-149.4113796284458
 10
104.7501952863124
 20
-149.4620225320789
 10
104.7438218596647
 20
-149.6907768722995
 10
104.7458889169559
 20
-149.7372856613504
 10
104.8749077428785
 20
-149.7372856613504
 10
104.8876545961739
 20
-149.7372856613504
 10
104.9849785436322
 20
-149.7286729226373
 10
104.9849785436322
 20
-149.7286729226373
 10
104.9849785436322
 20
-149.9233208175539
 10
104.9849785436322
 20
-149.9233208175539
 10
104.9469102385202
 20
-149.9212537602627
 10
104.879214112235
 20
-149.9171196456804
 10
104.7438218596647
 20
-149.9191867029716
 10
104.7438218596647
 20
-149.9191867029716
 10
104.7438218596647
 20
-150.2574950796231
 10
104.7438218596647
 20
-150.2574950796231
 10
104.7987711326545
 20
-150.2344129398719
 10
104.8644002016485
 20
-150.2068521759899
 10
104.9129760479905
 20
-150.1834255266902
 10
104.9129760479905
 20
-150.1834255266902
 10
104.9129760479905
 20
-150.0060031091999
 10
104.9129760479905
 20
-150.0060031091999
 10
105.0271809633265
 20
-150.0184054529468
 10
105.1456922480191
 20
-150.0184054529468
 10
105.2621364754205
 20
-150.0184054529468
 10
105.2387098261209
 20
-149.9233208175539
 10
105.2113213170131
 20
-149.8409830354564
 10
105.1477593053103
 20
-149.7076578401772
 10
105.1033175735506
 20
-149.7097248974684
 10
105.0209797914531
 20
-149.7138590120507
 10
104.9827392315668
 20
-149.7159260693418
 10
104.9827392315668
 20
-149.7159260693418
 10
104.9827392315668
 20
-149.5360920850118
 10
104.9827392315668
 20
-149.5360920850118
 10
105.1076239429071
 20
-149.5447048237249
 10
105.2810845005894
 20
-149.5488389383072
 10
105.3635945374612
 20
-149.5488389383072
 10
105.3635945374612
 20
-149.5488389383072
 10
105.4461045743329
 20
-149.5488389383072
 10
105.4461045743329
 20
-149.5488389383072
 10
105.4461045743329
 20
-149.3858859218549
 10
105.4461045743329
 20
-149.3755506353991
 10
105.4440375170418
 20
-149.3204291076351
 10
105.4440375170418
 20
-149.3204291076351
 10
105.6683132331315
 20
-149.345922814226
 10
105.6683132331315
 20
-149.345922814226
 10
105.6724473477138
 20
-149.345922814226
 10
105.6934624301739
 20
-149.3479898715172
 10
105.6934624301739
 20
-149.3648708393949
 10
105.6934624301739
 20
-149.3796847499814
 10
105.6831271437181
 20
-149.3882974886946
 10
105.6555663798361
 20
-149.4031113992812
 10
105.6490206984141
 20
-149.4685682135009
 10
105.646953641123
 20
-149.4895832959609
 10
105.646953641123
 20
-149.5488389383072
 10
105.646953641123
 20
-149.5488389383072
 10
105.7420382765159
 20
-149.5488389383072
 10
105.7420382765159
 20
-149.5488389383072
 10
105.8247205681619
 20
-149.5488389383072
 10
105.9980088710699
 20
-149.5447048237249
 10
106.1230658371845
 20
-149.5360920850118
 10
106.1230658371845
 20
-149.5360920850118
 10
106.1230658371845
 20
-149.7159260693418
 10
106.1230658371845
 20
-149.7159260693418
 10
106.0934380160113
 20
-149.7138590120507
 10
105.9749267313188
 20
-149.7097248974684
 10
105.9346191141413
 20
-149.7076578401772
 10
105.9198052035547
 20
-149.7583007438104
 10
105.8860432677993
 20
-149.8706108566296
 10
105.8205864535796
 20
-150.0101372237821
 10
105.8626166184996
 20
-150.0101372237821
 10
106.1399468050622
 20
-149.9911891986133
 10
106.2012695046997
 20
-149.9887776317736
 10
106.2012695046997
 20
-149.9887776317736
 10
106.2012695046997
 20
-150.1730902402345
 10
106.2012695046997
 20
-150.1730902402345
 10
106.1716416835265
 20
-150.1730902402345
 10
106.1547607156488
 20
-150.1686116161037
 10
105.9918076991965
 20
-150.1686116161037
 97
        0
 97
        1
330
F5
 75
     2
 76
     1
 98
        1
 10
0.0
 20
0.0
450
        0
451
        0
460
0.0
461
0.0
452
        0
462
0.0
453
        0
470

  0
SPLINE
  5
F7
330
EF
100
AcDbEntity
  8
レイヤー 1
100
AcDbSpline
210
0.0
220
0.0
230
1.0
 70
    11
 71
     3
 72
    17
 73
    13
 74
     0
 42
0.0000000001
 43
0.0000000001
 40
0.0
 40
0.0
 40
0.0
 40
0.0
 40
1.0
 40
1.0
 40
1.0
 40
2.0
 40
2.0
 40
2.0
 40
3.0
 40
3.0
 40
3.0
 40
4.0
 40
4.0
 40
4.0
 40
4.0
 10
107.8483696561976
 20
-150.9685627877787
 30
0.0
 10
107.8483696561976
 20
-150.9685627877787
 30
0.0
 10
107.1417805721729
 20
-150.9685627877787
 30
0.0
 10
107.1417805721729
 20
-150.9685627877787
 30
0.0
 10
107.1417805721729
 20
-150.9685627877787
 30
0.0
 10
107.1417805721729
 20
-151.0825954483405
 30
0.0
 10
107.1417805721729
 20
-151.0825954483405
 30
0.0
 10
107.1417805721729
 20
-151.0825954483405
 30
0.0
 10
107.8483696561976
 20
-151.0825954483405
 30
0.0
 10
107.8483696561976
 20
-151.0825954483405
 30
0.0
 10
107.8483696561976
 20
-151.0825954483405
 30
0.0
 10
107.8483696561976
 20
-150.9685627877787
 30
0.0
 10
107.8483696561976
 20
-150.9685627877787
 30
0.0
  0
SPLINE
  5
F8
330
EF
100
AcDbEntity
  8
レイヤー 1
100
AcDbSpline
210
0.0
220
0.0
230
1.0
 70
    11
 71
     3
 72
    17
 73
    13
 74
     0
 42
0.0000000001
 43
0.0000000001
 40
0.0
 40
0.0
 40
0.0
 40
0.0
 40
1.0
 40
1.0
 40
1.0
 40
2.0
 40
2.0
 40
2.0
 40
3.0
 40
3.0
 40
3.0
 40
4.0
 40
4.0
 40
4.0
 40
4.0
 10
107.8483696561976
 20
-150.7249945369715
 30
0.0
 10
107.8483696561976
 20
-150.7249945369715
 30
0.0
 10
107.1417805721729
 20
-150.7249945369715
 30
0.0
 10
107.1417805721729
 20
-150.7249945369715
 30
0.0
 10
107.1417805721729
 20
-150.7249945369715
 30
0.0
 10
107.1417805721729
 20
-150.8393717070818
 30
0.0
 10
107.1417805721729
 20
-150.8393717070818
 30
0.0
 10
107.1417805721729
 20
-150.8393717070818
 30
0.0
 10
107.8483696561976
 20
-150.8393717070818
 30
0.0
 10
107.8483696561976
 20
-150.8393717070818
 30
0.0
 10
107.8483696561976
 20
-150.8393717070818
 30
0.0
 10
107.8483696561976
 20
-150.7249945369715
 30
0.0
 10
107.8483696561976
 20
-150.7249945369715
 30
0.0
  0
SPLINE
  5
F9
330
EF
100
AcDbEntity
  8
レイヤー 1
100
AcDbSpline
210
0.0
220
0.0
230
1.0
 70
    11
 71
     3
 72
    17
 73
    13
 74
     0
 42
0.0000000001
 43
0.0000000001
 40
0.0
 40
0.0
 40
0.0
 40
0.0
 40
1.0
 40
1.0
 40
1.0
 40
2.0
 40
2.0
 40
2.0
 40
3.0
 40
3.0
 40
3.0
 40
4.0
 40
4.0
 40
4.0
 40
4.0
 10
107.8483696561976
 20
-150.4924505917171
 30
0.0
 10
107.8483696561976
 20
-150.4924505917171
 30
0.0
 10
107.1417805721729
 20
-150.4924505917171
 30
0.0
 10
107.1417805721729
 20
-150.4924505917171
 30
0.0
 10
107.1417805721729
 20
-150.4924505917171
 30
0.0
 10
107.1417805721729
 20
-150.6002820804055
 30
0.0
 10
107.1417805721729
 20
-150.6002820804055
 30
0.0
 10
107.1417805721729
 20
-150.6002820804055
 30
0.0
 10
107.8483696561976
 20
-150.6002820804055
 30
0.0
 10
107.8483696561976
 20
-150.6002820804055
 30
0.0
 10
107.8483696561976
 20
-150.6002820804055
 30
0.0
 10
107.8483696561976
 20
-150.4924505917171
 30
0.0
 10
107.8483696561976
 20
-150.4924505917171
 30
0.0
  0
SPLINE
  5
FA
330
EF
100
AcDbEntity
  8
レイヤー 1
100
AcDbSpline
210
0.0
220
0.0
230
1.0
 70
     9
 71
     3
 72
   203
 73
   199
 74
     0
 42
0.0000000001
 43
0.0000000001
 40
0.0
 40
0.0
 40
0.0
 40
0.0
 40
1.0
 40
1.0
 40
1.0
 40
2.0
 40
2.0
 40
2.0
 40
3.0
 40
3.0
 40
3.0
 40
4.0
 40
4.0
 40
4.0
 40
5.0
 40
5.0
 40
5.0
 40
6.0
 40
6.0
 40
6.0
 40
7.0
 40
7.0
 40
7.0
 40
8.0
 40
8.0
 40
8.0
 40
9.0
 40
9.0
 40
9.0
 40
10.0
 40
10.0
 40
10.0
 40
11.0
 40
11.0
 40
11.0
 40
12.0
 40
12.0
 40
12.0
 40
13.0
 40
13.0
 40
13.0
 40
14.0
 40
14.0
 40
14.0
 40
15.0
 40
15.0
 40
15.0
 40
16.0
 40
16.0
 40
16.0
 40
17.0
 40
17.0
 40
17.0
 40
18.0
 40
18.0
 40
18.0
 40
19.0
 40
19.0
 40
19.0
 40
20.0
 40
20.0
 40
20.0
 40
21.0
 40
21.0
 40
21.0
 40
22.0
 40
22.0
 40
22.0
 40
23.0
 40
23.0
 40
23.0
 40
24.0
 40
24.0
 40
24.0
 40
25.0
 40
25.0
 40
25.0
 40
26.0
 40
26.0
 40
26.0
 40
27.0
 40
27.0
 40
27.0
 40
28.0
 40
28.0
 40
28.0
 40
29.0
 40
29.0
 40
29.0
 40
30.0
 40
30.0
 40
30.0
 40
31.0
 40
31.0
 40
31.0
 40
32.0
 40
32.0
 40
32.0
 40
33.0
 40
33.0
 40
33.0
 40
34.0
 40
34.0
 40
34.0
 40
35.0
 40
35.0
 40
35.0
 40
36.0
 40
36.0
 40
36.0
 40
37.0
 40
37.0
 40
37.0
 40
38.0
 40
38.0
 40
38.0
 40
39.0
 40
39.0
 40
39.0
 40
40.0
 40
40.0
 40
40.0
 40
41.0
 40
41.0
 40
41.0
 40
42.0
 40
42.0
 40
42.0
 40
43.0
 40
43.0
 40
43.0
 40
44.0
 40
44.0
 40
44.0
 40
45.0
 40
45.0
 40
45.0
 40
46.0
 40
46.0
 40
46.0
 40
47.0
 40
47.0
 40
47.0
 40
48.0
 40
48.0
 40
48.0
 40
49.0
 40
49.0
 40
49.0
 40
50.0
 40
50.0
 40
50.0
 40
51.0
 40
51.0
 40
51.0
 40
52.0
 40
52.0
 40
52.0
 40
53.0
 40
53.0
 40
53.0
 40
54.0
 40
54.0
 40
54.0
 40
55.0
 40
55.0
 40
55.0
 40
56.0
 40
56.0
 40
56.0
 40
57.0
 40
57.0
 40
57.0
 40
58.0
 40
58.0
 40
58.0
 40
59.0
 40
59.0
 40
59.0
 40
60.0
 40
60.0
 40
60.0
 40
61.0
 40
61.0
 40
61.0
 40
62.0
 40
62.0
 40
62.0
 40
63.0
 40
63.0
 40
63.0
 40
64.0
 40
64.0
 40
64.0
 40
65.0
 40
65.0
 40
65.0
 40
66.0
 40
66.0
 40
66.0
 40
66.0
 10
107.6833495824542
 20
-150.2364799971631
 30
0.0
 10
107.6833495824542
 20
-150.2364799971631
 30
0.0
 10
107.1248996042951
 20
-150.2364799971631
 30
0.0
 10
107.1248996042951
 20
-150.2364799971631
 30
0.0
 10
107.1142198082909
 20
-150.2809217289228
 30
0.0
 10
107.1056070695777
 20
-150.3126166073871
 30
0.0
 10
107.0932047258309
 20
-150.3508571672734
 30
0.0
 10
107.1183539228732
 20
-150.3508571672734
 30
0.0
 10
107.1331678334597
 20
-150.3529242245645
 30
0.0
 10
107.1397135148817
 20
-150.3529242245645
 30
0.0
 10
107.1397135148817
 20
-150.3529242245645
 30
0.0
 10
107.3278157283763
 20
-150.3529242245645
 30
0.0
 10
107.3278157283763
 20
-150.3529242245645
 30
0.0
 10
107.3278157283763
 20
-150.3529242245645
 30
0.0
 10
107.702297607623
 20
-150.3529242245645
 30
0.0
 10
107.702297607623
 20
-150.3529242245645
 30
0.0
 10
107.7529405112562
 20
-150.3529242245645
 30
0.0
 10
108.0364718696922
 20
-150.3401773712691
 30
0.0
 10
108.0681667481566
 20
-150.3401773712691
 30
0.0
 10
108.0660996908654
 20
-150.3677381351511
 30
0.0
 10
108.0640326335742
 20
-150.38668616032
 30
0.0
 10
108.0640326335742
 20
-150.4163139814931
 30
0.0
 10
108.0619655762831
 20
-150.4480088599574
 30
0.0
 10
108.0619655762831
 20
-150.5834011125278
 30
0.0
 10
108.0619655762831
 20
-150.6109618764097
 30
0.0
 10
108.0619655762831
 20
-150.6109618764097
 30
0.0
 10
108.0619655762831
 20
-150.8562526749595
 30
0.0
 10
108.0619655762831
 20
-150.8562526749595
 30
0.0
 10
108.0619655762831
 20
-150.9006944067193
 30
0.0
 10
108.0660996908654
 20
-151.097409358927
 30
0.0
 10
108.0705783149962
 20
-151.2496825793751
 30
0.0
 10
108.0705783149962
 20
-151.2496825793751
 30
0.0
 10
107.8438910320668
 20
-151.2496825793751
 30
0.0
 10
107.8438910320668
 20
-151.2496825793751
 30
0.0
 10
107.8438910320668
 20
-151.2496825793751
 30
0.0
 10
107.8463025989065
 20
-151.2159206436196
 30
0.0
 10
107.8463025989065
 20
-151.2159206436196
 30
0.0
 10
107.8463025989065
 20
-151.2159206436196
 30
0.0
 10
107.143847629464
 20
-151.2159206436196
 30
0.0
 10
107.143847629464
 20
-151.2159206436196
 30
0.0
 10
107.143847629464
 20
-151.2159206436196
 30
0.0
 10
107.1459146867552
 20
-151.2496825793751
 30
0.0
 10
107.1459146867552
 20
-151.2496825793751
 30
0.0
 10
107.1459146867552
 20
-151.2496825793751
 30
0.0
 10
106.9281846520874
 20
-151.2496825793751
 30
0.0
 10
106.9281846520874
 20
-151.2496825793751
 30
0.0
 10
106.9323187666697
 20
-151.1949055611596
 30
0.0
 10
106.9323187666697
 20
-151.1821587078642
 30
0.0
 10
106.9385199385431
 20
-151.0677815377539
 30
0.0
 10
106.9405869958343
 20
-151.0402207738719
 30
0.0
 10
106.9429985626739
 20
-150.9072400881412
 30
0.0
 10
106.9429985626739
 20
-150.8879475534238
 30
0.0
 10
106.9429985626739
 20
-150.8879475534238
 30
0.0
 10
106.9429985626739
 20
-150.6850314293426
 30
0.0
 10
106.9429985626739
 20
-150.6850314293426
 30
0.0
 10
106.8031276859728
 20
-150.9344563424747
 30
0.0
 10
106.633973497647
 20
-151.0657144804627
 30
0.0
 10
106.5282090662499
 20
-151.1311712946825
 30
0.0
 10
106.5282090662499
 20
-151.1311712946825
 30
0.0
 10
106.3545762537933
 20
-150.9916449275299
 30
0.0
 10
106.3545762537933
 20
-150.9916449275299
 30
0.0
 10
106.4434597173127
 20
-150.9410020238967
 30
0.0
 10
106.5874647085962
 20
-150.8541856176684
 30
0.0
 10
106.7249240184576
 20
-150.6595377227518
 30
0.0
 10
106.8158745392682
 20
-150.5327582088946
 30
0.0
 10
106.8816758630365
 20
-150.3887532176111
 30
0.0
 10
106.915437798792
 20
-150.2364799971631
 30
0.0
 10
106.6870279681199
 20
-150.2385470544543
 30
0.0
 10
106.5071939837898
 20
-150.2450927358762
 30
0.0
 10
106.4117648388484
 20
-150.2471597931674
 30
0.0
 10
106.4117648388484
 20
-150.2471597931674
 30
0.0
 10
106.4117648388484
 20
-150.0693928661284
 30
0.0
 10
106.4117648388484
 20
-150.0693928661284
 30
0.0
 10
106.6084797910562
 20
-150.0755940380019
 30
0.0
 10
106.8920111494922
 20
-150.0800726621328
 30
0.0
 10
107.0422173126492
 20
-150.0800726621328
 30
0.0
 10
107.0422173126492
 20
-150.0800726621328
 30
0.0
 10
107.2558132327346
 20
-150.0800726621328
 30
0.0
 10
107.2558132327346
 20
-150.0800726621328
 30
0.0
 10
107.2558132327346
 20
-150.0800726621328
 30
0.0
 10
107.2558132327346
 20
-149.9718966638959
 30
0.0
 10
107.2558132327346
 20
-149.9718966638959
 30
0.0
 10
107.2558132327346
 20
-149.9718966638959
 30
0.0
 10
107.1100856937086
 20
-149.9718966638959
 30
0.0
 10
107.1100856937086
 20
-149.9718966638959
 30
0.0
 10
106.9405869958343
 20
-149.9718966638959
 30
0.0
 10
106.7714328075085
 20
-149.9763752880267
 30
0.0
 10
106.6043456764739
 20
-149.9825764599002
 30
0.0
 10
106.6043456764739
 20
-149.9825764599002
 30
0.0
 10
106.6043456764739
 20
-149.8113552142832
 30
0.0
 10
106.6043456764739
 20
-149.8113552142832
 30
0.0
 10
106.7586859542131
 20
-149.821690500739
 30
0.0
 10
106.9450656199651
 20
-149.821690500739
 30
0.0
 10
107.1100856937086
 20
-149.821690500739
 30
0.0
 10
107.1100856937086
 20
-149.821690500739
 30
0.0
 10
107.2558132327346
 20
-149.821690500739
 30
0.0
 10
107.2558132327346
 20
-149.821690500739
 30
0.0
 10
107.2558132327346
 20
-149.821690500739
 30
0.0
 10
107.2558132327346
 20
-149.7035237255949
 30
0.0
 10
107.2558132327346
 20
-149.7035237255949
 30
0.0
 10
107.2558132327346
 20
-149.7035237255949
 30
0.0
 10
107.1248996042951
 20
-149.7035237255949
 30
0.0
 10
107.1248996042951
 20
-149.7035237255949
 30
0.0
 10
107.0783908152443
 20
-149.7035237255949
 30
0.0
 10
106.8751301816145
 20
-149.7117919547595
 30
0.0
 10
106.8327555071459
 20
-149.7117919547595
 30
0.0
 10
106.6298393830647
 20
-149.7159260693418
 30
0.0
 10
106.5537027728407
 20
-149.717993126633
 30
0.0
 10
106.4754991053255
 20
-149.7204046934727
 30
0.0
 10
106.4754991053255
 20
-149.7204046934727
 30
0.0
 10
106.4754991053255
 20
-149.5360920850118
 30
0.0
 10
106.4754991053255
 20
-149.5360920850118
 30
0.0
 10
106.5895317658873
 20
-149.5447048237249
 30
0.0
 10
106.633973497647
 20
-149.5447048237249
 30
0.0
 10
107.0170681156068
 20
-149.553317562438
 30
0.0
 10
106.9533338491297
 20
-149.4578884174966
 30
0.0
 10
106.9257730852477
 20
-149.4303276536146
 30
0.0
 10
106.8899440922011
 20
-149.394498660568
 30
0.0
 10
106.8899440922011
 20
-149.394498660568
 30
0.0
 10
107.0656439619488
 20
-149.311816368922
 30
0.0
 10
107.0656439619488
 20
-149.311816368922
 30
0.0
 10
107.1056070695777
 20
-149.3479898715172
 30
0.0
 10
107.1500488013375
 20
-149.3903645459857
 30
0.0
 10
107.2241183542703
 20
-149.5002630919652
 30
0.0
 10
107.2241183542703
 20
-149.5002630919652
 30
0.0
 10
107.1100856937086
 20
-149.5553846197292
 30
0.0
 10
107.1100856937086
 20
-149.5553846197292
 30
0.0
 10
107.1100856937086
 20
-149.5553846197292
 30
0.0
 10
107.1204209801643
 20
-149.5553846197292
 30
0.0
 10
107.1204209801643
 20
-149.5553846197292
 30
0.0
 10
107.1204209801643
 20
-149.5553846197292
 30
0.0
 10
107.6430419652767
 20
-149.5553846197292
 30
0.0
 10
107.6430419652767
 20
-149.5553846197292
 30
0.0
 10
107.6430419652767
 20
-149.5553846197292
 30
0.0
 10
107.5479573298838
 20
-149.5109428879695
 30
0.0
 10
107.5479573298838
 20
-149.5109428879695
 30
0.0
 10
107.5755180937658
 20
-149.4727023280832
 30
0.0
 10
107.6323621692724
 20
-149.3924316032769
 30
0.0
 10
107.647176079859
 20
-149.318362050344
 30
0.0
 10
107.647176079859
 20
-149.318362050344
 30
0.0
 10
107.861116509493
 20
-149.3817518072726
 30
0.0
 10
107.861116509493
 20
-149.3817518072726
 30
0.0
 10
107.8693847386576
 20
-149.3838188645637
 30
0.0
 10
107.8907443306662
 20
-149.394498660568
 30
0.0
 10
107.8907443306662
 20
-149.4155137430281
 30
0.0
 10
107.8907443306662
 20
-149.4537543029143
 30
0.0
 10
107.8249430068979
 20
-149.4537543029143
 30
0.0
 10
107.805994981729
 20
-149.4537543029143
 30
0.0
 10
107.7953151857248
 20
-149.4727023280832
 30
0.0
 10
107.7722330459736
 20
-149.5130099452606
 30
0.0
 10
107.7426052248005
 20
-149.553317562438
 30
0.0
 10
108.1422363010894
 20
-149.5467718810161
 30
0.0
 10
108.1718641222626
 20
-149.5447048237249
 30
0.0
 10
108.2480007324866
 20
-149.5385036518515
 30
0.0
 10
108.2480007324866
 20
-149.5385036518515
 30
0.0
 10
108.2480007324866
 20
-149.7204046934727
 30
0.0
 10
108.2480007324866
 20
-149.7204046934727
 30
0.0
 10
108.2290527073177
 20
-149.7204046934727
 30
0.0
 10
108.2035590007269
 20
-149.717993126633
 30
0.0
 10
107.9837619087679
 20
-149.7097248974684
 30
0.0
 10
107.9327744955862
 20
-149.7076578401772
 30
0.0
 10
107.7129774036273
 20
-149.7035237255949
 30
0.0
 10
107.6685356718676
 20
-149.7035237255949
 30
0.0
 10
107.6685356718676
 20
-149.7035237255949
 30
0.0
 10
107.4525281849424
 20
-149.7035237255949
 30
0.0
 10
107.4525281849424
 20
-149.7035237255949
 30
0.0
 10
107.4525281849424
 20
-149.7035237255949
 30
0.0
 10
107.4525281849424
 20
-149.821690500739
 30
0.0
 10
107.4525281849424
 20
-149.821690500739
 30
0.0
 10
107.4525281849424
 20
-149.821690500739
 30
0.0
 10
107.626160997399
 20
-149.821690500739
 30
0.0
 10
107.626160997399
 20
-149.821690500739
 30
0.0
 10
107.7891140138513
 20
-149.821690500739
 30
0.0
 10
107.9792832846371
 20
-149.821690500739
 30
0.0
 10
108.136035129216
 20
-149.8113552142832
 30
0.0
 10
108.136035129216
 20
-149.8113552142832
 30
0.0
 10
108.136035129216
 20
-149.9825764599002
 30
0.0
 10
108.136035129216
 20
-149.9825764599002
 30
0.0
 10
107.9265733237128
 20
-149.9743082307356
 30
0.0
 10
107.729858371505
 20
-149.9718966638959
 30
0.0
 10
107.626160997399
 20
-149.9718966638959
 30
0.0
 10
107.626160997399
 20
-149.9718966638959
 30
0.0
 10
107.4525281849424
 20
-149.9718966638959
 30
0.0
 10
107.4525281849424
 20
-149.9718966638959
 30
0.0
 10
107.4525281849424
 20
-149.9718966638959
 30
0.0
 10
107.4525281849424
 20
-150.0800726621328
 30
0.0
 10
107.4525281849424
 20
-150.0800726621328
 30
0.0
 10
107.4525281849424
 20
-150.0800726621328
 30
0.0
 10
107.6833495824542
 20
-150.0800726621328
 30
0.0
 10
107.6833495824542
 20
-150.0800726621328
 30
0.0
 10
107.8166747777333
 20
-150.0800726621328
 30
0.0
 10
108.1043402507517
 20
-150.0755940380019
 30
0.0
 10
108.3138020562549
 20
-150.0693928661284
 30
0.0
 10
108.3138020562549
 20
-150.0693928661284
 30
0.0
 10
108.3138020562549
 20
-150.2471597931674
 30
0.0
 10
108.3138020562549
 20
-150.2471597931674
 30
0.0
 10
108.1212212186294
 20
-150.2406141117454
 30
0.0
 10
107.8080620390202
 20
-150.2364799971631
 30
0.0
 10
107.6833495824542
 20
-150.2364799971631
 30
0.0
  0
HATCH
  5
FB
330
EF
100
AcDbEntity
  8
レイヤー 1
 62
    18
420
        0
440
 33554687
100
AcDbHatch
 10
0.0
 20
0.0
 30
0.0
210
0.0
220
0.0
230
1.0
  2
SOLID
 70
     1
 71
     1
 91
        4
 92
        1
 93
        1
 72
     4
 94
        3
 73
     0
 74
     0
 95
       17
 96
       13
 40
0.0
 40
0.0
 40
0.0
 40
0.0
 40
1.0
 40
1.0
 40
1.0
 40
2.0
 40
2.0
 40
2.0
 40
3.0
 40
3.0
 40
3.0
 40
4.0
 40
4.0
 40
4.0
 40
4.0
 10
107.8483696561976
 20
-150.9685627877787
 10
107.8483696561976
 20
-150.9685627877787
 10
107.1417805721729
 20
-150.9685627877787
 10
107.1417805721729
 20
-150.9685627877787
 10
107.1417805721729
 20
-150.9685627877787
 10
107.1417805721729
 20
-151.0825954483405
 10
107.1417805721729
 20
-151.0825954483405
 10
107.1417805721729
 20
-151.0825954483405
 10
107.8483696561976
 20
-151.0825954483405
 10
107.8483696561976
 20
-151.0825954483405
 10
107.8483696561976
 20
-151.0825954483405
 10
107.8483696561976
 20
-150.9685627877787
 10
107.8483696561976
 20
-150.9685627877787
 97
        0
 97
        1
330
F7
 92
        1
 93
        1
 72
     4
 94
        3
 73
     0
 74
     0
 95
       17
 96
       13
 40
0.0
 40
0.0
 40
0.0
 40
0.0
 40
1.0
 40
1.0
 40
1.0
 40
2.0
 40
2.0
 40
2.0
 40
3.0
 40
3.0
 40
3.0
 40
4.0
 40
4.0
 40
4.0
 40
4.0
 10
107.8483696561976
 20
-150.7249945369715
 10
107.8483696561976
 20
-150.7249945369715
 10
107.1417805721729
 20
-150.7249945369715
 10
107.1417805721729
 20
-150.7249945369715
 10
107.1417805721729
 20
-150.7249945369715
 10
107.1417805721729
 20
-150.8393717070818
 10
107.1417805721729
 20
-150.8393717070818
 10
107.1417805721729
 20
-150.8393717070818
 10
107.8483696561976
 20
-150.8393717070818
 10
107.8483696561976
 20
-150.8393717070818
 10
107.8483696561976
 20
-150.8393717070818
 10
107.8483696561976
 20
-150.7249945369715
 10
107.8483696561976
 20
-150.7249945369715
 97
        0
 97
        1
330
F8
 92
        1
 93
        1
 72
     4
 94
        3
 73
     0
 74
     0
 95
       17
 96
       13
 40
0.0
 40
0.0
 40
0.0
 40
0.0
 40
1.0
 40
1.0
 40
1.0
 40
2.0
 40
2.0
 40
2.0
 40
3.0
 40
3.0
 40
3.0
 40
4.0
 40
4.0
 40
4.0
 40
4.0
 10
107.8483696561976
 20
-150.4924505917171
 10
107.8483696561976
 20
-150.4924505917171
 10
107.1417805721729
 20
-150.4924505917171
 10
107.1417805721729
 20
-150.4924505917171
 10
107.1417805721729
 20
-150.4924505917171
 10
107.1417805721729
 20
-150.6002820804055
 10
107.1417805721729
 20
-150.6002820804055
 10
107.1417805721729
 20
-150.6002820804055
 10
107.8483696561976
 20
-150.6002820804055
 10
107.8483696561976
 20
-150.6002820804055
 10
107.8483696561976
 20
-150.6002820804055
 10
107.8483696561976
 20
-150.4924505917171
 10
107.8483696561976
 20
-150.4924505917171
 97
        0
 97
        1
330
F9
 92
        1
 93
        1
 72
     4
 94
        3
 73
     0
 74
     0
 95
      203
 96
      199
 40
0.0
 40
0.0
 40
0.0
 40
0.0
 40
1.0
 40
1.0
 40
1.0
 40
2.0
 40
2.0
 40
2.0
 40
3.0
 40
3.0
 40
3.0
 40
4.0
 40
4.0
 40
4.0
 40
5.0
 40
5.0
 40
5.0
 40
6.0
 40
6.0
 40
6.0
 40
7.0
 40
7.0
 40
7.0
 40
8.0
 40
8.0
 40
8.0
 40
9.0
 40
9.0
 40
9.0
 40
10.0
 40
10.0
 40
10.0
 40
11.0
 40
11.0
 40
11.0
 40
12.0
 40
12.0
 40
12.0
 40
13.0
 40
13.0
 40
13.0
 40
14.0
 40
14.0
 40
14.0
 40
15.0
 40
15.0
 40
15.0
 40
16.0
 40
16.0
 40
16.0
 40
17.0
 40
17.0
 40
17.0
 40
18.0
 40
18.0
 40
18.0
 40
19.0
 40
19.0
 40
19.0
 40
20.0
 40
20.0
 40
20.0
 40
21.0
 40
21.0
 40
21.0
 40
22.0
 40
22.0
 40
22.0
 40
23.0
 40
23.0
 40
23.0
 40
24.0
 40
24.0
 40
24.0
 40
25.0
 40
25.0
 40
25.0
 40
26.0
 40
26.0
 40
26.0
 40
27.0
 40
27.0
 40
27.0
 40
28.0
 40
28.0
 40
28.0
 40
29.0
 40
29.0
 40
29.0
 40
30.0
 40
30.0
 40
30.0
 40
31.0
 40
31.0
 40
31.0
 40
32.0
 40
32.0
 40
32.0
 40
33.0
 40
33.0
 40
33.0
 40
34.0
 40
34.0
 40
34.0
 40
35.0
 40
35.0
 40
35.0
 40
36.0
 40
36.0
 40
36.0
 40
37.0
 40
37.0
 40
37.0
 40
38.0
 40
38.0
 40
38.0
 40
39.0
 40
39.0
 40
39.0
 40
40.0
 40
40.0
 40
40.0
 40
41.0
 40
41.0
 40
41.0
 40
42.0
 40
42.0
 40
42.0
 40
43.0
 40
43.0
 40
43.0
 40
44.0
 40
44.0
 40
44.0
 40
45.0
 40
45.0
 40
45.0
 40
46.0
 40
46.0
 40
46.0
 40
47.0
 40
47.0
 40
47.0
 40
48.0
 40
48.0
 40
48.0
 40
49.0
 40
49.0
 40
49.0
 40
50.0
 40
50.0
 40
50.0
 40
51.0
 40
51.0
 40
51.0
 40
52.0
 40
52.0
 40
52.0
 40
53.0
 40
53.0
 40
53.0
 40
54.0
 40
54.0
 40
54.0
 40
55.0
 40
55.0
 40
55.0
 40
56.0
 40
56.0
 40
56.0
 40
57.0
 40
57.0
 40
57.0
 40
58.0
 40
58.0
 40
58.0
 40
59.0
 40
59.0
 40
59.0
 40
60.0
 40
60.0
 40
60.0
 40
61.0
 40
61.0
 40
61.0
 40
62.0
 40
62.0
 40
62.0
 40
63.0
 40
63.0
 40
63.0
 40
64.0
 40
64.0
 40
64.0
 40
65.0
 40
65.0
 40
65.0
 40
66.0
 40
66.0
 40
66.0
 40
66.0
 10
107.6833495824542
 20
-150.2364799971631
 10
107.6833495824542
 20
-150.2364799971631
 10
107.1248996042951
 20
-150.2364799971631
 10
107.1248996042951
 20
-150.2364799971631
 10
107.1142198082909
 20
-150.2809217289228
 10
107.1056070695777
 20
-150.3126166073871
 10
107.0932047258309
 20
-150.3508571672734
 10
107.1183539228732
 20
-150.3508571672734
 10
107.1331678334597
 20
-150.3529242245645
 10
107.1397135148817
 20
-150.3529242245645
 10
107.1397135148817
 20
-150.3529242245645
 10
107.3278157283763
 20
-150.3529242245645
 10
107.3278157283763
 20
-150.3529242245645
 10
107.3278157283763
 20
-150.3529242245645
 10
107.702297607623
 20
-150.3529242245645
 10
107.702297607623
 20
-150.3529242245645
 10
107.7529405112562
 20
-150.3529242245645
 10
108.0364718696922
 20
-150.3401773712691
 10
108.0681667481566
 20
-150.3401773712691
 10
108.0660996908654
 20
-150.3677381351511
 10
108.0640326335742
 20
-150.38668616032
 10
108.0640326335742
 20
-150.4163139814931
 10
108.0619655762831
 20
-150.4480088599574
 10
108.0619655762831
 20
-150.5834011125278
 10
108.0619655762831
 20
-150.6109618764097
 10
108.0619655762831
 20
-150.6109618764097
 10
108.0619655762831
 20
-150.8562526749595
 10
108.0619655762831
 20
-150.8562526749595
 10
108.0619655762831
 20
-150.9006944067193
 10
108.0660996908654
 20
-151.097409358927
 10
108.0705783149962
 20
-151.2496825793751
 10
108.0705783149962
 20
-151.2496825793751
 10
107.8438910320668
 20
-151.2496825793751
 10
107.8438910320668
 20
-151.2496825793751
 10
107.8438910320668
 20
-151.2496825793751
 10
107.8463025989065
 20
-151.2159206436196
 10
107.8463025989065
 20
-151.2159206436196
 10
107.8463025989065
 20
-151.2159206436196
 10
107.143847629464
 20
-151.2159206436196
 10
107.143847629464
 20
-151.2159206436196
 10
107.143847629464
 20
-151.2159206436196
 10
107.1459146867552
 20
-151.2496825793751
 10
107.1459146867552
 20
-151.2496825793751
 10
107.1459146867552
 20
-151.2496825793751
 10
106.9281846520874
 20
-151.2496825793751
 10
106.9281846520874
 20
-151.2496825793751
 10
106.9323187666697
 20
-151.1949055611596
 10
106.9323187666697
 20
-151.1821587078642
 10
106.9385199385431
 20
-151.0677815377539
 10
106.9405869958343
 20
-151.0402207738719
 10
106.9429985626739
 20
-150.9072400881412
 10
106.9429985626739
 20
-150.8879475534238
 10
106.9429985626739
 20
-150.8879475534238
 10
106.9429985626739
 20
-150.6850314293426
 10
106.9429985626739
 20
-150.6850314293426
 10
106.8031276859728
 20
-150.9344563424747
 10
106.633973497647
 20
-151.0657144804627
 10
106.5282090662499
 20
-151.1311712946825
 10
106.5282090662499
 20
-151.1311712946825
 10
106.3545762537933
 20
-150.9916449275299
 10
106.3545762537933
 20
-150.9916449275299
 10
106.4434597173127
 20
-150.9410020238967
 10
106.5874647085962
 20
-150.8541856176684
 10
106.7249240184576
 20
-150.6595377227518
 10
106.8158745392682
 20
-150.5327582088946
 10
106.8816758630365
 20
-150.3887532176111
 10
106.915437798792
 20
-150.2364799971631
 10
106.6870279681199
 20
-150.2385470544543
 10
106.5071939837898
 20
-150.2450927358762
 10
106.4117648388484
 20
-150.2471597931674
 10
106.4117648388484
 20
-150.2471597931674
 10
106.4117648388484
 20
-150.0693928661284
 10
106.4117648388484
 20
-150.0693928661284
 10
106.6084797910562
 20
-150.0755940380019
 10
106.8920111494922
 20
-150.0800726621328
 10
107.0422173126492
 20
-150.0800726621328
 10
107.0422173126492
 20
-150.0800726621328
 10
107.2558132327346
 20
-150.0800726621328
 10
107.2558132327346
 20
-150.0800726621328
 10
107.2558132327346
 20
-150.0800726621328
 10
107.2558132327346
 20
-149.9718966638959
 10
107.2558132327346
 20
-149.9718966638959
 10
107.2558132327346
 20
-149.9718966638959
 10
107.1100856937086
 20
-149.9718966638959
 10
107.1100856937086
 20
-149.9718966638959
 10
106.9405869958343
 20
-149.9718966638959
 10
106.7714328075085
 20
-149.9763752880267
 10
106.6043456764739
 20
-149.9825764599002
 10
106.6043456764739
 20
-149.9825764599002
 10
106.6043456764739
 20
-149.8113552142832
 10
106.6043456764739
 20
-149.8113552142832
 10
106.7586859542131
 20
-149.821690500739
 10
106.9450656199651
 20
-149.821690500739
 10
107.1100856937086
 20
-149.821690500739
 10
107.1100856937086
 20
-149.821690500739
 10
107.2558132327346
 20
-149.821690500739
 10
107.2558132327346
 20
-149.821690500739
 10
107.2558132327346
 20
-149.821690500739
 10
107.2558132327346
 20
-149.7035237255949
 10
107.2558132327346
 20
-149.7035237255949
 10
107.2558132327346
 20
-149.7035237255949
 10
107.1248996042951
 20
-149.7035237255949
 10
107.1248996042951
 20
-149.7035237255949
 10
107.0783908152443
 20
-149.7035237255949
 10
106.8751301816145
 20
-149.7117919547595
 10
106.8327555071459
 20
-149.7117919547595
 10
106.6298393830647
 20
-149.7159260693418
 10
106.5537027728407
 20
-149.717993126633
 10
106.4754991053255
 20
-149.7204046934727
 10
106.4754991053255
 20
-149.7204046934727
 10
106.4754991053255
 20
-149.5360920850118
 10
106.4754991053255
 20
-149.5360920850118
 10
106.5895317658873
 20
-149.5447048237249
 10
106.633973497647
 20
-149.5447048237249
 10
107.0170681156068
 20
-149.553317562438
 10
106.9533338491297
 20
-149.4578884174966
 10
106.9257730852477
 20
-149.4303276536146
 10
106.8899440922011
 20
-149.394498660568
 10
106.8899440922011
 20
-149.394498660568
 10
107.0656439619488
 20
-149.311816368922
 10
107.0656439619488
 20
-149.311816368922
 10
107.1056070695777
 20
-149.3479898715172
 10
107.1500488013375
 20
-149.3903645459857
 10
107.2241183542703
 20
-149.5002630919652
 10
107.2241183542703
 20
-149.5002630919652
 10
107.1100856937086
 20
-149.5553846197292
 10
107.1100856937086
 20
-149.5553846197292
 10
107.1100856937086
 20
-149.5553846197292
 10
107.1204209801643
 20
-149.5553846197292
 10
107.1204209801643
 20
-149.5553846197292
 10
107.1204209801643
 20
-149.5553846197292
 10
107.6430419652767
 20
-149.5553846197292
 10
107.6430419652767
 20
-149.5553846197292
 10
107.6430419652767
 20
-149.5553846197292
 10
107.5479573298838
 20
-149.5109428879695
 10
107.5479573298838
 20
-149.5109428879695
 10
107.5755180937658
 20
-149.4727023280832
 10
107.6323621692724
 20
-149.3924316032769
 10
107.647176079859
 20
-149.318362050344
 10
107.647176079859
 20
-149.318362050344
 10
107.861116509493
 20
-149.3817518072726
 10
107.861116509493
 20
-149.3817518072726
 10
107.8693847386576
 20
-149.3838188645637
 10
107.8907443306662
 20
-149.394498660568
 10
107.8907443306662
 20
-149.4155137430281
 10
107.8907443306662
 20
-149.4537543029143
 10
107.8249430068979
 20
-149.4537543029143
 10
107.805994981729
 20
-149.4537543029143
 10
107.7953151857248
 20
-149.4727023280832
 10
107.7722330459736
 20
-149.5130099452606
 10
107.7426052248005
 20
-149.553317562438
 10
108.1422363010894
 20
-149.5467718810161
 10
108.1718641222626
 20
-149.5447048237249
 10
108.2480007324866
 20
-149.5385036518515
 10
108.2480007324866
 20
-149.5385036518515
 10
108.2480007324866
 20
-149.7204046934727
 10
108.2480007324866
 20
-149.7204046934727
 10
108.2290527073177
 20
-149.7204046934727
 10
108.2035590007269
 20
-149.717993126633
 10
107.9837619087679
 20
-149.7097248974684
 10
107.9327744955862
 20
-149.7076578401772
 10
107.7129774036273
 20
-149.7035237255949
 10
107.6685356718676
 20
-149.7035237255949
 10
107.6685356718676
 20
-149.7035237255949
 10
107.4525281849424
 20
-149.7035237255949
 10
107.4525281849424
 20
-149.7035237255949
 10
107.4525281849424
 20
-149.7035237255949
 10
107.4525281849424
 20
-149.821690500739
 10
107.4525281849424
 20
-149.821690500739
 10
107.4525281849424
 20
-149.821690500739
 10
107.626160997399
 20
-149.821690500739
 10
107.626160997399
 20
-149.821690500739
 10
107.7891140138513
 20
-149.821690500739
 10
107.9792832846371
 20
-149.821690500739
 10
108.136035129216
 20
-149.8113552142832
 10
108.136035129216
 20
-149.8113552142832
 10
108.136035129216
 20
-149.9825764599002
 10
108.136035129216
 20
-149.9825764599002
 10
107.9265733237128
 20
-149.9743082307356
 10
107.729858371505
 20
-149.9718966638959
 10
107.626160997399
 20
-149.9718966638959
 10
107.626160997399
 20
-149.9718966638959
 10
107.4525281849424
 20
-149.9718966638959
 10
107.4525281849424
 20
-149.9718966638959
 10
107.4525281849424
 20
-149.9718966638959
 10
107.4525281849424
 20
-150.0800726621328
 10
107.4525281849424
 20
-150.0800726621328
 10
107.4525281849424
 20
-150.0800726621328
 10
107.6833495824542
 20
-150.0800726621328
 10
107.6833495824542
 20
-150.0800726621328
 10
107.8166747777333
 20
-150.0800726621328
 10
108.1043402507517
 20
-150.0755940380019
 10
108.3138020562549
 20
-150.0693928661284
 10
108.3138020562549
 20
-150.0693928661284
 10
108.3138020562549
 20
-150.2471597931674
 10
108.3138020562549
 20
-150.2471597931674
 10
108.1212212186294
 20
-150.2406141117454
 10
107.8080620390202
 20
-150.2364799971631
 10
107.6833495824542
 20
-150.2364799971631
 97
        0
 97
        1
330
FA
 75
     2
 76
     1
 98
        1
 10
0.0
 20
0.0
450
        0
451
        0
460
0.0
461
0.0
452
        0
462
0.0
453
        0
470

  0
SPLINE
  5
FC
330
EF
100
AcDbEntity
  8
レイヤー 1
100
AcDbSpline
210
0.0
220
0.0
230
1.0
 70
     9
 71
     3
 72
    29
 73
    25
 74
     0
 42
0.0000000001
 43
0.0000000001
 40
0.0
 40
0.0
 40
0.0
 40
0.0
 40
1.0
 40
1.0
 40
1.0
 40
2.0
 40
2.0
 40
2.0
 40
3.0
 40
3.0
 40
3.0
 40
4.0
 40
4.0
 40
4.0
 40
5.0
 40
5.0
 40
5.0
 40
6.0
 40
6.0
 40
6.0
 40
7.0
 40
7.0
 40
7.0
 40
8.0
 40
8.0
 40
8.0
 40
8.0
 10
109.5588595646242
 20
-149.6842311908775
 30
0.0
 10
109.5588595646242
 20
-149.6842311908775
 30
0.0
 10
109.2053927678375
 20
-149.6842311908775
 30
0.0
 10
109.2053927678375
 20
-149.6842311908775
 30
0.0
 10
109.0934271645669
 20
-149.6842311908775
 30
0.0
 10
108.9539007974143
 20
-149.6907768722995
 30
0.0
 10
108.8457247991774
 20
-149.7035237255949
 30
0.0
 10
108.8457247991774
 20
-149.7035237255949
 30
0.0
 10
108.8457247991774
 20
-149.4685682135009
 30
0.0
 10
108.8457247991774
 20
-149.4685682135009
 30
0.0
 10
108.96423608387
 20
-149.4833821240875
 30
0.0
 10
109.1482041827824
 20
-149.4875162386698
 30
0.0
 10
109.2053927678375
 20
-149.4875162386698
 30
0.0
 10
109.2053927678375
 20
-149.4875162386698
 30
0.0
 10
109.5588595646242
 20
-149.4875162386698
 30
0.0
 10
109.5588595646242
 20
-149.4875162386698
 30
0.0
 10
109.577807589793
 20
-149.4875162386698
 30
0.0
 10
109.7810682234228
 20
-149.4875162386698
 30
0.0
 10
109.9226616478665
 20
-149.4685682135009
 30
0.0
 10
109.9226616478665
 20
-149.4685682135009
 30
0.0
 10
109.9226616478665
 20
-149.7035237255949
 30
0.0
 10
109.9226616478665
 20
-149.7035237255949
 30
0.0
 10
109.7662543128362
 20
-149.6842311908775
 30
0.0
 10
109.5757405325019
 20
-149.6842311908775
 30
0.0
 10
109.5588595646242
 20
-149.6842311908775
 30
0.0
  0
SPLINE
  5
FD
330
EF
100
AcDbEntity
  8
レイヤー 1
100
AcDbSpline
210
0.0
220
0.0
230
1.0
 70
     9
 71
     3
 72
    47
 73
    43
 74
     0
 42
0.0000000001
 43
0.0000000001
 40
0.0
 40
0.0
 40
0.0
 40
0.0
 40
1.0
 40
1.0
 40
1.0
 40
2.0
 40
2.0
 40
2.0
 40
3.0
 40
3.0
 40
3.0
 40
4.0
 40
4.0
 40
4.0
 40
5.0
 40
5.0
 40
5.0
 40
6.0
 40
6.0
 40
6.0
 40
7.0
 40
7.0
 40
7.0
 40
8.0
 40
8.0
 40
8.0
 40
9.0
 40
9.0
 40
9.0
 40
10.0
 40
10.0
 40
10.0
 40
11.0
 40
11.0
 40
11.0
 40
12.0
 40
12.0
 40
12.0
 40
13.0
 40
13.0
 40
13.0
 40
14.0
 40
14.0
 40
14.0
 40
14.0
 10
109.6601453718905
 20
-150.2130533478634
 30
0.0
 10
109.6601453718905
 20
-150.2130533478634
 30
0.0
 10
109.5588595646242
 20
-150.2130533478634
 30
0.0
 10
109.5588595646242
 20
-150.2130533478634
 30
0.0
 10
109.5588595646242
 20
-150.2998697540917
 30
0.0
 10
109.5374999726156
 20
-150.6891655439249
 30
0.0
 10
109.3407850204078
 20
-150.9093071454324
 30
0.0
 10
109.1885117999598
 20
-151.0784613337581
 30
0.0
 10
108.9811170517478
 20
-151.1483967721087
 30
0.0
 10
108.8967122123591
 20
-151.1756130264422
 30
0.0
 10
108.8967122123591
 20
-151.1756130264422
 30
0.0
 10
108.7020643174425
 20
-151.0085258954076
 30
0.0
 10
108.7020643174425
 20
-151.0085258954076
 30
0.0
 10
108.7992160101266
 20
-150.9957790421121
 30
0.0
 10
108.9749158798743
 20
-150.972696902361
 30
0.0
 10
109.1630180933689
 20
-150.7842501793178
 30
0.0
 10
109.2370876463018
 20
-150.7125921932246
 30
0.0
 10
109.3407850204078
 20
-150.5727213165235
 30
0.0
 10
109.3407850204078
 20
-150.2130533478634
 30
0.0
 10
109.3407850204078
 20
-150.2130533478634
 30
0.0
 10
109.1103081324446
 20
-150.2130533478634
 30
0.0
 10
109.1103081324446
 20
-150.2130533478634
 30
0.0
 10
108.9242729762411
 20
-150.2130533478634
 30
0.0
 10
108.7378933104891
 20
-150.2175319719942
 30
0.0
 10
108.5518581542856
 20
-150.2323458825808
 30
0.0
 10
108.5518581542856
 20
-150.2323458825808
 30
0.0
 10
108.5518581542856
 20
-150.0122042810733
 30
0.0
 10
108.5518581542856
 20
-150.0122042810733
 30
0.0
 10
108.7399603677803
 20
-150.0270181916599
 30
0.0
 10
109.0255587835075
 20
-150.0311523062422
 30
0.0
 10
109.1103081324446
 20
-150.0311523062422
 30
0.0
 10
109.1103081324446
 20
-150.0311523062422
 30
0.0
 10
109.6601453718905
 20
-150.0311523062422
 30
0.0
 10
109.6601453718905
 20
-150.0311523062422
 30
0.0
 10
109.6794379066079
 20
-150.0311523062422
 30
0.0
 10
109.9967312007994
 20
-150.0311523062422
 30
0.0
 10
110.2251410314715
 20
-150.0122042810733
 30
0.0
 10
110.2251410314715
 20
-150.0122042810733
 30
0.0
 10
110.2251410314715
 20
-150.2323458825808
 30
0.0
 10
110.2251410314715
 20
-150.2323458825808
 30
0.0
 10
110.0370388179768
 20
-150.2175319719942
 30
0.0
 10
109.8485920949337
 20
-150.2130533478634
 30
0.0
 10
109.6601453718905
 20
-150.2130533478634
 30
0.0
  0
HATCH
  5
FE
330
EF
100
AcDbEntity
  8
レイヤー 1
 62
    18
420
        0
440
 33554687
100
AcDbHatch
 10
0.0
 20
0.0
 30
0.0
210
0.0
220
0.0
230
1.0
  2
SOLID
 70
     1
 71
     1
 91
        2
 92
        1
 93
        1
 72
     4
 94
        3
 73
     0
 74
     0
 95
       29
 96
       25
 40
0.0
 40
0.0
 40
0.0
 40
0.0
 40
1.0
 40
1.0
 40
1.0
 40
2.0
 40
2.0
 40
2.0
 40
3.0
 40
3.0
 40
3.0
 40
4.0
 40
4.0
 40
4.0
 40
5.0
 40
5.0
 40
5.0
 40
6.0
 40
6.0
 40
6.0
 40
7.0
 40
7.0
 40
7.0
 40
8.0
 40
8.0
 40
8.0
 40
8.0
 10
109.5588595646242
 20
-149.6842311908775
 10
109.5588595646242
 20
-149.6842311908775
 10
109.2053927678375
 20
-149.6842311908775
 10
109.2053927678375
 20
-149.6842311908775
 10
109.0934271645669
 20
-149.6842311908775
 10
108.9539007974143
 20
-149.6907768722995
 10
108.8457247991774
 20
-149.7035237255949
 10
108.8457247991774
 20
-149.7035237255949
 10
108.8457247991774
 20
-149.4685682135009
 10
108.8457247991774
 20
-149.4685682135009
 10
108.96423608387
 20
-149.4833821240875
 10
109.1482041827824
 20
-149.4875162386698
 10
109.2053927678375
 20
-149.4875162386698
 10
109.2053927678375
 20
-149.4875162386698
 10
109.5588595646242
 20
-149.4875162386698
 10
109.5588595646242
 20
-149.4875162386698
 10
109.577807589793
 20
-149.4875162386698
 10
109.7810682234228
 20
-149.4875162386698
 10
109.9226616478665
 20
-149.4685682135009
 10
109.9226616478665
 20
-149.4685682135009
 10
109.9226616478665
 20
-149.7035237255949
 10
109.9226616478665
 20
-149.7035237255949
 10
109.7662543128362
 20
-149.6842311908775
 10
109.5757405325019
 20
-149.6842311908775
 10
109.5588595646242
 20
-149.6842311908775
 97
        0
 97
        1
330
FC
 92
        1
 93
        1
 72
     4
 94
        3
 73
     0
 74
     0
 95
       47
 96
       43
 40
0.0
 40
0.0
 40
0.0
 40
0.0
 40
1.0
 40
1.0
 40
1.0
 40
2.0
 40
2.0
 40
2.0
 40
3.0
 40
3.0
 40
3.0
 40
4.0
 40
4.0
 40
4.0
 40
5.0
 40
5.0
 40
5.0
 40
6.0
 40
6.0
 40
6.0
 40
7.0
 40
7.0
 40
7.0
 40
8.0
 40
8.0
 40
8.0
 40
9.0
 40
9.0
 40
9.0
 40
10.0
 40
10.0
 40
10.0
 40
11.0
 40
11.0
 40
11.0
 40
12.0
 40
12.0
 40
12.0
 40
13.0
 40
13.0
 40
13.0
 40
14.0
 40
14.0
 40
14.0
 40
14.0
 10
109.6601453718905
 20
-150.2130533478634
 10
109.6601453718905
 20
-150.2130533478634
 10
109.5588595646242
 20
-150.2130533478634
 10
109.5588595646242
 20
-150.2130533478634
 10
109.5588595646242
 20
-150.2998697540917
 10
109.5374999726156
 20
-150.6891655439249
 10
109.3407850204078
 20
-150.9093071454324
 10
109.1885117999598
 20
-151.0784613337581
 10
108.9811170517478
 20
-151.1483967721087
 10
108.8967122123591
 20
-151.1756130264422
 10
108.8967122123591
 20
-151.1756130264422
 10
108.7020643174425
 20
-151.0085258954076
 10
108.7020643174425
 20
-151.0085258954076
 10
108.7992160101266
 20
-150.9957790421121
 10
108.9749158798743
 20
-150.972696902361
 10
109.1630180933689
 20
-150.7842501793178
 10
109.2370876463018
 20
-150.7125921932246
 10
109.3407850204078
 20
-150.5727213165235
 10
109.3407850204078
 20
-150.2130533478634
 10
109.3407850204078
 20
-150.2130533478634
 10
109.1103081324446
 20
-150.2130533478634
 10
109.1103081324446
 20
-150.2130533478634
 10
108.9242729762411
 20
-150.2130533478634
 10
108.7378933104891
 20
-150.2175319719942
 10
108.5518581542856
 20
-150.2323458825808
 10
108.5518581542856
 20
-150.2323458825808
 10
108.5518581542856
 20
-150.0122042810733
 10
108.5518581542856
 20
-150.0122042810733
 10
108.7399603677803
 20
-150.0270181916599
 10
109.0255587835075
 20
-150.0311523062422
 10
109.1103081324446
 20
-150.0311523062422
 10
109.1103081324446
 20
-150.0311523062422
 10
109.6601453718905
 20
-150.0311523062422
 10
109.6601453718905
 20
-150.0311523062422
 10
109.6794379066079
 20
-150.0311523062422
 10
109.9967312007994
 20
-150.0311523062422
 10
110.2251410314715
 20
-150.0122042810733
 10
110.2251410314715
 20
-150.0122042810733
 10
110.2251410314715
 20
-150.2323458825808
 10
110.2251410314715
 20
-150.2323458825808
 10
110.0370388179768
 20
-150.2175319719942
 10
109.8485920949337
 20
-150.2130533478634
 10
109.6601453718905
 20
-150.2130533478634
 97
        0
 97
        1
330
FD
 75
     2
 76
     1
 98
        1
 10
0.0
 20
0.0
450
        0
451
        0
460
0.0
461
0.0
452
        0
462
0.0
453
        0
470

  0
SPLINE
  5
FF
330
EF
100
AcDbEntity
  8
レイヤー 1
100
AcDbSpline
210
0.0
220
0.0
230
1.0
 70
     9
 71
     3
 72
    29
 73
    25
 74
     0
 42
0.0000000001
 43
0.0000000001
 40
0.0
 40
0.0
 40
0.0
 40
0.0
 40
1.0
 40
1.0
 40
1.0
 40
2.0
 40
2.0
 40
2.0
 40
3.0
 40
3.0
 40
3.0
 40
4.0
 40
4.0
 40
4.0
 40
5.0
 40
5.0
 40
5.0
 40
6.0
 40
6.0
 40
6.0
 40
7.0
 40
7.0
 40
7.0
 40
8.0
 40
8.0
 40
8.0
 40
8.0
 10
111.5060275328874
 20
-150.3760063643157
 30
0.0
 10
111.5060275328874
 20
-150.3760063643157
 30
0.0
 10
111.0216471076612
 20
-150.3760063643157
 30
0.0
 10
111.0216471076612
 20
-150.3760063643157
 30
0.0
 10
110.9940863437792
 20
-150.3760063643157
 30
0.0
 10
110.6767930495877
 20
-150.3760063643157
 30
0.0
 10
110.4652641867934
 20
-150.4015000709065
 30
0.0
 10
110.4652641867934
 20
-150.4015000709065
 30
0.0
 10
110.4652641867934
 20
-150.1710231829433
 30
0.0
 10
110.4652641867934
 20
-150.1710231829433
 30
0.0
 10
110.6240830886634
 20
-150.1941053226945
 30
0.0
 10
110.8142523594492
 20
-150.1961723799857
 30
0.0
 10
111.0216471076612
 20
-150.1961723799857
 30
0.0
 10
111.0216471076612
 20
-150.1961723799857
 30
0.0
 10
111.5060275328874
 20
-150.1961723799857
 30
0.0
 10
111.5060275328874
 20
-150.1961723799857
 30
0.0
 10
111.6924071986394
 20
-150.1961723799857
 30
0.0
 10
111.8784423548429
 20
-150.1941053226945
 30
0.0
 10
112.0624104537552
 20
-150.1710231829433
 30
0.0
 10
112.0624104537552
 20
-150.1710231829433
 30
0.0
 10
112.0624104537552
 20
-150.4015000709065
 30
0.0
 10
112.0624104537552
 20
-150.4015000709065
 30
0.0
 10
111.8784423548429
 20
-150.3780734216068
 30
0.0
 10
111.6310844990019
 20
-150.3760063643157
 30
0.0
 10
111.5060275328874
 20
-150.3760063643157
 30
0.0
  0
HATCH
  5
100
330
EF
100
AcDbEntity
  8
レイヤー 1
 62
    18
420
        0
440
 33554687
100
AcDbHatch
 10
0.0
 20
0.0
 30
0.0
210
0.0
220
0.0
230
1.0
  2
SOLID
 70
     1
 71
     1
 91
        1
 92
        1
 93
        1
 72
     4
 94
        3
 73
     0
 74
     0
 95
       29
 96
       25
 40
0.0
 40
0.0
 40
0.0
 40
0.0
 40
1.0
 40
1.0
 40
1.0
 40
2.0
 40
2.0
 40
2.0
 40
3.0
 40
3.0
 40
3.0
 40
4.0
 40
4.0
 40
4.0
 40
5.0
 40
5.0
 40
5.0
 40
6.0
 40
6.0
 40
6.0
 40
7.0
 40
7.0
 40
7.0
 40
8.0
 40
8.0
 40
8.0
 40
8.0
 10
111.5060275328874
 20
-150.3760063643157
 10
111.5060275328874
 20
-150.3760063643157
 10
111.0216471076612
 20
-150.3760063643157
 10
111.0216471076612
 20
-150.3760063643157
 10
110.9940863437792
 20
-150.3760063643157
 10
110.6767930495877
 20
-150.3760063643157
 10
110.4652641867934
 20
-150.4015000709065
 10
110.4652641867934
 20
-150.4015000709065
 10
110.4652641867934
 20
-150.1710231829433
 10
110.4652641867934
 20
-150.1710231829433
 10
110.6240830886634
 20
-150.1941053226945
 10
110.8142523594492
 20
-150.1961723799857
 10
111.0216471076612
 20
-150.1961723799857
 10
111.0216471076612
 20
-150.1961723799857
 10
111.5060275328874
 20
-150.1961723799857
 10
111.5060275328874
 20
-150.1961723799857
 10
111.6924071986394
 20
-150.1961723799857
 10
111.8784423548429
 20
-150.1941053226945
 10
112.0624104537552
 20
-150.1710231829433
 10
112.0624104537552
 20
-150.1710231829433
 10
112.0624104537552
 20
-150.4015000709065
 10
112.0624104537552
 20
-150.4015000709065
 10
111.8784423548429
 20
-150.3780734216068
 10
111.6310844990019
 20
-150.3760063643157
 10
111.5060275328874
 20
-150.3760063643157
 97
        0
 97
        1
330
FF
 75
     2
 76
     1
 98
        1
 10
0.0
 20
0.0
450
        0
451
        0
460
0.0
461
0.0
452
        0
462
0.0
453
        0
470

  0
SPLINE
  5
101
330
EF
100
AcDbEntity
  8
レイヤー 1
100
AcDbSpline
210
0.0
220
0.0
230
1.0
 70
     9
 71
     3
 72
    47
 73
    43
 74
     0
 42
0.0000000001
 43
0.0000000001
 40
0.0
 40
0.0
 40
0.0
 40
0.0
 40
1.0
 40
1.0
 40
1.0
 40
2.0
 40
2.0
 40
2.0
 40
3.0
 40
3.0
 40
3.0
 40
4.0
 40
4.0
 40
4.0
 40
5.0
 40
5.0
 40
5.0
 40
6.0
 40
6.0
 40
6.0
 40
7.0
 40
7.0
 40
7.0
 40
8.0
 40
8.0
 40
8.0
 40
9.0
 40
9.0
 40
9.0
 40
10.0
 40
10.0
 40
10.0
 40
11.0
 40
11.0
 40
11.0
 40
12.0
 40
12.0
 40
12.0
 40
13.0
 40
13.0
 40
13.0
 40
14.0
 40
14.0
 40
14.0
 40
14.0
 10
113.7263915731309
 20
-149.7817273931101
 30
0.0
 10
113.6564561347803
 20
-150.0607801274153
 30
0.0
 10
113.5803195245563
 20
-150.36567107786
 30
0.0
 10
113.2671603449471
 20
-150.697778282638
 30
0.0
 10
113.0301377755619
 20
-150.9472031957701
 30
0.0
 10
112.7848469770121
 20
-151.0467664552938
 30
0.0
 10
112.6790825456149
 20
-151.0891411297624
 30
0.0
 10
112.6790825456149
 20
-151.0891411297624
 30
0.0
 10
112.4844346506983
 20
-150.9072400881412
 30
0.0
 10
112.4844346506983
 20
-150.9072400881412
 30
0.0
 10
112.6704698069018
 20
-150.8603867895418
 30
0.0
 10
113.0325493424016
 20
-150.7673692114401
 30
0.0
 10
113.3284830445845
 20
-150.2723089902097
 30
0.0
 10
113.4893690037457
 20
-150.0060031091999
 30
0.0
 10
113.5021158570411
 20
-149.8323702967433
 30
0.0
 10
113.5103840862057
 20
-149.7414197759327
 30
0.0
 10
113.5103840862057
 20
-149.7414197759327
 30
0.0
 10
113.0049885785196
 20
-149.7414197759327
 30
0.0
 10
113.0049885785196
 20
-149.7414197759327
 30
0.0
 10
112.886477293827
 20
-149.7414197759327
 30
0.0
 10
112.4654866255294
 20
-149.7603678011016
 30
0.0
 10
112.3132134050814
 20
-149.7710475971058
 30
0.0
 10
112.3132134050814
 20
-149.7710475971058
 30
0.0
 10
112.3132134050814
 20
-149.5615857916026
 30
0.0
 10
112.3132134050814
 20
-149.5615857916026
 30
0.0
 10
112.4548068295252
 20
-149.574332644898
 30
0.0
 10
112.7321370160878
 20
-149.5784667594804
 30
0.0
 10
112.8482367339407
 20
-149.5784667594804
 30
0.0
 10
112.8482367339407
 20
-149.5784667594804
 30
0.0
 10
113.2037705880185
 20
-149.5784667594804
 30
0.0
 10
113.2037705880185
 20
-149.5784667594804
 30
0.0
 10
113.2313313519005
 20
-149.5784667594804
 30
0.0
 10
113.3918728015131
 20
-149.5763997021892
 30
0.0
 10
113.5021158570411
 20
-149.5615857916026
 30
0.0
 10
113.5593044420963
 20
-149.5553846197292
 30
0.0
 10
113.576185409974
 20
-149.5360920850118
 30
0.0
 10
113.5992675497252
 20
-149.5130099452606
 30
0.0
 10
113.5992675497252
 20
-149.5130099452606
 30
0.0
 10
113.7877142727683
 20
-149.6632161084175
 30
0.0
 10
113.7877142727683
 20
-149.6632161084175
 30
0.0
 10
113.7729003621818
 20
-149.6928439295906
 30
0.0
 10
113.7622205661775
 20
-149.7117919547595
 30
0.0
 10
113.7263915731309
 20
-149.7817273931101
 30
0.0
  0
HATCH
  5
102
330
EF
100
AcDbEntity
  8
レイヤー 1
 62
    18
420
        0
440
 33554687
100
AcDbHatch
 10
0.0
 20
0.0
 30
0.0
210
0.0
220
0.0
230
1.0
  2
SOLID
 70
     1
 71
     1
 91
        1
 92
        1
 93
        1
 72
     4
 94
        3
 73
     0
 74
     0
 95
       47
 96
       43
 40
0.0
 40
0.0
 40
0.0
 40
0.0
 40
1.0
 40
1.0
 40
1.0
 40
2.0
 40
2.0
 40
2.0
 40
3.0
 40
3.0
 40
3.0
 40
4.0
 40
4.0
 40
4.0
 40
5.0
 40
5.0
 40
5.0
 40
6.0
 40
6.0
 40
6.0
 40
7.0
 40
7.0
 40
7.0
 40
8.0
 40
8.0
 40
8.0
 40
9.0
 40
9.0
 40
9.0
 40
10.0
 40
10.0
 40
10.0
 40
11.0
 40
11.0
 40
11.0
 40
12.0
 40
12.0
 40
12.0
 40
13.0
 40
13.0
 40
13.0
 40
14.0
 40
14.0
 40
14.0
 40
14.0
 10
113.7263915731309
 20
-149.7817273931101
 10
113.6564561347803
 20
-150.0607801274153
 10
113.5803195245563
 20
-150.36567107786
 10
113.2671603449471
 20
-150.697778282638
 10
113.0301377755619
 20
-150.9472031957701
 10
112.7848469770121
 20
-151.0467664552938
 10
112.6790825456149
 20
-151.0891411297624
 10
112.6790825456149
 20
-151.0891411297624
 10
112.4844346506983
 20
-150.9072400881412
 10
112.4844346506983
 20
-150.9072400881412
 10
112.6704698069018
 20
-150.8603867895418
 10
113.0325493424016
 20
-150.7673692114401
 10
113.3284830445845
 20
-150.2723089902097
 10
113.4893690037457
 20
-150.0060031091999
 10
113.5021158570411
 20
-149.8323702967433
 10
113.5103840862057
 20
-149.7414197759327
 10
113.5103840862057
 20
-149.7414197759327
 10
113.0049885785196
 20
-149.7414197759327
 10
113.0049885785196
 20
-149.7414197759327
 10
112.886477293827
 20
-149.7414197759327
 10
112.4654866255294
 20
-149.7603678011016
 10
112.3132134050814
 20
-149.7710475971058
 10
112.3132134050814
 20
-149.7710475971058
 10
112.3132134050814
 20
-149.5615857916026
 10
112.3132134050814
 20
-149.5615857916026
 10
112.4548068295252
 20
-149.574332644898
 10
112.7321370160878
 20
-149.5784667594804
 10
112.8482367339407
 20
-149.5784667594804
 10
112.8482367339407
 20
-149.5784667594804
 10
113.2037705880185
 20
-149.5784667594804
 10
113.2037705880185
 20
-149.5784667594804
 10
113.2313313519005
 20
-149.5784667594804
 10
113.3918728015131
 20
-149.5763997021892
 10
113.5021158570411
 20
-149.5615857916026
 10
113.5593044420963
 20
-149.5553846197292
 10
113.576185409974
 20
-149.5360920850118
 10
113.5992675497252
 20
-149.5130099452606
 10
113.5992675497252
 20
-149.5130099452606
 10
113.7877142727683
 20
-149.6632161084175
 10
113.7877142727683
 20
-149.6632161084175
 10
113.7729003621818
 20
-149.6928439295906
 10
113.7622205661775
 20
-149.7117919547595
 10
113.7263915731309
 20
-149.7817273931101
 97
        0
 97
        1
330
101
 75
     2
 76
     1
 98
        1
 10
0.0
 20
0.0
450
        0
451
        0
460
0.0
461
0.0
452
        0
462
0.0
453
        0
470

  0
SPLINE
  5
103
330
EF
100
AcDbEntity
  8
レイヤー 1
100
AcDbSpline
210
0.0
220
0.0
230
1.0
 70
    11
 71
     3
 72
    17
 73
    13
 74
     0
 42
0.0000000001
 43
0.0000000001
 40
0.0
 40
0.0
 40
0.0
 40
0.0
 40
1.0
 40
1.0
 40
1.0
 40
2.0
 40
2.0
 40
2.0
 40
3.0
 40
3.0
 40
3.0
 40
4.0
 40
4.0
 40
4.0
 40
4.0
 10
114.1167208916097
 20
-149.5636528488938
 30
0.0
 10
114.1167208916097
 20
-149.6229084912401
 30
0.0
 10
114.1632296806606
 20
-149.669417280291
 30
0.0
 10
114.2224853230068
 20
-149.669417280291
 30
0.0
 10
114.2817409653531
 20
-149.669417280291
 30
0.0
 10
114.3303168116952
 20
-149.6229084912401
 30
0.0
 10
114.3303168116952
 20
-149.5636528488938
 30
0.0
 10
114.3303168116952
 20
-149.5043972065475
 30
0.0
 10
114.2817409653531
 20
-149.4558213602055
 30
0.0
 10
114.2224853230068
 20
-149.4558213602055
 30
0.0
 10
114.1632296806606
 20
-149.4558213602055
 30
0.0
 10
114.1167208916097
 20
-149.5043972065475
 30
0.0
 10
114.1167208916097
 20
-149.5636528488938
 30
0.0
  0
SPLINE
  5
104
330
EF
100
AcDbEntity
  8
レイヤー 1
100
AcDbSpline
210
0.0
220
0.0
230
1.0
 70
     9
 71
     3
 72
    17
 73
    13
 74
     0
 42
0.0000000001
 43
0.0000000001
 40
0.0
 40
0.0
 40
0.0
 40
0.0
 40
1.0
 40
1.0
 40
1.0
 40
2.0
 40
2.0
 40
2.0
 40
3.0
 40
3.0
 40
3.0
 40
4.0
 40
4.0
 40
4.0
 40
4.0
 10
114.4316026189615
 20
-149.5636528488938
 30
0.0
 10
114.4316026189615
 20
-149.6780300190041
 30
0.0
 10
114.3385850408598
 20
-149.773114654397
 30
0.0
 10
114.2224853230068
 20
-149.773114654397
 30
0.0
 10
114.1081081528966
 20
-149.773114654397
 30
0.0
 10
114.0130235175037
 20
-149.6780300190041
 30
0.0
 10
114.0130235175037
 20
-149.5636528488938
 30
0.0
 10
114.0130235175037
 20
-149.4472086214923
 30
0.0
 10
114.1081081528966
 20
-149.3541910433906
 30
0.0
 10
114.2224853230068
 20
-149.3541910433906
 30
0.0
 10
114.3365179835686
 20
-149.3541910433906
 30
0.0
 10
114.4316026189615
 20
-149.4472086214923
 30
0.0
 10
114.4316026189615
 20
-149.5636528488938
 30
0.0
  0
HATCH
  5
105
330
EF
100
AcDbEntity
  8
レイヤー 1
 62
    18
420
        0
440
 33554687
100
AcDbHatch
 10
0.0
 20
0.0
 30
0.0
210
0.0
220
0.0
230
1.0
  2
SOLID
 70
     1
 71
     1
 91
        2
 92
        1
 93
        1
 72
     4
 94
        3
 73
     0
 74
     0
 95
       17
 96
       13
 40
0.0
 40
0.0
 40
0.0
 40
0.0
 40
1.0
 40
1.0
 40
1.0
 40
2.0
 40
2.0
 40
2.0
 40
3.0
 40
3.0
 40
3.0
 40
4.0
 40
4.0
 40
4.0
 40
4.0
 10
114.1167208916097
 20
-149.5636528488938
 10
114.1167208916097
 20
-149.6229084912401
 10
114.1632296806606
 20
-149.669417280291
 10
114.2224853230068
 20
-149.669417280291
 10
114.2817409653531
 20
-149.669417280291
 10
114.3303168116952
 20
-149.6229084912401
 10
114.3303168116952
 20
-149.5636528488938
 10
114.3303168116952
 20
-149.5043972065475
 10
114.2817409653531
 20
-149.4558213602055
 10
114.2224853230068
 20
-149.4558213602055
 10
114.1632296806606
 20
-149.4558213602055
 10
114.1167208916097
 20
-149.5043972065475
 10
114.1167208916097
 20
-149.5636528488938
 97
        0
 97
        1
330
103
 92
        1
 93
        1
 72
     4
 94
        3
 73
     0
 74
     0
 95
       17
 96
       13
 40
0.0
 40
0.0
 40
0.0
 40
0.0
 40
1.0
 40
1.0
 40
1.0
 40
2.0
 40
2.0
 40
2.0
 40
3.0
 40
3.0
 40
3.0
 40
4.0
 40
4.0
 40
4.0
 40
4.0
 10
114.4316026189615
 20
-149.5636528488938
 10
114.4316026189615
 20
-149.6780300190041
 10
114.3385850408598
 20
-149.773114654397
 10
114.2224853230068
 20
-149.773114654397
 10
114.1081081528966
 20
-149.773114654397
 10
114.0130235175037
 20
-149.6780300190041
 10
114.0130235175037
 20
-149.5636528488938
 10
114.0130235175037
 20
-149.4472086214923
 10
114.1081081528966
 20
-149.3541910433906
 10
114.2224853230068
 20
-149.3541910433906
 10
114.3365179835686
 20
-149.3541910433906
 10
114.4316026189615
 20
-149.4472086214923
 10
114.4316026189615
 20
-149.5636528488938
 97
        0
 97
        1
330
104
 75
     2
 76
     1
 98
        1
 10
0.0
 20
0.0
450
        0
451
        0
460
0.0
461
0.0
452
        0
462
0.0
453
        0
470

  0
ENDBLK
  5
F2
330
EF
100
AcDbEntity
  8
0
100
AcDbBlockEnd
  0
ENDSEC
  0
SECTION
  2
ENTITIES
  0
INSERT
  5
7A
330
70
100
AcDbEntity
  8
レイヤー 1
100
AcDbBlockReference
  2
Block_0
 10
0.0
 20
0.0
 30
0.0
  0
LINE
  5
E2
330
70
100
AcDbEntity
  8
レイヤー 1
  6
AI-Linetype-0
 62
   154
420
    23468
370
    25
100
AcDbLine
 10
104.6062265641436
 20
-153.4401895359435
 30
0.0
 11
114.6520809399535
 21
-153.4401895359435
 31
0.0
  0
INSERT
  5
E5
330
70
100
AcDbEntity
  8
レイヤー 1
100
AcDbBlockReference
  2
Block_11
 10
0.0
 20
0.0
 30
0.0
  0
INSERT
  5
EC
330
70
100
AcDbEntity
  8
レイヤー 1
100
AcDbBlockReference
  2
Block_12
 10
0.0
 20
0.0
 30
0.0
  0
ENDSEC
  0
SECTION
  2
OBJECTS
  0
DICTIONARY
  5
C
330
0
100
AcDbDictionary
281
     1
  3
ACAD_COLOR
350
63
  3
ACAD_DETAILVIEWSTYLE
350
6A
  3
ACAD_GROUP
350
D
  3
ACAD_LAYOUT
350
62
  3
ACAD_MATERIAL
350
10
  3
ACAD_MLEADERSTYLE
350
66
  3
ACAD_MLINESTYLE
350
5F
  3
ACAD_PLOTSETTINGS
350
61
  3
ACAD_PLOTSTYLENAME
350
E
  3
ACAD_SCALELIST
350
42
  3
ACAD_SECTIONVIEWSTYLE
350
68
  3
ACAD_TABLESTYLE
350
64
  3
ACAD_VISUALSTYLE
350
29
  3
ACDB_RECOMPOSE_DATA
350
10E
  3
AcDbVariableDictionary
350
106
  0
DICTIONARY
  5
63
102
{ACAD_REACTORS
330
C
102
}
330
C
100
AcDbDictionary
281
     1
  0
DICTIONARY
  5
6A
102
{ACAD_REACTORS
330
C
102
}
330
C
100
AcDbDictionary
281
     1
  3
Imperial24
350
6B
  0
DICTIONARY
  5
D
102
{ACAD_REACTORS
330
C
102
}
330
C
100
AcDbDictionary
281
     1
  0
DICTIONARY
  5
62
102
{ACAD_REACTORS
330
C
102
}
330
C
100
AcDbDictionary
281
     1
  3
Layout1
350
6F
  3
Layout2
350
77
  3
Model
350
73
  0
DICTIONARY
  5
10
102
{ACAD_REACTORS
330
C
102
}
330
C
100
AcDbDictionary
281
     1
  3
ByBlock
350
19
  3
ByLayer
350
11
  3
Global
350
21
  0
DICTIONARY
  5
66
102
{ACAD_REACTORS
330
C
102
}
330
C
100
AcDbDictionary
281
     1
  3
Standard
350
67
  0
DICTIONARY
  5
5F
102
{ACAD_REACTORS
330
C
102
}
330
C
100
AcDbDictionary
281
     1
  3
Standard
350
60
  0
DICTIONARY
  5
61
102
{ACAD_REACTORS
330
C
102
}
330
C
100
AcDbDictionary
281
     1
  0
ACDBDICTIONARYWDFLT
  5
E
102
{ACAD_REACTORS
330
C
102
}
330
C
100
AcDbDictionary
281
     1
  3
Normal
350
F
100
AcDbDictionaryWithDefault
340
F
  0
DICTIONARY
  5
42
102
{ACAD_REACTORS
330
C
102
}
330
C
100
AcDbDictionary
281
     1
  3
A0
350
43
  3
A1
350
44
  3
A2
350
45
  3
A3
350
46
  3
A4
350
47
  3
A5
350
48
  3
A6
350
49
  3
A7
350
4A
  3
A8
350
4B
  3
A9
350
4C
  3
B0
350
4D
  3
B1
350
4E
  3
B2
350
4F
  3
B3
350
50
  3
B4
350
51
  3
B5
350
52
  3
B6
350
53
  0
DICTIONARY
  5
68
102
{ACAD_REACTORS
330
C
102
}
330
C
100
AcDbDictionary
281
     1
  3
Imperial24
350
69
  0
DICTIONARY
  5
64
102
{ACAD_REACTORS
330
C
102
}
330
C
100
AcDbDictionary
281
     1
  3
Standard
350
65
  0
DICTIONARY
  5
29
102
{ACAD_REACTORS
330
C
102
}
330
C
100
AcDbDictionary
281
     1
  3
2dWireframe
350
2F
  3
Basic
350
2E
  3
Brighten
350
35
  3
ColorChange
350
39
  3
Conceptual
350
32
  3
Dim
350
34
  3
EdgeColorOff
350
41
  3
Facepattern
350
38
  3
Flat
350
2A
  3
FlatWithEdges
350
2B
  3
Gouraud
350
2C
  3
GouraudWithEdges
350
2D
  3
Hidden
350
31
  3
JitterOff
350
3F
  3
Linepattern
350
37
  3
OverhangOff
350
40
  3
Realistic
350
33
  3
Shaded
350
3E
  3
Shaded with edges
350
3D
  3
Shades of Gray
350
3A
  3
Sketchy
350
3B
  3
Thicken
350
36
  3
Wireframe
350
30
  3
X-Ray
350
3C
  0
XRECORD
  5
10E
102
{ACAD_REACTORS
330
C
102
}
330
C
100
AcDbXrecord
280
     1
 90
        1
330
65
  0
DICTIONARY
  5
106
102
{ACAD_REACTORS
330
C
102
}
330
C
100
AcDbDictionary
281
     1
  3
CANNOSCALE
350
10B
  3
CMLEADERSTYLE
350
108
  3
CTABLESTYLE
350
107
  3
CVIEWDETAILSTYLE
350
109
  3
CVIEWSECTIONSTYLE
350
10A
  0
ACDBDETAILVIEWSTYLE
  5
6B
102
{ACAD_XDICTIONARY
360
143
102
}
102
{ACAD_REACTORS
330
6A
102
}
330
6A
100
AcDbModelDocViewStyle
 70
     0
  3
Imperial24
290
     0
100
AcDbDetailViewStyle
 70
     0
 71
     0
 90
        3
 71
     1
340
55
 62
   256
 40
0.24
340
0
 62
   256
 40
0.24
300

 40
0.36
280
     3
 71
     2
340
5D
 90
       25
 62
   256
 71
     3
340
55
 62
   256
 40
0.24
 90
        1
 40
0.75
 90
        1
300
%<\AcVar ViewType \f "%tc1">% %<\AcVar ViewDetailId>%\PSCALE %<\AcVar ViewScale \f "%sn">%
 71
     4
340
5D
 90
       25
 62
   256
340
5D
 90
       25
 62
   256
280
     0
  0
LAYOUT
  5
6F
102
{ACAD_REACTORS
330
62
102
}
330
62
100
AcDbPlotSettings
  1

  2

  4

  6

 40
0.0
 41
0.0
 42
0.0
 43
0.0
 44
0.0
 45
0.0
 46
0.0
 47
0.0
 48
0.0
 49
0.0
140
0.0
141
0.0
142
1.0
143
1.0
 70
   688
 72
     0
 73
     0
 74
     5
  7

 75
    16
147
1.0
 76
     0
 77
     2
 78
   300
148
0.0
149
0.0
100
AcDbLayout
  1
Layout1
 70
     1
 71
     1
 10
0.0
 20
0.0
 11
12.0
 21
9.0
 12
0.0
 22
0.0
 32
0.0
 14
0.0
 24
0.0
 34
0.0
 15
0.0
 25
0.0
 35
0.0
146
0.0
 13
0.0
 23
0.0
 33
0.0
 16
1.0
 26
0.0
 36
0.0
 17
0.0
 27
1.0
 37
0.0
 76
     0
330
6C
  0
LAYOUT
  5
77
102
{ACAD_REACTORS
330
62
102
}
330
62
100
AcDbPlotSettings
  1

  2

  4

  6

 40
0.0
 41
0.0
 42
0.0
 43
0.0
 44
0.0
 45
0.0
 46
0.0
 47
0.0
 48
0.0
 49
0.0
140
0.0
141
0.0
142
1.0
143
1.0
 70
   688
 72
     0
 73
     0
 74
     5
  7

 75
    16
147
1.0
 76
     0
 77
     2
 78
   300
148
0.0
149
0.0
100
AcDbLayout
  1
Layout2
 70
     1
 71
     2
 10
0.0
 20
0.0
 11
12.0
 21
9.0
 12
0.0
 22
0.0
 32
0.0
 14
0.0
 24
0.0
 34
0.0
 15
0.0
 25
0.0
 35
0.0
146
0.0
 13
0.0
 23
0.0
 33
0.0
 16
1.0
 26
0.0
 36
0.0
 17
0.0
 27
1.0
 37
0.0
 76
     0
330
74
  0
LAYOUT
  5
73
102
{ACAD_REACTORS
330
62
102
}
330
62
100
AcDbPlotSettings
  1

  2

  4

  6

 40
0.0
 41
0.0
 42
0.0
 43
0.0
 44
0.0
 45
0.0
 46
0.0
 47
0.0
 48
0.0
 49
0.0
140
0.0
141
0.0
142
1.0
143
1.0
 70
  1712
 72
     0
 73
     0
 74
     0
  7

 75
     0
147
1.0
 76
     0
 77
     2
 78
   300
148
0.0
149
0.0
100
AcDbLayout
  1
Model
 70
     1
 71
     0
 10
0.0
 20
0.0
 11
12.0
 21
9.0
 12
0.0
 22
0.0
 32
0.0
 14
0.0
 24
0.0
 34
0.0
 15
0.0
 25
0.0
 35
0.0
146
0.0
 13
0.0
 23
0.0
 33
0.0
 16
1.0
 26
0.0
 36
0.0
 17
0.0
 27
1.0
 37
0.0
 76
     0
330
70
  0
MATERIAL
  5
19
102
{ACAD_XDICTIONARY
360
1A
102
}
102
{ACAD_REACTORS
330
10
102
}
330
10
100
AcDbMaterial
  1
ByBlock
 72
     0
 43
0.0208333333333333
 43
0.0
 43
0.0
 43
0.0
 43
0.0
 43
0.0208333333333333
 43
0.0
 43
0.0
 43
0.0
 43
0.0
 43
1.0
 43
0.0
 43
0.0
 43
0.0
 43
0.0
 43
1.0
 77
     0
 47
0.0208333333333333
 47
0.0
 47
0.0
 47
0.0
 47
0.0
 47
0.0208333333333333
 47
0.0
 47
0.0
 47
0.0
 47
0.0
 47
1.0
 47
0.0
 47
0.0
 47
0.0
 47
0.0
 47
1.0
171
     0
 49
0.0208333333333333
 49
0.0
 49
0.0
 49
0.0
 49
0.0
 49
0.0208333333333333
 49
0.0
 49
0.0
 49
0.0
 49
0.0
 49
1.0
 49
0.0
 49
0.0
 49
0.0
 49
0.0
 49
1.0
175
     0
142
0.0208333333333333
142
0.0
142
0.0
142
0.0
142
0.0
142
0.0208333333333333
142
0.0
142
0.0
142
0.0
142
0.0
142
1.0
142
0.0
142
0.0
142
0.0
142
0.0
142
1.0
179
     0
144
0.0208333333333333
144
0.0
144
0.0
144
0.0
144
0.0
144
0.0208333333333333
144
0.0
144
0.0
144
0.0
144
0.0
144
1.0
144
0.0
144
0.0
144
0.0
144
0.0
144
1.0
147
0.0208333333333333
147
0.0
147
0.0
147
0.0
147
0.0
147
0.0208333333333333
147
0.0
147
0.0
147
0.0
147
0.0
147
1.0
147
0.0
147
0.0
147
0.0
147
0.0
147
1.0
  0
MATERIAL
  5
11
102
{ACAD_XDICTIONARY
360
12
102
}
102
{ACAD_REACTORS
330
10
102
}
330
10
100
AcDbMaterial
  1
ByLayer
 72
     0
 43
0.0208333333333333
 43
0.0
 43
0.0
 43
0.0
 43
0.0
 43
0.0208333333333333
 43
0.0
 43
0.0
 43
0.0
 43
0.0
 43
1.0
 43
0.0
 43
0.0
 43
0.0
 43
0.0
 43
1.0
 77
     0
 47
0.0208333333333333
 47
0.0
 47
0.0
 47
0.0
 47
0.0
 47
0.0208333333333333
 47
0.0
 47
0.0
 47
0.0
 47
0.0
 47
1.0
 47
0.0
 47
0.0
 47
0.0
 47
0.0
 47
1.0
171
     0
 49
0.0208333333333333
 49
0.0
 49
0.0
 49
0.0
 49
0.0
 49
0.0208333333333333
 49
0.0
 49
0.0
 49
0.0
 49
0.0
 49
1.0
 49
0.0
 49
0.0
 49
0.0
 49
0.0
 49
1.0
175
     0
142
0.0208333333333333
142
0.0
142
0.0
142
0.0
142
0.0
142
0.0208333333333333
142
0.0
142
0.0
142
0.0
142
0.0
142
1.0
142
0.0
142
0.0
142
0.0
142
0.0
142
1.0
179
     0
144
0.0208333333333333
144
0.0
144
0.0
144
0.0
144
0.0
144
0.0208333333333333
144
0.0
144
0.0
144
0.0
144
0.0
144
1.0
144
0.0
144
0.0
144
0.0
144
0.0
144
1.0
147
0.0208333333333333
147
0.0
147
0.0
147
0.0
147
0.0
147
0.0208333333333333
147
0.0
147
0.0
147
0.0
147
0.0
147
1.0
147
0.0
147
0.0
147
0.0
147
0.0
147
1.0
  0
MATERIAL
  5
21
102
{ACAD_XDICTIONARY
360
22
102
}
102
{ACAD_REACTORS
330
10
102
}
330
10
100
AcDbMaterial
  1
Global
 72
     0
 43
0.0208333333333333
 43
0.0
 43
0.0
 43
0.0
 43
0.0
 43
0.0208333333333333
 43
0.0
 43
0.0
 43
0.0
 43
0.0
 43
1.0
 43
0.0
 43
0.0
 43
0.0
 43
0.0
 43
1.0
 77
     0
 47
0.0208333333333333
 47
0.0
 47
0.0
 47
0.0
 47
0.0
 47
0.0208333333333333
 47
0.0
 47
0.0
 47
0.0
 47
0.0
 47
1.0
 47
0.0
 47
0.0
 47
0.0
 47
0.0
 47
1.0
171
     0
 49
0.0208333333333333
 49
0.0
 49
0.0
 49
0.0
 49
0.0
 49
0.0208333333333333
 49
0.0
 49
0.0
 49
0.0
 49
0.0
 49
1.0
 49
0.0
 49
0.0
 49
0.0
 49
0.0
 49
1.0
175
     0
142
0.0208333333333333
142
0.0
142
0.0
142
0.0
142
0.0
142
0.0208333333333333
142
0.0
142
0.0
142
0.0
142
0.0
142
1.0
142
0.0
142
0.0
142
0.0
142
0.0
142
1.0
179
     0
144
0.0208333333333333
144
0.0
144
0.0
144
0.0
144
0.0
144
0.0208333333333333
144
0.0
144
0.0
144
0.0
144
0.0
144
1.0
144
0.0
144
0.0
144
0.0
144
0.0
144
1.0
147
0.0208333333333333
147
0.0
147
0.0
147
0.0
147
0.0
147
0.0208333333333333
147
0.0
147
0.0
147
0.0
147
0.0
147
1.0
147
0.0
147
0.0
147
0.0
147
0.0
147
1.0
  0
MLEADERSTYLE
  5
67
102
{ACAD_XDICTIONARY
360
13F
102
}
102
{ACAD_REACTORS
330
66
102
}
330
66
100
AcDbMLeaderStyle
179
     2
170
     2
171
     1
172
     0
 90
        2
 40
0.0
 41
0.0
173
     1
 91
-1056964608
340
5B
 92
       -2
290
     1
 42
0.09
291
     1
 43
0.36
  3
Standard
 44
0.18
300

342
55
174
     1
178
     6
175
     1
176
     0
 93
-1056964608
 45
0.18
292
     0
297
     0
 46
0.18
 94
-1056964608
 47
1.0
 49
1.0
140
1.0
293
     1
141
0.0
294
     1
177
     0
142
1.0
295
     0
296
     0
143
0.125
271
     0
272
     9
273
     9
  0
MLINESTYLE
  5
60
102
{ACAD_REACTORS
330
5F
102
}
330
5F
100
AcDbMlineStyle
  2
STANDARD
 70
     0
  3

 62
   256
 51
90.0
 52
90.0
 71
     2
 49
0.5
 62
   256
  6
BYLAYER
 49
-0.5
 62
   256
  6
BYLAYER
  0
ACDBPLACEHOLDER
  5
F
102
{ACAD_REACTORS
330
E
102
}
330
E
  0
SCALE
  5
43
102
{ACAD_REACTORS
330
42
102
}
330
42
100
AcDbScale
 70
     0
300
1:1
140
1.0
141
1.0
290
     1
  0
SCALE
  5
44
102
{ACAD_REACTORS
330
42
102
}
330
42
100
AcDbScale
 70
     0
300
1/128" = 1'-0"
140
0.0078125
141
12.0
290
     0
  0
SCALE
  5
45
102
{ACAD_REACTORS
330
42
102
}
330
42
100
AcDbScale
 70
     0
300
1/64" = 1'-0"
140
0.015625
141
12.0
290
     0
  0
SCALE
  5
46
102
{ACAD_REACTORS
330
42
102
}
330
42
100
AcDbScale
 70
     0
300
1/32" = 1'-0"
140
0.03125
141
12.0
290
     0
  0
SCALE
  5
47
102
{ACAD_REACTORS
330
42
102
}
330
42
100
AcDbScale
 70
     0
300
1/16" = 1'-0"
140
0.0625
141
12.0
290
     0
  0
SCALE
  5
48
102
{ACAD_REACTORS
330
42
102
}
330
42
100
AcDbScale
 70
     0
300
3/32" = 1'-0"
140
0.09375
141
12.0
290
     0
  0
SCALE
  5
49
102
{ACAD_REACTORS
330
42
102
}
330
42
100
AcDbScale
 70
     0
300
1/8" = 1'-0"
140
0.125
141
12.0
290
     0
  0
SCALE
  5
4A
102
{ACAD_REACTORS
330
42
102
}
330
42
100
AcDbScale
 70
     0
300
3/16" = 1'-0"
140
0.1875
141
12.0
290
     0
  0
SCALE
  5
4B
102
{ACAD_REACTORS
330
42
102
}
330
42
100
AcDbScale
 70
     0
300
1/4" = 1'-0"
140
0.25
141
12.0
290
     0
  0
SCALE
  5
4C
102
{ACAD_REACTORS
330
42
102
}
330
42
100
AcDbScale
 70
     0
300
3/8" = 1'-0"
140
0.375
141
12.0
290
     0
  0
SCALE
  5
4D
102
{ACAD_REACTORS
330
42
102
}
330
42
100
AcDbScale
 70
     0
300
1/2" = 1'-0"
140
0.5
141
12.0
290
     0
  0
SCALE
  5
4E
102
{ACAD_REACTORS
330
42
102
}
330
42
100
AcDbScale
 70
     0
300
3/4" = 1'-0"
140
0.75
141
12.0
290
     0
  0
SCALE
  5
4F
102
{ACAD_REACTORS
330
42
102
}
330
42
100
AcDbScale
 70
     0
300
1" = 1'-0"
140
1.0
141
12.0
290
     0
  0
SCALE
  5
50
102
{ACAD_REACTORS
330
42
102
}
330
42
100
AcDbScale
 70
     0
300
1-1/2" = 1'-0"
140
1.5
141
12.0
290
     0
  0
SCALE
  5
51
102
{ACAD_REACTORS
330
42
102
}
330
42
100
AcDbScale
 70
     0
300
3" = 1'-0"
140
3.0
141
12.0
290
     0
  0
SCALE
  5
52
102
{ACAD_REACTORS
330
42
102
}
330
42
100
AcDbScale
 70
     0
300
6" = 1'-0"
140
6.0
141
12.0
290
     0
  0
SCALE
  5
53
102
{ACAD_REACTORS
330
42
102
}
330
42
100
AcDbScale
 70
     0
300
1'-0" = 1'-0"
140
12.0
141
12.0
290
     0
  0
ACDBSECTIONVIEWSTYLE
  5
69
102
{ACAD_XDICTIONARY
360
141
102
}
102
{ACAD_REACTORS
330
68
102
}
330
68
100
AcDbModelDocViewStyle
 70
     0
  3
Imperial24
290
     0
100
AcDbSectionViewStyle
 70
     0
 71
     0
 90
       78
 71
     1
340
55
 62
   256
 40
0.24
340
0
340
0
 62
   256
 40
0.24
300
I, O, Q, S, X, Z
 40
0.48
 90
        3
 40
0.18
 90
        1
 71
     2
340
5D
 90
       25
 62
   256
340
5D
 90
       50
 62
   256
 40
0.24
 40
0.0
 40
0.24
 71
     3
340
55
 62
   256
 40
0.24
 90
        1
 40
0.75
 90
        1
300
%<\AcVar ViewType \f "%tc1">% %<\AcVar ViewSectionStartId>%-%<\AcVar ViewSectionEndId>%\PSCALE %<\AcVar ViewScale \f "%sn">%
 71
     4
 62
   256
 62
   257
300
ANSI31
 40
1.0
 90
        0
290
     0
290
     0
 90
        6
 40
0.0
 40
1.570796326794896
 40
0.2617993877991494
 40
1.308996938995747
 40
-0.2617993877991494
 40
1.832595714594046
  0
TABLESTYLE
  5
65
102
{ACAD_XDICTIONARY
360
10C
102
}
102
{ACAD_REACTORS
330
64
102
}
330
64
100
AcDbTableStyle
280
     0
  3
Standard
 70
     0
 71
     0
 40
0.06
 41
0.06
280
     0
281
     0
  7
Standard
140
0.18
170
     2
 62
     0
 63
     7
283
     0
 90
      512
 91
        0
  1

274
    -2
284
     1
 64
     0
275
    -2
285
     1
 65
     0
276
    -2
286
     1
 66
     0
277
    -2
287
     1
 67
     0
278
    -2
288
     1
 68
     0
279
    -2
289
     1
 69
     0
  7
Standard
140
0.25
170
     5
 62
     0
 63
     7
283
     0
 90
      512
 91
        0
  1

274
    -2
284
     1
 64
     0
275
    -2
285
     1
 65
     0
276
    -2
286
     1
 66
     0
277
    -2
287
     1
 67
     0
278
    -2
288
     1
 68
     0
279
    -2
289
     1
 69
     0
  7
Standard
140
0.18
170
     5
 62
     0
 63
     7
283
     0
 90
      512
 91
        0
  1

274
    -2
284
     1
 64
     0
275
    -2
285
     1
 65
     0
276
    -2
286
     1
 66
     0
277
    -2
287
     1
 67
     0
278
    -2
288
     1
 68
     0
279
    -2
289
     1
 69
     0
  0
VISUALSTYLE
  5
2F
102
{ACAD_XDICTIONARY
360
119
102
}
102
{ACAD_REACTORS
330
29
102
}
330
29
100
AcDbVisualStyle
  2
2dWireframe
 70
     4
177
     2
291
     0
 71
     0
176
     1
 72
     2
176
     1
 73
     0
176
     1
 90
        0
176
     1
 40
0.6
176
     1
 41
30.0
176
     1
 63
     7
421
 16777215
176
     1
 74
     1
176
     1
 91
        4
176
     1
 64
     7
176
     1
 65
   257
176
     1
 75
     1
176
     1
175
     1
176
     1
 42
1.0
176
     1
 92
        0
176
     1
 66
   257
176
     1
 43
1.0
176
     1
 76
     1
176
     1
 77
     6
176
     1
 78
     2
176
     1
 67
     7
176
     1
 79
     5
176
     1
170
     0
176
     1
171
     0
176
     1
290
     0
176
     1
 93
        1
176
     1
 44
0.0
176
     1
173
     0
176
     1
1001
ACAD
1000
AcDbSavedByObjectVersion
1070
     0
  0
VISUALSTYLE
  5
2E
102
{ACAD_XDICTIONARY
360
117
102
}
102
{ACAD_REACTORS
330
29
102
}
330
29
100
AcDbVisualStyle
  2
Basic
 70
     7
177
     2
291
     1
 71
     1
176
     1
 72
     0
176
     1
 73
     1
176
     1
 90
        0
176
     1
 40
0.6
176
     1
 41
30.0
176
     1
 63
     7
421
 16777215
176
     1
 74
     0
176
     1
 91
        4
176
     1
 64
     7
176
     1
 65
   257
176
     1
 75
     1
176
     1
175
     1
176
     1
 42
1.0
176
     1
 92
        8
176
     1
 66
     7
176
     1
 43
1.0
176
     1
 76
     1
176
     1
 77
     6
176
     1
 78
     2
176
     1
 67
     7
176
     1
 79
     5
176
     1
170
     0
176
     1
171
     0
176
     1
290
     0
176
     1
 93
        1
176
     1
 44
0.0
176
     1
173
     0
176
     1
1001
ACAD
1000
AcDbSavedByObjectVersion
1070
     0
  0
VISUALSTYLE
  5
35
102
{ACAD_XDICTIONARY
360
125
102
}
102
{ACAD_REACTORS
330
29
102
}
330
29
100
AcDbVisualStyle
  2
Brighten
 70
    12
177
     2
291
     1
 71
     2
176
     1
 72
     2
176
     1
 73
     0
176
     1
 90
        0
176
     1
 40
0.6
176
     1
 41
30.0
176
     1
 63
     7
421
 16777215
176
     1
 74
     1
176
     1
 91
        4
176
     1
 64
     7
176
     1
 65
   257
176
     1
 75
     1
176
     1
175
     1
176
     1
 42
1.0
176
     1
 92
        8
176
     1
 66
     7
176
     1
 43
1.0
176
     1
 76
     1
176
     1
 77
     6
176
     1
 78
     2
176
     1
 67
     7
176
     1
 79
     5
176
     1
170
     0
176
     1
171
     0
176
     1
290
     0
176
     1
 93
        1
176
     1
 44
50.0
176
     1
173
     0
176
     1
1001
ACAD
1000
AcDbSavedByObjectVersion
1070
     0
  0
VISUALSTYLE
  5
39
102
{ACAD_XDICTIONARY
360
12D
102
}
102
{ACAD_REACTORS
330
29
102
}
330
29
100
AcDbVisualStyle
  2
ColorChange
 70
    16
177
     2
291
     1
 71
     2
176
     1
 72
     2
176
     1
 73
     3
176
     1
 90
        0
176
     1
 40
0.6
176
     1
 41
30.0
176
     1
 63
     8
421
  8421504
176
     1
 74
     1
176
     1
 91
        4
176
     1
 64
     7
176
     1
 65
   257
176
     1
 75
     1
176
     1
175
     1
176
     1
 42
1.0
176
     1
 92
        8
176
     1
 66
     8
424
  8421504
176
     1
 43
1.0
176
     1
 76
     1
176
     1
 77
     6
176
     1
 78
     2
176
     1
 67
     7
176
     1
 79
     5
176
     1
170
     0
176
     1
171
     0
176
     1
290
     0
176
     1
 93
        1
176
     1
 44
0.0
176
     1
173
     0
176
     1
1001
ACAD
1000
AcDbSavedByObjectVersion
1070
     0
  0
VISUALSTYLE
  5
32
102
{ACAD_XDICTIONARY
360
11F
102
}
102
{ACAD_REACTORS
330
29
102
}
330
29
100
AcDbVisualStyle
  2
Conceptual
 70
     9
177
     2
291
     0
 71
     3
176
     1
 72
     2
176
     1
 73
     0
176
     1
 90
        0
176
     1
 40
0.6
176
     1
 41
30.0
176
     1
 63
     7
421
 16777215
176
     1
 74
     2
176
     1
 91
        2
176
     1
 64
     7
176
     1
 65
   257
176
     1
 75
     1
176
     1
175
     1
176
     1
 42
179.0
176
     1
 92
        8
176
     1
 66
     7
176
     1
 43
1.0
176
     1
 76
     1
176
     1
 77
     6
176
     1
 78
     2
176
     1
 67
     7
176
     1
 79
     3
176
     1
170
     0
176
     1
171
     0
176
     1
290
     0
176
     1
 93
        1
176
     1
 44
0.0
176
     1
173
     0
176
     1
1001
ACAD
1000
AcDbSavedByObjectVersion
1070
     0
  0
VISUALSTYLE
  5
34
102
{ACAD_XDICTIONARY
360
123
102
}
102
{ACAD_REACTORS
330
29
102
}
330
29
100
AcDbVisualStyle
  2
Dim
 70
    11
177
     2
291
     1
 71
     2
176
     1
 72
     2
176
     1
 73
     0
176
     1
 90
        0
176
     1
 40
0.6
176
     1
 41
30.0
176
     1
 63
     7
421
 16777215
176
     1
 74
     1
176
     1
 91
        4
176
     1
 64
     7
176
     1
 65
   257
176
     1
 75
     1
176
     1
175
     1
176
     1
 42
1.0
176
     1
 92
        8
176
     1
 66
     7
176
     1
 43
1.0
176
     1
 76
     1
176
     1
 77
     6
176
     1
 78
     2
176
     1
 67
     7
176
     1
 79
     5
176
     1
170
     0
176
     1
171
     0
176
     1
290
     0
176
     1
 93
        1
176
     1
 44
-50.0
176
     1
173
     0
176
     1
1001
ACAD
1000
AcDbSavedByObjectVersion
1070
     0
  0
VISUALSTYLE
  5
41
102
{ACAD_XDICTIONARY
360
13D
102
}
102
{ACAD_REACTORS
330
29
102
}
330
29
100
AcDbVisualStyle
  2
EdgeColorOff
 70
    22
177
     2
291
     1
 71
     2
176
     0
 72
     2
176
     0
 73
     0
176
     0
 90
        0
176
     0
 40
0.6
176
     0
 41
30.0
176
     0
 63
     7
421
 16777215
176
     0
 74
     1
176
     0
 91
        4
176
     0
 64
     7
176
     0
 65
   257
176
     0
 75
     1
176
     0
175
     1
176
     0
 42
1.0
176
     0
 92
        8
176
     2
 66
     7
176
     0
 43
1.0
176
     0
 76
     1
176
     0
 77
     6
176
     0
 78
     2
176
     0
 67
     7
176
     0
 79
     5
176
     0
170
     0
176
     0
171
     0
176
     0
290
     0
176
     0
 93
        1
176
     0
 44
0.0
176
     0
173
     0
176
     0
1001
ACAD
1000
AcDbSavedByObjectVersion
1070
     0
  0
VISUALSTYLE
  5
38
102
{ACAD_XDICTIONARY
360
12B
102
}
102
{ACAD_REACTORS
330
29
102
}
330
29
100
AcDbVisualStyle
  2
Facepattern
 70
    15
177
     2
291
     1
 71
     2
176
     1
 72
     2
176
     1
 73
     0
176
     1
 90
        0
176
     1
 40
0.6
176
     1
 41
30.0
176
     1
 63
     7
421
 16777215
176
     1
 74
     1
176
     1
 91
        4
176
     1
 64
     7
176
     1
 65
   257
176
     1
 75
     1
176
     1
175
     1
176
     1
 42
1.0
176
     1
 92
        8
176
     1
 66
     7
176
     1
 43
1.0
176
     1
 76
     1
176
     1
 77
     6
176
     1
 78
     2
176
     1
 67
     7
176
     1
 79
     5
176
     1
170
     0
176
     1
171
     0
176
     1
290
     0
176
     1
 93
        1
176
     1
 44
0.0
176
     1
173
     0
176
     1
1001
ACAD
1000
AcDbSavedByObjectVersion
1070
     0
  0
VISUALSTYLE
  5
2A
102
{ACAD_XDICTIONARY
360
10F
102
}
102
{ACAD_REACTORS
330
29
102
}
330
29
100
AcDbVisualStyle
  2
Flat
 70
     0
177
     2
291
     1
 71
     2
176
     1
 72
     1
176
     1
 73
     1
176
     1
 90
        2
176
     1
 40
0.6
176
     1
 41
30.0
176
     1
 63
     7
421
 16777215
176
     1
 74
     0
176
     1
 91
        0
176
     1
 64
     7
176
     1
 65
   257
176
     1
 75
     1
176
     1
175
     1
176
     1
 42
1.0
176
     1
 92
        8
176
     1
 66
     7
176
     1
 43
1.0
176
     1
 76
     1
176
     1
 77
     6
176
     1
 78
     2
176
     1
 67
     7
176
     1
 79
     5
176
     1
170
     0
176
     1
171
     0
176
     1
290
     0
176
     1
 93
       13
176
     1
 44
0.0
176
     1
173
     0
176
     1
1001
ACAD
1000
AcDbSavedByObjectVersion
1070
     0
  0
VISUALSTYLE
  5
2B
102
{ACAD_XDICTIONARY
360
111
102
}
102
{ACAD_REACTORS
330
29
102
}
330
29
100
AcDbVisualStyle
  2
FlatWithEdges
 70
     1
177
     2
291
     1
 71
     2
176
     1
 72
     1
176
     1
 73
     1
176
     1
 90
        2
176
     1
 40
0.6
176
     1
 41
30.0
176
     1
 63
     7
421
 16777215
176
     1
 74
     1
176
     1
 91
        0
176
     1
 64
     7
176
     1
 65
   257
176
     1
 75
     1
176
     1
175
     1
176
     1
 42
1.0
176
     1
 92
        0
176
     1
 66
   257
176
     1
 43
1.0
176
     1
 76
     1
176
     1
 77
     6
176
     1
 78
     2
176
     1
 67
     7
176
     1
 79
     5
176
     1
170
     0
176
     1
171
     0
176
     1
290
     0
176
     1
 93
       13
176
     1
 44
0.0
176
     1
173
     0
176
     1
1001
ACAD
1000
AcDbSavedByObjectVersion
1070
     0
  0
VISUALSTYLE
  5
2C
102
{ACAD_XDICTIONARY
360
113
102
}
102
{ACAD_REACTORS
330
29
102
}
330
29
100
AcDbVisualStyle
  2
Gouraud
 70
     2
177
     2
291
     1
 71
     2
176
     1
 72
     2
176
     1
 73
     1
176
     1
 90
        2
176
     1
 40
0.6
176
     1
 41
30.0
176
     1
 63
     7
421
 16777215
176
     1
 74
     0
176
     1
 91
        0
176
     1
 64
     7
176
     1
 65
   257
176
     1
 75
     1
176
     1
175
     1
176
     1
 42
1.0
176
     1
 92
        0
176
     1
 66
     7
176
     1
 43
1.0
176
     1
 76
     1
176
     1
 77
     6
176
     1
 78
     2
176
     1
 67
     7
176
     1
 79
     5
176
     1
170
     0
176
     1
171
     0
176
     1
290
     0
176
     1
 93
       13
176
     1
 44
0.0
176
     1
173
     0
176
     1
1001
ACAD
1000
AcDbSavedByObjectVersion
1070
     0
  0
VISUALSTYLE
  5
2D
102
{ACAD_XDICTIONARY
360
115
102
}
102
{ACAD_REACTORS
330
29
102
}
330
29
100
AcDbVisualStyle
  2
GouraudWithEdges
 70
     3
177
     2
291
     1
 71
     2
176
     1
 72
     2
176
     1
 73
     1
176
     1
 90
        2
176
     1
 40
0.6
176
     1
 41
30.0
176
     1
 63
     7
421
 16777215
176
     1
 74
     1
176
     1
 91
        0
176
     1
 64
     7
176
     1
 65
   257
176
     1
 75
     1
176
     1
175
     1
176
     1
 42
1.0
176
     1
 92
        0
176
     1
 66
   257
176
     1
 43
1.0
176
     1
 76
     1
176
     1
 77
     6
176
     1
 78
     2
176
     1
 67
     7
176
     1
 79
     5
176
     1
170
     0
176
     1
171
     0
176
     1
290
     0
176
     1
 93
       13
176
     1
 44
0.0
176
     1
173
     0
176
     1
1001
ACAD
1000
AcDbSavedByObjectVersion
1070
     0
  0
VISUALSTYLE
  5
31
102
{ACAD_XDICTIONARY
360
11D
102
}
102
{ACAD_REACTORS
330
29
102
}
330
29
100
AcDbVisualStyle
  2
Hidden
 70
     6
177
     2
291
     0
 71
     1
176
     1
 72
     2
176
     1
 73
     2
176
     1
 90
        0
176
     1
 40
0.6
176
     1
 41
30.0
176
     1
 63
     7
421
 16777215
176
     1
 74
     2
176
     1
 91
        2
176
     1
 64
     7
176
     1
 65
   257
176
     1
 75
     2
176
     1
175
     1
176
     1
 42
40.0
176
     1
 92
        0
176
     1
 66
   257
176
     1
 43
1.0
176
     1
 76
     1
176
     1
 77
     6
176
     1
 78
     2
176
     1
 67
     7
176
     1
 79
     3
176
     1
170
     0
176
     1
171
     0
176
     1
290
     0
176
     1
 93
        1
176
     1
 44
0.0
176
     1
173
     0
176
     1
1001
ACAD
1000
AcDbSavedByObjectVersion
1070
     0
  0
VISUALSTYLE
  5
3F
102
{ACAD_XDICTIONARY
360
139
102
}
102
{ACAD_REACTORS
330
29
102
}
330
29
100
AcDbVisualStyle
  2
JitterOff
 70
    20
177
     2
291
     1
 71
     2
176
     0
 72
     2
176
     0
 73
     0
176
     0
 90
        0
176
     0
 40
0.6
176
     0
 41
30.0
176
     0
 63
     7
421
 16777215
176
     0
 74
     1
176
     0
 91
        4
176
     0
 64
     7
176
     0
 65
   257
176
     0
 75
     1
176
     0
175
     1
176
     0
 42
1.0
176
     0
 92
       10
176
     2
 66
     7
176
     0
 43
1.0
176
     0
 76
     1
176
     0
 77
     6
176
     0
 78
     2
176
     0
 67
     7
176
     0
 79
     5
176
     0
170
     0
176
     0
171
     0
176
     0
290
     0
176
     0
 93
        1
176
     0
 44
0.0
176
     0
173
     0
176
     0
1001
ACAD
1000
AcDbSavedByObjectVersion
1070
     0
  0
VISUALSTYLE
  5
37
102
{ACAD_XDICTIONARY
360
129
102
}
102
{ACAD_REACTORS
330
29
102
}
330
29
100
AcDbVisualStyle
  2
Linepattern
 70
    14
177
     2
291
     1
 71
     2
176
     1
 72
     2
176
     1
 73
     0
176
     1
 90
        0
176
     1
 40
0.6
176
     1
 41
30.0
176
     1
 63
     7
421
 16777215
176
     1
 74
     1
176
     1
 91
        4
176
     1
 64
     7
176
     1
 65
   257
176
     1
 75
     7
176
     1
175
     7
176
     1
 42
1.0
176
     1
 92
        8
176
     1
 66
     7
176
     1
 43
1.0
176
     1
 76
     1
176
     1
 77
     6
176
     1
 78
     2
176
     1
 67
     7
176
     1
 79
     5
176
     1
170
     0
176
     1
171
     0
176
     1
290
     0
176
     1
 93
        1
176
     1
 44
0.0
176
     1
173
     0
176
     1
1001
ACAD
1000
AcDbSavedByObjectVersion
1070
     0
  0
VISUALSTYLE
  5
40
102
{ACAD_XDICTIONARY
360
13B
102
}
102
{ACAD_REACTORS
330
29
102
}
330
29
100
AcDbVisualStyle
  2
OverhangOff
 70
    21
177
     2
291
     1
 71
     2
176
     0
 72
     2
176
     0
 73
     0
176
     0
 90
        0
176
     0
 40
0.6
176
     0
 41
30.0
176
     0
 63
     7
421
 16777215
176
     0
 74
     1
176
     0
 91
        4
176
     0
 64
     7
176
     0
 65
   257
176
     0
 75
     1
176
     0
175
     1
176
     0
 42
1.0
176
     0
 92
        9
176
     2
 66
     7
176
     0
 43
1.0
176
     0
 76
     1
176
     0
 77
     6
176
     0
 78
     2
176
     0
 67
     7
176
     0
 79
     5
176
     0
170
     0
176
     0
171
     0
176
     0
290
     0
176
     0
 93
        1
176
     0
 44
0.0
176
     0
173
     0
176
     0
1001
ACAD
1000
AcDbSavedByObjectVersion
1070
     0
  0
VISUALSTYLE
  5
33
102
{ACAD_XDICTIONARY
360
121
102
}
102
{ACAD_REACTORS
330
29
102
}
330
29
100
AcDbVisualStyle
  2
Realistic
 70
     8
177
     2
291
     0
 71
     2
176
     1
 72
     3
176
     1
 73
     0
176
     1
 90
        2
176
     1
 40
0.6
176
     1
 41
30.0
176
     1
 63
     7
421
 16777215
176
     1
 74
     0
176
     1
 91
        0
176
     1
 64
     7
176
     1
 65
   257
176
     1
 75
     1
176
     1
175
     1
176
     1
 42
1.0
176
     1
 92
        8
176
     1
 66
   257
176
     1
 43
1.0
176
     1
 76
     1
176
     1
 77
     6
176
     1
 78
     2
176
     1
 67
     7
176
     1
 79
     3
176
     1
170
     0
176
     1
171
     0
176
     1
290
     0
176
     1
 93
       13
176
     1
 44
0.0
176
     1
173
     0
176
     1
1001
ACAD
1000
AcDbSavedByObjectVersion
1070
     0
  0
VISUALSTYLE
  5
3E
102
{ACAD_XDICTIONARY
360
137
102
}
102
{ACAD_REACTORS
330
29
102
}
330
29
100
AcDbVisualStyle
  2
Shaded
 70
    27
177
     2
291
     0
 71
     2
176
     1
 72
     2
176
     1
 73
     1
176
     1
 90
        2
176
     1
 40
0.6
176
     1
 41
30.0
176
     1
 63
     7
421
 16777215
176
     1
 74
     0
176
     1
 91
        4
176
     1
 64
     7
176
     1
 65
   257
176
     1
 75
     1
176
     1
175
     1
176
     1
 42
1.0
176
     1
 92
        8
176
     1
 66
   257
176
     1
 43
1.0
176
     1
 76
     1
176
     1
 77
     6
176
     1
 78
     2
176
     1
 67
     8
425
  7895160
176
     1
 79
     3
176
     1
170
     0
176
     1
171
     0
176
     1
290
     0
176
     1
 93
        5
176
     1
 44
0.0
176
     1
173
     0
176
     1
1001
ACAD
1000
AcDbSavedByObjectVersion
1070
     0
  0
VISUALSTYLE
  5
3D
102
{ACAD_XDICTIONARY
360
135
102
}
102
{ACAD_REACTORS
330
29
102
}
330
29
100
AcDbVisualStyle
  2
Shaded with edges
 70
    26
177
     2
291
     0
 71
     2
176
     1
 72
     2
176
     1
 73
     1
176
     1
 90
        2
176
     1
 40
0.6
176
     1
 41
30.0
176
     1
 63
     7
421
 16777215
176
     1
 74
     1
176
     1
 91
        2
176
     1
 64
     7
176
     1
 65
   257
176
     1
 75
     2
176
     1
175
     1
176
     1
 42
1.0
176
     1
 92
        8
176
     1
 66
   257
176
     1
 43
1.0
176
     1
 76
     1
176
     1
 77
     6
176
     1
 78
     2
176
     1
 67
     7
176
     1
 79
     3
176
     1
170
     0
176
     1
171
     0
176
     1
290
     0
176
     1
 93
        5
176
     1
 44
0.0
176
     1
173
     0
176
     1
1001
ACAD
1000
AcDbSavedByObjectVersion
1070
     0
  0
VISUALSTYLE
  5
3A
102
{ACAD_XDICTIONARY
360
12F
102
}
102
{ACAD_REACTORS
330
29
102
}
330
29
100
AcDbVisualStyle
  2
Shades of Gray
 70
    23
177
     2
291
     0
 71
     2
176
     1
 72
     2
176
     1
 73
     3
176
     1
 90
        0
176
     1
 40
0.6
176
     1
 41
30.0
176
     1
 63
     7
421
 16777215
176
     1
 74
     2
176
     1
 91
        2
176
     1
 64
     7
176
     1
 65
     7
176
     1
 75
     1
176
     1
175
     1
176
     1
 42
40.0
176
     1
 92
        8
176
     1
 66
     7
176
     1
 43
1.0
176
     1
 76
     1
176
     1
 77
     6
176
     1
 78
     2
176
     1
 67
     7
176
     1
 79
     3
176
     1
170
     0
176
     1
171
     0
176
     1
290
     0
176
     1
 93
        1
176
     1
 44
0.0
176
     1
173
     0
176
     1
1001
ACAD
1000
AcDbSavedByObjectVersion
1070
     0
  0
VISUALSTYLE
  5
3B
102
{ACAD_XDICTIONARY
360
131
102
}
102
{ACAD_REACTORS
330
29
102
}
330
29
100
AcDbVisualStyle
  2
Sketchy
 70
    24
177
     2
291
     0
 71
     1
176
     1
 72
     2
176
     1
 73
     2
176
     1
 90
        0
176
     1
 40
0.6
176
     1
 41
30.0
176
     1
 63
     7
421
 16777215
176
     1
 74
     2
176
     1
 91
        2
176
     1
 64
     7
176
     1
 65
     7
176
     1
 75
     1
176
     1
175
     1
176
     1
 42
40.0
176
     1
 92
       11
176
     1
 66
     7
176
     1
 43
1.0
176
     1
 76
     1
176
     1
 77
     6
176
     1
 78
     2
176
     1
 67
     7
176
     1
 79
     6
176
     1
170
     0
176
     1
171
     0
176
     1
290
     0
176
     1
 93
        1
176
     1
 44
0.0
176
     1
173
     0
176
     1
1001
ACAD
1000
AcDbSavedByObjectVersion
1070
     0
  0
VISUALSTYLE
  5
36
102
{ACAD_XDICTIONARY
360
127
102
}
102
{ACAD_REACTORS
330
29
102
}
330
29
100
AcDbVisualStyle
  2
Thicken
 70
    13
177
     2
291
     1
 71
     2
176
     1
 72
     2
176
     1
 73
     0
176
     1
 90
        0
176
     1
 40
0.6
176
     1
 41
30.0
176
     1
 63
     7
421
 16777215
176
     1
 74
     1
176
     1
 91
        4
176
     1
 64
     7
176
     1
 65
   257
176
     1
 75
     1
176
     1
175
     1
176
     1
 42
1.0
176
     1
 92
       12
176
     1
 66
     7
176
     1
 43
1.0
176
     1
 76
     1
176
     1
 77
     6
176
     1
 78
     2
176
     1
 67
     7
176
     1
 79
     5
176
     1
170
     0
176
     1
171
     0
176
     1
290
     0
176
     1
 93
        1
176
     1
 44
0.0
176
     1
173
     0
176
     1
1001
ACAD
1000
AcDbSavedByObjectVersion
1070
     0
  0
VISUALSTYLE
  5
30
102
{ACAD_XDICTIONARY
360
11B
102
}
102
{ACAD_REACTORS
330
29
102
}
330
29
100
AcDbVisualStyle
  2
Wireframe
 70
     5
177
     2
291
     0
 71
     0
176
     1
 72
     2
176
     1
 73
     0
176
     1
 90
        0
176
     1
 40
0.6
176
     1
 41
30.0
176
     1
 63
     7
421
 16777215
176
     1
 74
     1
176
     1
 91
        4
176
     1
 64
     7
176
     1
 65
   257
176
     1
 75
     1
176
     1
175
     1
176
     1
 42
1.0
176
     1
 92
        0
176
     1
 66
   257
176
     1
 43
1.0
176
     1
 76
     1
176
     1
 77
     6
176
     1
 78
     2
176
     1
 67
     7
176
     1
 79
     3
176
     1
170
     0
176
     1
171
     0
176
     1
290
     0
176
     1
 93
        1
176
     1
 44
0.0
176
     1
173
     0
176
     1
1001
ACAD
1000
AcDbSavedByObjectVersion
1070
     0
  0
VISUALSTYLE
  5
3C
102
{ACAD_XDICTIONARY
360
133
102
}
102
{ACAD_REACTORS
330
29
102
}
330
29
100
AcDbVisualStyle
  2
X-Ray
 70
    25
177
     2
291
     0
 71
     2
176
     1
 72
     2
176
     1
 73
     1
176
     1
 90
        1
176
     1
 40
0.5
176
     1
 41
30.0
176
     1
 63
     7
421
 16777215
176
     1
 74
     1
176
     1
 91
        0
176
     1
 64
     7
176
     1
 65
   257
176
     1
 75
     1
176
     1
175
     1
176
     1
 42
1.0
176
     1
 92
        8
176
     1
 66
     7
176
     1
 43
1.0
176
     1
 76
     1
176
     1
 77
     6
176
     1
 78
     2
176
     1
 67
     7
176
     1
 79
     3
176
     1
170
     0
176
     1
171
     0
176
     1
290
     0
176
     1
 93
       13
176
     1
 44
0.0
176
     1
173
     0
176
     1
1001
ACAD
1000
AcDbSavedByObjectVersion
1070
     0
  0
DICTIONARYVAR
  5
10B
102
{ACAD_REACTORS
330
106
102
}
330
106
100
DictionaryVariables
280
     0
  1
1:1
  0
DICTIONARYVAR
  5
108
102
{ACAD_REACTORS
330
106
102
}
330
106
100
DictionaryVariables
280
     0
  1
STANDARD
  0
DICTIONARYVAR
  5
107
102
{ACAD_REACTORS
330
106
102
}
330
106
100
DictionaryVariables
280
     0
  1
STANDARD
  0
DICTIONARYVAR
  5
109
102
{ACAD_REACTORS
330
106
102
}
330
106
100
DictionaryVariables
280
     0
  1
Imperial24
  0
DICTIONARYVAR
  5
10A
102
{ACAD_REACTORS
330
106
102
}
330
106
100
DictionaryVariables
280
     0
  1
Imperial24
  0
DICTIONARY
  5
143
330
6B
100
AcDbDictionary
280
     1
281
     1
  3
ACAD_XREC_ROUNDTRIP
360
144
  0
DICTIONARY
  5
1A
330
19
100
AcDbDictionary
280
     1
281
     1
  3
BUMPTILE
360
1C
  3
DIFFUSETILE
360
1B
  3
OPACITYTILE
360
1F
  3
REFLECTIONTILE
360
1E
  3
REFRACTIONTILE
360
20
  3
SPECULARTILE
360
1D
  0
DICTIONARY
  5
12
330
11
100
AcDbDictionary
280
     1
281
     1
  3
BUMPTILE
360
14
  3
DIFFUSETILE
360
13
  3
OPACITYTILE
360
17
  3
REFLECTIONTILE
360
16
  3
REFRACTIONTILE
360
18
  3
SPECULARTILE
360
15
  0
DICTIONARY
  5
22
330
21
100
AcDbDictionary
280
     1
281
     1
  3
BUMPTILE
360
24
  3
DIFFUSETILE
360
23
  3
OPACITYTILE
360
27
  3
REFLECTIONTILE
360
26
  3
REFRACTIONTILE
360
28
  3
SPECULARTILE
360
25
  0
DICTIONARY
  5
13F
330
67
100
AcDbDictionary
280
     1
281
     1
  3
ACAD_XREC_ROUNDTRIP
360
140
  0
DICTIONARY
  5
141
330
69
100
AcDbDictionary
280
     1
281
     1
  3
ACAD_XREC_ROUNDTRIP
360
142
  0
DICTIONARY
  5
10C
330
65
100
AcDbDictionary
280
     1
281
     1
  3
ACAD_ROUNDTRIP_2008_TABLESTYLE_CELLSTYLEMAP
360
10D
  0
DICTIONARY
  5
119
330
2F
100
AcDbDictionary
280
     1
281
     1
  3
ACAD_XREC_ROUNDTRIP
360
11A
  0
DICTIONARY
  5
117
330
2E
100
AcDbDictionary
280
     1
281
     1
  3
ACAD_XREC_ROUNDTRIP
360
118
  0
DICTIONARY
  5
125
330
35
100
AcDbDictionary
280
     1
281
     1
  3
ACAD_XREC_ROUNDTRIP
360
126
  0
DICTIONARY
  5
12D
330
39
100
AcDbDictionary
280
     1
281
     1
  3
ACAD_XREC_ROUNDTRIP
360
12E
  0
DICTIONARY
  5
11F
330
32
100
AcDbDictionary
280
     1
281
     1
  3
ACAD_XREC_ROUNDTRIP
360
120
  0
DICTIONARY
  5
123
330
34
100
AcDbDictionary
280
     1
281
     1
  3
ACAD_XREC_ROUNDTRIP
360
124
  0
DICTIONARY
  5
13D
330
41
100
AcDbDictionary
280
     1
281
     1
  3
ACAD_XREC_ROUNDTRIP
360
13E
  0
DICTIONARY
  5
12B
330
38
100
AcDbDictionary
280
     1
281
     1
  3
ACAD_XREC_ROUNDTRIP
360
12C
  0
DICTIONARY
  5
10F
330
2A
100
AcDbDictionary
280
     1
281
     1
  3
ACAD_XREC_ROUNDTRIP
360
110
  0
DICTIONARY
  5
111
330
2B
100
AcDbDictionary
280
     1
281
     1
  3
ACAD_XREC_ROUNDTRIP
360
112
  0
DICTIONARY
  5
113
330
2C
100
AcDbDictionary
280
     1
281
     1
  3
ACAD_XREC_ROUNDTRIP
360
114
  0
DICTIONARY
  5
115
330
2D
100
AcDbDictionary
280
     1
281
     1
  3
ACAD_XREC_ROUNDTRIP
360
116
  0
DICTIONARY
  5
11D
330
31
100
AcDbDictionary
280
     1
281
     1
  3
ACAD_XREC_ROUNDTRIP
360
11E
  0
DICTIONARY
  5
139
330
3F
100
AcDbDictionary
280
     1
281
     1
  3
ACAD_XREC_ROUNDTRIP
360
13A
  0
DICTIONARY
  5
129
330
37
100
AcDbDictionary
280
     1
281
     1
  3
ACAD_XREC_ROUNDTRIP
360
12A
  0
DICTIONARY
  5
13B
330
40
100
AcDbDictionary
280
     1
281
     1
  3
ACAD_XREC_ROUNDTRIP
360
13C
  0
DICTIONARY
  5
121
330
33
100
AcDbDictionary
280
     1
281
     1
  3
ACAD_XREC_ROUNDTRIP
360
122
  0
DICTIONARY
  5
137
330
3E
100
AcDbDictionary
280
     1
281
     1
  3
ACAD_XREC_ROUNDTRIP
360
138
  0
DICTIONARY
  5
135
330
3D
100
AcDbDictionary
280
     1
281
     1
  3
ACAD_XREC_ROUNDTRIP
360
136
  0
DICTIONARY
  5
12F
330
3A
100
AcDbDictionary
280
     1
281
     1
  3
ACAD_XREC_ROUNDTRIP
360
130
  0
DICTIONARY
  5
131
330
3B
100
AcDbDictionary
280
     1
281
     1
  3
ACAD_XREC_ROUNDTRIP
360
132
  0
DICTIONARY
  5
127
330
36
100
AcDbDictionary
280
     1
281
     1
  3
ACAD_XREC_ROUNDTRIP
360
128
  0
DICTIONARY
  5
11B
330
30
100
AcDbDictionary
280
     1
281
     1
  3
ACAD_XREC_ROUNDTRIP
360
11C
  0
DICTIONARY
  5
133
330
3C
100
AcDbDictionary
280
     1
281
     1
  3
ACAD_XREC_ROUNDTRIP
360
134
  0
XRECORD
  5
144
102
{ACAD_REACTORS
330
143
102
}
330
143
100
AcDbXrecord
280
     1
102
DISPLAYNAME
  1
Imperial24
102
FLAGS
 90
        0
  0
XRECORD
  5
1C
102
{ACAD_REACTORS
330
1A
102
}
330
1A
100
AcDbXrecord
280
     1
270
     1
271
     1
  0
XRECORD
  5
1B
102
{ACAD_REACTORS
330
1A
102
}
330
1A
100
AcDbXrecord
280
     1
270
     1
271
     1
  0
XRECORD
  5
1F
102
{ACAD_REACTORS
330
1A
102
}
330
1A
100
AcDbXrecord
280
     1
270
     1
271
     1
  0
XRECORD
  5
1E
102
{ACAD_REACTORS
330
1A
102
}
330
1A
100
AcDbXrecord
280
     1
270
     1
271
     1
  0
XRECORD
  5
20
102
{ACAD_REACTORS
330
1A
102
}
330
1A
100
AcDbXrecord
280
     1
270
     1
271
     1
  0
XRECORD
  5
1D
102
{ACAD_REACTORS
330
1A
102
}
330
1A
100
AcDbXrecord
280
     1
270
     1
271
     1
  0
XRECORD
  5
14
102
{ACAD_REACTORS
330
12
102
}
330
12
100
AcDbXrecord
280
     1
270
     1
271
     1
  0
XRECORD
  5
13
102
{ACAD_REACTORS
330
12
102
}
330
12
100
AcDbXrecord
280
     1
270
     1
271
     1
  0
XRECORD
  5
17
102
{ACAD_REACTORS
330
12
102
}
330
12
100
AcDbXrecord
280
     1
270
     1
271
     1
  0
XRECORD
  5
16
102
{ACAD_REACTORS
330
12
102
}
330
12
100
AcDbXrecord
280
     1
270
     1
271
     1
  0
XRECORD
  5
18
102
{ACAD_REACTORS
330
12
102
}
330
12
100
AcDbXrecord
280
     1
270
     1
271
     1
  0
XRECORD
  5
15
102
{ACAD_REACTORS
330
12
102
}
330
12
100
AcDbXrecord
280
     1
270
     1
271
     1
  0
XRECORD
  5
24
102
{ACAD_REACTORS
330
22
102
}
330
22
100
AcDbXrecord
280
     1
270
     1
271
     1
  0
XRECORD
  5
23
102
{ACAD_REACTORS
330
22
102
}
330
22
100
AcDbXrecord
280
     1
270
     1
271
     1
  0
XRECORD
  5
27
102
{ACAD_REACTORS
330
22
102
}
330
22
100
AcDbXrecord
280
     1
270
     1
271
     1
  0
XRECORD
  5
26
102
{ACAD_REACTORS
330
22
102
}
330
22
100
AcDbXrecord
280
     1
270
     1
271
     1
  0
XRECORD
  5
28
102
{ACAD_REACTORS
330
22
102
}
330
22
100
AcDbXrecord
280
     1
270
     1
271
     1
  0
XRECORD
  5
25
102
{ACAD_REACTORS
330
22
102
}
330
22
100
AcDbXrecord
280
     1
270
     1
271
     1
  0
XRECORD
  5
140
102
{ACAD_REACTORS
330
13F
102
}
330
13F
100
AcDbXrecord
280
     1
102
ACAD_ROUNDTRIP_2012_MLEADER_STYLE
298
     1
  0
XRECORD
  5
142
102
{ACAD_REACTORS
330
141
102
}
330
141
100
AcDbXrecord
280
     1
102
DISPLAYNAME
  1
Imperial24
102
FLAGS
 90
        0
  0
CELLSTYLEMAP
  5
10D
102
{ACAD_REACTORS
330
10C
102
}
330
10C
100
AcDbCellStyleMap
 90
        3
300
CELLSTYLE
  1
TABLEFORMAT_BEGIN
 90
        5
170
     1
 91
        0
 92
    32768
 62
   257
 93
        1
300
CONTENTFORMAT
  1
CONTENTFORMAT_BEGIN
 90
        0
 91
        0
 92
      512
 93
        0
300

 40
0.0
140
1.0
 94
        5
 62
     0
340
55
144
0.25
309
CONTENTFORMAT_END
171
     0
 94
        0
309
TABLEFORMAT_END
  1
CELLSTYLE_BEGIN
 90
        1
 91
        1
300
_TITLE
309
CELLSTYLE_END
300
CELLSTYLE
  1
TABLEFORMAT_BEGIN
 90
        5
170
     1
 91
        0
 92
        0
 62
   257
 93
        1
300
CONTENTFORMAT
  1
CONTENTFORMAT_BEGIN
 90
        0
 91
        0
 92
      512
 93
        0
300

 40
0.0
140
1.0
 94
        5
 62
     0
340
55
144
0.18
309
CONTENTFORMAT_END
171
     0
 94
        0
309
TABLEFORMAT_END
  1
CELLSTYLE_BEGIN
 90
        2
 91
        1
300
_HEADER
309
CELLSTYLE_END
300
CELLSTYLE
  1
TABLEFORMAT_BEGIN
 90
        5
170
     1
 91
        0
 92
        0
 62
   257
 93
        1
300
CONTENTFORMAT
  1
CONTENTFORMAT_BEGIN
 90
        0
 91
        0
 92
      512
 93
        0
300

 40
0.0
140
1.0
 94
        2
 62
     0
340
55
144
0.18
309
CONTENTFORMAT_END
171
     0
 94
        0
309
TABLEFORMAT_END
  1
CELLSTYLE_BEGIN
 90
        3
 91
        2
300
_DATA
309
CELLSTYLE_END
  0
XRECORD
  5
11A
102
{ACAD_REACTORS
330
119
102
}
330
119
100
AcDbXrecord
280
     1
102
RTVSPost2010Prop28
280
     1
102
RTVSPost2010PropOp28
 70
     1
102
RTVSPost2010Prop29
280
     1
102
RTVSPost2010PropOp29
 70
     1
102
RTVSPost2010Prop30
280
     0
102
RTVSPost2010PropOp30
 70
     1
102
RTVSPost2010Prop31
280
     0
102
RTVSPost2010PropOp31
 70
     1
102
RTVSPost2010Prop32
280
     0
102
RTVSPost2010PropOp32
 70
     1
102
RTVSPost2010Prop33
280
     0
102
RTVSPost2010PropOp33
 70
     1
102
RTVSPost2010Prop34
280
     0
102
RTVSPost2010PropOp34
 70
     1
102
RTVSPost2010Prop35
280
     0
102
RTVSPost2010PropOp35
 70
     1
102
RTVSPost2010Prop36
280
     0
102
RTVSPost2010PropOp36
 70
     1
102
RTVSPost2010Prop37
 90
       50
102
RTVSPost2010PropOp37
 70
     1
102
RTVSPost2010Prop38
140
0.0
102
RTVSPost2010PropOp38
 70
     1
102
RTVSPost2010Prop39
140
1.0
102
RTVSPost2010PropOp39
 70
     1
102
RTVSPost2010Prop40
 90
        0
102
RTVSPost2010PropOp40
 70
     1
102
RTVSPost2010Prop41ColorIndex
 90
       18
102
RTVSPost2010Prop41ColorRGB
 90
        0
102
RTVSPost2010PropOp41
 70
     1
102
RTVSPost2010Prop42
 90
       50
102
RTVSPost2010PropOp42
 70
     1
102
RTVSPost2010Prop43
 90
        3
102
RTVSPost2010PropOp43
 70
     1
102
RTVSPost2010Prop44ColorIndex
 90
        5
102
RTVSPost2010Prop44ColorRGB
 90
      255
102
RTVSPost2010PropOp44
 70
     1
102
RTVSPost2010Prop45
280
     0
102
RTVSPost2010PropOp45
 70
     1
102
RTVSPost2010Prop46
 90
       50
102
RTVSPost2010PropOp46
 70
     1
102
RTVSPost2010Prop47
 90
       50
102
RTVSPost2010PropOp47
 70
     1
102
RTVSPost2010Prop48
 90
       50
102
RTVSPost2010PropOp48
 70
     1
102
RTVSPost2010Prop49
280
     0
102
RTVSPost2010PropOp49
 70
     1
102
RTVSPost2010Prop50
 90
       50
102
RTVSPost2010PropOp50
 70
     1
102
RTVSPost2010Prop51ColorIndex
 90
      256
102
RTVSPost2010Prop51ColorRGB
 90
-16777216
102
RTVSPost2010PropOp51
 70
     0
102
RTVSPost2010Prop52
140
1.0
102
RTVSPost2010PropOp52
 70
     0
102
RTVSPost2010Prop53
 90
        2
102
RTVSPost2010PropOp53
 70
     1
102
RTVSPost2010Prop54
  1
strokes_ogs.tif
102
RTVSPost2010PropOp54
 70
     1
102
RTVSPost2010Prop55
280
     0
102
RTVSPost2010PropOp55
 70
     1
102
RTVSPost2010Prop56
140
1.0
102
RTVSPost2010PropOp56
 70
     1
102
RTVSPost2010Prop57
140
1.0
102
RTVSPost2010PropOp57
 70
     1
  0
XRECORD
  5
118
102
{ACAD_REACTORS
330
117
102
}
330
117
100
AcDbXrecord
280
     1
102
RTVSPost2010Prop28
280
     0
102
RTVSPost2010PropOp28
 70
     1
102
RTVSPost2010Prop29
280
     1
102
RTVSPost2010PropOp29
 70
     1
102
RTVSPost2010Prop30
280
     1
102
RTVSPost2010PropOp30
 70
     1
102
RTVSPost2010Prop31
280
     0
102
RTVSPost2010PropOp31
 70
     1
102
RTVSPost2010Prop32
280
     0
102
RTVSPost2010PropOp32
 70
     1
102
RTVSPost2010Prop33
280
     0
102
RTVSPost2010PropOp33
 70
     1
102
RTVSPost2010Prop34
280
     0
102
RTVSPost2010PropOp34
 70
     1
102
RTVSPost2010Prop35
280
     0
102
RTVSPost2010PropOp35
 70
     1
102
RTVSPost2010Prop36
280
     0
102
RTVSPost2010PropOp36
 70
     1
102
RTVSPost2010Prop37
 90
       50
102
RTVSPost2010PropOp37
 70
     1
102
RTVSPost2010Prop38
140
0.0
102
RTVSPost2010PropOp38
 70
     1
102
RTVSPost2010Prop39
140
1.0
102
RTVSPost2010PropOp39
 70
     1
102
RTVSPost2010Prop40
 90
        0
102
RTVSPost2010PropOp40
 70
     1
102
RTVSPost2010Prop41ColorIndex
 90
       18
102
RTVSPost2010Prop41ColorRGB
 90
        0
102
RTVSPost2010PropOp41
 70
     1
102
RTVSPost2010Prop42
 90
       50
102
RTVSPost2010PropOp42
 70
     1
102
RTVSPost2010Prop43
 90
        3
102
RTVSPost2010PropOp43
 70
     1
102
RTVSPost2010Prop44ColorIndex
 90
        5
102
RTVSPost2010Prop44ColorRGB
 90
      255
102
RTVSPost2010PropOp44
 70
     1
102
RTVSPost2010Prop45
280
     0
102
RTVSPost2010PropOp45
 70
     1
102
RTVSPost2010Prop46
 90
       50
102
RTVSPost2010PropOp46
 70
     1
102
RTVSPost2010Prop47
 90
       50
102
RTVSPost2010PropOp47
 70
     1
102
RTVSPost2010Prop48
 90
       50
102
RTVSPost2010PropOp48
 70
     1
102
RTVSPost2010Prop49
280
     0
102
RTVSPost2010PropOp49
 70
     1
102
RTVSPost2010Prop50
 90
       50
102
RTVSPost2010PropOp50
 70
     1
102
RTVSPost2010Prop51ColorIndex
 90
      256
102
RTVSPost2010Prop51ColorRGB
 90
-16777216
102
RTVSPost2010PropOp51
 70
     0
102
RTVSPost2010Prop52
140
1.0
102
RTVSPost2010PropOp52
 70
     0
102
RTVSPost2010Prop53
 90
        2
102
RTVSPost2010PropOp53
 70
     1
102
RTVSPost2010Prop54
  1
strokes_ogs.tif
102
RTVSPost2010PropOp54
 70
     1
102
RTVSPost2010Prop55
280
     0
102
RTVSPost2010PropOp55
 70
     1
102
RTVSPost2010Prop56
140
1.0
102
RTVSPost2010PropOp56
 70
     1
102
RTVSPost2010Prop57
140
1.0
102
RTVSPost2010PropOp57
 70
     1
  0
XRECORD
  5
126
102
{ACAD_REACTORS
330
125
102
}
330
125
100
AcDbXrecord
280
     1
102
RTVSPost2010Prop28
280
     0
102
RTVSPost2010PropOp28
 70
     1
102
RTVSPost2010Prop29
280
     1
102
RTVSPost2010PropOp29
 70
     1
102
RTVSPost2010Prop30
280
     1
102
RTVSPost2010PropOp30
 70
     1
102
RTVSPost2010Prop31
280
     0
102
RTVSPost2010PropOp31
 70
     1
102
RTVSPost2010Prop32
280
     0
102
RTVSPost2010PropOp32
 70
     1
102
RTVSPost2010Prop33
280
     0
102
RTVSPost2010PropOp33
 70
     1
102
RTVSPost2010Prop34
280
     0
102
RTVSPost2010PropOp34
 70
     1
102
RTVSPost2010Prop35
280
     0
102
RTVSPost2010PropOp35
 70
     1
102
RTVSPost2010Prop36
280
     0
102
RTVSPost2010PropOp36
 70
     1
102
RTVSPost2010Prop37
 90
       50
102
RTVSPost2010PropOp37
 70
     1
102
RTVSPost2010Prop38
140
0.0
102
RTVSPost2010PropOp38
 70
     1
102
RTVSPost2010Prop39
140
1.0
102
RTVSPost2010PropOp39
 70
     1
102
RTVSPost2010Prop40
 90
        0
102
RTVSPost2010PropOp40
 70
     1
102
RTVSPost2010Prop41ColorIndex
 90
       18
102
RTVSPost2010Prop41ColorRGB
 90
        0
102
RTVSPost2010PropOp41
 70
     1
102
RTVSPost2010Prop42
 90
       50
102
RTVSPost2010PropOp42
 70
     1
102
RTVSPost2010Prop43
 90
        3
102
RTVSPost2010PropOp43
 70
     1
102
RTVSPost2010Prop44ColorIndex
 90
        5
102
RTVSPost2010Prop44ColorRGB
 90
      255
102
RTVSPost2010PropOp44
 70
     1
102
RTVSPost2010Prop45
280
     0
102
RTVSPost2010PropOp45
 70
     1
102
RTVSPost2010Prop46
 90
       50
102
RTVSPost2010PropOp46
 70
     1
102
RTVSPost2010Prop47
 90
       50
102
RTVSPost2010PropOp47
 70
     1
102
RTVSPost2010Prop48
 90
       50
102
RTVSPost2010PropOp48
 70
     1
102
RTVSPost2010Prop49
280
     0
102
RTVSPost2010PropOp49
 70
     1
102
RTVSPost2010Prop50
 90
       50
102
RTVSPost2010PropOp50
 70
     1
102
RTVSPost2010Prop51ColorIndex
 90
      256
102
RTVSPost2010Prop51ColorRGB
 90
-16777216
102
RTVSPost2010PropOp51
 70
     0
102
RTVSPost2010Prop52
140
1.0
102
RTVSPost2010PropOp52
 70
     0
102
RTVSPost2010Prop53
 90
        2
102
RTVSPost2010PropOp53
 70
     1
102
RTVSPost2010Prop54
  1
strokes_ogs.tif
102
RTVSPost2010PropOp54
 70
     1
102
RTVSPost2010Prop55
280
     0
102
RTVSPost2010PropOp55
 70
     1
102
RTVSPost2010Prop56
140
1.0
102
RTVSPost2010PropOp56
 70
     1
102
RTVSPost2010Prop57
140
1.0
102
RTVSPost2010PropOp57
 70
     1
  0
XRECORD
  5
12E
102
{ACAD_REACTORS
330
12D
102
}
330
12D
100
AcDbXrecord
280
     1
102
RTVSPost2010Prop28
280
     0
102
RTVSPost2010PropOp28
 70
     1
102
RTVSPost2010Prop29
280
     1
102
RTVSPost2010PropOp29
 70
     1
102
RTVSPost2010Prop30
280
     1
102
RTVSPost2010PropOp30
 70
     1
102
RTVSPost2010Prop31
280
     0
102
RTVSPost2010PropOp31
 70
     1
102
RTVSPost2010Prop32
280
     0
102
RTVSPost2010PropOp32
 70
     1
102
RTVSPost2010Prop33
280
     0
102
RTVSPost2010PropOp33
 70
     1
102
RTVSPost2010Prop34
280
     0
102
RTVSPost2010PropOp34
 70
     1
102
RTVSPost2010Prop35
280
     0
102
RTVSPost2010PropOp35
 70
     1
102
RTVSPost2010Prop36
280
     0
102
RTVSPost2010PropOp36
 70
     1
102
RTVSPost2010Prop37
 90
       50
102
RTVSPost2010PropOp37
 70
     1
102
RTVSPost2010Prop38
140
0.0
102
RTVSPost2010PropOp38
 70
     1
102
RTVSPost2010Prop39
140
1.0
102
RTVSPost2010PropOp39
 70
     1
102
RTVSPost2010Prop40
 90
        0
102
RTVSPost2010PropOp40
 70
     1
102
RTVSPost2010Prop41ColorIndex
 90
       18
102
RTVSPost2010Prop41ColorRGB
 90
        0
102
RTVSPost2010PropOp41
 70
     1
102
RTVSPost2010Prop42
 90
       50
102
RTVSPost2010PropOp42
 70
     1
102
RTVSPost2010Prop43
 90
        3
102
RTVSPost2010PropOp43
 70
     1
102
RTVSPost2010Prop44ColorIndex
 90
        5
102
RTVSPost2010Prop44ColorRGB
 90
      255
102
RTVSPost2010PropOp44
 70
     1
102
RTVSPost2010Prop45
280
     0
102
RTVSPost2010PropOp45
 70
     1
102
RTVSPost2010Prop46
 90
       50
102
RTVSPost2010PropOp46
 70
     1
102
RTVSPost2010Prop47
 90
       50
102
RTVSPost2010PropOp47
 70
     1
102
RTVSPost2010Prop48
 90
       50
102
RTVSPost2010PropOp48
 70
     1
102
RTVSPost2010Prop49
280
     0
102
RTVSPost2010PropOp49
 70
     1
102
RTVSPost2010Prop50
 90
       50
102
RTVSPost2010PropOp50
 70
     1
102
RTVSPost2010Prop51ColorIndex
 90
      256
102
RTVSPost2010Prop51ColorRGB
 90
-16777216
102
RTVSPost2010PropOp51
 70
     0
102
RTVSPost2010Prop52
140
1.0
102
RTVSPost2010PropOp52
 70
     0
102
RTVSPost2010Prop53
 90
        2
102
RTVSPost2010PropOp53
 70
     1
102
RTVSPost2010Prop54
  1
strokes_ogs.tif
102
RTVSPost2010PropOp54
 70
     1
102
RTVSPost2010Prop55
280
     0
102
RTVSPost2010PropOp55
 70
     1
102
RTVSPost2010Prop56
140
1.0
102
RTVSPost2010PropOp56
 70
     1
102
RTVSPost2010Prop57
140
1.0
102
RTVSPost2010PropOp57
 70
     1
  0
XRECORD
  5
120
102
{ACAD_REACTORS
330
11F
102
}
330
11F
100
AcDbXrecord
280
     1
102
RTVSPost2010Prop28
280
     0
102
RTVSPost2010PropOp28
 70
     1
102
RTVSPost2010Prop29
280
     1
102
RTVSPost2010PropOp29
 70
     1
102
RTVSPost2010Prop30
280
     1
102
RTVSPost2010PropOp30
 70
     1
102
RTVSPost2010Prop31
280
     0
102
RTVSPost2010PropOp31
 70
     1
102
RTVSPost2010Prop32
280
     0
102
RTVSPost2010PropOp32
 70
     1
102
RTVSPost2010Prop33
280
     0
102
RTVSPost2010PropOp33
 70
     1
102
RTVSPost2010Prop34
280
     0
102
RTVSPost2010PropOp34
 70
     1
102
RTVSPost2010Prop35
280
     0
102
RTVSPost2010PropOp35
 70
     1
102
RTVSPost2010Prop36
280
     0
102
RTVSPost2010PropOp36
 70
     1
102
RTVSPost2010Prop37
 90
       50
102
RTVSPost2010PropOp37
 70
     1
102
RTVSPost2010Prop38
140
0.0
102
RTVSPost2010PropOp38
 70
     1
102
RTVSPost2010Prop39
140
1.0
102
RTVSPost2010PropOp39
 70
     1
102
RTVSPost2010Prop40
 90
        0
102
RTVSPost2010PropOp40
 70
     1
102
RTVSPost2010Prop41ColorIndex
 90
       18
102
RTVSPost2010Prop41ColorRGB
 90
        0
102
RTVSPost2010PropOp41
 70
     1
102
RTVSPost2010Prop42
 90
       50
102
RTVSPost2010PropOp42
 70
     1
102
RTVSPost2010Prop43
 90
        3
102
RTVSPost2010PropOp43
 70
     1
102
RTVSPost2010Prop44ColorIndex
 90
        5
102
RTVSPost2010Prop44ColorRGB
 90
      255
102
RTVSPost2010PropOp44
 70
     1
102
RTVSPost2010Prop45
280
     0
102
RTVSPost2010PropOp45
 70
     1
102
RTVSPost2010Prop46
 90
       50
102
RTVSPost2010PropOp46
 70
     1
102
RTVSPost2010Prop47
 90
       50
102
RTVSPost2010PropOp47
 70
     1
102
RTVSPost2010Prop48
 90
       50
102
RTVSPost2010PropOp48
 70
     1
102
RTVSPost2010Prop49
280
     0
102
RTVSPost2010PropOp49
 70
     1
102
RTVSPost2010Prop50
 90
       50
102
RTVSPost2010PropOp50
 70
     1
102
RTVSPost2010Prop51ColorIndex
 90
      256
102
RTVSPost2010Prop51ColorRGB
 90
-16777216
102
RTVSPost2010PropOp51
 70
     0
102
RTVSPost2010Prop52
140
1.0
102
RTVSPost2010PropOp52
 70
     0
102
RTVSPost2010Prop53
 90
        2
102
RTVSPost2010PropOp53
 70
     1
102
RTVSPost2010Prop54
  1
strokes_ogs.tif
102
RTVSPost2010PropOp54
 70
     1
102
RTVSPost2010Prop55
280
     0
102
RTVSPost2010PropOp55
 70
     1
102
RTVSPost2010Prop56
140
1.0
102
RTVSPost2010PropOp56
 70
     1
102
RTVSPost2010Prop57
140
1.0
102
RTVSPost2010PropOp57
 70
     1
  0
XRECORD
  5
124
102
{ACAD_REACTORS
330
123
102
}
330
123
100
AcDbXrecord
280
     1
102
RTVSPost2010Prop28
280
     0
102
RTVSPost2010PropOp28
 70
     1
102
RTVSPost2010Prop29
280
     1
102
RTVSPost2010PropOp29
 70
     1
102
RTVSPost2010Prop30
280
     1
102
RTVSPost2010PropOp30
 70
     1
102
RTVSPost2010Prop31
280
     0
102
RTVSPost2010PropOp31
 70
     1
102
RTVSPost2010Prop32
280
     0
102
RTVSPost2010PropOp32
 70
     1
102
RTVSPost2010Prop33
280
     0
102
RTVSPost2010PropOp33
 70
     1
102
RTVSPost2010Prop34
280
     0
102
RTVSPost2010PropOp34
 70
     1
102
RTVSPost2010Prop35
280
     0
102
RTVSPost2010PropOp35
 70
     1
102
RTVSPost2010Prop36
280
     0
102
RTVSPost2010PropOp36
 70
     1
102
RTVSPost2010Prop37
 90
       50
102
RTVSPost2010PropOp37
 70
     1
102
RTVSPost2010Prop38
140
0.0
102
RTVSPost2010PropOp38
 70
     1
102
RTVSPost2010Prop39
140
1.0
102
RTVSPost2010PropOp39
 70
     1
102
RTVSPost2010Prop40
 90
        0
102
RTVSPost2010PropOp40
 70
     1
102
RTVSPost2010Prop41ColorIndex
 90
       18
102
RTVSPost2010Prop41ColorRGB
 90
        0
102
RTVSPost2010PropOp41
 70
     1
102
RTVSPost2010Prop42
 90
       50
102
RTVSPost2010PropOp42
 70
     1
102
RTVSPost2010Prop43
 90
        3
102
RTVSPost2010PropOp43
 70
     1
102
RTVSPost2010Prop44ColorIndex
 90
        5
102
RTVSPost2010Prop44ColorRGB
 90
      255
102
RTVSPost2010PropOp44
 70
     1
102
RTVSPost2010Prop45
280
     0
102
RTVSPost2010PropOp45
 70
     1
102
RTVSPost2010Prop46
 90
       50
102
RTVSPost2010PropOp46
 70
     1
102
RTVSPost2010Prop47
 90
       50
102
RTVSPost2010PropOp47
 70
     1
102
RTVSPost2010Prop48
 90
       50
102
RTVSPost2010PropOp48
 70
     1
102
RTVSPost2010Prop49
280
     0
102
RTVSPost2010PropOp49
 70
     1
102
RTVSPost2010Prop50
 90
       50
102
RTVSPost2010PropOp50
 70
     1
102
RTVSPost2010Prop51ColorIndex
 90
      256
102
RTVSPost2010Prop51ColorRGB
 90
-16777216
102
RTVSPost2010PropOp51
 70
     0
102
RTVSPost2010Prop52
140
1.0
102
RTVSPost2010PropOp52
 70
     0
102
RTVSPost2010Prop53
 90
        2
102
RTVSPost2010PropOp53
 70
     1
102
RTVSPost2010Prop54
  1
strokes_ogs.tif
102
RTVSPost2010PropOp54
 70
     1
102
RTVSPost2010Prop55
280
     0
102
RTVSPost2010PropOp55
 70
     1
102
RTVSPost2010Prop56
140
1.0
102
RTVSPost2010PropOp56
 70
     1
102
RTVSPost2010Prop57
140
1.0
102
RTVSPost2010PropOp57
 70
     1
  0
XRECORD
  5
13E
102
{ACAD_REACTORS
330
13D
102
}
330
13D
100
AcDbXrecord
280
     1
102
RTVSPost2010Prop28
280
     0
102
RTVSPost2010PropOp28
 70
     0
102
RTVSPost2010Prop29
280
     1
102
RTVSPost2010PropOp29
 70
     0
102
RTVSPost2010Prop30
280
     1
102
RTVSPost2010PropOp30
 70
     0
102
RTVSPost2010Prop31
280
     0
102
RTVSPost2010PropOp31
 70
     0
102
RTVSPost2010Prop32
280
     0
102
RTVSPost2010PropOp32
 70
     0
102
RTVSPost2010Prop33
280
     0
102
RTVSPost2010PropOp33
 70
     0
102
RTVSPost2010Prop34
280
     0
102
RTVSPost2010PropOp34
 70
     0
102
RTVSPost2010Prop35
280
     0
102
RTVSPost2010PropOp35
 70
     0
102
RTVSPost2010Prop36
280
     0
102
RTVSPost2010PropOp36
 70
     0
102
RTVSPost2010Prop37
 90
       50
102
RTVSPost2010PropOp37
 70
     0
102
RTVSPost2010Prop38
140
0.0
102
RTVSPost2010PropOp38
 70
     0
102
RTVSPost2010Prop39
140
1.0
102
RTVSPost2010PropOp39
 70
     0
102
RTVSPost2010Prop40
 90
        0
102
RTVSPost2010PropOp40
 70
     0
102
RTVSPost2010Prop41ColorIndex
 90
       18
102
RTVSPost2010Prop41ColorRGB
 90
        0
102
RTVSPost2010PropOp41
 70
     0
102
RTVSPost2010Prop42
 90
       50
102
RTVSPost2010PropOp42
 70
     0
102
RTVSPost2010Prop43
 90
        3
102
RTVSPost2010PropOp43
 70
     0
102
RTVSPost2010Prop44ColorIndex
 90
        5
102
RTVSPost2010Prop44ColorRGB
 90
      255
102
RTVSPost2010PropOp44
 70
     0
102
RTVSPost2010Prop45
280
     0
102
RTVSPost2010PropOp45
 70
     0
102
RTVSPost2010Prop46
 90
       50
102
RTVSPost2010PropOp46
 70
     0
102
RTVSPost2010Prop47
 90
       50
102
RTVSPost2010PropOp47
 70
     0
102
RTVSPost2010Prop48
 90
       50
102
RTVSPost2010PropOp48
 70
     0
102
RTVSPost2010Prop49
280
     0
102
RTVSPost2010PropOp49
 70
     0
102
RTVSPost2010Prop50
 90
       50
102
RTVSPost2010PropOp50
 70
     0
102
RTVSPost2010Prop51ColorIndex
 90
      256
102
RTVSPost2010Prop51ColorRGB
 90
-16777216
102
RTVSPost2010PropOp51
 70
     0
102
RTVSPost2010Prop52
140
1.0
102
RTVSPost2010PropOp52
 70
     0
102
RTVSPost2010Prop53
 90
        2
102
RTVSPost2010PropOp53
 70
     0
102
RTVSPost2010Prop54
  1
strokes_ogs.tif
102
RTVSPost2010PropOp54
 70
     0
102
RTVSPost2010Prop55
280
     0
102
RTVSPost2010PropOp55
 70
     0
102
RTVSPost2010Prop56
140
1.0
102
RTVSPost2010PropOp56
 70
     0
102
RTVSPost2010Prop57
140
1.0
102
RTVSPost2010PropOp57
 70
     0
  0
XRECORD
  5
12C
102
{ACAD_REACTORS
330
12B
102
}
330
12B
100
AcDbXrecord
280
     1
102
RTVSPost2010Prop28
280
     0
102
RTVSPost2010PropOp28
 70
     1
102
RTVSPost2010Prop29
280
     1
102
RTVSPost2010PropOp29
 70
     1
102
RTVSPost2010Prop30
280
     1
102
RTVSPost2010PropOp30
 70
     1
102
RTVSPost2010Prop31
280
     0
102
RTVSPost2010PropOp31
 70
     1
102
RTVSPost2010Prop32
280
     0
102
RTVSPost2010PropOp32
 70
     1
102
RTVSPost2010Prop33
280
     0
102
RTVSPost2010PropOp33
 70
     1
102
RTVSPost2010Prop34
280
     0
102
RTVSPost2010PropOp34
 70
     1
102
RTVSPost2010Prop35
280
     0
102
RTVSPost2010PropOp35
 70
     1
102
RTVSPost2010Prop36
280
     0
102
RTVSPost2010PropOp36
 70
     1
102
RTVSPost2010Prop37
 90
       50
102
RTVSPost2010PropOp37
 70
     1
102
RTVSPost2010Prop38
140
0.0
102
RTVSPost2010PropOp38
 70
     1
102
RTVSPost2010Prop39
140
1.0
102
RTVSPost2010PropOp39
 70
     1
102
RTVSPost2010Prop40
 90
        0
102
RTVSPost2010PropOp40
 70
     1
102
RTVSPost2010Prop41ColorIndex
 90
       18
102
RTVSPost2010Prop41ColorRGB
 90
        0
102
RTVSPost2010PropOp41
 70
     1
102
RTVSPost2010Prop42
 90
       50
102
RTVSPost2010PropOp42
 70
     1
102
RTVSPost2010Prop43
 90
        3
102
RTVSPost2010PropOp43
 70
     1
102
RTVSPost2010Prop44ColorIndex
 90
        5
102
RTVSPost2010Prop44ColorRGB
 90
      255
102
RTVSPost2010PropOp44
 70
     1
102
RTVSPost2010Prop45
280
     0
102
RTVSPost2010PropOp45
 70
     1
102
RTVSPost2010Prop46
 90
       50
102
RTVSPost2010PropOp46
 70
     1
102
RTVSPost2010Prop47
 90
       50
102
RTVSPost2010PropOp47
 70
     1
102
RTVSPost2010Prop48
 90
       50
102
RTVSPost2010PropOp48
 70
     1
102
RTVSPost2010Prop49
280
     0
102
RTVSPost2010PropOp49
 70
     1
102
RTVSPost2010Prop50
 90
       50
102
RTVSPost2010PropOp50
 70
     1
102
RTVSPost2010Prop51ColorIndex
 90
      256
102
RTVSPost2010Prop51ColorRGB
 90
-16777216
102
RTVSPost2010PropOp51
 70
     0
102
RTVSPost2010Prop52
140
1.0
102
RTVSPost2010PropOp52
 70
     0
102
RTVSPost2010Prop53
 90
        2
102
RTVSPost2010PropOp53
 70
     1
102
RTVSPost2010Prop54
  1
strokes_ogs.tif
102
RTVSPost2010PropOp54
 70
     1
102
RTVSPost2010Prop55
280
     0
102
RTVSPost2010PropOp55
 70
     1
102
RTVSPost2010Prop56
140
1.0
102
RTVSPost2010PropOp56
 70
     1
102
RTVSPost2010Prop57
140
1.0
102
RTVSPost2010PropOp57
 70
     1
  0
XRECORD
  5
110
102
{ACAD_REACTORS
330
10F
102
}
330
10F
100
AcDbXrecord
280
     1
102
RTVSPost2010Prop28
280
     0
102
RTVSPost2010PropOp28
 70
     1
102
RTVSPost2010Prop29
280
     1
102
RTVSPost2010PropOp29
 70
     1
102
RTVSPost2010Prop30
280
     1
102
RTVSPost2010PropOp30
 70
     1
102
RTVSPost2010Prop31
280
     0
102
RTVSPost2010PropOp31
 70
     1
102
RTVSPost2010Prop32
280
     0
102
RTVSPost2010PropOp32
 70
     1
102
RTVSPost2010Prop33
280
     0
102
RTVSPost2010PropOp33
 70
     1
102
RTVSPost2010Prop34
280
     0
102
RTVSPost2010PropOp34
 70
     1
102
RTVSPost2010Prop35
280
     0
102
RTVSPost2010PropOp35
 70
     1
102
RTVSPost2010Prop36
280
     0
102
RTVSPost2010PropOp36
 70
     1
102
RTVSPost2010Prop37
 90
       50
102
RTVSPost2010PropOp37
 70
     1
102
RTVSPost2010Prop38
140
0.0
102
RTVSPost2010PropOp38
 70
     1
102
RTVSPost2010Prop39
140
1.0
102
RTVSPost2010PropOp39
 70
     1
102
RTVSPost2010Prop40
 90
        0
102
RTVSPost2010PropOp40
 70
     1
102
RTVSPost2010Prop41ColorIndex
 90
       18
102
RTVSPost2010Prop41ColorRGB
 90
        0
102
RTVSPost2010PropOp41
 70
     1
102
RTVSPost2010Prop42
 90
       50
102
RTVSPost2010PropOp42
 70
     1
102
RTVSPost2010Prop43
 90
        3
102
RTVSPost2010PropOp43
 70
     1
102
RTVSPost2010Prop44ColorIndex
 90
        5
102
RTVSPost2010Prop44ColorRGB
 90
      255
102
RTVSPost2010PropOp44
 70
     1
102
RTVSPost2010Prop45
280
     0
102
RTVSPost2010PropOp45
 70
     1
102
RTVSPost2010Prop46
 90
       50
102
RTVSPost2010PropOp46
 70
     1
102
RTVSPost2010Prop47
 90
       50
102
RTVSPost2010PropOp47
 70
     1
102
RTVSPost2010Prop48
 90
       50
102
RTVSPost2010PropOp48
 70
     1
102
RTVSPost2010Prop49
280
     0
102
RTVSPost2010PropOp49
 70
     1
102
RTVSPost2010Prop50
 90
       50
102
RTVSPost2010PropOp50
 70
     1
102
RTVSPost2010Prop51ColorIndex
 90
      256
102
RTVSPost2010Prop51ColorRGB
 90
-16777216
102
RTVSPost2010PropOp51
 70
     0
102
RTVSPost2010Prop52
140
1.0
102
RTVSPost2010PropOp52
 70
     0
102
RTVSPost2010Prop53
 90
        2
102
RTVSPost2010PropOp53
 70
     1
102
RTVSPost2010Prop54
  1
strokes_ogs.tif
102
RTVSPost2010PropOp54
 70
     1
102
RTVSPost2010Prop55
280
     0
102
RTVSPost2010PropOp55
 70
     1
102
RTVSPost2010Prop56
140
1.0
102
RTVSPost2010PropOp56
 70
     1
102
RTVSPost2010Prop57
140
1.0
102
RTVSPost2010PropOp57
 70
     1
  0
XRECORD
  5
112
102
{ACAD_REACTORS
330
111
102
}
330
111
100
AcDbXrecord
280
     1
102
RTVSPost2010Prop28
280
     0
102
RTVSPost2010PropOp28
 70
     1
102
RTVSPost2010Prop29
280
     1
102
RTVSPost2010PropOp29
 70
     1
102
RTVSPost2010Prop30
280
     1
102
RTVSPost2010PropOp30
 70
     1
102
RTVSPost2010Prop31
280
     0
102
RTVSPost2010PropOp31
 70
     1
102
RTVSPost2010Prop32
280
     0
102
RTVSPost2010PropOp32
 70
     1
102
RTVSPost2010Prop33
280
     0
102
RTVSPost2010PropOp33
 70
     1
102
RTVSPost2010Prop34
280
     0
102
RTVSPost2010PropOp34
 70
     1
102
RTVSPost2010Prop35
280
     0
102
RTVSPost2010PropOp35
 70
     1
102
RTVSPost2010Prop36
280
     0
102
RTVSPost2010PropOp36
 70
     1
102
RTVSPost2010Prop37
 90
       50
102
RTVSPost2010PropOp37
 70
     1
102
RTVSPost2010Prop38
140
0.0
102
RTVSPost2010PropOp38
 70
     1
102
RTVSPost2010Prop39
140
1.0
102
RTVSPost2010PropOp39
 70
     1
102
RTVSPost2010Prop40
 90
        0
102
RTVSPost2010PropOp40
 70
     1
102
RTVSPost2010Prop41ColorIndex
 90
       18
102
RTVSPost2010Prop41ColorRGB
 90
        0
102
RTVSPost2010PropOp41
 70
     1
102
RTVSPost2010Prop42
 90
       50
102
RTVSPost2010PropOp42
 70
     1
102
RTVSPost2010Prop43
 90
        3
102
RTVSPost2010PropOp43
 70
     1
102
RTVSPost2010Prop44ColorIndex
 90
        5
102
RTVSPost2010Prop44ColorRGB
 90
      255
102
RTVSPost2010PropOp44
 70
     1
102
RTVSPost2010Prop45
280
     0
102
RTVSPost2010PropOp45
 70
     1
102
RTVSPost2010Prop46
 90
       50
102
RTVSPost2010PropOp46
 70
     1
102
RTVSPost2010Prop47
 90
       50
102
RTVSPost2010PropOp47
 70
     1
102
RTVSPost2010Prop48
 90
       50
102
RTVSPost2010PropOp48
 70
     1
102
RTVSPost2010Prop49
280
     0
102
RTVSPost2010PropOp49
 70
     1
102
RTVSPost2010Prop50
 90
       50
102
RTVSPost2010PropOp50
 70
     1
102
RTVSPost2010Prop51ColorIndex
 90
      256
102
RTVSPost2010Prop51ColorRGB
 90
-16777216
102
RTVSPost2010PropOp51
 70
     0
102
RTVSPost2010Prop52
140
1.0
102
RTVSPost2010PropOp52
 70
     0
102
RTVSPost2010Prop53
 90
        2
102
RTVSPost2010PropOp53
 70
     1
102
RTVSPost2010Prop54
  1
strokes_ogs.tif
102
RTVSPost2010PropOp54
 70
     1
102
RTVSPost2010Prop55
280
     0
102
RTVSPost2010PropOp55
 70
     1
102
RTVSPost2010Prop56
140
1.0
102
RTVSPost2010PropOp56
 70
     1
102
RTVSPost2010Prop57
140
1.0
102
RTVSPost2010PropOp57
 70
     1
  0
XRECORD
  5
114
102
{ACAD_REACTORS
330
113
102
}
330
113
100
AcDbXrecord
280
     1
102
RTVSPost2010Prop28
280
     0
102
RTVSPost2010PropOp28
 70
     1
102
RTVSPost2010Prop29
280
     1
102
RTVSPost2010PropOp29
 70
     1
102
RTVSPost2010Prop30
280
     1
102
RTVSPost2010PropOp30
 70
     1
102
RTVSPost2010Prop31
280
     0
102
RTVSPost2010PropOp31
 70
     1
102
RTVSPost2010Prop32
280
     0
102
RTVSPost2010PropOp32
 70
     1
102
RTVSPost2010Prop33
280
     0
102
RTVSPost2010PropOp33
 70
     1
102
RTVSPost2010Prop34
280
     0
102
RTVSPost2010PropOp34
 70
     1
102
RTVSPost2010Prop35
280
     0
102
RTVSPost2010PropOp35
 70
     1
102
RTVSPost2010Prop36
280
     0
102
RTVSPost2010PropOp36
 70
     1
102
RTVSPost2010Prop37
 90
       50
102
RTVSPost2010PropOp37
 70
     1
102
RTVSPost2010Prop38
140
0.0
102
RTVSPost2010PropOp38
 70
     1
102
RTVSPost2010Prop39
140
1.0
102
RTVSPost2010PropOp39
 70
     1
102
RTVSPost2010Prop40
 90
        0
102
RTVSPost2010PropOp40
 70
     1
102
RTVSPost2010Prop41ColorIndex
 90
       18
102
RTVSPost2010Prop41ColorRGB
 90
        0
102
RTVSPost2010PropOp41
 70
     1
102
RTVSPost2010Prop42
 90
       50
102
RTVSPost2010PropOp42
 70
     1
102
RTVSPost2010Prop43
 90
        3
102
RTVSPost2010PropOp43
 70
     1
102
RTVSPost2010Prop44ColorIndex
 90
        5
102
RTVSPost2010Prop44ColorRGB
 90
      255
102
RTVSPost2010PropOp44
 70
     1
102
RTVSPost2010Prop45
280
     0
102
RTVSPost2010PropOp45
 70
     1
102
RTVSPost2010Prop46
 90
       50
102
RTVSPost2010PropOp46
 70
     1
102
RTVSPost2010Prop47
 90
       50
102
RTVSPost2010PropOp47
 70
     1
102
RTVSPost2010Prop48
 90
       50
102
RTVSPost2010PropOp48
 70
     1
102
RTVSPost2010Prop49
280
     0
102
RTVSPost2010PropOp49
 70
     1
102
RTVSPost2010Prop50
 90
       50
102
RTVSPost2010PropOp50
 70
     1
102
RTVSPost2010Prop51ColorIndex
 90
      256
102
RTVSPost2010Prop51ColorRGB
 90
-16777216
102
RTVSPost2010PropOp51
 70
     0
102
RTVSPost2010Prop52
140
1.0
102
RTVSPost2010PropOp52
 70
     0
102
RTVSPost2010Prop53
 90
        2
102
RTVSPost2010PropOp53
 70
     1
102
RTVSPost2010Prop54
  1
strokes_ogs.tif
102
RTVSPost2010PropOp54
 70
     1
102
RTVSPost2010Prop55
280
     0
102
RTVSPost2010PropOp55
 70
     1
102
RTVSPost2010Prop56
140
1.0
102
RTVSPost2010PropOp56
 70
     1
102
RTVSPost2010Prop57
140
1.0
102
RTVSPost2010PropOp57
 70
     1
  0
XRECORD
  5
116
102
{ACAD_REACTORS
330
115
102
}
330
115
100
AcDbXrecord
280
     1
102
RTVSPost2010Prop28
280
     0
102
RTVSPost2010PropOp28
 70
     1
102
RTVSPost2010Prop29
280
     1
102
RTVSPost2010PropOp29
 70
     1
102
RTVSPost2010Prop30
280
     1
102
RTVSPost2010PropOp30
 70
     1
102
RTVSPost2010Prop31
280
     0
102
RTVSPost2010PropOp31
 70
     1
102
RTVSPost2010Prop32
280
     0
102
RTVSPost2010PropOp32
 70
     1
102
RTVSPost2010Prop33
280
     0
102
RTVSPost2010PropOp33
 70
     1
102
RTVSPost2010Prop34
280
     0
102
RTVSPost2010PropOp34
 70
     1
102
RTVSPost2010Prop35
280
     0
102
RTVSPost2010PropOp35
 70
     1
102
RTVSPost2010Prop36
280
     0
102
RTVSPost2010PropOp36
 70
     1
102
RTVSPost2010Prop37
 90
       50
102
RTVSPost2010PropOp37
 70
     1
102
RTVSPost2010Prop38
140
0.0
102
RTVSPost2010PropOp38
 70
     1
102
RTVSPost2010Prop39
140
1.0
102
RTVSPost2010PropOp39
 70
     1
102
RTVSPost2010Prop40
 90
        0
102
RTVSPost2010PropOp40
 70
     1
102
RTVSPost2010Prop41ColorIndex
 90
       18
102
RTVSPost2010Prop41ColorRGB
 90
        0
102
RTVSPost2010PropOp41
 70
     1
102
RTVSPost2010Prop42
 90
       50
102
RTVSPost2010PropOp42
 70
     1
102
RTVSPost2010Prop43
 90
        3
102
RTVSPost2010PropOp43
 70
     1
102
RTVSPost2010Prop44ColorIndex
 90
        5
102
RTVSPost2010Prop44ColorRGB
 90
      255
102
RTVSPost2010PropOp44
 70
     1
102
RTVSPost2010Prop45
280
     0
102
RTVSPost2010PropOp45
 70
     1
102
RTVSPost2010Prop46
 90
       50
102
RTVSPost2010PropOp46
 70
     1
102
RTVSPost2010Prop47
 90
       50
102
RTVSPost2010PropOp47
 70
     1
102
RTVSPost2010Prop48
 90
       50
102
RTVSPost2010PropOp48
 70
     1
102
RTVSPost2010Prop49
280
     0
102
RTVSPost2010PropOp49
 70
     1
102
RTVSPost2010Prop50
 90
       50
102
RTVSPost2010PropOp50
 70
     1
102
RTVSPost2010Prop51ColorIndex
 90
      256
102
RTVSPost2010Prop51ColorRGB
 90
-16777216
102
RTVSPost2010PropOp51
 70
     0
102
RTVSPost2010Prop52
140
1.0
102
RTVSPost2010PropOp52
 70
     0
102
RTVSPost2010Prop53
 90
        2
102
RTVSPost2010PropOp53
 70
     1
102
RTVSPost2010Prop54
  1
strokes_ogs.tif
102
RTVSPost2010PropOp54
 70
     1
102
RTVSPost2010Prop55
280
     0
102
RTVSPost2010PropOp55
 70
     1
102
RTVSPost2010Prop56
140
1.0
102
RTVSPost2010PropOp56
 70
     1
102
RTVSPost2010Prop57
140
1.0
102
RTVSPost2010PropOp57
 70
     1
  0
XRECORD
  5
11E
102
{ACAD_REACTORS
330
11D
102
}
330
11D
100
AcDbXrecord
280
     1
102
RTVSPost2010Prop28
280
     0
102
RTVSPost2010PropOp28
 70
     1
102
RTVSPost2010Prop29
280
     1
102
RTVSPost2010PropOp29
 70
     1
102
RTVSPost2010Prop30
280
     1
102
RTVSPost2010PropOp30
 70
     1
102
RTVSPost2010Prop31
280
     0
102
RTVSPost2010PropOp31
 70
     1
102
RTVSPost2010Prop32
280
     0
102
RTVSPost2010PropOp32
 70
     1
102
RTVSPost2010Prop33
280
     0
102
RTVSPost2010PropOp33
 70
     1
102
RTVSPost2010Prop34
280
     0
102
RTVSPost2010PropOp34
 70
     1
102
RTVSPost2010Prop35
280
     0
102
RTVSPost2010PropOp35
 70
     1
102
RTVSPost2010Prop36
280
     0
102
RTVSPost2010PropOp36
 70
     1
102
RTVSPost2010Prop37
 90
       50
102
RTVSPost2010PropOp37
 70
     1
102
RTVSPost2010Prop38
140
0.0
102
RTVSPost2010PropOp38
 70
     1
102
RTVSPost2010Prop39
140
1.0
102
RTVSPost2010PropOp39
 70
     1
102
RTVSPost2010Prop40
 90
        0
102
RTVSPost2010PropOp40
 70
     1
102
RTVSPost2010Prop41ColorIndex
 90
       18
102
RTVSPost2010Prop41ColorRGB
 90
        0
102
RTVSPost2010PropOp41
 70
     1
102
RTVSPost2010Prop42
 90
       50
102
RTVSPost2010PropOp42
 70
     1
102
RTVSPost2010Prop43
 90
        3
102
RTVSPost2010PropOp43
 70
     1
102
RTVSPost2010Prop44ColorIndex
 90
        5
102
RTVSPost2010Prop44ColorRGB
 90
      255
102
RTVSPost2010PropOp44
 70
     1
102
RTVSPost2010Prop45
280
     0
102
RTVSPost2010PropOp45
 70
     1
102
RTVSPost2010Prop46
 90
       50
102
RTVSPost2010PropOp46
 70
     1
102
RTVSPost2010Prop47
 90
       50
102
RTVSPost2010PropOp47
 70
     1
102
RTVSPost2010Prop48
 90
       50
102
RTVSPost2010PropOp48
 70
     1
102
RTVSPost2010Prop49
280
     0
102
RTVSPost2010PropOp49
 70
     1
102
RTVSPost2010Prop50
 90
       50
102
RTVSPost2010PropOp50
 70
     1
102
RTVSPost2010Prop51ColorIndex
 90
      256
102
RTVSPost2010Prop51ColorRGB
 90
-16777216
102
RTVSPost2010PropOp51
 70
     0
102
RTVSPost2010Prop52
140
1.0
102
RTVSPost2010PropOp52
 70
     0
102
RTVSPost2010Prop53
 90
        2
102
RTVSPost2010PropOp53
 70
     1
102
RTVSPost2010Prop54
  1
strokes_ogs.tif
102
RTVSPost2010PropOp54
 70
     1
102
RTVSPost2010Prop55
280
     0
102
RTVSPost2010PropOp55
 70
     1
102
RTVSPost2010Prop56
140
1.0
102
RTVSPost2010PropOp56
 70
     1
102
RTVSPost2010Prop57
140
1.0
102
RTVSPost2010PropOp57
 70
     1
  0
XRECORD
  5
13A
102
{ACAD_REACTORS
330
139
102
}
330
139
100
AcDbXrecord
280
     1
102
RTVSPost2010Prop28
280
     0
102
RTVSPost2010PropOp28
 70
     0
102
RTVSPost2010Prop29
280
     1
102
RTVSPost2010PropOp29
 70
     0
102
RTVSPost2010Prop30
280
     1
102
RTVSPost2010PropOp30
 70
     0
102
RTVSPost2010Prop31
280
     0
102
RTVSPost2010PropOp31
 70
     0
102
RTVSPost2010Prop32
280
     0
102
RTVSPost2010PropOp32
 70
     0
102
RTVSPost2010Prop33
280
     0
102
RTVSPost2010PropOp33
 70
     0
102
RTVSPost2010Prop34
280
     0
102
RTVSPost2010PropOp34
 70
     0
102
RTVSPost2010Prop35
280
     0
102
RTVSPost2010PropOp35
 70
     0
102
RTVSPost2010Prop36
280
     0
102
RTVSPost2010PropOp36
 70
     0
102
RTVSPost2010Prop37
 90
       50
102
RTVSPost2010PropOp37
 70
     0
102
RTVSPost2010Prop38
140
0.0
102
RTVSPost2010PropOp38
 70
     0
102
RTVSPost2010Prop39
140
1.0
102
RTVSPost2010PropOp39
 70
     0
102
RTVSPost2010Prop40
 90
        0
102
RTVSPost2010PropOp40
 70
     0
102
RTVSPost2010Prop41ColorIndex
 90
       18
102
RTVSPost2010Prop41ColorRGB
 90
        0
102
RTVSPost2010PropOp41
 70
     0
102
RTVSPost2010Prop42
 90
       50
102
RTVSPost2010PropOp42
 70
     0
102
RTVSPost2010Prop43
 90
        3
102
RTVSPost2010PropOp43
 70
     0
102
RTVSPost2010Prop44ColorIndex
 90
        5
102
RTVSPost2010Prop44ColorRGB
 90
      255
102
RTVSPost2010PropOp44
 70
     0
102
RTVSPost2010Prop45
280
     0
102
RTVSPost2010PropOp45
 70
     0
102
RTVSPost2010Prop46
 90
       50
102
RTVSPost2010PropOp46
 70
     0
102
RTVSPost2010Prop47
 90
       50
102
RTVSPost2010PropOp47
 70
     0
102
RTVSPost2010Prop48
 90
       50
102
RTVSPost2010PropOp48
 70
     0
102
RTVSPost2010Prop49
280
     0
102
RTVSPost2010PropOp49
 70
     0
102
RTVSPost2010Prop50
 90
       50
102
RTVSPost2010PropOp50
 70
     0
102
RTVSPost2010Prop51ColorIndex
 90
      256
102
RTVSPost2010Prop51ColorRGB
 90
-16777216
102
RTVSPost2010PropOp51
 70
     0
102
RTVSPost2010Prop52
140
1.0
102
RTVSPost2010PropOp52
 70
     0
102
RTVSPost2010Prop53
 90
        2
102
RTVSPost2010PropOp53
 70
     0
102
RTVSPost2010Prop54
  1
strokes_ogs.tif
102
RTVSPost2010PropOp54
 70
     0
102
RTVSPost2010Prop55
280
     0
102
RTVSPost2010PropOp55
 70
     0
102
RTVSPost2010Prop56
140
1.0
102
RTVSPost2010PropOp56
 70
     0
102
RTVSPost2010Prop57
140
1.0
102
RTVSPost2010PropOp57
 70
     0
  0
XRECORD
  5
12A
102
{ACAD_REACTORS
330
129
102
}
330
129
100
AcDbXrecord
280
     1
102
RTVSPost2010Prop28
280
     0
102
RTVSPost2010PropOp28
 70
     1
102
RTVSPost2010Prop29
280
     1
102
RTVSPost2010PropOp29
 70
     1
102
RTVSPost2010Prop30
280
     1
102
RTVSPost2010PropOp30
 70
     1
102
RTVSPost2010Prop31
280
     0
102
RTVSPost2010PropOp31
 70
     1
102
RTVSPost2010Prop32
280
     0
102
RTVSPost2010PropOp32
 70
     1
102
RTVSPost2010Prop33
280
     0
102
RTVSPost2010PropOp33
 70
     1
102
RTVSPost2010Prop34
280
     0
102
RTVSPost2010PropOp34
 70
     1
102
RTVSPost2010Prop35
280
     0
102
RTVSPost2010PropOp35
 70
     1
102
RTVSPost2010Prop36
280
     0
102
RTVSPost2010PropOp36
 70
     1
102
RTVSPost2010Prop37
 90
       50
102
RTVSPost2010PropOp37
 70
     1
102
RTVSPost2010Prop38
140
0.0
102
RTVSPost2010PropOp38
 70
     1
102
RTVSPost2010Prop39
140
1.0
102
RTVSPost2010PropOp39
 70
     1
102
RTVSPost2010Prop40
 90
        0
102
RTVSPost2010PropOp40
 70
     1
102
RTVSPost2010Prop41ColorIndex
 90
       18
102
RTVSPost2010Prop41ColorRGB
 90
        0
102
RTVSPost2010PropOp41
 70
     1
102
RTVSPost2010Prop42
 90
       50
102
RTVSPost2010PropOp42
 70
     1
102
RTVSPost2010Prop43
 90
        3
102
RTVSPost2010PropOp43
 70
     1
102
RTVSPost2010Prop44ColorIndex
 90
        5
102
RTVSPost2010Prop44ColorRGB
 90
      255
102
RTVSPost2010PropOp44
 70
     1
102
RTVSPost2010Prop45
280
     0
102
RTVSPost2010PropOp45
 70
     1
102
RTVSPost2010Prop46
 90
       50
102
RTVSPost2010PropOp46
 70
     1
102
RTVSPost2010Prop47
 90
       50
102
RTVSPost2010PropOp47
 70
     1
102
RTVSPost2010Prop48
 90
       50
102
RTVSPost2010PropOp48
 70
     1
102
RTVSPost2010Prop49
280
     0
102
RTVSPost2010PropOp49
 70
     1
102
RTVSPost2010Prop50
 90
       50
102
RTVSPost2010PropOp50
 70
     1
102
RTVSPost2010Prop51ColorIndex
 90
      256
102
RTVSPost2010Prop51ColorRGB
 90
-16777216
102
RTVSPost2010PropOp51
 70
     0
102
RTVSPost2010Prop52
140
1.0
102
RTVSPost2010PropOp52
 70
     0
102
RTVSPost2010Prop53
 90
        2
102
RTVSPost2010PropOp53
 70
     1
102
RTVSPost2010Prop54
  1
strokes_ogs.tif
102
RTVSPost2010PropOp54
 70
     1
102
RTVSPost2010Prop55
280
     0
102
RTVSPost2010PropOp55
 70
     1
102
RTVSPost2010Prop56
140
1.0
102
RTVSPost2010PropOp56
 70
     1
102
RTVSPost2010Prop57
140
1.0
102
RTVSPost2010PropOp57
 70
     1
  0
XRECORD
  5
13C
102
{ACAD_REACTORS
330
13B
102
}
330
13B
100
AcDbXrecord
280
     1
102
RTVSPost2010Prop28
280
     0
102
RTVSPost2010PropOp28
 70
     0
102
RTVSPost2010Prop29
280
     1
102
RTVSPost2010PropOp29
 70
     0
102
RTVSPost2010Prop30
280
     1
102
RTVSPost2010PropOp30
 70
     0
102
RTVSPost2010Prop31
280
     0
102
RTVSPost2010PropOp31
 70
     0
102
RTVSPost2010Prop32
280
     0
102
RTVSPost2010PropOp32
 70
     0
102
RTVSPost2010Prop33
280
     0
102
RTVSPost2010PropOp33
 70
     0
102
RTVSPost2010Prop34
280
     0
102
RTVSPost2010PropOp34
 70
     0
102
RTVSPost2010Prop35
280
     0
102
RTVSPost2010PropOp35
 70
     0
102
RTVSPost2010Prop36
280
     0
102
RTVSPost2010PropOp36
 70
     0
102
RTVSPost2010Prop37
 90
       50
102
RTVSPost2010PropOp37
 70
     0
102
RTVSPost2010Prop38
140
0.0
102
RTVSPost2010PropOp38
 70
     0
102
RTVSPost2010Prop39
140
1.0
102
RTVSPost2010PropOp39
 70
     0
102
RTVSPost2010Prop40
 90
        0
102
RTVSPost2010PropOp40
 70
     0
102
RTVSPost2010Prop41ColorIndex
 90
       18
102
RTVSPost2010Prop41ColorRGB
 90
        0
102
RTVSPost2010PropOp41
 70
     0
102
RTVSPost2010Prop42
 90
       50
102
RTVSPost2010PropOp42
 70
     0
102
RTVSPost2010Prop43
 90
        3
102
RTVSPost2010PropOp43
 70
     0
102
RTVSPost2010Prop44ColorIndex
 90
        5
102
RTVSPost2010Prop44ColorRGB
 90
      255
102
RTVSPost2010PropOp44
 70
     0
102
RTVSPost2010Prop45
280
     0
102
RTVSPost2010PropOp45
 70
     0
102
RTVSPost2010Prop46
 90
       50
102
RTVSPost2010PropOp46
 70
     0
102
RTVSPost2010Prop47
 90
       50
102
RTVSPost2010PropOp47
 70
     0
102
RTVSPost2010Prop48
 90
       50
102
RTVSPost2010PropOp48
 70
     0
102
RTVSPost2010Prop49
280
     0
102
RTVSPost2010PropOp49
 70
     0
102
RTVSPost2010Prop50
 90
       50
102
RTVSPost2010PropOp50
 70
     0
102
RTVSPost2010Prop51ColorIndex
 90
      256
102
RTVSPost2010Prop51ColorRGB
 90
-16777216
102
RTVSPost2010PropOp51
 70
     0
102
RTVSPost2010Prop52
140
1.0
102
RTVSPost2010PropOp52
 70
     0
102
RTVSPost2010Prop53
 90
        2
102
RTVSPost2010PropOp53
 70
     0
102
RTVSPost2010Prop54
  1
strokes_ogs.tif
102
RTVSPost2010PropOp54
 70
     0
102
RTVSPost2010Prop55
280
     0
102
RTVSPost2010PropOp55
 70
     0
102
RTVSPost2010Prop56
140
1.0
102
RTVSPost2010PropOp56
 70
     0
102
RTVSPost2010Prop57
140
1.0
102
RTVSPost2010PropOp57
 70
     0
  0
XRECORD
  5
122
102
{ACAD_REACTORS
330
121
102
}
330
121
100
AcDbXrecord
280
     1
102
RTVSPost2010Prop28
280
     0
102
RTVSPost2010PropOp28
 70
     1
102
RTVSPost2010Prop29
280
     1
102
RTVSPost2010PropOp29
 70
     1
102
RTVSPost2010Prop30
280
     1
102
RTVSPost2010PropOp30
 70
     1
102
RTVSPost2010Prop31
280
     0
102
RTVSPost2010PropOp31
 70
     1
102
RTVSPost2010Prop32
280
     0
102
RTVSPost2010PropOp32
 70
     1
102
RTVSPost2010Prop33
280
     0
102
RTVSPost2010PropOp33
 70
     1
102
RTVSPost2010Prop34
280
     0
102
RTVSPost2010PropOp34
 70
     1
102
RTVSPost2010Prop35
280
     0
102
RTVSPost2010PropOp35
 70
     1
102
RTVSPost2010Prop36
280
     0
102
RTVSPost2010PropOp36
 70
     1
102
RTVSPost2010Prop37
 90
       50
102
RTVSPost2010PropOp37
 70
     1
102
RTVSPost2010Prop38
140
0.0
102
RTVSPost2010PropOp38
 70
     1
102
RTVSPost2010Prop39
140
1.0
102
RTVSPost2010PropOp39
 70
     1
102
RTVSPost2010Prop40
 90
        0
102
RTVSPost2010PropOp40
 70
     1
102
RTVSPost2010Prop41ColorIndex
 90
       18
102
RTVSPost2010Prop41ColorRGB
 90
        0
102
RTVSPost2010PropOp41
 70
     1
102
RTVSPost2010Prop42
 90
       50
102
RTVSPost2010PropOp42
 70
     1
102
RTVSPost2010Prop43
 90
        3
102
RTVSPost2010PropOp43
 70
     1
102
RTVSPost2010Prop44ColorIndex
 90
        5
102
RTVSPost2010Prop44ColorRGB
 90
      255
102
RTVSPost2010PropOp44
 70
     1
102
RTVSPost2010Prop45
280
     0
102
RTVSPost2010PropOp45
 70
     1
102
RTVSPost2010Prop46
 90
       50
102
RTVSPost2010PropOp46
 70
     1
102
RTVSPost2010Prop47
 90
       50
102
RTVSPost2010PropOp47
 70
     1
102
RTVSPost2010Prop48
 90
       50
102
RTVSPost2010PropOp48
 70
     1
102
RTVSPost2010Prop49
280
     0
102
RTVSPost2010PropOp49
 70
     1
102
RTVSPost2010Prop50
 90
       50
102
RTVSPost2010PropOp50
 70
     1
102
RTVSPost2010Prop51ColorIndex
 90
      256
102
RTVSPost2010Prop51ColorRGB
 90
-16777216
102
RTVSPost2010PropOp51
 70
     0
102
RTVSPost2010Prop52
140
1.0
102
RTVSPost2010PropOp52
 70
     0
102
RTVSPost2010Prop53
 90
        2
102
RTVSPost2010PropOp53
 70
     1
102
RTVSPost2010Prop54
  1
strokes_ogs.tif
102
RTVSPost2010PropOp54
 70
     1
102
RTVSPost2010Prop55
280
     0
102
RTVSPost2010PropOp55
 70
     1
102
RTVSPost2010Prop56
140
1.0
102
RTVSPost2010PropOp56
 70
     1
102
RTVSPost2010Prop57
140
1.0
102
RTVSPost2010PropOp57
 70
     1
  0
XRECORD
  5
138
102
{ACAD_REACTORS
330
137
102
}
330
137
100
AcDbXrecord
280
     1
102
RTVSPost2010Prop28
280
     0
102
RTVSPost2010PropOp28
 70
     1
102
RTVSPost2010Prop29
280
     1
102
RTVSPost2010PropOp29
 70
     1
102
RTVSPost2010Prop30
280
     1
102
RTVSPost2010PropOp30
 70
     1
102
RTVSPost2010Prop31
280
     0
102
RTVSPost2010PropOp31
 70
     1
102
RTVSPost2010Prop32
280
     0
102
RTVSPost2010PropOp32
 70
     1
102
RTVSPost2010Prop33
280
     0
102
RTVSPost2010PropOp33
 70
     1
102
RTVSPost2010Prop34
280
     0
102
RTVSPost2010PropOp34
 70
     1
102
RTVSPost2010Prop35
280
     0
102
RTVSPost2010PropOp35
 70
     1
102
RTVSPost2010Prop36
280
     0
102
RTVSPost2010PropOp36
 70
     1
102
RTVSPost2010Prop37
 90
       50
102
RTVSPost2010PropOp37
 70
     1
102
RTVSPost2010Prop38
140
0.0
102
RTVSPost2010PropOp38
 70
     1
102
RTVSPost2010Prop39
140
1.0
102
RTVSPost2010PropOp39
 70
     1
102
RTVSPost2010Prop40
 90
        0
102
RTVSPost2010PropOp40
 70
     1
102
RTVSPost2010Prop41ColorIndex
 90
       18
102
RTVSPost2010Prop41ColorRGB
 90
        0
102
RTVSPost2010PropOp41
 70
     1
102
RTVSPost2010Prop42
 90
       50
102
RTVSPost2010PropOp42
 70
     1
102
RTVSPost2010Prop43
 90
        3
102
RTVSPost2010PropOp43
 70
     1
102
RTVSPost2010Prop44ColorIndex
 90
        5
102
RTVSPost2010Prop44ColorRGB
 90
      255
102
RTVSPost2010PropOp44
 70
     1
102
RTVSPost2010Prop45
280
     0
102
RTVSPost2010PropOp45
 70
     1
102
RTVSPost2010Prop46
 90
       50
102
RTVSPost2010PropOp46
 70
     1
102
RTVSPost2010Prop47
 90
       50
102
RTVSPost2010PropOp47
 70
     1
102
RTVSPost2010Prop48
 90
       50
102
RTVSPost2010PropOp48
 70
     1
102
RTVSPost2010Prop49
280
     0
102
RTVSPost2010PropOp49
 70
     1
102
RTVSPost2010Prop50
 90
       50
102
RTVSPost2010PropOp50
 70
     1
102
RTVSPost2010Prop51ColorIndex
 90
      256
102
RTVSPost2010Prop51ColorRGB
 90
-16777216
102
RTVSPost2010PropOp51
 70
     0
102
RTVSPost2010Prop52
140
1.0
102
RTVSPost2010PropOp52
 70
     0
102
RTVSPost2010Prop53
 90
        2
102
RTVSPost2010PropOp53
 70
     1
102
RTVSPost2010Prop54
  1
strokes_ogs.tif
102
RTVSPost2010PropOp54
 70
     1
102
RTVSPost2010Prop55
280
     0
102
RTVSPost2010PropOp55
 70
     1
102
RTVSPost2010Prop56
140
1.0
102
RTVSPost2010PropOp56
 70
     1
102
RTVSPost2010Prop57
140
1.0
102
RTVSPost2010PropOp57
 70
     1
  0
XRECORD
  5
136
102
{ACAD_REACTORS
330
135
102
}
330
135
100
AcDbXrecord
280
     1
102
RTVSPost2010Prop28
280
     0
102
RTVSPost2010PropOp28
 70
     1
102
RTVSPost2010Prop29
280
     1
102
RTVSPost2010PropOp29
 70
     1
102
RTVSPost2010Prop30
280
     1
102
RTVSPost2010PropOp30
 70
     1
102
RTVSPost2010Prop31
280
     0
102
RTVSPost2010PropOp31
 70
     1
102
RTVSPost2010Prop32
280
     0
102
RTVSPost2010PropOp32
 70
     1
102
RTVSPost2010Prop33
280
     0
102
RTVSPost2010PropOp33
 70
     1
102
RTVSPost2010Prop34
280
     0
102
RTVSPost2010PropOp34
 70
     1
102
RTVSPost2010Prop35
280
     0
102
RTVSPost2010PropOp35
 70
     1
102
RTVSPost2010Prop36
280
     0
102
RTVSPost2010PropOp36
 70
     1
102
RTVSPost2010Prop37
 90
       50
102
RTVSPost2010PropOp37
 70
     1
102
RTVSPost2010Prop38
140
0.0
102
RTVSPost2010PropOp38
 70
     1
102
RTVSPost2010Prop39
140
1.0
102
RTVSPost2010PropOp39
 70
     1
102
RTVSPost2010Prop40
 90
        0
102
RTVSPost2010PropOp40
 70
     1
102
RTVSPost2010Prop41ColorIndex
 90
       18
102
RTVSPost2010Prop41ColorRGB
 90
        0
102
RTVSPost2010PropOp41
 70
     1
102
RTVSPost2010Prop42
 90
       50
102
RTVSPost2010PropOp42
 70
     1
102
RTVSPost2010Prop43
 90
        3
102
RTVSPost2010PropOp43
 70
     1
102
RTVSPost2010Prop44ColorIndex
 90
        5
102
RTVSPost2010Prop44ColorRGB
 90
      255
102
RTVSPost2010PropOp44
 70
     1
102
RTVSPost2010Prop45
280
     0
102
RTVSPost2010PropOp45
 70
     1
102
RTVSPost2010Prop46
 90
       50
102
RTVSPost2010PropOp46
 70
     1
102
RTVSPost2010Prop47
 90
       50
102
RTVSPost2010PropOp47
 70
     1
102
RTVSPost2010Prop48
 90
       50
102
RTVSPost2010PropOp48
 70
     1
102
RTVSPost2010Prop49
280
     0
102
RTVSPost2010PropOp49
 70
     1
102
RTVSPost2010Prop50
 90
       50
102
RTVSPost2010PropOp50
 70
     1
102
RTVSPost2010Prop51ColorIndex
 90
      256
102
RTVSPost2010Prop51ColorRGB
 90
-16777216
102
RTVSPost2010PropOp51
 70
     0
102
RTVSPost2010Prop52
140
1.0
102
RTVSPost2010PropOp52
 70
     0
102
RTVSPost2010Prop53
 90
        2
102
RTVSPost2010PropOp53
 70
     1
102
RTVSPost2010Prop54
  1
strokes_ogs.tif
102
RTVSPost2010PropOp54
 70
     1
102
RTVSPost2010Prop55
280
     0
102
RTVSPost2010PropOp55
 70
     1
102
RTVSPost2010Prop56
140
1.0
102
RTVSPost2010PropOp56
 70
     1
102
RTVSPost2010Prop57
140
1.0
102
RTVSPost2010PropOp57
 70
     1
  0
XRECORD
  5
130
102
{ACAD_REACTORS
330
12F
102
}
330
12F
100
AcDbXrecord
280
     1
102
RTVSPost2010Prop28
280
     0
102
RTVSPost2010PropOp28
 70
     1
102
RTVSPost2010Prop29
280
     1
102
RTVSPost2010PropOp29
 70
     1
102
RTVSPost2010Prop30
280
     1
102
RTVSPost2010PropOp30
 70
     1
102
RTVSPost2010Prop31
280
     0
102
RTVSPost2010PropOp31
 70
     1
102
RTVSPost2010Prop32
280
     0
102
RTVSPost2010PropOp32
 70
     1
102
RTVSPost2010Prop33
280
     0
102
RTVSPost2010PropOp33
 70
     1
102
RTVSPost2010Prop34
280
     0
102
RTVSPost2010PropOp34
 70
     1
102
RTVSPost2010Prop35
280
     0
102
RTVSPost2010PropOp35
 70
     1
102
RTVSPost2010Prop36
280
     0
102
RTVSPost2010PropOp36
 70
     1
102
RTVSPost2010Prop37
 90
       50
102
RTVSPost2010PropOp37
 70
     1
102
RTVSPost2010Prop38
140
0.0
102
RTVSPost2010PropOp38
 70
     1
102
RTVSPost2010Prop39
140
1.0
102
RTVSPost2010PropOp39
 70
     1
102
RTVSPost2010Prop40
 90
        0
102
RTVSPost2010PropOp40
 70
     1
102
RTVSPost2010Prop41ColorIndex
 90
       18
102
RTVSPost2010Prop41ColorRGB
 90
        0
102
RTVSPost2010PropOp41
 70
     1
102
RTVSPost2010Prop42
 90
       50
102
RTVSPost2010PropOp42
 70
     1
102
RTVSPost2010Prop43
 90
        3
102
RTVSPost2010PropOp43
 70
     1
102
RTVSPost2010Prop44ColorIndex
 90
        5
102
RTVSPost2010Prop44ColorRGB
 90
      255
102
RTVSPost2010PropOp44
 70
     1
102
RTVSPost2010Prop45
280
     0
102
RTVSPost2010PropOp45
 70
     1
102
RTVSPost2010Prop46
 90
       50
102
RTVSPost2010PropOp46
 70
     1
102
RTVSPost2010Prop47
 90
       50
102
RTVSPost2010PropOp47
 70
     1
102
RTVSPost2010Prop48
 90
       50
102
RTVSPost2010PropOp48
 70
     1
102
RTVSPost2010Prop49
280
     0
102
RTVSPost2010PropOp49
 70
     1
102
RTVSPost2010Prop50
 90
       50
102
RTVSPost2010PropOp50
 70
     1
102
RTVSPost2010Prop51ColorIndex
 90
      256
102
RTVSPost2010Prop51ColorRGB
 90
-16777216
102
RTVSPost2010PropOp51
 70
     0
102
RTVSPost2010Prop52
140
1.0
102
RTVSPost2010PropOp52
 70
     0
102
RTVSPost2010Prop53
 90
        2
102
RTVSPost2010PropOp53
 70
     1
102
RTVSPost2010Prop54
  1
strokes_ogs.tif
102
RTVSPost2010PropOp54
 70
     1
102
RTVSPost2010Prop55
280
     0
102
RTVSPost2010PropOp55
 70
     1
102
RTVSPost2010Prop56
140
1.0
102
RTVSPost2010PropOp56
 70
     1
102
RTVSPost2010Prop57
140
1.0
102
RTVSPost2010PropOp57
 70
     1
  0
XRECORD
  5
132
102
{ACAD_REACTORS
330
131
102
}
330
131
100
AcDbXrecord
280
     1
102
RTVSPost2010Prop28
280
     0
102
RTVSPost2010PropOp28
 70
     1
102
RTVSPost2010Prop29
280
     1
102
RTVSPost2010PropOp29
 70
     1
102
RTVSPost2010Prop30
280
     1
102
RTVSPost2010PropOp30
 70
     1
102
RTVSPost2010Prop31
280
     0
102
RTVSPost2010PropOp31
 70
     1
102
RTVSPost2010Prop32
280
     0
102
RTVSPost2010PropOp32
 70
     1
102
RTVSPost2010Prop33
280
     0
102
RTVSPost2010PropOp33
 70
     1
102
RTVSPost2010Prop34
280
     0
102
RTVSPost2010PropOp34
 70
     1
102
RTVSPost2010Prop35
280
     0
102
RTVSPost2010PropOp35
 70
     1
102
RTVSPost2010Prop36
280
     0
102
RTVSPost2010PropOp36
 70
     1
102
RTVSPost2010Prop37
 90
       50
102
RTVSPost2010PropOp37
 70
     1
102
RTVSPost2010Prop38
140
0.0
102
RTVSPost2010PropOp38
 70
     1
102
RTVSPost2010Prop39
140
1.0
102
RTVSPost2010PropOp39
 70
     1
102
RTVSPost2010Prop40
 90
        0
102
RTVSPost2010PropOp40
 70
     1
102
RTVSPost2010Prop41ColorIndex
 90
       18
102
RTVSPost2010Prop41ColorRGB
 90
        0
102
RTVSPost2010PropOp41
 70
     1
102
RTVSPost2010Prop42
 90
       50
102
RTVSPost2010PropOp42
 70
     1
102
RTVSPost2010Prop43
 90
        3
102
RTVSPost2010PropOp43
 70
     1
102
RTVSPost2010Prop44ColorIndex
 90
        5
102
RTVSPost2010Prop44ColorRGB
 90
      255
102
RTVSPost2010PropOp44
 70
     1
102
RTVSPost2010Prop45
280
     0
102
RTVSPost2010PropOp45
 70
     1
102
RTVSPost2010Prop46
 90
       50
102
RTVSPost2010PropOp46
 70
     1
102
RTVSPost2010Prop47
 90
       50
102
RTVSPost2010PropOp47
 70
     1
102
RTVSPost2010Prop48
 90
       50
102
RTVSPost2010PropOp48
 70
     1
102
RTVSPost2010Prop49
280
     0
102
RTVSPost2010PropOp49
 70
     1
102
RTVSPost2010Prop50
 90
       50
102
RTVSPost2010PropOp50
 70
     1
102
RTVSPost2010Prop51ColorIndex
 90
      256
102
RTVSPost2010Prop51ColorRGB
 90
-16777216
102
RTVSPost2010PropOp51
 70
     0
102
RTVSPost2010Prop52
140
1.0
102
RTVSPost2010PropOp52
 70
     0
102
RTVSPost2010Prop53
 90
        2
102
RTVSPost2010PropOp53
 70
     1
102
RTVSPost2010Prop54
  1
strokes_ogs.tif
102
RTVSPost2010PropOp54
 70
     1
102
RTVSPost2010Prop55
280
     0
102
RTVSPost2010PropOp55
 70
     1
102
RTVSPost2010Prop56
140
1.0
102
RTVSPost2010PropOp56
 70
     1
102
RTVSPost2010Prop57
140
1.0
102
RTVSPost2010PropOp57
 70
     1
  0
XRECORD
  5
128
102
{ACAD_REACTORS
330
127
102
}
330
127
100
AcDbXrecord
280
     1
102
RTVSPost2010Prop28
280
     0
102
RTVSPost2010PropOp28
 70
     1
102
RTVSPost2010Prop29
280
     1
102
RTVSPost2010PropOp29
 70
     1
102
RTVSPost2010Prop30
280
     1
102
RTVSPost2010PropOp30
 70
     1
102
RTVSPost2010Prop31
280
     0
102
RTVSPost2010PropOp31
 70
     1
102
RTVSPost2010Prop32
280
     0
102
RTVSPost2010PropOp32
 70
     1
102
RTVSPost2010Prop33
280
     0
102
RTVSPost2010PropOp33
 70
     1
102
RTVSPost2010Prop34
280
     0
102
RTVSPost2010PropOp34
 70
     1
102
RTVSPost2010Prop35
280
     0
102
RTVSPost2010PropOp35
 70
     1
102
RTVSPost2010Prop36
280
     0
102
RTVSPost2010PropOp36
 70
     1
102
RTVSPost2010Prop37
 90
       50
102
RTVSPost2010PropOp37
 70
     1
102
RTVSPost2010Prop38
140
0.0
102
RTVSPost2010PropOp38
 70
     1
102
RTVSPost2010Prop39
140
1.0
102
RTVSPost2010PropOp39
 70
     1
102
RTVSPost2010Prop40
 90
        0
102
RTVSPost2010PropOp40
 70
     1
102
RTVSPost2010Prop41ColorIndex
 90
       18
102
RTVSPost2010Prop41ColorRGB
 90
        0
102
RTVSPost2010PropOp41
 70
     1
102
RTVSPost2010Prop42
 90
       50
102
RTVSPost2010PropOp42
 70
     1
102
RTVSPost2010Prop43
 90
        3
102
RTVSPost2010PropOp43
 70
     1
102
RTVSPost2010Prop44ColorIndex
 90
        5
102
RTVSPost2010Prop44ColorRGB
 90
      255
102
RTVSPost2010PropOp44
 70
     1
102
RTVSPost2010Prop45
280
     0
102
RTVSPost2010PropOp45
 70
     1
102
RTVSPost2010Prop46
 90
       50
102
RTVSPost2010PropOp46
 70
     1
102
RTVSPost2010Prop47
 90
       50
102
RTVSPost2010PropOp47
 70
     1
102
RTVSPost2010Prop48
 90
       50
102
RTVSPost2010PropOp48
 70
     1
102
RTVSPost2010Prop49
280
     0
102
RTVSPost2010PropOp49
 70
     1
102
RTVSPost2010Prop50
 90
       50
102
RTVSPost2010PropOp50
 70
     1
102
RTVSPost2010Prop51ColorIndex
 90
      256
102
RTVSPost2010Prop51ColorRGB
 90
-16777216
102
RTVSPost2010PropOp51
 70
     0
102
RTVSPost2010Prop52
140
1.0
102
RTVSPost2010PropOp52
 70
     0
102
RTVSPost2010Prop53
 90
        2
102
RTVSPost2010PropOp53
 70
     1
102
RTVSPost2010Prop54
  1
strokes_ogs.tif
102
RTVSPost2010PropOp54
 70
     1
102
RTVSPost2010Prop55
280
     0
102
RTVSPost2010PropOp55
 70
     1
102
RTVSPost2010Prop56
140
1.0
102
RTVSPost2010PropOp56
 70
     1
102
RTVSPost2010Prop57
140
1.0
102
RTVSPost2010PropOp57
 70
     1
  0
XRECORD
  5
11C
102
{ACAD_REACTORS
330
11B
102
}
330
11B
100
AcDbXrecord
280
     1
102
RTVSPost2010Prop28
280
     0
102
RTVSPost2010PropOp28
 70
     1
102
RTVSPost2010Prop29
280
     1
102
RTVSPost2010PropOp29
 70
     1
102
RTVSPost2010Prop30
280
     1
102
RTVSPost2010PropOp30
 70
     1
102
RTVSPost2010Prop31
280
     0
102
RTVSPost2010PropOp31
 70
     1
102
RTVSPost2010Prop32
280
     0
102
RTVSPost2010PropOp32
 70
     1
102
RTVSPost2010Prop33
280
     0
102
RTVSPost2010PropOp33
 70
     1
102
RTVSPost2010Prop34
280
     0
102
RTVSPost2010PropOp34
 70
     1
102
RTVSPost2010Prop35
280
     0
102
RTVSPost2010PropOp35
 70
     1
102
RTVSPost2010Prop36
280
     0
102
RTVSPost2010PropOp36
 70
     1
102
RTVSPost2010Prop37
 90
       50
102
RTVSPost2010PropOp37
 70
     1
102
RTVSPost2010Prop38
140
0.0
102
RTVSPost2010PropOp38
 70
     1
102
RTVSPost2010Prop39
140
1.0
102
RTVSPost2010PropOp39
 70
     1
102
RTVSPost2010Prop40
 90
        0
102
RTVSPost2010PropOp40
 70
     1
102
RTVSPost2010Prop41ColorIndex
 90
       18
102
RTVSPost2010Prop41ColorRGB
 90
        0
102
RTVSPost2010PropOp41
 70
     1
102
RTVSPost2010Prop42
 90
       50
102
RTVSPost2010PropOp42
 70
     1
102
RTVSPost2010Prop43
 90
        3
102
RTVSPost2010PropOp43
 70
     1
102
RTVSPost2010Prop44ColorIndex
 90
        5
102
RTVSPost2010Prop44ColorRGB
 90
      255
102
RTVSPost2010PropOp44
 70
     1
102
RTVSPost2010Prop45
280
     0
102
RTVSPost2010PropOp45
 70
     1
102
RTVSPost2010Prop46
 90
       50
102
RTVSPost2010PropOp46
 70
     1
102
RTVSPost2010Prop47
 90
       50
102
RTVSPost2010PropOp47
 70
     1
102
RTVSPost2010Prop48
 90
       50
102
RTVSPost2010PropOp48
 70
     1
102
RTVSPost2010Prop49
280
     0
102
RTVSPost2010PropOp49
 70
     1
102
RTVSPost2010Prop50
 90
       50
102
RTVSPost2010PropOp50
 70
     1
102
RTVSPost2010Prop51ColorIndex
 90
      256
102
RTVSPost2010Prop51ColorRGB
 90
-16777216
102
RTVSPost2010PropOp51
 70
     0
102
RTVSPost2010Prop52
140
1.0
102
RTVSPost2010PropOp52
 70
     0
102
RTVSPost2010Prop53
 90
        2
102
RTVSPost2010PropOp53
 70
     1
102
RTVSPost2010Prop54
  1
strokes_ogs.tif
102
RTVSPost2010PropOp54
 70
     1
102
RTVSPost2010Prop55
280
     0
102
RTVSPost2010PropOp55
 70
     1
102
RTVSPost2010Prop56
140
1.0
102
RTVSPost2010PropOp56
 70
     1
102
RTVSPost2010Prop57
140
1.0
102
RTVSPost2010PropOp57
 70
     1
  0
XRECORD
  5
134
102
{ACAD_REACTORS
330
133
102
}
330
133
100
AcDbXrecord
280
     1
102
RTVSPost2010Prop28
280
     0
102
RTVSPost2010PropOp28
 70
     1
102
RTVSPost2010Prop29
280
     1
102
RTVSPost2010PropOp29
 70
     1
102
RTVSPost2010Prop30
280
     1
102
RTVSPost2010PropOp30
 70
     1
102
RTVSPost2010Prop31
280
     0
102
RTVSPost2010PropOp31
 70
     1
102
RTVSPost2010Prop32
280
     0
102
RTVSPost2010PropOp32
 70
     1
102
RTVSPost2010Prop33
280
     0
102
RTVSPost2010PropOp33
 70
     1
102
RTVSPost2010Prop34
280
     0
102
RTVSPost2010PropOp34
 70
     1
102
RTVSPost2010Prop35
280
     0
102
RTVSPost2010PropOp35
 70
     1
102
RTVSPost2010Prop36
280
     0
102
RTVSPost2010PropOp36
 70
     1
102
RTVSPost2010Prop37
 90
       50
102
RTVSPost2010PropOp37
 70
     1
102
RTVSPost2010Prop38
140
0.0
102
RTVSPost2010PropOp38
 70
     1
102
RTVSPost2010Prop39
140
1.0
102
RTVSPost2010PropOp39
 70
     1
102
RTVSPost2010Prop40
 90
        0
102
RTVSPost2010PropOp40
 70
     1
102
RTVSPost2010Prop41ColorIndex
 90
       18
102
RTVSPost2010Prop41ColorRGB
 90
        0
102
RTVSPost2010PropOp41
 70
     1
102
RTVSPost2010Prop42
 90
       50
102
RTVSPost2010PropOp42
 70
     1
102
RTVSPost2010Prop43
 90
        3
102
RTVSPost2010PropOp43
 70
     1
102
RTVSPost2010Prop44ColorIndex
 90
        5
102
RTVSPost2010Prop44ColorRGB
 90
      255
102
RTVSPost2010PropOp44
 70
     1
102
RTVSPost2010Prop45
280
     0
102
RTVSPost2010PropOp45
 70
     1
102
RTVSPost2010Prop46
 90
       50
102
RTVSPost2010PropOp46
 70
     1
102
RTVSPost2010Prop47
 90
       50
102
RTVSPost2010PropOp47
 70
     1
102
RTVSPost2010Prop48
 90
       50
102
RTVSPost2010PropOp48
 70
     1
102
RTVSPost2010Prop49
280
     0
102
RTVSPost2010PropOp49
 70
     1
102
RTVSPost2010Prop50
 90
       50
102
RTVSPost2010PropOp50
 70
     1
102
RTVSPost2010Prop51ColorIndex
 90
      256
102
RTVSPost2010Prop51ColorRGB
 90
-16777216
102
RTVSPost2010PropOp51
 70
     0
102
RTVSPost2010Prop52
140
1.0
102
RTVSPost2010PropOp52
 70
     0
102
RTVSPost2010Prop53
 90
        2
102
RTVSPost2010PropOp53
 70
     1
102
RTVSPost2010Prop54
  1
strokes_ogs.tif
102
RTVSPost2010PropOp54
 70
     1
102
RTVSPost2010Prop55
280
     0
102
RTVSPost2010PropOp55
 70
     1
102
RTVSPost2010Prop56
140
1.0
102
RTVSPost2010PropOp56
 70
     1
102
RTVSPost2010Prop57
140
1.0
102
RTVSPost2010PropOp57
 70
     1
  0
ENDSEC
  0
EOF
