  0
SECTION
  2
HEADER
  9
$ACADVER
  1
AC1024
  9
$ACADMAINTVER
 70
     6
  9
$DWGCODEPAGE
  3
UNDEFINED
  9
$INSBASE
 10
0.0
 20
0.0
 30
0.0
  9
$EXTMIN
 10
1.000000000000000E+20
 20
1.000000000000000E+20
 30
1.000000000000000E+20
  9
$EXTMAX
 10
-1.000000000000000E+20
 20
-1.000000000000000E+20
 30
-1.000000000000000E+20
  9
$LIMMIN
 10
0.0
 20
0.0
  9
$LIMMAX
 10
12.0
 20
9.0
  9
$ORTHOMODE
 70
     0
  9
$REGENMODE
 70
     1
  9
$FILLMODE
 70
     1
  9
$QTEXTMODE
 70
     0
  9
$MIRRTEXT
 70
     1
  9
$LTSCALE
 40
1.0
  9
$ATTMODE
 70
     1
  9
$TEXTSIZE
 40
0.2
  9
$TRACEWID
 40
0.05
  9
$TEXTSTYLE
  7
Standard
  9
$CLAYER
  8
0
  9
$CELTYPE
  6
ByLayer
  9
$CECOLOR
 62
   256
  9
$CELTSCALE
 40
1.0
  9
$DISPSILH
 70
     0
  9
$DIMSCALE
 40
1.0
  9
$DIMASZ
 40
0.18
  9
$DIMEXO
 40
0.0625
  9
$DIMDLI
 40
0.38
  9
$DIMRND
 40
0.0
  9
$DIMDLE
 40
0.0
  9
$DIMEXE
 40
0.18
  9
$DIMTP
 40
0.0
  9
$DIMTM
 40
0.0
  9
$DIMTXT
 40
0.18
  9
$DIMCEN
 40
0.09
  9
$DIMTSZ
 40
0.0
  9
$DIMTOL
 70
     0
  9
$DIMLIM
 70
     0
  9
$DIMTIH
 70
     1
  9
$DIMTOH
 70
     1
  9
$DIMSE1
 70
     0
  9
$DIMSE2
 70
     0
  9
$DIMTAD
 70
     0
  9
$DIMZIN
 70
     0
  9
$DIMBLK
  1

  9
$DIMASO
 70
     1
  9
$DIMSHO
 70
     1
  9
$DIMPOST
  1

  9
$DIMAPOST
  1

  9
$DIMALT
 70
     0
  9
$DIMALTD
 70
     2
  9
$DIMALTF
 40
25.4
  9
$DIMLFAC
 40
1.0
  9
$DIMTOFL
 70
     0
  9
$DIMTVP
 40
0.0
  9
$DIMTIX
 70
     0
  9
$DIMSOXD
 70
     0
  9
$DIMSAH
 70
     0
  9
$DIMBLK1
  1

  9
$DIMBLK2
  1

  9
$DIMSTYLE
  2
Standard
  9
$DIMCLRD
 70
     0
  9
$DIMCLRE
 70
     0
  9
$DIMCLRT
 70
     0
  9
$DIMTFAC
 40
1.0
  9
$DIMGAP
 40
0.09
  9
$DIMJUST
 70
     0
  9
$DIMSD1
 70
     0
  9
$DIMSD2
 70
     0
  9
$DIMTOLJ
 70
     1
  9
$DIMTZIN
 70
     0
  9
$DIMALTZ
 70
     0
  9
$DIMALTTZ
 70
     0
  9
$DIMUPT
 70
     0
  9
$DIMDEC
 70
     4
  9
$DIMTDEC
 70
     4
  9
$DIMALTU
 70
     2
  9
$DIMALTTD
 70
     2
  9
$DIMTXSTY
  7
Standard
  9
$DIMAUNIT
 70
     0
  9
$DIMADEC
 70
     0
  9
$DIMALTRND
 40
0.0
  9
$DIMAZIN
 70
     0
  9
$DIMDSEP
 70
    46
  9
$DIMATFIT
 70
     3
  9
$DIMFRAC
 70
     0
  9
$DIMLDRBLK
  1

  9
$DIMLUNIT
 70
     2
  9
$DIMLWD
 70
    -2
  9
$DIMLWE
 70
    -2
  9
$DIMTMOVE
 70
     0
  9
$DIMFXL
 40
1.0
  9
$DIMFXLON
 70
     0
  9
$DIMJOGANG
 40
0.7853981633974483
  9
$DIMTFILL
 70
     0
  9
$DIMTFILLCLR
 70
     0
  9
$DIMARCSYM
 70
     0
  9
$DIMLTYPE
  6

  9
$DIMLTEX1
  6

  9
$DIMLTEX2
  6

  9
$DIMTXTDIRECTION
 70
     0
  9
$LUNITS
 70
     2
  9
$LUPREC
 70
     4
  9
$SKETCHINC
 40
0.1
  9
$FILLETRAD
 40
0.5
  9
$AUNITS
 70
     0
  9
$AUPREC
 70
     0
  9
$MENU
  1
.
  9
$ELEVATION
 40
0.0
  9
$PELEVATION
 40
0.0
  9
$THICKNESS
 40
0.0
  9
$LIMCHECK
 70
     0
  9
$CHAMFERA
 40
0.5
  9
$CHAMFERB
 40
0.5
  9
$CHAMFERC
 40
1.0
  9
$CHAMFERD
 40
0.0
  9
$SKPOLY
 70
     0
  9
$TDCREATE
 40
2457917.586076389
  9
$TDUCREATE
 40
2457917.211076389
  9
$TDUPDATE
 40
2457917.586076389
  9
$TDUUPDATE
 40
2457917.211076389
  9
$TDINDWG
 40
0.0000000116
  9
$TDUSRTIMER
 40
0.0000000116
  9
$USRTIMER
 70
     1
  9
$ANGBASE
 50
0.0
  9
$ANGDIR
 70
     0
  9
$PDMODE
 70
     0
  9
$PDSIZE
 40
0.0
  9
$PLINEWID
 40
0.0
  9
$SPLFRAME
 70
     0
  9
$SPLINETYPE
 70
     6
  9
$SPLINESEGS
 70
     8
  9
$HANDSEED
  5
101
  9
$SURFTAB1
 70
     6
  9
$SURFTAB2
 70
     6
  9
$SURFTYPE
 70
     6
  9
$SURFU
 70
     6
  9
$SURFV
 70
     6
  9
$UCSBASE
  2

  9
$UCSNAME
  2

  9
$UCSORG
 10
0.0
 20
0.0
 30
0.0
  9
$UCSXDIR
 10
1.0
 20
0.0
 30
0.0
  9
$UCSYDIR
 10
0.0
 20
1.0
 30
0.0
  9
$UCSORTHOREF
  2

  9
$UCSORTHOVIEW
 70
     0
  9
$UCSORGTOP
 10
0.0
 20
0.0
 30
0.0
  9
$UCSORGBOTTOM
 10
0.0
 20
0.0
 30
0.0
  9
$UCSORGLEFT
 10
0.0
 20
0.0
 30
0.0
  9
$UCSORGRIGHT
 10
0.0
 20
0.0
 30
0.0
  9
$UCSORGFRONT
 10
0.0
 20
0.0
 30
0.0
  9
$UCSORGBACK
 10
0.0
 20
0.0
 30
0.0
  9
$PUCSBASE
  2

  9
$PUCSNAME
  2

  9
$PUCSORG
 10
0.0
 20
0.0
 30
0.0
  9
$PUCSXDIR
 10
1.0
 20
0.0
 30
0.0
  9
$PUCSYDIR
 10
0.0
 20
1.0
 30
0.0
  9
$PUCSORTHOREF
  2

  9
$PUCSORTHOVIEW
 70
     0
  9
$PUCSORGTOP
 10
0.0
 20
0.0
 30
0.0
  9
$PUCSORGBOTTOM
 10
0.0
 20
0.0
 30
0.0
  9
$PUCSORGLEFT
 10
0.0
 20
0.0
 30
0.0
  9
$PUCSORGRIGHT
 10
0.0
 20
0.0
 30
0.0
  9
$PUCSORGFRONT
 10
0.0
 20
0.0
 30
0.0
  9
$PUCSORGBACK
 10
0.0
 20
0.0
 30
0.0
  9
$USERI1
 70
     0
  9
$USERI2
 70
     0
  9
$USERI3
 70
     0
  9
$USERI4
 70
     0
  9
$USERI5
 70
     0
  9
$USERR1
 40
0.0
  9
$USERR2
 40
0.0
  9
$USERR3
 40
0.0
  9
$USERR4
 40
0.0
  9
$USERR5
 40
0.0
  9
$WORLDVIEW
 70
     1
  9
$SHADEDGE
 70
     3
  9
$SHADEDIF
 70
    70
  9
$TILEMODE
 70
     1
  9
$MAXACTVP
 70
    64
  9
$PINSBASE
 10
0.0
 20
0.0
 30
0.0
  9
$PLIMCHECK
 70
     0
  9
$PEXTMIN
 10
1.000000000000000E+20
 20
1.000000000000000E+20
 30
1.000000000000000E+20
  9
$PEXTMAX
 10
-1.000000000000000E+20
 20
-1.000000000000000E+20
 30
-1.000000000000000E+20
  9
$PLIMMIN
 10
0.0
 20
0.0
  9
$PLIMMAX
 10
12.0
 20
9.0
  9
$UNITMODE
 70
     0
  9
$VISRETAIN
 70
     1
  9
$PLINEGEN
 70
     0
  9
$PSLTSCALE
 70
     1
  9
$TREEDEPTH
 70
  3020
  9
$CMLSTYLE
  2
Standard
  9
$CMLJUST
 70
     0
  9
$CMLSCALE
 40
1.0
  9
$PROXYGRAPHICS
 70
     1
  9
$MEASUREMENT
 70
     0
  9
$CELWEIGHT
370
    -1
  9
$ENDCAPS
280
     0
  9
$JOINSTYLE
280
     0
  9
$LWDISPLAY
290
     1
  9
$INSUNITS
 70
     1
  9
$HYPERLINKBASE
  1

  9
$STYLESHEET
  1

  9
$XEDIT
290
     1
  9
$CEPSNTYPE
380
     0
  9
$PSTYLEMODE
290
     1
  9
$FINGERPRINTGUID
  2
{865A1F18-69C1-A3A3-50EF-12A93AEA99F2}
  9
$VERSIONGUID
  2
{FAEB1C32-E019-11D5-929B-00C0DF256EC4}
  9
$EXTNAMES
290
     1
  9
$PSVPSCALE
 40
0.0
  9
$OLESTARTUP
290
     0
  9
$SORTENTS
280
   127
  9
$INDEXCTL
280
     0
  9
$HIDETEXT
280
     1
  9
$XCLIPFRAME
280
     2
  9
$HALOGAP
280
     0
  9
$OBSCOLOR
 70
   257
  9
$OBSLTYPE
280
     0
  9
$INTERSECTIONDISPLAY
280
     0
  9
$INTERSECTIONCOLOR
 70
   257
  9
$DIMASSOC
280
     2
  9
$PROJECTNAME
  1

  9
$CAMERADISPLAY
290
     0
  9
$LENSLENGTH
 40
50.0
  9
$CAMERAHEIGHT
 40
0.0
  9
$STEPSPERSEC
 40
2.0
  9
$STEPSIZE
 40
6.0
  9
$3DDWFPREC
 40
2.0
  9
$PSOLWIDTH
 40
0.25
  9
$PSOLHEIGHT
 40
4.0
  9
$LOFTANG1
 40
1.570796326794897
  9
$LOFTANG2
 40
1.570796326794897
  9
$LOFTMAG1
 40
0.0
  9
$LOFTMAG2
 40
0.0
  9
$LOFTPARAM
 70
     7
  9
$LOFTNORMALS
280
     1
  9
$LATITUDE
 40
37.795
  9
$LONGITUDE
 40
-122.394
  9
$NORTHDIRECTION
 40
0.0
  9
$TIMEZONE
 70
 -8000
  9
$LIGHTGLYPHDISPLAY
280
     1
  9
$TILEMODELIGHTSYNCH
280
     1
  9
$CMATERIAL
347
3C
  9
$SOLIDHIST
280
     1
  9
$SHOWHIST
280
     1
  9
$DWFFRAME
280
     2
  9
$DGNFRAME
280
     2
  9
$REALWORLDSCALE
290
     1
  9
$INTERFERECOLOR
 62
   256
  9
$CSHADOW
280
     0
  9
$SHADOWPLANELOCATION
 40
0.0
  0
ENDSEC
  0
SECTION
  2
CLASSES
  0
CLASS
  1
ACDBDICTIONARYWDFLT
  2
AcDbDictionaryWithDefault
  3
ObjectDBX Classes
 90
        0
 91
        4
280
     0
281
     0
  0
CLASS
  1
VISUALSTYLE
  2
AcDbVisualStyle
  3
ObjectDBX Classes
 90
     4095
 91
        4
280
     0
281
     0
  0
CLASS
  1
MATERIAL
  2
AcDbMaterial
  3
ObjectDBX Classes
 90
     1153
 91
        4
280
     0
281
     0
  0
CLASS
  1
SUN
  2
AcDbSun
  3
SCENEOE
 90
     1024
 91
        4
280
     0
281
     0
  0
ENDSEC
  0
SECTION
  2
TABLES
  0
TABLE
  2
VPORT
  5
8
330
0
100
AcDbSymbolTable
 70
     1
  0
VPORT
  5
29
330
8
100
AcDbSymbolTableRecord
100
AcDbViewportTableRecord
  2
*Active
 70
     0
 10
0.0
 20
0.0
 11
1.0
 21
1.0
 12
0.0
 22
0.0
 13
0.0
 23
0.0
 14
0.5
 24
0.5
 15
0.5
 25
0.5
 16
0.0
 26
0.0
 36
1.0
 17
105.0008280156501
 27
-148.4999710739862
 37
0.0
 40
296.9999421479724
 41
0.7070764206636528
 42
50.0
 43
0.0
 44
0.0
 50
0.0
 51
0.0
 71
     0
 72
   100
 73
     1
 74
     3
 75
     0
 76
     0
 77
     0
 78
     0
281
     0
 65
     1
110
0.0
120
0.0
130
0.0
111
1.0
121
0.0
131
0.0
112
0.0
122
1.0
132
0.0
 79
     0
146
0.0
 60
     3
 61
     5
292
     1
282
     1
141
0.0
142
0.0
 63
   250
361
3F
  0
ENDTAB
  0
TABLE
  2
LTYPE
  5
5
330
0
100
AcDbSymbolTable
 70
     1
  0
LTYPE
  5
14
330
5
100
AcDbSymbolTableRecord
100
AcDbLinetypeTableRecord
  2
ByBlock
 70
     0
  3

 72
    65
 73
     0
 40
0.0
  0
LTYPE
  5
15
330
5
100
AcDbSymbolTableRecord
100
AcDbLinetypeTableRecord
  2
ByLayer
 70
     0
  3

 72
    65
 73
     0
 40
0.0
  0
LTYPE
  5
16
330
5
100
AcDbSymbolTableRecord
100
AcDbLinetypeTableRecord
  2
Continuous
 70
     0
  3
Solid line
 72
    65
 73
     0
 40
0.0
  0
ENDTAB
  0
TABLE
  2
LAYER
  5
2
330
0
100
AcDbSymbolTable
 70
     2
  0
LAYER
  5
10
330
2
100
AcDbSymbolTableRecord
100
AcDbLayerTableRecord
  2
0
 70
     0
 62
     7
  6
Continuous
370
    -3
390
F
347
3E
  0
LAYER
  5
40
330
2
100
AcDbSymbolTableRecord
100
AcDbLayerTableRecord
  2
_U+30EC_U+30A4_U+30E4_U+30FC 1
 70
     0
 62
     7
  6
Continuous
370
    -3
390
F
347
3E
  0
ENDTAB
  0
TABLE
  2
STYLE
  5
3
330
0
100
AcDbSymbolTable
 70
     1
  0
STYLE
  5
11
330
3
100
AcDbSymbolTableRecord
100
AcDbTextStyleTableRecord
  2
Standard
 70
     0
 40
0.0
 41
1.0
 50
0.0
 71
     0
 42
0.2
  3
txt
  4

  0
ENDTAB
  0
TABLE
  2
VIEW
  5
6
330
0
100
AcDbSymbolTable
 70
     0
  0
ENDTAB
  0
TABLE
  2
UCS
  5
7
330
0
100
AcDbSymbolTable
 70
     0
  0
ENDTAB
  0
TABLE
  2
APPID
  5
9
330
0
100
AcDbSymbolTable
 70
     1
  0
APPID
  5
12
330
9
100
AcDbSymbolTableRecord
100
AcDbRegAppTableRecord
  2
ACAD
 70
     0
  0
ENDTAB
  0
TABLE
  2
DIMSTYLE
  5
A
330
0
100
AcDbSymbolTable
 70
     1
100
AcDbDimStyleTable
  0
DIMSTYLE
105
27
330
A
100
AcDbSymbolTableRecord
100
AcDbDimStyleTableRecord
  2
Standard
 70
     0
178
     0
340
11
  0
ENDTAB
  0
TABLE
  2
BLOCK_RECORD
  5
1
330
0
100
AcDbSymbolTable
 70
     7
  0
BLOCK_RECORD
  5
1F
330
1
100
AcDbSymbolTableRecord
100
AcDbBlockTableRecord
  2
*Model_Space
340
22
 70
     0
280
     1
281
     0
  0
BLOCK_RECORD
  5
1B
330
1
100
AcDbSymbolTableRecord
100
AcDbBlockTableRecord
  2
*Paper_Space
340
1E
 70
     0
280
     1
281
     0
  0
BLOCK_RECORD
  5
23
330
1
100
AcDbSymbolTableRecord
100
AcDbBlockTableRecord
  2
*Paper_Space0
340
26
 70
     0
280
     1
281
     0
  0
BLOCK_RECORD
  5
41
330
1
100
AcDbSymbolTableRecord
100
AcDbBlockTableRecord
  2
block 2
340
0
102
{BLKREFS
331
42
102
}
 70
     0
280
     1
281
     0
  0
BLOCK_RECORD
  5
79
330
1
100
AcDbSymbolTableRecord
100
AcDbBlockTableRecord
  2
block 3
340
0
102
{BLKREFS
331
7A
102
}
 70
     0
280
     1
281
     0
  0
BLOCK_RECORD
  5
88
330
1
100
AcDbSymbolTableRecord
100
AcDbBlockTableRecord
  2
block 4
340
0
102
{BLKREFS
331
89
102
}
 70
     0
280
     1
281
     0
  0
BLOCK_RECORD
  5
A0
330
1
100
AcDbSymbolTableRecord
100
AcDbBlockTableRecord
  2
block 5
340
0
102
{BLKREFS
331
A1
102
}
 70
     0
280
     1
281
     0
  0
BLOCK_RECORD
  5
BD
330
1
100
AcDbSymbolTableRecord
100
AcDbBlockTableRecord
  2
block 6
340
0
102
{BLKREFS
331
BE
102
}
 70
     0
280
     1
281
     0
  0
BLOCK_RECORD
  5
DB
330
1
100
AcDbSymbolTableRecord
100
AcDbBlockTableRecord
  2
block 7
340
0
102
{BLKREFS
331
DC
102
}
 70
     0
280
     1
281
     0
  0
ENDTAB
  0
ENDSEC
  0
SECTION
  2
BLOCKS
  0
BLOCK
  5
20
330
1F
100
AcDbEntity
  8
0
100
AcDbBlockBegin
  2
*Model_Space
 70
     0
 10
0.0
 20
0.0
 30
0.0
  3
*Model_Space
  1

  0
ENDBLK
  5
21
330
1F
100
AcDbEntity
  8
0
100
AcDbBlockEnd
  0
BLOCK
  5
1C
330
1B
100
AcDbEntity
 67
     1
  8
0
100
AcDbBlockBegin
  2
*Paper_Space
 70
     0
 10
0.0
 20
0.0
 30
0.0
  3
*Paper_Space
  1

  0
ENDBLK
  5
1D
330
1B
100
AcDbEntity
 67
     1
  8
0
100
AcDbBlockEnd
  0
BLOCK
  5
24
330
23
100
AcDbEntity
  8
0
100
AcDbBlockBegin
  2
*Paper_Space0
 70
     0
 10
0.0
 20
0.0
 30
0.0
  3
*Paper_Space0
  1

  0
ENDBLK
  5
25
330
23
100
AcDbEntity
  8
0
100
AcDbBlockEnd
  0
BLOCK
  5
43
330
41
100
AcDbEntity
  8
0
100
AcDbBlockBegin
  2
block 2
 70
     0
 10
0.0
 20
0.0
 30
0.0
  3
block 2
  1

  0
POLYLINE
  5
45
330
41
100
AcDbEntity
  8
_U+30EC_U+30A4_U+30E4_U+30FC 1
 62
   179
420
  2234388
370
    25
100
AcDb2dPolyline
 66
     1
 10
0.0
 20
0.0
 30
0.0
  0
VERTEX
  5
46
330
45
100
AcDbEntity
  8
_U+30EC_U+30A4_U+30E4_U+30FC 1
 62
   179
420
  2234388
370
    25
100
AcDbVertex
100
AcDb2dVertex
 10
92.62155624813835
 20
-142.8481182976215
 30
0.0
  0
VERTEX
  5
47
330
45
100
AcDbEntity
  8
_U+30EC_U+30A4_U+30E4_U+30FC 1
 62
   179
420
  2234388
370
    25
100
AcDbVertex
100
AcDb2dVertex
 10
99.7212088447889
 20
-142.8481182976215
 30
0.0
  0
SEQEND
  5
48
330
45
100
AcDbEntity
  8
_U+30EC_U+30A4_U+30E4_U+30FC 1
 62
   179
420
  2234388
370
    25
  0
POLYLINE
  5
49
330
41
100
AcDbEntity
  8
_U+30EC_U+30A4_U+30E4_U+30FC 1
 62
   179
420
  2234388
370
    25
100
AcDb2dPolyline
 66
     1
 10
0.0
 20
0.0
 30
0.0
  0
VERTEX
  5
4A
330
49
100
AcDbEntity
  8
_U+30EC_U+30A4_U+30E4_U+30FC 1
 62
   179
420
  2234388
370
    25
100
AcDbVertex
100
AcDb2dVertex
 10
98.62152998395516
 20
-143.8477141307048
 30
0.0
  0
VERTEX
  5
4B
330
49
100
AcDbEntity
  8
_U+30EC_U+30A4_U+30E4_U+30FC 1
 62
   179
420
  2234388
370
    25
100
AcDbVertex
100
AcDb2dVertex
 10
98.62152998395516
 20
-156.4479838497767
 30
0.0
  0
SEQEND
  5
4C
330
49
100
AcDbEntity
  8
_U+30EC_U+30A4_U+30E4_U+30FC 1
 62
   179
420
  2234388
370
    25
  0
POLYLINE
  5
4D
330
41
100
AcDbEntity
  8
_U+30EC_U+30A4_U+30E4_U+30FC 1
 62
   179
420
  2234388
370
    25
100
AcDb2dPolyline
 66
     1
 10
0.0
 20
0.0
 30
0.0
  0
VERTEX
  5
4E
330
4D
100
AcDbEntity
  8
_U+30EC_U+30A4_U+30E4_U+30FC 1
 62
   179
420
  2234388
370
    25
100
AcDbVertex
100
AcDb2dVertex
 10
92.62155624813835
 20
-142.8481182976215
 30
0.0
  0
VERTEX
  5
4F
330
4D
100
AcDbEntity
  8
_U+30EC_U+30A4_U+30E4_U+30FC 1
 62
   179
420
  2234388
370
    25
100
AcDbVertex
100
AcDb2dVertex
 10
92.62155624813835
 20
-143.8477141307048
 30
0.0
  0
SEQEND
  5
50
330
4D
100
AcDbEntity
  8
_U+30EC_U+30A4_U+30E4_U+30FC 1
 62
   179
420
  2234388
370
    25
  0
POLYLINE
  5
51
330
41
100
AcDbEntity
  8
_U+30EC_U+30A4_U+30E4_U+30FC 1
 62
   179
420
  2234388
370
    25
100
AcDb2dPolyline
 66
     1
 10
0.0
 20
0.0
 30
0.0
  0
VERTEX
  5
52
330
51
100
AcDbEntity
  8
_U+30EC_U+30A4_U+30E4_U+30FC 1
 62
   179
420
  2234388
370
    25
100
AcDbVertex
100
AcDb2dVertex
 10
99.7212088447889
 20
-142.8481182976215
 30
0.0
  0
VERTEX
  5
53
330
51
100
AcDbEntity
  8
_U+30EC_U+30A4_U+30E4_U+30FC 1
 62
   179
420
  2234388
370
    25
100
AcDbVertex
100
AcDb2dVertex
 10
99.7212088447889
 20
-155.3483049611632
 30
0.0
  0
SEQEND
  5
54
330
51
100
AcDbEntity
  8
_U+30EC_U+30A4_U+30E4_U+30FC 1
 62
   179
420
  2234388
370
    25
  0
POLYLINE
  5
55
330
41
100
AcDbEntity
  8
_U+30EC_U+30A4_U+30E4_U+30FC 1
 62
   179
420
  2234388
370
    25
100
AcDb2dPolyline
 66
     1
 10
0.0
 20
0.0
 30
0.0
  0
VERTEX
  5
56
330
55
100
AcDbEntity
  8
_U+30EC_U+30A4_U+30E4_U+30FC 1
 62
   179
420
  2234388
370
    25
100
AcDbVertex
100
AcDb2dVertex
 10
115.6215378835821
 20
-155.3483049611632
 30
0.0
  0
VERTEX
  5
57
330
55
100
AcDbEntity
  8
_U+30EC_U+30A4_U+30E4_U+30FC 1
 62
   179
420
  2234388
370
    25
100
AcDbVertex
100
AcDb2dVertex
 10
115.6215378835821
 20
-155.7479316277298
 30
0.0
  0
SEQEND
  5
58
330
55
100
AcDbEntity
  8
_U+30EC_U+30A4_U+30E4_U+30FC 1
 62
   179
420
  2234388
370
    25
  0
POLYLINE
  5
59
330
41
100
AcDbEntity
  8
_U+30EC_U+30A4_U+30E4_U+30FC 1
 62
   179
420
  2234388
370
    25
100
AcDb2dPolyline
 66
     1
 10
0.0
 20
0.0
 30
0.0
  0
VERTEX
  5
5A
330
59
100
AcDbEntity
  8
_U+30EC_U+30A4_U+30E4_U+30FC 1
 62
   179
420
  2234388
370
    25
100
AcDbVertex
100
AcDb2dVertex
 10
99.7212088447889
 20
-155.3483049611632
 30
0.0
  0
VERTEX
  5
5B
330
59
100
AcDbEntity
  8
_U+30EC_U+30A4_U+30E4_U+30FC 1
 62
   179
420
  2234388
370
    25
100
AcDbVertex
100
AcDb2dVertex
 10
115.6215378835821
 20
-155.3483049611632
 30
0.0
  0
SEQEND
  5
5C
330
59
100
AcDbEntity
  8
_U+30EC_U+30A4_U+30E4_U+30FC 1
 62
   179
420
  2234388
370
    25
  0
POLYLINE
  5
5D
330
41
100
AcDbEntity
  8
_U+30EC_U+30A4_U+30E4_U+30FC 1
 62
   179
420
  2234388
370
    25
100
AcDb2dPolyline
 66
     1
 10
0.0
 20
0.0
 30
0.0
  0
VERTEX
  5
5E
330
5D
100
AcDbEntity
  8
_U+30EC_U+30A4_U+30E4_U+30FC 1
 62
   179
420
  2234388
370
    25
100
AcDbVertex
100
AcDb2dVertex
 10
115.6215378835821
 20
-155.7479316277298
 30
0.0
  0
VERTEX
  5
5F
330
5D
100
AcDbEntity
  8
_U+30EC_U+30A4_U+30E4_U+30FC 1
 62
   179
420
  2234388
370
    25
100
AcDbVertex
100
AcDb2dVertex
 10
98.62152998395516
 20
-156.4479838497767
 30
0.0
  0
SEQEND
  5
60
330
5D
100
AcDbEntity
  8
_U+30EC_U+30A4_U+30E4_U+30FC 1
 62
   179
420
  2234388
370
    25
  0
POLYLINE
  5
61
330
41
100
AcDbEntity
  8
_U+30EC_U+30A4_U+30E4_U+30FC 1
 62
   179
420
  2234388
370
    25
100
AcDb2dPolyline
 66
     1
 10
0.0
 20
0.0
 30
0.0
  0
VERTEX
  5
62
330
61
100
AcDbEntity
  8
_U+30EC_U+30A4_U+30E4_U+30FC 1
 62
   179
420
  2234388
370
    25
100
AcDbVertex
100
AcDb2dVertex
 10
92.62155624813835
 20
-143.8477141307048
 30
0.0
  0
VERTEX
  5
63
330
61
100
AcDbEntity
  8
_U+30EC_U+30A4_U+30E4_U+30FC 1
 62
   179
420
  2234388
370
    25
100
AcDbVertex
100
AcDb2dVertex
 10
98.62152998395516
 20
-143.8477141307048
 30
0.0
  0
SEQEND
  5
64
330
61
100
AcDbEntity
  8
_U+30EC_U+30A4_U+30E4_U+30FC 1
 62
   179
420
  2234388
370
    25
  0
ENDBLK
  5
44
330
41
100
AcDbEntity
  8
0
100
AcDbBlockEnd
  0
BLOCK
  5
7B
330
79
100
AcDbEntity
  8
0
100
AcDbBlockBegin
  2
block 3
 70
     0
 10
0.0
 20
0.0
 30
0.0
  3
block 3
  1

  0
SPLINE
  5
7D
330
79
100
AcDbEntity
  8
_U+30EC_U+30A4_U+30E4_U+30FC 1
370
     0
100
AcDbSpline
210
0.0
220
0.0
230
1.0
 70
    11
 71
     3
 72
    32
 73
    28
 74
     0
 42
0.0000000001
 43
0.0000000001
 12
1.0
 22
0.0
 32
0.0
 13
1.0
 23
0.0
 33
0.0
 40
0.0
 40
0.0
 40
0.0
 40
0.0
 40
1.0
 40
1.0
 40
1.0
 40
2.0
 40
2.0
 40
2.0
 40
3.0
 40
3.0
 40
3.0
 40
4.0
 40
4.0
 40
4.0
 40
5.0
 40
5.0
 40
5.0
 40
6.0
 40
6.0
 40
6.0
 40
7.0
 40
7.0
 40
7.0
 40
8.0
 40
8.0
 40
8.0
 40
9.0
 40
9.0
 40
9.0
 40
9.0
 10
95.62551538407973
 20
-159.852775025141
 30
0.0
 10
95.18557669061333
 20
-159.852775025141
 30
0.0
 10
95.17834199009431
 20
-159.2988036711128
 30
0.0
 10
95.17834199009431
 20
-159.0848632414788
 30
0.0
 10
95.17834199009431
 20
-158.8543863535156
 30
0.0
 10
95.19453393887498
 20
-158.2070529118371
 30
0.0
 10
95.65807153641535
 20
-158.2070529118371
 30
0.0
 10
95.80586613273256
 20
-158.2070529118371
 30
0.0
 10
96.01515568346149
 20
-158.2769883501877
 30
0.0
 10
96.04753958102285
 20
-158.6090955549658
 30
0.0
 10
96.04753958102285
 20
-158.6090955549658
 30
0.0
 10
95.86546628462739
 20
-158.6090955549658
 30
0.0
 10
95.86546628462739
 20
-158.6090955549658
 30
0.0
 10
95.85633678159148
 20
-158.5519069699106
 30
0.0
 10
95.82929278203227
 20
-158.4037678640449
 30
0.0
 10
95.65617673389846
 20
-158.4037678640449
 30
0.0
 10
95.40744083986343
 20
-158.4037678640449
 30
0.0
 10
95.37316213978518
 20
-158.7317409542407
 30
0.0
 10
95.36231008900666
 20
-158.936724135613
 30
0.0
 10
95.44154728516739
 20
-158.8585204680979
 30
0.0
 10
95.49925263454533
 20
-158.7992648257516
 30
0.0
 10
95.65445418615583
 20
-158.7992648257516
 30
0.0
 10
95.80776093524945
 20
-158.7992648257516
 30
0.0
 10
96.0656263323204
 20
-158.9074408239884
 30
0.0
 10
96.0656263323204
 20
-159.3136175816994
 30
0.0
 10
96.0656263323204
 20
-159.632977933182
 30
0.0
 10
95.89612763444612
 20
-159.852775025141
 30
0.0
 10
95.62551538407973
 20
-159.852775025141
 30
0.0
  0
SPLINE
  5
7E
330
79
100
AcDbEntity
  8
_U+30EC_U+30A4_U+30E4_U+30FC 1
370
     0
100
AcDbSpline
210
0.0
220
0.0
230
1.0
 70
    11
 71
     3
 72
    17
 73
    13
 74
     0
 42
0.0000000001
 43
0.0000000001
 12
1.0
 22
0.0
 32
0.0
 13
1.0
 23
0.0
 33
0.0
 40
0.0
 40
0.0
 40
0.0
 40
0.0
 40
1.0
 40
1.0
 40
1.0
 40
2.0
 40
2.0
 40
2.0
 40
3.0
 40
3.0
 40
3.0
 40
4.0
 40
4.0
 40
4.0
 40
4.0
 10
95.63998478511779
 20
-158.9939127206682
 30
0.0
 10
95.41639808812508
 20
-158.9939127206682
 30
0.0
 10
95.38384193578946
 20
-159.2054415834625
 30
0.0
 10
95.38384193578946
 20
-159.321885810864
 30
0.0
 10
95.38384193578946
 20
-159.4975856806117
 30
0.0
 10
95.46514618924135
 20
-159.660538697064
 30
0.0
 10
95.62189803382023
 20
-159.660538697064
 30
0.0
 10
95.72473413405493
 20
-159.660538697064
 30
0.0
 10
95.87442353288904
 20
-159.6012830547178
 30
0.0
 10
95.87442353288904
 20
-159.3156846389905
 30
0.0
 10
95.87442353288904
 20
-159.0914089229008
 30
0.0
 10
95.75539548387366
 20
-158.9939127206682
 30
0.0
 10
95.63998478511779
 20
-158.9939127206682
 30
0.0
  0
HATCH
  5
7F
330
79
100
AcDbEntity
  8
_U+30EC_U+30A4_U+30E4_U+30FC 1
 62
   179
420
  2234388
100
AcDbHatch
 10
0.0
 20
0.0
 30
0.0
210
0.0
220
0.0
230
1.0
  2
SOLID
 70
     1
 71
     0
 91
        2
 92
        1
 93
        1
 72
     4
 94
        3
 73
     0
 74
     1
 95
       32
 96
       28
 40
0.0
 40
0.0
 40
0.0
 40
0.0
 40
1.0
 40
1.0
 40
1.0
 40
2.0
 40
2.0
 40
2.0
 40
3.0
 40
3.0
 40
3.0
 40
4.0
 40
4.0
 40
4.0
 40
5.0
 40
5.0
 40
5.0
 40
6.0
 40
6.0
 40
6.0
 40
7.0
 40
7.0
 40
7.0
 40
8.0
 40
8.0
 40
8.0
 40
9.0
 40
9.0
 40
9.0
 40
9.0
 10
95.62551538407973
 20
-159.852775025141
 10
95.18557669061333
 20
-159.852775025141
 10
95.17834199009431
 20
-159.2988036711128
 10
95.17834199009431
 20
-159.0848632414788
 10
95.17834199009431
 20
-158.8543863535156
 10
95.19453393887498
 20
-158.2070529118371
 10
95.65807153641535
 20
-158.2070529118371
 10
95.80586613273256
 20
-158.2070529118371
 10
96.01515568346149
 20
-158.2769883501877
 10
96.04753958102285
 20
-158.6090955549658
 10
96.04753958102285
 20
-158.6090955549658
 10
95.86546628462739
 20
-158.6090955549658
 10
95.86546628462739
 20
-158.6090955549658
 10
95.85633678159148
 20
-158.5519069699106
 10
95.82929278203227
 20
-158.4037678640449
 10
95.65617673389846
 20
-158.4037678640449
 10
95.40744083986343
 20
-158.4037678640449
 10
95.37316213978518
 20
-158.7317409542407
 10
95.36231008900666
 20
-158.936724135613
 10
95.44154728516739
 20
-158.8585204680979
 10
95.49925263454533
 20
-158.7992648257516
 10
95.65445418615583
 20
-158.7992648257516
 10
95.80776093524945
 20
-158.7992648257516
 10
96.0656263323204
 20
-158.9074408239884
 10
96.0656263323204
 20
-159.3136175816994
 10
96.0656263323204
 20
-159.632977933182
 10
95.89612763444612
 20
-159.852775025141
 10
95.62551538407973
 20
-159.852775025141
 97
        0
 97
        0
 92
        1
 93
        1
 72
     4
 94
        3
 73
     0
 74
     1
 95
       17
 96
       13
 40
0.0
 40
0.0
 40
0.0
 40
0.0
 40
1.0
 40
1.0
 40
1.0
 40
2.0
 40
2.0
 40
2.0
 40
3.0
 40
3.0
 40
3.0
 40
4.0
 40
4.0
 40
4.0
 40
4.0
 10
95.63998478511779
 20
-158.9939127206682
 10
95.41639808812508
 20
-158.9939127206682
 10
95.38384193578946
 20
-159.2054415834625
 10
95.38384193578946
 20
-159.321885810864
 10
95.38384193578946
 20
-159.4975856806117
 10
95.46514618924135
 20
-159.660538697064
 10
95.62189803382023
 20
-159.660538697064
 10
95.72473413405493
 20
-159.660538697064
 10
95.87442353288904
 20
-159.6012830547178
 10
95.87442353288904
 20
-159.3156846389905
 10
95.87442353288904
 20
-159.0914089229008
 10
95.75539548387366
 20
-158.9939127206682
 10
95.63998478511779
 20
-158.9939127206682
 97
        0
 97
        0
 75
     2
 76
     1
 98
        0
  0
ENDBLK
  5
7C
330
79
100
AcDbEntity
  8
0
100
AcDbBlockEnd
  0
BLOCK
  5
8A
330
88
100
AcDbEntity
  8
0
100
AcDbBlockBegin
  2
block 4
 70
     0
 10
0.0
 20
0.0
 30
0.0
  3
block 4
  1

  0
SPLINE
  5
8C
330
88
100
AcDbEntity
  8
_U+30EC_U+30A4_U+30E4_U+30FC 1
370
     0
100
AcDbSpline
210
0.0
220
0.0
230
1.0
 70
    11
 71
     3
 72
    26
 73
    22
 74
     0
 42
0.0000000001
 43
0.0000000001
 12
1.0
 22
0.0
 32
0.0
 13
1.0
 23
0.0
 33
0.0
 40
0.0
 40
0.0
 40
0.0
 40
0.0
 40
1.0
 40
1.0
 40
1.0
 40
2.0
 40
2.0
 40
2.0
 40
3.0
 40
3.0
 40
3.0
 40
4.0
 40
4.0
 40
4.0
 40
5.0
 40
5.0
 40
5.0
 40
6.0
 40
6.0
 40
6.0
 40
7.0
 40
7.0
 40
7.0
 40
7.0
 10
106.5795409889801
 20
-159.8021321215078
 30
0.0
 10
106.5795409889801
 20
-159.8021321215078
 30
0.0
 10
106.5795409889801
 20
-158.6979790184852
 30
0.0
 10
106.5795409889801
 20
-158.6979790184852
 30
0.0
 10
106.5795409889801
 20
-158.6979790184852
 30
0.0
 10
106.2980766878352
 20
-158.6979790184852
 30
0.0
 10
106.2980766878352
 20
-158.6979790184852
 30
0.0
 10
106.2980766878352
 20
-158.6979790184852
 30
0.0
 10
106.2980766878352
 20
-158.5498399126195
 30
0.0
 10
106.2980766878352
 20
-158.5498399126195
 30
0.0
 10
106.5812635367227
 20
-158.5350260020329
 30
0.0
 10
106.6208821348031
 20
-158.3720729855806
 30
0.0
 10
106.6460313318454
 20
-158.2576958154703
 30
0.0
 10
106.6460313318454
 20
-158.2576958154703
 30
0.0
 10
106.7707437884115
 20
-158.2576958154703
 30
0.0
 10
106.7707437884115
 20
-158.2576958154703
 30
0.0
 10
106.7707437884115
 20
-158.2576958154703
 30
0.0
 10
106.7707437884115
 20
-159.8021321215078
 30
0.0
 10
106.7707437884115
 20
-159.8021321215078
 30
0.0
 10
106.7707437884115
 20
-159.8021321215078
 30
0.0
 10
106.5795409889801
 20
-159.8021321215078
 30
0.0
 10
106.5795409889801
 20
-159.8021321215078
 30
0.0
  0
HATCH
  5
8D
330
88
100
AcDbEntity
  8
_U+30EC_U+30A4_U+30E4_U+30FC 1
 62
   179
420
  2234388
100
AcDbHatch
 10
0.0
 20
0.0
 30
0.0
210
0.0
220
0.0
230
1.0
  2
SOLID
 70
     1
 71
     0
 91
        1
 92
        1
 93
        1
 72
     4
 94
        3
 73
     0
 74
     1
 95
       26
 96
       22
 40
0.0
 40
0.0
 40
0.0
 40
0.0
 40
1.0
 40
1.0
 40
1.0
 40
2.0
 40
2.0
 40
2.0
 40
3.0
 40
3.0
 40
3.0
 40
4.0
 40
4.0
 40
4.0
 40
5.0
 40
5.0
 40
5.0
 40
6.0
 40
6.0
 40
6.0
 40
7.0
 40
7.0
 40
7.0
 40
7.0
 10
106.5795409889801
 20
-159.8021321215078
 10
106.5795409889801
 20
-159.8021321215078
 10
106.5795409889801
 20
-158.6979790184852
 10
106.5795409889801
 20
-158.6979790184852
 10
106.5795409889801
 20
-158.6979790184852
 10
106.2980766878352
 20
-158.6979790184852
 10
106.2980766878352
 20
-158.6979790184852
 10
106.2980766878352
 20
-158.6979790184852
 10
106.2980766878352
 20
-158.5498399126195
 10
106.2980766878352
 20
-158.5498399126195
 10
106.5812635367227
 20
-158.5350260020329
 10
106.6208821348031
 20
-158.3720729855806
 10
106.6460313318454
 20
-158.2576958154703
 10
106.6460313318454
 20
-158.2576958154703
 10
106.7707437884115
 20
-158.2576958154703
 10
106.7707437884115
 20
-158.2576958154703
 10
106.7707437884115
 20
-158.2576958154703
 10
106.7707437884115
 20
-159.8021321215078
 10
106.7707437884115
 20
-159.8021321215078
 10
106.7707437884115
 20
-159.8021321215078
 10
106.5795409889801
 20
-159.8021321215078
 10
106.5795409889801
 20
-159.8021321215078
 97
        0
 97
        0
 75
     2
 76
     1
 98
        0
  0
SPLINE
  5
8E
330
88
100
AcDbEntity
  8
_U+30EC_U+30A4_U+30E4_U+30FC 1
370
     0
100
AcDbSpline
210
0.0
220
0.0
230
1.0
 70
    11
 71
     3
 72
    26
 73
    22
 74
     0
 42
0.0000000001
 43
0.0000000001
 12
1.0
 22
0.0
 32
0.0
 13
1.0
 23
0.0
 33
0.0
 40
0.0
 40
0.0
 40
0.0
 40
0.0
 40
1.0
 40
1.0
 40
1.0
 40
2.0
 40
2.0
 40
2.0
 40
3.0
 40
3.0
 40
3.0
 40
4.0
 40
4.0
 40
4.0
 40
5.0
 40
5.0
 40
5.0
 40
6.0
 40
6.0
 40
6.0
 40
7.0
 40
7.0
 40
7.0
 40
7.0
 10
107.5469238012383
 20
-159.8021321215078
 30
0.0
 10
107.5469238012383
 20
-159.8021321215078
 30
0.0
 10
107.3450412058026
 20
-159.8021321215078
 30
0.0
 10
107.3450412058026
 20
-159.8021321215078
 30
0.0
 10
107.3667453073597
 20
-159.4931070564809
 30
0.0
 10
107.5307318524576
 20
-158.9749646954993
 30
0.0
 10
107.8769639487252
 20
-158.4692246782647
 30
0.0
 10
107.8769639487252
 20
-158.4692246782647
 30
0.0
 10
107.1627956546329
 20
-158.4692246782647
 30
0.0
 10
107.1627956546329
 20
-158.4692246782647
 30
0.0
 10
107.1627956546329
 20
-158.4692246782647
 30
0.0
 10
107.1627956546329
 20
-158.2576958154703
 30
0.0
 10
107.1627956546329
 20
-158.2576958154703
 30
0.0
 10
107.1627956546329
 20
-158.2576958154703
 30
0.0
 10
108.0788465441609
 20
-158.2576958154703
 30
0.0
 10
108.0788465441609
 20
-158.2576958154703
 30
0.0
 10
108.0788465441609
 20
-158.2576958154703
 30
0.0
 10
108.0788465441609
 20
-158.4692246782647
 30
0.0
 10
108.0788465441609
 20
-158.4692246782647
 30
0.0
 10
107.8032389053409
 20
-158.7593017181227
 30
0.0
 10
107.5758626033144
 20
-159.3515136320371
 30
0.0
 10
107.5469238012383
 20
-159.8021321215078
 30
0.0
  0
HATCH
  5
8F
330
88
100
AcDbEntity
  8
_U+30EC_U+30A4_U+30E4_U+30FC 1
 62
   179
420
  2234388
100
AcDbHatch
 10
0.0
 20
0.0
 30
0.0
210
0.0
220
0.0
230
1.0
  2
SOLID
 70
     1
 71
     0
 91
        1
 92
        1
 93
        1
 72
     4
 94
        3
 73
     0
 74
     1
 95
       26
 96
       22
 40
0.0
 40
0.0
 40
0.0
 40
0.0
 40
1.0
 40
1.0
 40
1.0
 40
2.0
 40
2.0
 40
2.0
 40
3.0
 40
3.0
 40
3.0
 40
4.0
 40
4.0
 40
4.0
 40
5.0
 40
5.0
 40
5.0
 40
6.0
 40
6.0
 40
6.0
 40
7.0
 40
7.0
 40
7.0
 40
7.0
 10
107.5469238012383
 20
-159.8021321215078
 10
107.5469238012383
 20
-159.8021321215078
 10
107.3450412058026
 20
-159.8021321215078
 10
107.3450412058026
 20
-159.8021321215078
 10
107.3667453073597
 20
-159.4931070564809
 10
107.5307318524576
 20
-158.9749646954993
 10
107.8769639487252
 20
-158.4692246782647
 10
107.8769639487252
 20
-158.4692246782647
 10
107.1627956546329
 20
-158.4692246782647
 10
107.1627956546329
 20
-158.4692246782647
 10
107.1627956546329
 20
-158.4692246782647
 10
107.1627956546329
 20
-158.2576958154703
 10
107.1627956546329
 20
-158.2576958154703
 10
107.1627956546329
 20
-158.2576958154703
 10
108.0788465441609
 20
-158.2576958154703
 10
108.0788465441609
 20
-158.2576958154703
 10
108.0788465441609
 20
-158.2576958154703
 10
108.0788465441609
 20
-158.4692246782647
 10
108.0788465441609
 20
-158.4692246782647
 10
107.8032389053409
 20
-158.7593017181227
 10
107.5758626033144
 20
-159.3515136320371
 10
107.5469238012383
 20
-159.8021321215078
 97
        0
 97
        0
 75
     2
 76
     1
 98
        0
  0
ENDBLK
  5
8B
330
88
100
AcDbEntity
  8
0
100
AcDbBlockEnd
  0
BLOCK
  5
A2
330
A0
100
AcDbEntity
  8
0
100
AcDbBlockBegin
  2
block 5
 70
     0
 10
0.0
 20
0.0
 30
0.0
  3
block 5
  1

  0
SPLINE
  5
A4
330
A0
100
AcDbEntity
  8
_U+30EC_U+30A4_U+30E4_U+30FC 1
370
     0
100
AcDbSpline
210
0.0
220
0.0
230
1.0
 70
    11
 71
     3
 72
    26
 73
    22
 74
     0
 42
0.0000000001
 43
0.0000000001
 12
1.0
 22
0.0
 32
0.0
 13
1.0
 23
0.0
 33
0.0
 40
0.0
 40
0.0
 40
0.0
 40
0.0
 40
1.0
 40
1.0
 40
1.0
 40
2.0
 40
2.0
 40
2.0
 40
3.0
 40
3.0
 40
3.0
 40
4.0
 40
4.0
 40
4.0
 40
5.0
 40
5.0
 40
5.0
 40
6.0
 40
6.0
 40
6.0
 40
7.0
 40
7.0
 40
7.0
 40
7.0
 10
87.97499183998542
 20
-140.5726426514888
 30
0.0
 10
87.97499183998542
 20
-140.5726426514888
 30
0.0
 10
86.87083873696285
 20
-140.5726426514888
 30
0.0
 10
86.87083873696285
 20
-140.5726426514888
 30
0.0
 10
86.87083873696285
 20
-140.5726426514888
 30
0.0
 10
86.87083873696285
 20
-140.8541069526337
 30
0.0
 10
86.87083873696285
 20
-140.8541069526337
 30
0.0
 10
86.87083873696285
 20
-140.8541069526337
 30
0.0
 10
86.7226996310971
 20
-140.8541069526337
 30
0.0
 10
86.7226996310971
 20
-140.8541069526337
 30
0.0
 10
86.70788572051053
 20
-140.5709201037462
 30
0.0
 10
86.54493270405821
 20
-140.5313015056658
 30
0.0
 10
86.43055553394792
 20
-140.5061523086235
 30
0.0
 10
86.43055553394792
 20
-140.5061523086235
 30
0.0
 10
86.43055553394792
 20
-140.3814398520574
 30
0.0
 10
86.43055553394792
 20
-140.3814398520574
 30
0.0
 10
86.43055553394792
 20
-140.3814398520574
 30
0.0
 10
87.97499183998542
 20
-140.3814398520574
 30
0.0
 10
87.97499183998542
 20
-140.3814398520574
 30
0.0
 10
87.97499183998542
 20
-140.3814398520574
 30
0.0
 10
87.97499183998542
 20
-140.5726426514888
 30
0.0
 10
87.97499183998542
 20
-140.5726426514888
 30
0.0
  0
HATCH
  5
A5
330
A0
100
AcDbEntity
  8
_U+30EC_U+30A4_U+30E4_U+30FC 1
 62
   179
420
  2234388
100
AcDbHatch
 10
0.0
 20
0.0
 30
0.0
210
0.0
220
0.0
230
1.0
  2
SOLID
 70
     1
 71
     0
 91
        1
 92
        1
 93
        1
 72
     4
 94
        3
 73
     0
 74
     1
 95
       26
 96
       22
 40
0.0
 40
0.0
 40
0.0
 40
0.0
 40
1.0
 40
1.0
 40
1.0
 40
2.0
 40
2.0
 40
2.0
 40
3.0
 40
3.0
 40
3.0
 40
4.0
 40
4.0
 40
4.0
 40
5.0
 40
5.0
 40
5.0
 40
6.0
 40
6.0
 40
6.0
 40
7.0
 40
7.0
 40
7.0
 40
7.0
 10
87.97499183998542
 20
-140.5726426514888
 10
87.97499183998542
 20
-140.5726426514888
 10
86.87083873696285
 20
-140.5726426514888
 10
86.87083873696285
 20
-140.5726426514888
 10
86.87083873696285
 20
-140.5726426514888
 10
86.87083873696285
 20
-140.8541069526337
 10
86.87083873696285
 20
-140.8541069526337
 10
86.87083873696285
 20
-140.8541069526337
 10
86.7226996310971
 20
-140.8541069526337
 10
86.7226996310971
 20
-140.8541069526337
 10
86.70788572051053
 20
-140.5709201037462
 10
86.54493270405821
 20
-140.5313015056658
 10
86.43055553394792
 20
-140.5061523086235
 10
86.43055553394792
 20
-140.5061523086235
 10
86.43055553394792
 20
-140.3814398520574
 10
86.43055553394792
 20
-140.3814398520574
 10
86.43055553394792
 20
-140.3814398520574
 10
87.97499183998542
 20
-140.3814398520574
 10
87.97499183998542
 20
-140.3814398520574
 10
87.97499183998542
 20
-140.3814398520574
 10
87.97499183998542
 20
-140.5726426514888
 10
87.97499183998542
 20
-140.5726426514888
 97
        0
 97
        0
 75
     2
 76
     1
 98
        0
  0
POLYLINE
  5
A6
330
A0
100
AcDbEntity
  8
_U+30EC_U+30A4_U+30E4_U+30FC 1
370
     0
100
AcDb2dPolyline
 66
     1
 10
0.0
 20
0.0
 30
0.0
  0
VERTEX
  5
A7
330
A6
100
AcDbEntity
  8
_U+30EC_U+30A4_U+30E4_U+30FC 1
370
     0
100
AcDbVertex
100
AcDb2dVertex
 10
87.97499183998542
 20
-139.9046386368989
 30
0.0
  0
VERTEX
  5
A8
330
A6
100
AcDbEntity
  8
_U+30EC_U+30A4_U+30E4_U+30FC 1
370
     0
100
AcDbVertex
100
AcDb2dVertex
 10
87.72315536001366
 20
-139.9046386368989
 30
0.0
  0
VERTEX
  5
A9
330
A6
100
AcDbEntity
  8
_U+30EC_U+30A4_U+30E4_U+30FC 1
370
     0
100
AcDbVertex
100
AcDb2dVertex
 10
87.72315536001366
 20
-139.6900091881678
 30
0.0
  0
VERTEX
  5
AA
330
A6
100
AcDbEntity
  8
_U+30EC_U+30A4_U+30E4_U+30FC 1
370
     0
100
AcDbVertex
100
AcDb2dVertex
 10
87.97499183998542
 20
-139.6900091881678
 30
0.0
  0
VERTEX
  5
AB
330
A6
100
AcDbEntity
  8
_U+30EC_U+30A4_U+30E4_U+30FC 1
370
     0
100
AcDbVertex
100
AcDb2dVertex
 10
87.97499183998542
 20
-139.9046386368989
 30
0.0
  0
SEQEND
  5
AC
330
A6
100
AcDbEntity
  8
_U+30EC_U+30A4_U+30E4_U+30FC 1
370
     0
  0
HATCH
  5
AD
330
A0
100
AcDbEntity
  8
_U+30EC_U+30A4_U+30E4_U+30FC 1
 62
   179
420
  2234388
100
AcDbHatch
 10
0.0
 20
0.0
 30
0.0
210
0.0
220
0.0
230
1.0
  2
SOLID
 70
     1
 71
     0
 91
        1
 92
        1
 93
        4
 72
     1
 10
87.97499183998542
 20
-139.9046386368989
 11
87.72315536001366
 21
-139.9046386368989
 72
     1
 10
87.72315536001366
 20
-139.9046386368989
 11
87.72315536001366
 21
-139.6900091881678
 72
     1
 10
87.72315536001366
 20
-139.6900091881678
 11
87.97499183998542
 21
-139.6900091881678
 72
     1
 10
87.97499183998542
 20
-139.6900091881678
 11
87.97499183998542
 21
-139.9046386368989
 97
        0
 75
     2
 76
     1
 98
        0
  0
SPLINE
  5
AE
330
A0
100
AcDbEntity
  8
_U+30EC_U+30A4_U+30E4_U+30FC 1
370
     0
100
AcDbSpline
210
0.0
220
0.0
230
1.0
 70
    11
 71
     3
 72
    29
 73
    25
 74
     0
 42
0.0000000001
 43
0.0000000001
 12
1.0
 22
0.0
 32
0.0
 13
1.0
 23
0.0
 33
0.0
 40
0.0
 40
0.0
 40
0.0
 40
0.0
 40
1.0
 40
1.0
 40
1.0
 40
2.0
 40
2.0
 40
2.0
 40
3.0
 40
3.0
 40
3.0
 40
4.0
 40
4.0
 40
4.0
 40
5.0
 40
5.0
 40
5.0
 40
6.0
 40
6.0
 40
6.0
 40
7.0
 40
7.0
 40
7.0
 40
8.0
 40
8.0
 40
8.0
 40
8.0
 10
87.79722491294653
 20
-138.7236599045552
 30
0.0
 10
88.00668671844971
 20
-138.8156439540114
 30
0.0
 10
88.0256347436186
 20
-138.9634385503286
 30
0.0
 10
88.0256347436186
 20
-139.0626573003038
 30
0.0
 10
88.0256347436186
 20
-139.1997721006167
 30
0.0
 10
87.97912595456772
 20
-139.3203504426005
 30
0.0
 10
87.79722491294653
 20
-139.4016546960524
 30
0.0
 10
87.60257701802992
 20
-139.4898491404748
 30
0.0
 10
87.36555444864473
 20
-139.506385598804
 30
0.0
 10
87.20294594174094
 20
-139.506385598804
 30
0.0
 10
87.0589409504575
 20
-139.506385598804
 30
0.0
 10
86.80710447048573
 20
-139.4919161977659
 30
0.0
 10
86.60832246098681
 20
-139.4016546960524
 30
0.0
 10
86.4054063369056
 20
-139.3096706465962
 30
0.0
 10
86.38197968760589
 20
-139.1725558462832
 30
0.0
 10
86.38197968760589
 20
-139.0626573003038
 30
0.0
 10
86.38197968760589
 20
-138.9272650477335
 30
0.0
 10
86.42642141936562
 20
-138.8046196484586
 30
0.0
 10
86.60832246098681
 20
-138.7236599045552
 30
0.0
 10
86.80090329861228
 20
-138.6389105556181
 30
0.0
 10
87.02931312928435
 20
-138.6189290018036
 30
0.0
 10
87.20294594174094
 20
-138.6189290018036
 30
0.0
 10
87.37416718735786
 20
-138.6189290018036
 30
0.0
 10
87.60464407532106
 20
-138.6371880078754
 30
0.0
 10
87.79722491294653
 20
-138.7236599045552
 30
0.0
  0
SPLINE
  5
AF
330
A0
100
AcDbEntity
  8
_U+30EC_U+30A4_U+30E4_U+30FC 1
370
     0
100
AcDbSpline
210
0.0
220
0.0
230
1.0
 70
    11
 71
     3
 72
    17
 73
    13
 74
     0
 42
0.0000000001
 43
0.0000000001
 12
1.0
 22
0.0
 32
0.0
 13
1.0
 23
0.0
 33
0.0
 40
0.0
 40
0.0
 40
0.0
 40
0.0
 40
1.0
 40
1.0
 40
1.0
 40
2.0
 40
2.0
 40
2.0
 40
3.0
 40
3.0
 40
3.0
 40
4.0
 40
4.0
 40
4.0
 40
4.0
 10
86.57456052523136
 20
-139.0626573003038
 30
0.0
 10
86.57456052523136
 20
-139.2755642012922
 30
0.0
 10
86.85809188366743
 20
-139.3151827993726
 30
0.0
 10
87.20294594174094
 20
-139.3151827993726
 30
0.0
 10
87.5223062932236
 20
-139.3151827993726
 30
0.0
 10
87.83098684870198
 20
-139.2845214495539
 30
0.0
 10
87.83098684870198
 20
-139.0626573003038
 30
0.0
 10
87.83098684870198
 20
-138.851472947058
 30
0.0
 10
87.54986705710559
 20
-138.810131801235
 30
0.0
 10
87.20294594174094
 20
-138.810131801235
 30
0.0
 10
86.88324108070975
 20
-138.810131801235
 30
0.0
 10
86.57456052523136
 20
-138.8425156987963
 30
0.0
 10
86.57456052523136
 20
-139.0626573003038
 30
0.0
  0
HATCH
  5
B0
330
A0
100
AcDbEntity
  8
_U+30EC_U+30A4_U+30E4_U+30FC 1
 62
   179
420
  2234388
100
AcDbHatch
 10
0.0
 20
0.0
 30
0.0
210
0.0
220
0.0
230
1.0
  2
SOLID
 70
     1
 71
     0
 91
        2
 92
        1
 93
        1
 72
     4
 94
        3
 73
     0
 74
     1
 95
       29
 96
       25
 40
0.0
 40
0.0
 40
0.0
 40
0.0
 40
1.0
 40
1.0
 40
1.0
 40
2.0
 40
2.0
 40
2.0
 40
3.0
 40
3.0
 40
3.0
 40
4.0
 40
4.0
 40
4.0
 40
5.0
 40
5.0
 40
5.0
 40
6.0
 40
6.0
 40
6.0
 40
7.0
 40
7.0
 40
7.0
 40
8.0
 40
8.0
 40
8.0
 40
8.0
 10
87.79722491294653
 20
-138.7236599045552
 10
88.00668671844971
 20
-138.8156439540114
 10
88.0256347436186
 20
-138.9634385503286
 10
88.0256347436186
 20
-139.0626573003038
 10
88.0256347436186
 20
-139.1997721006167
 10
87.97912595456772
 20
-139.3203504426005
 10
87.79722491294653
 20
-139.4016546960524
 10
87.60257701802992
 20
-139.4898491404748
 10
87.36555444864473
 20
-139.506385598804
 10
87.20294594174094
 20
-139.506385598804
 10
87.0589409504575
 20
-139.506385598804
 10
86.80710447048573
 20
-139.4919161977659
 10
86.60832246098681
 20
-139.4016546960524
 10
86.4054063369056
 20
-139.3096706465962
 10
86.38197968760589
 20
-139.1725558462832
 10
86.38197968760589
 20
-139.0626573003038
 10
86.38197968760589
 20
-138.9272650477335
 10
86.42642141936562
 20
-138.8046196484586
 10
86.60832246098681
 20
-138.7236599045552
 10
86.80090329861228
 20
-138.6389105556181
 10
87.02931312928435
 20
-138.6189290018036
 10
87.20294594174094
 20
-138.6189290018036
 10
87.37416718735786
 20
-138.6189290018036
 10
87.60464407532106
 20
-138.6371880078754
 10
87.79722491294653
 20
-138.7236599045552
 97
        0
 97
        0
 92
        1
 93
        1
 72
     4
 94
        3
 73
     0
 74
     1
 95
       17
 96
       13
 40
0.0
 40
0.0
 40
0.0
 40
0.0
 40
1.0
 40
1.0
 40
1.0
 40
2.0
 40
2.0
 40
2.0
 40
3.0
 40
3.0
 40
3.0
 40
4.0
 40
4.0
 40
4.0
 40
4.0
 10
86.57456052523136
 20
-139.0626573003038
 10
86.57456052523136
 20
-139.2755642012922
 10
86.85809188366743
 20
-139.3151827993726
 10
87.20294594174094
 20
-139.3151827993726
 10
87.5223062932236
 20
-139.3151827993726
 10
87.83098684870198
 20
-139.2845214495539
 10
87.83098684870198
 20
-139.0626573003038
 10
87.83098684870198
 20
-138.851472947058
 10
87.54986705710559
 20
-138.810131801235
 10
87.20294594174094
 20
-138.810131801235
 10
86.88324108070975
 20
-138.810131801235
 10
86.57456052523136
 20
-138.8425156987963
 10
86.57456052523136
 20
-139.0626573003038
 97
        0
 97
        0
 75
     2
 76
     1
 98
        0
  0
ENDBLK
  5
A3
330
A0
100
AcDbEntity
  8
0
100
AcDbBlockEnd
  0
BLOCK
  5
BF
330
BD
100
AcDbEntity
  8
0
100
AcDbBlockBegin
  2
block 6
 70
     0
 10
0.0
 20
0.0
 30
0.0
  3
block 6
  1

  0
SPLINE
  5
C1
330
BD
100
AcDbEntity
  8
_U+30EC_U+30A4_U+30E4_U+30FC 1
370
     0
100
AcDbSpline
210
0.0
220
0.0
230
1.0
 70
    11
 71
     3
 72
    26
 73
    22
 74
     0
 42
0.0000000001
 43
0.0000000001
 12
1.0
 22
0.0
 32
0.0
 13
1.0
 23
0.0
 33
0.0
 40
0.0
 40
0.0
 40
0.0
 40
0.0
 40
1.0
 40
1.0
 40
1.0
 40
2.0
 40
2.0
 40
2.0
 40
3.0
 40
3.0
 40
3.0
 40
4.0
 40
4.0
 40
4.0
 40
5.0
 40
5.0
 40
5.0
 40
6.0
 40
6.0
 40
6.0
 40
7.0
 40
7.0
 40
7.0
 40
7.0
 10
118.9756835640061
 20
-150.373594797476
 30
0.0
 10
118.9756835640061
 20
-150.373594797476
 30
0.0
 10
117.8715304609835
 20
-150.373594797476
 30
0.0
 10
117.8715304609835
 20
-150.373594797476
 30
0.0
 10
117.8715304609835
 20
-150.373594797476
 30
0.0
 10
117.8715304609835
 20
-150.655059098621
 30
0.0
 10
117.8715304609835
 20
-150.655059098621
 30
0.0
 10
117.8715304609835
 20
-150.655059098621
 30
0.0
 10
117.7233913551178
 20
-150.655059098621
 30
0.0
 10
117.7233913551178
 20
-150.655059098621
 30
0.0
 10
117.7085774445312
 20
-150.3718722497334
 30
0.0
 10
117.5456244280789
 20
-150.332253651653
 30
0.0
 10
117.4312472579686
 20
-150.3071044546107
 30
0.0
 10
117.4312472579686
 20
-150.3071044546107
 30
0.0
 10
117.4312472579686
 20
-150.1823919980447
 30
0.0
 10
117.4312472579686
 20
-150.1823919980447
 30
0.0
 10
117.4312472579686
 20
-150.1823919980447
 30
0.0
 10
118.9756835640061
 20
-150.1823919980447
 30
0.0
 10
118.9756835640061
 20
-150.1823919980447
 30
0.0
 10
118.9756835640061
 20
-150.1823919980447
 30
0.0
 10
118.9756835640061
 20
-150.373594797476
 30
0.0
 10
118.9756835640061
 20
-150.373594797476
 30
0.0
  0
HATCH
  5
C2
330
BD
100
AcDbEntity
  8
_U+30EC_U+30A4_U+30E4_U+30FC 1
 62
   179
420
  2234388
100
AcDbHatch
 10
0.0
 20
0.0
 30
0.0
210
0.0
220
0.0
230
1.0
  2
SOLID
 70
     1
 71
     0
 91
        1
 92
        1
 93
        1
 72
     4
 94
        3
 73
     0
 74
     1
 95
       26
 96
       22
 40
0.0
 40
0.0
 40
0.0
 40
0.0
 40
1.0
 40
1.0
 40
1.0
 40
2.0
 40
2.0
 40
2.0
 40
3.0
 40
3.0
 40
3.0
 40
4.0
 40
4.0
 40
4.0
 40
5.0
 40
5.0
 40
5.0
 40
6.0
 40
6.0
 40
6.0
 40
7.0
 40
7.0
 40
7.0
 40
7.0
 10
118.9756835640061
 20
-150.373594797476
 10
118.9756835640061
 20
-150.373594797476
 10
117.8715304609835
 20
-150.373594797476
 10
117.8715304609835
 20
-150.373594797476
 10
117.8715304609835
 20
-150.373594797476
 10
117.8715304609835
 20
-150.655059098621
 10
117.8715304609835
 20
-150.655059098621
 10
117.8715304609835
 20
-150.655059098621
 10
117.7233913551178
 20
-150.655059098621
 10
117.7233913551178
 20
-150.655059098621
 10
117.7085774445312
 20
-150.3718722497334
 10
117.5456244280789
 20
-150.332253651653
 10
117.4312472579686
 20
-150.3071044546107
 10
117.4312472579686
 20
-150.3071044546107
 10
117.4312472579686
 20
-150.1823919980447
 10
117.4312472579686
 20
-150.1823919980447
 10
117.4312472579686
 20
-150.1823919980447
 10
118.9756835640061
 20
-150.1823919980447
 10
118.9756835640061
 20
-150.1823919980447
 10
118.9756835640061
 20
-150.1823919980447
 10
118.9756835640061
 20
-150.373594797476
 10
118.9756835640061
 20
-150.373594797476
 97
        0
 97
        0
 75
     2
 76
     1
 98
        0
  0
SPLINE
  5
C3
330
BD
100
AcDbEntity
  8
_U+30EC_U+30A4_U+30E4_U+30FC 1
370
     0
100
AcDbSpline
210
0.0
220
0.0
230
1.0
 70
    11
 71
     3
 72
    44
 73
    40
 74
     0
 42
0.0000000001
 43
0.0000000001
 12
1.0
 22
0.0
 32
0.0
 13
1.0
 23
0.0
 33
0.0
 40
0.0
 40
0.0
 40
0.0
 40
0.0
 40
1.0
 40
1.0
 40
1.0
 40
2.0
 40
2.0
 40
2.0
 40
3.0
 40
3.0
 40
3.0
 40
4.0
 40
4.0
 40
4.0
 40
5.0
 40
5.0
 40
5.0
 40
6.0
 40
6.0
 40
6.0
 40
7.0
 40
7.0
 40
7.0
 40
8.0
 40
8.0
 40
8.0
 40
9.0
 40
9.0
 40
9.0
 40
10.0
 40
10.0
 40
10.0
 40
11.0
 40
11.0
 40
11.0
 40
12.0
 40
12.0
 40
12.0
 40
13.0
 40
13.0
 40
13.0
 40
13.0
 10
118.3938069365474
 20
-149.2511826883816
 30
0.0
 10
118.5526258384174
 20
-149.4368733350366
 30
0.0
 10
118.6266953913503
 20
-149.5161105311974
 30
0.0
 10
118.7703558730852
 20
-149.5574516770204
 30
0.0
 10
118.7703558730852
 20
-149.5574516770204
 30
0.0
 10
118.7703558730852
 20
-148.8939262865613
 30
0.0
 10
118.7703558730852
 20
-148.8939262865613
 30
0.0
 10
118.7703558730852
 20
-148.8939262865613
 30
0.0
 10
118.9756835640061
 20
-148.8939262865613
 30
0.0
 10
118.9756835640061
 20
-148.8939262865613
 30
0.0
 10
118.9756835640061
 20
-148.8939262865613
 30
0.0
 10
118.9756835640061
 20
-149.7703585780088
 30
0.0
 10
118.9756835640061
 20
-149.7703585780088
 30
0.0
 10
118.6180826526372
 20
-149.7434868332239
 30
0.0
 10
118.539878985122
 20
-149.6873317768143
 30
0.0
 10
118.2415337160993
 20
-149.3593586866185
 30
0.0
 10
118.0427517066004
 20
-149.1409396328537
 30
0.0
 10
117.974883325541
 20
-149.0851290859926
 30
0.0
 10
117.8374240156795
 20
-149.0851290859926
 30
0.0
 10
117.7189127309869
 20
-149.0851290859926
 30
0.0
 10
117.5879991025475
 20
-149.1464517856301
 30
0.0
 10
117.5879991025475
 20
-149.3142279357617
 30
0.0
 10
117.5879991025475
 20
-149.5360920850118
 30
0.0
 10
117.8184759905107
 20
-149.5433267855308
 30
0.0
 10
117.9349202179121
 20
-149.5467718810161
 30
0.0
 10
117.9349202179121
 20
-149.5467718810161
 30
0.0
 10
117.9349202179121
 20
-149.7379746804475
 30
0.0
 10
117.9349202179121
 20
-149.7379746804475
 30
0.0
 10
117.8077961945064
 20
-149.7307399799284
 30
0.0
 10
117.6958305912358
 20
-149.7217827316668
 30
0.0
 10
117.5773193065432
 20
-149.6532253315103
 30
0.0
 10
117.416433347382
 20
-149.5595187343115
 30
0.0
 10
117.3826714116266
 20
-149.4006998324415
 30
0.0
 10
117.3826714116266
 20
-149.3014810824663
 30
0.0
 10
117.3826714116266
 20
-149.0651475321782
 30
0.0
 10
117.5666395105389
 20
-148.8884141337848
 30
0.0
 10
117.8394910729707
 20
-148.8884141337848
 30
0.0
 10
118.0682454131913
 20
-148.8884141337848
 30
0.0
 10
118.1674641631665
 20
-148.9876328837601
 30
0.0
 10
118.3938069365474
 20
-149.2511826883816
 30
0.0
  0
HATCH
  5
C4
330
BD
100
AcDbEntity
  8
_U+30EC_U+30A4_U+30E4_U+30FC 1
 62
   179
420
  2234388
100
AcDbHatch
 10
0.0
 20
0.0
 30
0.0
210
0.0
220
0.0
230
1.0
  2
SOLID
 70
     1
 71
     0
 91
        1
 92
        1
 93
        1
 72
     4
 94
        3
 73
     0
 74
     1
 95
       44
 96
       40
 40
0.0
 40
0.0
 40
0.0
 40
0.0
 40
1.0
 40
1.0
 40
1.0
 40
2.0
 40
2.0
 40
2.0
 40
3.0
 40
3.0
 40
3.0
 40
4.0
 40
4.0
 40
4.0
 40
5.0
 40
5.0
 40
5.0
 40
6.0
 40
6.0
 40
6.0
 40
7.0
 40
7.0
 40
7.0
 40
8.0
 40
8.0
 40
8.0
 40
9.0
 40
9.0
 40
9.0
 40
10.0
 40
10.0
 40
10.0
 40
11.0
 40
11.0
 40
11.0
 40
12.0
 40
12.0
 40
12.0
 40
13.0
 40
13.0
 40
13.0
 40
13.0
 10
118.3938069365474
 20
-149.2511826883816
 10
118.5526258384174
 20
-149.4368733350366
 10
118.6266953913503
 20
-149.5161105311974
 10
118.7703558730852
 20
-149.5574516770204
 10
118.7703558730852
 20
-149.5574516770204
 10
118.7703558730852
 20
-148.8939262865613
 10
118.7703558730852
 20
-148.8939262865613
 10
118.7703558730852
 20
-148.8939262865613
 10
118.9756835640061
 20
-148.8939262865613
 10
118.9756835640061
 20
-148.8939262865613
 10
118.9756835640061
 20
-148.8939262865613
 10
118.9756835640061
 20
-149.7703585780088
 10
118.9756835640061
 20
-149.7703585780088
 10
118.6180826526372
 20
-149.7434868332239
 10
118.539878985122
 20
-149.6873317768143
 10
118.2415337160993
 20
-149.3593586866185
 10
118.0427517066004
 20
-149.1409396328537
 10
117.974883325541
 20
-149.0851290859926
 10
117.8374240156795
 20
-149.0851290859926
 10
117.7189127309869
 20
-149.0851290859926
 10
117.5879991025475
 20
-149.1464517856301
 10
117.5879991025475
 20
-149.3142279357617
 10
117.5879991025475
 20
-149.5360920850118
 10
117.8184759905107
 20
-149.5433267855308
 10
117.9349202179121
 20
-149.5467718810161
 10
117.9349202179121
 20
-149.5467718810161
 10
117.9349202179121
 20
-149.7379746804475
 10
117.9349202179121
 20
-149.7379746804475
 10
117.8077961945064
 20
-149.7307399799284
 10
117.6958305912358
 20
-149.7217827316668
 10
117.5773193065432
 20
-149.6532253315103
 10
117.416433347382
 20
-149.5595187343115
 10
117.3826714116266
 20
-149.4006998324415
 10
117.3826714116266
 20
-149.3014810824663
 10
117.3826714116266
 20
-149.0651475321782
 10
117.5666395105389
 20
-148.8884141337848
 10
117.8394910729707
 20
-148.8884141337848
 10
118.0682454131913
 20
-148.8884141337848
 10
118.1674641631665
 20
-148.9876328837601
 10
118.3938069365474
 20
-149.2511826883816
 97
        0
 97
        0
 75
     2
 76
     1
 98
        0
  0
POLYLINE
  5
C5
330
BD
100
AcDbEntity
  8
_U+30EC_U+30A4_U+30E4_U+30FC 1
370
     0
100
AcDb2dPolyline
 66
     1
 10
0.0
 20
0.0
 30
0.0
  0
VERTEX
  5
C6
330
C5
100
AcDbEntity
  8
_U+30EC_U+30A4_U+30E4_U+30FC 1
370
     0
100
AcDbVertex
100
AcDb2dVertex
 10
118.9756835640061
 20
-148.7037570157755
 30
0.0
  0
VERTEX
  5
C7
330
C5
100
AcDbEntity
  8
_U+30EC_U+30A4_U+30E4_U+30FC 1
370
     0
100
AcDbVertex
100
AcDb2dVertex
 10
118.7238470840343
 20
-148.7037570157755
 30
0.0
  0
VERTEX
  5
C8
330
C5
100
AcDbEntity
  8
_U+30EC_U+30A4_U+30E4_U+30FC 1
370
     0
100
AcDbVertex
100
AcDb2dVertex
 10
118.7238470840343
 20
-148.4891275670444
 30
0.0
  0
VERTEX
  5
C9
330
C5
100
AcDbEntity
  8
_U+30EC_U+30A4_U+30E4_U+30FC 1
370
     0
100
AcDbVertex
100
AcDb2dVertex
 10
118.9756835640061
 20
-148.4891275670444
 30
0.0
  0
VERTEX
  5
CA
330
C5
100
AcDbEntity
  8
_U+30EC_U+30A4_U+30E4_U+30FC 1
370
     0
100
AcDbVertex
100
AcDb2dVertex
 10
118.9756835640061
 20
-148.7037570157755
 30
0.0
  0
SEQEND
  5
CB
330
C5
100
AcDbEntity
  8
_U+30EC_U+30A4_U+30E4_U+30FC 1
370
     0
  0
HATCH
  5
CC
330
BD
100
AcDbEntity
  8
_U+30EC_U+30A4_U+30E4_U+30FC 1
 62
   179
420
  2234388
100
AcDbHatch
 10
0.0
 20
0.0
 30
0.0
210
0.0
220
0.0
230
1.0
  2
SOLID
 70
     1
 71
     0
 91
        1
 92
        1
 93
        4
 72
     1
 10
118.9756835640061
 20
-148.7037570157755
 11
118.7238470840343
 21
-148.7037570157755
 72
     1
 10
118.7238470840343
 20
-148.7037570157755
 11
118.7238470840343
 21
-148.4891275670444
 72
     1
 10
118.7238470840343
 20
-148.4891275670444
 11
118.9756835640061
 21
-148.4891275670444
 72
     1
 10
118.9756835640061
 20
-148.4891275670444
 11
118.9756835640061
 21
-148.7037570157755
 97
        0
 75
     2
 76
     1
 98
        0
  0
SPLINE
  5
CD
330
BD
100
AcDbEntity
  8
_U+30EC_U+30A4_U+30E4_U+30FC 1
370
     0
100
AcDbSpline
210
0.0
220
0.0
230
1.0
 70
    11
 71
     3
 72
    53
 73
    49
 74
     0
 42
0.0000000001
 43
0.0000000001
 12
1.0
 22
0.0
 32
0.0
 13
1.0
 23
0.0
 33
0.0
 40
0.0
 40
0.0
 40
0.0
 40
0.0
 40
1.0
 40
1.0
 40
1.0
 40
2.0
 40
2.0
 40
2.0
 40
3.0
 40
3.0
 40
3.0
 40
4.0
 40
4.0
 40
4.0
 40
5.0
 40
5.0
 40
5.0
 40
6.0
 40
6.0
 40
6.0
 40
7.0
 40
7.0
 40
7.0
 40
8.0
 40
8.0
 40
8.0
 40
9.0
 40
9.0
 40
9.0
 40
10.0
 40
10.0
 40
10.0
 40
11.0
 40
11.0
 40
11.0
 40
12.0
 40
12.0
 40
12.0
 40
13.0
 40
13.0
 40
13.0
 40
14.0
 40
14.0
 40
14.0
 40
15.0
 40
15.0
 40
15.0
 40
16.0
 40
16.0
 40
16.0
 40
16.0
 10
119.0263264676393
 20
-147.8779676279611
 30
0.0
 10
119.0263264676393
 20
-147.9448024803749
 30
0.0
 10
119.0094454997615
 20
-148.0312743770547
 30
0.0
 10
118.9460557428329
 20
-148.1177462737345
 30
0.0
 10
118.8361571968535
 20
-148.2655408700517
 30
0.0
 10
118.7048990588655
 20
-148.2837998761235
 30
0.0
 10
118.5970675701771
 20
-148.2999918249042
 30
0.0
 10
118.5970675701771
 20
-148.2999918249042
 30
0.0
 10
118.5970675701771
 20
-148.1105115732154
 30
0.0
 10
118.5970675701771
 20
-148.1105115732154
 30
0.0
 10
118.795849579676
 20
-148.063658274616
 30
0.0
 10
118.8254774008492
 20
-147.9554822763792
 30
0.0
 10
118.8254774008492
 20
-147.8762450802184
 30
0.0
 10
118.8254774008492
 20
-147.7570447764288
 30
0.0
 10
118.7259141413255
 20
-147.6271646766349
 30
0.0
 10
118.4933701960711
 20
-147.6271646766349
 30
0.0
 10
118.237399601517
 20
-147.6271646766349
 30
0.0
 10
118.1674641631665
 20
-147.7804714257285
 30
0.0
 10
118.1674641631665
 20
-147.8834797807375
 30
0.0
 10
118.1674641631665
 20
-147.9103515255224
 30
0.0
 10
118.1674641631665
 20
-148.0312743770547
 30
0.0
 10
118.2966552438633
 20
-148.1070664777302
 30
0.0
 10
118.2966552438633
 20
-148.1070664777302
 30
0.0
 10
118.2777072186945
 20
-148.25658362179
 30
0.0
 10
118.2777072186945
 20
-148.25658362179
 30
0.0
 10
118.2777072186945
 20
-148.25658362179
 30
0.0
 10
117.4312472579686
 20
-148.1539197763296
 30
0.0
 10
117.4312472579686
 20
-148.1539197763296
 30
0.0
 10
117.4312472579686
 20
-148.1539197763296
 30
0.0
 10
117.4312472579686
 20
-147.4903943858705
 30
0.0
 10
117.4312472579686
 20
-147.4903943858705
 30
0.0
 10
117.4312472579686
 20
-147.4903943858705
 30
0.0
 10
117.6258951528852
 20
-147.4903943858705
 30
0.0
 10
117.6258951528852
 20
-147.4903943858705
 30
0.0
 10
117.6258951528852
 20
-147.4903943858705
 30
0.0
 10
117.6258951528852
 20
-148.015082428274
 30
0.0
 10
117.6258951528852
 20
-148.015082428274
 30
0.0
 10
117.6258951528852
 20
-148.015082428274
 30
0.0
 10
118.0489528784739
 20
-148.0708929751351
 30
0.0
 10
118.0489528784739
 20
-148.0708929751351
 30
0.0
 10
118.0151909427184
 20
-148.0185275237593
 30
0.0
 10
117.974883325541
 20
-147.9482475758602
 30
0.0
 10
117.974883325541
 20
-147.8473062781424
 30
0.0
 10
117.974883325541
 20
-147.6309542816687
 30
0.0
 10
118.161262991293
 20
-147.429071686233
 30
0.0
 10
118.4744221709022
 20
-147.429071686233
 30
0.0
 10
118.7917154650937
 20
-147.429071686233
 30
0.0
 10
119.0263264676393
 20
-147.6199299761159
 30
0.0
 10
119.0263264676393
 20
-147.8779676279611
 30
0.0
  0
HATCH
  5
CE
330
BD
100
AcDbEntity
  8
_U+30EC_U+30A4_U+30E4_U+30FC 1
 62
   179
420
  2234388
100
AcDbHatch
 10
0.0
 20
0.0
 30
0.0
210
0.0
220
0.0
230
1.0
  2
SOLID
 70
     1
 71
     0
 91
        1
 92
        1
 93
        1
 72
     4
 94
        3
 73
     0
 74
     1
 95
       53
 96
       49
 40
0.0
 40
0.0
 40
0.0
 40
0.0
 40
1.0
 40
1.0
 40
1.0
 40
2.0
 40
2.0
 40
2.0
 40
3.0
 40
3.0
 40
3.0
 40
4.0
 40
4.0
 40
4.0
 40
5.0
 40
5.0
 40
5.0
 40
6.0
 40
6.0
 40
6.0
 40
7.0
 40
7.0
 40
7.0
 40
8.0
 40
8.0
 40
8.0
 40
9.0
 40
9.0
 40
9.0
 40
10.0
 40
10.0
 40
10.0
 40
11.0
 40
11.0
 40
11.0
 40
12.0
 40
12.0
 40
12.0
 40
13.0
 40
13.0
 40
13.0
 40
14.0
 40
14.0
 40
14.0
 40
15.0
 40
15.0
 40
15.0
 40
16.0
 40
16.0
 40
16.0
 40
16.0
 10
119.0263264676393
 20
-147.8779676279611
 10
119.0263264676393
 20
-147.9448024803749
 10
119.0094454997615
 20
-148.0312743770547
 10
118.9460557428329
 20
-148.1177462737345
 10
118.8361571968535
 20
-148.2655408700517
 10
118.7048990588655
 20
-148.2837998761235
 10
118.5970675701771
 20
-148.2999918249042
 10
118.5970675701771
 20
-148.2999918249042
 10
118.5970675701771
 20
-148.1105115732154
 10
118.5970675701771
 20
-148.1105115732154
 10
118.795849579676
 20
-148.063658274616
 10
118.8254774008492
 20
-147.9554822763792
 10
118.8254774008492
 20
-147.8762450802184
 10
118.8254774008492
 20
-147.7570447764288
 10
118.7259141413255
 20
-147.6271646766349
 10
118.4933701960711
 20
-147.6271646766349
 10
118.237399601517
 20
-147.6271646766349
 10
118.1674641631665
 20
-147.7804714257285
 10
118.1674641631665
 20
-147.8834797807375
 10
118.1674641631665
 20
-147.9103515255224
 10
118.1674641631665
 20
-148.0312743770547
 10
118.2966552438633
 20
-148.1070664777302
 10
118.2966552438633
 20
-148.1070664777302
 10
118.2777072186945
 20
-148.25658362179
 10
118.2777072186945
 20
-148.25658362179
 10
118.2777072186945
 20
-148.25658362179
 10
117.4312472579686
 20
-148.1539197763296
 10
117.4312472579686
 20
-148.1539197763296
 10
117.4312472579686
 20
-148.1539197763296
 10
117.4312472579686
 20
-147.4903943858705
 10
117.4312472579686
 20
-147.4903943858705
 10
117.4312472579686
 20
-147.4903943858705
 10
117.6258951528852
 20
-147.4903943858705
 10
117.6258951528852
 20
-147.4903943858705
 10
117.6258951528852
 20
-147.4903943858705
 10
117.6258951528852
 20
-148.015082428274
 10
117.6258951528852
 20
-148.015082428274
 10
117.6258951528852
 20
-148.015082428274
 10
118.0489528784739
 20
-148.0708929751351
 10
118.0489528784739
 20
-148.0708929751351
 10
118.0151909427184
 20
-148.0185275237593
 10
117.974883325541
 20
-147.9482475758602
 10
117.974883325541
 20
-147.8473062781424
 10
117.974883325541
 20
-147.6309542816687
 10
118.161262991293
 20
-147.429071686233
 10
118.4744221709022
 20
-147.429071686233
 10
118.7917154650937
 20
-147.429071686233
 10
119.0263264676393
 20
-147.6199299761159
 10
119.0263264676393
 20
-147.8779676279611
 97
        0
 97
        0
 75
     2
 76
     1
 98
        0
  0
ENDBLK
  5
C0
330
BD
100
AcDbEntity
  8
0
100
AcDbBlockEnd
  0
BLOCK
  5
DD
330
DB
100
AcDbEntity
  8
0
100
AcDbBlockBegin
  2
block 7
 70
     0
 10
0.0
 20
0.0
 30
0.0
  3
block 7
  1

  0
SPLINE
  5
DF
330
DB
100
AcDbEntity
  8
_U+30EC_U+30A4_U+30E4_U+30FC 1
370
     0
100
AcDbSpline
210
0.0
220
0.0
230
1.0
 70
    11
 71
     3
 72
    29
 73
    25
 74
     0
 42
0.0000000001
 43
0.0000000001
 12
1.0
 22
0.0
 32
0.0
 13
1.0
 23
0.0
 33
0.0
 40
0.0
 40
0.0
 40
0.0
 40
0.0
 40
1.0
 40
1.0
 40
1.0
 40
2.0
 40
2.0
 40
2.0
 40
3.0
 40
3.0
 40
3.0
 40
4.0
 40
4.0
 40
4.0
 40
5.0
 40
5.0
 40
5.0
 40
6.0
 40
6.0
 40
6.0
 40
7.0
 40
7.0
 40
7.0
 40
8.0
 40
8.0
 40
8.0
 40
8.0
 10
122.8548610803974
 20
-156.2195773263965
 30
0.0
 10
123.0643228859006
 20
-156.3115613758527
 30
0.0
 10
123.0832709110695
 20
-156.4593559721699
 30
0.0
 10
123.0832709110695
 20
-156.5585747221451
 30
0.0
 10
123.0832709110695
 20
-156.695689522458
 30
0.0
 10
123.0367621220186
 20
-156.8162678644418
 30
0.0
 10
122.8548610803974
 20
-156.8975721178937
 30
0.0
 10
122.6602131854808
 20
-156.9857665623161
 30
0.0
 10
122.4235351256441
 20
-157.0019585110967
 30
0.0
 10
122.2605821091918
 20
-157.0019585110967
 30
0.0
 10
122.1165771179084
 20
-157.0019585110967
 30
0.0
 10
121.8647406379366
 20
-156.9878336196072
 30
0.0
 10
121.6659586284377
 20
-156.8975721178937
 30
0.0
 10
121.4630425043565
 20
-156.8055880684375
 30
0.0
 10
121.4396158550568
 20
-156.6684732681246
 30
0.0
 10
121.4396158550568
 20
-156.5585747221451
 30
0.0
 10
121.4396158550568
 20
-156.4231824695748
 30
0.0
 10
121.4840575868165
 20
-156.3005370702999
 30
0.0
 10
121.6659586284377
 20
-156.2195773263965
 30
0.0
 10
121.8585394660631
 20
-156.1348279774594
 30
0.0
 10
122.0869492967352
 20
-156.1148464236449
 30
0.0
 10
122.2605821091918
 20
-156.1148464236449
 30
0.0
 10
122.4318033548087
 20
-156.1148464236449
 30
0.0
 10
122.6622802427719
 20
-156.1331054297167
 30
0.0
 10
122.8548610803974
 20
-156.2195773263965
 30
0.0
  0
SPLINE
  5
E0
330
DB
100
AcDbEntity
  8
_U+30EC_U+30A4_U+30E4_U+30FC 1
370
     0
100
AcDbSpline
210
0.0
220
0.0
230
1.0
 70
    11
 71
     3
 72
    17
 73
    13
 74
     0
 42
0.0000000001
 43
0.0000000001
 12
1.0
 22
0.0
 32
0.0
 13
1.0
 23
0.0
 33
0.0
 40
0.0
 40
0.0
 40
0.0
 40
0.0
 40
1.0
 40
1.0
 40
1.0
 40
2.0
 40
2.0
 40
2.0
 40
3.0
 40
3.0
 40
3.0
 40
4.0
 40
4.0
 40
4.0
 40
4.0
 10
121.6321966926822
 20
-156.5585747221451
 30
0.0
 10
121.6321966926822
 20
-156.771137113585
 30
0.0
 10
121.9157280511183
 20
-156.8111002212139
 30
0.0
 10
122.2605821091918
 20
-156.8111002212139
 30
0.0
 10
122.5799424606745
 20
-156.8111002212139
 30
0.0
 10
122.8886230161528
 20
-156.7804388713952
 30
0.0
 10
122.8886230161528
 20
-156.5585747221451
 30
0.0
 10
122.8886230161528
 20
-156.3473903688993
 30
0.0
 10
122.6075032245565
 20
-156.3060492230763
 30
0.0
 10
122.2605821091918
 20
-156.3060492230763
 30
0.0
 10
121.9408772481606
 20
-156.3060492230763
 30
0.0
 10
121.6321966926822
 20
-156.3384331206376
 30
0.0
 10
121.6321966926822
 20
-156.5585747221451
 30
0.0
  0
HATCH
  5
E1
330
DB
100
AcDbEntity
  8
_U+30EC_U+30A4_U+30E4_U+30FC 1
 62
   179
420
  2234388
100
AcDbHatch
 10
0.0
 20
0.0
 30
0.0
210
0.0
220
0.0
230
1.0
  2
SOLID
 70
     1
 71
     0
 91
        2
 92
        1
 93
        1
 72
     4
 94
        3
 73
     0
 74
     1
 95
       29
 96
       25
 40
0.0
 40
0.0
 40
0.0
 40
0.0
 40
1.0
 40
1.0
 40
1.0
 40
2.0
 40
2.0
 40
2.0
 40
3.0
 40
3.0
 40
3.0
 40
4.0
 40
4.0
 40
4.0
 40
5.0
 40
5.0
 40
5.0
 40
6.0
 40
6.0
 40
6.0
 40
7.0
 40
7.0
 40
7.0
 40
8.0
 40
8.0
 40
8.0
 40
8.0
 10
122.8548610803974
 20
-156.2195773263965
 10
123.0643228859006
 20
-156.3115613758527
 10
123.0832709110695
 20
-156.4593559721699
 10
123.0832709110695
 20
-156.5585747221451
 10
123.0832709110695
 20
-156.695689522458
 10
123.0367621220186
 20
-156.8162678644418
 10
122.8548610803974
 20
-156.8975721178937
 10
122.6602131854808
 20
-156.9857665623161
 10
122.4235351256441
 20
-157.0019585110967
 10
122.2605821091918
 20
-157.0019585110967
 10
122.1165771179084
 20
-157.0019585110967
 10
121.8647406379366
 20
-156.9878336196072
 10
121.6659586284377
 20
-156.8975721178937
 10
121.4630425043565
 20
-156.8055880684375
 10
121.4396158550568
 20
-156.6684732681246
 10
121.4396158550568
 20
-156.5585747221451
 10
121.4396158550568
 20
-156.4231824695748
 10
121.4840575868165
 20
-156.3005370702999
 10
121.6659586284377
 20
-156.2195773263965
 10
121.8585394660631
 20
-156.1348279774594
 10
122.0869492967352
 20
-156.1148464236449
 10
122.2605821091918
 20
-156.1148464236449
 10
122.4318033548087
 20
-156.1148464236449
 10
122.6622802427719
 20
-156.1331054297167
 10
122.8548610803974
 20
-156.2195773263965
 97
        0
 97
        0
 92
        1
 93
        1
 72
     4
 94
        3
 73
     0
 74
     1
 95
       17
 96
       13
 40
0.0
 40
0.0
 40
0.0
 40
0.0
 40
1.0
 40
1.0
 40
1.0
 40
2.0
 40
2.0
 40
2.0
 40
3.0
 40
3.0
 40
3.0
 40
4.0
 40
4.0
 40
4.0
 40
4.0
 10
121.6321966926822
 20
-156.5585747221451
 10
121.6321966926822
 20
-156.771137113585
 10
121.9157280511183
 20
-156.8111002212139
 10
122.2605821091918
 20
-156.8111002212139
 10
122.5799424606745
 20
-156.8111002212139
 10
122.8886230161528
 20
-156.7804388713952
 10
122.8886230161528
 20
-156.5585747221451
 10
122.8886230161528
 20
-156.3473903688993
 10
122.6075032245565
 20
-156.3060492230763
 10
122.2605821091918
 20
-156.3060492230763
 10
121.9408772481606
 20
-156.3060492230763
 10
121.6321966926822
 20
-156.3384331206376
 10
121.6321966926822
 20
-156.5585747221451
 97
        0
 97
        0
 75
     2
 76
     1
 98
        0
  0
POLYLINE
  5
E2
330
DB
100
AcDbEntity
  8
_U+30EC_U+30A4_U+30E4_U+30FC 1
370
     0
100
AcDb2dPolyline
 66
     1
 10
0.0
 20
0.0
 30
0.0
  0
VERTEX
  5
E3
330
E2
100
AcDbEntity
  8
_U+30EC_U+30A4_U+30E4_U+30FC 1
370
     0
100
AcDbVertex
100
AcDb2dVertex
 10
123.0326280074363
 20
-155.9319118533782
 30
0.0
  0
VERTEX
  5
E4
330
E2
100
AcDbEntity
  8
_U+30EC_U+30A4_U+30E4_U+30FC 1
370
     0
100
AcDbVertex
100
AcDb2dVertex
 10
122.7807915274645
 20
-155.9319118533782
 30
0.0
  0
VERTEX
  5
E5
330
E2
100
AcDbEntity
  8
_U+30EC_U+30A4_U+30E4_U+30FC 1
370
     0
100
AcDbVertex
100
AcDb2dVertex
 10
122.7807915274645
 20
-155.7172824046471
 30
0.0
  0
VERTEX
  5
E6
330
E2
100
AcDbEntity
  8
_U+30EC_U+30A4_U+30E4_U+30FC 1
370
     0
100
AcDbVertex
100
AcDb2dVertex
 10
123.0326280074363
 20
-155.7172824046471
 30
0.0
  0
VERTEX
  5
E7
330
E2
100
AcDbEntity
  8
_U+30EC_U+30A4_U+30E4_U+30FC 1
370
     0
100
AcDbVertex
100
AcDb2dVertex
 10
123.0326280074363
 20
-155.9319118533782
 30
0.0
  0
SEQEND
  5
E8
330
E2
100
AcDbEntity
  8
_U+30EC_U+30A4_U+30E4_U+30FC 1
370
     0
  0
HATCH
  5
E9
330
DB
100
AcDbEntity
  8
_U+30EC_U+30A4_U+30E4_U+30FC 1
 62
   179
420
  2234388
100
AcDbHatch
 10
0.0
 20
0.0
 30
0.0
210
0.0
220
0.0
230
1.0
  2
SOLID
 70
     1
 71
     0
 91
        1
 92
        1
 93
        4
 72
     1
 10
123.0326280074363
 20
-155.9319118533782
 11
122.7807915274645
 21
-155.9319118533782
 72
     1
 10
122.7807915274645
 20
-155.9319118533782
 11
122.7807915274645
 21
-155.7172824046471
 72
     1
 10
122.7807915274645
 20
-155.7172824046471
 11
123.0326280074363
 21
-155.7172824046471
 72
     1
 10
123.0326280074363
 20
-155.7172824046471
 11
123.0326280074363
 21
-155.9319118533782
 97
        0
 75
     2
 76
     1
 98
        0
  0
POLYLINE
  5
EA
330
DB
100
AcDbEntity
  8
_U+30EC_U+30A4_U+30E4_U+30FC 1
370
     0
100
AcDb2dPolyline
 66
     1
 10
0.0
 20
0.0
 30
0.0
  0
VERTEX
  5
EB
330
EA
100
AcDbEntity
  8
_U+30EC_U+30A4_U+30E4_U+30FC 1
370
     0
100
AcDbVertex
100
AcDb2dVertex
 10
122.6857068920716
 20
-154.8067436678955
 30
0.0
  0
VERTEX
  5
EC
330
EA
100
AcDbEntity
  8
_U+30EC_U+30A4_U+30E4_U+30FC 1
370
     0
100
AcDbVertex
100
AcDb2dVertex
 10
123.0326280074363
 20
-154.8067436678955
 30
0.0
  0
VERTEX
  5
ED
330
EA
100
AcDbEntity
  8
_U+30EC_U+30A4_U+30E4_U+30FC 1
370
     0
100
AcDbVertex
100
AcDb2dVertex
 10
123.0326280074363
 20
-154.9924343145505
 30
0.0
  0
VERTEX
  5
EE
330
EA
100
AcDbEntity
  8
_U+30EC_U+30A4_U+30E4_U+30FC 1
370
     0
100
AcDbVertex
100
AcDb2dVertex
 10
122.6857068920716
 20
-154.9924343145505
 30
0.0
  0
VERTEX
  5
EF
330
EA
100
AcDbEntity
  8
_U+30EC_U+30A4_U+30E4_U+30FC 1
370
     0
100
AcDbVertex
100
AcDb2dVertex
 10
122.6857068920716
 20
-155.5515733118065
 30
0.0
  0
VERTEX
  5
F0
330
EA
100
AcDbEntity
  8
_U+30EC_U+30A4_U+30E4_U+30FC 1
370
     0
100
AcDbVertex
100
AcDb2dVertex
 10
122.4614311759819
 20
-155.5515733118065
 30
0.0
  0
VERTEX
  5
F1
330
EA
100
AcDbEntity
  8
_U+30EC_U+30A4_U+30E4_U+30FC 1
370
     0
100
AcDbVertex
100
AcDb2dVertex
 10
121.4881917013988
 20
-154.9727972702846
 30
0.0
  0
VERTEX
  5
F2
330
EA
100
AcDbEntity
  8
_U+30EC_U+30A4_U+30E4_U+30FC 1
370
     0
100
AcDbVertex
100
AcDb2dVertex
 10
121.4881917013988
 20
-154.8067436678955
 30
0.0
  0
VERTEX
  5
F3
330
EA
100
AcDbEntity
  8
_U+30EC_U+30A4_U+30E4_U+30FC 1
370
     0
100
AcDbVertex
100
AcDb2dVertex
 10
122.4869248825727
 20
-154.8067436678955
 30
0.0
  0
VERTEX
  5
F4
330
EA
100
AcDbEntity
  8
_U+30EC_U+30A4_U+30E4_U+30FC 1
370
     0
100
AcDbVertex
100
AcDb2dVertex
 10
122.4869248825727
 20
-154.6300102695022
 30
0.0
  0
VERTEX
  5
F5
330
EA
100
AcDbEntity
  8
_U+30EC_U+30A4_U+30E4_U+30FC 1
370
     0
100
AcDbVertex
100
AcDb2dVertex
 10
122.6857068920716
 20
-154.6300102695022
 30
0.0
  0
VERTEX
  5
F6
330
EA
100
AcDbEntity
  8
_U+30EC_U+30A4_U+30E4_U+30FC 1
370
     0
100
AcDbVertex
100
AcDb2dVertex
 10
122.6857068920716
 20
-154.8067436678955
 30
0.0
  0
SEQEND
  5
F7
330
EA
100
AcDbEntity
  8
_U+30EC_U+30A4_U+30E4_U+30FC 1
370
     0
  0
POLYLINE
  5
F8
330
DB
100
AcDbEntity
  8
_U+30EC_U+30A4_U+30E4_U+30FC 1
370
     0
100
AcDb2dPolyline
 66
     1
 10
0.0
 20
0.0
 30
0.0
  0
VERTEX
  5
F9
330
F8
100
AcDbEntity
  8
_U+30EC_U+30A4_U+30E4_U+30FC 1
370
     0
100
AcDbVertex
100
AcDb2dVertex
 10
121.8309787021812
 20
-154.9924343145505
 30
0.0
  0
VERTEX
  5
FA
330
F8
100
AcDbEntity
  8
_U+30EC_U+30A4_U+30E4_U+30FC 1
370
     0
100
AcDbVertex
100
AcDb2dVertex
 10
122.4869248825727
 20
-155.3820746139323
 30
0.0
  0
VERTEX
  5
FB
330
F8
100
AcDbEntity
  8
_U+30EC_U+30A4_U+30E4_U+30FC 1
370
     0
100
AcDbVertex
100
AcDb2dVertex
 10
122.4869248825727
 20
-154.9924343145505
 30
0.0
  0
VERTEX
  5
FC
330
F8
100
AcDbEntity
  8
_U+30EC_U+30A4_U+30E4_U+30FC 1
370
     0
100
AcDbVertex
100
AcDb2dVertex
 10
121.8309787021812
 20
-154.9924343145505
 30
0.0
  0
SEQEND
  5
FD
330
F8
100
AcDbEntity
  8
_U+30EC_U+30A4_U+30E4_U+30FC 1
370
     0
  0
HATCH
  5
FE
330
DB
100
AcDbEntity
  8
_U+30EC_U+30A4_U+30E4_U+30FC 1
 62
   179
420
  2234388
100
AcDbHatch
 10
0.0
 20
0.0
 30
0.0
210
0.0
220
0.0
230
1.0
  2
SOLID
 70
     1
 71
     0
 91
        2
 92
        1
 93
       11
 72
     1
 10
122.6857068920716
 20
-154.8067436678955
 11
123.0326280074363
 21
-154.8067436678955
 72
     1
 10
123.0326280074363
 20
-154.8067436678955
 11
123.0326280074363
 21
-154.9924343145505
 72
     1
 10
123.0326280074363
 20
-154.9924343145505
 11
122.6857068920716
 21
-154.9924343145505
 72
     1
 10
122.6857068920716
 20
-154.9924343145505
 11
122.6857068920716
 21
-155.5515733118065
 72
     1
 10
122.6857068920716
 20
-155.5515733118065
 11
122.4614311759819
 21
-155.5515733118065
 72
     1
 10
122.4614311759819
 20
-155.5515733118065
 11
121.4881917013988
 21
-154.9727972702846
 72
     1
 10
121.4881917013988
 20
-154.9727972702846
 11
121.4881917013988
 21
-154.8067436678955
 72
     1
 10
121.4881917013988
 20
-154.8067436678955
 11
122.4869248825727
 21
-154.8067436678955
 72
     1
 10
122.4869248825727
 20
-154.8067436678955
 11
122.4869248825727
 21
-154.6300102695022
 72
     1
 10
122.4869248825727
 20
-154.6300102695022
 11
122.6857068920716
 21
-154.6300102695022
 72
     1
 10
122.6857068920716
 20
-154.6300102695022
 11
122.6857068920716
 21
-154.8067436678955
 97
        0
 92
        1
 93
        3
 72
     1
 10
121.8309787021812
 20
-154.9924343145505
 11
122.4869248825727
 21
-155.3820746139323
 72
     1
 10
122.4869248825727
 20
-155.3820746139323
 11
122.4869248825727
 21
-154.9924343145505
 72
     1
 10
122.4869248825727
 20
-154.9924343145505
 11
121.8309787021812
 21
-154.9924343145505
 97
        0
 75
     2
 76
     1
 98
        0
  0
ENDBLK
  5
DE
330
DB
100
AcDbEntity
  8
0
100
AcDbBlockEnd
  0
ENDSEC
  0
SECTION
  2
ENTITIES
  0
INSERT
  5
42
330
1F
100
AcDbEntity
  8
_U+30EC_U+30A4_U+30E4_U+30FC 1
100
AcDbBlockReference
  2
block 2
 10
0.0
 20
0.0
 30
0.0
  0
SPLINE
  5
65
330
1F
100
AcDbEntity
  8
_U+30EC_U+30A4_U+30E4_U+30FC 1
 62
   179
420
  2234388
370
     9
100
AcDbSpline
210
0.0
220
0.0
230
1.0
 70
    11
 71
     3
 72
    17
 73
    13
 74
     0
 42
0.0000000001
 43
0.0000000001
 12
1.0
 22
0.0
 32
0.0
 13
1.0
 23
0.0
 33
0.0
 40
0.0
 40
0.0
 40
0.0
 40
0.0
 40
1.0
 40
1.0
 40
1.0
 40
2.0
 40
2.0
 40
2.0
 40
3.0
 40
3.0
 40
3.0
 40
4.0
 40
4.0
 40
4.0
 40
4.0
 10
119.7212036123243
 20
-142.8481182976215
 30
0.0
 10
119.7212036123243
 20
-142.7923088531907
 30
0.0
 10
119.6764008356895
 20
-142.7482116309795
 30
0.0
 10
119.6212999700949
 20
-142.7482116309795
 30
0.0
 10
119.5661577829465
 20
-142.7482116309795
 30
0.0
 10
119.5213902840886
 20
-142.7923088531907
 30
0.0
 10
119.5213902840886
 20
-142.8481182976215
 30
0.0
 10
119.5213902840886
 20
-142.9032574642742
 30
0.0
 10
119.5661577829465
 20
-142.9480249642631
 30
0.0
 10
119.6212999700949
 20
-142.9480249642631
 30
0.0
 10
119.6764008356895
 20
-142.9480249642631
 30
0.0
 10
119.7212036123243
 20
-142.9032574642742
 30
0.0
 10
119.7212036123243
 20
-142.8481182976215
 30
0.0
  0
SPLINE
  5
66
330
1F
100
AcDbEntity
  8
_U+30EC_U+30A4_U+30E4_U+30FC 1
 62
   179
420
  2234388
370
     9
100
AcDbSpline
210
0.0
220
0.0
230
1.0
 70
    11
 71
     3
 72
    17
 73
    13
 74
     0
 42
0.0000000001
 43
0.0000000001
 12
1.0
 22
0.0
 32
0.0
 13
1.0
 23
0.0
 33
0.0
 40
0.0
 40
0.0
 40
0.0
 40
0.0
 40
1.0
 40
1.0
 40
1.0
 40
2.0
 40
2.0
 40
2.0
 40
3.0
 40
3.0
 40
3.0
 40
4.0
 40
4.0
 40
4.0
 40
4.0
 10
119.7212036123243
 20
-155.3483049611632
 30
0.0
 10
119.7212036123243
 20
-155.2924955167321
 30
0.0
 10
119.6764008356895
 20
-155.2477280167436
 30
0.0
 10
119.6212999700949
 20
-155.2477280167436
 30
0.0
 10
119.5661577829465
 20
-155.2477280167436
 30
0.0
 10
119.5213902840886
 20
-155.2924955167321
 30
0.0
 10
119.5213902840886
 20
-155.3483049611632
 30
0.0
 10
119.5213902840886
 20
-155.4034441278156
 30
0.0
 10
119.5661577829465
 20
-155.4482116278049
 30
0.0
 10
119.6212999700949
 20
-155.4482116278049
 30
0.0
 10
119.6764008356895
 20
-155.4482116278049
 30
0.0
 10
119.7212036123243
 20
-155.4034441278156
 30
0.0
 10
119.7212036123243
 20
-155.3483049611632
 30
0.0
  0
SPLINE
  5
67
330
1F
100
AcDbEntity
  8
_U+30EC_U+30A4_U+30E4_U+30FC 1
 62
   179
420
  2234388
370
     9
100
AcDbSpline
210
0.0
220
0.0
230
1.0
 70
    11
 71
     3
 72
    17
 73
    13
 74
     0
 42
0.0000000001
 43
0.0000000001
 12
1.0
 22
0.0
 32
0.0
 13
1.0
 23
0.0
 33
0.0
 40
0.0
 40
0.0
 40
0.0
 40
0.0
 40
1.0
 40
1.0
 40
1.0
 40
2.0
 40
2.0
 40
2.0
 40
3.0
 40
3.0
 40
3.0
 40
4.0
 40
4.0
 40
4.0
 40
4.0
 10
119.7212036123243
 20
-155.7479316277298
 30
0.0
 10
119.7212036123243
 20
-155.6928277388548
 30
0.0
 10
119.6764008356895
 20
-155.6480249610881
 30
0.0
 10
119.6212999700949
 20
-155.6480249610881
 30
0.0
 10
119.5661577829465
 20
-155.6480249610881
 30
0.0
 10
119.5213902840886
 20
-155.6928277388548
 30
0.0
 10
119.5213902840886
 20
-155.7479316277298
 30
0.0
 10
119.5213902840886
 20
-155.8030707943828
 30
0.0
 10
119.5661577829465
 20
-155.8478382943714
 30
0.0
 10
119.6212999700949
 20
-155.8478382943714
 30
0.0
 10
119.6764008356895
 20
-155.8478382943714
 30
0.0
 10
119.7212036123243
 20
-155.8030707943828
 30
0.0
 10
119.7212036123243
 20
-155.7479316277298
 30
0.0
  0
SPLINE
  5
68
330
1F
100
AcDbEntity
  8
_U+30EC_U+30A4_U+30E4_U+30FC 1
 62
   179
420
  2234388
370
     9
100
AcDbSpline
210
0.0
220
0.0
230
1.0
 70
    11
 71
     3
 72
    17
 73
    13
 74
     0
 42
0.0000000001
 43
0.0000000001
 12
1.0
 22
0.0
 32
0.0
 13
1.0
 23
0.0
 33
0.0
 40
0.0
 40
0.0
 40
0.0
 40
0.0
 40
1.0
 40
1.0
 40
1.0
 40
2.0
 40
2.0
 40
2.0
 40
3.0
 40
3.0
 40
3.0
 40
4.0
 40
4.0
 40
4.0
 40
4.0
 10
115.7214445477
 20
-160.4477430154436
 30
0.0
 10
115.7214445477
 20
-160.3926391265687
 30
0.0
 10
115.6766417710652
 20
-160.347836348802
 30
0.0
 10
115.6215378835821
 20
-160.347836348802
 30
0.0
 10
115.5657284405615
 20
-160.347836348802
 30
0.0
 10
115.5209256639268
 20
-160.3926391265687
 30
0.0
 10
115.5209256639268
 20
-160.4477430154436
 30
0.0
 10
115.5209256639268
 20
-160.5028821820967
 30
0.0
 10
115.5657284405615
 20
-160.5476496820853
 30
0.0
 10
115.6215378835821
 20
-160.5476496820853
 30
0.0
 10
115.6766417710652
 20
-160.5476496820853
 30
0.0
 10
115.7214445477
 20
-160.5028821820967
 30
0.0
 10
115.7214445477
 20
-160.4477430154436
 30
0.0
  0
SPLINE
  5
69
330
1F
100
AcDbEntity
  8
_U+30EC_U+30A4_U+30E4_U+30FC 1
 62
   179
420
  2234388
370
     9
100
AcDbSpline
210
0.0
220
0.0
230
1.0
 70
    11
 71
     3
 72
    17
 73
    13
 74
     0
 42
0.0000000001
 43
0.0000000001
 12
1.0
 22
0.0
 32
0.0
 13
1.0
 23
0.0
 33
0.0
 40
0.0
 40
0.0
 40
0.0
 40
0.0
 40
1.0
 40
1.0
 40
1.0
 40
2.0
 40
2.0
 40
2.0
 40
3.0
 40
3.0
 40
3.0
 40
4.0
 40
4.0
 40
4.0
 40
4.0
 10
92.72146291225619
 20
-160.4477430154436
 30
0.0
 10
92.72146291225619
 20
-160.3926391265687
 30
0.0
 10
92.6766954133983
 20
-160.347836348802
 30
0.0
 10
92.62155624813835
 20
-160.347836348802
 30
0.0
 10
92.56574680511773
 20
-160.347836348802
 30
0.0
 10
92.52164958402051
 20
-160.3926391265687
 30
0.0
 10
92.52164958402051
 20
-160.4477430154436
 30
0.0
 10
92.52164958402051
 20
-160.5028821820967
 30
0.0
 10
92.56574680511773
 20
-160.5476496820853
 30
0.0
 10
92.62155624813835
 20
-160.5476496820853
 30
0.0
 10
92.6766954133983
 20
-160.5476496820853
 30
0.0
 10
92.72146291225619
 20
-160.5028821820967
 30
0.0
 10
92.72146291225619
 20
-160.4477430154436
 30
0.0
  0
SPLINE
  5
6A
330
1F
100
AcDbEntity
  8
_U+30EC_U+30A4_U+30E4_U+30FC 1
 62
   179
420
  2234388
370
     9
100
AcDbSpline
210
0.0
220
0.0
230
1.0
 70
    11
 71
     3
 72
    17
 73
    13
 74
     0
 42
0.0000000001
 43
0.0000000001
 12
1.0
 22
0.0
 32
0.0
 13
1.0
 23
0.0
 33
0.0
 40
0.0
 40
0.0
 40
0.0
 40
0.0
 40
1.0
 40
1.0
 40
1.0
 40
2.0
 40
2.0
 40
2.0
 40
3.0
 40
3.0
 40
3.0
 40
4.0
 40
4.0
 40
4.0
 40
4.0
 10
88.72138634763998
 20
-142.8481182976215
 30
0.0
 10
88.72138634763998
 20
-142.7923088531907
 30
0.0
 10
88.67658357100521
 20
-142.7482116309795
 30
0.0
 10
88.62144440574527
 20
-142.7482116309795
 30
0.0
 10
88.56598774049341
 20
-142.7482116309795
 30
0.0
 10
88.52122024163553
 20
-142.7923088531907
 30
0.0
 10
88.52122024163553
 20
-142.8481182976215
 30
0.0
 10
88.52122024163553
 20
-142.9032574642742
 30
0.0
 10
88.56598774049341
 20
-142.9480249642631
 30
0.0
 10
88.62144440574527
 20
-142.9480249642631
 30
0.0
 10
88.67658357100521
 20
-142.9480249642631
 30
0.0
 10
88.72138634763998
 20
-142.9032574642742
 30
0.0
 10
88.72138634763998
 20
-142.8481182976215
 30
0.0
  0
SPLINE
  5
6B
330
1F
100
AcDbEntity
  8
_U+30EC_U+30A4_U+30E4_U+30FC 1
 62
   179
420
  2234388
370
     9
100
AcDbSpline
210
0.0
220
0.0
230
1.0
 70
    11
 71
     3
 72
    17
 73
    13
 74
     0
 42
0.0000000001
 43
0.0000000001
 12
1.0
 22
0.0
 32
0.0
 13
1.0
 23
0.0
 33
0.0
 40
0.0
 40
0.0
 40
0.0
 40
0.0
 40
1.0
 40
1.0
 40
1.0
 40
2.0
 40
2.0
 40
2.0
 40
3.0
 40
3.0
 40
3.0
 40
4.0
 40
4.0
 40
4.0
 40
4.0
 10
88.72138634763998
 20
-143.8477141307048
 30
0.0
 10
88.72138634763998
 20
-143.7926102418296
 30
0.0
 10
88.67658357100521
 20
-143.7478074640632
 30
0.0
 10
88.62144440574527
 20
-143.7478074640632
 30
0.0
 10
88.56598774049341
 20
-143.7478074640632
 30
0.0
 10
88.52122024163553
 20
-143.7926102418296
 30
0.0
 10
88.52122024163553
 20
-143.8477141307048
 30
0.0
 10
88.52122024163553
 20
-143.9028532973576
 30
0.0
 10
88.56598774049341
 20
-143.9476207973464
 30
0.0
 10
88.62144440574527
 20
-143.9476207973464
 30
0.0
 10
88.67658357100521
 20
-143.9476207973464
 30
0.0
 10
88.72138634763998
 20
-143.9028532973576
 30
0.0
 10
88.72138634763998
 20
-143.8477141307048
 30
0.0
  0
SPLINE
  5
6C
330
1F
100
AcDbEntity
  8
_U+30EC_U+30A4_U+30E4_U+30FC 1
 62
   179
420
  2234388
370
     9
100
AcDbSpline
210
0.0
220
0.0
230
1.0
 70
    11
 71
     3
 72
    17
 73
    13
 74
     0
 42
0.0000000001
 43
0.0000000001
 12
1.0
 22
0.0
 32
0.0
 13
1.0
 23
0.0
 33
0.0
 40
0.0
 40
0.0
 40
0.0
 40
0.0
 40
1.0
 40
1.0
 40
1.0
 40
2.0
 40
2.0
 40
2.0
 40
3.0
 40
3.0
 40
3.0
 40
4.0
 40
4.0
 40
4.0
 40
4.0
 10
98.721436648073
 20
-160.4477430154436
 30
0.0
 10
98.721436648073
 20
-160.3926391265687
 30
0.0
 10
98.6766691492151
 20
-160.347836348802
 30
0.0
 10
98.62152998395516
 20
-160.347836348802
 30
0.0
 10
98.56642609647209
 20
-160.347836348802
 30
0.0
 10
98.52162331983732
 20
-160.3926391265687
 30
0.0
 10
98.52162331983732
 20
-160.4477430154436
 30
0.0
 10
98.52162331983732
 20
-160.5028821820967
 30
0.0
 10
98.56642609647209
 20
-160.5476496820853
 30
0.0
 10
98.62152998395516
 20
-160.5476496820853
 30
0.0
 10
98.6766691492151
 20
-160.5476496820853
 30
0.0
 10
98.721436648073
 20
-160.5028821820967
 30
0.0
 10
98.721436648073
 20
-160.4477430154436
 30
0.0
  0
POLYLINE
  5
6D
330
1F
100
AcDbEntity
  8
_U+30EC_U+30A4_U+30E4_U+30FC 1
 62
   179
420
  2234388
370
     9
100
AcDb2dPolyline
 66
     1
 10
0.0
 20
0.0
 30
0.0
  0
VERTEX
  5
6E
330
6D
100
AcDbEntity
  8
_U+30EC_U+30A4_U+30E4_U+30FC 1
 62
   179
420
  2234388
370
     9
100
AcDbVertex
100
AcDb2dVertex
 10
92.62155624813835
 20
-160.4477430154436
 30
0.0
  0
VERTEX
  5
6F
330
6D
100
AcDbEntity
  8
_U+30EC_U+30A4_U+30E4_U+30FC 1
 62
   179
420
  2234388
370
     9
100
AcDbVertex
100
AcDb2dVertex
 10
98.62152998395516
 20
-160.4477430154436
 30
0.0
  0
SEQEND
  5
70
330
6D
100
AcDbEntity
  8
_U+30EC_U+30A4_U+30E4_U+30FC 1
 62
   179
420
  2234388
370
     9
  0
POLYLINE
  5
71
330
1F
100
AcDbEntity
  8
_U+30EC_U+30A4_U+30E4_U+30FC 1
 62
   179
420
  2234388
370
     9
100
AcDb2dPolyline
 66
     1
 10
0.0
 20
0.0
 30
0.0
  0
VERTEX
  5
72
330
71
100
AcDbEntity
  8
_U+30EC_U+30A4_U+30E4_U+30FC 1
 62
   179
420
  2234388
370
     9
100
AcDbVertex
100
AcDb2dVertex
 10
92.62155624813835
 20
-146.4882205189334
 30
0.0
  0
VERTEX
  5
73
330
71
100
AcDbEntity
  8
_U+30EC_U+30A4_U+30E4_U+30FC 1
 62
   179
420
  2234388
370
     9
100
AcDbVertex
100
AcDb2dVertex
 10
92.62155624813835
 20
-161.4481855151935
 30
0.0
  0
SEQEND
  5
74
330
71
100
AcDbEntity
  8
_U+30EC_U+30A4_U+30E4_U+30FC 1
 62
   179
420
  2234388
370
     9
  0
POLYLINE
  5
75
330
1F
100
AcDbEntity
  8
_U+30EC_U+30A4_U+30E4_U+30FC 1
 62
   179
420
  2234388
370
     9
100
AcDb2dPolyline
 66
     1
 10
0.0
 20
0.0
 30
0.0
  0
VERTEX
  5
76
330
75
100
AcDbEntity
  8
_U+30EC_U+30A4_U+30E4_U+30FC 1
 62
   179
420
  2234388
370
     9
100
AcDbVertex
100
AcDb2dVertex
 10
98.62152998395516
 20
-158.9877016269199
 30
0.0
  0
VERTEX
  5
77
330
75
100
AcDbEntity
  8
_U+30EC_U+30A4_U+30E4_U+30FC 1
 62
   179
420
  2234388
370
     9
100
AcDbVertex
100
AcDb2dVertex
 10
98.62152998395516
 20
-161.4481855151935
 30
0.0
  0
SEQEND
  5
78
330
75
100
AcDbEntity
  8
_U+30EC_U+30A4_U+30E4_U+30FC 1
 62
   179
420
  2234388
370
     9
  0
INSERT
  5
7A
330
1F
100
AcDbEntity
  8
_U+30EC_U+30A4_U+30E4_U+30FC 1
100
AcDbBlockReference
  2
block 3
 10
0.0
 20
0.0
 30
0.0
  0
POLYLINE
  5
80
330
1F
100
AcDbEntity
  8
_U+30EC_U+30A4_U+30E4_U+30FC 1
 62
   179
420
  2234388
370
     9
100
AcDb2dPolyline
 66
     1
 10
0.0
 20
0.0
 30
0.0
  0
VERTEX
  5
81
330
80
100
AcDbEntity
  8
_U+30EC_U+30A4_U+30E4_U+30FC 1
 62
   179
420
  2234388
370
     9
100
AcDbVertex
100
AcDb2dVertex
 10
98.62152998395516
 20
-160.4477430154436
 30
0.0
  0
VERTEX
  5
82
330
80
100
AcDbEntity
  8
_U+30EC_U+30A4_U+30E4_U+30FC 1
 62
   179
420
  2234388
370
     9
100
AcDbVertex
100
AcDb2dVertex
 10
115.6215378835821
 20
-160.4477430154436
 30
0.0
  0
SEQEND
  5
83
330
80
100
AcDbEntity
  8
_U+30EC_U+30A4_U+30E4_U+30FC 1
 62
   179
420
  2234388
370
     9
  0
POLYLINE
  5
84
330
1F
100
AcDbEntity
  8
_U+30EC_U+30A4_U+30E4_U+30FC 1
 62
   179
420
  2234388
370
     9
100
AcDb2dPolyline
 66
     1
 10
0.0
 20
0.0
 30
0.0
  0
VERTEX
  5
85
330
84
100
AcDbEntity
  8
_U+30EC_U+30A4_U+30E4_U+30FC 1
 62
   179
420
  2234388
370
     9
100
AcDbVertex
100
AcDb2dVertex
 10
115.6215378835821
 20
-158.2876846826505
 30
0.0
  0
VERTEX
  5
86
330
84
100
AcDbEntity
  8
_U+30EC_U+30A4_U+30E4_U+30FC 1
 62
   179
420
  2234388
370
     9
100
AcDbVertex
100
AcDb2dVertex
 10
115.6215378835821
 20
-161.4481855151935
 30
0.0
  0
SEQEND
  5
87
330
84
100
AcDbEntity
  8
_U+30EC_U+30A4_U+30E4_U+30FC 1
 62
   179
420
  2234388
370
     9
  0
INSERT
  5
89
330
1F
100
AcDbEntity
  8
_U+30EC_U+30A4_U+30E4_U+30FC 1
100
AcDbBlockReference
  2
block 4
 10
0.0
 20
0.0
 30
0.0
  0
POLYLINE
  5
90
330
1F
100
AcDbEntity
  8
_U+30EC_U+30A4_U+30E4_U+30FC 1
 62
   179
420
  2234388
370
     9
100
AcDb2dPolyline
 66
     1
 10
0.0
 20
0.0
 30
0.0
  0
VERTEX
  5
91
330
90
100
AcDbEntity
  8
_U+30EC_U+30A4_U+30E4_U+30FC 1
 62
   179
420
  2234388
370
     9
100
AcDbVertex
100
AcDb2dVertex
 10
88.62144440574527
 20
-142.8481182976215
 30
0.0
  0
VERTEX
  5
92
330
90
100
AcDbEntity
  8
_U+30EC_U+30A4_U+30E4_U+30FC 1
 62
   179
420
  2234388
370
     9
100
AcDbVertex
100
AcDb2dVertex
 10
88.62144440574527
 20
-141.8476757978716
 30
0.0
  0
SEQEND
  5
93
330
90
100
AcDbEntity
  8
_U+30EC_U+30A4_U+30E4_U+30FC 1
 62
   179
420
  2234388
370
     9
  0
POLYLINE
  5
94
330
1F
100
AcDbEntity
  8
_U+30EC_U+30A4_U+30E4_U+30FC 1
 62
   179
420
  2234388
370
     9
100
AcDb2dPolyline
 66
     1
 10
0.0
 20
0.0
 30
0.0
  0
VERTEX
  5
95
330
94
100
AcDbEntity
  8
_U+30EC_U+30A4_U+30E4_U+30FC 1
 62
   179
420
  2234388
370
     9
100
AcDbVertex
100
AcDb2dVertex
 10
88.62144440574527
 20
-142.8481182976215
 30
0.0
  0
VERTEX
  5
96
330
94
100
AcDbEntity
  8
_U+30EC_U+30A4_U+30E4_U+30FC 1
 62
   179
420
  2234388
370
     9
100
AcDbVertex
100
AcDb2dVertex
 10
88.62144440574527
 20
-144.847486352677
 30
0.0
  0
SEQEND
  5
97
330
94
100
AcDbEntity
  8
_U+30EC_U+30A4_U+30E4_U+30FC 1
 62
   179
420
  2234388
370
     9
  0
POLYLINE
  5
98
330
1F
100
AcDbEntity
  8
_U+30EC_U+30A4_U+30E4_U+30FC 1
 62
   179
420
  2234388
370
     9
100
AcDb2dPolyline
 66
     1
 10
0.0
 20
0.0
 30
0.0
  0
VERTEX
  5
99
330
98
100
AcDbEntity
  8
_U+30EC_U+30A4_U+30E4_U+30FC 1
 62
   179
420
  2234388
370
     9
100
AcDbVertex
100
AcDb2dVertex
 10
90.08113297961661
 20
-142.8481182976215
 30
0.0
  0
VERTEX
  5
9A
330
98
100
AcDbEntity
  8
_U+30EC_U+30A4_U+30E4_U+30FC 1
 62
   179
420
  2234388
370
     9
100
AcDbVertex
100
AcDb2dVertex
 10
87.62135470903745
 20
-142.8481182976215
 30
0.0
  0
SEQEND
  5
9B
330
98
100
AcDbEntity
  8
_U+30EC_U+30A4_U+30E4_U+30FC 1
 62
   179
420
  2234388
370
     9
  0
POLYLINE
  5
9C
330
1F
100
AcDbEntity
  8
_U+30EC_U+30A4_U+30E4_U+30FC 1
 62
   179
420
  2234388
370
     9
100
AcDb2dPolyline
 66
     1
 10
0.0
 20
0.0
 30
0.0
  0
VERTEX
  5
9D
330
9C
100
AcDbEntity
  8
_U+30EC_U+30A4_U+30E4_U+30FC 1
 62
   179
420
  2234388
370
     9
100
AcDbVertex
100
AcDb2dVertex
 10
90.08113297961661
 20
-143.8477141307048
 30
0.0
  0
VERTEX
  5
9E
330
9C
100
AcDbEntity
  8
_U+30EC_U+30A4_U+30E4_U+30FC 1
 62
   179
420
  2234388
370
     9
100
AcDbVertex
100
AcDb2dVertex
 10
87.62135470903745
 20
-143.8477141307048
 30
0.0
  0
SEQEND
  5
9F
330
9C
100
AcDbEntity
  8
_U+30EC_U+30A4_U+30E4_U+30FC 1
 62
   179
420
  2234388
370
     9
  0
INSERT
  5
A1
330
1F
100
AcDbEntity
  8
_U+30EC_U+30A4_U+30E4_U+30FC 1
100
AcDbBlockReference
  2
block 5
 10
0.0
 20
0.0
 30
0.0
  0
POLYLINE
  5
B1
330
1F
100
AcDbEntity
  8
_U+30EC_U+30A4_U+30E4_U+30FC 1
 62
   179
420
  2234388
370
     9
100
AcDb2dPolyline
 66
     1
 10
0.0
 20
0.0
 30
0.0
  0
VERTEX
  5
B2
330
B1
100
AcDbEntity
  8
_U+30EC_U+30A4_U+30E4_U+30FC 1
 62
   179
420
  2234388
370
     9
100
AcDbVertex
100
AcDb2dVertex
 10
119.6212999700949
 20
-142.8481182976215
 30
0.0
  0
VERTEX
  5
B3
330
B1
100
AcDbEntity
  8
_U+30EC_U+30A4_U+30E4_U+30FC 1
 62
   179
420
  2234388
370
     9
100
AcDbVertex
100
AcDb2dVertex
 10
119.6212999700949
 20
-155.3483049611632
 30
0.0
  0
SEQEND
  5
B4
330
B1
100
AcDbEntity
  8
_U+30EC_U+30A4_U+30E4_U+30FC 1
 62
   179
420
  2234388
370
     9
  0
POLYLINE
  5
B5
330
1F
100
AcDbEntity
  8
_U+30EC_U+30A4_U+30E4_U+30FC 1
 62
   179
420
  2234388
370
     9
100
AcDb2dPolyline
 66
     1
 10
0.0
 20
0.0
 30
0.0
  0
VERTEX
  5
B6
330
B5
100
AcDbEntity
  8
_U+30EC_U+30A4_U+30E4_U+30FC 1
 62
   179
420
  2234388
370
     9
100
AcDbVertex
100
AcDb2dVertex
 10
102.2616321133106
 20
-142.8481182976215
 30
0.0
  0
VERTEX
  5
B7
330
B5
100
AcDbEntity
  8
_U+30EC_U+30A4_U+30E4_U+30FC 1
 62
   179
420
  2234388
370
     9
100
AcDbVertex
100
AcDb2dVertex
 10
120.6210721920668
 20
-142.8481182976215
 30
0.0
  0
SEQEND
  5
B8
330
B5
100
AcDbEntity
  8
_U+30EC_U+30A4_U+30E4_U+30FC 1
 62
   179
420
  2234388
370
     9
  0
POLYLINE
  5
B9
330
1F
100
AcDbEntity
  8
_U+30EC_U+30A4_U+30E4_U+30FC 1
 62
   179
420
  2234388
370
     9
100
AcDb2dPolyline
 66
     1
 10
0.0
 20
0.0
 30
0.0
  0
VERTEX
  5
BA
330
B9
100
AcDbEntity
  8
_U+30EC_U+30A4_U+30E4_U+30FC 1
 62
   179
420
  2234388
370
     9
100
AcDbVertex
100
AcDb2dVertex
 10
118.1612555965663
 20
-155.3483049611632
 30
0.0
  0
VERTEX
  5
BB
330
B9
100
AcDbEntity
  8
_U+30EC_U+30A4_U+30E4_U+30FC 1
 62
   179
420
  2234388
370
     9
100
AcDbVertex
100
AcDb2dVertex
 10
120.6210721920668
 20
-155.3483049611632
 30
0.0
  0
SEQEND
  5
BC
330
B9
100
AcDbEntity
  8
_U+30EC_U+30A4_U+30E4_U+30FC 1
 62
   179
420
  2234388
370
     9
  0
INSERT
  5
BE
330
1F
100
AcDbEntity
  8
_U+30EC_U+30A4_U+30E4_U+30FC 1
100
AcDbBlockReference
  2
block 6
 10
0.0
 20
0.0
 30
0.0
  0
POLYLINE
  5
CF
330
1F
100
AcDbEntity
  8
_U+30EC_U+30A4_U+30E4_U+30FC 1
 62
   179
420
  2234388
370
     9
100
AcDb2dPolyline
 66
     1
 10
0.0
 20
0.0
 30
0.0
  0
VERTEX
  5
D0
330
CF
100
AcDbEntity
  8
_U+30EC_U+30A4_U+30E4_U+30FC 1
 62
   179
420
  2234388
370
     9
100
AcDbVertex
100
AcDb2dVertex
 10
119.6212999700949
 20
-155.7479316277298
 30
0.0
  0
VERTEX
  5
D1
330
CF
100
AcDbEntity
  8
_U+30EC_U+30A4_U+30E4_U+30FC 1
 62
   179
420
  2234388
370
     9
100
AcDbVertex
100
AcDb2dVertex
 10
119.6212999700949
 20
-156.7477038497017
 30
0.0
  0
SEQEND
  5
D2
330
CF
100
AcDbEntity
  8
_U+30EC_U+30A4_U+30E4_U+30FC 1
 62
   179
420
  2234388
370
     9
  0
POLYLINE
  5
D3
330
1F
100
AcDbEntity
  8
_U+30EC_U+30A4_U+30E4_U+30FC 1
 62
   179
420
  2234388
370
     9
100
AcDb2dPolyline
 66
     1
 10
0.0
 20
0.0
 30
0.0
  0
VERTEX
  5
D4
330
D3
100
AcDbEntity
  8
_U+30EC_U+30A4_U+30E4_U+30FC 1
 62
   179
420
  2234388
370
     9
100
AcDbVertex
100
AcDb2dVertex
 10
119.6212999700949
 20
-155.3483049611632
 30
0.0
  0
VERTEX
  5
D5
330
D3
100
AcDbEntity
  8
_U+30EC_U+30A4_U+30E4_U+30FC 1
 62
   179
420
  2234388
370
     9
100
AcDbVertex
100
AcDb2dVertex
 10
119.6212999700949
 20
-155.7479316277298
 30
0.0
  0
SEQEND
  5
D6
330
D3
100
AcDbEntity
  8
_U+30EC_U+30A4_U+30E4_U+30FC 1
 62
   179
420
  2234388
370
     9
  0
POLYLINE
  5
D7
330
1F
100
AcDbEntity
  8
_U+30EC_U+30A4_U+30E4_U+30FC 1
 62
   179
420
  2234388
370
     9
100
AcDb2dPolyline
 66
     1
 10
0.0
 20
0.0
 30
0.0
  0
VERTEX
  5
D8
330
D7
100
AcDbEntity
  8
_U+30EC_U+30A4_U+30E4_U+30FC 1
 62
   179
420
  2234388
370
     9
100
AcDbVertex
100
AcDb2dVertex
 10
118.1612555965663
 20
-155.7479316277298
 30
0.0
  0
VERTEX
  5
D9
330
D7
100
AcDbEntity
  8
_U+30EC_U+30A4_U+30E4_U+30FC 1
 62
   179
420
  2234388
370
     9
100
AcDbVertex
100
AcDb2dVertex
 10
120.6210721920668
 20
-155.7479316277298
 30
0.0
  0
SEQEND
  5
DA
330
D7
100
AcDbEntity
  8
_U+30EC_U+30A4_U+30E4_U+30FC 1
 62
   179
420
  2234388
370
     9
  0
INSERT
  5
DC
330
1F
100
AcDbEntity
  8
_U+30EC_U+30A4_U+30E4_U+30FC 1
100
AcDbBlockReference
  2
block 7
 10
0.0
 20
0.0
 30
0.0
  0
ENDSEC
  0
SECTION
  2
OBJECTS
  0
DICTIONARY
  5
C
330
0
100
AcDbDictionary
281
     1
  3
ACAD_GROUP
350
D
  3
ACAD_LAYOUT
350
1A
  3
ACAD_MATERIAL
350
3B
  3
ACAD_MLEADERSTYLE
350
100
  3
ACAD_MLINESTYLE
350
17
  3
ACAD_PLOTSETTINGS
350
19
  3
ACAD_PLOTSTYLENAME
350
E
  3
ACAD_TABLESTYLE
350
FF
  3
ACAD_VISUALSTYLE
350
2A
  0
SUN
  5
3F
330
29
100
AcDbSun
 90
        1
290
     0
 63
     7
421
 16777215
 40
1.0
291
     1
 91
  2455826
 92
 54000000
292
     0
 70
     2
 71
   256
280
     1
  0
DICTIONARY
  5
D
102
{ACAD_REACTORS
330
C
102
}
330
C
100
AcDbDictionary
281
     1
  0
DICTIONARY
  5
1A
102
{ACAD_REACTORS
330
C
102
}
330
C
100
AcDbDictionary
281
     1
  3
Layout1
350
1E
  3
Layout2
350
26
  3
Model
350
22
  0
DICTIONARY
  5
3B
102
{ACAD_REACTORS
330
C
102
}
330
C
100
AcDbDictionary
281
     1
  3
ByBlock
350
3D
  3
ByLayer
350
3C
  3
Global
350
3E
  0
DICTIONARY
  5
100
102
{ACAD_REACTORS
330
C
102
}
330
C
100
AcDbDictionary
281
     1
  0
DICTIONARY
  5
17
102
{ACAD_REACTORS
330
C
102
}
330
C
100
AcDbDictionary
281
     1
  3
Standard
350
18
  0
DICTIONARY
  5
19
102
{ACAD_REACTORS
330
C
102
}
330
C
100
AcDbDictionary
281
     1
  0
ACDBDICTIONARYWDFLT
  5
E
102
{ACAD_REACTORS
330
C
102
}
330
C
100
AcDbDictionary
281
     1
  3
Normal
350
F
100
AcDbDictionaryWithDefault
340
F
  0
DICTIONARY
  5
FF
102
{ACAD_REACTORS
330
C
102
}
330
C
100
AcDbDictionary
281
     1
  0
DICTIONARY
  5
2A
102
{ACAD_REACTORS
330
C
102
}
330
C
100
AcDbDictionary
281
     1
  3
2dWireframe
350
2F
  3
3D Hidden
350
31
  3
3dWireframe
350
30
  3
Basic
350
32
  3
Brighten
350
36
  3
ColorChange
350
3A
  3
Conceptual
350
34
  3
Dim
350
35
  3
Facepattern
350
39
  3
Flat
350
2B
  3
FlatWithEdges
350
2C
  3
Gouraud
350
2D
  3
GouraudWithEdges
350
2E
  3
Linepattern
350
38
  3
Realistic
350
33
  3
Thicken
350
37
  0
LAYOUT
  5
1E
102
{ACAD_REACTORS
330
1A
102
}
330
1A
100
AcDbPlotSettings
  1

  2
none_device
  4

  6

 40
0.0
 41
0.0
 42
0.0
 43
0.0
 44
0.0
 45
0.0
 46
0.0
 47
0.0
 48
0.0
 49
0.0
140
0.0
141
0.0
142
1.0
143
1.0
 70
   688
 72
     0
 73
     0
 74
     5
  7

 75
    16
 76
     0
 77
     2
 78
   300
147
1.0
148
0.0
149
0.0
100
AcDbLayout
  1
Layout1
 70
     1
 71
     1
 10
0.0
 20
0.0
 11
12.0
 21
9.0
 12
0.0
 22
0.0
 32
0.0
 14
1.000000000000000E+20
 24
1.000000000000000E+20
 34
1.000000000000000E+20
 15
-1.000000000000000E+20
 25
-1.000000000000000E+20
 35
-1.000000000000000E+20
146
0.0
 13
0.0
 23
0.0
 33
0.0
 16
1.0
 26
0.0
 36
0.0
 17
0.0
 27
1.0
 37
0.0
 76
     0
330
1B
  0
LAYOUT
  5
26
102
{ACAD_REACTORS
330
1A
102
}
330
1A
100
AcDbPlotSettings
  1

  2
none_device
  4

  6

 40
0.0
 41
0.0
 42
0.0
 43
0.0
 44
0.0
 45
0.0
 46
0.0
 47
0.0
 48
0.0
 49
0.0
140
0.0
141
0.0
142
1.0
143
1.0
 70
   688
 72
     0
 73
     0
 74
     5
  7

 75
    16
 76
     0
 77
     2
 78
   300
147
1.0
148
0.0
149
0.0
100
AcDbLayout
  1
Layout2
 70
     1
 71
     2
 10
0.0
 20
0.0
 11
0.0
 21
0.0
 12
0.0
 22
0.0
 32
0.0
 14
0.0
 24
0.0
 34
0.0
 15
0.0
 25
0.0
 35
0.0
146
0.0
 13
0.0
 23
0.0
 33
0.0
 16
1.0
 26
0.0
 36
0.0
 17
0.0
 27
1.0
 37
0.0
 76
     0
330
23
  0
LAYOUT
  5
22
102
{ACAD_REACTORS
330
1A
102
}
330
1A
100
AcDbPlotSettings
  1

  2
none_device
  4

  6

 40
0.0
 41
0.0
 42
0.0
 43
0.0
 44
0.0
 45
0.0
 46
0.0
 47
0.0
 48
0.0
 49
0.0
140
0.0
141
0.0
142
1.0
143
1.0
 70
  1712
 72
     0
 73
     0
 74
     0
  7

 75
     0
 76
     0
 77
     2
 78
   300
147
1.0
148
0.0
149
0.0
100
AcDbLayout
  1
Model
 70
     1
 71
     0
 10
0.0
 20
0.0
 11
12.0
 21
9.0
 12
0.0
 22
0.0
 32
0.0
 14
1.000000000000000E+20
 24
1.000000000000000E+20
 34
1.000000000000000E+20
 15
-1.000000000000000E+20
 25
-1.000000000000000E+20
 35
-1.000000000000000E+20
146
0.0
 13
0.0
 23
0.0
 33
0.0
 16
1.0
 26
0.0
 36
0.0
 17
0.0
 27
1.0
 37
0.0
 76
     0
330
1F
331
29
  0
MATERIAL
  5
3D
102
{ACAD_REACTORS
330
3B
102
}
330
3B
100
AcDbMaterial
  1
ByBlock
 72
     1
 94
      127
  0
MATERIAL
  5
3C
102
{ACAD_REACTORS
330
3B
102
}
330
3B
100
AcDbMaterial
  1
ByLayer
 72
     1
 94
      127
  0
MATERIAL
  5
3E
102
{ACAD_REACTORS
330
3B
102
}
330
3B
100
AcDbMaterial
  1
Global
 72
     1
 94
      127
  0
MLINESTYLE
  5
18
102
{ACAD_REACTORS
330
17
102
}
330
17
100
AcDbMlineStyle
  2
Standard
 70
     0
  3

 62
   256
 51
90.0
 52
90.0
 71
     2
 49
0.5
 62
   256
  6
BYLAYER
 49
-0.5
 62
   256
  6
BYLAYER
  0
ACDBPLACEHOLDER
  5
F
102
{ACAD_REACTORS
330
E
102
}
330
E
  0
VISUALSTYLE
  5
2F
102
{ACAD_REACTORS
330
2A
102
}
330
2A
100
AcDbVisualStyle
  2
2dWireframe
 70
     4
177
     2
291
     0
 71
     0
176
     1
 72
     2
176
     1
 73
     0
176
     1
 90
        0
176
     1
 40
-0.6
176
     1
 41
-30.0
176
     1
 62
     5
 63
     7
421
 16777215
176
     1
 74
     1
176
     1
 91
        4
176
     1
 64
     7
176
     1
 65
   257
176
     1
 75
     1
176
     1
175
     1
176
     1
 42
1.0
176
     1
 92
        0
176
     1
 66
   257
176
     1
 43
1.0
176
     1
 76
     1
176
     1
 77
     6
176
     1
 78
     2
176
     1
 67
     7
176
     1
 79
     5
176
     1
170
     0
176
     1
171
     0
176
     1
290
     0
176
     1
 93
        1
176
     1
 44
0.0
176
     1
173
     0
176
     1
  0
VISUALSTYLE
  5
31
102
{ACAD_REACTORS
330
2A
102
}
330
2A
100
AcDbVisualStyle
  2
3D Hidden
 70
     6
177
     2
291
     0
 71
     1
176
     1
 72
     2
176
     1
 73
     2
176
     1
 90
        0
176
     1
 40
-0.6
176
     1
 41
-30.0
176
     1
 62
     5
 63
     7
421
 16777215
176
     1
 74
     2
176
     1
 91
        2
176
     1
 64
     7
176
     1
 65
   257
176
     1
 75
     2
176
     1
175
     1
176
     1
 42
40.0
176
     1
 92
        0
176
     1
 66
   257
176
     1
 43
1.0
176
     1
 76
     1
176
     1
 77
     6
176
     1
 78
     2
176
     1
 67
     7
176
     1
 79
     3
176
     1
170
     0
176
     1
171
     0
176
     1
290
     0
176
     1
 93
        1
176
     1
 44
0.0
176
     1
173
     0
176
     1
  0
VISUALSTYLE
  5
30
102
{ACAD_REACTORS
330
2A
102
}
330
2A
100
AcDbVisualStyle
  2
3dWireframe
 70
     5
177
     2
291
     0
 71
     0
176
     1
 72
     2
176
     1
 73
     0
176
     1
 90
        0
176
     1
 40
-0.6
176
     1
 41
-30.0
176
     1
 62
     5
 63
     7
421
 16777215
176
     1
 74
     1
176
     1
 91
        4
176
     1
 64
     7
176
     1
 65
   257
176
     1
 75
     1
176
     1
175
     1
176
     1
 42
1.0
176
     1
 92
        0
176
     1
 66
   257
176
     1
 43
1.0
176
     1
 76
     1
176
     1
 77
     6
176
     1
 78
     2
176
     1
 67
     7
176
     1
 79
     5
176
     1
170
     0
176
     1
171
     0
176
     1
290
     0
176
     1
 93
        1
176
     1
 44
0.0
176
     1
173
     0
176
     1
  0
VISUALSTYLE
  5
32
102
{ACAD_REACTORS
330
2A
102
}
330
2A
100
AcDbVisualStyle
  2
Basic
 70
     7
177
     2
291
     1
 71
     1
176
     1
 72
     0
176
     1
 73
     1
176
     1
 90
        0
176
     1
 40
-0.6
176
     1
 41
-30.0
176
     1
 62
     5
 63
     7
421
 16777215
176
     1
 74
     0
176
     1
 91
        4
176
     1
 64
     7
176
     1
 65
   257
176
     1
 75
     1
176
     1
175
     1
176
     1
 42
1.0
176
     1
 92
        8
176
     1
 66
     7
176
     1
 43
1.0
176
     1
 76
     1
176
     1
 77
     6
176
     1
 78
     2
176
     1
 67
     7
176
     1
 79
     5
176
     1
170
     0
176
     1
171
     0
176
     1
290
     0
176
     1
 93
        1
176
     1
 44
0.0
176
     1
173
     0
176
     1
  0
VISUALSTYLE
  5
36
102
{ACAD_REACTORS
330
2A
102
}
330
2A
100
AcDbVisualStyle
  2
Brighten
 70
    12
177
     2
291
     1
 71
     2
176
     1
 72
     2
176
     1
 73
     0
176
     1
 90
        0
176
     1
 40
-0.6
176
     1
 41
-30.0
176
     1
 62
     5
 63
     7
421
 16777215
176
     1
 74
     1
176
     1
 91
        4
176
     1
 64
     7
176
     1
 65
   257
176
     1
 75
     1
176
     1
175
     1
176
     1
 42
1.0
176
     1
 92
        8
176
     1
 66
     7
176
     1
 43
1.0
176
     1
 76
     1
176
     1
 77
     6
176
     1
 78
     2
176
     1
 67
     7
176
     1
 79
     5
176
     1
170
     0
176
     1
171
     0
176
     1
290
     0
176
     1
 93
        1
176
     1
 44
50.0
176
     1
173
     0
176
     1
  0
VISUALSTYLE
  5
3A
102
{ACAD_REACTORS
330
2A
102
}
330
2A
100
AcDbVisualStyle
  2
ColorChange
 70
    16
177
     2
291
     1
 71
     2
176
     1
 72
     2
176
     1
 73
     3
176
     1
 90
        0
176
     1
 40
-0.6
176
     1
 41
-30.0
176
     1
 62
     5
 63
     8
421
  8421504
176
     1
 74
     1
176
     1
 91
        4
176
     1
 64
     7
176
     1
 65
   257
176
     1
 75
     1
176
     1
175
     1
176
     1
 42
1.0
176
     1
 92
        8
176
     1
 66
     8
424
  8421504
176
     1
 43
1.0
176
     1
 76
     1
176
     1
 77
     6
176
     1
 78
     2
176
     1
 67
     7
176
     1
 79
     5
176
     1
170
     0
176
     1
171
     0
176
     1
290
     0
176
     1
 93
        1
176
     1
 44
0.0
176
     1
173
     0
176
     1
  0
VISUALSTYLE
  5
34
102
{ACAD_REACTORS
330
2A
102
}
330
2A
100
AcDbVisualStyle
  2
Conceptual
 70
     9
177
     2
291
     0
 71
     3
176
     1
 72
     2
176
     1
 73
     0
176
     1
 90
        0
176
     1
 40
-0.6
176
     1
 41
-30.0
176
     1
 62
     5
 63
     7
421
 16777215
176
     1
 74
     2
176
     1
 91
        2
176
     1
 64
     7
176
     1
 65
   257
176
     1
 75
     1
176
     1
175
     1
176
     1
 42
40.0
176
     1
 92
        8
176
     1
 66
     7
176
     1
 43
1.0
176
     1
 76
     1
176
     1
 77
     6
176
     1
 78
     2
176
     1
 67
     7
176
     1
 79
     3
176
     1
170
     0
176
     1
171
     0
176
     1
290
     0
176
     1
 93
        1
176
     1
 44
0.0
176
     1
173
     0
176
     1
  0
VISUALSTYLE
  5
35
102
{ACAD_REACTORS
330
2A
102
}
330
2A
100
AcDbVisualStyle
  2
Dim
 70
    11
177
     2
291
     1
 71
     2
176
     1
 72
     2
176
     1
 73
     0
176
     1
 90
        0
176
     1
 40
-0.6
176
     1
 41
-30.0
176
     1
 62
     5
 63
     7
421
 16777215
176
     1
 74
     1
176
     1
 91
        4
176
     1
 64
     7
176
     1
 65
   257
176
     1
 75
     1
176
     1
175
     1
176
     1
 42
1.0
176
     1
 92
        8
176
     1
 66
     7
176
     1
 43
1.0
176
     1
 76
     1
176
     1
 77
     6
176
     1
 78
     2
176
     1
 67
     7
176
     1
 79
     5
176
     1
170
     0
176
     1
171
     0
176
     1
290
     0
176
     1
 93
        1
176
     1
 44
-50.0
176
     1
173
     0
176
     1
  0
VISUALSTYLE
  5
39
102
{ACAD_REACTORS
330
2A
102
}
330
2A
100
AcDbVisualStyle
  2
Facepattern
 70
    15
177
     2
291
     1
 71
     2
176
     1
 72
     2
176
     1
 73
     0
176
     1
 90
        0
176
     1
 40
-0.6
176
     1
 41
-30.0
176
     1
 62
     5
 63
     7
421
 16777215
176
     1
 74
     1
176
     1
 91
        4
176
     1
 64
     7
176
     1
 65
   257
176
     1
 75
     1
176
     1
175
     1
176
     1
 42
1.0
176
     1
 92
        8
176
     1
 66
     7
176
     1
 43
1.0
176
     1
 76
     1
176
     1
 77
     6
176
     1
 78
     2
176
     1
 67
     7
176
     1
 79
     5
176
     1
170
     0
176
     1
171
     0
176
     1
290
     0
176
     1
 93
        1
176
     1
 44
0.0
176
     1
173
     0
176
     1
  0
VISUALSTYLE
  5
2B
102
{ACAD_REACTORS
330
2A
102
}
330
2A
100
AcDbVisualStyle
  2
Flat
 70
     0
177
     2
291
     1
 71
     2
176
     1
 72
     1
176
     1
 73
     1
176
     1
 90
        2
176
     1
 40
-0.6
176
     1
 41
30.0
176
     1
 62
     5
 63
     7
421
 16777215
176
     1
 74
     0
176
     1
 91
        4
176
     1
 64
     7
176
     1
 65
   257
176
     1
 75
     1
176
     1
175
     1
176
     1
 42
1.0
176
     1
 92
        8
176
     1
 66
     7
176
     1
 43
1.0
176
     1
 76
     1
176
     1
 77
     6
176
     1
 78
     2
176
     1
 67
     7
176
     1
 79
     5
176
     1
170
     0
176
     1
171
     0
176
     1
290
     0
176
     1
 93
       13
176
     1
 44
0.0
176
     1
173
     0
176
     1
  0
VISUALSTYLE
  5
2C
102
{ACAD_REACTORS
330
2A
102
}
330
2A
100
AcDbVisualStyle
  2
FlatWithEdges
 70
     1
177
     2
291
     1
 71
     2
176
     1
 72
     1
176
     1
 73
     1
176
     1
 90
        2
176
     1
 40
-0.6
176
     1
 41
30.0
176
     1
 62
     5
 63
     7
421
 16777215
176
     1
 74
     1
176
     1
 91
        4
176
     1
 64
     7
176
     1
 65
   257
176
     1
 75
     1
176
     1
175
     1
176
     1
 42
1.0
176
     1
 92
        0
176
     1
 66
   257
176
     1
 43
1.0
176
     1
 76
     1
176
     1
 77
     6
176
     1
 78
     2
176
     1
 67
     7
176
     1
 79
     5
176
     1
170
     0
176
     1
171
     0
176
     1
290
     0
176
     1
 93
       13
176
     1
 44
0.0
176
     1
173
     0
176
     1
  0
VISUALSTYLE
  5
2D
102
{ACAD_REACTORS
330
2A
102
}
330
2A
100
AcDbVisualStyle
  2
Gouraud
 70
     2
177
     2
291
     1
 71
     2
176
     1
 72
     2
176
     1
 73
     1
176
     1
 90
        2
176
     1
 40
-0.6
176
     1
 41
30.0
176
     1
 62
     5
 63
     7
421
 16777215
176
     1
 74
     0
176
     1
 91
        4
176
     1
 64
     7
176
     1
 65
   257
176
     1
 75
     1
176
     1
175
     1
176
     1
 42
1.0
176
     1
 92
        0
176
     1
 66
     7
176
     1
 43
1.0
176
     1
 76
     1
176
     1
 77
     6
176
     1
 78
     2
176
     1
 67
     7
176
     1
 79
     5
176
     1
170
     0
176
     1
171
     0
176
     1
290
     0
176
     1
 93
       13
176
     1
 44
0.0
176
     1
173
     0
176
     1
  0
VISUALSTYLE
  5
2E
102
{ACAD_REACTORS
330
2A
102
}
330
2A
100
AcDbVisualStyle
  2
GouraudWithEdges
 70
     3
177
     2
291
     1
 71
     2
176
     1
 72
     2
176
     1
 73
     1
176
     1
 90
        2
176
     1
 40
-0.6
176
     1
 41
30.0
176
     1
 62
     5
 63
     7
421
 16777215
176
     1
 74
     1
176
     1
 91
        4
176
     1
 64
     7
176
     1
 65
   257
176
     1
 75
     1
176
     1
175
     1
176
     1
 42
1.0
176
     1
 92
        0
176
     1
 66
   257
176
     1
 43
1.0
176
     1
 76
     1
176
     1
 77
     6
176
     1
 78
     2
176
     1
 67
     7
176
     1
 79
     5
176
     1
170
     0
176
     1
171
     0
176
     1
290
     0
176
     1
 93
       13
176
     1
 44
0.0
176
     1
173
     0
176
     1
  0
VISUALSTYLE
  5
38
102
{ACAD_REACTORS
330
2A
102
}
330
2A
100
AcDbVisualStyle
  2
Linepattern
 70
    14
177
     2
291
     1
 71
     2
176
     1
 72
     2
176
     1
 73
     0
176
     1
 90
        0
176
     1
 40
-0.6
176
     1
 41
-30.0
176
     1
 62
     5
 63
     7
421
 16777215
176
     1
 74
     1
176
     1
 91
        4
176
     1
 64
     7
176
     1
 65
   257
176
     1
 75
     7
176
     1
175
     7
176
     1
 42
1.0
176
     1
 92
        8
176
     1
 66
     7
176
     1
 43
1.0
176
     1
 76
     1
176
     1
 77
     6
176
     1
 78
     2
176
     1
 67
     7
176
     1
 79
     5
176
     1
170
     0
176
     1
171
     0
176
     1
290
     0
176
     1
 93
        1
176
     1
 44
0.0
176
     1
173
     0
176
     1
  0
VISUALSTYLE
  5
33
102
{ACAD_REACTORS
330
2A
102
}
330
2A
100
AcDbVisualStyle
  2
Realistic
 70
     8
177
     2
291
     0
 71
     2
176
     1
 72
     2
176
     1
 73
     0
176
     1
 90
        0
176
     1
 40
-0.6
176
     1
 41
-30.0
176
     1
 62
     5
 63
     7
421
 16777215
176
     1
 74
     1
176
     1
 91
        0
176
     1
 64
     7
176
     1
 65
   257
176
     1
 75
     1
176
     1
175
     1
176
     1
 42
1.0
176
     1
 92
        8
176
     1
 66
     8
424
  7895160
176
     1
 43
1.0
176
     1
 76
     1
176
     1
 77
     6
176
     1
 78
     2
176
     1
 67
     7
176
     1
 79
     5
176
     1
170
     0
176
     1
171
     0
176
     1
290
     0
176
     1
 93
       13
176
     1
 44
0.0
176
     1
173
     0
176
     1
  0
VISUALSTYLE
  5
37
102
{ACAD_REACTORS
330
2A
102
}
330
2A
100
AcDbVisualStyle
  2
Thicken
 70
    13
177
     2
291
     1
 71
     2
176
     1
 72
     2
176
     1
 73
     0
176
     1
 90
        0
176
     1
 40
-0.6
176
     1
 41
-30.0
176
     1
 62
     5
 63
     7
421
 16777215
176
     1
 74
     1
176
     1
 91
        4
176
     1
 64
     7
176
     1
 65
   257
176
     1
 75
     1
176
     1
175
     1
176
     1
 42
1.0
176
     1
 92
       12
176
     1
 66
     7
176
     1
 43
1.0
176
     1
 76
     1
176
     1
 77
     6
176
     1
 78
     2
176
     1
 67
     7
176
     1
 79
     5
176
     1
170
     0
176
     1
171
     0
176
     1
290
     0
176
     1
 93
        1
176
     1
 44
0.0
176
     1
173
     0
176
     1
  0
ENDSEC
  0
EOF
