  0
SECTION
  2
HEADER
  9
$ACADVER
  1
AC1024
  9
$ACADMAINTVER
 70
   226
  9
$DWGCODEPAGE
  3
ANSI_932
  9
$INSBASE
 10
0.0
 20
0.0
 30
0.0
  9
$EXTMIN
 10
1.000000000000000E+20
 20
1.000000000000000E+20
 30
1.000000000000000E+20
  9
$EXTMAX
 10
-1.000000000000000E+20
 20
-1.000000000000000E+20
 30
-1.000000000000000E+20
  9
$LIMMIN
 10
0.0
 20
0.0
  9
$LIMMAX
 10
12.0
 20
9.0
  9
$ORTHOMODE
 70
     0
  9
$REGENMODE
 70
     1
  9
$FILLMODE
 70
     1
  9
$QTEXTMODE
 70
     0
  9
$MIRRTEXT
 70
     0
  9
$LTSCALE
 40
1.0
  9
$ATTMODE
 70
     1
  9
$TEXTSIZE
 40
0.2
  9
$TRACEWID
 40
0.05
  9
$TEXTSTYLE
  7
Standard
  9
$CLAYER
  8
0
  9
$CELTYPE
  6
ByLayer
  9
$CECOLOR
 62
   256
  9
$CELTSCALE
 40
1.0
  9
$DISPSILH
 70
     0
  9
$DIMSCALE
 40
1.0
  9
$DIMASZ
 40
0.18
  9
$DIMEXO
 40
0.0625
  9
$DIMDLI
 40
0.38
  9
$DIMRND
 40
0.0
  9
$DIMDLE
 40
0.0
  9
$DIMEXE
 40
0.18
  9
$DIMTP
 40
0.0
  9
$DIMTM
 40
0.0
  9
$DIMTXT
 40
0.18
  9
$DIMCEN
 40
0.09
  9
$DIMTSZ
 40
0.0
  9
$DIMTOL
 70
     0
  9
$DIMLIM
 70
     0
  9
$DIMTIH
 70
     1
  9
$DIMTOH
 70
     1
  9
$DIMSE1
 70
     0
  9
$DIMSE2
 70
     0
  9
$DIMTAD
 70
     0
  9
$DIMZIN
 70
     0
  9
$DIMBLK
  1

  9
$DIMASO
 70
     1
  9
$DIMSHO
 70
     1
  9
$DIMPOST
  1

  9
$DIMAPOST
  1

  9
$DIMALT
 70
     0
  9
$DIMALTD
 70
     2
  9
$DIMALTF
 40
25.4
  9
$DIMLFAC
 40
1.0
  9
$DIMTOFL
 70
     0
  9
$DIMTVP
 40
0.0
  9
$DIMTIX
 70
     0
  9
$DIMSOXD
 70
     0
  9
$DIMSAH
 70
     0
  9
$DIMBLK1
  1

  9
$DIMBLK2
  1

  9
$DIMSTYLE
  2
Standard
  9
$DIMCLRD
 70
     0
  9
$DIMCLRE
 70
     0
  9
$DIMCLRT
 70
     0
  9
$DIMTFAC
 40
1.0
  9
$DIMGAP
 40
0.09
  9
$DIMJUST
 70
     0
  9
$DIMSD1
 70
     0
  9
$DIMSD2
 70
     0
  9
$DIMTOLJ
 70
     1
  9
$DIMTZIN
 70
     0
  9
$DIMALTZ
 70
     0
  9
$DIMALTTZ
 70
     0
  9
$DIMUPT
 70
     0
  9
$DIMDEC
 70
     4
  9
$DIMTDEC
 70
     4
  9
$DIMALTU
 70
     2
  9
$DIMALTTD
 70
     2
  9
$DIMTXSTY
  7
Standard
  9
$DIMAUNIT
 70
     0
  9
$DIMADEC
 70
     0
  9
$DIMALTRND
 40
0.0
  9
$DIMAZIN
 70
     0
  9
$DIMDSEP
 70
    46
  9
$DIMATFIT
 70
     3
  9
$DIMFRAC
 70
     0
  9
$DIMLDRBLK
  1

  9
$DIMLUNIT
 70
     2
  9
$DIMLWD
 70
    -2
  9
$DIMLWE
 70
    -2
  9
$DIMTMOVE
 70
     0
  9
$DIMFXL
 40
1.0
  9
$DIMFXLON
 70
     0
  9
$DIMJOGANG
 40
0.7853981633974483
  9
$DIMTFILL
 70
     0
  9
$DIMTFILLCLR
 70
     0
  9
$DIMARCSYM
 70
     0
  9
$DIMLTYPE
  6

  9
$DIMLTEX1
  6

  9
$DIMLTEX2
  6

  9
$DIMTXTDIRECTION
 70
     0
  9
$LUNITS
 70
     2
  9
$LUPREC
 70
     4
  9
$SKETCHINC
 40
0.1
  9
$FILLETRAD
 40
0.0
  9
$AUNITS
 70
     0
  9
$AUPREC
 70
     0
  9
$MENU
  1
.
  9
$ELEVATION
 40
0.0
  9
$PELEVATION
 40
0.0
  9
$THICKNESS
 40
0.0
  9
$LIMCHECK
 70
     0
  9
$CHAMFERA
 40
0.0
  9
$CHAMFERB
 40
0.0
  9
$CHAMFERC
 40
0.0
  9
$CHAMFERD
 40
0.0
  9
$SKPOLY
 70
     0
  9
$TDCREATE
 40
2459676.423460648
  9
$TDUCREATE
 40
2459676.048460648
  9
$TDUPDATE
 40
2459676.423460648
  9
$TDUUPDATE
 40
2459676.048460648
  9
$TDINDWG
 40
0.0000000000
  9
$TDUSRTIMER
 40
0.0000000000
  9
$USRTIMER
 70
     1
  9
$ANGBASE
 50
0.0
  9
$ANGDIR
 70
     0
  9
$PDMODE
 70
     0
  9
$PDSIZE
 40
0.0
  9
$PLINEWID
 40
0.0
  9
$SPLFRAME
 70
     0
  9
$SPLINETYPE
 70
     6
  9
$SPLINESEGS
 70
     8
  9
$HANDSEED
  5
144
  9
$SURFTAB1
 70
     6
  9
$SURFTAB2
 70
     6
  9
$SURFTYPE
 70
     6
  9
$SURFU
 70
     6
  9
$SURFV
 70
     6
  9
$UCSBASE
  2

  9
$UCSNAME
  2

  9
$UCSORG
 10
0.0
 20
0.0
 30
0.0
  9
$UCSXDIR
 10
1.0
 20
0.0
 30
0.0
  9
$UCSYDIR
 10
0.0
 20
1.0
 30
0.0
  9
$UCSORTHOREF
  2

  9
$UCSORTHOVIEW
 70
     0
  9
$UCSORGTOP
 10
0.0
 20
0.0
 30
0.0
  9
$UCSORGBOTTOM
 10
0.0
 20
0.0
 30
0.0
  9
$UCSORGLEFT
 10
0.0
 20
0.0
 30
0.0
  9
$UCSORGRIGHT
 10
0.0
 20
0.0
 30
0.0
  9
$UCSORGFRONT
 10
0.0
 20
0.0
 30
0.0
  9
$UCSORGBACK
 10
0.0
 20
0.0
 30
0.0
  9
$PUCSBASE
  2

  9
$PUCSNAME
  2

  9
$PUCSORG
 10
0.0
 20
0.0
 30
0.0
  9
$PUCSXDIR
 10
1.0
 20
0.0
 30
0.0
  9
$PUCSYDIR
 10
0.0
 20
1.0
 30
0.0
  9
$PUCSORTHOREF
  2

  9
$PUCSORTHOVIEW
 70
     0
  9
$PUCSORGTOP
 10
0.0
 20
0.0
 30
0.0
  9
$PUCSORGBOTTOM
 10
0.0
 20
0.0
 30
0.0
  9
$PUCSORGLEFT
 10
0.0
 20
0.0
 30
0.0
  9
$PUCSORGRIGHT
 10
0.0
 20
0.0
 30
0.0
  9
$PUCSORGFRONT
 10
0.0
 20
0.0
 30
0.0
  9
$PUCSORGBACK
 10
0.0
 20
0.0
 30
0.0
  9
$USERI1
 70
     0
  9
$USERI2
 70
     0
  9
$USERI3
 70
     0
  9
$USERI4
 70
     0
  9
$USERI5
 70
     0
  9
$USERR1
 40
0.0
  9
$USERR2
 40
0.0
  9
$USERR3
 40
0.0
  9
$USERR4
 40
0.0
  9
$USERR5
 40
0.0
  9
$WORLDVIEW
 70
     1
  9
$SHADEDGE
 70
     3
  9
$SHADEDIF
 70
    70
  9
$TILEMODE
 70
     1
  9
$MAXACTVP
 70
    64
  9
$PINSBASE
 10
0.0
 20
0.0
 30
0.0
  9
$PLIMCHECK
 70
     0
  9
$PEXTMIN
 10
1.000000000000000E+20
 20
1.000000000000000E+20
 30
1.000000000000000E+20
  9
$PEXTMAX
 10
-1.000000000000000E+20
 20
-1.000000000000000E+20
 30
-1.000000000000000E+20
  9
$PLIMMIN
 10
0.0
 20
0.0
  9
$PLIMMAX
 10
12.0
 20
9.0
  9
$UNITMODE
 70
     0
  9
$VISRETAIN
 70
     1
  9
$PLINEGEN
 70
     0
  9
$PSLTSCALE
 70
     1
  9
$TREEDEPTH
 70
  3020
  9
$CMLSTYLE
  2
Standard
  9
$CMLJUST
 70
     0
  9
$CMLSCALE
 40
1.0
  9
$PROXYGRAPHICS
 70
     1
  9
$MEASUREMENT
 70
     0
  9
$CELWEIGHT
370
    -1
  9
$ENDCAPS
280
     0
  9
$JOINSTYLE
280
     0
  9
$LWDISPLAY
290
     1
  9
$INSUNITS
 70
     4
  9
$HYPERLINKBASE
  1

  9
$STYLESHEET
  1

  9
$XEDIT
290
     1
  9
$CEPSNTYPE
380
     0
  9
$PSTYLEMODE
290
     1
  9
$FINGERPRINTGUID
  2
{9F0372F7-E22C-4545-9E2B-40601EB05BD2}
  9
$VERSIONGUID
  2
{8D2FB323-A690-F440-AD0A-3FCB9F4D2E62}
  9
$EXTNAMES
290
     1
  9
$PSVPSCALE
 40
0.0
  9
$OLESTARTUP
290
     0
  9
$SORTENTS
280
   127
  9
$INDEXCTL
280
     0
  9
$HIDETEXT
280
     1
  9
$XCLIPFRAME
280
     2
  9
$HALOGAP
280
     0
  9
$OBSCOLOR
 70
   257
  9
$OBSLTYPE
280
     0
  9
$INTERSECTIONDISPLAY
280
     0
  9
$INTERSECTIONCOLOR
 70
   257
  9
$DIMASSOC
280
     2
  9
$PROJECTNAME
  1

  9
$CAMERADISPLAY
290
     0
  9
$LENSLENGTH
 40
50.0
  9
$CAMERAHEIGHT
 40
0.0
  9
$STEPSPERSEC
 40
2.0
  9
$STEPSIZE
 40
6.0
  9
$3DDWFPREC
 40
2.0
  9
$PSOLWIDTH
 40
0.25
  9
$PSOLHEIGHT
 40
4.0
  9
$LOFTANG1
 40
1.570796326794896
  9
$LOFTANG2
 40
1.570796326794896
  9
$LOFTMAG1
 40
0.0
  9
$LOFTMAG2
 40
0.0
  9
$LOFTPARAM
 70
     7
  9
$LOFTNORMALS
280
     1
  9
$LATITUDE
 40
37.795
  9
$LONGITUDE
 40
-122.394
  9
$NORTHDIRECTION
 40
0.0
  9
$TIMEZONE
 70
 -8000
  9
$LIGHTGLYPHDISPLAY
280
     1
  9
$TILEMODELIGHTSYNCH
280
     1
  9
$CMATERIAL
347
11
  9
$SOLIDHIST
280
     0
  9
$SHOWHIST
280
     1
  9
$DWFFRAME
280
     2
  9
$DGNFRAME
280
     0
  9
$REALWORLDSCALE
290
     1
  9
$INTERFERECOLOR
 62
     1
  9
$INTERFEREOBJVS
345
33
  9
$INTERFEREVPVS
346
30
  9
$CSHADOW
280
     0
  9
$SHADOWPLANELOCATION
 40
0.0
  0
ENDSEC
  0
SECTION
  2
CLASSES
  0
CLASS
  1
ACDBDICTIONARYWDFLT
  2
AcDbDictionaryWithDefault
  3
ObjectDBX Classes
 90
        0
 91
        1
280
     0
281
     0
  0
CLASS
  1
MATERIAL
  2
AcDbMaterial
  3
ObjectDBX Classes
 90
     1153
 91
        3
280
     0
281
     0
  0
CLASS
  1
VISUALSTYLE
  2
AcDbVisualStyle
  3
ObjectDBX Classes
 90
     4095
 91
       24
280
     0
281
     0
  0
CLASS
  1
SCALE
  2
AcDbScale
  3
ObjectDBX Classes
 90
     1153
 91
       17
280
     0
281
     0
  0
CLASS
  1
TABLESTYLE
  2
AcDbTableStyle
  3
ObjectDBX Classes
 90
     4095
 91
        1
280
     0
281
     0
  0
CLASS
  1
MLEADERSTYLE
  2
AcDbMLeaderStyle
  3
ACDB_MLEADERSTYLE_CLASS
 90
     4095
 91
        1
280
     0
281
     0
  0
CLASS
  1
ACDBSECTIONVIEWSTYLE
  2
AcDbSectionViewStyle
  3
ObjectDBX Classes
 90
     1025
 91
        1
280
     0
281
     0
  0
CLASS
  1
ACDBDETAILVIEWSTYLE
  2
AcDbDetailViewStyle
  3
ObjectDBX Classes
 90
     1025
 91
        1
280
     0
281
     0
  0
CLASS
  1
DICTIONARYVAR
  2
AcDbDictionaryVar
  3
ObjectDBX Classes
 90
        0
 91
        5
280
     0
281
     0
  0
CLASS
  1
CELLSTYLEMAP
  2
AcDbCellStyleMap
  3
ObjectDBX Classes
 90
     1152
 91
        1
280
     0
281
     0
  0
ENDSEC
  0
SECTION
  2
TABLES
  0
TABLE
  2
VPORT
  5
8
330
0
100
AcDbSymbolTable
 70
     1
  0
VPORT
  5
57
330
8
100
AcDbSymbolTableRecord
100
AcDbViewportTableRecord
  2
*Active
 70
     0
 10
0.0
 20
0.0
 11
1.0
 21
1.0
 12
0.0
 22
0.0
 13
0.0
 23
0.0
 14
1.0
 24
1.0
 15
0.0
 25
0.0
 16
0.0
 26
0.0
 36
1.0
 17
104.9999999737534
 27
-148.4999999628701
 37
0.0
 40
302.939999924255
 41
0.7070707070707534
 42
50.0
 43
0.0
 44
0.0
 50
0.0
 51
0.0
 71
     0
 72
   100
 73
     1
 74
     0
 75
     1
 76
     0
 77
     0
 78
     0
281
     0
 65
     1
110
0.0
120
0.0
130
0.0
111
1.0
121
0.0
131
0.0
112
0.0
122
1.0
132
0.0
 79
     0
146
0.0
 60
     3
 61
     5
292
     1
282
     1
141
0.0
142
0.0
 63
   250
421
  3355443
  0
ENDTAB
  0
TABLE
  2
LTYPE
  5
5
330
0
100
AcDbSymbolTable
 70
     2
  0
LTYPE
  5
5B
330
5
100
AcDbSymbolTableRecord
100
AcDbLinetypeTableRecord
  2
ByBlock
 70
     0
  3

 72
    65
 73
     0
 40
0.0
  0
LTYPE
  5
5C
330
5
100
AcDbSymbolTableRecord
100
AcDbLinetypeTableRecord
  2
ByLayer
 70
     0
  3

 72
    65
 73
     0
 40
0.0
  0
LTYPE
  5
5D
330
5
100
AcDbSymbolTableRecord
100
AcDbLinetypeTableRecord
  2
Continuous
 70
     0
  3
Solid line
 72
    65
 73
     0
 40
0.0
  0
LTYPE
  5
E2
330
5
100
AcDbSymbolTableRecord
100
AcDbLinetypeTableRecord
  2
AI-Linetype-0
 70
     0
  3
Adobe Illustrator Linetype No. 0
 72
    65
 73
     2
 40
1.411111110758333
 49
0.7055555553791667
 74
     0
 49
-0.7055555553791667
 74
     0
  0
ENDTAB
  0
TABLE
  2
LAYER
  5
2
330
0
100
AcDbSymbolTable
 70
     2
  0
LAYER
  5
54
330
2
100
AcDbSymbolTableRecord
100
AcDbLayerTableRecord
  2
0
 70
     0
 62
     7
  6
Continuous
370
    -3
390
F
347
21
  0
LAYER
  5
78
330
2
100
AcDbSymbolTableRecord
100
AcDbLayerTableRecord
  2
レイヤー 1
 70
     0
 62
     7
  6
Continuous
370
     0
390
F
347
21
  0
ENDTAB
  0
TABLE
  2
STYLE
  5
3
330
0
100
AcDbSymbolTable
 70
     2
  0
STYLE
  5
55
330
3
100
AcDbSymbolTableRecord
100
AcDbTextStyleTableRecord
  2
Standard
 70
     0
 40
0.0
 41
1.0
 50
0.0
 71
     0
 42
0.2
  3
txt
  4

  0
STYLE
  5
5A
330
3
100
AcDbSymbolTableRecord
100
AcDbTextStyleTableRecord
  2
Annotative
 70
     0
 40
0.0
 41
1.0
 50
0.0
 71
     0
 42
0.2
  3
txt
  4

1001
AcadAnnotative
1000
AnnotativeData
1002
{
1070
     1
1070
     1
1002
}
  0
ENDTAB
  0
TABLE
  2
VIEW
  5
6
330
0
100
AcDbSymbolTable
 70
     0
  0
ENDTAB
  0
TABLE
  2
UCS
  5
7
330
0
100
AcDbSymbolTable
 70
     0
  0
ENDTAB
  0
TABLE
  2
APPID
  5
9
330
0
100
AcDbSymbolTable
 70
     2
  0
APPID
  5
56
330
9
100
AcDbSymbolTableRecord
100
AcDbRegAppTableRecord
  2
ACAD
 70
     0
  0
APPID
  5
5E
330
9
100
AcDbSymbolTableRecord
100
AcDbRegAppTableRecord
  2
AcadAnnotative
 70
     0
  0
ENDTAB
  0
TABLE
  2
DIMSTYLE
  5
A
330
0
100
AcDbSymbolTable
 70
     2
100
AcDbDimStyleTable
 71
     0
  0
DIMSTYLE
105
58
330
A
100
AcDbSymbolTableRecord
100
AcDbDimStyleTableRecord
  2
Standard
 70
     0
340
55
  0
DIMSTYLE
105
59
330
A
100
AcDbSymbolTableRecord
100
AcDbDimStyleTableRecord
  2
Annotative
 70
     0
340
55
1001
AcadAnnotative
1000
AnnotativeData
1002
{
1070
     1
1070
     1
1002
}
  0
ENDTAB
  0
TABLE
  2
BLOCK_RECORD
  5
1
330
0
100
AcDbSymbolTable
 70
    15
  0
BLOCK_RECORD
  5
70
330
1
100
AcDbSymbolTableRecord
100
AcDbBlockTableRecord
  2
*Model_Space
340
73
 70
     0
280
     1
281
     0
  0
BLOCK_RECORD
  5
6C
330
1
100
AcDbSymbolTableRecord
100
AcDbBlockTableRecord
  2
*Paper_Space
340
6F
 70
     0
280
     1
281
     0
  0
BLOCK_RECORD
  5
74
330
1
100
AcDbSymbolTableRecord
100
AcDbBlockTableRecord
  2
*Paper_Space0
340
77
 70
     0
280
     1
281
     0
  0
BLOCK_RECORD
  5
79
330
1
100
AcDbSymbolTableRecord
100
AcDbBlockTableRecord
  2
Block_0
340
0
102
{BLKREFS
331
7A
102
}
 70
     0
280
     1
281
     0
  0
BLOCK_RECORD
  5
7D
330
1
100
AcDbSymbolTableRecord
100
AcDbBlockTableRecord
  2
Block_1
340
0
102
{BLKREFS
331
7E
102
}
 70
     0
280
     1
281
     0
  0
BLOCK_RECORD
  5
94
330
1
100
AcDbSymbolTableRecord
100
AcDbBlockTableRecord
  2
Block_2
340
0
102
{BLKREFS
331
95
102
}
 70
     0
280
     1
281
     0
  0
BLOCK_RECORD
  5
9D
330
1
100
AcDbSymbolTableRecord
100
AcDbBlockTableRecord
  2
Block_3
340
0
102
{BLKREFS
331
9E
102
}
 70
     0
280
     1
281
     0
  0
BLOCK_RECORD
  5
A1
330
1
100
AcDbSymbolTableRecord
100
AcDbBlockTableRecord
  2
Block_4
340
0
102
{BLKREFS
331
A2
102
}
 70
     0
280
     1
281
     0
  0
BLOCK_RECORD
  5
AB
330
1
100
AcDbSymbolTableRecord
100
AcDbBlockTableRecord
  2
Block_5
340
0
102
{BLKREFS
331
AC
102
}
 70
     0
280
     1
281
     0
  0
BLOCK_RECORD
  5
AF
330
1
100
AcDbSymbolTableRecord
100
AcDbBlockTableRecord
  2
Block_6
340
0
102
{BLKREFS
331
B0
102
}
 70
     0
280
     1
281
     0
  0
BLOCK_RECORD
  5
BE
330
1
100
AcDbSymbolTableRecord
100
AcDbBlockTableRecord
  2
Block_7
340
0
102
{BLKREFS
331
BF
102
}
 70
     0
280
     1
281
     0
  0
BLOCK_RECORD
  5
C2
330
1
100
AcDbSymbolTableRecord
100
AcDbBlockTableRecord
  2
Block_8
340
0
102
{BLKREFS
331
C3
102
}
 70
     0
280
     1
281
     0
  0
BLOCK_RECORD
  5
D2
330
1
100
AcDbSymbolTableRecord
100
AcDbBlockTableRecord
  2
Block_9
340
0
102
{BLKREFS
331
D3
102
}
 70
     0
280
     1
281
     0
  0
BLOCK_RECORD
  5
D6
330
1
100
AcDbSymbolTableRecord
100
AcDbBlockTableRecord
  2
Block_10
340
0
102
{BLKREFS
331
D7
102
}
 70
     0
280
     1
281
     0
  0
BLOCK_RECORD
  5
E3
330
1
100
AcDbSymbolTableRecord
100
AcDbBlockTableRecord
  2
Block_11
340
0
102
{BLKREFS
331
E4
102
}
 70
     0
280
     1
281
     0
  0
BLOCK_RECORD
  5
EA
330
1
100
AcDbSymbolTableRecord
100
AcDbBlockTableRecord
  2
Block_12
340
0
102
{BLKREFS
331
EB
102
}
 70
     0
280
     1
281
     0
  0
BLOCK_RECORD
  5
EE
330
1
100
AcDbSymbolTableRecord
100
AcDbBlockTableRecord
  2
Block_13
340
0
102
{BLKREFS
331
EF
102
}
 70
     0
280
     1
281
     0
  0
ENDTAB
  0
ENDSEC
  0
SECTION
  2
BLOCKS
  0
BLOCK
  5
71
330
70
100
AcDbEntity
  8
0
100
AcDbBlockBegin
  2
*Model_Space
 70
     0
 10
0.0
 20
0.0
 30
0.0
  3
*Model_Space
  1

  0
ENDBLK
  5
72
330
70
100
AcDbEntity
  8
0
100
AcDbBlockEnd
  0
BLOCK
  5
6D
330
6C
100
AcDbEntity
 67
     1
  8
0
100
AcDbBlockBegin
  2
*Paper_Space
 70
     0
 10
0.0
 20
0.0
 30
0.0
  3
*Paper_Space
  1

  0
ENDBLK
  5
6E
330
6C
100
AcDbEntity
 67
     1
  8
0
100
AcDbBlockEnd
  0
BLOCK
  5
75
330
74
100
AcDbEntity
 67
     1
  8
0
100
AcDbBlockBegin
  2
*Paper_Space0
 70
     0
 10
0.0
 20
0.0
 30
0.0
  3
*Paper_Space0
  1

  0
ENDBLK
  5
76
330
74
100
AcDbEntity
 67
     1
  8
0
100
AcDbBlockEnd
  0
BLOCK
  5
7B
330
79
100
AcDbEntity
  8
0
100
AcDbBlockBegin
  2
Block_0
 70
     0
 10
0.0
 20
0.0
 30
0.0
  3
Block_0
  1

  0
INSERT
  5
7E
330
79
100
AcDbEntity
  8
レイヤー 1
100
AcDbBlockReference
  2
Block_1
 10
0.0
 20
0.0
 30
0.0
  0
ENDBLK
  5
7C
330
79
100
AcDbEntity
  8
0
100
AcDbBlockEnd
  0
BLOCK
  5
7F
330
7D
100
AcDbEntity
  8
0
100
AcDbBlockBegin
  2
Block_1
 70
     0
 10
0.0
 20
0.0
 30
0.0
  3
Block_1
  1

  0
LINE
  5
81
330
7D
100
AcDbEntity
  8
レイヤー 1
 62
   250
420
  2299925
370
    25
100
AcDbLine
 10
91.85095705123371
 20
-143.2566877094668
 30
0.0
 11
98.85096454948403
 21
-143.2566877094668
 31
0.0
  0
LINE
  5
82
330
7D
100
AcDbEntity
  8
レイヤー 1
 62
   250
420
  2299925
370
    25
100
AcDbLine
 10
97.85096828601503
 20
-144.2564599194283
 30
0.0
 11
97.85096828601503
 21
-153.7565167073969
 31
0.0
  0
LINE
  5
83
330
7D
100
AcDbEntity
  8
レイヤー 1
 62
   250
420
  2299925
370
    25
100
AcDbLine
 10
91.85095705123371
 20
-144.2564599061827
 30
0.0
 11
97.85096816084523
 21
-144.2564599061827
 31
0.0
  0
LINE
  5
84
330
7D
100
AcDbEntity
  8
レイヤー 1
 62
   250
420
  2299925
370
    25
100
AcDbLine
 10
91.85095705123371
 20
-143.2566877094668
 30
0.0
 11
91.85095705123371
 21
-144.2564599061827
 31
0.0
  0
LINE
  5
85
330
7D
100
AcDbEntity
  8
レイヤー 1
 62
   250
420
  2299925
370
    25
100
AcDbLine
 10
98.85096466976923
 20
-143.2566877227124
 30
0.0
 11
98.85096466976923
 21
-152.7568378465385
 31
0.0
  0
LINE
  5
86
330
7D
100
AcDbEntity
  8
レイヤー 1
 62
   250
420
  2299925
370
    25
100
AcDbLine
 10
114.8509403553084
 20
-152.7568378465385
 30
0.0
 11
114.8509403553084
 21
-153.1568172807786
 31
0.0
  0
LINE
  5
87
330
7D
100
AcDbEntity
  8
レイヤー 1
 62
   250
420
  2299925
370
    25
100
AcDbLine
 10
98.85096467465352
 20
-152.7568378465385
 30
0.0
 11
114.8509403553084
 21
-152.7568378465385
 31
0.0
  0
LINE
  5
88
330
7D
100
AcDbEntity
  8
レイヤー 1
 62
   250
420
  2299925
370
    25
100
AcDbLine
 10
114.8509403553084
 20
-153.1568172807786
 30
0.0
 11
97.85096828601503
 21
-153.7565167073969
 31
0.0
  0
SPLINE
  5
89
330
7D
100
AcDbEntity
  8
レイヤー 1
 62
   250
420
  2299925
370
     9
100
AcDbSpline
210
0.0
220
0.0
230
1.0
 70
    11
 71
     3
 72
    17
 73
    13
 74
     0
 42
0.0000000001
 43
0.0000000001
 40
0.0
 40
0.0
 40
0.0
 40
0.0
 40
1.0
 40
1.0
 40
1.0
 40
2.0
 40
2.0
 40
2.0
 40
3.0
 40
3.0
 40
3.0
 40
4.0
 40
4.0
 40
4.0
 40
4.0
 10
118.9513127251837
 20
-143.2566877094668
 30
0.0
 10
118.9513127251837
 20
-143.2014074330993
 30
0.0
 10
118.906509947417
 20
-143.1566046564645
 30
0.0
 10
118.8506994199327
 20
-143.1566046564645
 30
0.0
 10
118.7955955324496
 20
-143.1566046564645
 30
0.0
 10
118.7507927558148
 20
-143.2014074330993
 30
0.0
 10
118.7507927558148
 20
-143.2566877094668
 30
0.0
 10
118.7507927558148
 20
-143.3119679858342
 30
0.0
 10
118.7955955324496
 20
-143.356770762469
 30
0.0
 10
118.8506994199327
 20
-143.356770762469
 30
0.0
 10
118.906509947417
 20
-143.356770762469
 30
0.0
 10
118.9513127251837
 20
-143.3119679858342
 30
0.0
 10
118.9513127251837
 20
-143.2566877094668
 30
0.0
  0
SPLINE
  5
8A
330
7D
100
AcDbEntity
  8
レイヤー 1
 62
   250
420
  2299925
370
     9
100
AcDbSpline
210
0.0
220
0.0
230
1.0
 70
     9
 71
     3
 72
    17
 73
    13
 74
     0
 42
0.0000000001
 43
0.0000000001
 40
0.0
 40
0.0
 40
0.0
 40
0.0
 40
1.0
 40
1.0
 40
1.0
 40
2.0
 40
2.0
 40
2.0
 40
3.0
 40
3.0
 40
3.0
 40
4.0
 40
4.0
 40
4.0
 40
4.0
 10
118.9513127251837
 20
-152.7568378465385
 30
0.0
 10
118.9513127251837
 20
-152.7013811812866
 30
0.0
 10
118.906509947417
 20
-152.6565784046518
 30
0.0
 10
118.8506994199327
 20
-152.6565784046518
 30
0.0
 10
118.7955955324496
 20
-152.6565784046518
 30
0.0
 10
118.7507927558148
 20
-152.7013811812866
 30
0.0
 10
118.7507927558148
 20
-152.7568378465385
 30
0.0
 10
118.7507927558148
 20
-152.8119417340215
 30
0.0
 10
118.7955955324496
 20
-152.8567445106563
 30
0.0
 10
118.8506994199327
 20
-152.8567445106563
 30
0.0
 10
118.906509947417
 20
-152.8567445106563
 30
0.0
 10
118.9513127251837
 20
-152.8119417340215
 30
0.0
 10
118.9513127251837
 20
-152.7568378465385
 30
0.0
  0
SPLINE
  5
8B
330
7D
100
AcDbEntity
  8
レイヤー 1
 62
   250
420
  2299925
370
     9
100
AcDbSpline
210
0.0
220
0.0
230
1.0
 70
     9
 71
     3
 72
    17
 73
    13
 74
     0
 42
0.0000000001
 43
0.0000000001
 40
0.0
 40
0.0
 40
0.0
 40
0.0
 40
1.0
 40
1.0
 40
1.0
 40
2.0
 40
2.0
 40
2.0
 40
3.0
 40
3.0
 40
3.0
 40
4.0
 40
4.0
 40
4.0
 40
4.0
 10
118.9513127251837
 20
-153.1568172807786
 30
0.0
 10
118.9513127251837
 20
-153.1013606155267
 30
0.0
 10
118.906509947417
 20
-153.056557838892
 30
0.0
 10
118.8506994199327
 20
-153.056557838892
 30
0.0
 10
118.7955955324496
 20
-153.056557838892
 30
0.0
 10
118.7507927558148
 20
-153.1013606155267
 30
0.0
 10
118.7507927558148
 20
-153.1568172807786
 30
0.0
 10
118.7507927558148
 20
-153.2119211682616
 30
0.0
 10
118.7955955324496
 20
-153.2567239448964
 30
0.0
 10
118.8506994199327
 20
-153.2567239448964
 30
0.0
 10
118.906509947417
 20
-153.2567239448964
 30
0.0
 10
118.9513127251837
 20
-153.2119211682616
 30
0.0
 10
118.9513127251837
 20
-153.1568172807786
 30
0.0
  0
CIRCLE
  5
8C
330
7D
100
AcDbEntity
  8
レイヤー 1
 62
   250
420
  2299925
370
     9
100
AcDbCircle
 10
114.8509403553084
 20
-157.8564521608809
 30
0.0
 40
0.0999066641178353
  0
SPLINE
  5
8D
330
7D
100
AcDbEntity
  8
レイヤー 1
 62
   250
420
  2299925
370
     9
100
AcDbSpline
210
0.0
220
0.0
230
1.0
 70
     9
 71
     3
 72
    17
 73
    13
 74
     0
 42
0.0000000001
 43
0.0000000001
 40
0.0
 40
0.0
 40
0.0
 40
0.0
 40
1.0
 40
1.0
 40
1.0
 40
2.0
 40
2.0
 40
2.0
 40
3.0
 40
3.0
 40
3.0
 40
4.0
 40
4.0
 40
4.0
 40
4.0
 10
91.95104010676455
 20
-157.8564521608809
 30
0.0
 10
91.95104010676455
 20
-157.8013070049504
 30
0.0
 10
91.9062373289975
 20
-157.7565454967631
 30
0.0
 10
91.85095705123371
 20
-157.7565454967631
 30
0.0
 10
91.79567677346991
 20
-157.7565454967631
 30
0.0
 10
91.75105038459207
 20
-157.8013070049504
 30
0.0
 10
91.75105038459207
 20
-157.8564521608809
 30
0.0
 10
91.75105038459207
 20
-157.911556048364
 30
0.0
 10
91.79567677346991
 20
-157.9563588249987
 30
0.0
 10
91.85095705123371
 20
-157.9563588249987
 30
0.0
 10
91.9062373289975
 20
-157.9563588249987
 30
0.0
 10
91.95104010676455
 20
-157.911556048364
 30
0.0
 10
91.95104010676455
 20
-157.8564521608809
 30
0.0
  0
SPLINE
  5
8E
330
7D
100
AcDbEntity
  8
レイヤー 1
 62
   250
420
  2299925
370
     9
100
AcDbSpline
210
0.0
220
0.0
230
1.0
 70
    11
 71
     3
 72
    17
 73
    13
 74
     0
 42
0.0000000001
 43
0.0000000001
 40
0.0
 40
0.0
 40
0.0
 40
0.0
 40
1.0
 40
1.0
 40
1.0
 40
2.0
 40
2.0
 40
2.0
 40
3.0
 40
3.0
 40
3.0
 40
4.0
 40
4.0
 40
4.0
 40
4.0
 10
89.90118955172119
 20
-143.2566877094668
 30
0.0
 10
89.90118955172119
 20
-143.2014074330993
 30
0.0
 10
89.85642205173265
 20
-143.1566046564645
 30
0.0
 10
89.80128288507957
 20
-143.1566046564645
 30
0.0
 10
89.74600260731513
 20
-143.1566046564645
 30
0.0
 10
89.70123510732657
 20
-143.2014074330993
 30
0.0
 10
89.70123510732657
 20
-143.2566877094668
 30
0.0
 10
89.70123510732657
 20
-143.3119679858342
 30
0.0
 10
89.74600260731513
 20
-143.356770762469
 30
0.0
 10
89.80128288507957
 20
-143.356770762469
 30
0.0
 10
89.85642205173265
 20
-143.356770762469
 30
0.0
 10
89.90118955172119
 20
-143.3119679858342
 30
0.0
 10
89.90118955172119
 20
-143.2566877094668
 30
0.0
  0
SPLINE
  5
8F
330
7D
100
AcDbEntity
  8
レイヤー 1
 62
   250
420
  2299925
370
     9
100
AcDbSpline
210
0.0
220
0.0
230
1.0
 70
     9
 71
     3
 72
    17
 73
    13
 74
     0
 42
0.0000000001
 43
0.0000000001
 40
0.0
 40
0.0
 40
0.0
 40
0.0
 40
1.0
 40
1.0
 40
1.0
 40
2.0
 40
2.0
 40
2.0
 40
3.0
 40
3.0
 40
3.0
 40
4.0
 40
4.0
 40
4.0
 40
4.0
 10
89.90118955172119
 20
-144.2564599061827
 30
0.0
 10
89.90118955172119
 20
-144.2013207409227
 30
0.0
 10
89.85642205173265
 20
-144.1565532420645
 30
0.0
 10
89.80128288507957
 20
-144.1565532420645
 30
0.0
 10
89.74600260731513
 20
-144.1565532420645
 30
0.0
 10
89.70123510732657
 20
-144.2013207409227
 30
0.0
 10
89.70123510732657
 20
-144.2564599061827
 30
0.0
 10
89.70123510732657
 20
-144.3119165714345
 30
0.0
 10
89.74600260731513
 20
-144.3567193480693
 30
0.0
 10
89.80128288507957
 20
-144.3567193480693
 30
0.0
 10
89.85642205173265
 20
-144.3567193480693
 30
0.0
 10
89.90118955172119
 20
-144.3119165714345
 30
0.0
 10
89.90118955172119
 20
-144.2564599061827
 30
0.0
  0
SPLINE
  5
90
330
7D
100
AcDbEntity
  8
レイヤー 1
 62
   250
420
  2299925
370
     9
100
AcDbSpline
210
0.0
220
0.0
230
1.0
 70
     9
 71
     3
 72
    17
 73
    13
 74
     0
 42
0.0000000001
 43
0.0000000001
 40
0.0
 40
0.0
 40
0.0
 40
0.0
 40
1.0
 40
1.0
 40
1.0
 40
2.0
 40
2.0
 40
2.0
 40
3.0
 40
3.0
 40
3.0
 40
4.0
 40
4.0
 40
4.0
 40
4.0
 10
97.95101606376739
 20
-157.8564521608809
 30
0.0
 10
97.95101606376739
 20
-157.8013070049504
 30
0.0
 10
97.90624856377883
 20
-157.7565454967631
 30
0.0
 10
97.85096828601503
 20
-157.7565454967631
 30
0.0
 10
97.79582911936165
 20
-157.7565454967631
 30
0.0
 10
97.75106161937308
 20
-157.8013070049504
 30
0.0
 10
97.75106161937308
 20
-157.8564521608809
 30
0.0
 10
97.75106161937308
 20
-157.911556048364
 30
0.0
 10
97.79582911936165
 20
-157.9563588249987
 30
0.0
 10
97.85096828601503
 20
-157.9563588249987
 30
0.0
 10
97.90624856377883
 20
-157.9563588249987
 30
0.0
 10
97.95101606376739
 20
-157.911556048364
 30
0.0
 10
97.95101606376739
 20
-157.8564521608809
 30
0.0
  0
LINE
  5
91
330
7D
100
AcDbEntity
  8
レイヤー 1
 62
   250
420
  2299925
370
     9
100
AcDbLine
 10
91.85113344012259
 20
-157.8564521608809
 30
0.0
 11
97.85096816084523
 21
-157.8564521608809
 31
0.0
  0
LINE
  5
92
330
7D
100
AcDbEntity
  8
レイヤー 1
 62
   250
420
  2299925
370
     9
100
AcDbLine
 10
91.85095705123371
 20
-146.8966134631838
 30
0.0
 11
91.85095705123371
 21
-158.8568946353575
 31
0.0
  0
LINE
  5
93
330
7D
100
AcDbEntity
  8
レイヤー 1
 62
   250
420
  2299925
370
     9
100
AcDbLine
 10
97.85096828601503
 20
-156.3964108092408
 30
0.0
 11
97.85096828601503
 21
-158.8568946353575
 31
0.0
  0
INSERT
  5
95
330
7D
100
AcDbEntity
  8
レイヤー 1
100
AcDbBlockReference
  2
Block_2
 10
0.0
 20
0.0
 30
0.0
  0
LINE
  5
9B
330
7D
100
AcDbEntity
  8
レイヤー 1
 62
   250
420
  2299925
370
     9
100
AcDbLine
 10
97.85096828601503
 20
-157.8564521608809
 30
0.0
 11
114.8509403553084
 21
-157.8564521608809
 31
0.0
  0
LINE
  5
9C
330
7D
100
AcDbEntity
  8
レイヤー 1
 62
   250
420
  2299925
370
     9
100
AcDbLine
 10
114.8509403553084
 20
-155.6963586048784
 30
0.0
 11
114.8509403553084
 21
-158.8568946353575
 31
0.0
  0
INSERT
  5
9E
330
7D
100
AcDbEntity
  8
レイヤー 1
100
AcDbBlockReference
  2
Block_3
 10
0.0
 20
0.0
 30
0.0
  0
LINE
  5
A9
330
7D
100
AcDbEntity
  8
レイヤー 1
 62
   250
420
  2299925
370
     9
100
AcDbLine
 10
118.8506994199327
 20
-152.7568378465385
 30
0.0
 11
118.8506994199327
 21
-143.2566877227124
 31
0.0
  0
LINE
  5
AA
330
7D
100
AcDbEntity
  8
レイヤー 1
 62
   250
420
  2299925
370
     9
100
AcDbLine
 10
101.3910352295741
 20
-143.2566877094668
 30
0.0
 11
119.8511418944093
 21
-143.2566877094668
 31
0.0
  0
INSERT
  5
AC
330
7D
100
AcDbEntity
  8
レイヤー 1
100
AcDbBlockReference
  2
Block_5
 10
0.0
 20
0.0
 30
0.0
  0
LINE
  5
BA
330
7D
100
AcDbEntity
  8
レイヤー 1
 62
   250
420
  2299925
370
     9
100
AcDbLine
 10
118.8506994199327
 20
-153.1568172807786
 30
0.0
 11
118.8506994199327
 21
-154.1565894774945
 31
0.0
  0
LINE
  5
BB
330
7D
100
AcDbEntity
  8
レイヤー 1
 62
   250
420
  2299925
370
     9
100
AcDbLine
 10
118.8506994199327
 20
-152.7568378465385
 30
0.0
 11
118.8506994199327
 21
-153.1568172807786
 31
0.0
  0
LINE
  5
BC
330
7D
100
AcDbEntity
  8
レイヤー 1
 62
   250
420
  2299925
370
     9
100
AcDbLine
 10
117.3906580682925
 20
-152.7568378465385
 30
0.0
 11
119.8511418944093
 21
-152.7568378465385
 31
0.0
  0
LINE
  5
BD
330
7D
100
AcDbEntity
  8
レイヤー 1
 62
   250
420
  2299925
370
     9
100
AcDbLine
 10
117.3906580682925
 20
-153.1568172807786
 30
0.0
 11
119.8511418944093
 21
-153.1568172807786
 31
0.0
  0
INSERT
  5
BF
330
7D
100
AcDbEntity
  8
レイヤー 1
100
AcDbBlockReference
  2
Block_7
 10
0.0
 20
0.0
 30
0.0
  0
LINE
  5
CE
330
7D
100
AcDbEntity
  8
レイヤー 1
 62
   250
420
  2299925
370
     9
100
AcDbLine
 10
89.80128288507957
 20
-143.2566877094668
 30
0.0
 11
89.80128288507957
 21
-142.2567391238665
 31
0.0
  0
LINE
  5
CF
330
7D
100
AcDbEntity
  8
レイヤー 1
 62
   250
420
  2299925
370
     9
100
AcDbLine
 10
89.80128288507957
 20
-143.2566877094668
 30
0.0
 11
89.80128288507957
 21
-145.2565496028902
 31
0.0
  0
LINE
  5
D0
330
7D
100
AcDbEntity
  8
レイヤー 1
 62
   250
420
  2299925
370
     9
100
AcDbLine
 10
91.2611478847144
 20
-143.2566877094668
 30
0.0
 11
88.80119316310711
 21
-143.2566877094668
 31
0.0
  0
LINE
  5
D1
330
7D
100
AcDbEntity
  8
レイヤー 1
 62
   250
420
  2299925
370
     9
100
AcDbLine
 10
91.2611478847144
 20
-144.2564599061827
 30
0.0
 11
88.80119316310711
 21
-144.2564599061827
 31
0.0
  0
INSERT
  5
D3
330
7D
100
AcDbEntity
  8
レイヤー 1
100
AcDbBlockReference
  2
Block_9
 10
0.0
 20
0.0
 30
0.0
  0
ENDBLK
  5
80
330
7D
100
AcDbEntity
  8
0
100
AcDbBlockEnd
  0
BLOCK
  5
96
330
94
100
AcDbEntity
  8
0
100
AcDbBlockBegin
  2
Block_2
 70
     0
 10
0.0
 20
0.0
 30
0.0
  3
Block_2
  1

  0
SPLINE
  5
98
330
94
100
AcDbEntity
  8
レイヤー 1
100
AcDbSpline
210
0.0
220
0.0
230
1.0
 70
     9
 71
     3
 72
    17
 73
    13
 74
     0
 42
0.0000000001
 43
0.0000000001
 40
0.0
 40
0.0
 40
0.0
 40
0.0
 40
1.0
 40
1.0
 40
1.0
 40
2.0
 40
2.0
 40
2.0
 40
3.0
 40
3.0
 40
3.0
 40
4.0
 40
4.0
 40
4.0
 40
4.0
 10
94.84933537125295
 20
-156.4021673871147
 30
0.0
 10
94.62574867426024
 20
-156.4021673871147
 30
0.0
 10
94.59336477669889
 20
-156.6136962499091
 30
0.0
 10
94.59336477669889
 20
-156.7301404773105
 30
0.0
 10
94.59336477669889
 20
-156.9058403470583
 30
0.0
 10
94.67466903015077
 20
-157.0687933635106
 30
0.0
 10
94.83142087472964
 20
-157.0687933635106
 30
0.0
 10
94.93442922973862
 20
-157.0687933635106
 30
0.0
 10
95.08394637379847
 20
-157.0095377211643
 30
0.0
 10
95.08394637379847
 20
-156.7239393054371
 30
0.0
 10
95.08394637379847
 20
-156.4996635893473
 30
0.0
 10
94.96509057955734
 20
-156.4021673871147
 30
0.0
 10
94.84933537125295
 20
-156.4021673871147
 30
0.0
  0
SPLINE
  5
99
330
94
100
AcDbEntity
  8
レイヤー 1
100
AcDbSpline
210
0.0
220
0.0
230
1.0
 70
     9
 71
     3
 72
    32
 73
    28
 74
     0
 42
0.0000000001
 43
0.0000000001
 40
0.0
 40
0.0
 40
0.0
 40
0.0
 40
1.0
 40
1.0
 40
1.0
 40
2.0
 40
2.0
 40
2.0
 40
3.0
 40
3.0
 40
3.0
 40
4.0
 40
4.0
 40
4.0
 40
5.0
 40
5.0
 40
5.0
 40
6.0
 40
6.0
 40
6.0
 40
7.0
 40
7.0
 40
7.0
 40
8.0
 40
8.0
 40
8.0
 40
9.0
 40
9.0
 40
9.0
 40
9.0
 10
94.83521047976342
 20
-157.2610296915875
 30
0.0
 10
94.39492727674849
 20
-157.2610296915875
 30
0.0
 10
94.38769257622947
 20
-156.7070583375593
 30
0.0
 10
94.38769257622947
 20
-156.4931179079253
 30
0.0
 10
94.38769257622947
 20
-156.2626410199621
 30
0.0
 10
94.40422903455866
 20
-155.6153075782837
 30
0.0
 10
94.86759437732478
 20
-155.6153075782837
 30
0.0
 10
95.01538897364198
 20
-155.6153075782837
 30
0.0
 10
95.22450626959665
 20
-155.6852430166342
 30
0.0
 10
95.256890167158
 20
-156.0173502214123
 30
0.0
 10
95.256890167158
 20
-156.0173502214123
 30
0.0
 10
95.07498912553682
 20
-156.0173502214123
 30
0.0
 10
95.07498912553682
 20
-156.0173502214123
 30
0.0
 10
95.06603187727517
 20
-155.9601616363572
 30
0.0
 10
95.03881562294168
 20
-155.8120225304914
 30
0.0
 10
94.86587182958215
 20
-155.8120225304914
 30
0.0
 10
94.61679142599859
 20
-155.8120225304914
 30
0.0
 10
94.58268498069461
 20
-156.1399956206872
 30
0.0
 10
94.57166067514181
 20
-156.3449788020596
 30
0.0
 10
94.65124238085108
 20
-156.2667751345444
 30
0.0
 10
94.70877547545475
 20
-156.2075194921981
 30
0.0
 10
94.86380477229101
 20
-156.2075194921981
 30
0.0
 10
95.01711152138462
 20
-156.2075194921981
 30
0.0
 10
95.27514917322983
 20
-156.3156954904349
 30
0.0
 10
95.27514917322983
 20
-156.7218722481459
 30
0.0
 10
95.27514917322983
 20
-157.0412325996286
 30
0.0
 10
95.10565047535553
 20
-157.2610296915875
 30
0.0
 10
94.83521047976342
 20
-157.2610296915875
 30
0.0
  0
HATCH
  5
9A
330
94
100
AcDbEntity
  8
レイヤー 1
 62
   250
420
  2299925
440
 33554687
100
AcDbHatch
 10
0.0
 20
0.0
 30
0.0
210
0.0
220
0.0
230
1.0
  2
SOLID
 70
     1
 71
     1
 91
        2
 92
        1
 93
        1
 72
     4
 94
        3
 73
     0
 74
     0
 95
       17
 96
       13
 40
0.0
 40
0.0
 40
0.0
 40
0.0
 40
1.0
 40
1.0
 40
1.0
 40
2.0
 40
2.0
 40
2.0
 40
3.0
 40
3.0
 40
3.0
 40
4.0
 40
4.0
 40
4.0
 40
4.0
 10
94.84933537125295
 20
-156.4021673871147
 10
94.62574867426024
 20
-156.4021673871147
 10
94.59336477669889
 20
-156.6136962499091
 10
94.59336477669889
 20
-156.7301404773105
 10
94.59336477669889
 20
-156.9058403470583
 10
94.67466903015077
 20
-157.0687933635106
 10
94.83142087472964
 20
-157.0687933635106
 10
94.93442922973862
 20
-157.0687933635106
 10
95.08394637379847
 20
-157.0095377211643
 10
95.08394637379847
 20
-156.7239393054371
 10
95.08394637379847
 20
-156.4996635893473
 10
94.96509057955734
 20
-156.4021673871147
 10
94.84933537125295
 20
-156.4021673871147
 97
        0
 97
        1
330
98
 92
        1
 93
        1
 72
     4
 94
        3
 73
     0
 74
     0
 95
       32
 96
       28
 40
0.0
 40
0.0
 40
0.0
 40
0.0
 40
1.0
 40
1.0
 40
1.0
 40
2.0
 40
2.0
 40
2.0
 40
3.0
 40
3.0
 40
3.0
 40
4.0
 40
4.0
 40
4.0
 40
5.0
 40
5.0
 40
5.0
 40
6.0
 40
6.0
 40
6.0
 40
7.0
 40
7.0
 40
7.0
 40
8.0
 40
8.0
 40
8.0
 40
9.0
 40
9.0
 40
9.0
 40
9.0
 10
94.83521047976342
 20
-157.2610296915875
 10
94.39492727674849
 20
-157.2610296915875
 10
94.38769257622947
 20
-156.7070583375593
 10
94.38769257622947
 20
-156.4931179079253
 10
94.38769257622947
 20
-156.2626410199621
 10
94.40422903455866
 20
-155.6153075782837
 10
94.86759437732478
 20
-155.6153075782837
 10
95.01538897364198
 20
-155.6153075782837
 10
95.22450626959665
 20
-155.6852430166342
 10
95.256890167158
 20
-156.0173502214123
 10
95.256890167158
 20
-156.0173502214123
 10
95.07498912553682
 20
-156.0173502214123
 10
95.07498912553682
 20
-156.0173502214123
 10
95.06603187727517
 20
-155.9601616363572
 10
95.03881562294168
 20
-155.8120225304914
 10
94.86587182958215
 20
-155.8120225304914
 10
94.61679142599859
 20
-155.8120225304914
 10
94.58268498069461
 20
-156.1399956206872
 10
94.57166067514181
 20
-156.3449788020596
 10
94.65124238085108
 20
-156.2667751345444
 10
94.70877547545475
 20
-156.2075194921981
 10
94.86380477229101
 20
-156.2075194921981
 10
95.01711152138462
 20
-156.2075194921981
 10
95.27514917322983
 20
-156.3156954904349
 10
95.27514917322983
 20
-156.7218722481459
 10
95.27514917322983
 20
-157.0412325996286
 10
95.10565047535553
 20
-157.2610296915875
 10
94.83521047976342
 20
-157.2610296915875
 97
        0
 97
        1
330
99
 75
     2
 76
     1
 98
        1
 10
0.0
 20
0.0
450
        0
451
        0
460
0.0
461
0.0
452
        0
462
0.0
453
        0
470

  0
ENDBLK
  5
97
330
94
100
AcDbEntity
  8
0
100
AcDbBlockEnd
  0
BLOCK
  5
9F
330
9D
100
AcDbEntity
  8
0
100
AcDbBlockBegin
  2
Block_3
 70
     0
 10
0.0
 20
0.0
 30
0.0
  3
Block_3
  1

  0
INSERT
  5
A2
330
9D
100
AcDbEntity
  8
レイヤー 1
100
AcDbBlockReference
  2
Block_4
 10
0.0
 20
0.0
 30
0.0
  0
ENDBLK
  5
A0
330
9D
100
AcDbEntity
  8
0
100
AcDbBlockEnd
  0
BLOCK
  5
A3
330
A1
100
AcDbEntity
  8
0
100
AcDbBlockBegin
  2
Block_4
 70
     0
 10
0.0
 20
0.0
 30
0.0
  3
Block_4
  1

  0
SPLINE
  5
A5
330
A1
100
AcDbEntity
  8
レイヤー 1
100
AcDbSpline
210
0.0
220
0.0
230
1.0
 70
    11
 71
     3
 72
    26
 73
    22
 74
     0
 42
0.0000000001
 43
0.0000000001
 40
0.0
 40
0.0
 40
0.0
 40
0.0
 40
1.0
 40
1.0
 40
1.0
 40
2.0
 40
2.0
 40
2.0
 40
3.0
 40
3.0
 40
3.0
 40
4.0
 40
4.0
 40
4.0
 40
5.0
 40
5.0
 40
5.0
 40
6.0
 40
6.0
 40
6.0
 40
7.0
 40
7.0
 40
7.0
 40
7.0
 10
105.8092176384782
 20
-157.2107312975029
 30
0.0
 10
105.8092176384782
 20
-157.2107312975029
 30
0.0
 10
105.8092176384782
 20
-156.1065781944803
 30
0.0
 10
105.8092176384782
 20
-156.1065781944803
 30
0.0
 10
105.8092176384782
 20
-156.1065781944803
 30
0.0
 10
105.5277533373333
 20
-156.1065781944803
 30
0.0
 10
105.5277533373333
 20
-156.1065781944803
 30
0.0
 10
105.5277533373333
 20
-156.1065781944803
 30
0.0
 10
105.5277533373333
 20
-155.9584390886145
 30
0.0
 10
105.5277533373333
 20
-155.9584390886145
 30
0.0
 10
105.8109401862209
 20
-155.943625178028
 30
0.0
 10
105.8505587843012
 20
-155.7806721615756
 30
0.0
 10
105.8757079813436
 20
-155.6662949914653
 30
0.0
 10
105.8757079813436
 20
-155.6662949914653
 30
0.0
 10
106.0004204379096
 20
-155.6662949914653
 30
0.0
 10
106.0004204379096
 20
-155.6662949914653
 30
0.0
 10
106.0004204379096
 20
-155.6662949914653
 30
0.0
 10
106.0004204379096
 20
-157.2107312975029
 30
0.0
 10
106.0004204379096
 20
-157.2107312975029
 30
0.0
 10
106.0004204379096
 20
-157.2107312975029
 30
0.0
 10
105.8092176384782
 20
-157.2107312975029
 30
0.0
 10
105.8092176384782
 20
-157.2107312975029
 30
0.0
  0
HATCH
  5
A6
330
A1
100
AcDbEntity
  8
レイヤー 1
 62
   250
420
  2299925
440
 33554687
100
AcDbHatch
 10
0.0
 20
0.0
 30
0.0
210
0.0
220
0.0
230
1.0
  2
SOLID
 70
     1
 71
     1
 91
        1
 92
        1
 93
        1
 72
     4
 94
        3
 73
     0
 74
     0
 95
       26
 96
       22
 40
0.0
 40
0.0
 40
0.0
 40
0.0
 40
1.0
 40
1.0
 40
1.0
 40
2.0
 40
2.0
 40
2.0
 40
3.0
 40
3.0
 40
3.0
 40
4.0
 40
4.0
 40
4.0
 40
5.0
 40
5.0
 40
5.0
 40
6.0
 40
6.0
 40
6.0
 40
7.0
 40
7.0
 40
7.0
 40
7.0
 10
105.8092176384782
 20
-157.2107312975029
 10
105.8092176384782
 20
-157.2107312975029
 10
105.8092176384782
 20
-156.1065781944803
 10
105.8092176384782
 20
-156.1065781944803
 10
105.8092176384782
 20
-156.1065781944803
 10
105.5277533373333
 20
-156.1065781944803
 10
105.5277533373333
 20
-156.1065781944803
 10
105.5277533373333
 20
-156.1065781944803
 10
105.5277533373333
 20
-155.9584390886145
 10
105.5277533373333
 20
-155.9584390886145
 10
105.8109401862209
 20
-155.943625178028
 10
105.8505587843012
 20
-155.7806721615756
 10
105.8757079813436
 20
-155.6662949914653
 10
105.8757079813436
 20
-155.6662949914653
 10
106.0004204379096
 20
-155.6662949914653
 10
106.0004204379096
 20
-155.6662949914653
 10
106.0004204379096
 20
-155.6662949914653
 10
106.0004204379096
 20
-157.2107312975029
 10
106.0004204379096
 20
-157.2107312975029
 10
106.0004204379096
 20
-157.2107312975029
 10
105.8092176384782
 20
-157.2107312975029
 10
105.8092176384782
 20
-157.2107312975029
 97
        0
 97
        1
330
A5
 75
     2
 76
     1
 98
        1
 10
0.0
 20
0.0
450
        0
451
        0
460
0.0
461
0.0
452
        0
462
0.0
453
        0
470

  0
SPLINE
  5
A7
330
A1
100
AcDbEntity
  8
レイヤー 1
100
AcDbSpline
210
0.0
220
0.0
230
1.0
 70
     9
 71
     3
 72
    26
 73
    22
 74
     0
 42
0.0000000001
 43
0.0000000001
 40
0.0
 40
0.0
 40
0.0
 40
0.0
 40
1.0
 40
1.0
 40
1.0
 40
2.0
 40
2.0
 40
2.0
 40
3.0
 40
3.0
 40
3.0
 40
4.0
 40
4.0
 40
4.0
 40
5.0
 40
5.0
 40
5.0
 40
6.0
 40
6.0
 40
6.0
 40
7.0
 40
7.0
 40
7.0
 40
7.0
 10
106.7766004507364
 20
-157.2107312975029
 30
0.0
 10
106.7766004507364
 20
-157.2107312975029
 30
0.0
 10
106.5747178553007
 20
-157.2107312975029
 30
0.0
 10
106.5747178553007
 20
-157.2107312975029
 30
0.0
 10
106.5964219568578
 20
-156.9017062324759
 30
0.0
 10
106.7604085019557
 20
-156.3835638714944
 30
0.0
 10
107.1066405982233
 20
-155.8778238542597
 30
0.0
 10
107.1066405982233
 20
-155.8778238542597
 30
0.0
 10
106.392472304131
 20
-155.8778238542597
 30
0.0
 10
106.392472304131
 20
-155.8778238542597
 30
0.0
 10
106.392472304131
 20
-155.8778238542597
 30
0.0
 10
106.392472304131
 20
-155.6662949914653
 30
0.0
 10
106.392472304131
 20
-155.6662949914653
 30
0.0
 10
106.392472304131
 20
-155.6662949914653
 30
0.0
 10
107.308523193659
 20
-155.6662949914653
 30
0.0
 10
107.308523193659
 20
-155.6662949914653
 30
0.0
 10
107.308523193659
 20
-155.6662949914653
 30
0.0
 10
107.308523193659
 20
-155.8778238542597
 30
0.0
 10
107.308523193659
 20
-155.8778238542597
 30
0.0
 10
107.032915554839
 20
-156.1679008941177
 30
0.0
 10
106.8055392528125
 20
-156.7601128080322
 30
0.0
 10
106.7766004507364
 20
-157.2107312975029
 30
0.0
  0
HATCH
  5
A8
330
A1
100
AcDbEntity
  8
レイヤー 1
 62
   250
420
  2299925
440
 33554687
100
AcDbHatch
 10
0.0
 20
0.0
 30
0.0
210
0.0
220
0.0
230
1.0
  2
SOLID
 70
     1
 71
     1
 91
        1
 92
        1
 93
        1
 72
     4
 94
        3
 73
     0
 74
     0
 95
       26
 96
       22
 40
0.0
 40
0.0
 40
0.0
 40
0.0
 40
1.0
 40
1.0
 40
1.0
 40
2.0
 40
2.0
 40
2.0
 40
3.0
 40
3.0
 40
3.0
 40
4.0
 40
4.0
 40
4.0
 40
5.0
 40
5.0
 40
5.0
 40
6.0
 40
6.0
 40
6.0
 40
7.0
 40
7.0
 40
7.0
 40
7.0
 10
106.7766004507364
 20
-157.2107312975029
 10
106.7766004507364
 20
-157.2107312975029
 10
106.5747178553007
 20
-157.2107312975029
 10
106.5747178553007
 20
-157.2107312975029
 10
106.5964219568578
 20
-156.9017062324759
 10
106.7604085019557
 20
-156.3835638714944
 10
107.1066405982233
 20
-155.8778238542597
 10
107.1066405982233
 20
-155.8778238542597
 10
106.392472304131
 20
-155.8778238542597
 10
106.392472304131
 20
-155.8778238542597
 10
106.392472304131
 20
-155.8778238542597
 10
106.392472304131
 20
-155.6662949914653
 10
106.392472304131
 20
-155.6662949914653
 10
106.392472304131
 20
-155.6662949914653
 10
107.308523193659
 20
-155.6662949914653
 10
107.308523193659
 20
-155.6662949914653
 10
107.308523193659
 20
-155.6662949914653
 10
107.308523193659
 20
-155.8778238542597
 10
107.308523193659
 20
-155.8778238542597
 10
107.032915554839
 20
-156.1679008941177
 10
106.8055392528125
 20
-156.7601128080322
 10
106.7766004507364
 20
-157.2107312975029
 97
        0
 97
        1
330
A7
 75
     2
 76
     1
 98
        1
 10
0.0
 20
0.0
450
        0
451
        0
460
0.0
461
0.0
452
        0
462
0.0
453
        0
470

  0
ENDBLK
  5
A4
330
A1
100
AcDbEntity
  8
0
100
AcDbBlockEnd
  0
BLOCK
  5
AD
330
AB
100
AcDbEntity
  8
0
100
AcDbBlockBegin
  2
Block_5
 70
     0
 10
0.0
 20
0.0
 30
0.0
  3
Block_5
  1

  0
INSERT
  5
B0
330
AB
100
AcDbEntity
  8
レイヤー 1
100
AcDbBlockReference
  2
Block_6
 10
0.0
 20
0.0
 30
0.0
  0
ENDBLK
  5
AE
330
AB
100
AcDbEntity
  8
0
100
AcDbBlockEnd
  0
BLOCK
  5
B1
330
AF
100
AcDbEntity
  8
0
100
AcDbBlockBegin
  2
Block_6
 70
     0
 10
0.0
 20
0.0
 30
0.0
  3
Block_6
  1

  0
SPLINE
  5
B3
330
AF
100
AcDbEntity
  8
レイヤー 1
100
AcDbSpline
210
0.0
220
0.0
230
1.0
 70
     9
 71
     3
 72
    17
 73
    13
 74
     0
 42
0.0000000001
 43
0.0000000001
 40
0.0
 40
0.0
 40
0.0
 40
0.0
 40
1.0
 40
1.0
 40
1.0
 40
2.0
 40
2.0
 40
2.0
 40
3.0
 40
3.0
 40
3.0
 40
4.0
 40
4.0
 40
4.0
 40
4.0
 10
116.8045843892016
 20
-148.7430311043073
 30
0.0
 10
116.8045843892016
 20
-148.8439724020251
 30
0.0
 10
116.8617729742567
 20
-148.9938340556335
 30
0.0
 10
117.147371389984
 20
-148.9938340556335
 30
0.0
 10
117.3737141633649
 20
-148.9938340556335
 30
0.0
 10
117.4687987987578
 20
-148.8746337518438
 30
0.0
 10
117.4687987987578
 20
-148.7592230530879
 30
0.0
 10
117.4687987987578
 20
-148.5356363560953
 30
0.0
 10
117.2593369932546
 20
-148.5032524585339
 30
0.0
 10
117.1428927658531
 20
-148.5032524585339
 30
0.0
 10
116.9675374056539
 20
-148.5032524585339
 30
0.0
 10
116.8045843892016
 20
-148.5842122024373
 30
0.0
 10
116.8045843892016
 20
-148.7430311043073
 30
0.0
  0
SPLINE
  5
B4
330
AF
100
AcDbEntity
  8
レイヤー 1
100
AcDbSpline
210
0.0
220
0.0
230
1.0
 70
     9
 71
     3
 72
    32
 73
    28
 74
     0
 42
0.0000000001
 43
0.0000000001
 40
0.0
 40
0.0
 40
0.0
 40
0.0
 40
1.0
 40
1.0
 40
1.0
 40
2.0
 40
2.0
 40
2.0
 40
3.0
 40
3.0
 40
3.0
 40
4.0
 40
4.0
 40
4.0
 40
5.0
 40
5.0
 40
5.0
 40
6.0
 40
6.0
 40
6.0
 40
7.0
 40
7.0
 40
7.0
 40
8.0
 40
8.0
 40
8.0
 40
9.0
 40
9.0
 40
9.0
 40
9.0
 10
118.2556586075888
 20
-148.7774820591598
 30
0.0
 10
118.2556586075888
 20
-148.925276655477
 30
0.0
 10
118.1860676787868
 20
-149.1343939514317
 30
0.0
 10
117.8539604740087
 20
-149.166777848993
 30
0.0
 10
117.8539604740087
 20
-149.166777848993
 30
0.0
 10
117.8539604740087
 20
-148.9845322978233
 30
0.0
 10
117.8539604740087
 20
-148.9845322978233
 30
0.0
 10
117.913216116355
 20
-148.9755750495616
 30
0.0
 10
118.0610107126722
 20
-148.9487033047767
 30
0.0
 10
118.0610107126722
 20
-148.7754150018686
 30
0.0
 10
118.0610107126722
 20
-148.5266791078336
 30
0.0
 10
117.7313150747338
 20
-148.4942952102722
 30
0.0
 10
117.5259873838129
 20
-148.4832709047194
 30
0.0
 10
117.6062581086192
 20
-148.5607855531376
 30
0.0
 10
117.6634466936744
 20
-148.6186631572897
 30
0.0
 10
117.6634466936744
 20
-148.773692454126
 30
0.0
 10
117.6634466936744
 20
-148.9269992032196
 30
0.0
 10
117.5576822622772
 20
-149.1850368550648
 30
0.0
 10
117.1515055045663
 20
-149.1850368550648
 30
0.0
 10
116.8321451530836
 20
-149.1850368550648
 30
0.0
 10
116.6120035515761
 20
-149.015193647642
 30
0.0
 10
116.6120035515761
 20
-148.7447536520499
 30
0.0
 10
116.6120035515761
 20
-148.3065375063261
 30
0.0
 10
117.1663194151528
 20
-148.2975802580645
 30
0.0
 10
117.3799153352383
 20
-148.2975802580645
 30
0.0
 10
117.6103922232015
 20
-148.2975802580645
 30
0.0
 10
118.2556586075888
 20
-148.3137722068452
 30
0.0
 10
118.2556586075888
 20
-148.7774820591598
 30
0.0
  0
HATCH
  5
B5
330
AF
100
AcDbEntity
  8
レイヤー 1
 62
   250
420
  2299925
440
 33554687
100
AcDbHatch
 10
0.0
 20
0.0
 30
0.0
210
0.0
220
0.0
230
1.0
  2
SOLID
 70
     1
 71
     1
 91
        2
 92
        1
 93
        1
 72
     4
 94
        3
 73
     0
 74
     0
 95
       17
 96
       13
 40
0.0
 40
0.0
 40
0.0
 40
0.0
 40
1.0
 40
1.0
 40
1.0
 40
2.0
 40
2.0
 40
2.0
 40
3.0
 40
3.0
 40
3.0
 40
4.0
 40
4.0
 40
4.0
 40
4.0
 10
116.8045843892016
 20
-148.7430311043073
 10
116.8045843892016
 20
-148.8439724020251
 10
116.8617729742567
 20
-148.9938340556335
 10
117.147371389984
 20
-148.9938340556335
 10
117.3737141633649
 20
-148.9938340556335
 10
117.4687987987578
 20
-148.8746337518438
 10
117.4687987987578
 20
-148.7592230530879
 10
117.4687987987578
 20
-148.5356363560953
 10
117.2593369932546
 20
-148.5032524585339
 10
117.1428927658531
 20
-148.5032524585339
 10
116.9675374056539
 20
-148.5032524585339
 10
116.8045843892016
 20
-148.5842122024373
 10
116.8045843892016
 20
-148.7430311043073
 97
        0
 97
        1
330
B3
 92
        1
 93
        1
 72
     4
 94
        3
 73
     0
 74
     0
 95
       32
 96
       28
 40
0.0
 40
0.0
 40
0.0
 40
0.0
 40
1.0
 40
1.0
 40
1.0
 40
2.0
 40
2.0
 40
2.0
 40
3.0
 40
3.0
 40
3.0
 40
4.0
 40
4.0
 40
4.0
 40
5.0
 40
5.0
 40
5.0
 40
6.0
 40
6.0
 40
6.0
 40
7.0
 40
7.0
 40
7.0
 40
8.0
 40
8.0
 40
8.0
 40
9.0
 40
9.0
 40
9.0
 40
9.0
 10
118.2556586075888
 20
-148.7774820591598
 10
118.2556586075888
 20
-148.925276655477
 10
118.1860676787868
 20
-149.1343939514317
 10
117.8539604740087
 20
-149.166777848993
 10
117.8539604740087
 20
-149.166777848993
 10
117.8539604740087
 20
-148.9845322978233
 10
117.8539604740087
 20
-148.9845322978233
 10
117.913216116355
 20
-148.9755750495616
 10
118.0610107126722
 20
-148.9487033047767
 10
118.0610107126722
 20
-148.7754150018686
 10
118.0610107126722
 20
-148.5266791078336
 10
117.7313150747338
 20
-148.4942952102722
 10
117.5259873838129
 20
-148.4832709047194
 10
117.6062581086192
 20
-148.5607855531376
 10
117.6634466936744
 20
-148.6186631572897
 10
117.6634466936744
 20
-148.773692454126
 10
117.6634466936744
 20
-148.9269992032196
 10
117.5576822622772
 20
-149.1850368550648
 10
117.1515055045663
 20
-149.1850368550648
 10
116.8321451530836
 20
-149.1850368550648
 10
116.6120035515761
 20
-149.015193647642
 10
116.6120035515761
 20
-148.7447536520499
 10
116.6120035515761
 20
-148.3065375063261
 10
117.1663194151528
 20
-148.2975802580645
 10
117.3799153352383
 20
-148.2975802580645
 10
117.6103922232015
 20
-148.2975802580645
 10
118.2556586075888
 20
-148.3137722068452
 10
118.2556586075888
 20
-148.7774820591598
 97
        0
 97
        1
330
B4
 75
     2
 76
     1
 98
        1
 10
0.0
 20
0.0
450
        0
451
        0
460
0.0
461
0.0
452
        0
462
0.0
453
        0
470

  0
SPLINE
  5
B6
330
AF
100
AcDbEntity
  8
レイヤー 1
100
AcDbSpline
210
0.0
220
0.0
230
1.0
 70
    11
 71
     3
 72
    17
 73
    13
 74
     0
 42
0.0000000001
 43
0.0000000001
 40
0.0
 40
0.0
 40
0.0
 40
0.0
 40
1.0
 40
1.0
 40
1.0
 40
2.0
 40
2.0
 40
2.0
 40
3.0
 40
3.0
 40
3.0
 40
4.0
 40
4.0
 40
4.0
 40
4.0
 10
118.2050157039557
 20
-148.1146456877977
 30
0.0
 10
118.2050157039557
 20
-148.1146456877977
 30
0.0
 10
117.9531792239839
 20
-148.1146456877977
 30
0.0
 10
117.9531792239839
 20
-148.1146456877977
 30
0.0
 10
117.9531792239839
 20
-148.1146456877977
 30
0.0
 10
117.9531792239839
 20
-147.9000162390667
 30
0.0
 10
117.9531792239839
 20
-147.9000162390667
 30
0.0
 10
117.9531792239839
 20
-147.9000162390667
 30
0.0
 10
118.2050157039557
 20
-147.9000162390667
 30
0.0
 10
118.2050157039557
 20
-147.9000162390667
 30
0.0
 10
118.2050157039557
 20
-147.9000162390667
 30
0.0
 10
118.2050157039557
 20
-148.1146456877977
 30
0.0
 10
118.2050157039557
 20
-148.1146456877977
 30
0.0
  0
HATCH
  5
B7
330
AF
100
AcDbEntity
  8
レイヤー 1
 62
   250
420
  2299925
440
 33554687
100
AcDbHatch
 10
0.0
 20
0.0
 30
0.0
210
0.0
220
0.0
230
1.0
  2
SOLID
 70
     1
 71
     1
 91
        1
 92
        1
 93
        1
 72
     4
 94
        3
 73
     0
 74
     0
 95
       17
 96
       13
 40
0.0
 40
0.0
 40
0.0
 40
0.0
 40
1.0
 40
1.0
 40
1.0
 40
2.0
 40
2.0
 40
2.0
 40
3.0
 40
3.0
 40
3.0
 40
4.0
 40
4.0
 40
4.0
 40
4.0
 10
118.2050157039557
 20
-148.1146456877977
 10
118.2050157039557
 20
-148.1146456877977
 10
117.9531792239839
 20
-148.1146456877977
 10
117.9531792239839
 20
-148.1146456877977
 10
117.9531792239839
 20
-148.1146456877977
 10
117.9531792239839
 20
-147.9000162390667
 10
117.9531792239839
 20
-147.9000162390667
 10
117.9531792239839
 20
-147.9000162390667
 10
118.2050157039557
 20
-147.9000162390667
 10
118.2050157039557
 20
-147.9000162390667
 10
118.2050157039557
 20
-147.9000162390667
 10
118.2050157039557
 20
-148.1146456877977
 10
118.2050157039557
 20
-148.1146456877977
 97
        0
 97
        1
330
B6
 75
     2
 76
     1
 98
        1
 10
0.0
 20
0.0
450
        0
451
        0
460
0.0
461
0.0
452
        0
462
0.0
453
        0
470

  0
SPLINE
  5
B8
330
AF
100
AcDbEntity
  8
レイヤー 1
100
AcDbSpline
210
0.0
220
0.0
230
1.0
 70
     9
 71
     3
 72
    53
 73
    49
 74
     0
 42
0.0000000001
 43
0.0000000001
 40
0.0
 40
0.0
 40
0.0
 40
0.0
 40
1.0
 40
1.0
 40
1.0
 40
2.0
 40
2.0
 40
2.0
 40
3.0
 40
3.0
 40
3.0
 40
4.0
 40
4.0
 40
4.0
 40
5.0
 40
5.0
 40
5.0
 40
6.0
 40
6.0
 40
6.0
 40
7.0
 40
7.0
 40
7.0
 40
8.0
 40
8.0
 40
8.0
 40
9.0
 40
9.0
 40
9.0
 40
10.0
 40
10.0
 40
10.0
 40
11.0
 40
11.0
 40
11.0
 40
12.0
 40
12.0
 40
12.0
 40
13.0
 40
13.0
 40
13.0
 40
14.0
 40
14.0
 40
14.0
 40
15.0
 40
15.0
 40
15.0
 40
16.0
 40
16.0
 40
16.0
 40
16.0
 10
118.2556586075888
 20
-147.2888562999833
 30
0.0
 10
118.2556586075888
 20
-147.3556911523972
 30
0.0
 10
118.2387776397111
 20
-147.4421630490769
 30
0.0
 10
118.1753878827825
 20
-147.5286349457567
 30
0.0
 10
118.065489336803
 20
-147.6764295420739
 30
0.0
 10
117.934231198815
 20
-147.6946885481458
 30
0.0
 10
117.8263997101267
 20
-147.7108804969264
 30
0.0
 10
117.8263997101267
 20
-147.7108804969264
 30
0.0
 10
117.8263997101267
 20
-147.5214002452377
 30
0.0
 10
117.8263997101267
 20
-147.5214002452377
 30
0.0
 10
118.0251817196256
 20
-147.4745469466383
 30
0.0
 10
118.0548095407988
 20
-147.3663709484014
 30
0.0
 10
118.0548095407988
 20
-147.2871337522407
 30
0.0
 10
118.0548095407988
 20
-147.167933448451
 30
0.0
 10
117.955246281275
 20
-147.0380533486572
 30
0.0
 10
117.7227023360207
 20
-147.0380533486572
 30
0.0
 10
117.4667317414666
 20
-147.0380533486572
 30
0.0
 10
117.3967963031161
 20
-147.1913600977508
 30
0.0
 10
117.3967963031161
 20
-147.2943684527597
 30
0.0
 10
117.3967963031161
 20
-147.3212401975447
 30
0.0
 10
117.3967963031161
 20
-147.4421630490769
 30
0.0
 10
117.5259873838129
 20
-147.5179551497524
 30
0.0
 10
117.5259873838129
 20
-147.5179551497524
 30
0.0
 10
117.5070393586441
 20
-147.6674722938123
 30
0.0
 10
117.5070393586441
 20
-147.6674722938123
 30
0.0
 10
117.5070393586441
 20
-147.6674722938123
 30
0.0
 10
116.6605793979182
 20
-147.5648084483518
 30
0.0
 10
116.6605793979182
 20
-147.5648084483518
 30
0.0
 10
116.6605793979182
 20
-147.5648084483518
 30
0.0
 10
116.6605793979182
 20
-146.9012830578927
 30
0.0
 10
116.6605793979182
 20
-146.9012830578927
 30
0.0
 10
116.6605793979182
 20
-146.9012830578927
 30
0.0
 10
116.8552272928348
 20
-146.9012830578927
 30
0.0
 10
116.8552272928348
 20
-146.9012830578927
 30
0.0
 10
116.8552272928348
 20
-146.9012830578927
 30
0.0
 10
116.8552272928348
 20
-147.4259711002963
 30
0.0
 10
116.8552272928348
 20
-147.4259711002963
 30
0.0
 10
116.8552272928348
 20
-147.4259711002963
 30
0.0
 10
117.2782850184235
 20
-147.4817816471573
 30
0.0
 10
117.2782850184235
 20
-147.4817816471573
 30
0.0
 10
117.244523082668
 20
-147.4294161957815
 30
0.0
 10
117.2042154654906
 20
-147.3591362478824
 30
0.0
 10
117.2042154654906
 20
-147.2581949501646
 30
0.0
 10
117.2042154654906
 20
-147.0418429536909
 30
0.0
 10
117.3905951312426
 20
-146.8399603582553
 30
0.0
 10
117.7037543108518
 20
-146.8399603582553
 30
0.0
 10
118.0210476050433
 20
-146.8399603582553
 30
0.0
 10
118.2556586075888
 20
-147.0308186481381
 30
0.0
 10
118.2556586075888
 20
-147.2888562999833
 30
0.0
  0
HATCH
  5
B9
330
AF
100
AcDbEntity
  8
レイヤー 1
 62
   250
420
  2299925
440
 33554687
100
AcDbHatch
 10
0.0
 20
0.0
 30
0.0
210
0.0
220
0.0
230
1.0
  2
SOLID
 70
     1
 71
     1
 91
        1
 92
        1
 93
        1
 72
     4
 94
        3
 73
     0
 74
     0
 95
       53
 96
       49
 40
0.0
 40
0.0
 40
0.0
 40
0.0
 40
1.0
 40
1.0
 40
1.0
 40
2.0
 40
2.0
 40
2.0
 40
3.0
 40
3.0
 40
3.0
 40
4.0
 40
4.0
 40
4.0
 40
5.0
 40
5.0
 40
5.0
 40
6.0
 40
6.0
 40
6.0
 40
7.0
 40
7.0
 40
7.0
 40
8.0
 40
8.0
 40
8.0
 40
9.0
 40
9.0
 40
9.0
 40
10.0
 40
10.0
 40
10.0
 40
11.0
 40
11.0
 40
11.0
 40
12.0
 40
12.0
 40
12.0
 40
13.0
 40
13.0
 40
13.0
 40
14.0
 40
14.0
 40
14.0
 40
15.0
 40
15.0
 40
15.0
 40
16.0
 40
16.0
 40
16.0
 40
16.0
 10
118.2556586075888
 20
-147.2888562999833
 10
118.2556586075888
 20
-147.3556911523972
 10
118.2387776397111
 20
-147.4421630490769
 10
118.1753878827825
 20
-147.5286349457567
 10
118.065489336803
 20
-147.6764295420739
 10
117.934231198815
 20
-147.6946885481458
 10
117.8263997101267
 20
-147.7108804969264
 10
117.8263997101267
 20
-147.7108804969264
 10
117.8263997101267
 20
-147.5214002452377
 10
117.8263997101267
 20
-147.5214002452377
 10
118.0251817196256
 20
-147.4745469466383
 10
118.0548095407988
 20
-147.3663709484014
 10
118.0548095407988
 20
-147.2871337522407
 10
118.0548095407988
 20
-147.167933448451
 10
117.955246281275
 20
-147.0380533486572
 10
117.7227023360207
 20
-147.0380533486572
 10
117.4667317414666
 20
-147.0380533486572
 10
117.3967963031161
 20
-147.1913600977508
 10
117.3967963031161
 20
-147.2943684527597
 10
117.3967963031161
 20
-147.3212401975447
 10
117.3967963031161
 20
-147.4421630490769
 10
117.5259873838129
 20
-147.5179551497524
 10
117.5259873838129
 20
-147.5179551497524
 10
117.5070393586441
 20
-147.6674722938123
 10
117.5070393586441
 20
-147.6674722938123
 10
117.5070393586441
 20
-147.6674722938123
 10
116.6605793979182
 20
-147.5648084483518
 10
116.6605793979182
 20
-147.5648084483518
 10
116.6605793979182
 20
-147.5648084483518
 10
116.6605793979182
 20
-146.9012830578927
 10
116.6605793979182
 20
-146.9012830578927
 10
116.6605793979182
 20
-146.9012830578927
 10
116.8552272928348
 20
-146.9012830578927
 10
116.8552272928348
 20
-146.9012830578927
 10
116.8552272928348
 20
-146.9012830578927
 10
116.8552272928348
 20
-147.4259711002963
 10
116.8552272928348
 20
-147.4259711002963
 10
116.8552272928348
 20
-147.4259711002963
 10
117.2782850184235
 20
-147.4817816471573
 10
117.2782850184235
 20
-147.4817816471573
 10
117.244523082668
 20
-147.4294161957815
 10
117.2042154654906
 20
-147.3591362478824
 10
117.2042154654906
 20
-147.2581949501646
 10
117.2042154654906
 20
-147.0418429536909
 10
117.3905951312426
 20
-146.8399603582553
 10
117.7037543108518
 20
-146.8399603582553
 10
118.0210476050433
 20
-146.8399603582553
 10
118.2556586075888
 20
-147.0308186481381
 10
118.2556586075888
 20
-147.2888562999833
 97
        0
 97
        1
330
B8
 75
     2
 76
     1
 98
        1
 10
0.0
 20
0.0
450
        0
451
        0
460
0.0
461
0.0
452
        0
462
0.0
453
        0
470

  0
ENDBLK
  5
B2
330
AF
100
AcDbEntity
  8
0
100
AcDbBlockEnd
  0
BLOCK
  5
C0
330
BE
100
AcDbEntity
  8
0
100
AcDbBlockBegin
  2
Block_7
 70
     0
 10
0.0
 20
0.0
 30
0.0
  3
Block_7
  1

  0
INSERT
  5
C3
330
BE
100
AcDbEntity
  8
レイヤー 1
100
AcDbBlockReference
  2
Block_8
 10
0.0
 20
0.0
 30
0.0
  0
ENDBLK
  5
C1
330
BE
100
AcDbEntity
  8
0
100
AcDbBlockEnd
  0
BLOCK
  5
C4
330
C2
100
AcDbEntity
  8
0
100
AcDbBlockBegin
  2
Block_8
 70
     0
 10
0.0
 20
0.0
 30
0.0
  3
Block_8
  1

  0
SPLINE
  5
C6
330
C2
100
AcDbEntity
  8
レイヤー 1
100
AcDbSpline
210
0.0
220
0.0
230
1.0
 70
     9
 71
     3
 72
    17
 73
    13
 74
     0
 42
0.0000000001
 43
0.0000000001
 40
0.0
 40
0.0
 40
0.0
 40
0.0
 40
1.0
 40
1.0
 40
1.0
 40
2.0
 40
2.0
 40
2.0
 40
3.0
 40
3.0
 40
3.0
 40
4.0
 40
4.0
 40
4.0
 40
4.0
 10
121.0379177214766
 20
-153.8328151742154
 30
0.0
 10
121.0379177214766
 20
-154.0453775656553
 30
0.0
 10
121.3214490799127
 20
-154.0853406732842
 30
0.0
 10
121.6663031379862
 20
-154.0853406732842
 30
0.0
 10
121.9856634894688
 20
-154.0853406732842
 30
0.0
 10
122.2943440449472
 20
-154.0546793234655
 30
0.0
 10
122.2943440449472
 20
-153.8328151742154
 30
0.0
 10
122.2943440449472
 20
-153.6216308209696
 30
0.0
 10
122.0132242533509
 20
-153.5802896751466
 30
0.0
 10
121.6663031379862
 20
-153.5802896751466
 30
0.0
 10
121.346598276955
 20
-153.5802896751466
 30
0.0
 10
121.0379177214766
 20
-153.6126735727079
 30
0.0
 10
121.0379177214766
 20
-153.8328151742154
 30
0.0
  0
SPLINE
  5
C7
330
C2
100
AcDbEntity
  8
レイヤー 1
100
AcDbSpline
210
0.0
220
0.0
230
1.0
 70
     9
 71
     3
 72
    29
 73
    25
 74
     0
 42
0.0000000001
 43
0.0000000001
 40
0.0
 40
0.0
 40
0.0
 40
0.0
 40
1.0
 40
1.0
 40
1.0
 40
2.0
 40
2.0
 40
2.0
 40
3.0
 40
3.0
 40
3.0
 40
4.0
 40
4.0
 40
4.0
 40
5.0
 40
5.0
 40
5.0
 40
6.0
 40
6.0
 40
6.0
 40
7.0
 40
7.0
 40
7.0
 40
8.0
 40
8.0
 40
8.0
 40
8.0
 10
122.2605821091918
 20
-153.4938177784668
 30
0.0
 10
122.470043914695
 20
-153.585801827923
 30
0.0
 10
122.4889919398638
 20
-153.7335964242402
 30
0.0
 10
122.4889919398638
 20
-153.8328151742154
 30
0.0
 10
122.4889919398638
 20
-153.9699299745283
 30
0.0
 10
122.442483150813
 20
-154.0905083165121
 30
0.0
 10
122.2605821091918
 20
-154.171812569964
 30
0.0
 10
122.0659342142752
 20
-154.2600070143864
 30
0.0
 10
121.82891164489
 20
-154.2761989631671
 30
0.0
 10
121.6663031379862
 20
-154.2761989631671
 30
0.0
 10
121.5222981467027
 20
-154.2761989631671
 30
0.0
 10
121.270461666731
 20
-154.2620740716775
 30
0.0
 10
121.0716796572321
 20
-154.171812569964
 30
0.0
 10
120.8687635331509
 20
-154.0798285205078
 30
0.0
 10
120.8453368838511
 20
-153.9427137201949
 30
0.0
 10
120.8453368838511
 20
-153.8328151742154
 30
0.0
 10
120.8453368838511
 20
-153.6974229216451
 30
0.0
 10
120.8897786156109
 20
-153.5747775223702
 30
0.0
 10
121.0716796572321
 20
-153.4938177784668
 30
0.0
 10
121.2642604948575
 20
-153.4090684295297
 30
0.0
 10
121.4926703255296
 20
-153.3890868757152
 30
0.0
 10
121.6663031379862
 20
-153.3890868757152
 30
0.0
 10
121.8375243836031
 20
-153.3890868757152
 30
0.0
 10
122.0680012715663
 20
-153.407345881787
 30
0.0
 10
122.2605821091918
 20
-153.4938177784668
 30
0.0
  0
HATCH
  5
C8
330
C2
100
AcDbEntity
  8
レイヤー 1
 62
   250
420
  2299925
440
 33554687
100
AcDbHatch
 10
0.0
 20
0.0
 30
0.0
210
0.0
220
0.0
230
1.0
  2
SOLID
 70
     1
 71
     1
 91
        2
 92
        1
 93
        1
 72
     4
 94
        3
 73
     0
 74
     0
 95
       17
 96
       13
 40
0.0
 40
0.0
 40
0.0
 40
0.0
 40
1.0
 40
1.0
 40
1.0
 40
2.0
 40
2.0
 40
2.0
 40
3.0
 40
3.0
 40
3.0
 40
4.0
 40
4.0
 40
4.0
 40
4.0
 10
121.0379177214766
 20
-153.8328151742154
 10
121.0379177214766
 20
-154.0453775656553
 10
121.3214490799127
 20
-154.0853406732842
 10
121.6663031379862
 20
-154.0853406732842
 10
121.9856634894688
 20
-154.0853406732842
 10
122.2943440449472
 20
-154.0546793234655
 10
122.2943440449472
 20
-153.8328151742154
 10
122.2943440449472
 20
-153.6216308209696
 10
122.0132242533509
 20
-153.5802896751466
 10
121.6663031379862
 20
-153.5802896751466
 10
121.346598276955
 20
-153.5802896751466
 10
121.0379177214766
 20
-153.6126735727079
 10
121.0379177214766
 20
-153.8328151742154
 97
        0
 97
        1
330
C6
 92
        1
 93
        1
 72
     4
 94
        3
 73
     0
 74
     0
 95
       29
 96
       25
 40
0.0
 40
0.0
 40
0.0
 40
0.0
 40
1.0
 40
1.0
 40
1.0
 40
2.0
 40
2.0
 40
2.0
 40
3.0
 40
3.0
 40
3.0
 40
4.0
 40
4.0
 40
4.0
 40
5.0
 40
5.0
 40
5.0
 40
6.0
 40
6.0
 40
6.0
 40
7.0
 40
7.0
 40
7.0
 40
8.0
 40
8.0
 40
8.0
 40
8.0
 10
122.2605821091918
 20
-153.4938177784668
 10
122.470043914695
 20
-153.585801827923
 10
122.4889919398638
 20
-153.7335964242402
 10
122.4889919398638
 20
-153.8328151742154
 10
122.4889919398638
 20
-153.9699299745283
 10
122.442483150813
 20
-154.0905083165121
 10
122.2605821091918
 20
-154.171812569964
 10
122.0659342142752
 20
-154.2600070143864
 10
121.82891164489
 20
-154.2761989631671
 10
121.6663031379862
 20
-154.2761989631671
 10
121.5222981467027
 20
-154.2761989631671
 10
121.270461666731
 20
-154.2620740716775
 10
121.0716796572321
 20
-154.171812569964
 10
120.8687635331509
 20
-154.0798285205078
 10
120.8453368838511
 20
-153.9427137201949
 10
120.8453368838511
 20
-153.8328151742154
 10
120.8453368838511
 20
-153.6974229216451
 10
120.8897786156109
 20
-153.5747775223702
 10
121.0716796572321
 20
-153.4938177784668
 10
121.2642604948575
 20
-153.4090684295297
 10
121.4926703255296
 20
-153.3890868757152
 10
121.6663031379862
 20
-153.3890868757152
 10
121.8375243836031
 20
-153.3890868757152
 10
122.0680012715663
 20
-153.407345881787
 10
122.2605821091918
 20
-153.4938177784668
 97
        0
 97
        1
330
C7
 75
     2
 76
     1
 98
        1
 10
0.0
 20
0.0
450
        0
451
        0
460
0.0
461
0.0
452
        0
462
0.0
453
        0
470

  0
SPLINE
  5
C9
330
C2
100
AcDbEntity
  8
レイヤー 1
100
AcDbSpline
210
0.0
220
0.0
230
1.0
 70
    11
 71
     3
 72
    17
 73
    13
 74
     0
 42
0.0000000001
 43
0.0000000001
 40
0.0
 40
0.0
 40
0.0
 40
0.0
 40
1.0
 40
1.0
 40
1.0
 40
2.0
 40
2.0
 40
2.0
 40
3.0
 40
3.0
 40
3.0
 40
4.0
 40
4.0
 40
4.0
 40
4.0
 10
122.4383490362307
 20
-153.2061523054484
 30
0.0
 10
122.4383490362307
 20
-153.2061523054484
 30
0.0
 10
122.1865125562589
 20
-153.2061523054484
 30
0.0
 10
122.1865125562589
 20
-153.2061523054484
 30
0.0
 10
122.1865125562589
 20
-153.2061523054484
 30
0.0
 10
122.1865125562589
 20
-152.9915228567174
 30
0.0
 10
122.1865125562589
 20
-152.9915228567174
 30
0.0
 10
122.1865125562589
 20
-152.9915228567174
 30
0.0
 10
122.4383490362307
 20
-152.9915228567174
 30
0.0
 10
122.4383490362307
 20
-152.9915228567174
 30
0.0
 10
122.4383490362307
 20
-152.9915228567174
 30
0.0
 10
122.4383490362307
 20
-153.2061523054484
 30
0.0
 10
122.4383490362307
 20
-153.2061523054484
 30
0.0
  0
HATCH
  5
CA
330
C2
100
AcDbEntity
  8
レイヤー 1
 62
   250
420
  2299925
440
 33554687
100
AcDbHatch
 10
0.0
 20
0.0
 30
0.0
210
0.0
220
0.0
230
1.0
  2
SOLID
 70
     1
 71
     1
 91
        1
 92
        1
 93
        1
 72
     4
 94
        3
 73
     0
 74
     0
 95
       17
 96
       13
 40
0.0
 40
0.0
 40
0.0
 40
0.0
 40
1.0
 40
1.0
 40
1.0
 40
2.0
 40
2.0
 40
2.0
 40
3.0
 40
3.0
 40
3.0
 40
4.0
 40
4.0
 40
4.0
 40
4.0
 10
122.4383490362307
 20
-153.2061523054484
 10
122.4383490362307
 20
-153.2061523054484
 10
122.1865125562589
 20
-153.2061523054484
 10
122.1865125562589
 20
-153.2061523054484
 10
122.1865125562589
 20
-153.2061523054484
 10
122.1865125562589
 20
-152.9915228567174
 10
122.1865125562589
 20
-152.9915228567174
 10
122.1865125562589
 20
-152.9915228567174
 10
122.4383490362307
 20
-152.9915228567174
 10
122.4383490362307
 20
-152.9915228567174
 10
122.4383490362307
 20
-152.9915228567174
 10
122.4383490362307
 20
-153.2061523054484
 10
122.4383490362307
 20
-153.2061523054484
 97
        0
 97
        1
330
C9
 75
     2
 76
     1
 98
        1
 10
0.0
 20
0.0
450
        0
451
        0
460
0.0
461
0.0
452
        0
462
0.0
453
        0
470

  0
SPLINE
  5
CB
330
C2
100
AcDbEntity
  8
レイヤー 1
100
AcDbSpline
210
0.0
220
0.0
230
1.0
 70
    11
 71
     3
 72
    14
 73
    10
 74
     0
 42
0.0000000001
 43
0.0000000001
 40
0.0
 40
0.0
 40
0.0
 40
0.0
 40
1.0
 40
1.0
 40
1.0
 40
2.0
 40
2.0
 40
2.0
 40
3.0
 40
3.0
 40
3.0
 40
3.0
 10
121.2366997309755
 20
-152.2666747666208
 30
0.0
 10
121.2366997309755
 20
-152.2666747666208
 30
0.0
 10
121.8926459113671
 20
-152.6563150660026
 30
0.0
 10
121.8926459113671
 20
-152.6563150660026
 30
0.0
 10
121.8926459113671
 20
-152.6563150660026
 30
0.0
 10
121.8926459113671
 20
-152.2666747666208
 30
0.0
 10
121.8926459113671
 20
-152.2666747666208
 30
0.0
 10
121.8926459113671
 20
-152.2666747666208
 30
0.0
 10
121.2366997309755
 20
-152.2666747666208
 30
0.0
 10
121.2366997309755
 20
-152.2666747666208
 30
0.0
  0
SPLINE
  5
CC
330
C2
100
AcDbEntity
  8
レイヤー 1
100
AcDbSpline
210
0.0
220
0.0
230
1.0
 70
    11
 71
     3
 72
    38
 73
    34
 74
     0
 42
0.0000000001
 43
0.0000000001
 40
0.0
 40
0.0
 40
0.0
 40
0.0
 40
1.0
 40
1.0
 40
1.0
 40
2.0
 40
2.0
 40
2.0
 40
3.0
 40
3.0
 40
3.0
 40
4.0
 40
4.0
 40
4.0
 40
5.0
 40
5.0
 40
5.0
 40
6.0
 40
6.0
 40
6.0
 40
7.0
 40
7.0
 40
7.0
 40
8.0
 40
8.0
 40
8.0
 40
9.0
 40
9.0
 40
9.0
 40
10.0
 40
10.0
 40
10.0
 40
11.0
 40
11.0
 40
11.0
 40
11.0
 10
122.091427920866
 20
-152.0809841199659
 30
0.0
 10
122.091427920866
 20
-152.0809841199659
 30
0.0
 10
122.4383490362307
 20
-152.0809841199659
 30
0.0
 10
122.4383490362307
 20
-152.0809841199659
 30
0.0
 10
122.4383490362307
 20
-152.0809841199659
 30
0.0
 10
122.4383490362307
 20
-152.2666747666208
 30
0.0
 10
122.4383490362307
 20
-152.2666747666208
 30
0.0
 10
122.4383490362307
 20
-152.2666747666208
 30
0.0
 10
122.091427920866
 20
-152.2666747666208
 30
0.0
 10
122.091427920866
 20
-152.2666747666208
 30
0.0
 10
122.091427920866
 20
-152.2666747666208
 30
0.0
 10
122.091427920866
 20
-152.8258137638769
 30
0.0
 10
122.091427920866
 20
-152.8258137638769
 30
0.0
 10
122.091427920866
 20
-152.8258137638769
 30
0.0
 10
121.8671522047763
 20
-152.8258137638769
 30
0.0
 10
121.8671522047763
 20
-152.8258137638769
 30
0.0
 10
121.8671522047763
 20
-152.8258137638769
 30
0.0
 10
120.8939127301932
 20
-152.2470377223549
 30
0.0
 10
120.8939127301932
 20
-152.2470377223549
 30
0.0
 10
120.8939127301932
 20
-152.2470377223549
 30
0.0
 10
120.8939127301932
 20
-152.0809841199659
 30
0.0
 10
120.8939127301932
 20
-152.0809841199659
 30
0.0
 10
120.8939127301932
 20
-152.0809841199659
 30
0.0
 10
121.8926459113671
 20
-152.0809841199659
 30
0.0
 10
121.8926459113671
 20
-152.0809841199659
 30
0.0
 10
121.8926459113671
 20
-152.0809841199659
 30
0.0
 10
121.8926459113671
 20
-151.9042507215725
 30
0.0
 10
121.8926459113671
 20
-151.9042507215725
 30
0.0
 10
121.8926459113671
 20
-151.9042507215725
 30
0.0
 10
122.091427920866
 20
-151.9042507215725
 30
0.0
 10
122.091427920866
 20
-151.9042507215725
 30
0.0
 10
122.091427920866
 20
-151.9042507215725
 30
0.0
 10
122.091427920866
 20
-152.0809841199659
 30
0.0
 10
122.091427920866
 20
-152.0809841199659
 30
0.0
  0
HATCH
  5
CD
330
C2
100
AcDbEntity
  8
レイヤー 1
 62
   250
420
  2299925
440
 33554687
100
AcDbHatch
 10
0.0
 20
0.0
 30
0.0
210
0.0
220
0.0
230
1.0
  2
SOLID
 70
     1
 71
     1
 91
        2
 92
        1
 93
        1
 72
     4
 94
        3
 73
     0
 74
     0
 95
       14
 96
       10
 40
0.0
 40
0.0
 40
0.0
 40
0.0
 40
1.0
 40
1.0
 40
1.0
 40
2.0
 40
2.0
 40
2.0
 40
3.0
 40
3.0
 40
3.0
 40
3.0
 10
121.2366997309755
 20
-152.2666747666208
 10
121.2366997309755
 20
-152.2666747666208
 10
121.8926459113671
 20
-152.6563150660026
 10
121.8926459113671
 20
-152.6563150660026
 10
121.8926459113671
 20
-152.6563150660026
 10
121.8926459113671
 20
-152.2666747666208
 10
121.8926459113671
 20
-152.2666747666208
 10
121.8926459113671
 20
-152.2666747666208
 10
121.2366997309755
 20
-152.2666747666208
 10
121.2366997309755
 20
-152.2666747666208
 97
        0
 97
        1
330
CB
 92
        1
 93
        1
 72
     4
 94
        3
 73
     0
 74
     0
 95
       38
 96
       34
 40
0.0
 40
0.0
 40
0.0
 40
0.0
 40
1.0
 40
1.0
 40
1.0
 40
2.0
 40
2.0
 40
2.0
 40
3.0
 40
3.0
 40
3.0
 40
4.0
 40
4.0
 40
4.0
 40
5.0
 40
5.0
 40
5.0
 40
6.0
 40
6.0
 40
6.0
 40
7.0
 40
7.0
 40
7.0
 40
8.0
 40
8.0
 40
8.0
 40
9.0
 40
9.0
 40
9.0
 40
10.0
 40
10.0
 40
10.0
 40
11.0
 40
11.0
 40
11.0
 40
11.0
 10
122.091427920866
 20
-152.0809841199659
 10
122.091427920866
 20
-152.0809841199659
 10
122.4383490362307
 20
-152.0809841199659
 10
122.4383490362307
 20
-152.0809841199659
 10
122.4383490362307
 20
-152.0809841199659
 10
122.4383490362307
 20
-152.2666747666208
 10
122.4383490362307
 20
-152.2666747666208
 10
122.4383490362307
 20
-152.2666747666208
 10
122.091427920866
 20
-152.2666747666208
 10
122.091427920866
 20
-152.2666747666208
 10
122.091427920866
 20
-152.2666747666208
 10
122.091427920866
 20
-152.8258137638769
 10
122.091427920866
 20
-152.8258137638769
 10
122.091427920866
 20
-152.8258137638769
 10
121.8671522047763
 20
-152.8258137638769
 10
121.8671522047763
 20
-152.8258137638769
 10
121.8671522047763
 20
-152.8258137638769
 10
120.8939127301932
 20
-152.2470377223549
 10
120.8939127301932
 20
-152.2470377223549
 10
120.8939127301932
 20
-152.2470377223549
 10
120.8939127301932
 20
-152.0809841199659
 10
120.8939127301932
 20
-152.0809841199659
 10
120.8939127301932
 20
-152.0809841199659
 10
121.8926459113671
 20
-152.0809841199659
 10
121.8926459113671
 20
-152.0809841199659
 10
121.8926459113671
 20
-152.0809841199659
 10
121.8926459113671
 20
-151.9042507215725
 10
121.8926459113671
 20
-151.9042507215725
 10
121.8926459113671
 20
-151.9042507215725
 10
122.091427920866
 20
-151.9042507215725
 10
122.091427920866
 20
-151.9042507215725
 10
122.091427920866
 20
-151.9042507215725
 10
122.091427920866
 20
-152.0809841199659
 10
122.091427920866
 20
-152.0809841199659
 97
        0
 97
        1
330
CC
 75
     2
 76
     1
 98
        1
 10
0.0
 20
0.0
450
        0
451
        0
460
0.0
461
0.0
452
        0
462
0.0
453
        0
470

  0
ENDBLK
  5
C5
330
C2
100
AcDbEntity
  8
0
100
AcDbBlockEnd
  0
BLOCK
  5
D4
330
D2
100
AcDbEntity
  8
0
100
AcDbBlockBegin
  2
Block_9
 70
     0
 10
0.0
 20
0.0
 30
0.0
  3
Block_9
  1

  0
INSERT
  5
D7
330
D2
100
AcDbEntity
  8
レイヤー 1
100
AcDbBlockReference
  2
Block_10
 10
0.0
 20
0.0
 30
0.0
  0
ENDBLK
  5
D5
330
D2
100
AcDbEntity
  8
0
100
AcDbBlockEnd
  0
BLOCK
  5
D8
330
D6
100
AcDbEntity
  8
0
100
AcDbBlockBegin
  2
Block_10
 70
     0
 10
0.0
 20
0.0
 30
0.0
  3
Block_10
  1

  0
SPLINE
  5
DA
330
D6
100
AcDbEntity
  8
レイヤー 1
100
AcDbSpline
210
0.0
220
0.0
230
1.0
 70
    11
 71
     3
 72
    26
 73
    22
 74
     0
 42
0.0000000001
 43
0.0000000001
 40
0.0
 40
0.0
 40
0.0
 40
0.0
 40
1.0
 40
1.0
 40
1.0
 40
2.0
 40
2.0
 40
2.0
 40
3.0
 40
3.0
 40
3.0
 40
4.0
 40
4.0
 40
4.0
 40
5.0
 40
5.0
 40
5.0
 40
6.0
 40
6.0
 40
6.0
 40
7.0
 40
7.0
 40
7.0
 40
7.0
 10
89.15510929845776
 20
-142.7602782846224
 30
0.0
 10
89.15510929845776
 20
-142.7602782846224
 30
0.0
 10
88.05095619543518
 20
-142.7602782846224
 30
0.0
 10
88.05095619543518
 20
-142.7602782846224
 30
0.0
 10
88.05095619543518
 20
-142.7602782846224
 30
0.0
 10
88.05095619543518
 20
-143.0417425857673
 30
0.0
 10
88.05095619543518
 20
-143.0417425857673
 30
0.0
 10
88.05095619543518
 20
-143.0417425857673
 30
0.0
 10
87.90281708956944
 20
-143.0417425857673
 30
0.0
 10
87.90281708956944
 20
-143.0417425857673
 30
0.0
 10
87.88800317898287
 20
-142.7585557368798
 30
0.0
 10
87.72505016253054
 20
-142.7189371387994
 30
0.0
 10
87.61067299242025
 20
-142.6937879417571
 30
0.0
 10
87.61067299242025
 20
-142.6937879417571
 30
0.0
 10
87.61067299242025
 20
-142.569075485191
 30
0.0
 10
87.61067299242025
 20
-142.569075485191
 30
0.0
 10
87.61067299242025
 20
-142.569075485191
 30
0.0
 10
89.15510929845776
 20
-142.569075485191
 30
0.0
 10
89.15510929845776
 20
-142.569075485191
 30
0.0
 10
89.15510929845776
 20
-142.569075485191
 30
0.0
 10
89.15510929845776
 20
-142.7602782846224
 30
0.0
 10
89.15510929845776
 20
-142.7602782846224
 30
0.0
  0
HATCH
  5
DB
330
D6
100
AcDbEntity
  8
レイヤー 1
 62
   250
420
  2299925
440
 33554687
100
AcDbHatch
 10
0.0
 20
0.0
 30
0.0
210
0.0
220
0.0
230
1.0
  2
SOLID
 70
     1
 71
     1
 91
        1
 92
        1
 93
        1
 72
     4
 94
        3
 73
     0
 74
     0
 95
       26
 96
       22
 40
0.0
 40
0.0
 40
0.0
 40
0.0
 40
1.0
 40
1.0
 40
1.0
 40
2.0
 40
2.0
 40
2.0
 40
3.0
 40
3.0
 40
3.0
 40
4.0
 40
4.0
 40
4.0
 40
5.0
 40
5.0
 40
5.0
 40
6.0
 40
6.0
 40
6.0
 40
7.0
 40
7.0
 40
7.0
 40
7.0
 10
89.15510929845776
 20
-142.7602782846224
 10
89.15510929845776
 20
-142.7602782846224
 10
88.05095619543518
 20
-142.7602782846224
 10
88.05095619543518
 20
-142.7602782846224
 10
88.05095619543518
 20
-142.7602782846224
 10
88.05095619543518
 20
-143.0417425857673
 10
88.05095619543518
 20
-143.0417425857673
 10
88.05095619543518
 20
-143.0417425857673
 10
87.90281708956944
 20
-143.0417425857673
 10
87.90281708956944
 20
-143.0417425857673
 10
87.88800317898287
 20
-142.7585557368798
 10
87.72505016253054
 20
-142.7189371387994
 10
87.61067299242025
 20
-142.6937879417571
 10
87.61067299242025
 20
-142.6937879417571
 10
87.61067299242025
 20
-142.569075485191
 10
87.61067299242025
 20
-142.569075485191
 10
87.61067299242025
 20
-142.569075485191
 10
89.15510929845776
 20
-142.569075485191
 10
89.15510929845776
 20
-142.569075485191
 10
89.15510929845776
 20
-142.569075485191
 10
89.15510929845776
 20
-142.7602782846224
 10
89.15510929845776
 20
-142.7602782846224
 97
        0
 97
        1
330
DA
 75
     2
 76
     1
 98
        1
 10
0.0
 20
0.0
450
        0
451
        0
460
0.0
461
0.0
452
        0
462
0.0
453
        0
470

  0
SPLINE
  5
DC
330
D6
100
AcDbEntity
  8
レイヤー 1
100
AcDbSpline
210
0.0
220
0.0
230
1.0
 70
    11
 71
     3
 72
    17
 73
    13
 74
     0
 42
0.0000000001
 43
0.0000000001
 40
0.0
 40
0.0
 40
0.0
 40
0.0
 40
1.0
 40
1.0
 40
1.0
 40
2.0
 40
2.0
 40
2.0
 40
3.0
 40
3.0
 40
3.0
 40
4.0
 40
4.0
 40
4.0
 40
4.0
 10
89.15510929845776
 20
-142.0922742700325
 30
0.0
 10
89.15510929845776
 20
-142.0922742700325
 30
0.0
 10
88.90327281848598
 20
-142.0922742700325
 30
0.0
 10
88.90327281848598
 20
-142.0922742700325
 30
0.0
 10
88.90327281848598
 20
-142.0922742700325
 30
0.0
 10
88.90327281848598
 20
-141.8776448213014
 30
0.0
 10
88.90327281848598
 20
-141.8776448213014
 30
0.0
 10
88.90327281848598
 20
-141.8776448213014
 30
0.0
 10
89.15510929845776
 20
-141.8776448213014
 30
0.0
 10
89.15510929845776
 20
-141.8776448213014
 30
0.0
 10
89.15510929845776
 20
-141.8776448213014
 30
0.0
 10
89.15510929845776
 20
-142.0922742700325
 30
0.0
 10
89.15510929845776
 20
-142.0922742700325
 30
0.0
  0
HATCH
  5
DD
330
D6
100
AcDbEntity
  8
レイヤー 1
 62
   250
420
  2299925
440
 33554687
100
AcDbHatch
 10
0.0
 20
0.0
 30
0.0
210
0.0
220
0.0
230
1.0
  2
SOLID
 70
     1
 71
     1
 91
        1
 92
        1
 93
        1
 72
     4
 94
        3
 73
     0
 74
     0
 95
       17
 96
       13
 40
0.0
 40
0.0
 40
0.0
 40
0.0
 40
1.0
 40
1.0
 40
1.0
 40
2.0
 40
2.0
 40
2.0
 40
3.0
 40
3.0
 40
3.0
 40
4.0
 40
4.0
 40
4.0
 40
4.0
 10
89.15510929845776
 20
-142.0922742700325
 10
89.15510929845776
 20
-142.0922742700325
 10
88.90327281848598
 20
-142.0922742700325
 10
88.90327281848598
 20
-142.0922742700325
 10
88.90327281848598
 20
-142.0922742700325
 10
88.90327281848598
 20
-141.8776448213014
 10
88.90327281848598
 20
-141.8776448213014
 10
88.90327281848598
 20
-141.8776448213014
 10
89.15510929845776
 20
-141.8776448213014
 10
89.15510929845776
 20
-141.8776448213014
 10
89.15510929845776
 20
-141.8776448213014
 10
89.15510929845776
 20
-142.0922742700325
 10
89.15510929845776
 20
-142.0922742700325
 97
        0
 97
        1
330
DC
 75
     2
 76
     1
 98
        1
 10
0.0
 20
0.0
450
        0
451
        0
460
0.0
461
0.0
452
        0
462
0.0
453
        0
470

  0
SPLINE
  5
DE
330
D6
100
AcDbEntity
  8
レイヤー 1
100
AcDbSpline
210
0.0
220
0.0
230
1.0
 70
     9
 71
     3
 72
    17
 73
    13
 74
     0
 42
0.0000000001
 43
0.0000000001
 40
0.0
 40
0.0
 40
0.0
 40
0.0
 40
1.0
 40
1.0
 40
1.0
 40
2.0
 40
2.0
 40
2.0
 40
3.0
 40
3.0
 40
3.0
 40
4.0
 40
4.0
 40
4.0
 40
4.0
 10
87.75467798370369
 20
-141.2502929334374
 30
0.0
 10
87.75467798370369
 20
-141.4631998344258
 30
0.0
 10
88.03820934213975
 20
-141.5028184325062
 30
0.0
 10
88.38306340021325
 20
-141.5028184325062
 30
0.0
 10
88.70242375169594
 20
-141.5028184325062
 30
0.0
 10
89.0111043071743
 20
-141.4721570826875
 30
0.0
 10
89.0111043071743
 20
-141.2502929334374
 30
0.0
 10
89.0111043071743
 20
-141.0391085801916
 30
0.0
 10
88.72998451557792
 20
-140.9977674343686
 30
0.0
 10
88.38306340021325
 20
-140.9977674343686
 30
0.0
 10
88.06335853918207
 20
-140.9977674343686
 30
0.0
 10
87.75467798370369
 20
-141.0301513319299
 30
0.0
 10
87.75467798370369
 20
-141.2502929334374
 30
0.0
  0
SPLINE
  5
DF
330
D6
100
AcDbEntity
  8
レイヤー 1
100
AcDbSpline
210
0.0
220
0.0
230
1.0
 70
     9
 71
     3
 72
    29
 73
    25
 74
     0
 42
0.0000000001
 43
0.0000000001
 40
0.0
 40
0.0
 40
0.0
 40
0.0
 40
1.0
 40
1.0
 40
1.0
 40
2.0
 40
2.0
 40
2.0
 40
3.0
 40
3.0
 40
3.0
 40
4.0
 40
4.0
 40
4.0
 40
5.0
 40
5.0
 40
5.0
 40
6.0
 40
6.0
 40
6.0
 40
7.0
 40
7.0
 40
7.0
 40
8.0
 40
8.0
 40
8.0
 40
8.0
 10
88.97734237141886
 20
-140.9112955376888
 30
0.0
 10
89.18680417692206
 20
-141.003279587145
 30
0.0
 10
89.20575220209093
 20
-141.1510741834622
 30
0.0
 10
89.20575220209093
 20
-141.2502929334374
 30
0.0
 10
89.20575220209093
 20
-141.3874077337503
 30
0.0
 10
89.15924341304005
 20
-141.5079860757341
 30
0.0
 10
88.97734237141886
 20
-141.589290329186
 30
0.0
 10
88.78269447650223
 20
-141.6774847736084
 30
0.0
 10
88.54567190711705
 20
-141.6940212319376
 30
0.0
 10
88.38306340021325
 20
-141.6940212319376
 30
0.0
 10
88.23905840892981
 20
-141.6940212319376
 30
0.0
 10
87.98722192895807
 20
-141.6795518308995
 30
0.0
 10
87.78843991945915
 20
-141.589290329186
 30
0.0
 10
87.58552379537793
 20
-141.4973062797298
 30
0.0
 10
87.56209714607823
 20
-141.3601914794169
 30
0.0
 10
87.56209714607823
 20
-141.2502929334374
 30
0.0
 10
87.56209714607823
 20
-141.1149006808671
 30
0.0
 10
87.60653887783794
 20
-140.9922552815922
 30
0.0
 10
87.78843991945915
 20
-140.9112955376888
 30
0.0
 10
87.98102075708461
 20
-140.8265461887517
 30
0.0
 10
88.20943058775666
 20
-140.8065646349372
 30
0.0
 10
88.38306340021325
 20
-140.8065646349372
 30
0.0
 10
88.55428464583019
 20
-140.8065646349372
 30
0.0
 10
88.7847615337934
 20
-140.8248236410091
 30
0.0
 10
88.97734237141886
 20
-140.9112955376888
 30
0.0
  0
HATCH
  5
E0
330
D6
100
AcDbEntity
  8
レイヤー 1
 62
   250
420
  2299925
440
 33554687
100
AcDbHatch
 10
0.0
 20
0.0
 30
0.0
210
0.0
220
0.0
230
1.0
  2
SOLID
 70
     1
 71
     1
 91
        2
 92
        1
 93
        1
 72
     4
 94
        3
 73
     0
 74
     0
 95
       17
 96
       13
 40
0.0
 40
0.0
 40
0.0
 40
0.0
 40
1.0
 40
1.0
 40
1.0
 40
2.0
 40
2.0
 40
2.0
 40
3.0
 40
3.0
 40
3.0
 40
4.0
 40
4.0
 40
4.0
 40
4.0
 10
87.75467798370369
 20
-141.2502929334374
 10
87.75467798370369
 20
-141.4631998344258
 10
88.03820934213975
 20
-141.5028184325062
 10
88.38306340021325
 20
-141.5028184325062
 10
88.70242375169594
 20
-141.5028184325062
 10
89.0111043071743
 20
-141.4721570826875
 10
89.0111043071743
 20
-141.2502929334374
 10
89.0111043071743
 20
-141.0391085801916
 10
88.72998451557792
 20
-140.9977674343686
 10
88.38306340021325
 20
-140.9977674343686
 10
88.06335853918207
 20
-140.9977674343686
 10
87.75467798370369
 20
-141.0301513319299
 10
87.75467798370369
 20
-141.2502929334374
 97
        0
 97
        1
330
DE
 92
        1
 93
        1
 72
     4
 94
        3
 73
     0
 74
     0
 95
       29
 96
       25
 40
0.0
 40
0.0
 40
0.0
 40
0.0
 40
1.0
 40
1.0
 40
1.0
 40
2.0
 40
2.0
 40
2.0
 40
3.0
 40
3.0
 40
3.0
 40
4.0
 40
4.0
 40
4.0
 40
5.0
 40
5.0
 40
5.0
 40
6.0
 40
6.0
 40
6.0
 40
7.0
 40
7.0
 40
7.0
 40
8.0
 40
8.0
 40
8.0
 40
8.0
 10
88.97734237141886
 20
-140.9112955376888
 10
89.18680417692206
 20
-141.003279587145
 10
89.20575220209093
 20
-141.1510741834622
 10
89.20575220209093
 20
-141.2502929334374
 10
89.20575220209093
 20
-141.3874077337503
 10
89.15924341304005
 20
-141.5079860757341
 10
88.97734237141886
 20
-141.589290329186
 10
88.78269447650223
 20
-141.6774847736084
 10
88.54567190711705
 20
-141.6940212319376
 10
88.38306340021325
 20
-141.6940212319376
 10
88.23905840892981
 20
-141.6940212319376
 10
87.98722192895807
 20
-141.6795518308995
 10
87.78843991945915
 20
-141.589290329186
 10
87.58552379537793
 20
-141.4973062797298
 10
87.56209714607823
 20
-141.3601914794169
 10
87.56209714607823
 20
-141.2502929334374
 10
87.56209714607823
 20
-141.1149006808671
 10
87.60653887783794
 20
-140.9922552815922
 10
87.78843991945915
 20
-140.9112955376888
 10
87.98102075708461
 20
-140.8265461887517
 10
88.20943058775666
 20
-140.8065646349372
 10
88.38306340021325
 20
-140.8065646349372
 10
88.55428464583019
 20
-140.8065646349372
 10
88.7847615337934
 20
-140.8248236410091
 10
88.97734237141886
 20
-140.9112955376888
 97
        0
 97
        1
330
DF
 75
     2
 76
     1
 98
        1
 10
0.0
 20
0.0
450
        0
451
        0
460
0.0
461
0.0
452
        0
462
0.0
453
        0
470

  0
ENDBLK
  5
D9
330
D6
100
AcDbEntity
  8
0
100
AcDbBlockEnd
  0
BLOCK
  5
E5
330
E3
100
AcDbEntity
  8
0
100
AcDbBlockBegin
  2
Block_11
 70
     0
 10
0.0
 20
0.0
 30
0.0
  3
Block_11
  1

  0
LINE
  5
E7
330
E3
100
AcDbEntity
  8
レイヤー 1
 62
    18
420
        0
370
     9
100
AcDbLine
 10
109.546420897643
 20
-151.9633922834484
 30
0.0
 11
109.2795760397827
 21
-150.9996200501773
 31
0.0
  0
LINE
  5
E8
330
E3
100
AcDbEntity
  8
レイヤー 1
 62
    18
420
        0
370
     9
100
AcDbLine
 10
109.546420897643
 20
-151.9633922834484
 30
0.0
 11
109.5119866902653
 21
-150.3494317206443
 31
0.0
  0
LINE
  5
E9
330
E3
100
AcDbEntity
  8
レイヤー 1
 62
    18
420
        0
370
     9
100
AcDbLine
 10
109.546420897643
 20
-151.9633922834484
 30
0.0
 11
109.7972689751489
 21
-150.9952118280616
 31
0.0
  0
ENDBLK
  5
E6
330
E3
100
AcDbEntity
  8
0
100
AcDbBlockEnd
  0
BLOCK
  5
EC
330
EA
100
AcDbEntity
  8
0
100
AcDbBlockBegin
  2
Block_12
 70
     0
 10
0.0
 20
0.0
 30
0.0
  3
Block_12
  1

  0
INSERT
  5
EF
330
EA
100
AcDbEntity
  8
レイヤー 1
100
AcDbBlockReference
  2
Block_13
 10
0.0
 20
0.0
 30
0.0
  0
ENDBLK
  5
ED
330
EA
100
AcDbEntity
  8
0
100
AcDbBlockEnd
  0
BLOCK
  5
F0
330
EE
100
AcDbEntity
  8
0
100
AcDbBlockBegin
  2
Block_13
 70
     0
 10
0.0
 20
0.0
 30
0.0
  3
Block_13
  1

  0
SPLINE
  5
F2
330
EE
100
AcDbEntity
  8
レイヤー 1
100
AcDbSpline
210
0.0
220
0.0
230
1.0
 70
     9
 71
     3
 72
    17
 73
    13
 74
     0
 42
0.0000000001
 43
0.0000000001
 40
0.0
 40
0.0
 40
0.0
 40
0.0
 40
1.0
 40
1.0
 40
1.0
 40
2.0
 40
2.0
 40
2.0
 40
3.0
 40
3.0
 40
3.0
 40
4.0
 40
4.0
 40
4.0
 40
4.0
 10
105.5604817444432
 20
-149.2832220763945
 30
0.0
 10
105.5432562670169
 20
-149.3125053880191
 30
0.0
 10
105.4926133633838
 20
-149.4058674756693
 30
0.0
 10
105.4819335673795
 20
-149.4248155008382
 30
0.0
 10
105.6724473477138
 20
-149.4840711431845
 30
0.0
 10
105.6934624301739
 20
-149.490272315058
 30
0.0
 10
105.7654649258155
 20
-149.51783307894
 30
0.0
 10
105.8205864535796
 20
-149.4310166727117
 30
0.0
 10
105.8436685933307
 20
-149.3569471197788
 30
0.0
 10
105.8584825039173
 20
-149.2832220763945
 30
0.0
 10
105.8584825039173
 20
-149.2832220763945
 30
0.0
 10
105.5604817444432
 20
-149.2832220763945
 30
0.0
 10
105.5604817444432
 20
-149.2832220763945
 30
0.0
  0
SPLINE
  5
F3
330
EE
100
AcDbEntity
  8
レイヤー 1
100
AcDbSpline
210
0.0
220
0.0
230
1.0
 70
    11
 71
     3
 72
    20
 73
    16
 74
     0
 42
0.0000000001
 43
0.0000000001
 40
0.0
 40
0.0
 40
0.0
 40
0.0
 40
1.0
 40
1.0
 40
1.0
 40
2.0
 40
2.0
 40
2.0
 40
3.0
 40
3.0
 40
3.0
 40
4.0
 40
4.0
 40
4.0
 40
5.0
 40
5.0
 40
5.0
 40
5.0
 10
105.4967474779661
 20
-148.4326280010863
 30
0.0
 10
105.4967474779661
 20
-148.4326280010863
 30
0.0
 10
105.4650525995018
 20
-148.4326280010863
 30
0.0
 10
105.4650525995018
 20
-148.4326280010863
 30
0.0
 10
105.5115613885526
 20
-148.5320190058357
 30
0.0
 10
105.5432562670169
 20
-148.612289730642
 30
0.0
 10
105.5773627123209
 20
-148.7392414992735
 30
0.0
 10
105.5773627123209
 20
-148.7392414992735
 30
0.0
 10
105.7844129509844
 20
-148.7392414992735
 30
0.0
 10
105.7844129509844
 20
-148.7392414992735
 30
0.0
 10
105.8164523389973
 20
-148.6462239211718
 30
0.0
 10
105.8395344787484
 20
-148.5616468270089
 30
0.0
 10
105.8629611280481
 20
-148.4326280010863
 30
0.0
 10
105.8629611280481
 20
-148.4326280010863
 30
0.0
 10
105.4967474779661
 20
-148.4326280010863
 30
0.0
 10
105.4967474779661
 20
-148.4326280010863
 30
0.0
  0
SPLINE
  5
F4
330
EE
100
AcDbEntity
  8
レイヤー 1
100
AcDbSpline
210
0.0
220
0.0
230
1.0
 70
     9
 71
     3
 72
   242
 73
   238
 74
     0
 42
0.0000000001
 43
0.0000000001
 40
0.0
 40
0.0
 40
0.0
 40
0.0
 40
1.0
 40
1.0
 40
1.0
 40
2.0
 40
2.0
 40
2.0
 40
3.0
 40
3.0
 40
3.0
 40
4.0
 40
4.0
 40
4.0
 40
5.0
 40
5.0
 40
5.0
 40
6.0
 40
6.0
 40
6.0
 40
7.0
 40
7.0
 40
7.0
 40
8.0
 40
8.0
 40
8.0
 40
9.0
 40
9.0
 40
9.0
 40
10.0
 40
10.0
 40
10.0
 40
11.0
 40
11.0
 40
11.0
 40
12.0
 40
12.0
 40
12.0
 40
13.0
 40
13.0
 40
13.0
 40
14.0
 40
14.0
 40
14.0
 40
15.0
 40
15.0
 40
15.0
 40
16.0
 40
16.0
 40
16.0
 40
17.0
 40
17.0
 40
17.0
 40
18.0
 40
18.0
 40
18.0
 40
19.0
 40
19.0
 40
19.0
 40
20.0
 40
20.0
 40
20.0
 40
21.0
 40
21.0
 40
21.0
 40
22.0
 40
22.0
 40
22.0
 40
23.0
 40
23.0
 40
23.0
 40
24.0
 40
24.0
 40
24.0
 40
25.0
 40
25.0
 40
25.0
 40
26.0
 40
26.0
 40
26.0
 40
27.0
 40
27.0
 40
27.0
 40
28.0
 40
28.0
 40
28.0
 40
29.0
 40
29.0
 40
29.0
 40
30.0
 40
30.0
 40
30.0
 40
31.0
 40
31.0
 40
31.0
 40
32.0
 40
32.0
 40
32.0
 40
33.0
 40
33.0
 40
33.0
 40
34.0
 40
34.0
 40
34.0
 40
35.0
 40
35.0
 40
35.0
 40
36.0
 40
36.0
 40
36.0
 40
37.0
 40
37.0
 40
37.0
 40
38.0
 40
38.0
 40
38.0
 40
39.0
 40
39.0
 40
39.0
 40
40.0
 40
40.0
 40
40.0
 40
41.0
 40
41.0
 40
41.0
 40
42.0
 40
42.0
 40
42.0
 40
43.0
 40
43.0
 40
43.0
 40
44.0
 40
44.0
 40
44.0
 40
45.0
 40
45.0
 40
45.0
 40
46.0
 40
46.0
 40
46.0
 40
47.0
 40
47.0
 40
47.0
 40
48.0
 40
48.0
 40
48.0
 40
49.0
 40
49.0
 40
49.0
 40
50.0
 40
50.0
 40
50.0
 40
51.0
 40
51.0
 40
51.0
 40
52.0
 40
52.0
 40
52.0
 40
53.0
 40
53.0
 40
53.0
 40
54.0
 40
54.0
 40
54.0
 40
55.0
 40
55.0
 40
55.0
 40
56.0
 40
56.0
 40
56.0
 40
57.0
 40
57.0
 40
57.0
 40
58.0
 40
58.0
 40
58.0
 40
59.0
 40
59.0
 40
59.0
 40
60.0
 40
60.0
 40
60.0
 40
61.0
 40
61.0
 40
61.0
 40
62.0
 40
62.0
 40
62.0
 40
63.0
 40
63.0
 40
63.0
 40
64.0
 40
64.0
 40
64.0
 40
65.0
 40
65.0
 40
65.0
 40
66.0
 40
66.0
 40
66.0
 40
67.0
 40
67.0
 40
67.0
 40
68.0
 40
68.0
 40
68.0
 40
69.0
 40
69.0
 40
69.0
 40
70.0
 40
70.0
 40
70.0
 40
71.0
 40
71.0
 40
71.0
 40
72.0
 40
72.0
 40
72.0
 40
73.0
 40
73.0
 40
73.0
 40
74.0
 40
74.0
 40
74.0
 40
75.0
 40
75.0
 40
75.0
 40
76.0
 40
76.0
 40
76.0
 40
77.0
 40
77.0
 40
77.0
 40
78.0
 40
78.0
 40
78.0
 40
79.0
 40
79.0
 40
79.0
 40
79.0
 10
106.1251328944756
 20
-148.8980604011435
 30
0.0
 10
106.1251328944756
 20
-148.8980604011435
 30
0.0
 10
105.8712293572127
 20
-148.8980604011435
 30
0.0
 10
105.8712293572127
 20
-148.8980604011435
 30
0.0
 10
105.8712293572127
 20
-148.8980604011435
 30
0.0
 10
105.5942436801986
 20
-148.8980604011435
 30
0.0
 10
105.5942436801986
 20
-148.8980604011435
 30
0.0
 10
105.5942436801986
 20
-148.8980604011435
 30
0.0
 10
105.7210231940558
 20
-148.9404350756121
 30
0.0
 10
105.7210231940558
 20
-148.9404350756121
 30
0.0
 10
105.7317029900601
 20
-148.9445691901944
 30
0.0
 10
105.7444498433555
 20
-148.9507703620678
 30
0.0
 10
105.7444498433555
 20
-148.9635172153633
 30
0.0
 10
105.7444498433555
 20
-148.9848768073718
 30
0.0
 10
105.7127549648912
 20
-148.9910779792453
 30
0.0
 10
105.6913953728827
 20
-148.9952120938276
 30
0.0
 10
105.6810600864269
 20
-149.0186387431273
 30
0.0
 10
105.6514322652538
 20
-149.084095557347
 30
0.0
 10
105.6321397305364
 20
-149.1285372891067
 30
0.0
 10
105.6321397305364
 20
-149.1285372891067
 30
0.0
 10
105.902924235677
 20
-149.1285372891067
 30
0.0
 10
105.902924235677
 20
-149.1285372891067
 30
0.0
 10
105.9938747564876
 20
-149.1285372891067
 30
0.0
 10
106.1905897086954
 20
-149.1244031745244
 30
0.0
 10
106.3325276426877
 20
-149.1157904358113
 30
0.0
 10
106.3325276426877
 20
-149.1157904358113
 30
0.0
 10
106.3325276426877
 20
-149.2935573628502
 30
0.0
 10
106.3325276426877
 20
-149.2935573628502
 30
0.0
 10
106.2498453510417
 20
-149.2894232482679
 30
0.0
 10
106.2288302685817
 20
-149.2894232482679
 30
0.0
 10
106.0489962842516
 20
-149.2852891336856
 30
0.0
 10
106.0173014057873
 20
-149.4396294114248
 30
0.0
 10
105.9728596740276
 20
-149.5199001362311
 30
0.0
 10
105.9284179422679
 20
-149.5898355745817
 30
0.0
 10
106.0489962842516
 20
-149.649091216928
 30
0.0
 10
106.1547607156488
 20
-149.7166150884389
 30
0.0
 10
106.2584580897548
 20
-149.7992973800849
 30
0.0
 10
106.2584580897548
 20
-149.7992973800849
 30
0.0
 10
106.1399468050622
 20
-149.9663845111195
 30
0.0
 10
106.1399468050622
 20
-149.9663845111195
 30
0.0
 10
106.116864665311
 20
-149.9474364859506
 30
0.0
 10
106.1041178120156
 20
-149.9388237472375
 30
0.0
 10
105.9918076991965
 20
-149.8540743983004
 30
0.0
 10
105.9432318528545
 20
-149.8161783479626
 30
0.0
 10
105.8839762105082
 20
-149.780349354916
 30
0.0
 10
105.8037054857018
 20
-149.7359076231563
 30
0.0
 10
105.5921766229075
 20
-149.9219427793598
 30
0.0
 10
105.3866766772123
 20
-149.9453694286595
 30
0.0
 10
105.0969441469028
 20
-149.9749972498326
 30
0.0
 10
105.0969441469028
 20
-149.9749972498326
 30
0.0
 10
104.9932467727968
 20
-149.7951632655026
 30
0.0
 10
104.9932467727968
 20
-149.7951632655026
 30
0.0
 10
105.3105400669883
 20
-149.7906846413718
 30
0.0
 10
105.4864121915103
 20
-149.7655354443294
 30
0.0
 10
105.6386854119584
 20
-149.6552923888014
 30
0.0
 10
105.5201741272658
 20
-149.6046494851683
 30
0.0
 10
105.4311184089721
 20
-149.5770887212863
 30
0.0
 10
105.3952894159255
 20
-149.5643418679908
 30
0.0
 10
105.3761691359823
 20
-149.5919026318729
 30
0.0
 10
105.3613552253958
 20
-149.6108506570417
 30
0.0
 10
105.3337944615138
 20
-149.6449571023457
 30
0.0
 10
105.3337944615138
 20
-149.6449571023457
 30
0.0
 10
105.137079509306
 20
-149.5622748106997
 30
0.0
 10
105.137079509306
 20
-149.5622748106997
 30
0.0
 10
105.2195895461777
 20
-149.4820040858934
 30
0.0
 10
105.2809122458152
 20
-149.386574940952
 30
0.0
 10
105.3381008308703
 20
-149.2852891336856
 30
0.0
 10
105.1477593053103
 20
-149.2894232482679
 30
0.0
 10
105.126571968076
 20
-149.2894232482679
 30
0.0
 10
105.0440619312043
 20
-149.2935573628502
 30
0.0
 10
105.0440619312043
 20
-149.2935573628502
 30
0.0
 10
105.0440619312043
 20
-149.1157904358113
 30
0.0
 10
105.0440619312043
 20
-149.1157904358113
 30
0.0
 10
105.1835882983569
 20
-149.1223361172333
 30
0.0
 10
105.3930501038601
 20
-149.1264702318156
 30
0.0
 10
105.4185438104509
 20
-149.1264702318156
 30
0.0
 10
105.4354247783286
 20
-149.0927082960601
 30
0.0
 10
105.4905463060926
 20
-148.9721299540764
 30
0.0
 10
105.5094943312615
 20
-148.8980604011435
 30
0.0
 10
105.4905463060926
 20
-148.8980604011435
 30
0.0
 10
105.3127793790537
 20
-148.904261573017
 30
0.0
 10
105.1181314841371
 20
-148.9170084263124
 30
0.0
 10
105.1181314841371
 20
-148.9170084263124
 30
0.0
 10
105.1181314841371
 20
-149.0503336215916
 30
0.0
 10
105.1181314841371
 20
-149.0503336215916
 30
0.0
 10
105.0693833830208
 20
-149.0758273281824
 30
0.0
 10
105.0101277406745
 20
-149.1075222066467
 30
0.0
 10
104.8769748001696
 20
-149.1729790208665
 30
0.0
 10
104.8769748001696
 20
-149.1729790208665
 30
0.0
 10
104.8769748001696
 20
-149.3190510694411
 30
0.0
 10
104.8769748001696
 20
-149.3190510694411
 30
0.0
 10
104.8769748001696
 20
-149.3190510694411
 30
0.0
 10
104.8769748001696
 20
-149.7865505267895
 30
0.0
 10
104.8769748001696
 20
-149.7865505267895
 30
0.0
 10
104.8769748001696
 20
-149.9133300406467
 30
0.0
 10
104.8409735523488
 20
-149.972585682993
 30
0.0
 10
104.5574421939127
 20
-149.9643174538284
 30
0.0
 10
104.5574421939127
 20
-149.9643174538284
 30
0.0
 10
104.4537448198067
 20
-149.7569227056163
 30
0.0
 10
104.4537448198067
 20
-149.7569227056163
 30
0.0
 10
104.5173068315095
 20
-149.7696695589117
 30
0.0
 10
104.5658826778516
 20
-149.773803673494
 30
0.0
 10
104.606190295029
 20
-149.773803673494
 30
0.0
 10
104.682326905253
 20
-149.773803673494
 30
0.0
 10
104.692834446483
 20
-149.7507215337428
 30
0.0
 10
104.692834446483
 20
-149.6849202099746
 30
0.0
 10
104.692834446483
 20
-149.6849202099746
 30
0.0
 10
104.692834446483
 20
-149.2556613125124
 30
0.0
 10
104.692834446483
 20
-149.2556613125124
 30
0.0
 10
104.5955104990247
 20
-149.2956244201413
 30
0.0
 10
104.578629531147
 20
-149.3021701015633
 30
0.0
 10
104.5321207420961
 20
-149.3211181267322
 30
0.0
 10
104.5278143727396
 20
-149.3421332091922
 30
0.0
 10
104.5236802581573
 20
-149.3717610303654
 30
0.0
 10
104.5045599782141
 20
-149.3717610303654
 30
0.0
 10
104.4961194942753
 20
-149.3717610303654
 30
0.0
 10
104.4856119530452
 20
-149.3676269157831
 30
0.0
 10
104.4792385263975
 20
-149.3445447760319
 30
0.0
 10
104.4792385263975
 20
-149.3445447760319
 30
0.0
 10
104.426356310699
 20
-149.1519639384064
 30
0.0
 10
104.426356310699
 20
-149.1519639384064
 30
0.0
 10
104.5722561044993
 20
-149.1054551493555
 30
0.0
 10
104.6378851734933
 20
-149.0820285000559
 30
0.0
 10
104.692834446483
 20
-149.0610134175958
 30
0.0
 10
104.692834446483
 20
-149.0610134175958
 30
0.0
 10
104.692834446483
 20
-148.6482909784629
 30
0.0
 10
104.692834446483
 20
-148.6482909784629
 30
0.0
 10
104.692834446483
 20
-148.6482909784629
 30
0.0
 10
104.6399522307844
 20
-148.6482909784629
 30
0.0
 10
104.6399522307844
 20
-148.6482909784629
 30
0.0
 10
104.6399522307844
 20
-148.6482909784629
 30
0.0
 10
104.5617485632693
 20
-148.6482909784629
 30
0.0
 10
104.5617485632693
 20
-148.6482909784629
 30
0.0
 10
104.4940524369841
 20
-148.6482909784629
 30
0.0
 10
104.4856119530452
 20
-148.6482909784629
 30
0.0
 10
104.4496107052244
 20
-148.6546644051106
 30
0.0
 10
104.4496107052244
 20
-148.6546644051106
 30
0.0
 10
104.4496107052244
 20
-148.460016510194
 30
0.0
 10
104.4496107052244
 20
-148.460016510194
 30
0.0
 10
104.4771714691064
 20
-148.4663899368417
 30
0.0
 10
104.4856119530452
 20
-148.4663899368417
 30
0.0
 10
104.5553751366216
 20
-148.4663899368417
 30
0.0
 10
104.5553751366216
 20
-148.4663899368417
 30
0.0
 10
104.6887003319007
 20
-148.4663899368417
 30
0.0
 10
104.6887003319007
 20
-148.4663899368417
 30
0.0
 10
104.6887003319007
 20
-148.3966267532654
 30
0.0
 10
104.6887003319007
 20
-148.3141167163937
 30
0.0
 10
104.6864610198353
 20
-148.3098103470371
 30
0.0
 10
104.6780205358964
 20
-148.1299763627071
 30
0.0
 10
104.6780205358964
 20
-148.1110283375382
 30
0.0
 10
104.6759534786053
 20
-148.0645195484873
 30
0.0
 10
104.6759534786053
 20
-148.0645195484873
 30
0.0
 10
104.8917887107562
 20
-148.0729600324262
 30
0.0
 10
104.8917887107562
 20
-148.0729600324262
 30
0.0
 10
104.9022962519862
 20
-148.0729600324262
 30
0.0
 10
104.9234835892205
 20
-148.0750270897173
 30
0.0
 10
104.9234835892205
 20
-148.0919080575951
 30
0.0
 10
104.9234835892205
 20
-148.1110283375382
 30
0.0
 10
104.9086696786339
 20
-148.1215358787682
 30
0.0
 10
104.8833482268173
 20
-148.1406561587114
 30
0.0
 10
104.8833482268173
 20
-148.1912990623445
 30
0.0
 10
104.8769748001696
 20
-148.4198811477908
 30
0.0
 10
104.8790418574608
 20
-148.4663899368417
 30
0.0
 10
105.0080606833834
 20
-148.4663899368417
 30
0.0
 10
105.0208075366788
 20
-148.4663899368417
 30
0.0
 10
105.1181314841371
 20
-148.4579494529029
 30
0.0
 10
105.1181314841371
 20
-148.4579494529029
 30
0.0
 10
105.1181314841371
 20
-148.6525973478195
 30
0.0
 10
105.1181314841371
 20
-148.6525973478195
 30
0.0
 10
105.0800631790251
 20
-148.6503580357541
 30
0.0
 10
105.0123670527399
 20
-148.6462239211718
 30
0.0
 10
104.8769748001696
 20
-148.6482909784629
 30
0.0
 10
104.8769748001696
 20
-148.6482909784629
 30
0.0
 10
104.8769748001696
 20
-148.986943864663
 30
0.0
 10
104.8769748001696
 20
-148.986943864663
 30
0.0
 10
104.9319240731594
 20
-148.9635172153633
 30
0.0
 10
104.9975531421534
 20
-148.9359564514813
 30
0.0
 10
105.0461289884954
 20
-148.9128743117301
 30
0.0
 10
105.0461289884954
 20
-148.9128743117301
 30
0.0
 10
105.0461289884954
 20
-148.7351073846912
 30
0.0
 10
105.0461289884954
 20
-148.7351073846912
 30
0.0
 10
105.1603339038314
 20
-148.7476819832124
 30
0.0
 10
105.278845188524
 20
-148.7476819832124
 30
0.0
 10
105.3952894159255
 20
-148.7476819832124
 30
0.0
 10
105.3718627666258
 20
-148.6525973478195
 30
0.0
 10
105.344474257518
 20
-148.5700873109477
 30
0.0
 10
105.2809122458152
 20
-148.4367621156686
 30
0.0
 10
105.2364705140554
 20
-148.4388291729597
 30
0.0
 10
105.154132731958
 20
-148.4431355423163
 30
0.0
 10
105.1158921720717
 20
-148.4452025996074
 30
0.0
 10
105.1158921720717
 20
-148.4452025996074
 30
0.0
 10
105.1158921720717
 20
-148.2653686152774
 30
0.0
 10
105.1158921720717
 20
-148.2653686152774
 30
0.0
 10
105.240776883412
 20
-148.2738090992162
 30
0.0
 10
105.4142374410943
 20
-148.2781154685728
 30
0.0
 10
105.4967474779661
 20
-148.2781154685728
 30
0.0
 10
105.4967474779661
 20
-148.2781154685728
 30
0.0
 10
105.5794297696121
 20
-148.2781154685728
 30
0.0
 10
105.5794297696121
 20
-148.2781154685728
 30
0.0
 10
105.5794297696121
 20
-148.1151624521205
 30
0.0
 10
105.5794297696121
 20
-148.1046549108905
 30
0.0
 10
105.5773627123209
 20
-148.0497056379008
 30
0.0
 10
105.5773627123209
 20
-148.0497056379008
 30
0.0
 10
105.8016384284107
 20
-148.0750270897173
 30
0.0
 10
105.8016384284107
 20
-148.0750270897173
 30
0.0
 10
105.805772542993
 20
-148.0750270897173
 30
0.0
 10
105.826787625453
 20
-148.0770941470085
 30
0.0
 10
105.826787625453
 20
-148.0939751148862
 30
0.0
 10
105.826787625453
 20
-148.1087890254728
 30
0.0
 10
105.8164523389973
 20
-148.1174017641859
 30
0.0
 10
105.7888915751153
 20
-148.1322156747725
 30
0.0
 10
105.7823458936933
 20
-148.1976724889922
 30
0.0
 10
105.7802788364021
 20
-148.2188598262265
 30
0.0
 10
105.7802788364021
 20
-148.2781154685728
 30
0.0
 10
105.7802788364021
 20
-148.2781154685728
 30
0.0
 10
105.875363471795
 20
-148.2781154685728
 30
0.0
 10
105.875363471795
 20
-148.2781154685728
 30
0.0
 10
105.958045763441
 20
-148.2781154685728
 30
0.0
 10
106.1313340663491
 20
-148.2738090992162
 30
0.0
 10
106.2563910324637
 20
-148.2653686152774
 30
0.0
 10
106.2563910324637
 20
-148.2653686152774
 30
0.0
 10
106.2563910324637
 20
-148.4452025996074
 30
0.0
 10
106.2563910324637
 20
-148.4452025996074
 30
0.0
 10
106.2267632112905
 20
-148.4431355423163
 30
0.0
 10
106.1082519265979
 20
-148.4388291729597
 30
0.0
 10
106.0679443094205
 20
-148.4367621156686
 30
0.0
 10
106.0531303988339
 20
-148.487577274076
 30
0.0
 10
106.0193684630785
 20
-148.5997151321209
 30
0.0
 10
105.9539116488587
 20
-148.7392414992735
 30
0.0
 10
105.9959418137788
 20
-148.7392414992735
 30
0.0
 10
106.2732720003414
 20
-148.7202934741046
 30
0.0
 10
106.3345946999788
 20
-148.7180541620392
 30
0.0
 10
106.3345946999788
 20
-148.7180541620392
 30
0.0
 10
106.3345946999788
 20
-148.9021945157258
 30
0.0
 10
106.3345946999788
 20
-148.9021945157258
 30
0.0
 10
106.3049668788057
 20
-148.9021945157258
 30
0.0
 10
106.288085910928
 20
-148.8980604011435
 30
0.0
 10
106.1251328944756
 20
-148.8980604011435
 30
0.0
  0
HATCH
  5
F5
330
EE
100
AcDbEntity
  8
レイヤー 1
 62
    18
420
        0
440
 33554687
100
AcDbHatch
 10
0.0
 20
0.0
 30
0.0
210
0.0
220
0.0
230
1.0
  2
SOLID
 70
     1
 71
     1
 91
        3
 92
        1
 93
        1
 72
     4
 94
        3
 73
     0
 74
     0
 95
       17
 96
       13
 40
0.0
 40
0.0
 40
0.0
 40
0.0
 40
1.0
 40
1.0
 40
1.0
 40
2.0
 40
2.0
 40
2.0
 40
3.0
 40
3.0
 40
3.0
 40
4.0
 40
4.0
 40
4.0
 40
4.0
 10
105.5604817444432
 20
-149.2832220763945
 10
105.5432562670169
 20
-149.3125053880191
 10
105.4926133633838
 20
-149.4058674756693
 10
105.4819335673795
 20
-149.4248155008382
 10
105.6724473477138
 20
-149.4840711431845
 10
105.6934624301739
 20
-149.490272315058
 10
105.7654649258155
 20
-149.51783307894
 10
105.8205864535796
 20
-149.4310166727117
 10
105.8436685933307
 20
-149.3569471197788
 10
105.8584825039173
 20
-149.2832220763945
 10
105.8584825039173
 20
-149.2832220763945
 10
105.5604817444432
 20
-149.2832220763945
 10
105.5604817444432
 20
-149.2832220763945
 97
        0
 97
        1
330
F2
 92
        1
 93
        1
 72
     4
 94
        3
 73
     0
 74
     0
 95
       20
 96
       16
 40
0.0
 40
0.0
 40
0.0
 40
0.0
 40
1.0
 40
1.0
 40
1.0
 40
2.0
 40
2.0
 40
2.0
 40
3.0
 40
3.0
 40
3.0
 40
4.0
 40
4.0
 40
4.0
 40
5.0
 40
5.0
 40
5.0
 40
5.0
 10
105.4967474779661
 20
-148.4326280010863
 10
105.4967474779661
 20
-148.4326280010863
 10
105.4650525995018
 20
-148.4326280010863
 10
105.4650525995018
 20
-148.4326280010863
 10
105.5115613885526
 20
-148.5320190058357
 10
105.5432562670169
 20
-148.612289730642
 10
105.5773627123209
 20
-148.7392414992735
 10
105.5773627123209
 20
-148.7392414992735
 10
105.7844129509844
 20
-148.7392414992735
 10
105.7844129509844
 20
-148.7392414992735
 10
105.8164523389973
 20
-148.6462239211718
 10
105.8395344787484
 20
-148.5616468270089
 10
105.8629611280481
 20
-148.4326280010863
 10
105.8629611280481
 20
-148.4326280010863
 10
105.4967474779661
 20
-148.4326280010863
 10
105.4967474779661
 20
-148.4326280010863
 97
        0
 97
        1
330
F3
 92
        1
 93
        1
 72
     4
 94
        3
 73
     0
 74
     0
 95
      242
 96
      238
 40
0.0
 40
0.0
 40
0.0
 40
0.0
 40
1.0
 40
1.0
 40
1.0
 40
2.0
 40
2.0
 40
2.0
 40
3.0
 40
3.0
 40
3.0
 40
4.0
 40
4.0
 40
4.0
 40
5.0
 40
5.0
 40
5.0
 40
6.0
 40
6.0
 40
6.0
 40
7.0
 40
7.0
 40
7.0
 40
8.0
 40
8.0
 40
8.0
 40
9.0
 40
9.0
 40
9.0
 40
10.0
 40
10.0
 40
10.0
 40
11.0
 40
11.0
 40
11.0
 40
12.0
 40
12.0
 40
12.0
 40
13.0
 40
13.0
 40
13.0
 40
14.0
 40
14.0
 40
14.0
 40
15.0
 40
15.0
 40
15.0
 40
16.0
 40
16.0
 40
16.0
 40
17.0
 40
17.0
 40
17.0
 40
18.0
 40
18.0
 40
18.0
 40
19.0
 40
19.0
 40
19.0
 40
20.0
 40
20.0
 40
20.0
 40
21.0
 40
21.0
 40
21.0
 40
22.0
 40
22.0
 40
22.0
 40
23.0
 40
23.0
 40
23.0
 40
24.0
 40
24.0
 40
24.0
 40
25.0
 40
25.0
 40
25.0
 40
26.0
 40
26.0
 40
26.0
 40
27.0
 40
27.0
 40
27.0
 40
28.0
 40
28.0
 40
28.0
 40
29.0
 40
29.0
 40
29.0
 40
30.0
 40
30.0
 40
30.0
 40
31.0
 40
31.0
 40
31.0
 40
32.0
 40
32.0
 40
32.0
 40
33.0
 40
33.0
 40
33.0
 40
34.0
 40
34.0
 40
34.0
 40
35.0
 40
35.0
 40
35.0
 40
36.0
 40
36.0
 40
36.0
 40
37.0
 40
37.0
 40
37.0
 40
38.0
 40
38.0
 40
38.0
 40
39.0
 40
39.0
 40
39.0
 40
40.0
 40
40.0
 40
40.0
 40
41.0
 40
41.0
 40
41.0
 40
42.0
 40
42.0
 40
42.0
 40
43.0
 40
43.0
 40
43.0
 40
44.0
 40
44.0
 40
44.0
 40
45.0
 40
45.0
 40
45.0
 40
46.0
 40
46.0
 40
46.0
 40
47.0
 40
47.0
 40
47.0
 40
48.0
 40
48.0
 40
48.0
 40
49.0
 40
49.0
 40
49.0
 40
50.0
 40
50.0
 40
50.0
 40
51.0
 40
51.0
 40
51.0
 40
52.0
 40
52.0
 40
52.0
 40
53.0
 40
53.0
 40
53.0
 40
54.0
 40
54.0
 40
54.0
 40
55.0
 40
55.0
 40
55.0
 40
56.0
 40
56.0
 40
56.0
 40
57.0
 40
57.0
 40
57.0
 40
58.0
 40
58.0
 40
58.0
 40
59.0
 40
59.0
 40
59.0
 40
60.0
 40
60.0
 40
60.0
 40
61.0
 40
61.0
 40
61.0
 40
62.0
 40
62.0
 40
62.0
 40
63.0
 40
63.0
 40
63.0
 40
64.0
 40
64.0
 40
64.0
 40
65.0
 40
65.0
 40
65.0
 40
66.0
 40
66.0
 40
66.0
 40
67.0
 40
67.0
 40
67.0
 40
68.0
 40
68.0
 40
68.0
 40
69.0
 40
69.0
 40
69.0
 40
70.0
 40
70.0
 40
70.0
 40
71.0
 40
71.0
 40
71.0
 40
72.0
 40
72.0
 40
72.0
 40
73.0
 40
73.0
 40
73.0
 40
74.0
 40
74.0
 40
74.0
 40
75.0
 40
75.0
 40
75.0
 40
76.0
 40
76.0
 40
76.0
 40
77.0
 40
77.0
 40
77.0
 40
78.0
 40
78.0
 40
78.0
 40
79.0
 40
79.0
 40
79.0
 40
79.0
 10
106.1251328944756
 20
-148.8980604011435
 10
106.1251328944756
 20
-148.8980604011435
 10
105.8712293572127
 20
-148.8980604011435
 10
105.8712293572127
 20
-148.8980604011435
 10
105.8712293572127
 20
-148.8980604011435
 10
105.5942436801986
 20
-148.8980604011435
 10
105.5942436801986
 20
-148.8980604011435
 10
105.5942436801986
 20
-148.8980604011435
 10
105.7210231940558
 20
-148.9404350756121
 10
105.7210231940558
 20
-148.9404350756121
 10
105.7317029900601
 20
-148.9445691901944
 10
105.7444498433555
 20
-148.9507703620678
 10
105.7444498433555
 20
-148.9635172153633
 10
105.7444498433555
 20
-148.9848768073718
 10
105.7127549648912
 20
-148.9910779792453
 10
105.6913953728827
 20
-148.9952120938276
 10
105.6810600864269
 20
-149.0186387431273
 10
105.6514322652538
 20
-149.084095557347
 10
105.6321397305364
 20
-149.1285372891067
 10
105.6321397305364
 20
-149.1285372891067
 10
105.902924235677
 20
-149.1285372891067
 10
105.902924235677
 20
-149.1285372891067
 10
105.9938747564876
 20
-149.1285372891067
 10
106.1905897086954
 20
-149.1244031745244
 10
106.3325276426877
 20
-149.1157904358113
 10
106.3325276426877
 20
-149.1157904358113
 10
106.3325276426877
 20
-149.2935573628502
 10
106.3325276426877
 20
-149.2935573628502
 10
106.2498453510417
 20
-149.2894232482679
 10
106.2288302685817
 20
-149.2894232482679
 10
106.0489962842516
 20
-149.2852891336856
 10
106.0173014057873
 20
-149.4396294114248
 10
105.9728596740276
 20
-149.5199001362311
 10
105.9284179422679
 20
-149.5898355745817
 10
106.0489962842516
 20
-149.649091216928
 10
106.1547607156488
 20
-149.7166150884389
 10
106.2584580897548
 20
-149.7992973800849
 10
106.2584580897548
 20
-149.7992973800849
 10
106.1399468050622
 20
-149.9663845111195
 10
106.1399468050622
 20
-149.9663845111195
 10
106.116864665311
 20
-149.9474364859506
 10
106.1041178120156
 20
-149.9388237472375
 10
105.9918076991965
 20
-149.8540743983004
 10
105.9432318528545
 20
-149.8161783479626
 10
105.8839762105082
 20
-149.780349354916
 10
105.8037054857018
 20
-149.7359076231563
 10
105.5921766229075
 20
-149.9219427793598
 10
105.3866766772123
 20
-149.9453694286595
 10
105.0969441469028
 20
-149.9749972498326
 10
105.0969441469028
 20
-149.9749972498326
 10
104.9932467727968
 20
-149.7951632655026
 10
104.9932467727968
 20
-149.7951632655026
 10
105.3105400669883
 20
-149.7906846413718
 10
105.4864121915103
 20
-149.7655354443294
 10
105.6386854119584
 20
-149.6552923888014
 10
105.5201741272658
 20
-149.6046494851683
 10
105.4311184089721
 20
-149.5770887212863
 10
105.3952894159255
 20
-149.5643418679908
 10
105.3761691359823
 20
-149.5919026318729
 10
105.3613552253958
 20
-149.6108506570417
 10
105.3337944615138
 20
-149.6449571023457
 10
105.3337944615138
 20
-149.6449571023457
 10
105.137079509306
 20
-149.5622748106997
 10
105.137079509306
 20
-149.5622748106997
 10
105.2195895461777
 20
-149.4820040858934
 10
105.2809122458152
 20
-149.386574940952
 10
105.3381008308703
 20
-149.2852891336856
 10
105.1477593053103
 20
-149.2894232482679
 10
105.126571968076
 20
-149.2894232482679
 10
105.0440619312043
 20
-149.2935573628502
 10
105.0440619312043
 20
-149.2935573628502
 10
105.0440619312043
 20
-149.1157904358113
 10
105.0440619312043
 20
-149.1157904358113
 10
105.1835882983569
 20
-149.1223361172333
 10
105.3930501038601
 20
-149.1264702318156
 10
105.4185438104509
 20
-149.1264702318156
 10
105.4354247783286
 20
-149.0927082960601
 10
105.4905463060926
 20
-148.9721299540764
 10
105.5094943312615
 20
-148.8980604011435
 10
105.4905463060926
 20
-148.8980604011435
 10
105.3127793790537
 20
-148.904261573017
 10
105.1181314841371
 20
-148.9170084263124
 10
105.1181314841371
 20
-148.9170084263124
 10
105.1181314841371
 20
-149.0503336215916
 10
105.1181314841371
 20
-149.0503336215916
 10
105.0693833830208
 20
-149.0758273281824
 10
105.0101277406745
 20
-149.1075222066467
 10
104.8769748001696
 20
-149.1729790208665
 10
104.8769748001696
 20
-149.1729790208665
 10
104.8769748001696
 20
-149.3190510694411
 10
104.8769748001696
 20
-149.3190510694411
 10
104.8769748001696
 20
-149.3190510694411
 10
104.8769748001696
 20
-149.7865505267895
 10
104.8769748001696
 20
-149.7865505267895
 10
104.8769748001696
 20
-149.9133300406467
 10
104.8409735523488
 20
-149.972585682993
 10
104.5574421939127
 20
-149.9643174538284
 10
104.5574421939127
 20
-149.9643174538284
 10
104.4537448198067
 20
-149.7569227056163
 10
104.4537448198067
 20
-149.7569227056163
 10
104.5173068315095
 20
-149.7696695589117
 10
104.5658826778516
 20
-149.773803673494
 10
104.606190295029
 20
-149.773803673494
 10
104.682326905253
 20
-149.773803673494
 10
104.692834446483
 20
-149.7507215337428
 10
104.692834446483
 20
-149.6849202099746
 10
104.692834446483
 20
-149.6849202099746
 10
104.692834446483
 20
-149.2556613125124
 10
104.692834446483
 20
-149.2556613125124
 10
104.5955104990247
 20
-149.2956244201413
 10
104.578629531147
 20
-149.3021701015633
 10
104.5321207420961
 20
-149.3211181267322
 10
104.5278143727396
 20
-149.3421332091922
 10
104.5236802581573
 20
-149.3717610303654
 10
104.5045599782141
 20
-149.3717610303654
 10
104.4961194942753
 20
-149.3717610303654
 10
104.4856119530452
 20
-149.3676269157831
 10
104.4792385263975
 20
-149.3445447760319
 10
104.4792385263975
 20
-149.3445447760319
 10
104.426356310699
 20
-149.1519639384064
 10
104.426356310699
 20
-149.1519639384064
 10
104.5722561044993
 20
-149.1054551493555
 10
104.6378851734933
 20
-149.0820285000559
 10
104.692834446483
 20
-149.0610134175958
 10
104.692834446483
 20
-149.0610134175958
 10
104.692834446483
 20
-148.6482909784629
 10
104.692834446483
 20
-148.6482909784629
 10
104.692834446483
 20
-148.6482909784629
 10
104.6399522307844
 20
-148.6482909784629
 10
104.6399522307844
 20
-148.6482909784629
 10
104.6399522307844
 20
-148.6482909784629
 10
104.5617485632693
 20
-148.6482909784629
 10
104.5617485632693
 20
-148.6482909784629
 10
104.4940524369841
 20
-148.6482909784629
 10
104.4856119530452
 20
-148.6482909784629
 10
104.4496107052244
 20
-148.6546644051106
 10
104.4496107052244
 20
-148.6546644051106
 10
104.4496107052244
 20
-148.460016510194
 10
104.4496107052244
 20
-148.460016510194
 10
104.4771714691064
 20
-148.4663899368417
 10
104.4856119530452
 20
-148.4663899368417
 10
104.5553751366216
 20
-148.4663899368417
 10
104.5553751366216
 20
-148.4663899368417
 10
104.6887003319007
 20
-148.4663899368417
 10
104.6887003319007
 20
-148.4663899368417
 10
104.6887003319007
 20
-148.3966267532654
 10
104.6887003319007
 20
-148.3141167163937
 10
104.6864610198353
 20
-148.3098103470371
 10
104.6780205358964
 20
-148.1299763627071
 10
104.6780205358964
 20
-148.1110283375382
 10
104.6759534786053
 20
-148.0645195484873
 10
104.6759534786053
 20
-148.0645195484873
 10
104.8917887107562
 20
-148.0729600324262
 10
104.8917887107562
 20
-148.0729600324262
 10
104.9022962519862
 20
-148.0729600324262
 10
104.9234835892205
 20
-148.0750270897173
 10
104.9234835892205
 20
-148.0919080575951
 10
104.9234835892205
 20
-148.1110283375382
 10
104.9086696786339
 20
-148.1215358787682
 10
104.8833482268173
 20
-148.1406561587114
 10
104.8833482268173
 20
-148.1912990623445
 10
104.8769748001696
 20
-148.4198811477908
 10
104.8790418574608
 20
-148.4663899368417
 10
105.0080606833834
 20
-148.4663899368417
 10
105.0208075366788
 20
-148.4663899368417
 10
105.1181314841371
 20
-148.4579494529029
 10
105.1181314841371
 20
-148.4579494529029
 10
105.1181314841371
 20
-148.6525973478195
 10
105.1181314841371
 20
-148.6525973478195
 10
105.0800631790251
 20
-148.6503580357541
 10
105.0123670527399
 20
-148.6462239211718
 10
104.8769748001696
 20
-148.6482909784629
 10
104.8769748001696
 20
-148.6482909784629
 10
104.8769748001696
 20
-148.986943864663
 10
104.8769748001696
 20
-148.986943864663
 10
104.9319240731594
 20
-148.9635172153633
 10
104.9975531421534
 20
-148.9359564514813
 10
105.0461289884954
 20
-148.9128743117301
 10
105.0461289884954
 20
-148.9128743117301
 10
105.0461289884954
 20
-148.7351073846912
 10
105.0461289884954
 20
-148.7351073846912
 10
105.1603339038314
 20
-148.7476819832124
 10
105.278845188524
 20
-148.7476819832124
 10
105.3952894159255
 20
-148.7476819832124
 10
105.3718627666258
 20
-148.6525973478195
 10
105.344474257518
 20
-148.5700873109477
 10
105.2809122458152
 20
-148.4367621156686
 10
105.2364705140554
 20
-148.4388291729597
 10
105.154132731958
 20
-148.4431355423163
 10
105.1158921720717
 20
-148.4452025996074
 10
105.1158921720717
 20
-148.4452025996074
 10
105.1158921720717
 20
-148.2653686152774
 10
105.1158921720717
 20
-148.2653686152774
 10
105.240776883412
 20
-148.2738090992162
 10
105.4142374410943
 20
-148.2781154685728
 10
105.4967474779661
 20
-148.2781154685728
 10
105.4967474779661
 20
-148.2781154685728
 10
105.5794297696121
 20
-148.2781154685728
 10
105.5794297696121
 20
-148.2781154685728
 10
105.5794297696121
 20
-148.1151624521205
 10
105.5794297696121
 20
-148.1046549108905
 10
105.5773627123209
 20
-148.0497056379008
 10
105.5773627123209
 20
-148.0497056379008
 10
105.8016384284107
 20
-148.0750270897173
 10
105.8016384284107
 20
-148.0750270897173
 10
105.805772542993
 20
-148.0750270897173
 10
105.826787625453
 20
-148.0770941470085
 10
105.826787625453
 20
-148.0939751148862
 10
105.826787625453
 20
-148.1087890254728
 10
105.8164523389973
 20
-148.1174017641859
 10
105.7888915751153
 20
-148.1322156747725
 10
105.7823458936933
 20
-148.1976724889922
 10
105.7802788364021
 20
-148.2188598262265
 10
105.7802788364021
 20
-148.2781154685728
 10
105.7802788364021
 20
-148.2781154685728
 10
105.875363471795
 20
-148.2781154685728
 10
105.875363471795
 20
-148.2781154685728
 10
105.958045763441
 20
-148.2781154685728
 10
106.1313340663491
 20
-148.2738090992162
 10
106.2563910324637
 20
-148.2653686152774
 10
106.2563910324637
 20
-148.2653686152774
 10
106.2563910324637
 20
-148.4452025996074
 10
106.2563910324637
 20
-148.4452025996074
 10
106.2267632112905
 20
-148.4431355423163
 10
106.1082519265979
 20
-148.4388291729597
 10
106.0679443094205
 20
-148.4367621156686
 10
106.0531303988339
 20
-148.487577274076
 10
106.0193684630785
 20
-148.5997151321209
 10
105.9539116488587
 20
-148.7392414992735
 10
105.9959418137788
 20
-148.7392414992735
 10
106.2732720003414
 20
-148.7202934741046
 10
106.3345946999788
 20
-148.7180541620392
 10
106.3345946999788
 20
-148.7180541620392
 10
106.3345946999788
 20
-148.9021945157258
 10
106.3345946999788
 20
-148.9021945157258
 10
106.3049668788057
 20
-148.9021945157258
 10
106.288085910928
 20
-148.8980604011435
 10
106.1251328944756
 20
-148.8980604011435
 97
        0
 97
        1
330
F4
 75
     2
 76
     1
 98
        1
 10
0.0
 20
0.0
450
        0
451
        0
460
0.0
461
0.0
452
        0
462
0.0
453
        0
470

  0
SPLINE
  5
F6
330
EE
100
AcDbEntity
  8
レイヤー 1
100
AcDbSpline
210
0.0
220
0.0
230
1.0
 70
    11
 71
     3
 72
    17
 73
    13
 74
     0
 42
0.0000000001
 43
0.0000000001
 40
0.0
 40
0.0
 40
0.0
 40
0.0
 40
1.0
 40
1.0
 40
1.0
 40
2.0
 40
2.0
 40
2.0
 40
3.0
 40
3.0
 40
3.0
 40
4.0
 40
4.0
 40
4.0
 40
4.0
 10
107.9816948514768
 20
-149.69766706327
 30
0.0
 10
107.9816948514768
 20
-149.69766706327
 30
0.0
 10
107.275105767452
 20
-149.69766706327
 30
0.0
 10
107.275105767452
 20
-149.69766706327
 30
0.0
 10
107.275105767452
 20
-149.69766706327
 30
0.0
 10
107.275105767452
 20
-149.8120442333803
 30
0.0
 10
107.275105767452
 20
-149.8120442333803
 30
0.0
 10
107.275105767452
 20
-149.8120442333803
 30
0.0
 10
107.9816948514768
 20
-149.8120442333803
 30
0.0
 10
107.9816948514768
 20
-149.8120442333803
 30
0.0
 10
107.9816948514768
 20
-149.8120442333803
 30
0.0
 10
107.9816948514768
 20
-149.69766706327
 30
0.0
 10
107.9816948514768
 20
-149.69766706327
 30
0.0
  0
SPLINE
  5
F7
330
EE
100
AcDbEntity
  8
レイヤー 1
100
AcDbSpline
210
0.0
220
0.0
230
1.0
 70
    11
 71
     3
 72
    17
 73
    13
 74
     0
 42
0.0000000001
 43
0.0000000001
 40
0.0
 40
0.0
 40
0.0
 40
0.0
 40
1.0
 40
1.0
 40
1.0
 40
2.0
 40
2.0
 40
2.0
 40
3.0
 40
3.0
 40
3.0
 40
4.0
 40
4.0
 40
4.0
 40
4.0
 10
107.9816948514768
 20
-149.4544433220114
 30
0.0
 10
107.9816948514768
 20
-149.4544433220114
 30
0.0
 10
107.275105767452
 20
-149.4544433220114
 30
0.0
 10
107.275105767452
 20
-149.4544433220114
 30
0.0
 10
107.275105767452
 20
-149.4544433220114
 30
0.0
 10
107.275105767452
 20
-149.5688204921217
 30
0.0
 10
107.275105767452
 20
-149.5688204921217
 30
0.0
 10
107.275105767452
 20
-149.5688204921217
 30
0.0
 10
107.9816948514768
 20
-149.5688204921217
 30
0.0
 10
107.9816948514768
 20
-149.5688204921217
 30
0.0
 10
107.9816948514768
 20
-149.5688204921217
 30
0.0
 10
107.9816948514768
 20
-149.4544433220114
 30
0.0
 10
107.9816948514768
 20
-149.4544433220114
 30
0.0
  0
SPLINE
  5
F8
330
EE
100
AcDbEntity
  8
レイヤー 1
100
AcDbSpline
210
0.0
220
0.0
230
1.0
 70
    11
 71
     3
 72
    17
 73
    13
 74
     0
 42
0.0000000001
 43
0.0000000001
 40
0.0
 40
0.0
 40
0.0
 40
0.0
 40
1.0
 40
1.0
 40
1.0
 40
2.0
 40
2.0
 40
2.0
 40
3.0
 40
3.0
 40
3.0
 40
4.0
 40
4.0
 40
4.0
 40
4.0
 10
107.9816948514768
 20
-149.2215548672085
 30
0.0
 10
107.9816948514768
 20
-149.2215548672085
 30
0.0
 10
107.275105767452
 20
-149.2215548672085
 30
0.0
 10
107.275105767452
 20
-149.2215548672085
 30
0.0
 10
107.275105767452
 20
-149.2215548672085
 30
0.0
 10
107.275105767452
 20
-149.3297308654453
 30
0.0
 10
107.275105767452
 20
-149.3297308654453
 30
0.0
 10
107.275105767452
 20
-149.3297308654453
 30
0.0
 10
107.9816948514768
 20
-149.3297308654453
 30
0.0
 10
107.9816948514768
 20
-149.3297308654453
 30
0.0
 10
107.9816948514768
 20
-149.3297308654453
 30
0.0
 10
107.9816948514768
 20
-149.2215548672085
 30
0.0
 10
107.9816948514768
 20
-149.2215548672085
 30
0.0
  0
SPLINE
  5
F9
330
EE
100
AcDbEntity
  8
レイヤー 1
100
AcDbSpline
210
0.0
220
0.0
230
1.0
 70
     9
 71
     3
 72
   203
 73
   199
 74
     0
 42
0.0000000001
 43
0.0000000001
 40
0.0
 40
0.0
 40
0.0
 40
0.0
 40
1.0
 40
1.0
 40
1.0
 40
2.0
 40
2.0
 40
2.0
 40
3.0
 40
3.0
 40
3.0
 40
4.0
 40
4.0
 40
4.0
 40
5.0
 40
5.0
 40
5.0
 40
6.0
 40
6.0
 40
6.0
 40
7.0
 40
7.0
 40
7.0
 40
8.0
 40
8.0
 40
8.0
 40
9.0
 40
9.0
 40
9.0
 40
10.0
 40
10.0
 40
10.0
 40
11.0
 40
11.0
 40
11.0
 40
12.0
 40
12.0
 40
12.0
 40
13.0
 40
13.0
 40
13.0
 40
14.0
 40
14.0
 40
14.0
 40
15.0
 40
15.0
 40
15.0
 40
16.0
 40
16.0
 40
16.0
 40
17.0
 40
17.0
 40
17.0
 40
18.0
 40
18.0
 40
18.0
 40
19.0
 40
19.0
 40
19.0
 40
20.0
 40
20.0
 40
20.0
 40
21.0
 40
21.0
 40
21.0
 40
22.0
 40
22.0
 40
22.0
 40
23.0
 40
23.0
 40
23.0
 40
24.0
 40
24.0
 40
24.0
 40
25.0
 40
25.0
 40
25.0
 40
26.0
 40
26.0
 40
26.0
 40
27.0
 40
27.0
 40
27.0
 40
28.0
 40
28.0
 40
28.0
 40
29.0
 40
29.0
 40
29.0
 40
30.0
 40
30.0
 40
30.0
 40
31.0
 40
31.0
 40
31.0
 40
32.0
 40
32.0
 40
32.0
 40
33.0
 40
33.0
 40
33.0
 40
34.0
 40
34.0
 40
34.0
 40
35.0
 40
35.0
 40
35.0
 40
36.0
 40
36.0
 40
36.0
 40
37.0
 40
37.0
 40
37.0
 40
38.0
 40
38.0
 40
38.0
 40
39.0
 40
39.0
 40
39.0
 40
40.0
 40
40.0
 40
40.0
 40
41.0
 40
41.0
 40
41.0
 40
42.0
 40
42.0
 40
42.0
 40
43.0
 40
43.0
 40
43.0
 40
44.0
 40
44.0
 40
44.0
 40
45.0
 40
45.0
 40
45.0
 40
46.0
 40
46.0
 40
46.0
 40
47.0
 40
47.0
 40
47.0
 40
48.0
 40
48.0
 40
48.0
 40
49.0
 40
49.0
 40
49.0
 40
50.0
 40
50.0
 40
50.0
 40
51.0
 40
51.0
 40
51.0
 40
52.0
 40
52.0
 40
52.0
 40
53.0
 40
53.0
 40
53.0
 40
54.0
 40
54.0
 40
54.0
 40
55.0
 40
55.0
 40
55.0
 40
56.0
 40
56.0
 40
56.0
 40
57.0
 40
57.0
 40
57.0
 40
58.0
 40
58.0
 40
58.0
 40
59.0
 40
59.0
 40
59.0
 40
60.0
 40
60.0
 40
60.0
 40
61.0
 40
61.0
 40
61.0
 40
62.0
 40
62.0
 40
62.0
 40
63.0
 40
63.0
 40
63.0
 40
64.0
 40
64.0
 40
64.0
 40
65.0
 40
65.0
 40
65.0
 40
66.0
 40
66.0
 40
66.0
 40
66.0
 10
107.8166747777333
 20
-148.9655842726544
 30
0.0
 10
107.8166747777333
 20
-148.9655842726544
 30
0.0
 10
107.2582247995743
 20
-148.9655842726544
 30
0.0
 10
107.2582247995743
 20
-148.9655842726544
 30
0.0
 10
107.24754500357
 20
-149.0100260044141
 30
0.0
 10
107.2389322648569
 20
-149.0417208828785
 30
0.0
 10
107.22652992111
 20
-149.0799614427647
 30
0.0
 10
107.2516791181523
 20
-149.0799614427647
 30
0.0
 10
107.2664930287389
 20
-149.0820285000559
 30
0.0
 10
107.2730387101609
 20
-149.0820285000559
 30
0.0
 10
107.2730387101609
 20
-149.0820285000559
 30
0.0
 10
107.4611409236555
 20
-149.0820285000559
 30
0.0
 10
107.4611409236555
 20
-149.0820285000559
 30
0.0
 10
107.4611409236555
 20
-149.0820285000559
 30
0.0
 10
107.8356228029022
 20
-149.0820285000559
 30
0.0
 10
107.8356228029022
 20
-149.0820285000559
 30
0.0
 10
107.8862657065354
 20
-149.0820285000559
 30
0.0
 10
108.1697970649714
 20
-149.0692816467604
 30
0.0
 10
108.2014919434357
 20
-149.0692816467604
 30
0.0
 10
108.1994248861446
 20
-149.0968424106424
 30
0.0
 10
108.1973578288534
 20
-149.1157904358113
 30
0.0
 10
108.1973578288534
 20
-149.1454182569845
 30
0.0
 10
108.1952907715623
 20
-149.1771131354488
 30
0.0
 10
108.1952907715623
 20
-149.3125053880191
 30
0.0
 10
108.1952907715623
 20
-149.3400661519011
 30
0.0
 10
108.1952907715623
 20
-149.3400661519011
 30
0.0
 10
108.1952907715623
 20
-149.5857014599994
 30
0.0
 10
108.1952907715623
 20
-149.5857014599994
 30
0.0
 10
108.1952907715623
 20
-149.6301431917591
 30
0.0
 10
108.1994248861446
 20
-149.8268581439669
 30
0.0
 10
108.2039035102754
 20
-149.9791313644149
 30
0.0
 10
108.2039035102754
 20
-149.9791313644149
 30
0.0
 10
107.9772162273459
 20
-149.9791313644149
 30
0.0
 10
107.9772162273459
 20
-149.9791313644149
 30
0.0
 10
107.9772162273459
 20
-149.9791313644149
 30
0.0
 10
107.9796277941856
 20
-149.9453694286595
 30
0.0
 10
107.9796277941856
 20
-149.9453694286595
 30
0.0
 10
107.9796277941856
 20
-149.9453694286595
 30
0.0
 10
107.2771728247432
 20
-149.9453694286595
 30
0.0
 10
107.2771728247432
 20
-149.9453694286595
 30
0.0
 10
107.2771728247432
 20
-149.9453694286595
 30
0.0
 10
107.2792398820343
 20
-149.9791313644149
 30
0.0
 10
107.2792398820343
 20
-149.9791313644149
 30
0.0
 10
107.2792398820343
 20
-149.9791313644149
 30
0.0
 10
107.0615098473665
 20
-149.9791313644149
 30
0.0
 10
107.0615098473665
 20
-149.9791313644149
 30
0.0
 10
107.0656439619488
 20
-149.9240098366509
 30
0.0
 10
107.0656439619488
 20
-149.9112629833555
 30
0.0
 10
107.0718451338223
 20
-149.7972303227937
 30
0.0
 10
107.0739121911134
 20
-149.7696695589117
 30
0.0
 10
107.0763237579531
 20
-149.6363443636326
 30
0.0
 10
107.0763237579531
 20
-149.6173963384637
 30
0.0
 10
107.0763237579531
 20
-149.6173963384637
 30
0.0
 10
107.0763237579531
 20
-149.4141357048339
 30
0.0
 10
107.0763237579531
 20
-149.4141357048339
 30
0.0
 10
106.936452881252
 20
-149.6639051275146
 30
0.0
 10
106.7672986929262
 20
-149.7951632655026
 30
0.0
 10
106.661534261529
 20
-149.8606200797223
 30
0.0
 10
106.661534261529
 20
-149.8606200797223
 30
0.0
 10
106.4879014490724
 20
-149.7210937125697
 30
0.0
 10
106.4879014490724
 20
-149.7210937125697
 30
0.0
 10
106.5767849125919
 20
-149.670106299388
 30
0.0
 10
106.7207899038753
 20
-149.5832898931597
 30
0.0
 10
106.8582492137368
 20
-149.3889865077916
 30
0.0
 10
106.9491997345474
 20
-149.2618624843859
 30
0.0
 10
107.0150010583157
 20
-149.118202002651
 30
0.0
 10
107.0487629940711
 20
-148.9655842726544
 30
0.0
 10
106.8203531633991
 20
-148.9679958394941
 30
0.0
 10
106.640519179069
 20
-148.9741970113676
 30
0.0
 10
106.5450900341276
 20
-148.9762640686587
 30
0.0
 10
106.5450900341276
 20
-148.9762640686587
 30
0.0
 10
106.5450900341276
 20
-148.7984971416198
 30
0.0
 10
106.5450900341276
 20
-148.7984971416198
 30
0.0
 10
106.7418049863354
 20
-148.8048705682675
 30
0.0
 10
107.0253363447714
 20
-148.8091769376241
 30
0.0
 10
107.1755425079283
 20
-148.8091769376241
 30
0.0
 10
107.1755425079283
 20
-148.8091769376241
 30
0.0
 10
107.3891384280138
 20
-148.8091769376241
 30
0.0
 10
107.3891384280138
 20
-148.8091769376241
 30
0.0
 10
107.3891384280138
 20
-148.8091769376241
 30
0.0
 10
107.3891384280138
 20
-148.7011731941615
 30
0.0
 10
107.3891384280138
 20
-148.7011731941615
 30
0.0
 10
107.3891384280138
 20
-148.7011731941615
 30
0.0
 10
107.2434108889877
 20
-148.7011731941615
 30
0.0
 10
107.2434108889877
 20
-148.7011731941615
 30
0.0
 10
107.0739121911134
 20
-148.7011731941615
 30
0.0
 10
106.9047580027877
 20
-148.7054795635181
 30
0.0
 10
106.737670871753
 20
-148.7118529901658
 30
0.0
 10
106.737670871753
 20
-148.7118529901658
 30
0.0
 10
106.737670871753
 20
-148.5404594897746
 30
0.0
 10
106.737670871753
 20
-148.5404594897746
 30
0.0
 10
106.8920111494922
 20
-148.5509670310046
 30
0.0
 10
107.0783908152443
 20
-148.5509670310046
 30
0.0
 10
107.2434108889877
 20
-148.5509670310046
 30
0.0
 10
107.2434108889877
 20
-148.5509670310046
 30
0.0
 10
107.3891384280138
 20
-148.5509670310046
 30
0.0
 10
107.3891384280138
 20
-148.5509670310046
 30
0.0
 10
107.3891384280138
 20
-148.5509670310046
 30
0.0
 10
107.3891384280138
 20
-148.4326280010863
 30
0.0
 10
107.3891384280138
 20
-148.4326280010863
 30
0.0
 10
107.3891384280138
 20
-148.4326280010863
 30
0.0
 10
107.2582247995743
 20
-148.4326280010863
 30
0.0
 10
107.2582247995743
 20
-148.4326280010863
 30
0.0
 10
107.2117160105234
 20
-148.4326280010863
 30
0.0
 10
107.0084553768937
 20
-148.4410684850251
 30
0.0
 10
106.9660807024251
 20
-148.4410684850251
 30
0.0
 10
106.7631645783439
 20
-148.4452025996074
 30
0.0
 10
106.6870279681199
 20
-148.4472696568986
 30
0.0
 10
106.6088243006047
 20
-148.449508968964
 30
0.0
 10
106.6088243006047
 20
-148.449508968964
 30
0.0
 10
106.6088243006047
 20
-148.2653686152774
 30
0.0
 10
106.6088243006047
 20
-148.2653686152774
 30
0.0
 10
106.7228569611665
 20
-148.2738090992162
 30
0.0
 10
106.7672986929262
 20
-148.2738090992162
 30
0.0
 10
107.150393310886
 20
-148.2824218379294
 30
0.0
 10
107.0866590444089
 20
-148.1871649477622
 30
0.0
 10
107.0590982805269
 20
-148.1596041838802
 30
0.0
 10
107.0232692874803
 20
-148.1236029360593
 30
0.0
 10
107.0232692874803
 20
-148.1236029360593
 30
0.0
 10
107.198969157228
 20
-148.0410928991876
 30
0.0
 10
107.198969157228
 20
-148.0410928991876
 30
0.0
 10
107.2389322648569
 20
-148.0770941470085
 30
0.0
 10
107.2833739966166
 20
-148.1194688214771
 30
0.0
 10
107.3574435495495
 20
-148.2293673674565
 30
0.0
 10
107.3574435495495
 20
-148.2293673674565
 30
0.0
 10
107.2434108889877
 20
-148.2844888952205
 30
0.0
 10
107.2434108889877
 20
-148.2844888952205
 30
0.0
 10
107.2434108889877
 20
-148.2844888952205
 30
0.0
 10
107.2537461754435
 20
-148.2844888952205
 30
0.0
 10
107.2537461754435
 20
-148.2844888952205
 30
0.0
 10
107.2537461754435
 20
-148.2844888952205
 30
0.0
 10
107.7763671605559
 20
-148.2844888952205
 30
0.0
 10
107.7763671605559
 20
-148.2844888952205
 30
0.0
 10
107.7763671605559
 20
-148.2844888952205
 30
0.0
 10
107.681282525163
 20
-148.2400471634608
 30
0.0
 10
107.681282525163
 20
-148.2400471634608
 30
0.0
 10
107.708843289045
 20
-148.2019788583488
 30
0.0
 10
107.7656873645516
 20
-148.1215358787682
 30
0.0
 10
107.7805012751382
 20
-148.0474663258353
 30
0.0
 10
107.7805012751382
 20
-148.0474663258353
 30
0.0
 10
107.9944417047722
 20
-148.1110283375382
 30
0.0
 10
107.9944417047722
 20
-148.1110283375382
 30
0.0
 10
108.0027099339368
 20
-148.1130953948293
 30
0.0
 10
108.0240695259454
 20
-148.1236029360593
 30
0.0
 10
108.0240695259454
 20
-148.1447902732936
 30
0.0
 10
108.0240695259454
 20
-148.1828585784056
 30
0.0
 10
107.9582682021771
 20
-148.1828585784056
 30
0.0
 10
107.9393201770082
 20
-148.1828585784056
 30
0.0
 10
107.9286403810039
 20
-148.2019788583488
 30
0.0
 10
107.9055582412528
 20
-148.2421142207519
 30
0.0
 10
107.8759304200796
 20
-148.2824218379294
 30
0.0
 10
108.2755614963686
 20
-148.2760484112817
 30
0.0
 10
108.3051893175417
 20
-148.2738090992162
 30
0.0
 10
108.3813259277658
 20
-148.2676079273428
 30
0.0
 10
108.3813259277658
 20
-148.2676079273428
 30
0.0
 10
108.3813259277658
 20
-148.449508968964
 30
0.0
 10
108.3813259277658
 20
-148.449508968964
 30
0.0
 10
108.3623779025969
 20
-148.449508968964
 30
0.0
 10
108.336884196006
 20
-148.4472696568986
 30
0.0
 10
108.1170871040471
 20
-148.4388291729597
 30
0.0
 10
108.0660996908654
 20
-148.4367621156686
 30
0.0
 10
107.8463025989065
 20
-148.4326280010863
 30
0.0
 10
107.8018608671467
 20
-148.4326280010863
 30
0.0
 10
107.8018608671467
 20
-148.4326280010863
 30
0.0
 10
107.5858533802216
 20
-148.4326280010863
 30
0.0
 10
107.5858533802216
 20
-148.4326280010863
 30
0.0
 10
107.5858533802216
 20
-148.4326280010863
 30
0.0
 10
107.5858533802216
 20
-148.5509670310046
 30
0.0
 10
107.5858533802216
 20
-148.5509670310046
 30
0.0
 10
107.5858533802216
 20
-148.5509670310046
 30
0.0
 10
107.7594861926782
 20
-148.5509670310046
 30
0.0
 10
107.7594861926782
 20
-148.5509670310046
 30
0.0
 10
107.9224392091305
 20
-148.5509670310046
 30
0.0
 10
108.1126084799163
 20
-148.5509670310046
 30
0.0
 10
108.2693603244951
 20
-148.5404594897746
 30
0.0
 10
108.2693603244951
 20
-148.5404594897746
 30
0.0
 10
108.2693603244951
 20
-148.7118529901658
 30
0.0
 10
108.2693603244951
 20
-148.7118529901658
 30
0.0
 10
108.059898518992
 20
-148.7034125062269
 30
0.0
 10
107.8631835667842
 20
-148.7011731941615
 30
0.0
 10
107.7594861926782
 20
-148.7011731941615
 30
0.0
 10
107.7594861926782
 20
-148.7011731941615
 30
0.0
 10
107.5858533802216
 20
-148.7011731941615
 30
0.0
 10
107.5858533802216
 20
-148.7011731941615
 30
0.0
 10
107.5858533802216
 20
-148.7011731941615
 30
0.0
 10
107.5858533802216
 20
-148.8091769376241
 30
0.0
 10
107.5858533802216
 20
-148.8091769376241
 30
0.0
 10
107.5858533802216
 20
-148.8091769376241
 30
0.0
 10
107.8166747777333
 20
-148.8091769376241
 30
0.0
 10
107.8166747777333
 20
-148.8091769376241
 30
0.0
 10
107.9499999730125
 20
-148.8091769376241
 30
0.0
 10
108.2376654460308
 20
-148.8048705682675
 30
0.0
 10
108.447127251534
 20
-148.7984971416198
 30
0.0
 10
108.447127251534
 20
-148.7984971416198
 30
0.0
 10
108.447127251534
 20
-148.9762640686587
 30
0.0
 10
108.447127251534
 20
-148.9762640686587
 30
0.0
 10
108.2545464139086
 20
-148.9700628967852
 30
0.0
 10
107.9413872342994
 20
-148.9655842726544
 30
0.0
 10
107.8166747777333
 20
-148.9655842726544
 30
0.0
  0
HATCH
  5
FA
330
EE
100
AcDbEntity
  8
レイヤー 1
 62
    18
420
        0
440
 33554687
100
AcDbHatch
 10
0.0
 20
0.0
 30
0.0
210
0.0
220
0.0
230
1.0
  2
SOLID
 70
     1
 71
     1
 91
        4
 92
        1
 93
        1
 72
     4
 94
        3
 73
     0
 74
     0
 95
       17
 96
       13
 40
0.0
 40
0.0
 40
0.0
 40
0.0
 40
1.0
 40
1.0
 40
1.0
 40
2.0
 40
2.0
 40
2.0
 40
3.0
 40
3.0
 40
3.0
 40
4.0
 40
4.0
 40
4.0
 40
4.0
 10
107.9816948514768
 20
-149.69766706327
 10
107.9816948514768
 20
-149.69766706327
 10
107.275105767452
 20
-149.69766706327
 10
107.275105767452
 20
-149.69766706327
 10
107.275105767452
 20
-149.69766706327
 10
107.275105767452
 20
-149.8120442333803
 10
107.275105767452
 20
-149.8120442333803
 10
107.275105767452
 20
-149.8120442333803
 10
107.9816948514768
 20
-149.8120442333803
 10
107.9816948514768
 20
-149.8120442333803
 10
107.9816948514768
 20
-149.8120442333803
 10
107.9816948514768
 20
-149.69766706327
 10
107.9816948514768
 20
-149.69766706327
 97
        0
 97
        1
330
F6
 92
        1
 93
        1
 72
     4
 94
        3
 73
     0
 74
     0
 95
       17
 96
       13
 40
0.0
 40
0.0
 40
0.0
 40
0.0
 40
1.0
 40
1.0
 40
1.0
 40
2.0
 40
2.0
 40
2.0
 40
3.0
 40
3.0
 40
3.0
 40
4.0
 40
4.0
 40
4.0
 40
4.0
 10
107.9816948514768
 20
-149.4544433220114
 10
107.9816948514768
 20
-149.4544433220114
 10
107.275105767452
 20
-149.4544433220114
 10
107.275105767452
 20
-149.4544433220114
 10
107.275105767452
 20
-149.4544433220114
 10
107.275105767452
 20
-149.5688204921217
 10
107.275105767452
 20
-149.5688204921217
 10
107.275105767452
 20
-149.5688204921217
 10
107.9816948514768
 20
-149.5688204921217
 10
107.9816948514768
 20
-149.5688204921217
 10
107.9816948514768
 20
-149.5688204921217
 10
107.9816948514768
 20
-149.4544433220114
 10
107.9816948514768
 20
-149.4544433220114
 97
        0
 97
        1
330
F7
 92
        1
 93
        1
 72
     4
 94
        3
 73
     0
 74
     0
 95
       17
 96
       13
 40
0.0
 40
0.0
 40
0.0
 40
0.0
 40
1.0
 40
1.0
 40
1.0
 40
2.0
 40
2.0
 40
2.0
 40
3.0
 40
3.0
 40
3.0
 40
4.0
 40
4.0
 40
4.0
 40
4.0
 10
107.9816948514768
 20
-149.2215548672085
 10
107.9816948514768
 20
-149.2215548672085
 10
107.275105767452
 20
-149.2215548672085
 10
107.275105767452
 20
-149.2215548672085
 10
107.275105767452
 20
-149.2215548672085
 10
107.275105767452
 20
-149.3297308654453
 10
107.275105767452
 20
-149.3297308654453
 10
107.275105767452
 20
-149.3297308654453
 10
107.9816948514768
 20
-149.3297308654453
 10
107.9816948514768
 20
-149.3297308654453
 10
107.9816948514768
 20
-149.3297308654453
 10
107.9816948514768
 20
-149.2215548672085
 10
107.9816948514768
 20
-149.2215548672085
 97
        0
 97
        1
330
F8
 92
        1
 93
        1
 72
     4
 94
        3
 73
     0
 74
     0
 95
      203
 96
      199
 40
0.0
 40
0.0
 40
0.0
 40
0.0
 40
1.0
 40
1.0
 40
1.0
 40
2.0
 40
2.0
 40
2.0
 40
3.0
 40
3.0
 40
3.0
 40
4.0
 40
4.0
 40
4.0
 40
5.0
 40
5.0
 40
5.0
 40
6.0
 40
6.0
 40
6.0
 40
7.0
 40
7.0
 40
7.0
 40
8.0
 40
8.0
 40
8.0
 40
9.0
 40
9.0
 40
9.0
 40
10.0
 40
10.0
 40
10.0
 40
11.0
 40
11.0
 40
11.0
 40
12.0
 40
12.0
 40
12.0
 40
13.0
 40
13.0
 40
13.0
 40
14.0
 40
14.0
 40
14.0
 40
15.0
 40
15.0
 40
15.0
 40
16.0
 40
16.0
 40
16.0
 40
17.0
 40
17.0
 40
17.0
 40
18.0
 40
18.0
 40
18.0
 40
19.0
 40
19.0
 40
19.0
 40
20.0
 40
20.0
 40
20.0
 40
21.0
 40
21.0
 40
21.0
 40
22.0
 40
22.0
 40
22.0
 40
23.0
 40
23.0
 40
23.0
 40
24.0
 40
24.0
 40
24.0
 40
25.0
 40
25.0
 40
25.0
 40
26.0
 40
26.0
 40
26.0
 40
27.0
 40
27.0
 40
27.0
 40
28.0
 40
28.0
 40
28.0
 40
29.0
 40
29.0
 40
29.0
 40
30.0
 40
30.0
 40
30.0
 40
31.0
 40
31.0
 40
31.0
 40
32.0
 40
32.0
 40
32.0
 40
33.0
 40
33.0
 40
33.0
 40
34.0
 40
34.0
 40
34.0
 40
35.0
 40
35.0
 40
35.0
 40
36.0
 40
36.0
 40
36.0
 40
37.0
 40
37.0
 40
37.0
 40
38.0
 40
38.0
 40
38.0
 40
39.0
 40
39.0
 40
39.0
 40
40.0
 40
40.0
 40
40.0
 40
41.0
 40
41.0
 40
41.0
 40
42.0
 40
42.0
 40
42.0
 40
43.0
 40
43.0
 40
43.0
 40
44.0
 40
44.0
 40
44.0
 40
45.0
 40
45.0
 40
45.0
 40
46.0
 40
46.0
 40
46.0
 40
47.0
 40
47.0
 40
47.0
 40
48.0
 40
48.0
 40
48.0
 40
49.0
 40
49.0
 40
49.0
 40
50.0
 40
50.0
 40
50.0
 40
51.0
 40
51.0
 40
51.0
 40
52.0
 40
52.0
 40
52.0
 40
53.0
 40
53.0
 40
53.0
 40
54.0
 40
54.0
 40
54.0
 40
55.0
 40
55.0
 40
55.0
 40
56.0
 40
56.0
 40
56.0
 40
57.0
 40
57.0
 40
57.0
 40
58.0
 40
58.0
 40
58.0
 40
59.0
 40
59.0
 40
59.0
 40
60.0
 40
60.0
 40
60.0
 40
61.0
 40
61.0
 40
61.0
 40
62.0
 40
62.0
 40
62.0
 40
63.0
 40
63.0
 40
63.0
 40
64.0
 40
64.0
 40
64.0
 40
65.0
 40
65.0
 40
65.0
 40
66.0
 40
66.0
 40
66.0
 40
66.0
 10
107.8166747777333
 20
-148.9655842726544
 10
107.8166747777333
 20
-148.9655842726544
 10
107.2582247995743
 20
-148.9655842726544
 10
107.2582247995743
 20
-148.9655842726544
 10
107.24754500357
 20
-149.0100260044141
 10
107.2389322648569
 20
-149.0417208828785
 10
107.22652992111
 20
-149.0799614427647
 10
107.2516791181523
 20
-149.0799614427647
 10
107.2664930287389
 20
-149.0820285000559
 10
107.2730387101609
 20
-149.0820285000559
 10
107.2730387101609
 20
-149.0820285000559
 10
107.4611409236555
 20
-149.0820285000559
 10
107.4611409236555
 20
-149.0820285000559
 10
107.4611409236555
 20
-149.0820285000559
 10
107.8356228029022
 20
-149.0820285000559
 10
107.8356228029022
 20
-149.0820285000559
 10
107.8862657065354
 20
-149.0820285000559
 10
108.1697970649714
 20
-149.0692816467604
 10
108.2014919434357
 20
-149.0692816467604
 10
108.1994248861446
 20
-149.0968424106424
 10
108.1973578288534
 20
-149.1157904358113
 10
108.1973578288534
 20
-149.1454182569845
 10
108.1952907715623
 20
-149.1771131354488
 10
108.1952907715623
 20
-149.3125053880191
 10
108.1952907715623
 20
-149.3400661519011
 10
108.1952907715623
 20
-149.3400661519011
 10
108.1952907715623
 20
-149.5857014599994
 10
108.1952907715623
 20
-149.5857014599994
 10
108.1952907715623
 20
-149.6301431917591
 10
108.1994248861446
 20
-149.8268581439669
 10
108.2039035102754
 20
-149.9791313644149
 10
108.2039035102754
 20
-149.9791313644149
 10
107.9772162273459
 20
-149.9791313644149
 10
107.9772162273459
 20
-149.9791313644149
 10
107.9772162273459
 20
-149.9791313644149
 10
107.9796277941856
 20
-149.9453694286595
 10
107.9796277941856
 20
-149.9453694286595
 10
107.9796277941856
 20
-149.9453694286595
 10
107.2771728247432
 20
-149.9453694286595
 10
107.2771728247432
 20
-149.9453694286595
 10
107.2771728247432
 20
-149.9453694286595
 10
107.2792398820343
 20
-149.9791313644149
 10
107.2792398820343
 20
-149.9791313644149
 10
107.2792398820343
 20
-149.9791313644149
 10
107.0615098473665
 20
-149.9791313644149
 10
107.0615098473665
 20
-149.9791313644149
 10
107.0656439619488
 20
-149.9240098366509
 10
107.0656439619488
 20
-149.9112629833555
 10
107.0718451338223
 20
-149.7972303227937
 10
107.0739121911134
 20
-149.7696695589117
 10
107.0763237579531
 20
-149.6363443636326
 10
107.0763237579531
 20
-149.6173963384637
 10
107.0763237579531
 20
-149.6173963384637
 10
107.0763237579531
 20
-149.4141357048339
 10
107.0763237579531
 20
-149.4141357048339
 10
106.936452881252
 20
-149.6639051275146
 10
106.7672986929262
 20
-149.7951632655026
 10
106.661534261529
 20
-149.8606200797223
 10
106.661534261529
 20
-149.8606200797223
 10
106.4879014490724
 20
-149.7210937125697
 10
106.4879014490724
 20
-149.7210937125697
 10
106.5767849125919
 20
-149.670106299388
 10
106.7207899038753
 20
-149.5832898931597
 10
106.8582492137368
 20
-149.3889865077916
 10
106.9491997345474
 20
-149.2618624843859
 10
107.0150010583157
 20
-149.118202002651
 10
107.0487629940711
 20
-148.9655842726544
 10
106.8203531633991
 20
-148.9679958394941
 10
106.640519179069
 20
-148.9741970113676
 10
106.5450900341276
 20
-148.9762640686587
 10
106.5450900341276
 20
-148.9762640686587
 10
106.5450900341276
 20
-148.7984971416198
 10
106.5450900341276
 20
-148.7984971416198
 10
106.7418049863354
 20
-148.8048705682675
 10
107.0253363447714
 20
-148.8091769376241
 10
107.1755425079283
 20
-148.8091769376241
 10
107.1755425079283
 20
-148.8091769376241
 10
107.3891384280138
 20
-148.8091769376241
 10
107.3891384280138
 20
-148.8091769376241
 10
107.3891384280138
 20
-148.8091769376241
 10
107.3891384280138
 20
-148.7011731941615
 10
107.3891384280138
 20
-148.7011731941615
 10
107.3891384280138
 20
-148.7011731941615
 10
107.2434108889877
 20
-148.7011731941615
 10
107.2434108889877
 20
-148.7011731941615
 10
107.0739121911134
 20
-148.7011731941615
 10
106.9047580027877
 20
-148.7054795635181
 10
106.737670871753
 20
-148.7118529901658
 10
106.737670871753
 20
-148.7118529901658
 10
106.737670871753
 20
-148.5404594897746
 10
106.737670871753
 20
-148.5404594897746
 10
106.8920111494922
 20
-148.5509670310046
 10
107.0783908152443
 20
-148.5509670310046
 10
107.2434108889877
 20
-148.5509670310046
 10
107.2434108889877
 20
-148.5509670310046
 10
107.3891384280138
 20
-148.5509670310046
 10
107.3891384280138
 20
-148.5509670310046
 10
107.3891384280138
 20
-148.5509670310046
 10
107.3891384280138
 20
-148.4326280010863
 10
107.3891384280138
 20
-148.4326280010863
 10
107.3891384280138
 20
-148.4326280010863
 10
107.2582247995743
 20
-148.4326280010863
 10
107.2582247995743
 20
-148.4326280010863
 10
107.2117160105234
 20
-148.4326280010863
 10
107.0084553768937
 20
-148.4410684850251
 10
106.9660807024251
 20
-148.4410684850251
 10
106.7631645783439
 20
-148.4452025996074
 10
106.6870279681199
 20
-148.4472696568986
 10
106.6088243006047
 20
-148.449508968964
 10
106.6088243006047
 20
-148.449508968964
 10
106.6088243006047
 20
-148.2653686152774
 10
106.6088243006047
 20
-148.2653686152774
 10
106.7228569611665
 20
-148.2738090992162
 10
106.7672986929262
 20
-148.2738090992162
 10
107.150393310886
 20
-148.2824218379294
 10
107.0866590444089
 20
-148.1871649477622
 10
107.0590982805269
 20
-148.1596041838802
 10
107.0232692874803
 20
-148.1236029360593
 10
107.0232692874803
 20
-148.1236029360593
 10
107.198969157228
 20
-148.0410928991876
 10
107.198969157228
 20
-148.0410928991876
 10
107.2389322648569
 20
-148.0770941470085
 10
107.2833739966166
 20
-148.1194688214771
 10
107.3574435495495
 20
-148.2293673674565
 10
107.3574435495495
 20
-148.2293673674565
 10
107.2434108889877
 20
-148.2844888952205
 10
107.2434108889877
 20
-148.2844888952205
 10
107.2434108889877
 20
-148.2844888952205
 10
107.2537461754435
 20
-148.2844888952205
 10
107.2537461754435
 20
-148.2844888952205
 10
107.2537461754435
 20
-148.2844888952205
 10
107.7763671605559
 20
-148.2844888952205
 10
107.7763671605559
 20
-148.2844888952205
 10
107.7763671605559
 20
-148.2844888952205
 10
107.681282525163
 20
-148.2400471634608
 10
107.681282525163
 20
-148.2400471634608
 10
107.708843289045
 20
-148.2019788583488
 10
107.7656873645516
 20
-148.1215358787682
 10
107.7805012751382
 20
-148.0474663258353
 10
107.7805012751382
 20
-148.0474663258353
 10
107.9944417047722
 20
-148.1110283375382
 10
107.9944417047722
 20
-148.1110283375382
 10
108.0027099339368
 20
-148.1130953948293
 10
108.0240695259454
 20
-148.1236029360593
 10
108.0240695259454
 20
-148.1447902732936
 10
108.0240695259454
 20
-148.1828585784056
 10
107.9582682021771
 20
-148.1828585784056
 10
107.9393201770082
 20
-148.1828585784056
 10
107.9286403810039
 20
-148.2019788583488
 10
107.9055582412528
 20
-148.2421142207519
 10
107.8759304200796
 20
-148.2824218379294
 10
108.2755614963686
 20
-148.2760484112817
 10
108.3051893175417
 20
-148.2738090992162
 10
108.3813259277658
 20
-148.2676079273428
 10
108.3813259277658
 20
-148.2676079273428
 10
108.3813259277658
 20
-148.449508968964
 10
108.3813259277658
 20
-148.449508968964
 10
108.3623779025969
 20
-148.449508968964
 10
108.336884196006
 20
-148.4472696568986
 10
108.1170871040471
 20
-148.4388291729597
 10
108.0660996908654
 20
-148.4367621156686
 10
107.8463025989065
 20
-148.4326280010863
 10
107.8018608671467
 20
-148.4326280010863
 10
107.8018608671467
 20
-148.4326280010863
 10
107.5858533802216
 20
-148.4326280010863
 10
107.5858533802216
 20
-148.4326280010863
 10
107.5858533802216
 20
-148.4326280010863
 10
107.5858533802216
 20
-148.5509670310046
 10
107.5858533802216
 20
-148.5509670310046
 10
107.5858533802216
 20
-148.5509670310046
 10
107.7594861926782
 20
-148.5509670310046
 10
107.7594861926782
 20
-148.5509670310046
 10
107.9224392091305
 20
-148.5509670310046
 10
108.1126084799163
 20
-148.5509670310046
 10
108.2693603244951
 20
-148.5404594897746
 10
108.2693603244951
 20
-148.5404594897746
 10
108.2693603244951
 20
-148.7118529901658
 10
108.2693603244951
 20
-148.7118529901658
 10
108.059898518992
 20
-148.7034125062269
 10
107.8631835667842
 20
-148.7011731941615
 10
107.7594861926782
 20
-148.7011731941615
 10
107.7594861926782
 20
-148.7011731941615
 10
107.5858533802216
 20
-148.7011731941615
 10
107.5858533802216
 20
-148.7011731941615
 10
107.5858533802216
 20
-148.7011731941615
 10
107.5858533802216
 20
-148.8091769376241
 10
107.5858533802216
 20
-148.8091769376241
 10
107.5858533802216
 20
-148.8091769376241
 10
107.8166747777333
 20
-148.8091769376241
 10
107.8166747777333
 20
-148.8091769376241
 10
107.9499999730125
 20
-148.8091769376241
 10
108.2376654460308
 20
-148.8048705682675
 10
108.447127251534
 20
-148.7984971416198
 10
108.447127251534
 20
-148.7984971416198
 10
108.447127251534
 20
-148.9762640686587
 10
108.447127251534
 20
-148.9762640686587
 10
108.2545464139086
 20
-148.9700628967852
 10
107.9413872342994
 20
-148.9655842726544
 10
107.8166747777333
 20
-148.9655842726544
 97
        0
 97
        1
330
F9
 75
     2
 76
     1
 98
        1
 10
0.0
 20
0.0
450
        0
451
        0
460
0.0
461
0.0
452
        0
462
0.0
453
        0
470

  0
SPLINE
  5
FB
330
EE
100
AcDbEntity
  8
レイヤー 1
100
AcDbSpline
210
0.0
220
0.0
230
1.0
 70
     9
 71
     3
 72
    29
 73
    25
 74
     0
 42
0.0000000001
 43
0.0000000001
 40
0.0
 40
0.0
 40
0.0
 40
0.0
 40
1.0
 40
1.0
 40
1.0
 40
2.0
 40
2.0
 40
2.0
 40
3.0
 40
3.0
 40
3.0
 40
4.0
 40
4.0
 40
4.0
 40
5.0
 40
5.0
 40
5.0
 40
6.0
 40
6.0
 40
6.0
 40
7.0
 40
7.0
 40
7.0
 40
8.0
 40
8.0
 40
8.0
 40
8.0
 10
109.6921847599033
 20
-148.4135077211431
 30
0.0
 10
109.6921847599033
 20
-148.4135077211431
 30
0.0
 10
109.3387179631167
 20
-148.4135077211431
 30
0.0
 10
109.3387179631167
 20
-148.4135077211431
 30
0.0
 10
109.2267523598461
 20
-148.4135077211431
 30
0.0
 10
109.0872259926934
 20
-148.4198811477908
 30
0.0
 10
108.9790499944566
 20
-148.4326280010863
 30
0.0
 10
108.9790499944566
 20
-148.4326280010863
 30
0.0
 10
108.9790499944566
 20
-148.1976724889922
 30
0.0
 10
108.9790499944566
 20
-148.1976724889922
 30
0.0
 10
109.0975612791492
 20
-148.2124863995788
 30
0.0
 10
109.2815293780615
 20
-148.2167927689354
 30
0.0
 10
109.3387179631167
 20
-148.2167927689354
 30
0.0
 10
109.3387179631167
 20
-148.2167927689354
 30
0.0
 10
109.6921847599033
 20
-148.2167927689354
 30
0.0
 10
109.6921847599033
 20
-148.2167927689354
 30
0.0
 10
109.7111327850722
 20
-148.2167927689354
 30
0.0
 10
109.9143934187019
 20
-148.2167927689354
 30
0.0
 10
110.0559868431457
 20
-148.1976724889922
 30
0.0
 10
110.0559868431457
 20
-148.1976724889922
 30
0.0
 10
110.0559868431457
 20
-148.4326280010863
 30
0.0
 10
110.0559868431457
 20
-148.4326280010863
 30
0.0
 10
109.8995795081154
 20
-148.4135077211431
 30
0.0
 10
109.709065727781
 20
-148.4135077211431
 30
0.0
 10
109.6921847599033
 20
-148.4135077211431
 30
0.0
  0
SPLINE
  5
FC
330
EE
100
AcDbEntity
  8
レイヤー 1
100
AcDbSpline
210
0.0
220
0.0
230
1.0
 70
     9
 71
     3
 72
    47
 73
    43
 74
     0
 42
0.0000000001
 43
0.0000000001
 40
0.0
 40
0.0
 40
0.0
 40
0.0
 40
1.0
 40
1.0
 40
1.0
 40
2.0
 40
2.0
 40
2.0
 40
3.0
 40
3.0
 40
3.0
 40
4.0
 40
4.0
 40
4.0
 40
5.0
 40
5.0
 40
5.0
 40
6.0
 40
6.0
 40
6.0
 40
7.0
 40
7.0
 40
7.0
 40
8.0
 40
8.0
 40
8.0
 40
9.0
 40
9.0
 40
9.0
 40
10.0
 40
10.0
 40
10.0
 40
11.0
 40
11.0
 40
11.0
 40
12.0
 40
12.0
 40
12.0
 40
13.0
 40
13.0
 40
13.0
 40
14.0
 40
14.0
 40
14.0
 40
14.0
 10
109.7934705671697
 20
-148.9425021329032
 30
0.0
 10
109.7934705671697
 20
-148.9425021329032
 30
0.0
 10
109.6921847599033
 20
-148.9425021329032
 30
0.0
 10
109.6921847599033
 20
-148.9425021329032
 30
0.0
 10
109.6921847599033
 20
-149.0293185391315
 30
0.0
 10
109.6708251678948
 20
-149.4186143289648
 30
0.0
 10
109.474110215687
 20
-149.6384114209237
 30
0.0
 10
109.321836995239
 20
-149.8075656092495
 30
0.0
 10
109.1144422470269
 20
-149.8775010476
 30
0.0
 10
109.0300374076383
 20
-149.9050618114821
 30
0.0
 10
109.0300374076383
 20
-149.9050618114821
 30
0.0
 10
108.8353895127217
 20
-149.7379746804474
 30
0.0
 10
108.8353895127217
 20
-149.7379746804474
 30
0.0
 10
108.9325412054057
 20
-149.725227827152
 30
0.0
 10
109.1082410751535
 20
-149.7018011778523
 30
0.0
 10
109.2963432886481
 20
-149.5136989643577
 30
0.0
 10
109.370412841581
 20
-149.4416964687159
 30
0.0
 10
109.474110215687
 20
-149.3021701015633
 30
0.0
 10
109.474110215687
 20
-148.9425021329032
 30
0.0
 10
109.474110215687
 20
-148.9425021329032
 30
0.0
 10
109.2436333277238
 20
-148.9425021329032
 30
0.0
 10
109.2436333277238
 20
-148.9425021329032
 30
0.0
 10
109.0575981715203
 20
-148.9425021329032
 30
0.0
 10
108.8712185057683
 20
-148.9466362474855
 30
0.0
 10
108.6851833495648
 20
-148.9614501580721
 30
0.0
 10
108.6851833495648
 20
-148.9614501580721
 30
0.0
 10
108.6851833495648
 20
-148.7414808113389
 30
0.0
 10
108.6851833495648
 20
-148.7414808113389
 30
0.0
 10
108.8732855630594
 20
-148.7562947219255
 30
0.0
 10
109.1588839787867
 20
-148.7604288365078
 30
0.0
 10
109.2436333277238
 20
-148.7604288365078
 30
0.0
 10
109.2436333277238
 20
-148.7604288365078
 30
0.0
 10
109.7934705671697
 20
-148.7604288365078
 30
0.0
 10
109.7934705671697
 20
-148.7604288365078
 30
0.0
 10
109.812763101887
 20
-148.7604288365078
 30
0.0
 10
110.1300563960786
 20
-148.7604288365078
 30
0.0
 10
110.3584662267506
 20
-148.7414808113389
 30
0.0
 10
110.3584662267506
 20
-148.7414808113389
 30
0.0
 10
110.3584662267506
 20
-148.9614501580721
 30
0.0
 10
110.3584662267506
 20
-148.9614501580721
 30
0.0
 10
110.170364013256
 20
-148.9466362474855
 30
0.0
 10
109.9819172902128
 20
-148.9425021329032
 30
0.0
 10
109.7934705671697
 20
-148.9425021329032
 30
0.0
  0
HATCH
  5
FD
330
EE
100
AcDbEntity
  8
レイヤー 1
 62
    18
420
        0
440
 33554687
100
AcDbHatch
 10
0.0
 20
0.0
 30
0.0
210
0.0
220
0.0
230
1.0
  2
SOLID
 70
     1
 71
     1
 91
        2
 92
        1
 93
        1
 72
     4
 94
        3
 73
     0
 74
     0
 95
       29
 96
       25
 40
0.0
 40
0.0
 40
0.0
 40
0.0
 40
1.0
 40
1.0
 40
1.0
 40
2.0
 40
2.0
 40
2.0
 40
3.0
 40
3.0
 40
3.0
 40
4.0
 40
4.0
 40
4.0
 40
5.0
 40
5.0
 40
5.0
 40
6.0
 40
6.0
 40
6.0
 40
7.0
 40
7.0
 40
7.0
 40
8.0
 40
8.0
 40
8.0
 40
8.0
 10
109.6921847599033
 20
-148.4135077211431
 10
109.6921847599033
 20
-148.4135077211431
 10
109.3387179631167
 20
-148.4135077211431
 10
109.3387179631167
 20
-148.4135077211431
 10
109.2267523598461
 20
-148.4135077211431
 10
109.0872259926934
 20
-148.4198811477908
 10
108.9790499944566
 20
-148.4326280010863
 10
108.9790499944566
 20
-148.4326280010863
 10
108.9790499944566
 20
-148.1976724889922
 10
108.9790499944566
 20
-148.1976724889922
 10
109.0975612791492
 20
-148.2124863995788
 10
109.2815293780615
 20
-148.2167927689354
 10
109.3387179631167
 20
-148.2167927689354
 10
109.3387179631167
 20
-148.2167927689354
 10
109.6921847599033
 20
-148.2167927689354
 10
109.6921847599033
 20
-148.2167927689354
 10
109.7111327850722
 20
-148.2167927689354
 10
109.9143934187019
 20
-148.2167927689354
 10
110.0559868431457
 20
-148.1976724889922
 10
110.0559868431457
 20
-148.1976724889922
 10
110.0559868431457
 20
-148.4326280010863
 10
110.0559868431457
 20
-148.4326280010863
 10
109.8995795081154
 20
-148.4135077211431
 10
109.709065727781
 20
-148.4135077211431
 10
109.6921847599033
 20
-148.4135077211431
 97
        0
 97
        1
330
FB
 92
        1
 93
        1
 72
     4
 94
        3
 73
     0
 74
     0
 95
       47
 96
       43
 40
0.0
 40
0.0
 40
0.0
 40
0.0
 40
1.0
 40
1.0
 40
1.0
 40
2.0
 40
2.0
 40
2.0
 40
3.0
 40
3.0
 40
3.0
 40
4.0
 40
4.0
 40
4.0
 40
5.0
 40
5.0
 40
5.0
 40
6.0
 40
6.0
 40
6.0
 40
7.0
 40
7.0
 40
7.0
 40
8.0
 40
8.0
 40
8.0
 40
9.0
 40
9.0
 40
9.0
 40
10.0
 40
10.0
 40
10.0
 40
11.0
 40
11.0
 40
11.0
 40
12.0
 40
12.0
 40
12.0
 40
13.0
 40
13.0
 40
13.0
 40
14.0
 40
14.0
 40
14.0
 40
14.0
 10
109.7934705671697
 20
-148.9425021329032
 10
109.7934705671697
 20
-148.9425021329032
 10
109.6921847599033
 20
-148.9425021329032
 10
109.6921847599033
 20
-148.9425021329032
 10
109.6921847599033
 20
-149.0293185391315
 10
109.6708251678948
 20
-149.4186143289648
 10
109.474110215687
 20
-149.6384114209237
 10
109.321836995239
 20
-149.8075656092495
 10
109.1144422470269
 20
-149.8775010476
 10
109.0300374076383
 20
-149.9050618114821
 10
109.0300374076383
 20
-149.9050618114821
 10
108.8353895127217
 20
-149.7379746804474
 10
108.8353895127217
 20
-149.7379746804474
 10
108.9325412054057
 20
-149.725227827152
 10
109.1082410751535
 20
-149.7018011778523
 10
109.2963432886481
 20
-149.5136989643577
 10
109.370412841581
 20
-149.4416964687159
 10
109.474110215687
 20
-149.3021701015633
 10
109.474110215687
 20
-148.9425021329032
 10
109.474110215687
 20
-148.9425021329032
 10
109.2436333277238
 20
-148.9425021329032
 10
109.2436333277238
 20
-148.9425021329032
 10
109.0575981715203
 20
-148.9425021329032
 10
108.8712185057683
 20
-148.9466362474855
 10
108.6851833495648
 20
-148.9614501580721
 10
108.6851833495648
 20
-148.9614501580721
 10
108.6851833495648
 20
-148.7414808113389
 10
108.6851833495648
 20
-148.7414808113389
 10
108.8732855630594
 20
-148.7562947219255
 10
109.1588839787867
 20
-148.7604288365078
 10
109.2436333277238
 20
-148.7604288365078
 10
109.2436333277238
 20
-148.7604288365078
 10
109.7934705671697
 20
-148.7604288365078
 10
109.7934705671697
 20
-148.7604288365078
 10
109.812763101887
 20
-148.7604288365078
 10
110.1300563960786
 20
-148.7604288365078
 10
110.3584662267506
 20
-148.7414808113389
 10
110.3584662267506
 20
-148.7414808113389
 10
110.3584662267506
 20
-148.9614501580721
 10
110.3584662267506
 20
-148.9614501580721
 10
110.170364013256
 20
-148.9466362474855
 10
109.9819172902128
 20
-148.9425021329032
 10
109.7934705671697
 20
-148.9425021329032
 97
        0
 97
        1
330
FC
 75
     2
 76
     1
 98
        1
 10
0.0
 20
0.0
450
        0
451
        0
460
0.0
461
0.0
452
        0
462
0.0
453
        0
470

  0
SPLINE
  5
FE
330
EE
100
AcDbEntity
  8
レイヤー 1
100
AcDbSpline
210
0.0
220
0.0
230
1.0
 70
     9
 71
     3
 72
    29
 73
    25
 74
     0
 42
0.0000000001
 43
0.0000000001
 40
0.0
 40
0.0
 40
0.0
 40
0.0
 40
1.0
 40
1.0
 40
1.0
 40
2.0
 40
2.0
 40
2.0
 40
3.0
 40
3.0
 40
3.0
 40
4.0
 40
4.0
 40
4.0
 40
5.0
 40
5.0
 40
5.0
 40
6.0
 40
6.0
 40
6.0
 40
7.0
 40
7.0
 40
7.0
 40
8.0
 40
8.0
 40
8.0
 40
8.0
 10
111.6393527281665
 20
-149.1054551493555
 30
0.0
 10
111.6393527281665
 20
-149.1054551493555
 30
0.0
 10
111.1549723029404
 20
-149.1054551493555
 30
0.0
 10
111.1549723029404
 20
-149.1054551493555
 30
0.0
 10
111.1274115390584
 20
-149.1054551493555
 30
0.0
 10
110.8101182448669
 20
-149.1054551493555
 30
0.0
 10
110.5985893820726
 20
-149.1306043463979
 30
0.0
 10
110.5985893820726
 20
-149.1306043463979
 30
0.0
 10
110.5985893820726
 20
-148.9001274584347
 30
0.0
 10
110.5985893820726
 20
-148.9001274584347
 30
0.0
 10
110.7574082839426
 20
-148.9235541077344
 30
0.0
 10
110.9475775547284
 20
-148.9256211650255
 30
0.0
 10
111.1549723029404
 20
-148.9256211650255
 30
0.0
 10
111.1549723029404
 20
-148.9256211650255
 30
0.0
 10
111.6393527281665
 20
-148.9256211650255
 30
0.0
 10
111.6393527281665
 20
-148.9256211650255
 30
0.0
 10
111.8257323939185
 20
-148.9256211650255
 30
0.0
 10
112.011767550122
 20
-148.9235541077344
 30
0.0
 10
112.1957356490344
 20
-148.9001274584347
 30
0.0
 10
112.1957356490344
 20
-148.9001274584347
 30
0.0
 10
112.1957356490344
 20
-149.1306043463979
 30
0.0
 10
112.1957356490344
 20
-149.1306043463979
 30
0.0
 10
112.011767550122
 20
-149.1075222066467
 30
0.0
 10
111.7644096942811
 20
-149.1054551493555
 30
0.0
 10
111.6393527281665
 20
-149.1054551493555
 30
0.0
  0
HATCH
  5
FF
330
EE
100
AcDbEntity
  8
レイヤー 1
 62
    18
420
        0
440
 33554687
100
AcDbHatch
 10
0.0
 20
0.0
 30
0.0
210
0.0
220
0.0
230
1.0
  2
SOLID
 70
     1
 71
     1
 91
        1
 92
        1
 93
        1
 72
     4
 94
        3
 73
     0
 74
     0
 95
       29
 96
       25
 40
0.0
 40
0.0
 40
0.0
 40
0.0
 40
1.0
 40
1.0
 40
1.0
 40
2.0
 40
2.0
 40
2.0
 40
3.0
 40
3.0
 40
3.0
 40
4.0
 40
4.0
 40
4.0
 40
5.0
 40
5.0
 40
5.0
 40
6.0
 40
6.0
 40
6.0
 40
7.0
 40
7.0
 40
7.0
 40
8.0
 40
8.0
 40
8.0
 40
8.0
 10
111.6393527281665
 20
-149.1054551493555
 10
111.6393527281665
 20
-149.1054551493555
 10
111.1549723029404
 20
-149.1054551493555
 10
111.1549723029404
 20
-149.1054551493555
 10
111.1274115390584
 20
-149.1054551493555
 10
110.8101182448669
 20
-149.1054551493555
 10
110.5985893820726
 20
-149.1306043463979
 10
110.5985893820726
 20
-149.1306043463979
 10
110.5985893820726
 20
-148.9001274584347
 10
110.5985893820726
 20
-148.9001274584347
 10
110.7574082839426
 20
-148.9235541077344
 10
110.9475775547284
 20
-148.9256211650255
 10
111.1549723029404
 20
-148.9256211650255
 10
111.1549723029404
 20
-148.9256211650255
 10
111.6393527281665
 20
-148.9256211650255
 10
111.6393527281665
 20
-148.9256211650255
 10
111.8257323939185
 20
-148.9256211650255
 10
112.011767550122
 20
-148.9235541077344
 10
112.1957356490344
 20
-148.9001274584347
 10
112.1957356490344
 20
-148.9001274584347
 10
112.1957356490344
 20
-149.1306043463979
 10
112.1957356490344
 20
-149.1306043463979
 10
112.011767550122
 20
-149.1075222066467
 10
111.7644096942811
 20
-149.1054551493555
 10
111.6393527281665
 20
-149.1054551493555
 97
        0
 97
        1
330
FE
 75
     2
 76
     1
 98
        1
 10
0.0
 20
0.0
450
        0
451
        0
460
0.0
461
0.0
452
        0
462
0.0
453
        0
470

  0
SPLINE
  5
100
330
EE
100
AcDbEntity
  8
レイヤー 1
100
AcDbSpline
210
0.0
220
0.0
230
1.0
 70
     9
 71
     3
 72
    47
 73
    43
 74
     0
 42
0.0000000001
 43
0.0000000001
 40
0.0
 40
0.0
 40
0.0
 40
0.0
 40
1.0
 40
1.0
 40
1.0
 40
2.0
 40
2.0
 40
2.0
 40
3.0
 40
3.0
 40
3.0
 40
4.0
 40
4.0
 40
4.0
 40
5.0
 40
5.0
 40
5.0
 40
6.0
 40
6.0
 40
6.0
 40
7.0
 40
7.0
 40
7.0
 40
8.0
 40
8.0
 40
8.0
 40
9.0
 40
9.0
 40
9.0
 40
10.0
 40
10.0
 40
10.0
 40
11.0
 40
11.0
 40
11.0
 40
12.0
 40
12.0
 40
12.0
 40
13.0
 40
13.0
 40
13.0
 40
14.0
 40
14.0
 40
14.0
 40
14.0
 10
113.8597167684101
 20
-148.5108316686014
 30
0.0
 10
113.7897813300595
 20
-148.7900566576809
 30
0.0
 10
113.7136447198355
 20
-149.0947753533513
 30
0.0
 10
113.4004855402263
 20
-149.4268825581294
 30
0.0
 10
113.163462970841
 20
-149.67665198081
 30
0.0
 10
112.9181721722913
 20
-149.7758707307852
 30
0.0
 10
112.8124077408941
 20
-149.8182454052537
 30
0.0
 10
112.8124077408941
 20
-149.8182454052537
 30
0.0
 10
112.6177598459775
 20
-149.6363443636326
 30
0.0
 10
112.6177598459775
 20
-149.6363443636326
 30
0.0
 10
112.803795002181
 20
-149.5898355745817
 30
0.0
 10
113.1658745376807
 20
-149.4968179964799
 30
0.0
 10
113.4618082398637
 20
-149.0017577752495
 30
0.0
 10
113.6226941990249
 20
-148.7351073846912
 30
0.0
 10
113.6354410523203
 20
-148.5616468270089
 30
0.0
 10
113.6437092814849
 20
-148.4706963061983
 30
0.0
 10
113.6437092814849
 20
-148.4706963061983
 30
0.0
 10
113.1383137737987
 20
-148.4706963061983
 30
0.0
 10
113.1383137737987
 20
-148.4706963061983
 30
0.0
 10
113.0198024891061
 20
-148.4706963061983
 30
0.0
 10
112.5988118208086
 20
-148.4896443313671
 30
0.0
 10
112.4465386003606
 20
-148.5001518725972
 30
0.0
 10
112.4465386003606
 20
-148.5001518725972
 30
0.0
 10
112.4465386003606
 20
-148.2908623218682
 30
0.0
 10
112.4465386003606
 20
-148.2908623218682
 30
0.0
 10
112.5881320248043
 20
-148.3034369203894
 30
0.0
 10
112.8654622113669
 20
-148.307743289746
 30
0.0
 10
112.9815619292199
 20
-148.307743289746
 30
0.0
 10
112.9815619292199
 20
-148.307743289746
 30
0.0
 10
113.3370957832976
 20
-148.307743289746
 30
0.0
 10
113.3370957832976
 20
-148.307743289746
 30
0.0
 10
113.3646565471797
 20
-148.307743289746
 30
0.0
 10
113.5251979967923
 20
-148.3056762324548
 30
0.0
 10
113.6354410523203
 20
-148.2908623218682
 30
0.0
 10
113.6926296373754
 20
-148.2844888952205
 30
0.0
 10
113.7095106052532
 20
-148.2653686152774
 30
0.0
 10
113.7325927450043
 20
-148.2421142207519
 30
0.0
 10
113.7325927450043
 20
-148.2421142207519
 30
0.0
 10
113.9210394680475
 20
-148.3923203839088
 30
0.0
 10
113.9210394680475
 20
-148.3923203839088
 30
0.0
 10
113.9062255574609
 20
-148.421948205082
 30
0.0
 10
113.8955457614567
 20
-148.4410684850251
 30
0.0
 10
113.8597167684101
 20
-148.5108316686014
 30
0.0
  0
HATCH
  5
101
330
EE
100
AcDbEntity
  8
レイヤー 1
 62
    18
420
        0
440
 33554687
100
AcDbHatch
 10
0.0
 20
0.0
 30
0.0
210
0.0
220
0.0
230
1.0
  2
SOLID
 70
     1
 71
     1
 91
        1
 92
        1
 93
        1
 72
     4
 94
        3
 73
     0
 74
     0
 95
       47
 96
       43
 40
0.0
 40
0.0
 40
0.0
 40
0.0
 40
1.0
 40
1.0
 40
1.0
 40
2.0
 40
2.0
 40
2.0
 40
3.0
 40
3.0
 40
3.0
 40
4.0
 40
4.0
 40
4.0
 40
5.0
 40
5.0
 40
5.0
 40
6.0
 40
6.0
 40
6.0
 40
7.0
 40
7.0
 40
7.0
 40
8.0
 40
8.0
 40
8.0
 40
9.0
 40
9.0
 40
9.0
 40
10.0
 40
10.0
 40
10.0
 40
11.0
 40
11.0
 40
11.0
 40
12.0
 40
12.0
 40
12.0
 40
13.0
 40
13.0
 40
13.0
 40
14.0
 40
14.0
 40
14.0
 40
14.0
 10
113.8597167684101
 20
-148.5108316686014
 10
113.7897813300595
 20
-148.7900566576809
 10
113.7136447198355
 20
-149.0947753533513
 10
113.4004855402263
 20
-149.4268825581294
 10
113.163462970841
 20
-149.67665198081
 10
112.9181721722913
 20
-149.7758707307852
 10
112.8124077408941
 20
-149.8182454052537
 10
112.8124077408941
 20
-149.8182454052537
 10
112.6177598459775
 20
-149.6363443636326
 10
112.6177598459775
 20
-149.6363443636326
 10
112.803795002181
 20
-149.5898355745817
 10
113.1658745376807
 20
-149.4968179964799
 10
113.4618082398637
 20
-149.0017577752495
 10
113.6226941990249
 20
-148.7351073846912
 10
113.6354410523203
 20
-148.5616468270089
 10
113.6437092814849
 20
-148.4706963061983
 10
113.6437092814849
 20
-148.4706963061983
 10
113.1383137737987
 20
-148.4706963061983
 10
113.1383137737987
 20
-148.4706963061983
 10
113.0198024891061
 20
-148.4706963061983
 10
112.5988118208086
 20
-148.4896443313671
 10
112.4465386003606
 20
-148.5001518725972
 10
112.4465386003606
 20
-148.5001518725972
 10
112.4465386003606
 20
-148.2908623218682
 10
112.4465386003606
 20
-148.2908623218682
 10
112.5881320248043
 20
-148.3034369203894
 10
112.8654622113669
 20
-148.307743289746
 10
112.9815619292199
 20
-148.307743289746
 10
112.9815619292199
 20
-148.307743289746
 10
113.3370957832976
 20
-148.307743289746
 10
113.3370957832976
 20
-148.307743289746
 10
113.3646565471797
 20
-148.307743289746
 10
113.5251979967923
 20
-148.3056762324548
 10
113.6354410523203
 20
-148.2908623218682
 10
113.6926296373754
 20
-148.2844888952205
 10
113.7095106052532
 20
-148.2653686152774
 10
113.7325927450043
 20
-148.2421142207519
 10
113.7325927450043
 20
-148.2421142207519
 10
113.9210394680475
 20
-148.3923203839088
 10
113.9210394680475
 20
-148.3923203839088
 10
113.9062255574609
 20
-148.421948205082
 10
113.8955457614567
 20
-148.4410684850251
 10
113.8597167684101
 20
-148.5108316686014
 97
        0
 97
        1
330
100
 75
     2
 76
     1
 98
        1
 10
0.0
 20
0.0
450
        0
451
        0
460
0.0
461
0.0
452
        0
462
0.0
453
        0
470

  0
SPLINE
  5
102
330
EE
100
AcDbEntity
  8
レイヤー 1
100
AcDbSpline
210
0.0
220
0.0
230
1.0
 70
    11
 71
     3
 72
    17
 73
    13
 74
     0
 42
0.0000000001
 43
0.0000000001
 40
0.0
 40
0.0
 40
0.0
 40
0.0
 40
1.0
 40
1.0
 40
1.0
 40
2.0
 40
2.0
 40
2.0
 40
3.0
 40
3.0
 40
3.0
 40
4.0
 40
4.0
 40
4.0
 40
4.0
 10
114.2500460868889
 20
-148.2929293791594
 30
0.0
 10
114.2500460868889
 20
-148.3521850215057
 30
0.0
 10
114.2965548759397
 20
-148.3986938105566
 30
0.0
 10
114.355810518286
 20
-148.3986938105566
 30
0.0
 10
114.4150661606323
 20
-148.3986938105566
 30
0.0
 10
114.4636420069743
 20
-148.3521850215057
 30
0.0
 10
114.4636420069743
 20
-148.2929293791594
 30
0.0
 10
114.4636420069743
 20
-148.2336737368131
 30
0.0
 10
114.4150661606323
 20
-148.1850978904711
 30
0.0
 10
114.355810518286
 20
-148.1850978904711
 30
0.0
 10
114.2965548759397
 20
-148.1850978904711
 30
0.0
 10
114.2500460868889
 20
-148.2336737368131
 30
0.0
 10
114.2500460868889
 20
-148.2929293791594
 30
0.0
  0
SPLINE
  5
103
330
EE
100
AcDbEntity
  8
レイヤー 1
100
AcDbSpline
210
0.0
220
0.0
230
1.0
 70
     9
 71
     3
 72
    17
 73
    13
 74
     0
 42
0.0000000001
 43
0.0000000001
 40
0.0
 40
0.0
 40
0.0
 40
0.0
 40
1.0
 40
1.0
 40
1.0
 40
2.0
 40
2.0
 40
2.0
 40
3.0
 40
3.0
 40
3.0
 40
4.0
 40
4.0
 40
4.0
 40
4.0
 10
114.5649278142407
 20
-148.2929293791594
 30
0.0
 10
114.5649278142407
 20
-148.4071342944954
 30
0.0
 10
114.4719102361389
 20
-148.5023911846626
 30
0.0
 10
114.355810518286
 20
-148.5023911846626
 30
0.0
 10
114.2414333481757
 20
-148.5023911846626
 30
0.0
 10
114.1463487127828
 20
-148.4071342944954
 30
0.0
 10
114.1463487127828
 20
-148.2929293791594
 30
0.0
 10
114.1463487127828
 20
-148.1764851517579
 30
0.0
 10
114.2414333481757
 20
-148.0834675736562
 30
0.0
 10
114.355810518286
 20
-148.0834675736562
 30
0.0
 10
114.4698431788478
 20
-148.0834675736562
 30
0.0
 10
114.5649278142407
 20
-148.1764851517579
 30
0.0
 10
114.5649278142407
 20
-148.2929293791594
 30
0.0
  0
HATCH
  5
104
330
EE
100
AcDbEntity
  8
レイヤー 1
 62
    18
420
        0
440
 33554687
100
AcDbHatch
 10
0.0
 20
0.0
 30
0.0
210
0.0
220
0.0
230
1.0
  2
SOLID
 70
     1
 71
     1
 91
        2
 92
        1
 93
        1
 72
     4
 94
        3
 73
     0
 74
     0
 95
       17
 96
       13
 40
0.0
 40
0.0
 40
0.0
 40
0.0
 40
1.0
 40
1.0
 40
1.0
 40
2.0
 40
2.0
 40
2.0
 40
3.0
 40
3.0
 40
3.0
 40
4.0
 40
4.0
 40
4.0
 40
4.0
 10
114.2500460868889
 20
-148.2929293791594
 10
114.2500460868889
 20
-148.3521850215057
 10
114.2965548759397
 20
-148.3986938105566
 10
114.355810518286
 20
-148.3986938105566
 10
114.4150661606323
 20
-148.3986938105566
 10
114.4636420069743
 20
-148.3521850215057
 10
114.4636420069743
 20
-148.2929293791594
 10
114.4636420069743
 20
-148.2336737368131
 10
114.4150661606323
 20
-148.1850978904711
 10
114.355810518286
 20
-148.1850978904711
 10
114.2965548759397
 20
-148.1850978904711
 10
114.2500460868889
 20
-148.2336737368131
 10
114.2500460868889
 20
-148.2929293791594
 97
        0
 97
        1
330
102
 92
        1
 93
        1
 72
     4
 94
        3
 73
     0
 74
     0
 95
       17
 96
       13
 40
0.0
 40
0.0
 40
0.0
 40
0.0
 40
1.0
 40
1.0
 40
1.0
 40
2.0
 40
2.0
 40
2.0
 40
3.0
 40
3.0
 40
3.0
 40
4.0
 40
4.0
 40
4.0
 40
4.0
 10
114.5649278142407
 20
-148.2929293791594
 10
114.5649278142407
 20
-148.4071342944954
 10
114.4719102361389
 20
-148.5023911846626
 10
114.355810518286
 20
-148.5023911846626
 10
114.2414333481757
 20
-148.5023911846626
 10
114.1463487127828
 20
-148.4071342944954
 10
114.1463487127828
 20
-148.2929293791594
 10
114.1463487127828
 20
-148.1764851517579
 10
114.2414333481757
 20
-148.0834675736562
 10
114.355810518286
 20
-148.0834675736562
 10
114.4698431788478
 20
-148.0834675736562
 10
114.5649278142407
 20
-148.1764851517579
 10
114.5649278142407
 20
-148.2929293791594
 97
        0
 97
        1
330
103
 75
     2
 76
     1
 98
        1
 10
0.0
 20
0.0
450
        0
451
        0
460
0.0
461
0.0
452
        0
462
0.0
453
        0
470

  0
ENDBLK
  5
F1
330
EE
100
AcDbEntity
  8
0
100
AcDbBlockEnd
  0
ENDSEC
  0
SECTION
  2
ENTITIES
  0
INSERT
  5
7A
330
70
100
AcDbEntity
  8
レイヤー 1
100
AcDbBlockReference
  2
Block_0
 10
0.0
 20
0.0
 30
0.0
  0
LINE
  5
E1
330
70
100
AcDbEntity
  8
レイヤー 1
  6
AI-Linetype-0
 62
   154
420
    23468
370
    25
100
AcDbLine
 10
104.7394433473273
 20
-152.1694699469764
 30
0.0
 11
114.7852977231376
 21
-152.1694699469764
 31
0.0
  0
INSERT
  5
E4
330
70
100
AcDbEntity
  8
レイヤー 1
100
AcDbBlockReference
  2
Block_11
 10
0.0
 20
0.0
 30
0.0
  0
INSERT
  5
EB
330
70
100
AcDbEntity
  8
レイヤー 1
100
AcDbBlockReference
  2
Block_12
 10
0.0
 20
0.0
 30
0.0
  0
ENDSEC
  0
SECTION
  2
OBJECTS
  0
DICTIONARY
  5
C
330
0
100
AcDbDictionary
281
     1
  3
ACAD_COLOR
350
63
  3
ACAD_DETAILVIEWSTYLE
350
6A
  3
ACAD_GROUP
350
D
  3
ACAD_LAYOUT
350
62
  3
ACAD_MATERIAL
350
10
  3
ACAD_MLEADERSTYLE
350
66
  3
ACAD_MLINESTYLE
350
5F
  3
ACAD_PLOTSETTINGS
350
61
  3
ACAD_PLOTSTYLENAME
350
E
  3
ACAD_SCALELIST
350
42
  3
ACAD_SECTIONVIEWSTYLE
350
68
  3
ACAD_TABLESTYLE
350
64
  3
ACAD_VISUALSTYLE
350
29
  3
ACDB_RECOMPOSE_DATA
350
10D
  3
AcDbVariableDictionary
350
105
  0
DICTIONARY
  5
63
102
{ACAD_REACTORS
330
C
102
}
330
C
100
AcDbDictionary
281
     1
  0
DICTIONARY
  5
6A
102
{ACAD_REACTORS
330
C
102
}
330
C
100
AcDbDictionary
281
     1
  3
Imperial24
350
6B
  0
DICTIONARY
  5
D
102
{ACAD_REACTORS
330
C
102
}
330
C
100
AcDbDictionary
281
     1
  0
DICTIONARY
  5
62
102
{ACAD_REACTORS
330
C
102
}
330
C
100
AcDbDictionary
281
     1
  3
Layout1
350
6F
  3
Layout2
350
77
  3
Model
350
73
  0
DICTIONARY
  5
10
102
{ACAD_REACTORS
330
C
102
}
330
C
100
AcDbDictionary
281
     1
  3
ByBlock
350
19
  3
ByLayer
350
11
  3
Global
350
21
  0
DICTIONARY
  5
66
102
{ACAD_REACTORS
330
C
102
}
330
C
100
AcDbDictionary
281
     1
  3
Standard
350
67
  0
DICTIONARY
  5
5F
102
{ACAD_REACTORS
330
C
102
}
330
C
100
AcDbDictionary
281
     1
  3
Standard
350
60
  0
DICTIONARY
  5
61
102
{ACAD_REACTORS
330
C
102
}
330
C
100
AcDbDictionary
281
     1
  0
ACDBDICTIONARYWDFLT
  5
E
102
{ACAD_REACTORS
330
C
102
}
330
C
100
AcDbDictionary
281
     1
  3
Normal
350
F
100
AcDbDictionaryWithDefault
340
F
  0
DICTIONARY
  5
42
102
{ACAD_REACTORS
330
C
102
}
330
C
100
AcDbDictionary
281
     1
  3
A0
350
43
  3
A1
350
44
  3
A2
350
45
  3
A3
350
46
  3
A4
350
47
  3
A5
350
48
  3
A6
350
49
  3
A7
350
4A
  3
A8
350
4B
  3
A9
350
4C
  3
B0
350
4D
  3
B1
350
4E
  3
B2
350
4F
  3
B3
350
50
  3
B4
350
51
  3
B5
350
52
  3
B6
350
53
  0
DICTIONARY
  5
68
102
{ACAD_REACTORS
330
C
102
}
330
C
100
AcDbDictionary
281
     1
  3
Imperial24
350
69
  0
DICTIONARY
  5
64
102
{ACAD_REACTORS
330
C
102
}
330
C
100
AcDbDictionary
281
     1
  3
Standard
350
65
  0
DICTIONARY
  5
29
102
{ACAD_REACTORS
330
C
102
}
330
C
100
AcDbDictionary
281
     1
  3
2dWireframe
350
2F
  3
Basic
350
2E
  3
Brighten
350
35
  3
ColorChange
350
39
  3
Conceptual
350
32
  3
Dim
350
34
  3
EdgeColorOff
350
41
  3
Facepattern
350
38
  3
Flat
350
2A
  3
FlatWithEdges
350
2B
  3
Gouraud
350
2C
  3
GouraudWithEdges
350
2D
  3
Hidden
350
31
  3
JitterOff
350
3F
  3
Linepattern
350
37
  3
OverhangOff
350
40
  3
Realistic
350
33
  3
Shaded
350
3E
  3
Shaded with edges
350
3D
  3
Shades of Gray
350
3A
  3
Sketchy
350
3B
  3
Thicken
350
36
  3
Wireframe
350
30
  3
X-Ray
350
3C
  0
XRECORD
  5
10D
102
{ACAD_REACTORS
330
C
102
}
330
C
100
AcDbXrecord
280
     1
 90
        1
330
65
  0
DICTIONARY
  5
105
102
{ACAD_REACTORS
330
C
102
}
330
C
100
AcDbDictionary
281
     1
  3
CANNOSCALE
350
10A
  3
CMLEADERSTYLE
350
107
  3
CTABLESTYLE
350
106
  3
CVIEWDETAILSTYLE
350
108
  3
CVIEWSECTIONSTYLE
350
109
  0
ACDBDETAILVIEWSTYLE
  5
6B
102
{ACAD_XDICTIONARY
360
142
102
}
102
{ACAD_REACTORS
330
6A
102
}
330
6A
100
AcDbModelDocViewStyle
 70
     0
  3
Imperial24
290
     0
100
AcDbDetailViewStyle
 70
     0
 71
     0
 90
        3
 71
     1
340
55
 62
   256
 40
0.24
340
0
 62
   256
 40
0.24
300

 40
0.36
280
     3
 71
     2
340
5D
 90
       25
 62
   256
 71
     3
340
55
 62
   256
 40
0.24
 90
        1
 40
0.75
 90
        1
300
%<\AcVar ViewType \f "%tc1">% %<\AcVar ViewDetailId>%\PSCALE %<\AcVar ViewScale \f "%sn">%
 71
     4
340
5D
 90
       25
 62
   256
340
5D
 90
       25
 62
   256
280
     0
  0
LAYOUT
  5
6F
102
{ACAD_REACTORS
330
62
102
}
330
62
100
AcDbPlotSettings
  1

  2

  4

  6

 40
0.0
 41
0.0
 42
0.0
 43
0.0
 44
0.0
 45
0.0
 46
0.0
 47
0.0
 48
0.0
 49
0.0
140
0.0
141
0.0
142
1.0
143
1.0
 70
   688
 72
     0
 73
     0
 74
     5
  7

 75
    16
147
1.0
 76
     0
 77
     2
 78
   300
148
0.0
149
0.0
100
AcDbLayout
  1
Layout1
 70
     1
 71
     1
 10
0.0
 20
0.0
 11
12.0
 21
9.0
 12
0.0
 22
0.0
 32
0.0
 14
0.0
 24
0.0
 34
0.0
 15
0.0
 25
0.0
 35
0.0
146
0.0
 13
0.0
 23
0.0
 33
0.0
 16
1.0
 26
0.0
 36
0.0
 17
0.0
 27
1.0
 37
0.0
 76
     0
330
6C
  0
LAYOUT
  5
77
102
{ACAD_REACTORS
330
62
102
}
330
62
100
AcDbPlotSettings
  1

  2

  4

  6

 40
0.0
 41
0.0
 42
0.0
 43
0.0
 44
0.0
 45
0.0
 46
0.0
 47
0.0
 48
0.0
 49
0.0
140
0.0
141
0.0
142
1.0
143
1.0
 70
   688
 72
     0
 73
     0
 74
     5
  7

 75
    16
147
1.0
 76
     0
 77
     2
 78
   300
148
0.0
149
0.0
100
AcDbLayout
  1
Layout2
 70
     1
 71
     2
 10
0.0
 20
0.0
 11
12.0
 21
9.0
 12
0.0
 22
0.0
 32
0.0
 14
0.0
 24
0.0
 34
0.0
 15
0.0
 25
0.0
 35
0.0
146
0.0
 13
0.0
 23
0.0
 33
0.0
 16
1.0
 26
0.0
 36
0.0
 17
0.0
 27
1.0
 37
0.0
 76
     0
330
74
  0
LAYOUT
  5
73
102
{ACAD_REACTORS
330
62
102
}
330
62
100
AcDbPlotSettings
  1

  2

  4

  6

 40
0.0
 41
0.0
 42
0.0
 43
0.0
 44
0.0
 45
0.0
 46
0.0
 47
0.0
 48
0.0
 49
0.0
140
0.0
141
0.0
142
1.0
143
1.0
 70
  1712
 72
     0
 73
     0
 74
     0
  7

 75
     0
147
1.0
 76
     0
 77
     2
 78
   300
148
0.0
149
0.0
100
AcDbLayout
  1
Model
 70
     1
 71
     0
 10
0.0
 20
0.0
 11
12.0
 21
9.0
 12
0.0
 22
0.0
 32
0.0
 14
0.0
 24
0.0
 34
0.0
 15
0.0
 25
0.0
 35
0.0
146
0.0
 13
0.0
 23
0.0
 33
0.0
 16
1.0
 26
0.0
 36
0.0
 17
0.0
 27
1.0
 37
0.0
 76
     0
330
70
  0
MATERIAL
  5
19
102
{ACAD_XDICTIONARY
360
1A
102
}
102
{ACAD_REACTORS
330
10
102
}
330
10
100
AcDbMaterial
  1
ByBlock
 72
     0
 43
0.0208333333333333
 43
0.0
 43
0.0
 43
0.0
 43
0.0
 43
0.0208333333333333
 43
0.0
 43
0.0
 43
0.0
 43
0.0
 43
1.0
 43
0.0
 43
0.0
 43
0.0
 43
0.0
 43
1.0
 77
     0
 47
0.0208333333333333
 47
0.0
 47
0.0
 47
0.0
 47
0.0
 47
0.0208333333333333
 47
0.0
 47
0.0
 47
0.0
 47
0.0
 47
1.0
 47
0.0
 47
0.0
 47
0.0
 47
0.0
 47
1.0
171
     0
 49
0.0208333333333333
 49
0.0
 49
0.0
 49
0.0
 49
0.0
 49
0.0208333333333333
 49
0.0
 49
0.0
 49
0.0
 49
0.0
 49
1.0
 49
0.0
 49
0.0
 49
0.0
 49
0.0
 49
1.0
175
     0
142
0.0208333333333333
142
0.0
142
0.0
142
0.0
142
0.0
142
0.0208333333333333
142
0.0
142
0.0
142
0.0
142
0.0
142
1.0
142
0.0
142
0.0
142
0.0
142
0.0
142
1.0
179
     0
144
0.0208333333333333
144
0.0
144
0.0
144
0.0
144
0.0
144
0.0208333333333333
144
0.0
144
0.0
144
0.0
144
0.0
144
1.0
144
0.0
144
0.0
144
0.0
144
0.0
144
1.0
147
0.0208333333333333
147
0.0
147
0.0
147
0.0
147
0.0
147
0.0208333333333333
147
0.0
147
0.0
147
0.0
147
0.0
147
1.0
147
0.0
147
0.0
147
0.0
147
0.0
147
1.0
  0
MATERIAL
  5
11
102
{ACAD_XDICTIONARY
360
12
102
}
102
{ACAD_REACTORS
330
10
102
}
330
10
100
AcDbMaterial
  1
ByLayer
 72
     0
 43
0.0208333333333333
 43
0.0
 43
0.0
 43
0.0
 43
0.0
 43
0.0208333333333333
 43
0.0
 43
0.0
 43
0.0
 43
0.0
 43
1.0
 43
0.0
 43
0.0
 43
0.0
 43
0.0
 43
1.0
 77
     0
 47
0.0208333333333333
 47
0.0
 47
0.0
 47
0.0
 47
0.0
 47
0.0208333333333333
 47
0.0
 47
0.0
 47
0.0
 47
0.0
 47
1.0
 47
0.0
 47
0.0
 47
0.0
 47
0.0
 47
1.0
171
     0
 49
0.0208333333333333
 49
0.0
 49
0.0
 49
0.0
 49
0.0
 49
0.0208333333333333
 49
0.0
 49
0.0
 49
0.0
 49
0.0
 49
1.0
 49
0.0
 49
0.0
 49
0.0
 49
0.0
 49
1.0
175
     0
142
0.0208333333333333
142
0.0
142
0.0
142
0.0
142
0.0
142
0.0208333333333333
142
0.0
142
0.0
142
0.0
142
0.0
142
1.0
142
0.0
142
0.0
142
0.0
142
0.0
142
1.0
179
     0
144
0.0208333333333333
144
0.0
144
0.0
144
0.0
144
0.0
144
0.0208333333333333
144
0.0
144
0.0
144
0.0
144
0.0
144
1.0
144
0.0
144
0.0
144
0.0
144
0.0
144
1.0
147
0.0208333333333333
147
0.0
147
0.0
147
0.0
147
0.0
147
0.0208333333333333
147
0.0
147
0.0
147
0.0
147
0.0
147
1.0
147
0.0
147
0.0
147
0.0
147
0.0
147
1.0
  0
MATERIAL
  5
21
102
{ACAD_XDICTIONARY
360
22
102
}
102
{ACAD_REACTORS
330
10
102
}
330
10
100
AcDbMaterial
  1
Global
 72
     0
 43
0.0208333333333333
 43
0.0
 43
0.0
 43
0.0
 43
0.0
 43
0.0208333333333333
 43
0.0
 43
0.0
 43
0.0
 43
0.0
 43
1.0
 43
0.0
 43
0.0
 43
0.0
 43
0.0
 43
1.0
 77
     0
 47
0.0208333333333333
 47
0.0
 47
0.0
 47
0.0
 47
0.0
 47
0.0208333333333333
 47
0.0
 47
0.0
 47
0.0
 47
0.0
 47
1.0
 47
0.0
 47
0.0
 47
0.0
 47
0.0
 47
1.0
171
     0
 49
0.0208333333333333
 49
0.0
 49
0.0
 49
0.0
 49
0.0
 49
0.0208333333333333
 49
0.0
 49
0.0
 49
0.0
 49
0.0
 49
1.0
 49
0.0
 49
0.0
 49
0.0
 49
0.0
 49
1.0
175
     0
142
0.0208333333333333
142
0.0
142
0.0
142
0.0
142
0.0
142
0.0208333333333333
142
0.0
142
0.0
142
0.0
142
0.0
142
1.0
142
0.0
142
0.0
142
0.0
142
0.0
142
1.0
179
     0
144
0.0208333333333333
144
0.0
144
0.0
144
0.0
144
0.0
144
0.0208333333333333
144
0.0
144
0.0
144
0.0
144
0.0
144
1.0
144
0.0
144
0.0
144
0.0
144
0.0
144
1.0
147
0.0208333333333333
147
0.0
147
0.0
147
0.0
147
0.0
147
0.0208333333333333
147
0.0
147
0.0
147
0.0
147
0.0
147
1.0
147
0.0
147
0.0
147
0.0
147
0.0
147
1.0
  0
MLEADERSTYLE
  5
67
102
{ACAD_XDICTIONARY
360
13E
102
}
102
{ACAD_REACTORS
330
66
102
}
330
66
100
AcDbMLeaderStyle
179
     2
170
     2
171
     1
172
     0
 90
        2
 40
0.0
 41
0.0
173
     1
 91
-1056964608
340
5B
 92
       -2
290
     1
 42
0.09
291
     1
 43
0.36
  3
Standard
 44
0.18
300

342
55
174
     1
178
     6
175
     1
176
     0
 93
-1056964608
 45
0.18
292
     0
297
     0
 46
0.18
 94
-1056964608
 47
1.0
 49
1.0
140
1.0
293
     1
141
0.0
294
     1
177
     0
142
1.0
295
     0
296
     0
143
0.125
271
     0
272
     9
273
     9
  0
MLINESTYLE
  5
60
102
{ACAD_REACTORS
330
5F
102
}
330
5F
100
AcDbMlineStyle
  2
STANDARD
 70
     0
  3

 62
   256
 51
90.0
 52
90.0
 71
     2
 49
0.5
 62
   256
  6
BYLAYER
 49
-0.5
 62
   256
  6
BYLAYER
  0
ACDBPLACEHOLDER
  5
F
102
{ACAD_REACTORS
330
E
102
}
330
E
  0
SCALE
  5
43
102
{ACAD_REACTORS
330
42
102
}
330
42
100
AcDbScale
 70
     0
300
1:1
140
1.0
141
1.0
290
     1
  0
SCALE
  5
44
102
{ACAD_REACTORS
330
42
102
}
330
42
100
AcDbScale
 70
     0
300
1/128" = 1'-0"
140
0.0078125
141
12.0
290
     0
  0
SCALE
  5
45
102
{ACAD_REACTORS
330
42
102
}
330
42
100
AcDbScale
 70
     0
300
1/64" = 1'-0"
140
0.015625
141
12.0
290
     0
  0
SCALE
  5
46
102
{ACAD_REACTORS
330
42
102
}
330
42
100
AcDbScale
 70
     0
300
1/32" = 1'-0"
140
0.03125
141
12.0
290
     0
  0
SCALE
  5
47
102
{ACAD_REACTORS
330
42
102
}
330
42
100
AcDbScale
 70
     0
300
1/16" = 1'-0"
140
0.0625
141
12.0
290
     0
  0
SCALE
  5
48
102
{ACAD_REACTORS
330
42
102
}
330
42
100
AcDbScale
 70
     0
300
3/32" = 1'-0"
140
0.09375
141
12.0
290
     0
  0
SCALE
  5
49
102
{ACAD_REACTORS
330
42
102
}
330
42
100
AcDbScale
 70
     0
300
1/8" = 1'-0"
140
0.125
141
12.0
290
     0
  0
SCALE
  5
4A
102
{ACAD_REACTORS
330
42
102
}
330
42
100
AcDbScale
 70
     0
300
3/16" = 1'-0"
140
0.1875
141
12.0
290
     0
  0
SCALE
  5
4B
102
{ACAD_REACTORS
330
42
102
}
330
42
100
AcDbScale
 70
     0
300
1/4" = 1'-0"
140
0.25
141
12.0
290
     0
  0
SCALE
  5
4C
102
{ACAD_REACTORS
330
42
102
}
330
42
100
AcDbScale
 70
     0
300
3/8" = 1'-0"
140
0.375
141
12.0
290
     0
  0
SCALE
  5
4D
102
{ACAD_REACTORS
330
42
102
}
330
42
100
AcDbScale
 70
     0
300
1/2" = 1'-0"
140
0.5
141
12.0
290
     0
  0
SCALE
  5
4E
102
{ACAD_REACTORS
330
42
102
}
330
42
100
AcDbScale
 70
     0
300
3/4" = 1'-0"
140
0.75
141
12.0
290
     0
  0
SCALE
  5
4F
102
{ACAD_REACTORS
330
42
102
}
330
42
100
AcDbScale
 70
     0
300
1" = 1'-0"
140
1.0
141
12.0
290
     0
  0
SCALE
  5
50
102
{ACAD_REACTORS
330
42
102
}
330
42
100
AcDbScale
 70
     0
300
1-1/2" = 1'-0"
140
1.5
141
12.0
290
     0
  0
SCALE
  5
51
102
{ACAD_REACTORS
330
42
102
}
330
42
100
AcDbScale
 70
     0
300
3" = 1'-0"
140
3.0
141
12.0
290
     0
  0
SCALE
  5
52
102
{ACAD_REACTORS
330
42
102
}
330
42
100
AcDbScale
 70
     0
300
6" = 1'-0"
140
6.0
141
12.0
290
     0
  0
SCALE
  5
53
102
{ACAD_REACTORS
330
42
102
}
330
42
100
AcDbScale
 70
     0
300
1'-0" = 1'-0"
140
12.0
141
12.0
290
     0
  0
ACDBSECTIONVIEWSTYLE
  5
69
102
{ACAD_XDICTIONARY
360
140
102
}
102
{ACAD_REACTORS
330
68
102
}
330
68
100
AcDbModelDocViewStyle
 70
     0
  3
Imperial24
290
     0
100
AcDbSectionViewStyle
 70
     0
 71
     0
 90
       78
 71
     1
340
55
 62
   256
 40
0.24
340
0
340
0
 62
   256
 40
0.24
300
I, O, Q, S, X, Z
 40
0.48
 90
        3
 40
0.18
 90
        1
 71
     2
340
5D
 90
       25
 62
   256
340
5D
 90
       50
 62
   256
 40
0.24
 40
0.0
 40
0.24
 71
     3
340
55
 62
   256
 40
0.24
 90
        1
 40
0.75
 90
        1
300
%<\AcVar ViewType \f "%tc1">% %<\AcVar ViewSectionStartId>%-%<\AcVar ViewSectionEndId>%\PSCALE %<\AcVar ViewScale \f "%sn">%
 71
     4
 62
   256
 62
   257
300
ANSI31
 40
1.0
 90
        0
290
     0
290
     0
 90
        6
 40
0.0
 40
1.570796326794896
 40
0.2617993877991494
 40
1.308996938995747
 40
-0.2617993877991494
 40
1.832595714594046
  0
TABLESTYLE
  5
65
102
{ACAD_XDICTIONARY
360
10B
102
}
102
{ACAD_REACTORS
330
64
102
}
330
64
100
AcDbTableStyle
280
     0
  3
Standard
 70
     0
 71
     0
 40
0.06
 41
0.06
280
     0
281
     0
  7
Standard
140
0.18
170
     2
 62
     0
 63
     7
283
     0
 90
      512
 91
        0
  1

274
    -2
284
     1
 64
     0
275
    -2
285
     1
 65
     0
276
    -2
286
     1
 66
     0
277
    -2
287
     1
 67
     0
278
    -2
288
     1
 68
     0
279
    -2
289
     1
 69
     0
  7
Standard
140
0.25
170
     5
 62
     0
 63
     7
283
     0
 90
      512
 91
        0
  1

274
    -2
284
     1
 64
     0
275
    -2
285
     1
 65
     0
276
    -2
286
     1
 66
     0
277
    -2
287
     1
 67
     0
278
    -2
288
     1
 68
     0
279
    -2
289
     1
 69
     0
  7
Standard
140
0.18
170
     5
 62
     0
 63
     7
283
     0
 90
      512
 91
        0
  1

274
    -2
284
     1
 64
     0
275
    -2
285
     1
 65
     0
276
    -2
286
     1
 66
     0
277
    -2
287
     1
 67
     0
278
    -2
288
     1
 68
     0
279
    -2
289
     1
 69
     0
  0
VISUALSTYLE
  5
2F
102
{ACAD_XDICTIONARY
360
118
102
}
102
{ACAD_REACTORS
330
29
102
}
330
29
100
AcDbVisualStyle
  2
2dWireframe
 70
     4
177
     2
291
     0
 71
     0
176
     1
 72
     2
176
     1
 73
     0
176
     1
 90
        0
176
     1
 40
0.6
176
     1
 41
30.0
176
     1
 63
     7
421
 16777215
176
     1
 74
     1
176
     1
 91
        4
176
     1
 64
     7
176
     1
 65
   257
176
     1
 75
     1
176
     1
175
     1
176
     1
 42
1.0
176
     1
 92
        0
176
     1
 66
   257
176
     1
 43
1.0
176
     1
 76
     1
176
     1
 77
     6
176
     1
 78
     2
176
     1
 67
     7
176
     1
 79
     5
176
     1
170
     0
176
     1
171
     0
176
     1
290
     0
176
     1
 93
        1
176
     1
 44
0.0
176
     1
173
     0
176
     1
1001
ACAD
1000
AcDbSavedByObjectVersion
1070
     0
  0
VISUALSTYLE
  5
2E
102
{ACAD_XDICTIONARY
360
116
102
}
102
{ACAD_REACTORS
330
29
102
}
330
29
100
AcDbVisualStyle
  2
Basic
 70
     7
177
     2
291
     1
 71
     1
176
     1
 72
     0
176
     1
 73
     1
176
     1
 90
        0
176
     1
 40
0.6
176
     1
 41
30.0
176
     1
 63
     7
421
 16777215
176
     1
 74
     0
176
     1
 91
        4
176
     1
 64
     7
176
     1
 65
   257
176
     1
 75
     1
176
     1
175
     1
176
     1
 42
1.0
176
     1
 92
        8
176
     1
 66
     7
176
     1
 43
1.0
176
     1
 76
     1
176
     1
 77
     6
176
     1
 78
     2
176
     1
 67
     7
176
     1
 79
     5
176
     1
170
     0
176
     1
171
     0
176
     1
290
     0
176
     1
 93
        1
176
     1
 44
0.0
176
     1
173
     0
176
     1
1001
ACAD
1000
AcDbSavedByObjectVersion
1070
     0
  0
VISUALSTYLE
  5
35
102
{ACAD_XDICTIONARY
360
124
102
}
102
{ACAD_REACTORS
330
29
102
}
330
29
100
AcDbVisualStyle
  2
Brighten
 70
    12
177
     2
291
     1
 71
     2
176
     1
 72
     2
176
     1
 73
     0
176
     1
 90
        0
176
     1
 40
0.6
176
     1
 41
30.0
176
     1
 63
     7
421
 16777215
176
     1
 74
     1
176
     1
 91
        4
176
     1
 64
     7
176
     1
 65
   257
176
     1
 75
     1
176
     1
175
     1
176
     1
 42
1.0
176
     1
 92
        8
176
     1
 66
     7
176
     1
 43
1.0
176
     1
 76
     1
176
     1
 77
     6
176
     1
 78
     2
176
     1
 67
     7
176
     1
 79
     5
176
     1
170
     0
176
     1
171
     0
176
     1
290
     0
176
     1
 93
        1
176
     1
 44
50.0
176
     1
173
     0
176
     1
1001
ACAD
1000
AcDbSavedByObjectVersion
1070
     0
  0
VISUALSTYLE
  5
39
102
{ACAD_XDICTIONARY
360
12C
102
}
102
{ACAD_REACTORS
330
29
102
}
330
29
100
AcDbVisualStyle
  2
ColorChange
 70
    16
177
     2
291
     1
 71
     2
176
     1
 72
     2
176
     1
 73
     3
176
     1
 90
        0
176
     1
 40
0.6
176
     1
 41
30.0
176
     1
 63
     8
421
  8421504
176
     1
 74
     1
176
     1
 91
        4
176
     1
 64
     7
176
     1
 65
   257
176
     1
 75
     1
176
     1
175
     1
176
     1
 42
1.0
176
     1
 92
        8
176
     1
 66
     8
424
  8421504
176
     1
 43
1.0
176
     1
 76
     1
176
     1
 77
     6
176
     1
 78
     2
176
     1
 67
     7
176
     1
 79
     5
176
     1
170
     0
176
     1
171
     0
176
     1
290
     0
176
     1
 93
        1
176
     1
 44
0.0
176
     1
173
     0
176
     1
1001
ACAD
1000
AcDbSavedByObjectVersion
1070
     0
  0
VISUALSTYLE
  5
32
102
{ACAD_XDICTIONARY
360
11E
102
}
102
{ACAD_REACTORS
330
29
102
}
330
29
100
AcDbVisualStyle
  2
Conceptual
 70
     9
177
     2
291
     0
 71
     3
176
     1
 72
     2
176
     1
 73
     0
176
     1
 90
        0
176
     1
 40
0.6
176
     1
 41
30.0
176
     1
 63
     7
421
 16777215
176
     1
 74
     2
176
     1
 91
        2
176
     1
 64
     7
176
     1
 65
   257
176
     1
 75
     1
176
     1
175
     1
176
     1
 42
179.0
176
     1
 92
        8
176
     1
 66
     7
176
     1
 43
1.0
176
     1
 76
     1
176
     1
 77
     6
176
     1
 78
     2
176
     1
 67
     7
176
     1
 79
     3
176
     1
170
     0
176
     1
171
     0
176
     1
290
     0
176
     1
 93
        1
176
     1
 44
0.0
176
     1
173
     0
176
     1
1001
ACAD
1000
AcDbSavedByObjectVersion
1070
     0
  0
VISUALSTYLE
  5
34
102
{ACAD_XDICTIONARY
360
122
102
}
102
{ACAD_REACTORS
330
29
102
}
330
29
100
AcDbVisualStyle
  2
Dim
 70
    11
177
     2
291
     1
 71
     2
176
     1
 72
     2
176
     1
 73
     0
176
     1
 90
        0
176
     1
 40
0.6
176
     1
 41
30.0
176
     1
 63
     7
421
 16777215
176
     1
 74
     1
176
     1
 91
        4
176
     1
 64
     7
176
     1
 65
   257
176
     1
 75
     1
176
     1
175
     1
176
     1
 42
1.0
176
     1
 92
        8
176
     1
 66
     7
176
     1
 43
1.0
176
     1
 76
     1
176
     1
 77
     6
176
     1
 78
     2
176
     1
 67
     7
176
     1
 79
     5
176
     1
170
     0
176
     1
171
     0
176
     1
290
     0
176
     1
 93
        1
176
     1
 44
-50.0
176
     1
173
     0
176
     1
1001
ACAD
1000
AcDbSavedByObjectVersion
1070
     0
  0
VISUALSTYLE
  5
41
102
{ACAD_XDICTIONARY
360
13C
102
}
102
{ACAD_REACTORS
330
29
102
}
330
29
100
AcDbVisualStyle
  2
EdgeColorOff
 70
    22
177
     2
291
     1
 71
     2
176
     0
 72
     2
176
     0
 73
     0
176
     0
 90
        0
176
     0
 40
0.6
176
     0
 41
30.0
176
     0
 63
     7
421
 16777215
176
     0
 74
     1
176
     0
 91
        4
176
     0
 64
     7
176
     0
 65
   257
176
     0
 75
     1
176
     0
175
     1
176
     0
 42
1.0
176
     0
 92
        8
176
     2
 66
     7
176
     0
 43
1.0
176
     0
 76
     1
176
     0
 77
     6
176
     0
 78
     2
176
     0
 67
     7
176
     0
 79
     5
176
     0
170
     0
176
     0
171
     0
176
     0
290
     0
176
     0
 93
        1
176
     0
 44
0.0
176
     0
173
     0
176
     0
1001
ACAD
1000
AcDbSavedByObjectVersion
1070
     0
  0
VISUALSTYLE
  5
38
102
{ACAD_XDICTIONARY
360
12A
102
}
102
{ACAD_REACTORS
330
29
102
}
330
29
100
AcDbVisualStyle
  2
Facepattern
 70
    15
177
     2
291
     1
 71
     2
176
     1
 72
     2
176
     1
 73
     0
176
     1
 90
        0
176
     1
 40
0.6
176
     1
 41
30.0
176
     1
 63
     7
421
 16777215
176
     1
 74
     1
176
     1
 91
        4
176
     1
 64
     7
176
     1
 65
   257
176
     1
 75
     1
176
     1
175
     1
176
     1
 42
1.0
176
     1
 92
        8
176
     1
 66
     7
176
     1
 43
1.0
176
     1
 76
     1
176
     1
 77
     6
176
     1
 78
     2
176
     1
 67
     7
176
     1
 79
     5
176
     1
170
     0
176
     1
171
     0
176
     1
290
     0
176
     1
 93
        1
176
     1
 44
0.0
176
     1
173
     0
176
     1
1001
ACAD
1000
AcDbSavedByObjectVersion
1070
     0
  0
VISUALSTYLE
  5
2A
102
{ACAD_XDICTIONARY
360
10E
102
}
102
{ACAD_REACTORS
330
29
102
}
330
29
100
AcDbVisualStyle
  2
Flat
 70
     0
177
     2
291
     1
 71
     2
176
     1
 72
     1
176
     1
 73
     1
176
     1
 90
        2
176
     1
 40
0.6
176
     1
 41
30.0
176
     1
 63
     7
421
 16777215
176
     1
 74
     0
176
     1
 91
        0
176
     1
 64
     7
176
     1
 65
   257
176
     1
 75
     1
176
     1
175
     1
176
     1
 42
1.0
176
     1
 92
        8
176
     1
 66
     7
176
     1
 43
1.0
176
     1
 76
     1
176
     1
 77
     6
176
     1
 78
     2
176
     1
 67
     7
176
     1
 79
     5
176
     1
170
     0
176
     1
171
     0
176
     1
290
     0
176
     1
 93
       13
176
     1
 44
0.0
176
     1
173
     0
176
     1
1001
ACAD
1000
AcDbSavedByObjectVersion
1070
     0
  0
VISUALSTYLE
  5
2B
102
{ACAD_XDICTIONARY
360
110
102
}
102
{ACAD_REACTORS
330
29
102
}
330
29
100
AcDbVisualStyle
  2
FlatWithEdges
 70
     1
177
     2
291
     1
 71
     2
176
     1
 72
     1
176
     1
 73
     1
176
     1
 90
        2
176
     1
 40
0.6
176
     1
 41
30.0
176
     1
 63
     7
421
 16777215
176
     1
 74
     1
176
     1
 91
        0
176
     1
 64
     7
176
     1
 65
   257
176
     1
 75
     1
176
     1
175
     1
176
     1
 42
1.0
176
     1
 92
        0
176
     1
 66
   257
176
     1
 43
1.0
176
     1
 76
     1
176
     1
 77
     6
176
     1
 78
     2
176
     1
 67
     7
176
     1
 79
     5
176
     1
170
     0
176
     1
171
     0
176
     1
290
     0
176
     1
 93
       13
176
     1
 44
0.0
176
     1
173
     0
176
     1
1001
ACAD
1000
AcDbSavedByObjectVersion
1070
     0
  0
VISUALSTYLE
  5
2C
102
{ACAD_XDICTIONARY
360
112
102
}
102
{ACAD_REACTORS
330
29
102
}
330
29
100
AcDbVisualStyle
  2
Gouraud
 70
     2
177
     2
291
     1
 71
     2
176
     1
 72
     2
176
     1
 73
     1
176
     1
 90
        2
176
     1
 40
0.6
176
     1
 41
30.0
176
     1
 63
     7
421
 16777215
176
     1
 74
     0
176
     1
 91
        0
176
     1
 64
     7
176
     1
 65
   257
176
     1
 75
     1
176
     1
175
     1
176
     1
 42
1.0
176
     1
 92
        0
176
     1
 66
     7
176
     1
 43
1.0
176
     1
 76
     1
176
     1
 77
     6
176
     1
 78
     2
176
     1
 67
     7
176
     1
 79
     5
176
     1
170
     0
176
     1
171
     0
176
     1
290
     0
176
     1
 93
       13
176
     1
 44
0.0
176
     1
173
     0
176
     1
1001
ACAD
1000
AcDbSavedByObjectVersion
1070
     0
  0
VISUALSTYLE
  5
2D
102
{ACAD_XDICTIONARY
360
114
102
}
102
{ACAD_REACTORS
330
29
102
}
330
29
100
AcDbVisualStyle
  2
GouraudWithEdges
 70
     3
177
     2
291
     1
 71
     2
176
     1
 72
     2
176
     1
 73
     1
176
     1
 90
        2
176
     1
 40
0.6
176
     1
 41
30.0
176
     1
 63
     7
421
 16777215
176
     1
 74
     1
176
     1
 91
        0
176
     1
 64
     7
176
     1
 65
   257
176
     1
 75
     1
176
     1
175
     1
176
     1
 42
1.0
176
     1
 92
        0
176
     1
 66
   257
176
     1
 43
1.0
176
     1
 76
     1
176
     1
 77
     6
176
     1
 78
     2
176
     1
 67
     7
176
     1
 79
     5
176
     1
170
     0
176
     1
171
     0
176
     1
290
     0
176
     1
 93
       13
176
     1
 44
0.0
176
     1
173
     0
176
     1
1001
ACAD
1000
AcDbSavedByObjectVersion
1070
     0
  0
VISUALSTYLE
  5
31
102
{ACAD_XDICTIONARY
360
11C
102
}
102
{ACAD_REACTORS
330
29
102
}
330
29
100
AcDbVisualStyle
  2
Hidden
 70
     6
177
     2
291
     0
 71
     1
176
     1
 72
     2
176
     1
 73
     2
176
     1
 90
        0
176
     1
 40
0.6
176
     1
 41
30.0
176
     1
 63
     7
421
 16777215
176
     1
 74
     2
176
     1
 91
        2
176
     1
 64
     7
176
     1
 65
   257
176
     1
 75
     2
176
     1
175
     1
176
     1
 42
40.0
176
     1
 92
        0
176
     1
 66
   257
176
     1
 43
1.0
176
     1
 76
     1
176
     1
 77
     6
176
     1
 78
     2
176
     1
 67
     7
176
     1
 79
     3
176
     1
170
     0
176
     1
171
     0
176
     1
290
     0
176
     1
 93
        1
176
     1
 44
0.0
176
     1
173
     0
176
     1
1001
ACAD
1000
AcDbSavedByObjectVersion
1070
     0
  0
VISUALSTYLE
  5
3F
102
{ACAD_XDICTIONARY
360
138
102
}
102
{ACAD_REACTORS
330
29
102
}
330
29
100
AcDbVisualStyle
  2
JitterOff
 70
    20
177
     2
291
     1
 71
     2
176
     0
 72
     2
176
     0
 73
     0
176
     0
 90
        0
176
     0
 40
0.6
176
     0
 41
30.0
176
     0
 63
     7
421
 16777215
176
     0
 74
     1
176
     0
 91
        4
176
     0
 64
     7
176
     0
 65
   257
176
     0
 75
     1
176
     0
175
     1
176
     0
 42
1.0
176
     0
 92
       10
176
     2
 66
     7
176
     0
 43
1.0
176
     0
 76
     1
176
     0
 77
     6
176
     0
 78
     2
176
     0
 67
     7
176
     0
 79
     5
176
     0
170
     0
176
     0
171
     0
176
     0
290
     0
176
     0
 93
        1
176
     0
 44
0.0
176
     0
173
     0
176
     0
1001
ACAD
1000
AcDbSavedByObjectVersion
1070
     0
  0
VISUALSTYLE
  5
37
102
{ACAD_XDICTIONARY
360
128
102
}
102
{ACAD_REACTORS
330
29
102
}
330
29
100
AcDbVisualStyle
  2
Linepattern
 70
    14
177
     2
291
     1
 71
     2
176
     1
 72
     2
176
     1
 73
     0
176
     1
 90
        0
176
     1
 40
0.6
176
     1
 41
30.0
176
     1
 63
     7
421
 16777215
176
     1
 74
     1
176
     1
 91
        4
176
     1
 64
     7
176
     1
 65
   257
176
     1
 75
     7
176
     1
175
     7
176
     1
 42
1.0
176
     1
 92
        8
176
     1
 66
     7
176
     1
 43
1.0
176
     1
 76
     1
176
     1
 77
     6
176
     1
 78
     2
176
     1
 67
     7
176
     1
 79
     5
176
     1
170
     0
176
     1
171
     0
176
     1
290
     0
176
     1
 93
        1
176
     1
 44
0.0
176
     1
173
     0
176
     1
1001
ACAD
1000
AcDbSavedByObjectVersion
1070
     0
  0
VISUALSTYLE
  5
40
102
{ACAD_XDICTIONARY
360
13A
102
}
102
{ACAD_REACTORS
330
29
102
}
330
29
100
AcDbVisualStyle
  2
OverhangOff
 70
    21
177
     2
291
     1
 71
     2
176
     0
 72
     2
176
     0
 73
     0
176
     0
 90
        0
176
     0
 40
0.6
176
     0
 41
30.0
176
     0
 63
     7
421
 16777215
176
     0
 74
     1
176
     0
 91
        4
176
     0
 64
     7
176
     0
 65
   257
176
     0
 75
     1
176
     0
175
     1
176
     0
 42
1.0
176
     0
 92
        9
176
     2
 66
     7
176
     0
 43
1.0
176
     0
 76
     1
176
     0
 77
     6
176
     0
 78
     2
176
     0
 67
     7
176
     0
 79
     5
176
     0
170
     0
176
     0
171
     0
176
     0
290
     0
176
     0
 93
        1
176
     0
 44
0.0
176
     0
173
     0
176
     0
1001
ACAD
1000
AcDbSavedByObjectVersion
1070
     0
  0
VISUALSTYLE
  5
33
102
{ACAD_XDICTIONARY
360
120
102
}
102
{ACAD_REACTORS
330
29
102
}
330
29
100
AcDbVisualStyle
  2
Realistic
 70
     8
177
     2
291
     0
 71
     2
176
     1
 72
     3
176
     1
 73
     0
176
     1
 90
        2
176
     1
 40
0.6
176
     1
 41
30.0
176
     1
 63
     7
421
 16777215
176
     1
 74
     0
176
     1
 91
        0
176
     1
 64
     7
176
     1
 65
   257
176
     1
 75
     1
176
     1
175
     1
176
     1
 42
1.0
176
     1
 92
        8
176
     1
 66
   257
176
     1
 43
1.0
176
     1
 76
     1
176
     1
 77
     6
176
     1
 78
     2
176
     1
 67
     7
176
     1
 79
     3
176
     1
170
     0
176
     1
171
     0
176
     1
290
     0
176
     1
 93
       13
176
     1
 44
0.0
176
     1
173
     0
176
     1
1001
ACAD
1000
AcDbSavedByObjectVersion
1070
     0
  0
VISUALSTYLE
  5
3E
102
{ACAD_XDICTIONARY
360
136
102
}
102
{ACAD_REACTORS
330
29
102
}
330
29
100
AcDbVisualStyle
  2
Shaded
 70
    27
177
     2
291
     0
 71
     2
176
     1
 72
     2
176
     1
 73
     1
176
     1
 90
        2
176
     1
 40
0.6
176
     1
 41
30.0
176
     1
 63
     7
421
 16777215
176
     1
 74
     0
176
     1
 91
        4
176
     1
 64
     7
176
     1
 65
   257
176
     1
 75
     1
176
     1
175
     1
176
     1
 42
1.0
176
     1
 92
        8
176
     1
 66
   257
176
     1
 43
1.0
176
     1
 76
     1
176
     1
 77
     6
176
     1
 78
     2
176
     1
 67
     8
425
  7895160
176
     1
 79
     3
176
     1
170
     0
176
     1
171
     0
176
     1
290
     0
176
     1
 93
        5
176
     1
 44
0.0
176
     1
173
     0
176
     1
1001
ACAD
1000
AcDbSavedByObjectVersion
1070
     0
  0
VISUALSTYLE
  5
3D
102
{ACAD_XDICTIONARY
360
134
102
}
102
{ACAD_REACTORS
330
29
102
}
330
29
100
AcDbVisualStyle
  2
Shaded with edges
 70
    26
177
     2
291
     0
 71
     2
176
     1
 72
     2
176
     1
 73
     1
176
     1
 90
        2
176
     1
 40
0.6
176
     1
 41
30.0
176
     1
 63
     7
421
 16777215
176
     1
 74
     1
176
     1
 91
        2
176
     1
 64
     7
176
     1
 65
   257
176
     1
 75
     2
176
     1
175
     1
176
     1
 42
1.0
176
     1
 92
        8
176
     1
 66
   257
176
     1
 43
1.0
176
     1
 76
     1
176
     1
 77
     6
176
     1
 78
     2
176
     1
 67
     7
176
     1
 79
     3
176
     1
170
     0
176
     1
171
     0
176
     1
290
     0
176
     1
 93
        5
176
     1
 44
0.0
176
     1
173
     0
176
     1
1001
ACAD
1000
AcDbSavedByObjectVersion
1070
     0
  0
VISUALSTYLE
  5
3A
102
{ACAD_XDICTIONARY
360
12E
102
}
102
{ACAD_REACTORS
330
29
102
}
330
29
100
AcDbVisualStyle
  2
Shades of Gray
 70
    23
177
     2
291
     0
 71
     2
176
     1
 72
     2
176
     1
 73
     3
176
     1
 90
        0
176
     1
 40
0.6
176
     1
 41
30.0
176
     1
 63
     7
421
 16777215
176
     1
 74
     2
176
     1
 91
        2
176
     1
 64
     7
176
     1
 65
     7
176
     1
 75
     1
176
     1
175
     1
176
     1
 42
40.0
176
     1
 92
        8
176
     1
 66
     7
176
     1
 43
1.0
176
     1
 76
     1
176
     1
 77
     6
176
     1
 78
     2
176
     1
 67
     7
176
     1
 79
     3
176
     1
170
     0
176
     1
171
     0
176
     1
290
     0
176
     1
 93
        1
176
     1
 44
0.0
176
     1
173
     0
176
     1
1001
ACAD
1000
AcDbSavedByObjectVersion
1070
     0
  0
VISUALSTYLE
  5
3B
102
{ACAD_XDICTIONARY
360
130
102
}
102
{ACAD_REACTORS
330
29
102
}
330
29
100
AcDbVisualStyle
  2
Sketchy
 70
    24
177
     2
291
     0
 71
     1
176
     1
 72
     2
176
     1
 73
     2
176
     1
 90
        0
176
     1
 40
0.6
176
     1
 41
30.0
176
     1
 63
     7
421
 16777215
176
     1
 74
     2
176
     1
 91
        2
176
     1
 64
     7
176
     1
 65
     7
176
     1
 75
     1
176
     1
175
     1
176
     1
 42
40.0
176
     1
 92
       11
176
     1
 66
     7
176
     1
 43
1.0
176
     1
 76
     1
176
     1
 77
     6
176
     1
 78
     2
176
     1
 67
     7
176
     1
 79
     6
176
     1
170
     0
176
     1
171
     0
176
     1
290
     0
176
     1
 93
        1
176
     1
 44
0.0
176
     1
173
     0
176
     1
1001
ACAD
1000
AcDbSavedByObjectVersion
1070
     0
  0
VISUALSTYLE
  5
36
102
{ACAD_XDICTIONARY
360
126
102
}
102
{ACAD_REACTORS
330
29
102
}
330
29
100
AcDbVisualStyle
  2
Thicken
 70
    13
177
     2
291
     1
 71
     2
176
     1
 72
     2
176
     1
 73
     0
176
     1
 90
        0
176
     1
 40
0.6
176
     1
 41
30.0
176
     1
 63
     7
421
 16777215
176
     1
 74
     1
176
     1
 91
        4
176
     1
 64
     7
176
     1
 65
   257
176
     1
 75
     1
176
     1
175
     1
176
     1
 42
1.0
176
     1
 92
       12
176
     1
 66
     7
176
     1
 43
1.0
176
     1
 76
     1
176
     1
 77
     6
176
     1
 78
     2
176
     1
 67
     7
176
     1
 79
     5
176
     1
170
     0
176
     1
171
     0
176
     1
290
     0
176
     1
 93
        1
176
     1
 44
0.0
176
     1
173
     0
176
     1
1001
ACAD
1000
AcDbSavedByObjectVersion
1070
     0
  0
VISUALSTYLE
  5
30
102
{ACAD_XDICTIONARY
360
11A
102
}
102
{ACAD_REACTORS
330
29
102
}
330
29
100
AcDbVisualStyle
  2
Wireframe
 70
     5
177
     2
291
     0
 71
     0
176
     1
 72
     2
176
     1
 73
     0
176
     1
 90
        0
176
     1
 40
0.6
176
     1
 41
30.0
176
     1
 63
     7
421
 16777215
176
     1
 74
     1
176
     1
 91
        4
176
     1
 64
     7
176
     1
 65
   257
176
     1
 75
     1
176
     1
175
     1
176
     1
 42
1.0
176
     1
 92
        0
176
     1
 66
   257
176
     1
 43
1.0
176
     1
 76
     1
176
     1
 77
     6
176
     1
 78
     2
176
     1
 67
     7
176
     1
 79
     3
176
     1
170
     0
176
     1
171
     0
176
     1
290
     0
176
     1
 93
        1
176
     1
 44
0.0
176
     1
173
     0
176
     1
1001
ACAD
1000
AcDbSavedByObjectVersion
1070
     0
  0
VISUALSTYLE
  5
3C
102
{ACAD_XDICTIONARY
360
132
102
}
102
{ACAD_REACTORS
330
29
102
}
330
29
100
AcDbVisualStyle
  2
X-Ray
 70
    25
177
     2
291
     0
 71
     2
176
     1
 72
     2
176
     1
 73
     1
176
     1
 90
        1
176
     1
 40
0.5
176
     1
 41
30.0
176
     1
 63
     7
421
 16777215
176
     1
 74
     1
176
     1
 91
        0
176
     1
 64
     7
176
     1
 65
   257
176
     1
 75
     1
176
     1
175
     1
176
     1
 42
1.0
176
     1
 92
        8
176
     1
 66
     7
176
     1
 43
1.0
176
     1
 76
     1
176
     1
 77
     6
176
     1
 78
     2
176
     1
 67
     7
176
     1
 79
     3
176
     1
170
     0
176
     1
171
     0
176
     1
290
     0
176
     1
 93
       13
176
     1
 44
0.0
176
     1
173
     0
176
     1
1001
ACAD
1000
AcDbSavedByObjectVersion
1070
     0
  0
DICTIONARYVAR
  5
10A
102
{ACAD_REACTORS
330
105
102
}
330
105
100
DictionaryVariables
280
     0
  1
1:1
  0
DICTIONARYVAR
  5
107
102
{ACAD_REACTORS
330
105
102
}
330
105
100
DictionaryVariables
280
     0
  1
STANDARD
  0
DICTIONARYVAR
  5
106
102
{ACAD_REACTORS
330
105
102
}
330
105
100
DictionaryVariables
280
     0
  1
STANDARD
  0
DICTIONARYVAR
  5
108
102
{ACAD_REACTORS
330
105
102
}
330
105
100
DictionaryVariables
280
     0
  1
Imperial24
  0
DICTIONARYVAR
  5
109
102
{ACAD_REACTORS
330
105
102
}
330
105
100
DictionaryVariables
280
     0
  1
Imperial24
  0
DICTIONARY
  5
142
330
6B
100
AcDbDictionary
280
     1
281
     1
  3
ACAD_XREC_ROUNDTRIP
360
143
  0
DICTIONARY
  5
1A
330
19
100
AcDbDictionary
280
     1
281
     1
  3
BUMPTILE
360
1C
  3
DIFFUSETILE
360
1B
  3
OPACITYTILE
360
1F
  3
REFLECTIONTILE
360
1E
  3
REFRACTIONTILE
360
20
  3
SPECULARTILE
360
1D
  0
DICTIONARY
  5
12
330
11
100
AcDbDictionary
280
     1
281
     1
  3
BUMPTILE
360
14
  3
DIFFUSETILE
360
13
  3
OPACITYTILE
360
17
  3
REFLECTIONTILE
360
16
  3
REFRACTIONTILE
360
18
  3
SPECULARTILE
360
15
  0
DICTIONARY
  5
22
330
21
100
AcDbDictionary
280
     1
281
     1
  3
BUMPTILE
360
24
  3
DIFFUSETILE
360
23
  3
OPACITYTILE
360
27
  3
REFLECTIONTILE
360
26
  3
REFRACTIONTILE
360
28
  3
SPECULARTILE
360
25
  0
DICTIONARY
  5
13E
330
67
100
AcDbDictionary
280
     1
281
     1
  3
ACAD_XREC_ROUNDTRIP
360
13F
  0
DICTIONARY
  5
140
330
69
100
AcDbDictionary
280
     1
281
     1
  3
ACAD_XREC_ROUNDTRIP
360
141
  0
DICTIONARY
  5
10B
330
65
100
AcDbDictionary
280
     1
281
     1
  3
ACAD_ROUNDTRIP_2008_TABLESTYLE_CELLSTYLEMAP
360
10C
  0
DICTIONARY
  5
118
330
2F
100
AcDbDictionary
280
     1
281
     1
  3
ACAD_XREC_ROUNDTRIP
360
119
  0
DICTIONARY
  5
116
330
2E
100
AcDbDictionary
280
     1
281
     1
  3
ACAD_XREC_ROUNDTRIP
360
117
  0
DICTIONARY
  5
124
330
35
100
AcDbDictionary
280
     1
281
     1
  3
ACAD_XREC_ROUNDTRIP
360
125
  0
DICTIONARY
  5
12C
330
39
100
AcDbDictionary
280
     1
281
     1
  3
ACAD_XREC_ROUNDTRIP
360
12D
  0
DICTIONARY
  5
11E
330
32
100
AcDbDictionary
280
     1
281
     1
  3
ACAD_XREC_ROUNDTRIP
360
11F
  0
DICTIONARY
  5
122
330
34
100
AcDbDictionary
280
     1
281
     1
  3
ACAD_XREC_ROUNDTRIP
360
123
  0
DICTIONARY
  5
13C
330
41
100
AcDbDictionary
280
     1
281
     1
  3
ACAD_XREC_ROUNDTRIP
360
13D
  0
DICTIONARY
  5
12A
330
38
100
AcDbDictionary
280
     1
281
     1
  3
ACAD_XREC_ROUNDTRIP
360
12B
  0
DICTIONARY
  5
10E
330
2A
100
AcDbDictionary
280
     1
281
     1
  3
ACAD_XREC_ROUNDTRIP
360
10F
  0
DICTIONARY
  5
110
330
2B
100
AcDbDictionary
280
     1
281
     1
  3
ACAD_XREC_ROUNDTRIP
360
111
  0
DICTIONARY
  5
112
330
2C
100
AcDbDictionary
280
     1
281
     1
  3
ACAD_XREC_ROUNDTRIP
360
113
  0
DICTIONARY
  5
114
330
2D
100
AcDbDictionary
280
     1
281
     1
  3
ACAD_XREC_ROUNDTRIP
360
115
  0
DICTIONARY
  5
11C
330
31
100
AcDbDictionary
280
     1
281
     1
  3
ACAD_XREC_ROUNDTRIP
360
11D
  0
DICTIONARY
  5
138
330
3F
100
AcDbDictionary
280
     1
281
     1
  3
ACAD_XREC_ROUNDTRIP
360
139
  0
DICTIONARY
  5
128
330
37
100
AcDbDictionary
280
     1
281
     1
  3
ACAD_XREC_ROUNDTRIP
360
129
  0
DICTIONARY
  5
13A
330
40
100
AcDbDictionary
280
     1
281
     1
  3
ACAD_XREC_ROUNDTRIP
360
13B
  0
DICTIONARY
  5
120
330
33
100
AcDbDictionary
280
     1
281
     1
  3
ACAD_XREC_ROUNDTRIP
360
121
  0
DICTIONARY
  5
136
330
3E
100
AcDbDictionary
280
     1
281
     1
  3
ACAD_XREC_ROUNDTRIP
360
137
  0
DICTIONARY
  5
134
330
3D
100
AcDbDictionary
280
     1
281
     1
  3
ACAD_XREC_ROUNDTRIP
360
135
  0
DICTIONARY
  5
12E
330
3A
100
AcDbDictionary
280
     1
281
     1
  3
ACAD_XREC_ROUNDTRIP
360
12F
  0
DICTIONARY
  5
130
330
3B
100
AcDbDictionary
280
     1
281
     1
  3
ACAD_XREC_ROUNDTRIP
360
131
  0
DICTIONARY
  5
126
330
36
100
AcDbDictionary
280
     1
281
     1
  3
ACAD_XREC_ROUNDTRIP
360
127
  0
DICTIONARY
  5
11A
330
30
100
AcDbDictionary
280
     1
281
     1
  3
ACAD_XREC_ROUNDTRIP
360
11B
  0
DICTIONARY
  5
132
330
3C
100
AcDbDictionary
280
     1
281
     1
  3
ACAD_XREC_ROUNDTRIP
360
133
  0
XRECORD
  5
143
102
{ACAD_REACTORS
330
142
102
}
330
142
100
AcDbXrecord
280
     1
102
DISPLAYNAME
  1
Imperial24
102
FLAGS
 90
        0
  0
XRECORD
  5
1C
102
{ACAD_REACTORS
330
1A
102
}
330
1A
100
AcDbXrecord
280
     1
270
     1
271
     1
  0
XRECORD
  5
1B
102
{ACAD_REACTORS
330
1A
102
}
330
1A
100
AcDbXrecord
280
     1
270
     1
271
     1
  0
XRECORD
  5
1F
102
{ACAD_REACTORS
330
1A
102
}
330
1A
100
AcDbXrecord
280
     1
270
     1
271
     1
  0
XRECORD
  5
1E
102
{ACAD_REACTORS
330
1A
102
}
330
1A
100
AcDbXrecord
280
     1
270
     1
271
     1
  0
XRECORD
  5
20
102
{ACAD_REACTORS
330
1A
102
}
330
1A
100
AcDbXrecord
280
     1
270
     1
271
     1
  0
XRECORD
  5
1D
102
{ACAD_REACTORS
330
1A
102
}
330
1A
100
AcDbXrecord
280
     1
270
     1
271
     1
  0
XRECORD
  5
14
102
{ACAD_REACTORS
330
12
102
}
330
12
100
AcDbXrecord
280
     1
270
     1
271
     1
  0
XRECORD
  5
13
102
{ACAD_REACTORS
330
12
102
}
330
12
100
AcDbXrecord
280
     1
270
     1
271
     1
  0
XRECORD
  5
17
102
{ACAD_REACTORS
330
12
102
}
330
12
100
AcDbXrecord
280
     1
270
     1
271
     1
  0
XRECORD
  5
16
102
{ACAD_REACTORS
330
12
102
}
330
12
100
AcDbXrecord
280
     1
270
     1
271
     1
  0
XRECORD
  5
18
102
{ACAD_REACTORS
330
12
102
}
330
12
100
AcDbXrecord
280
     1
270
     1
271
     1
  0
XRECORD
  5
15
102
{ACAD_REACTORS
330
12
102
}
330
12
100
AcDbXrecord
280
     1
270
     1
271
     1
  0
XRECORD
  5
24
102
{ACAD_REACTORS
330
22
102
}
330
22
100
AcDbXrecord
280
     1
270
     1
271
     1
  0
XRECORD
  5
23
102
{ACAD_REACTORS
330
22
102
}
330
22
100
AcDbXrecord
280
     1
270
     1
271
     1
  0
XRECORD
  5
27
102
{ACAD_REACTORS
330
22
102
}
330
22
100
AcDbXrecord
280
     1
270
     1
271
     1
  0
XRECORD
  5
26
102
{ACAD_REACTORS
330
22
102
}
330
22
100
AcDbXrecord
280
     1
270
     1
271
     1
  0
XRECORD
  5
28
102
{ACAD_REACTORS
330
22
102
}
330
22
100
AcDbXrecord
280
     1
270
     1
271
     1
  0
XRECORD
  5
25
102
{ACAD_REACTORS
330
22
102
}
330
22
100
AcDbXrecord
280
     1
270
     1
271
     1
  0
XRECORD
  5
13F
102
{ACAD_REACTORS
330
13E
102
}
330
13E
100
AcDbXrecord
280
     1
102
ACAD_ROUNDTRIP_2012_MLEADER_STYLE
298
     1
  0
XRECORD
  5
141
102
{ACAD_REACTORS
330
140
102
}
330
140
100
AcDbXrecord
280
     1
102
DISPLAYNAME
  1
Imperial24
102
FLAGS
 90
        0
  0
CELLSTYLEMAP
  5
10C
102
{ACAD_REACTORS
330
10B
102
}
330
10B
100
AcDbCellStyleMap
 90
        3
300
CELLSTYLE
  1
TABLEFORMAT_BEGIN
 90
        5
170
     1
 91
        0
 92
    32768
 62
   257
 93
        1
300
CONTENTFORMAT
  1
CONTENTFORMAT_BEGIN
 90
        0
 91
        0
 92
      512
 93
        0
300

 40
0.0
140
1.0
 94
        5
 62
     0
340
55
144
0.25
309
CONTENTFORMAT_END
171
     0
 94
        0
309
TABLEFORMAT_END
  1
CELLSTYLE_BEGIN
 90
        1
 91
        1
300
_TITLE
309
CELLSTYLE_END
300
CELLSTYLE
  1
TABLEFORMAT_BEGIN
 90
        5
170
     1
 91
        0
 92
        0
 62
   257
 93
        1
300
CONTENTFORMAT
  1
CONTENTFORMAT_BEGIN
 90
        0
 91
        0
 92
      512
 93
        0
300

 40
0.0
140
1.0
 94
        5
 62
     0
340
55
144
0.18
309
CONTENTFORMAT_END
171
     0
 94
        0
309
TABLEFORMAT_END
  1
CELLSTYLE_BEGIN
 90
        2
 91
        1
300
_HEADER
309
CELLSTYLE_END
300
CELLSTYLE
  1
TABLEFORMAT_BEGIN
 90
        5
170
     1
 91
        0
 92
        0
 62
   257
 93
        1
300
CONTENTFORMAT
  1
CONTENTFORMAT_BEGIN
 90
        0
 91
        0
 92
      512
 93
        0
300

 40
0.0
140
1.0
 94
        2
 62
     0
340
55
144
0.18
309
CONTENTFORMAT_END
171
     0
 94
        0
309
TABLEFORMAT_END
  1
CELLSTYLE_BEGIN
 90
        3
 91
        2
300
_DATA
309
CELLSTYLE_END
  0
XRECORD
  5
119
102
{ACAD_REACTORS
330
118
102
}
330
118
100
AcDbXrecord
280
     1
102
RTVSPost2010Prop28
280
     1
102
RTVSPost2010PropOp28
 70
     1
102
RTVSPost2010Prop29
280
     1
102
RTVSPost2010PropOp29
 70
     1
102
RTVSPost2010Prop30
280
     0
102
RTVSPost2010PropOp30
 70
     1
102
RTVSPost2010Prop31
280
     0
102
RTVSPost2010PropOp31
 70
     1
102
RTVSPost2010Prop32
280
     0
102
RTVSPost2010PropOp32
 70
     1
102
RTVSPost2010Prop33
280
     0
102
RTVSPost2010PropOp33
 70
     1
102
RTVSPost2010Prop34
280
     0
102
RTVSPost2010PropOp34
 70
     1
102
RTVSPost2010Prop35
280
     0
102
RTVSPost2010PropOp35
 70
     1
102
RTVSPost2010Prop36
280
     0
102
RTVSPost2010PropOp36
 70
     1
102
RTVSPost2010Prop37
 90
       50
102
RTVSPost2010PropOp37
 70
     1
102
RTVSPost2010Prop38
140
0.0
102
RTVSPost2010PropOp38
 70
     1
102
RTVSPost2010Prop39
140
1.0
102
RTVSPost2010PropOp39
 70
     1
102
RTVSPost2010Prop40
 90
        0
102
RTVSPost2010PropOp40
 70
     1
102
RTVSPost2010Prop41ColorIndex
 90
       18
102
RTVSPost2010Prop41ColorRGB
 90
        0
102
RTVSPost2010PropOp41
 70
     1
102
RTVSPost2010Prop42
 90
       50
102
RTVSPost2010PropOp42
 70
     1
102
RTVSPost2010Prop43
 90
        3
102
RTVSPost2010PropOp43
 70
     1
102
RTVSPost2010Prop44ColorIndex
 90
        5
102
RTVSPost2010Prop44ColorRGB
 90
      255
102
RTVSPost2010PropOp44
 70
     1
102
RTVSPost2010Prop45
280
     0
102
RTVSPost2010PropOp45
 70
     1
102
RTVSPost2010Prop46
 90
       50
102
RTVSPost2010PropOp46
 70
     1
102
RTVSPost2010Prop47
 90
       50
102
RTVSPost2010PropOp47
 70
     1
102
RTVSPost2010Prop48
 90
       50
102
RTVSPost2010PropOp48
 70
     1
102
RTVSPost2010Prop49
280
     0
102
RTVSPost2010PropOp49
 70
     1
102
RTVSPost2010Prop50
 90
       50
102
RTVSPost2010PropOp50
 70
     1
102
RTVSPost2010Prop51ColorIndex
 90
      256
102
RTVSPost2010Prop51ColorRGB
 90
-16777216
102
RTVSPost2010PropOp51
 70
     0
102
RTVSPost2010Prop52
140
1.0
102
RTVSPost2010PropOp52
 70
     0
102
RTVSPost2010Prop53
 90
        2
102
RTVSPost2010PropOp53
 70
     1
102
RTVSPost2010Prop54
  1
strokes_ogs.tif
102
RTVSPost2010PropOp54
 70
     1
102
RTVSPost2010Prop55
280
     0
102
RTVSPost2010PropOp55
 70
     1
102
RTVSPost2010Prop56
140
1.0
102
RTVSPost2010PropOp56
 70
     1
102
RTVSPost2010Prop57
140
1.0
102
RTVSPost2010PropOp57
 70
     1
  0
XRECORD
  5
117
102
{ACAD_REACTORS
330
116
102
}
330
116
100
AcDbXrecord
280
     1
102
RTVSPost2010Prop28
280
     0
102
RTVSPost2010PropOp28
 70
     1
102
RTVSPost2010Prop29
280
     1
102
RTVSPost2010PropOp29
 70
     1
102
RTVSPost2010Prop30
280
     1
102
RTVSPost2010PropOp30
 70
     1
102
RTVSPost2010Prop31
280
     0
102
RTVSPost2010PropOp31
 70
     1
102
RTVSPost2010Prop32
280
     0
102
RTVSPost2010PropOp32
 70
     1
102
RTVSPost2010Prop33
280
     0
102
RTVSPost2010PropOp33
 70
     1
102
RTVSPost2010Prop34
280
     0
102
RTVSPost2010PropOp34
 70
     1
102
RTVSPost2010Prop35
280
     0
102
RTVSPost2010PropOp35
 70
     1
102
RTVSPost2010Prop36
280
     0
102
RTVSPost2010PropOp36
 70
     1
102
RTVSPost2010Prop37
 90
       50
102
RTVSPost2010PropOp37
 70
     1
102
RTVSPost2010Prop38
140
0.0
102
RTVSPost2010PropOp38
 70
     1
102
RTVSPost2010Prop39
140
1.0
102
RTVSPost2010PropOp39
 70
     1
102
RTVSPost2010Prop40
 90
        0
102
RTVSPost2010PropOp40
 70
     1
102
RTVSPost2010Prop41ColorIndex
 90
       18
102
RTVSPost2010Prop41ColorRGB
 90
        0
102
RTVSPost2010PropOp41
 70
     1
102
RTVSPost2010Prop42
 90
       50
102
RTVSPost2010PropOp42
 70
     1
102
RTVSPost2010Prop43
 90
        3
102
RTVSPost2010PropOp43
 70
     1
102
RTVSPost2010Prop44ColorIndex
 90
        5
102
RTVSPost2010Prop44ColorRGB
 90
      255
102
RTVSPost2010PropOp44
 70
     1
102
RTVSPost2010Prop45
280
     0
102
RTVSPost2010PropOp45
 70
     1
102
RTVSPost2010Prop46
 90
       50
102
RTVSPost2010PropOp46
 70
     1
102
RTVSPost2010Prop47
 90
       50
102
RTVSPost2010PropOp47
 70
     1
102
RTVSPost2010Prop48
 90
       50
102
RTVSPost2010PropOp48
 70
     1
102
RTVSPost2010Prop49
280
     0
102
RTVSPost2010PropOp49
 70
     1
102
RTVSPost2010Prop50
 90
       50
102
RTVSPost2010PropOp50
 70
     1
102
RTVSPost2010Prop51ColorIndex
 90
      256
102
RTVSPost2010Prop51ColorRGB
 90
-16777216
102
RTVSPost2010PropOp51
 70
     0
102
RTVSPost2010Prop52
140
1.0
102
RTVSPost2010PropOp52
 70
     0
102
RTVSPost2010Prop53
 90
        2
102
RTVSPost2010PropOp53
 70
     1
102
RTVSPost2010Prop54
  1
strokes_ogs.tif
102
RTVSPost2010PropOp54
 70
     1
102
RTVSPost2010Prop55
280
     0
102
RTVSPost2010PropOp55
 70
     1
102
RTVSPost2010Prop56
140
1.0
102
RTVSPost2010PropOp56
 70
     1
102
RTVSPost2010Prop57
140
1.0
102
RTVSPost2010PropOp57
 70
     1
  0
XRECORD
  5
125
102
{ACAD_REACTORS
330
124
102
}
330
124
100
AcDbXrecord
280
     1
102
RTVSPost2010Prop28
280
     0
102
RTVSPost2010PropOp28
 70
     1
102
RTVSPost2010Prop29
280
     1
102
RTVSPost2010PropOp29
 70
     1
102
RTVSPost2010Prop30
280
     1
102
RTVSPost2010PropOp30
 70
     1
102
RTVSPost2010Prop31
280
     0
102
RTVSPost2010PropOp31
 70
     1
102
RTVSPost2010Prop32
280
     0
102
RTVSPost2010PropOp32
 70
     1
102
RTVSPost2010Prop33
280
     0
102
RTVSPost2010PropOp33
 70
     1
102
RTVSPost2010Prop34
280
     0
102
RTVSPost2010PropOp34
 70
     1
102
RTVSPost2010Prop35
280
     0
102
RTVSPost2010PropOp35
 70
     1
102
RTVSPost2010Prop36
280
     0
102
RTVSPost2010PropOp36
 70
     1
102
RTVSPost2010Prop37
 90
       50
102
RTVSPost2010PropOp37
 70
     1
102
RTVSPost2010Prop38
140
0.0
102
RTVSPost2010PropOp38
 70
     1
102
RTVSPost2010Prop39
140
1.0
102
RTVSPost2010PropOp39
 70
     1
102
RTVSPost2010Prop40
 90
        0
102
RTVSPost2010PropOp40
 70
     1
102
RTVSPost2010Prop41ColorIndex
 90
       18
102
RTVSPost2010Prop41ColorRGB
 90
        0
102
RTVSPost2010PropOp41
 70
     1
102
RTVSPost2010Prop42
 90
       50
102
RTVSPost2010PropOp42
 70
     1
102
RTVSPost2010Prop43
 90
        3
102
RTVSPost2010PropOp43
 70
     1
102
RTVSPost2010Prop44ColorIndex
 90
        5
102
RTVSPost2010Prop44ColorRGB
 90
      255
102
RTVSPost2010PropOp44
 70
     1
102
RTVSPost2010Prop45
280
     0
102
RTVSPost2010PropOp45
 70
     1
102
RTVSPost2010Prop46
 90
       50
102
RTVSPost2010PropOp46
 70
     1
102
RTVSPost2010Prop47
 90
       50
102
RTVSPost2010PropOp47
 70
     1
102
RTVSPost2010Prop48
 90
       50
102
RTVSPost2010PropOp48
 70
     1
102
RTVSPost2010Prop49
280
     0
102
RTVSPost2010PropOp49
 70
     1
102
RTVSPost2010Prop50
 90
       50
102
RTVSPost2010PropOp50
 70
     1
102
RTVSPost2010Prop51ColorIndex
 90
      256
102
RTVSPost2010Prop51ColorRGB
 90
-16777216
102
RTVSPost2010PropOp51
 70
     0
102
RTVSPost2010Prop52
140
1.0
102
RTVSPost2010PropOp52
 70
     0
102
RTVSPost2010Prop53
 90
        2
102
RTVSPost2010PropOp53
 70
     1
102
RTVSPost2010Prop54
  1
strokes_ogs.tif
102
RTVSPost2010PropOp54
 70
     1
102
RTVSPost2010Prop55
280
     0
102
RTVSPost2010PropOp55
 70
     1
102
RTVSPost2010Prop56
140
1.0
102
RTVSPost2010PropOp56
 70
     1
102
RTVSPost2010Prop57
140
1.0
102
RTVSPost2010PropOp57
 70
     1
  0
XRECORD
  5
12D
102
{ACAD_REACTORS
330
12C
102
}
330
12C
100
AcDbXrecord
280
     1
102
RTVSPost2010Prop28
280
     0
102
RTVSPost2010PropOp28
 70
     1
102
RTVSPost2010Prop29
280
     1
102
RTVSPost2010PropOp29
 70
     1
102
RTVSPost2010Prop30
280
     1
102
RTVSPost2010PropOp30
 70
     1
102
RTVSPost2010Prop31
280
     0
102
RTVSPost2010PropOp31
 70
     1
102
RTVSPost2010Prop32
280
     0
102
RTVSPost2010PropOp32
 70
     1
102
RTVSPost2010Prop33
280
     0
102
RTVSPost2010PropOp33
 70
     1
102
RTVSPost2010Prop34
280
     0
102
RTVSPost2010PropOp34
 70
     1
102
RTVSPost2010Prop35
280
     0
102
RTVSPost2010PropOp35
 70
     1
102
RTVSPost2010Prop36
280
     0
102
RTVSPost2010PropOp36
 70
     1
102
RTVSPost2010Prop37
 90
       50
102
RTVSPost2010PropOp37
 70
     1
102
RTVSPost2010Prop38
140
0.0
102
RTVSPost2010PropOp38
 70
     1
102
RTVSPost2010Prop39
140
1.0
102
RTVSPost2010PropOp39
 70
     1
102
RTVSPost2010Prop40
 90
        0
102
RTVSPost2010PropOp40
 70
     1
102
RTVSPost2010Prop41ColorIndex
 90
       18
102
RTVSPost2010Prop41ColorRGB
 90
        0
102
RTVSPost2010PropOp41
 70
     1
102
RTVSPost2010Prop42
 90
       50
102
RTVSPost2010PropOp42
 70
     1
102
RTVSPost2010Prop43
 90
        3
102
RTVSPost2010PropOp43
 70
     1
102
RTVSPost2010Prop44ColorIndex
 90
        5
102
RTVSPost2010Prop44ColorRGB
 90
      255
102
RTVSPost2010PropOp44
 70
     1
102
RTVSPost2010Prop45
280
     0
102
RTVSPost2010PropOp45
 70
     1
102
RTVSPost2010Prop46
 90
       50
102
RTVSPost2010PropOp46
 70
     1
102
RTVSPost2010Prop47
 90
       50
102
RTVSPost2010PropOp47
 70
     1
102
RTVSPost2010Prop48
 90
       50
102
RTVSPost2010PropOp48
 70
     1
102
RTVSPost2010Prop49
280
     0
102
RTVSPost2010PropOp49
 70
     1
102
RTVSPost2010Prop50
 90
       50
102
RTVSPost2010PropOp50
 70
     1
102
RTVSPost2010Prop51ColorIndex
 90
      256
102
RTVSPost2010Prop51ColorRGB
 90
-16777216
102
RTVSPost2010PropOp51
 70
     0
102
RTVSPost2010Prop52
140
1.0
102
RTVSPost2010PropOp52
 70
     0
102
RTVSPost2010Prop53
 90
        2
102
RTVSPost2010PropOp53
 70
     1
102
RTVSPost2010Prop54
  1
strokes_ogs.tif
102
RTVSPost2010PropOp54
 70
     1
102
RTVSPost2010Prop55
280
     0
102
RTVSPost2010PropOp55
 70
     1
102
RTVSPost2010Prop56
140
1.0
102
RTVSPost2010PropOp56
 70
     1
102
RTVSPost2010Prop57
140
1.0
102
RTVSPost2010PropOp57
 70
     1
  0
XRECORD
  5
11F
102
{ACAD_REACTORS
330
11E
102
}
330
11E
100
AcDbXrecord
280
     1
102
RTVSPost2010Prop28
280
     0
102
RTVSPost2010PropOp28
 70
     1
102
RTVSPost2010Prop29
280
     1
102
RTVSPost2010PropOp29
 70
     1
102
RTVSPost2010Prop30
280
     1
102
RTVSPost2010PropOp30
 70
     1
102
RTVSPost2010Prop31
280
     0
102
RTVSPost2010PropOp31
 70
     1
102
RTVSPost2010Prop32
280
     0
102
RTVSPost2010PropOp32
 70
     1
102
RTVSPost2010Prop33
280
     0
102
RTVSPost2010PropOp33
 70
     1
102
RTVSPost2010Prop34
280
     0
102
RTVSPost2010PropOp34
 70
     1
102
RTVSPost2010Prop35
280
     0
102
RTVSPost2010PropOp35
 70
     1
102
RTVSPost2010Prop36
280
     0
102
RTVSPost2010PropOp36
 70
     1
102
RTVSPost2010Prop37
 90
       50
102
RTVSPost2010PropOp37
 70
     1
102
RTVSPost2010Prop38
140
0.0
102
RTVSPost2010PropOp38
 70
     1
102
RTVSPost2010Prop39
140
1.0
102
RTVSPost2010PropOp39
 70
     1
102
RTVSPost2010Prop40
 90
        0
102
RTVSPost2010PropOp40
 70
     1
102
RTVSPost2010Prop41ColorIndex
 90
       18
102
RTVSPost2010Prop41ColorRGB
 90
        0
102
RTVSPost2010PropOp41
 70
     1
102
RTVSPost2010Prop42
 90
       50
102
RTVSPost2010PropOp42
 70
     1
102
RTVSPost2010Prop43
 90
        3
102
RTVSPost2010PropOp43
 70
     1
102
RTVSPost2010Prop44ColorIndex
 90
        5
102
RTVSPost2010Prop44ColorRGB
 90
      255
102
RTVSPost2010PropOp44
 70
     1
102
RTVSPost2010Prop45
280
     0
102
RTVSPost2010PropOp45
 70
     1
102
RTVSPost2010Prop46
 90
       50
102
RTVSPost2010PropOp46
 70
     1
102
RTVSPost2010Prop47
 90
       50
102
RTVSPost2010PropOp47
 70
     1
102
RTVSPost2010Prop48
 90
       50
102
RTVSPost2010PropOp48
 70
     1
102
RTVSPost2010Prop49
280
     0
102
RTVSPost2010PropOp49
 70
     1
102
RTVSPost2010Prop50
 90
       50
102
RTVSPost2010PropOp50
 70
     1
102
RTVSPost2010Prop51ColorIndex
 90
      256
102
RTVSPost2010Prop51ColorRGB
 90
-16777216
102
RTVSPost2010PropOp51
 70
     0
102
RTVSPost2010Prop52
140
1.0
102
RTVSPost2010PropOp52
 70
     0
102
RTVSPost2010Prop53
 90
        2
102
RTVSPost2010PropOp53
 70
     1
102
RTVSPost2010Prop54
  1
strokes_ogs.tif
102
RTVSPost2010PropOp54
 70
     1
102
RTVSPost2010Prop55
280
     0
102
RTVSPost2010PropOp55
 70
     1
102
RTVSPost2010Prop56
140
1.0
102
RTVSPost2010PropOp56
 70
     1
102
RTVSPost2010Prop57
140
1.0
102
RTVSPost2010PropOp57
 70
     1
  0
XRECORD
  5
123
102
{ACAD_REACTORS
330
122
102
}
330
122
100
AcDbXrecord
280
     1
102
RTVSPost2010Prop28
280
     0
102
RTVSPost2010PropOp28
 70
     1
102
RTVSPost2010Prop29
280
     1
102
RTVSPost2010PropOp29
 70
     1
102
RTVSPost2010Prop30
280
     1
102
RTVSPost2010PropOp30
 70
     1
102
RTVSPost2010Prop31
280
     0
102
RTVSPost2010PropOp31
 70
     1
102
RTVSPost2010Prop32
280
     0
102
RTVSPost2010PropOp32
 70
     1
102
RTVSPost2010Prop33
280
     0
102
RTVSPost2010PropOp33
 70
     1
102
RTVSPost2010Prop34
280
     0
102
RTVSPost2010PropOp34
 70
     1
102
RTVSPost2010Prop35
280
     0
102
RTVSPost2010PropOp35
 70
     1
102
RTVSPost2010Prop36
280
     0
102
RTVSPost2010PropOp36
 70
     1
102
RTVSPost2010Prop37
 90
       50
102
RTVSPost2010PropOp37
 70
     1
102
RTVSPost2010Prop38
140
0.0
102
RTVSPost2010PropOp38
 70
     1
102
RTVSPost2010Prop39
140
1.0
102
RTVSPost2010PropOp39
 70
     1
102
RTVSPost2010Prop40
 90
        0
102
RTVSPost2010PropOp40
 70
     1
102
RTVSPost2010Prop41ColorIndex
 90
       18
102
RTVSPost2010Prop41ColorRGB
 90
        0
102
RTVSPost2010PropOp41
 70
     1
102
RTVSPost2010Prop42
 90
       50
102
RTVSPost2010PropOp42
 70
     1
102
RTVSPost2010Prop43
 90
        3
102
RTVSPost2010PropOp43
 70
     1
102
RTVSPost2010Prop44ColorIndex
 90
        5
102
RTVSPost2010Prop44ColorRGB
 90
      255
102
RTVSPost2010PropOp44
 70
     1
102
RTVSPost2010Prop45
280
     0
102
RTVSPost2010PropOp45
 70
     1
102
RTVSPost2010Prop46
 90
       50
102
RTVSPost2010PropOp46
 70
     1
102
RTVSPost2010Prop47
 90
       50
102
RTVSPost2010PropOp47
 70
     1
102
RTVSPost2010Prop48
 90
       50
102
RTVSPost2010PropOp48
 70
     1
102
RTVSPost2010Prop49
280
     0
102
RTVSPost2010PropOp49
 70
     1
102
RTVSPost2010Prop50
 90
       50
102
RTVSPost2010PropOp50
 70
     1
102
RTVSPost2010Prop51ColorIndex
 90
      256
102
RTVSPost2010Prop51ColorRGB
 90
-16777216
102
RTVSPost2010PropOp51
 70
     0
102
RTVSPost2010Prop52
140
1.0
102
RTVSPost2010PropOp52
 70
     0
102
RTVSPost2010Prop53
 90
        2
102
RTVSPost2010PropOp53
 70
     1
102
RTVSPost2010Prop54
  1
strokes_ogs.tif
102
RTVSPost2010PropOp54
 70
     1
102
RTVSPost2010Prop55
280
     0
102
RTVSPost2010PropOp55
 70
     1
102
RTVSPost2010Prop56
140
1.0
102
RTVSPost2010PropOp56
 70
     1
102
RTVSPost2010Prop57
140
1.0
102
RTVSPost2010PropOp57
 70
     1
  0
XRECORD
  5
13D
102
{ACAD_REACTORS
330
13C
102
}
330
13C
100
AcDbXrecord
280
     1
102
RTVSPost2010Prop28
280
     0
102
RTVSPost2010PropOp28
 70
     0
102
RTVSPost2010Prop29
280
     1
102
RTVSPost2010PropOp29
 70
     0
102
RTVSPost2010Prop30
280
     1
102
RTVSPost2010PropOp30
 70
     0
102
RTVSPost2010Prop31
280
     0
102
RTVSPost2010PropOp31
 70
     0
102
RTVSPost2010Prop32
280
     0
102
RTVSPost2010PropOp32
 70
     0
102
RTVSPost2010Prop33
280
     0
102
RTVSPost2010PropOp33
 70
     0
102
RTVSPost2010Prop34
280
     0
102
RTVSPost2010PropOp34
 70
     0
102
RTVSPost2010Prop35
280
     0
102
RTVSPost2010PropOp35
 70
     0
102
RTVSPost2010Prop36
280
     0
102
RTVSPost2010PropOp36
 70
     0
102
RTVSPost2010Prop37
 90
       50
102
RTVSPost2010PropOp37
 70
     0
102
RTVSPost2010Prop38
140
0.0
102
RTVSPost2010PropOp38
 70
     0
102
RTVSPost2010Prop39
140
1.0
102
RTVSPost2010PropOp39
 70
     0
102
RTVSPost2010Prop40
 90
        0
102
RTVSPost2010PropOp40
 70
     0
102
RTVSPost2010Prop41ColorIndex
 90
       18
102
RTVSPost2010Prop41ColorRGB
 90
        0
102
RTVSPost2010PropOp41
 70
     0
102
RTVSPost2010Prop42
 90
       50
102
RTVSPost2010PropOp42
 70
     0
102
RTVSPost2010Prop43
 90
        3
102
RTVSPost2010PropOp43
 70
     0
102
RTVSPost2010Prop44ColorIndex
 90
        5
102
RTVSPost2010Prop44ColorRGB
 90
      255
102
RTVSPost2010PropOp44
 70
     0
102
RTVSPost2010Prop45
280
     0
102
RTVSPost2010PropOp45
 70
     0
102
RTVSPost2010Prop46
 90
       50
102
RTVSPost2010PropOp46
 70
     0
102
RTVSPost2010Prop47
 90
       50
102
RTVSPost2010PropOp47
 70
     0
102
RTVSPost2010Prop48
 90
       50
102
RTVSPost2010PropOp48
 70
     0
102
RTVSPost2010Prop49
280
     0
102
RTVSPost2010PropOp49
 70
     0
102
RTVSPost2010Prop50
 90
       50
102
RTVSPost2010PropOp50
 70
     0
102
RTVSPost2010Prop51ColorIndex
 90
      256
102
RTVSPost2010Prop51ColorRGB
 90
-16777216
102
RTVSPost2010PropOp51
 70
     0
102
RTVSPost2010Prop52
140
1.0
102
RTVSPost2010PropOp52
 70
     0
102
RTVSPost2010Prop53
 90
        2
102
RTVSPost2010PropOp53
 70
     0
102
RTVSPost2010Prop54
  1
strokes_ogs.tif
102
RTVSPost2010PropOp54
 70
     0
102
RTVSPost2010Prop55
280
     0
102
RTVSPost2010PropOp55
 70
     0
102
RTVSPost2010Prop56
140
1.0
102
RTVSPost2010PropOp56
 70
     0
102
RTVSPost2010Prop57
140
1.0
102
RTVSPost2010PropOp57
 70
     0
  0
XRECORD
  5
12B
102
{ACAD_REACTORS
330
12A
102
}
330
12A
100
AcDbXrecord
280
     1
102
RTVSPost2010Prop28
280
     0
102
RTVSPost2010PropOp28
 70
     1
102
RTVSPost2010Prop29
280
     1
102
RTVSPost2010PropOp29
 70
     1
102
RTVSPost2010Prop30
280
     1
102
RTVSPost2010PropOp30
 70
     1
102
RTVSPost2010Prop31
280
     0
102
RTVSPost2010PropOp31
 70
     1
102
RTVSPost2010Prop32
280
     0
102
RTVSPost2010PropOp32
 70
     1
102
RTVSPost2010Prop33
280
     0
102
RTVSPost2010PropOp33
 70
     1
102
RTVSPost2010Prop34
280
     0
102
RTVSPost2010PropOp34
 70
     1
102
RTVSPost2010Prop35
280
     0
102
RTVSPost2010PropOp35
 70
     1
102
RTVSPost2010Prop36
280
     0
102
RTVSPost2010PropOp36
 70
     1
102
RTVSPost2010Prop37
 90
       50
102
RTVSPost2010PropOp37
 70
     1
102
RTVSPost2010Prop38
140
0.0
102
RTVSPost2010PropOp38
 70
     1
102
RTVSPost2010Prop39
140
1.0
102
RTVSPost2010PropOp39
 70
     1
102
RTVSPost2010Prop40
 90
        0
102
RTVSPost2010PropOp40
 70
     1
102
RTVSPost2010Prop41ColorIndex
 90
       18
102
RTVSPost2010Prop41ColorRGB
 90
        0
102
RTVSPost2010PropOp41
 70
     1
102
RTVSPost2010Prop42
 90
       50
102
RTVSPost2010PropOp42
 70
     1
102
RTVSPost2010Prop43
 90
        3
102
RTVSPost2010PropOp43
 70
     1
102
RTVSPost2010Prop44ColorIndex
 90
        5
102
RTVSPost2010Prop44ColorRGB
 90
      255
102
RTVSPost2010PropOp44
 70
     1
102
RTVSPost2010Prop45
280
     0
102
RTVSPost2010PropOp45
 70
     1
102
RTVSPost2010Prop46
 90
       50
102
RTVSPost2010PropOp46
 70
     1
102
RTVSPost2010Prop47
 90
       50
102
RTVSPost2010PropOp47
 70
     1
102
RTVSPost2010Prop48
 90
       50
102
RTVSPost2010PropOp48
 70
     1
102
RTVSPost2010Prop49
280
     0
102
RTVSPost2010PropOp49
 70
     1
102
RTVSPost2010Prop50
 90
       50
102
RTVSPost2010PropOp50
 70
     1
102
RTVSPost2010Prop51ColorIndex
 90
      256
102
RTVSPost2010Prop51ColorRGB
 90
-16777216
102
RTVSPost2010PropOp51
 70
     0
102
RTVSPost2010Prop52
140
1.0
102
RTVSPost2010PropOp52
 70
     0
102
RTVSPost2010Prop53
 90
        2
102
RTVSPost2010PropOp53
 70
     1
102
RTVSPost2010Prop54
  1
strokes_ogs.tif
102
RTVSPost2010PropOp54
 70
     1
102
RTVSPost2010Prop55
280
     0
102
RTVSPost2010PropOp55
 70
     1
102
RTVSPost2010Prop56
140
1.0
102
RTVSPost2010PropOp56
 70
     1
102
RTVSPost2010Prop57
140
1.0
102
RTVSPost2010PropOp57
 70
     1
  0
XRECORD
  5
10F
102
{ACAD_REACTORS
330
10E
102
}
330
10E
100
AcDbXrecord
280
     1
102
RTVSPost2010Prop28
280
     0
102
RTVSPost2010PropOp28
 70
     1
102
RTVSPost2010Prop29
280
     1
102
RTVSPost2010PropOp29
 70
     1
102
RTVSPost2010Prop30
280
     1
102
RTVSPost2010PropOp30
 70
     1
102
RTVSPost2010Prop31
280
     0
102
RTVSPost2010PropOp31
 70
     1
102
RTVSPost2010Prop32
280
     0
102
RTVSPost2010PropOp32
 70
     1
102
RTVSPost2010Prop33
280
     0
102
RTVSPost2010PropOp33
 70
     1
102
RTVSPost2010Prop34
280
     0
102
RTVSPost2010PropOp34
 70
     1
102
RTVSPost2010Prop35
280
     0
102
RTVSPost2010PropOp35
 70
     1
102
RTVSPost2010Prop36
280
     0
102
RTVSPost2010PropOp36
 70
     1
102
RTVSPost2010Prop37
 90
       50
102
RTVSPost2010PropOp37
 70
     1
102
RTVSPost2010Prop38
140
0.0
102
RTVSPost2010PropOp38
 70
     1
102
RTVSPost2010Prop39
140
1.0
102
RTVSPost2010PropOp39
 70
     1
102
RTVSPost2010Prop40
 90
        0
102
RTVSPost2010PropOp40
 70
     1
102
RTVSPost2010Prop41ColorIndex
 90
       18
102
RTVSPost2010Prop41ColorRGB
 90
        0
102
RTVSPost2010PropOp41
 70
     1
102
RTVSPost2010Prop42
 90
       50
102
RTVSPost2010PropOp42
 70
     1
102
RTVSPost2010Prop43
 90
        3
102
RTVSPost2010PropOp43
 70
     1
102
RTVSPost2010Prop44ColorIndex
 90
        5
102
RTVSPost2010Prop44ColorRGB
 90
      255
102
RTVSPost2010PropOp44
 70
     1
102
RTVSPost2010Prop45
280
     0
102
RTVSPost2010PropOp45
 70
     1
102
RTVSPost2010Prop46
 90
       50
102
RTVSPost2010PropOp46
 70
     1
102
RTVSPost2010Prop47
 90
       50
102
RTVSPost2010PropOp47
 70
     1
102
RTVSPost2010Prop48
 90
       50
102
RTVSPost2010PropOp48
 70
     1
102
RTVSPost2010Prop49
280
     0
102
RTVSPost2010PropOp49
 70
     1
102
RTVSPost2010Prop50
 90
       50
102
RTVSPost2010PropOp50
 70
     1
102
RTVSPost2010Prop51ColorIndex
 90
      256
102
RTVSPost2010Prop51ColorRGB
 90
-16777216
102
RTVSPost2010PropOp51
 70
     0
102
RTVSPost2010Prop52
140
1.0
102
RTVSPost2010PropOp52
 70
     0
102
RTVSPost2010Prop53
 90
        2
102
RTVSPost2010PropOp53
 70
     1
102
RTVSPost2010Prop54
  1
strokes_ogs.tif
102
RTVSPost2010PropOp54
 70
     1
102
RTVSPost2010Prop55
280
     0
102
RTVSPost2010PropOp55
 70
     1
102
RTVSPost2010Prop56
140
1.0
102
RTVSPost2010PropOp56
 70
     1
102
RTVSPost2010Prop57
140
1.0
102
RTVSPost2010PropOp57
 70
     1
  0
XRECORD
  5
111
102
{ACAD_REACTORS
330
110
102
}
330
110
100
AcDbXrecord
280
     1
102
RTVSPost2010Prop28
280
     0
102
RTVSPost2010PropOp28
 70
     1
102
RTVSPost2010Prop29
280
     1
102
RTVSPost2010PropOp29
 70
     1
102
RTVSPost2010Prop30
280
     1
102
RTVSPost2010PropOp30
 70
     1
102
RTVSPost2010Prop31
280
     0
102
RTVSPost2010PropOp31
 70
     1
102
RTVSPost2010Prop32
280
     0
102
RTVSPost2010PropOp32
 70
     1
102
RTVSPost2010Prop33
280
     0
102
RTVSPost2010PropOp33
 70
     1
102
RTVSPost2010Prop34
280
     0
102
RTVSPost2010PropOp34
 70
     1
102
RTVSPost2010Prop35
280
     0
102
RTVSPost2010PropOp35
 70
     1
102
RTVSPost2010Prop36
280
     0
102
RTVSPost2010PropOp36
 70
     1
102
RTVSPost2010Prop37
 90
       50
102
RTVSPost2010PropOp37
 70
     1
102
RTVSPost2010Prop38
140
0.0
102
RTVSPost2010PropOp38
 70
     1
102
RTVSPost2010Prop39
140
1.0
102
RTVSPost2010PropOp39
 70
     1
102
RTVSPost2010Prop40
 90
        0
102
RTVSPost2010PropOp40
 70
     1
102
RTVSPost2010Prop41ColorIndex
 90
       18
102
RTVSPost2010Prop41ColorRGB
 90
        0
102
RTVSPost2010PropOp41
 70
     1
102
RTVSPost2010Prop42
 90
       50
102
RTVSPost2010PropOp42
 70
     1
102
RTVSPost2010Prop43
 90
        3
102
RTVSPost2010PropOp43
 70
     1
102
RTVSPost2010Prop44ColorIndex
 90
        5
102
RTVSPost2010Prop44ColorRGB
 90
      255
102
RTVSPost2010PropOp44
 70
     1
102
RTVSPost2010Prop45
280
     0
102
RTVSPost2010PropOp45
 70
     1
102
RTVSPost2010Prop46
 90
       50
102
RTVSPost2010PropOp46
 70
     1
102
RTVSPost2010Prop47
 90
       50
102
RTVSPost2010PropOp47
 70
     1
102
RTVSPost2010Prop48
 90
       50
102
RTVSPost2010PropOp48
 70
     1
102
RTVSPost2010Prop49
280
     0
102
RTVSPost2010PropOp49
 70
     1
102
RTVSPost2010Prop50
 90
       50
102
RTVSPost2010PropOp50
 70
     1
102
RTVSPost2010Prop51ColorIndex
 90
      256
102
RTVSPost2010Prop51ColorRGB
 90
-16777216
102
RTVSPost2010PropOp51
 70
     0
102
RTVSPost2010Prop52
140
1.0
102
RTVSPost2010PropOp52
 70
     0
102
RTVSPost2010Prop53
 90
        2
102
RTVSPost2010PropOp53
 70
     1
102
RTVSPost2010Prop54
  1
strokes_ogs.tif
102
RTVSPost2010PropOp54
 70
     1
102
RTVSPost2010Prop55
280
     0
102
RTVSPost2010PropOp55
 70
     1
102
RTVSPost2010Prop56
140
1.0
102
RTVSPost2010PropOp56
 70
     1
102
RTVSPost2010Prop57
140
1.0
102
RTVSPost2010PropOp57
 70
     1
  0
XRECORD
  5
113
102
{ACAD_REACTORS
330
112
102
}
330
112
100
AcDbXrecord
280
     1
102
RTVSPost2010Prop28
280
     0
102
RTVSPost2010PropOp28
 70
     1
102
RTVSPost2010Prop29
280
     1
102
RTVSPost2010PropOp29
 70
     1
102
RTVSPost2010Prop30
280
     1
102
RTVSPost2010PropOp30
 70
     1
102
RTVSPost2010Prop31
280
     0
102
RTVSPost2010PropOp31
 70
     1
102
RTVSPost2010Prop32
280
     0
102
RTVSPost2010PropOp32
 70
     1
102
RTVSPost2010Prop33
280
     0
102
RTVSPost2010PropOp33
 70
     1
102
RTVSPost2010Prop34
280
     0
102
RTVSPost2010PropOp34
 70
     1
102
RTVSPost2010Prop35
280
     0
102
RTVSPost2010PropOp35
 70
     1
102
RTVSPost2010Prop36
280
     0
102
RTVSPost2010PropOp36
 70
     1
102
RTVSPost2010Prop37
 90
       50
102
RTVSPost2010PropOp37
 70
     1
102
RTVSPost2010Prop38
140
0.0
102
RTVSPost2010PropOp38
 70
     1
102
RTVSPost2010Prop39
140
1.0
102
RTVSPost2010PropOp39
 70
     1
102
RTVSPost2010Prop40
 90
        0
102
RTVSPost2010PropOp40
 70
     1
102
RTVSPost2010Prop41ColorIndex
 90
       18
102
RTVSPost2010Prop41ColorRGB
 90
        0
102
RTVSPost2010PropOp41
 70
     1
102
RTVSPost2010Prop42
 90
       50
102
RTVSPost2010PropOp42
 70
     1
102
RTVSPost2010Prop43
 90
        3
102
RTVSPost2010PropOp43
 70
     1
102
RTVSPost2010Prop44ColorIndex
 90
        5
102
RTVSPost2010Prop44ColorRGB
 90
      255
102
RTVSPost2010PropOp44
 70
     1
102
RTVSPost2010Prop45
280
     0
102
RTVSPost2010PropOp45
 70
     1
102
RTVSPost2010Prop46
 90
       50
102
RTVSPost2010PropOp46
 70
     1
102
RTVSPost2010Prop47
 90
       50
102
RTVSPost2010PropOp47
 70
     1
102
RTVSPost2010Prop48
 90
       50
102
RTVSPost2010PropOp48
 70
     1
102
RTVSPost2010Prop49
280
     0
102
RTVSPost2010PropOp49
 70
     1
102
RTVSPost2010Prop50
 90
       50
102
RTVSPost2010PropOp50
 70
     1
102
RTVSPost2010Prop51ColorIndex
 90
      256
102
RTVSPost2010Prop51ColorRGB
 90
-16777216
102
RTVSPost2010PropOp51
 70
     0
102
RTVSPost2010Prop52
140
1.0
102
RTVSPost2010PropOp52
 70
     0
102
RTVSPost2010Prop53
 90
        2
102
RTVSPost2010PropOp53
 70
     1
102
RTVSPost2010Prop54
  1
strokes_ogs.tif
102
RTVSPost2010PropOp54
 70
     1
102
RTVSPost2010Prop55
280
     0
102
RTVSPost2010PropOp55
 70
     1
102
RTVSPost2010Prop56
140
1.0
102
RTVSPost2010PropOp56
 70
     1
102
RTVSPost2010Prop57
140
1.0
102
RTVSPost2010PropOp57
 70
     1
  0
XRECORD
  5
115
102
{ACAD_REACTORS
330
114
102
}
330
114
100
AcDbXrecord
280
     1
102
RTVSPost2010Prop28
280
     0
102
RTVSPost2010PropOp28
 70
     1
102
RTVSPost2010Prop29
280
     1
102
RTVSPost2010PropOp29
 70
     1
102
RTVSPost2010Prop30
280
     1
102
RTVSPost2010PropOp30
 70
     1
102
RTVSPost2010Prop31
280
     0
102
RTVSPost2010PropOp31
 70
     1
102
RTVSPost2010Prop32
280
     0
102
RTVSPost2010PropOp32
 70
     1
102
RTVSPost2010Prop33
280
     0
102
RTVSPost2010PropOp33
 70
     1
102
RTVSPost2010Prop34
280
     0
102
RTVSPost2010PropOp34
 70
     1
102
RTVSPost2010Prop35
280
     0
102
RTVSPost2010PropOp35
 70
     1
102
RTVSPost2010Prop36
280
     0
102
RTVSPost2010PropOp36
 70
     1
102
RTVSPost2010Prop37
 90
       50
102
RTVSPost2010PropOp37
 70
     1
102
RTVSPost2010Prop38
140
0.0
102
RTVSPost2010PropOp38
 70
     1
102
RTVSPost2010Prop39
140
1.0
102
RTVSPost2010PropOp39
 70
     1
102
RTVSPost2010Prop40
 90
        0
102
RTVSPost2010PropOp40
 70
     1
102
RTVSPost2010Prop41ColorIndex
 90
       18
102
RTVSPost2010Prop41ColorRGB
 90
        0
102
RTVSPost2010PropOp41
 70
     1
102
RTVSPost2010Prop42
 90
       50
102
RTVSPost2010PropOp42
 70
     1
102
RTVSPost2010Prop43
 90
        3
102
RTVSPost2010PropOp43
 70
     1
102
RTVSPost2010Prop44ColorIndex
 90
        5
102
RTVSPost2010Prop44ColorRGB
 90
      255
102
RTVSPost2010PropOp44
 70
     1
102
RTVSPost2010Prop45
280
     0
102
RTVSPost2010PropOp45
 70
     1
102
RTVSPost2010Prop46
 90
       50
102
RTVSPost2010PropOp46
 70
     1
102
RTVSPost2010Prop47
 90
       50
102
RTVSPost2010PropOp47
 70
     1
102
RTVSPost2010Prop48
 90
       50
102
RTVSPost2010PropOp48
 70
     1
102
RTVSPost2010Prop49
280
     0
102
RTVSPost2010PropOp49
 70
     1
102
RTVSPost2010Prop50
 90
       50
102
RTVSPost2010PropOp50
 70
     1
102
RTVSPost2010Prop51ColorIndex
 90
      256
102
RTVSPost2010Prop51ColorRGB
 90
-16777216
102
RTVSPost2010PropOp51
 70
     0
102
RTVSPost2010Prop52
140
1.0
102
RTVSPost2010PropOp52
 70
     0
102
RTVSPost2010Prop53
 90
        2
102
RTVSPost2010PropOp53
 70
     1
102
RTVSPost2010Prop54
  1
strokes_ogs.tif
102
RTVSPost2010PropOp54
 70
     1
102
RTVSPost2010Prop55
280
     0
102
RTVSPost2010PropOp55
 70
     1
102
RTVSPost2010Prop56
140
1.0
102
RTVSPost2010PropOp56
 70
     1
102
RTVSPost2010Prop57
140
1.0
102
RTVSPost2010PropOp57
 70
     1
  0
XRECORD
  5
11D
102
{ACAD_REACTORS
330
11C
102
}
330
11C
100
AcDbXrecord
280
     1
102
RTVSPost2010Prop28
280
     0
102
RTVSPost2010PropOp28
 70
     1
102
RTVSPost2010Prop29
280
     1
102
RTVSPost2010PropOp29
 70
     1
102
RTVSPost2010Prop30
280
     1
102
RTVSPost2010PropOp30
 70
     1
102
RTVSPost2010Prop31
280
     0
102
RTVSPost2010PropOp31
 70
     1
102
RTVSPost2010Prop32
280
     0
102
RTVSPost2010PropOp32
 70
     1
102
RTVSPost2010Prop33
280
     0
102
RTVSPost2010PropOp33
 70
     1
102
RTVSPost2010Prop34
280
     0
102
RTVSPost2010PropOp34
 70
     1
102
RTVSPost2010Prop35
280
     0
102
RTVSPost2010PropOp35
 70
     1
102
RTVSPost2010Prop36
280
     0
102
RTVSPost2010PropOp36
 70
     1
102
RTVSPost2010Prop37
 90
       50
102
RTVSPost2010PropOp37
 70
     1
102
RTVSPost2010Prop38
140
0.0
102
RTVSPost2010PropOp38
 70
     1
102
RTVSPost2010Prop39
140
1.0
102
RTVSPost2010PropOp39
 70
     1
102
RTVSPost2010Prop40
 90
        0
102
RTVSPost2010PropOp40
 70
     1
102
RTVSPost2010Prop41ColorIndex
 90
       18
102
RTVSPost2010Prop41ColorRGB
 90
        0
102
RTVSPost2010PropOp41
 70
     1
102
RTVSPost2010Prop42
 90
       50
102
RTVSPost2010PropOp42
 70
     1
102
RTVSPost2010Prop43
 90
        3
102
RTVSPost2010PropOp43
 70
     1
102
RTVSPost2010Prop44ColorIndex
 90
        5
102
RTVSPost2010Prop44ColorRGB
 90
      255
102
RTVSPost2010PropOp44
 70
     1
102
RTVSPost2010Prop45
280
     0
102
RTVSPost2010PropOp45
 70
     1
102
RTVSPost2010Prop46
 90
       50
102
RTVSPost2010PropOp46
 70
     1
102
RTVSPost2010Prop47
 90
       50
102
RTVSPost2010PropOp47
 70
     1
102
RTVSPost2010Prop48
 90
       50
102
RTVSPost2010PropOp48
 70
     1
102
RTVSPost2010Prop49
280
     0
102
RTVSPost2010PropOp49
 70
     1
102
RTVSPost2010Prop50
 90
       50
102
RTVSPost2010PropOp50
 70
     1
102
RTVSPost2010Prop51ColorIndex
 90
      256
102
RTVSPost2010Prop51ColorRGB
 90
-16777216
102
RTVSPost2010PropOp51
 70
     0
102
RTVSPost2010Prop52
140
1.0
102
RTVSPost2010PropOp52
 70
     0
102
RTVSPost2010Prop53
 90
        2
102
RTVSPost2010PropOp53
 70
     1
102
RTVSPost2010Prop54
  1
strokes_ogs.tif
102
RTVSPost2010PropOp54
 70
     1
102
RTVSPost2010Prop55
280
     0
102
RTVSPost2010PropOp55
 70
     1
102
RTVSPost2010Prop56
140
1.0
102
RTVSPost2010PropOp56
 70
     1
102
RTVSPost2010Prop57
140
1.0
102
RTVSPost2010PropOp57
 70
     1
  0
XRECORD
  5
139
102
{ACAD_REACTORS
330
138
102
}
330
138
100
AcDbXrecord
280
     1
102
RTVSPost2010Prop28
280
     0
102
RTVSPost2010PropOp28
 70
     0
102
RTVSPost2010Prop29
280
     1
102
RTVSPost2010PropOp29
 70
     0
102
RTVSPost2010Prop30
280
     1
102
RTVSPost2010PropOp30
 70
     0
102
RTVSPost2010Prop31
280
     0
102
RTVSPost2010PropOp31
 70
     0
102
RTVSPost2010Prop32
280
     0
102
RTVSPost2010PropOp32
 70
     0
102
RTVSPost2010Prop33
280
     0
102
RTVSPost2010PropOp33
 70
     0
102
RTVSPost2010Prop34
280
     0
102
RTVSPost2010PropOp34
 70
     0
102
RTVSPost2010Prop35
280
     0
102
RTVSPost2010PropOp35
 70
     0
102
RTVSPost2010Prop36
280
     0
102
RTVSPost2010PropOp36
 70
     0
102
RTVSPost2010Prop37
 90
       50
102
RTVSPost2010PropOp37
 70
     0
102
RTVSPost2010Prop38
140
0.0
102
RTVSPost2010PropOp38
 70
     0
102
RTVSPost2010Prop39
140
1.0
102
RTVSPost2010PropOp39
 70
     0
102
RTVSPost2010Prop40
 90
        0
102
RTVSPost2010PropOp40
 70
     0
102
RTVSPost2010Prop41ColorIndex
 90
       18
102
RTVSPost2010Prop41ColorRGB
 90
        0
102
RTVSPost2010PropOp41
 70
     0
102
RTVSPost2010Prop42
 90
       50
102
RTVSPost2010PropOp42
 70
     0
102
RTVSPost2010Prop43
 90
        3
102
RTVSPost2010PropOp43
 70
     0
102
RTVSPost2010Prop44ColorIndex
 90
        5
102
RTVSPost2010Prop44ColorRGB
 90
      255
102
RTVSPost2010PropOp44
 70
     0
102
RTVSPost2010Prop45
280
     0
102
RTVSPost2010PropOp45
 70
     0
102
RTVSPost2010Prop46
 90
       50
102
RTVSPost2010PropOp46
 70
     0
102
RTVSPost2010Prop47
 90
       50
102
RTVSPost2010PropOp47
 70
     0
102
RTVSPost2010Prop48
 90
       50
102
RTVSPost2010PropOp48
 70
     0
102
RTVSPost2010Prop49
280
     0
102
RTVSPost2010PropOp49
 70
     0
102
RTVSPost2010Prop50
 90
       50
102
RTVSPost2010PropOp50
 70
     0
102
RTVSPost2010Prop51ColorIndex
 90
      256
102
RTVSPost2010Prop51ColorRGB
 90
-16777216
102
RTVSPost2010PropOp51
 70
     0
102
RTVSPost2010Prop52
140
1.0
102
RTVSPost2010PropOp52
 70
     0
102
RTVSPost2010Prop53
 90
        2
102
RTVSPost2010PropOp53
 70
     0
102
RTVSPost2010Prop54
  1
strokes_ogs.tif
102
RTVSPost2010PropOp54
 70
     0
102
RTVSPost2010Prop55
280
     0
102
RTVSPost2010PropOp55
 70
     0
102
RTVSPost2010Prop56
140
1.0
102
RTVSPost2010PropOp56
 70
     0
102
RTVSPost2010Prop57
140
1.0
102
RTVSPost2010PropOp57
 70
     0
  0
XRECORD
  5
129
102
{ACAD_REACTORS
330
128
102
}
330
128
100
AcDbXrecord
280
     1
102
RTVSPost2010Prop28
280
     0
102
RTVSPost2010PropOp28
 70
     1
102
RTVSPost2010Prop29
280
     1
102
RTVSPost2010PropOp29
 70
     1
102
RTVSPost2010Prop30
280
     1
102
RTVSPost2010PropOp30
 70
     1
102
RTVSPost2010Prop31
280
     0
102
RTVSPost2010PropOp31
 70
     1
102
RTVSPost2010Prop32
280
     0
102
RTVSPost2010PropOp32
 70
     1
102
RTVSPost2010Prop33
280
     0
102
RTVSPost2010PropOp33
 70
     1
102
RTVSPost2010Prop34
280
     0
102
RTVSPost2010PropOp34
 70
     1
102
RTVSPost2010Prop35
280
     0
102
RTVSPost2010PropOp35
 70
     1
102
RTVSPost2010Prop36
280
     0
102
RTVSPost2010PropOp36
 70
     1
102
RTVSPost2010Prop37
 90
       50
102
RTVSPost2010PropOp37
 70
     1
102
RTVSPost2010Prop38
140
0.0
102
RTVSPost2010PropOp38
 70
     1
102
RTVSPost2010Prop39
140
1.0
102
RTVSPost2010PropOp39
 70
     1
102
RTVSPost2010Prop40
 90
        0
102
RTVSPost2010PropOp40
 70
     1
102
RTVSPost2010Prop41ColorIndex
 90
       18
102
RTVSPost2010Prop41ColorRGB
 90
        0
102
RTVSPost2010PropOp41
 70
     1
102
RTVSPost2010Prop42
 90
       50
102
RTVSPost2010PropOp42
 70
     1
102
RTVSPost2010Prop43
 90
        3
102
RTVSPost2010PropOp43
 70
     1
102
RTVSPost2010Prop44ColorIndex
 90
        5
102
RTVSPost2010Prop44ColorRGB
 90
      255
102
RTVSPost2010PropOp44
 70
     1
102
RTVSPost2010Prop45
280
     0
102
RTVSPost2010PropOp45
 70
     1
102
RTVSPost2010Prop46
 90
       50
102
RTVSPost2010PropOp46
 70
     1
102
RTVSPost2010Prop47
 90
       50
102
RTVSPost2010PropOp47
 70
     1
102
RTVSPost2010Prop48
 90
       50
102
RTVSPost2010PropOp48
 70
     1
102
RTVSPost2010Prop49
280
     0
102
RTVSPost2010PropOp49
 70
     1
102
RTVSPost2010Prop50
 90
       50
102
RTVSPost2010PropOp50
 70
     1
102
RTVSPost2010Prop51ColorIndex
 90
      256
102
RTVSPost2010Prop51ColorRGB
 90
-16777216
102
RTVSPost2010PropOp51
 70
     0
102
RTVSPost2010Prop52
140
1.0
102
RTVSPost2010PropOp52
 70
     0
102
RTVSPost2010Prop53
 90
        2
102
RTVSPost2010PropOp53
 70
     1
102
RTVSPost2010Prop54
  1
strokes_ogs.tif
102
RTVSPost2010PropOp54
 70
     1
102
RTVSPost2010Prop55
280
     0
102
RTVSPost2010PropOp55
 70
     1
102
RTVSPost2010Prop56
140
1.0
102
RTVSPost2010PropOp56
 70
     1
102
RTVSPost2010Prop57
140
1.0
102
RTVSPost2010PropOp57
 70
     1
  0
XRECORD
  5
13B
102
{ACAD_REACTORS
330
13A
102
}
330
13A
100
AcDbXrecord
280
     1
102
RTVSPost2010Prop28
280
     0
102
RTVSPost2010PropOp28
 70
     0
102
RTVSPost2010Prop29
280
     1
102
RTVSPost2010PropOp29
 70
     0
102
RTVSPost2010Prop30
280
     1
102
RTVSPost2010PropOp30
 70
     0
102
RTVSPost2010Prop31
280
     0
102
RTVSPost2010PropOp31
 70
     0
102
RTVSPost2010Prop32
280
     0
102
RTVSPost2010PropOp32
 70
     0
102
RTVSPost2010Prop33
280
     0
102
RTVSPost2010PropOp33
 70
     0
102
RTVSPost2010Prop34
280
     0
102
RTVSPost2010PropOp34
 70
     0
102
RTVSPost2010Prop35
280
     0
102
RTVSPost2010PropOp35
 70
     0
102
RTVSPost2010Prop36
280
     0
102
RTVSPost2010PropOp36
 70
     0
102
RTVSPost2010Prop37
 90
       50
102
RTVSPost2010PropOp37
 70
     0
102
RTVSPost2010Prop38
140
0.0
102
RTVSPost2010PropOp38
 70
     0
102
RTVSPost2010Prop39
140
1.0
102
RTVSPost2010PropOp39
 70
     0
102
RTVSPost2010Prop40
 90
        0
102
RTVSPost2010PropOp40
 70
     0
102
RTVSPost2010Prop41ColorIndex
 90
       18
102
RTVSPost2010Prop41ColorRGB
 90
        0
102
RTVSPost2010PropOp41
 70
     0
102
RTVSPost2010Prop42
 90
       50
102
RTVSPost2010PropOp42
 70
     0
102
RTVSPost2010Prop43
 90
        3
102
RTVSPost2010PropOp43
 70
     0
102
RTVSPost2010Prop44ColorIndex
 90
        5
102
RTVSPost2010Prop44ColorRGB
 90
      255
102
RTVSPost2010PropOp44
 70
     0
102
RTVSPost2010Prop45
280
     0
102
RTVSPost2010PropOp45
 70
     0
102
RTVSPost2010Prop46
 90
       50
102
RTVSPost2010PropOp46
 70
     0
102
RTVSPost2010Prop47
 90
       50
102
RTVSPost2010PropOp47
 70
     0
102
RTVSPost2010Prop48
 90
       50
102
RTVSPost2010PropOp48
 70
     0
102
RTVSPost2010Prop49
280
     0
102
RTVSPost2010PropOp49
 70
     0
102
RTVSPost2010Prop50
 90
       50
102
RTVSPost2010PropOp50
 70
     0
102
RTVSPost2010Prop51ColorIndex
 90
      256
102
RTVSPost2010Prop51ColorRGB
 90
-16777216
102
RTVSPost2010PropOp51
 70
     0
102
RTVSPost2010Prop52
140
1.0
102
RTVSPost2010PropOp52
 70
     0
102
RTVSPost2010Prop53
 90
        2
102
RTVSPost2010PropOp53
 70
     0
102
RTVSPost2010Prop54
  1
strokes_ogs.tif
102
RTVSPost2010PropOp54
 70
     0
102
RTVSPost2010Prop55
280
     0
102
RTVSPost2010PropOp55
 70
     0
102
RTVSPost2010Prop56
140
1.0
102
RTVSPost2010PropOp56
 70
     0
102
RTVSPost2010Prop57
140
1.0
102
RTVSPost2010PropOp57
 70
     0
  0
XRECORD
  5
121
102
{ACAD_REACTORS
330
120
102
}
330
120
100
AcDbXrecord
280
     1
102
RTVSPost2010Prop28
280
     0
102
RTVSPost2010PropOp28
 70
     1
102
RTVSPost2010Prop29
280
     1
102
RTVSPost2010PropOp29
 70
     1
102
RTVSPost2010Prop30
280
     1
102
RTVSPost2010PropOp30
 70
     1
102
RTVSPost2010Prop31
280
     0
102
RTVSPost2010PropOp31
 70
     1
102
RTVSPost2010Prop32
280
     0
102
RTVSPost2010PropOp32
 70
     1
102
RTVSPost2010Prop33
280
     0
102
RTVSPost2010PropOp33
 70
     1
102
RTVSPost2010Prop34
280
     0
102
RTVSPost2010PropOp34
 70
     1
102
RTVSPost2010Prop35
280
     0
102
RTVSPost2010PropOp35
 70
     1
102
RTVSPost2010Prop36
280
     0
102
RTVSPost2010PropOp36
 70
     1
102
RTVSPost2010Prop37
 90
       50
102
RTVSPost2010PropOp37
 70
     1
102
RTVSPost2010Prop38
140
0.0
102
RTVSPost2010PropOp38
 70
     1
102
RTVSPost2010Prop39
140
1.0
102
RTVSPost2010PropOp39
 70
     1
102
RTVSPost2010Prop40
 90
        0
102
RTVSPost2010PropOp40
 70
     1
102
RTVSPost2010Prop41ColorIndex
 90
       18
102
RTVSPost2010Prop41ColorRGB
 90
        0
102
RTVSPost2010PropOp41
 70
     1
102
RTVSPost2010Prop42
 90
       50
102
RTVSPost2010PropOp42
 70
     1
102
RTVSPost2010Prop43
 90
        3
102
RTVSPost2010PropOp43
 70
     1
102
RTVSPost2010Prop44ColorIndex
 90
        5
102
RTVSPost2010Prop44ColorRGB
 90
      255
102
RTVSPost2010PropOp44
 70
     1
102
RTVSPost2010Prop45
280
     0
102
RTVSPost2010PropOp45
 70
     1
102
RTVSPost2010Prop46
 90
       50
102
RTVSPost2010PropOp46
 70
     1
102
RTVSPost2010Prop47
 90
       50
102
RTVSPost2010PropOp47
 70
     1
102
RTVSPost2010Prop48
 90
       50
102
RTVSPost2010PropOp48
 70
     1
102
RTVSPost2010Prop49
280
     0
102
RTVSPost2010PropOp49
 70
     1
102
RTVSPost2010Prop50
 90
       50
102
RTVSPost2010PropOp50
 70
     1
102
RTVSPost2010Prop51ColorIndex
 90
      256
102
RTVSPost2010Prop51ColorRGB
 90
-16777216
102
RTVSPost2010PropOp51
 70
     0
102
RTVSPost2010Prop52
140
1.0
102
RTVSPost2010PropOp52
 70
     0
102
RTVSPost2010Prop53
 90
        2
102
RTVSPost2010PropOp53
 70
     1
102
RTVSPost2010Prop54
  1
strokes_ogs.tif
102
RTVSPost2010PropOp54
 70
     1
102
RTVSPost2010Prop55
280
     0
102
RTVSPost2010PropOp55
 70
     1
102
RTVSPost2010Prop56
140
1.0
102
RTVSPost2010PropOp56
 70
     1
102
RTVSPost2010Prop57
140
1.0
102
RTVSPost2010PropOp57
 70
     1
  0
XRECORD
  5
137
102
{ACAD_REACTORS
330
136
102
}
330
136
100
AcDbXrecord
280
     1
102
RTVSPost2010Prop28
280
     0
102
RTVSPost2010PropOp28
 70
     1
102
RTVSPost2010Prop29
280
     1
102
RTVSPost2010PropOp29
 70
     1
102
RTVSPost2010Prop30
280
     1
102
RTVSPost2010PropOp30
 70
     1
102
RTVSPost2010Prop31
280
     0
102
RTVSPost2010PropOp31
 70
     1
102
RTVSPost2010Prop32
280
     0
102
RTVSPost2010PropOp32
 70
     1
102
RTVSPost2010Prop33
280
     0
102
RTVSPost2010PropOp33
 70
     1
102
RTVSPost2010Prop34
280
     0
102
RTVSPost2010PropOp34
 70
     1
102
RTVSPost2010Prop35
280
     0
102
RTVSPost2010PropOp35
 70
     1
102
RTVSPost2010Prop36
280
     0
102
RTVSPost2010PropOp36
 70
     1
102
RTVSPost2010Prop37
 90
       50
102
RTVSPost2010PropOp37
 70
     1
102
RTVSPost2010Prop38
140
0.0
102
RTVSPost2010PropOp38
 70
     1
102
RTVSPost2010Prop39
140
1.0
102
RTVSPost2010PropOp39
 70
     1
102
RTVSPost2010Prop40
 90
        0
102
RTVSPost2010PropOp40
 70
     1
102
RTVSPost2010Prop41ColorIndex
 90
       18
102
RTVSPost2010Prop41ColorRGB
 90
        0
102
RTVSPost2010PropOp41
 70
     1
102
RTVSPost2010Prop42
 90
       50
102
RTVSPost2010PropOp42
 70
     1
102
RTVSPost2010Prop43
 90
        3
102
RTVSPost2010PropOp43
 70
     1
102
RTVSPost2010Prop44ColorIndex
 90
        5
102
RTVSPost2010Prop44ColorRGB
 90
      255
102
RTVSPost2010PropOp44
 70
     1
102
RTVSPost2010Prop45
280
     0
102
RTVSPost2010PropOp45
 70
     1
102
RTVSPost2010Prop46
 90
       50
102
RTVSPost2010PropOp46
 70
     1
102
RTVSPost2010Prop47
 90
       50
102
RTVSPost2010PropOp47
 70
     1
102
RTVSPost2010Prop48
 90
       50
102
RTVSPost2010PropOp48
 70
     1
102
RTVSPost2010Prop49
280
     0
102
RTVSPost2010PropOp49
 70
     1
102
RTVSPost2010Prop50
 90
       50
102
RTVSPost2010PropOp50
 70
     1
102
RTVSPost2010Prop51ColorIndex
 90
      256
102
RTVSPost2010Prop51ColorRGB
 90
-16777216
102
RTVSPost2010PropOp51
 70
     0
102
RTVSPost2010Prop52
140
1.0
102
RTVSPost2010PropOp52
 70
     0
102
RTVSPost2010Prop53
 90
        2
102
RTVSPost2010PropOp53
 70
     1
102
RTVSPost2010Prop54
  1
strokes_ogs.tif
102
RTVSPost2010PropOp54
 70
     1
102
RTVSPost2010Prop55
280
     0
102
RTVSPost2010PropOp55
 70
     1
102
RTVSPost2010Prop56
140
1.0
102
RTVSPost2010PropOp56
 70
     1
102
RTVSPost2010Prop57
140
1.0
102
RTVSPost2010PropOp57
 70
     1
  0
XRECORD
  5
135
102
{ACAD_REACTORS
330
134
102
}
330
134
100
AcDbXrecord
280
     1
102
RTVSPost2010Prop28
280
     0
102
RTVSPost2010PropOp28
 70
     1
102
RTVSPost2010Prop29
280
     1
102
RTVSPost2010PropOp29
 70
     1
102
RTVSPost2010Prop30
280
     1
102
RTVSPost2010PropOp30
 70
     1
102
RTVSPost2010Prop31
280
     0
102
RTVSPost2010PropOp31
 70
     1
102
RTVSPost2010Prop32
280
     0
102
RTVSPost2010PropOp32
 70
     1
102
RTVSPost2010Prop33
280
     0
102
RTVSPost2010PropOp33
 70
     1
102
RTVSPost2010Prop34
280
     0
102
RTVSPost2010PropOp34
 70
     1
102
RTVSPost2010Prop35
280
     0
102
RTVSPost2010PropOp35
 70
     1
102
RTVSPost2010Prop36
280
     0
102
RTVSPost2010PropOp36
 70
     1
102
RTVSPost2010Prop37
 90
       50
102
RTVSPost2010PropOp37
 70
     1
102
RTVSPost2010Prop38
140
0.0
102
RTVSPost2010PropOp38
 70
     1
102
RTVSPost2010Prop39
140
1.0
102
RTVSPost2010PropOp39
 70
     1
102
RTVSPost2010Prop40
 90
        0
102
RTVSPost2010PropOp40
 70
     1
102
RTVSPost2010Prop41ColorIndex
 90
       18
102
RTVSPost2010Prop41ColorRGB
 90
        0
102
RTVSPost2010PropOp41
 70
     1
102
RTVSPost2010Prop42
 90
       50
102
RTVSPost2010PropOp42
 70
     1
102
RTVSPost2010Prop43
 90
        3
102
RTVSPost2010PropOp43
 70
     1
102
RTVSPost2010Prop44ColorIndex
 90
        5
102
RTVSPost2010Prop44ColorRGB
 90
      255
102
RTVSPost2010PropOp44
 70
     1
102
RTVSPost2010Prop45
280
     0
102
RTVSPost2010PropOp45
 70
     1
102
RTVSPost2010Prop46
 90
       50
102
RTVSPost2010PropOp46
 70
     1
102
RTVSPost2010Prop47
 90
       50
102
RTVSPost2010PropOp47
 70
     1
102
RTVSPost2010Prop48
 90
       50
102
RTVSPost2010PropOp48
 70
     1
102
RTVSPost2010Prop49
280
     0
102
RTVSPost2010PropOp49
 70
     1
102
RTVSPost2010Prop50
 90
       50
102
RTVSPost2010PropOp50
 70
     1
102
RTVSPost2010Prop51ColorIndex
 90
      256
102
RTVSPost2010Prop51ColorRGB
 90
-16777216
102
RTVSPost2010PropOp51
 70
     0
102
RTVSPost2010Prop52
140
1.0
102
RTVSPost2010PropOp52
 70
     0
102
RTVSPost2010Prop53
 90
        2
102
RTVSPost2010PropOp53
 70
     1
102
RTVSPost2010Prop54
  1
strokes_ogs.tif
102
RTVSPost2010PropOp54
 70
     1
102
RTVSPost2010Prop55
280
     0
102
RTVSPost2010PropOp55
 70
     1
102
RTVSPost2010Prop56
140
1.0
102
RTVSPost2010PropOp56
 70
     1
102
RTVSPost2010Prop57
140
1.0
102
RTVSPost2010PropOp57
 70
     1
  0
XRECORD
  5
12F
102
{ACAD_REACTORS
330
12E
102
}
330
12E
100
AcDbXrecord
280
     1
102
RTVSPost2010Prop28
280
     0
102
RTVSPost2010PropOp28
 70
     1
102
RTVSPost2010Prop29
280
     1
102
RTVSPost2010PropOp29
 70
     1
102
RTVSPost2010Prop30
280
     1
102
RTVSPost2010PropOp30
 70
     1
102
RTVSPost2010Prop31
280
     0
102
RTVSPost2010PropOp31
 70
     1
102
RTVSPost2010Prop32
280
     0
102
RTVSPost2010PropOp32
 70
     1
102
RTVSPost2010Prop33
280
     0
102
RTVSPost2010PropOp33
 70
     1
102
RTVSPost2010Prop34
280
     0
102
RTVSPost2010PropOp34
 70
     1
102
RTVSPost2010Prop35
280
     0
102
RTVSPost2010PropOp35
 70
     1
102
RTVSPost2010Prop36
280
     0
102
RTVSPost2010PropOp36
 70
     1
102
RTVSPost2010Prop37
 90
       50
102
RTVSPost2010PropOp37
 70
     1
102
RTVSPost2010Prop38
140
0.0
102
RTVSPost2010PropOp38
 70
     1
102
RTVSPost2010Prop39
140
1.0
102
RTVSPost2010PropOp39
 70
     1
102
RTVSPost2010Prop40
 90
        0
102
RTVSPost2010PropOp40
 70
     1
102
RTVSPost2010Prop41ColorIndex
 90
       18
102
RTVSPost2010Prop41ColorRGB
 90
        0
102
RTVSPost2010PropOp41
 70
     1
102
RTVSPost2010Prop42
 90
       50
102
RTVSPost2010PropOp42
 70
     1
102
RTVSPost2010Prop43
 90
        3
102
RTVSPost2010PropOp43
 70
     1
102
RTVSPost2010Prop44ColorIndex
 90
        5
102
RTVSPost2010Prop44ColorRGB
 90
      255
102
RTVSPost2010PropOp44
 70
     1
102
RTVSPost2010Prop45
280
     0
102
RTVSPost2010PropOp45
 70
     1
102
RTVSPost2010Prop46
 90
       50
102
RTVSPost2010PropOp46
 70
     1
102
RTVSPost2010Prop47
 90
       50
102
RTVSPost2010PropOp47
 70
     1
102
RTVSPost2010Prop48
 90
       50
102
RTVSPost2010PropOp48
 70
     1
102
RTVSPost2010Prop49
280
     0
102
RTVSPost2010PropOp49
 70
     1
102
RTVSPost2010Prop50
 90
       50
102
RTVSPost2010PropOp50
 70
     1
102
RTVSPost2010Prop51ColorIndex
 90
      256
102
RTVSPost2010Prop51ColorRGB
 90
-16777216
102
RTVSPost2010PropOp51
 70
     0
102
RTVSPost2010Prop52
140
1.0
102
RTVSPost2010PropOp52
 70
     0
102
RTVSPost2010Prop53
 90
        2
102
RTVSPost2010PropOp53
 70
     1
102
RTVSPost2010Prop54
  1
strokes_ogs.tif
102
RTVSPost2010PropOp54
 70
     1
102
RTVSPost2010Prop55
280
     0
102
RTVSPost2010PropOp55
 70
     1
102
RTVSPost2010Prop56
140
1.0
102
RTVSPost2010PropOp56
 70
     1
102
RTVSPost2010Prop57
140
1.0
102
RTVSPost2010PropOp57
 70
     1
  0
XRECORD
  5
131
102
{ACAD_REACTORS
330
130
102
}
330
130
100
AcDbXrecord
280
     1
102
RTVSPost2010Prop28
280
     0
102
RTVSPost2010PropOp28
 70
     1
102
RTVSPost2010Prop29
280
     1
102
RTVSPost2010PropOp29
 70
     1
102
RTVSPost2010Prop30
280
     1
102
RTVSPost2010PropOp30
 70
     1
102
RTVSPost2010Prop31
280
     0
102
RTVSPost2010PropOp31
 70
     1
102
RTVSPost2010Prop32
280
     0
102
RTVSPost2010PropOp32
 70
     1
102
RTVSPost2010Prop33
280
     0
102
RTVSPost2010PropOp33
 70
     1
102
RTVSPost2010Prop34
280
     0
102
RTVSPost2010PropOp34
 70
     1
102
RTVSPost2010Prop35
280
     0
102
RTVSPost2010PropOp35
 70
     1
102
RTVSPost2010Prop36
280
     0
102
RTVSPost2010PropOp36
 70
     1
102
RTVSPost2010Prop37
 90
       50
102
RTVSPost2010PropOp37
 70
     1
102
RTVSPost2010Prop38
140
0.0
102
RTVSPost2010PropOp38
 70
     1
102
RTVSPost2010Prop39
140
1.0
102
RTVSPost2010PropOp39
 70
     1
102
RTVSPost2010Prop40
 90
        0
102
RTVSPost2010PropOp40
 70
     1
102
RTVSPost2010Prop41ColorIndex
 90
       18
102
RTVSPost2010Prop41ColorRGB
 90
        0
102
RTVSPost2010PropOp41
 70
     1
102
RTVSPost2010Prop42
 90
       50
102
RTVSPost2010PropOp42
 70
     1
102
RTVSPost2010Prop43
 90
        3
102
RTVSPost2010PropOp43
 70
     1
102
RTVSPost2010Prop44ColorIndex
 90
        5
102
RTVSPost2010Prop44ColorRGB
 90
      255
102
RTVSPost2010PropOp44
 70
     1
102
RTVSPost2010Prop45
280
     0
102
RTVSPost2010PropOp45
 70
     1
102
RTVSPost2010Prop46
 90
       50
102
RTVSPost2010PropOp46
 70
     1
102
RTVSPost2010Prop47
 90
       50
102
RTVSPost2010PropOp47
 70
     1
102
RTVSPost2010Prop48
 90
       50
102
RTVSPost2010PropOp48
 70
     1
102
RTVSPost2010Prop49
280
     0
102
RTVSPost2010PropOp49
 70
     1
102
RTVSPost2010Prop50
 90
       50
102
RTVSPost2010PropOp50
 70
     1
102
RTVSPost2010Prop51ColorIndex
 90
      256
102
RTVSPost2010Prop51ColorRGB
 90
-16777216
102
RTVSPost2010PropOp51
 70
     0
102
RTVSPost2010Prop52
140
1.0
102
RTVSPost2010PropOp52
 70
     0
102
RTVSPost2010Prop53
 90
        2
102
RTVSPost2010PropOp53
 70
     1
102
RTVSPost2010Prop54
  1
strokes_ogs.tif
102
RTVSPost2010PropOp54
 70
     1
102
RTVSPost2010Prop55
280
     0
102
RTVSPost2010PropOp55
 70
     1
102
RTVSPost2010Prop56
140
1.0
102
RTVSPost2010PropOp56
 70
     1
102
RTVSPost2010Prop57
140
1.0
102
RTVSPost2010PropOp57
 70
     1
  0
XRECORD
  5
127
102
{ACAD_REACTORS
330
126
102
}
330
126
100
AcDbXrecord
280
     1
102
RTVSPost2010Prop28
280
     0
102
RTVSPost2010PropOp28
 70
     1
102
RTVSPost2010Prop29
280
     1
102
RTVSPost2010PropOp29
 70
     1
102
RTVSPost2010Prop30
280
     1
102
RTVSPost2010PropOp30
 70
     1
102
RTVSPost2010Prop31
280
     0
102
RTVSPost2010PropOp31
 70
     1
102
RTVSPost2010Prop32
280
     0
102
RTVSPost2010PropOp32
 70
     1
102
RTVSPost2010Prop33
280
     0
102
RTVSPost2010PropOp33
 70
     1
102
RTVSPost2010Prop34
280
     0
102
RTVSPost2010PropOp34
 70
     1
102
RTVSPost2010Prop35
280
     0
102
RTVSPost2010PropOp35
 70
     1
102
RTVSPost2010Prop36
280
     0
102
RTVSPost2010PropOp36
 70
     1
102
RTVSPost2010Prop37
 90
       50
102
RTVSPost2010PropOp37
 70
     1
102
RTVSPost2010Prop38
140
0.0
102
RTVSPost2010PropOp38
 70
     1
102
RTVSPost2010Prop39
140
1.0
102
RTVSPost2010PropOp39
 70
     1
102
RTVSPost2010Prop40
 90
        0
102
RTVSPost2010PropOp40
 70
     1
102
RTVSPost2010Prop41ColorIndex
 90
       18
102
RTVSPost2010Prop41ColorRGB
 90
        0
102
RTVSPost2010PropOp41
 70
     1
102
RTVSPost2010Prop42
 90
       50
102
RTVSPost2010PropOp42
 70
     1
102
RTVSPost2010Prop43
 90
        3
102
RTVSPost2010PropOp43
 70
     1
102
RTVSPost2010Prop44ColorIndex
 90
        5
102
RTVSPost2010Prop44ColorRGB
 90
      255
102
RTVSPost2010PropOp44
 70
     1
102
RTVSPost2010Prop45
280
     0
102
RTVSPost2010PropOp45
 70
     1
102
RTVSPost2010Prop46
 90
       50
102
RTVSPost2010PropOp46
 70
     1
102
RTVSPost2010Prop47
 90
       50
102
RTVSPost2010PropOp47
 70
     1
102
RTVSPost2010Prop48
 90
       50
102
RTVSPost2010PropOp48
 70
     1
102
RTVSPost2010Prop49
280
     0
102
RTVSPost2010PropOp49
 70
     1
102
RTVSPost2010Prop50
 90
       50
102
RTVSPost2010PropOp50
 70
     1
102
RTVSPost2010Prop51ColorIndex
 90
      256
102
RTVSPost2010Prop51ColorRGB
 90
-16777216
102
RTVSPost2010PropOp51
 70
     0
102
RTVSPost2010Prop52
140
1.0
102
RTVSPost2010PropOp52
 70
     0
102
RTVSPost2010Prop53
 90
        2
102
RTVSPost2010PropOp53
 70
     1
102
RTVSPost2010Prop54
  1
strokes_ogs.tif
102
RTVSPost2010PropOp54
 70
     1
102
RTVSPost2010Prop55
280
     0
102
RTVSPost2010PropOp55
 70
     1
102
RTVSPost2010Prop56
140
1.0
102
RTVSPost2010PropOp56
 70
     1
102
RTVSPost2010Prop57
140
1.0
102
RTVSPost2010PropOp57
 70
     1
  0
XRECORD
  5
11B
102
{ACAD_REACTORS
330
11A
102
}
330
11A
100
AcDbXrecord
280
     1
102
RTVSPost2010Prop28
280
     0
102
RTVSPost2010PropOp28
 70
     1
102
RTVSPost2010Prop29
280
     1
102
RTVSPost2010PropOp29
 70
     1
102
RTVSPost2010Prop30
280
     1
102
RTVSPost2010PropOp30
 70
     1
102
RTVSPost2010Prop31
280
     0
102
RTVSPost2010PropOp31
 70
     1
102
RTVSPost2010Prop32
280
     0
102
RTVSPost2010PropOp32
 70
     1
102
RTVSPost2010Prop33
280
     0
102
RTVSPost2010PropOp33
 70
     1
102
RTVSPost2010Prop34
280
     0
102
RTVSPost2010PropOp34
 70
     1
102
RTVSPost2010Prop35
280
     0
102
RTVSPost2010PropOp35
 70
     1
102
RTVSPost2010Prop36
280
     0
102
RTVSPost2010PropOp36
 70
     1
102
RTVSPost2010Prop37
 90
       50
102
RTVSPost2010PropOp37
 70
     1
102
RTVSPost2010Prop38
140
0.0
102
RTVSPost2010PropOp38
 70
     1
102
RTVSPost2010Prop39
140
1.0
102
RTVSPost2010PropOp39
 70
     1
102
RTVSPost2010Prop40
 90
        0
102
RTVSPost2010PropOp40
 70
     1
102
RTVSPost2010Prop41ColorIndex
 90
       18
102
RTVSPost2010Prop41ColorRGB
 90
        0
102
RTVSPost2010PropOp41
 70
     1
102
RTVSPost2010Prop42
 90
       50
102
RTVSPost2010PropOp42
 70
     1
102
RTVSPost2010Prop43
 90
        3
102
RTVSPost2010PropOp43
 70
     1
102
RTVSPost2010Prop44ColorIndex
 90
        5
102
RTVSPost2010Prop44ColorRGB
 90
      255
102
RTVSPost2010PropOp44
 70
     1
102
RTVSPost2010Prop45
280
     0
102
RTVSPost2010PropOp45
 70
     1
102
RTVSPost2010Prop46
 90
       50
102
RTVSPost2010PropOp46
 70
     1
102
RTVSPost2010Prop47
 90
       50
102
RTVSPost2010PropOp47
 70
     1
102
RTVSPost2010Prop48
 90
       50
102
RTVSPost2010PropOp48
 70
     1
102
RTVSPost2010Prop49
280
     0
102
RTVSPost2010PropOp49
 70
     1
102
RTVSPost2010Prop50
 90
       50
102
RTVSPost2010PropOp50
 70
     1
102
RTVSPost2010Prop51ColorIndex
 90
      256
102
RTVSPost2010Prop51ColorRGB
 90
-16777216
102
RTVSPost2010PropOp51
 70
     0
102
RTVSPost2010Prop52
140
1.0
102
RTVSPost2010PropOp52
 70
     0
102
RTVSPost2010Prop53
 90
        2
102
RTVSPost2010PropOp53
 70
     1
102
RTVSPost2010Prop54
  1
strokes_ogs.tif
102
RTVSPost2010PropOp54
 70
     1
102
RTVSPost2010Prop55
280
     0
102
RTVSPost2010PropOp55
 70
     1
102
RTVSPost2010Prop56
140
1.0
102
RTVSPost2010PropOp56
 70
     1
102
RTVSPost2010Prop57
140
1.0
102
RTVSPost2010PropOp57
 70
     1
  0
XRECORD
  5
133
102
{ACAD_REACTORS
330
132
102
}
330
132
100
AcDbXrecord
280
     1
102
RTVSPost2010Prop28
280
     0
102
RTVSPost2010PropOp28
 70
     1
102
RTVSPost2010Prop29
280
     1
102
RTVSPost2010PropOp29
 70
     1
102
RTVSPost2010Prop30
280
     1
102
RTVSPost2010PropOp30
 70
     1
102
RTVSPost2010Prop31
280
     0
102
RTVSPost2010PropOp31
 70
     1
102
RTVSPost2010Prop32
280
     0
102
RTVSPost2010PropOp32
 70
     1
102
RTVSPost2010Prop33
280
     0
102
RTVSPost2010PropOp33
 70
     1
102
RTVSPost2010Prop34
280
     0
102
RTVSPost2010PropOp34
 70
     1
102
RTVSPost2010Prop35
280
     0
102
RTVSPost2010PropOp35
 70
     1
102
RTVSPost2010Prop36
280
     0
102
RTVSPost2010PropOp36
 70
     1
102
RTVSPost2010Prop37
 90
       50
102
RTVSPost2010PropOp37
 70
     1
102
RTVSPost2010Prop38
140
0.0
102
RTVSPost2010PropOp38
 70
     1
102
RTVSPost2010Prop39
140
1.0
102
RTVSPost2010PropOp39
 70
     1
102
RTVSPost2010Prop40
 90
        0
102
RTVSPost2010PropOp40
 70
     1
102
RTVSPost2010Prop41ColorIndex
 90
       18
102
RTVSPost2010Prop41ColorRGB
 90
        0
102
RTVSPost2010PropOp41
 70
     1
102
RTVSPost2010Prop42
 90
       50
102
RTVSPost2010PropOp42
 70
     1
102
RTVSPost2010Prop43
 90
        3
102
RTVSPost2010PropOp43
 70
     1
102
RTVSPost2010Prop44ColorIndex
 90
        5
102
RTVSPost2010Prop44ColorRGB
 90
      255
102
RTVSPost2010PropOp44
 70
     1
102
RTVSPost2010Prop45
280
     0
102
RTVSPost2010PropOp45
 70
     1
102
RTVSPost2010Prop46
 90
       50
102
RTVSPost2010PropOp46
 70
     1
102
RTVSPost2010Prop47
 90
       50
102
RTVSPost2010PropOp47
 70
     1
102
RTVSPost2010Prop48
 90
       50
102
RTVSPost2010PropOp48
 70
     1
102
RTVSPost2010Prop49
280
     0
102
RTVSPost2010PropOp49
 70
     1
102
RTVSPost2010Prop50
 90
       50
102
RTVSPost2010PropOp50
 70
     1
102
RTVSPost2010Prop51ColorIndex
 90
      256
102
RTVSPost2010Prop51ColorRGB
 90
-16777216
102
RTVSPost2010PropOp51
 70
     0
102
RTVSPost2010Prop52
140
1.0
102
RTVSPost2010PropOp52
 70
     0
102
RTVSPost2010Prop53
 90
        2
102
RTVSPost2010PropOp53
 70
     1
102
RTVSPost2010Prop54
  1
strokes_ogs.tif
102
RTVSPost2010PropOp54
 70
     1
102
RTVSPost2010Prop55
280
     0
102
RTVSPost2010PropOp55
 70
     1
102
RTVSPost2010Prop56
140
1.0
102
RTVSPost2010PropOp56
 70
     1
102
RTVSPost2010Prop57
140
1.0
102
RTVSPost2010PropOp57
 70
     1
  0
ENDSEC
  0
EOF
