  0
SECTION
  2
HEADER
  9
$ACADVER
  1
AC1024
  9
$ACADMAINTVER
 70
     6
  9
$DWGCODEPAGE
  3
UNDEFINED
  9
$INSBASE
 10
0.0
 20
0.0
 30
0.0
  9
$EXTMIN
 10
1.000000000000000E+20
 20
1.000000000000000E+20
 30
1.000000000000000E+20
  9
$EXTMAX
 10
-1.000000000000000E+20
 20
-1.000000000000000E+20
 30
-1.000000000000000E+20
  9
$LIMMIN
 10
0.0
 20
0.0
  9
$LIMMAX
 10
12.0
 20
9.0
  9
$ORTHOMODE
 70
     0
  9
$REGENMODE
 70
     1
  9
$FILLMODE
 70
     1
  9
$QTEXTMODE
 70
     0
  9
$MIRRTEXT
 70
     1
  9
$LTSCALE
 40
1.0
  9
$ATTMODE
 70
     1
  9
$TEXTSIZE
 40
0.2
  9
$TRACEWID
 40
0.05
  9
$TEXTSTYLE
  7
Standard
  9
$CLAYER
  8
0
  9
$CELTYPE
  6
ByLayer
  9
$CECOLOR
 62
   256
  9
$CELTSCALE
 40
1.0
  9
$DISPSILH
 70
     0
  9
$DIMSCALE
 40
1.0
  9
$DIMASZ
 40
0.18
  9
$DIMEXO
 40
0.0625
  9
$DIMDLI
 40
0.38
  9
$DIMRND
 40
0.0
  9
$DIMDLE
 40
0.0
  9
$DIMEXE
 40
0.18
  9
$DIMTP
 40
0.0
  9
$DIMTM
 40
0.0
  9
$DIMTXT
 40
0.18
  9
$DIMCEN
 40
0.09
  9
$DIMTSZ
 40
0.0
  9
$DIMTOL
 70
     0
  9
$DIMLIM
 70
     0
  9
$DIMTIH
 70
     1
  9
$DIMTOH
 70
     1
  9
$DIMSE1
 70
     0
  9
$DIMSE2
 70
     0
  9
$DIMTAD
 70
     0
  9
$DIMZIN
 70
     0
  9
$DIMBLK
  1

  9
$DIMASO
 70
     1
  9
$DIMSHO
 70
     1
  9
$DIMPOST
  1

  9
$DIMAPOST
  1

  9
$DIMALT
 70
     0
  9
$DIMALTD
 70
     2
  9
$DIMALTF
 40
25.4
  9
$DIMLFAC
 40
1.0
  9
$DIMTOFL
 70
     0
  9
$DIMTVP
 40
0.0
  9
$DIMTIX
 70
     0
  9
$DIMSOXD
 70
     0
  9
$DIMSAH
 70
     0
  9
$DIMBLK1
  1

  9
$DIMBLK2
  1

  9
$DIMSTYLE
  2
Standard
  9
$DIMCLRD
 70
     0
  9
$DIMCLRE
 70
     0
  9
$DIMCLRT
 70
     0
  9
$DIMTFAC
 40
1.0
  9
$DIMGAP
 40
0.09
  9
$DIMJUST
 70
     0
  9
$DIMSD1
 70
     0
  9
$DIMSD2
 70
     0
  9
$DIMTOLJ
 70
     1
  9
$DIMTZIN
 70
     0
  9
$DIMALTZ
 70
     0
  9
$DIMALTTZ
 70
     0
  9
$DIMUPT
 70
     0
  9
$DIMDEC
 70
     4
  9
$DIMTDEC
 70
     4
  9
$DIMALTU
 70
     2
  9
$DIMALTTD
 70
     2
  9
$DIMTXSTY
  7
Standard
  9
$DIMAUNIT
 70
     0
  9
$DIMADEC
 70
     0
  9
$DIMALTRND
 40
0.0
  9
$DIMAZIN
 70
     0
  9
$DIMDSEP
 70
    46
  9
$DIMATFIT
 70
     3
  9
$DIMFRAC
 70
     0
  9
$DIMLDRBLK
  1

  9
$DIMLUNIT
 70
     2
  9
$DIMLWD
 70
    -2
  9
$DIMLWE
 70
    -2
  9
$DIMTMOVE
 70
     0
  9
$DIMFXL
 40
1.0
  9
$DIMFXLON
 70
     0
  9
$DIMJOGANG
 40
0.7853981633974483
  9
$DIMTFILL
 70
     0
  9
$DIMTFILLCLR
 70
     0
  9
$DIMARCSYM
 70
     0
  9
$DIMLTYPE
  6

  9
$DIMLTEX1
  6

  9
$DIMLTEX2
  6

  9
$DIMTXTDIRECTION
 70
     0
  9
$LUNITS
 70
     2
  9
$LUPREC
 70
     4
  9
$SKETCHINC
 40
0.1
  9
$FILLETRAD
 40
0.5
  9
$AUNITS
 70
     0
  9
$AUPREC
 70
     0
  9
$MENU
  1
.
  9
$ELEVATION
 40
0.0
  9
$PELEVATION
 40
0.0
  9
$THICKNESS
 40
0.0
  9
$LIMCHECK
 70
     0
  9
$CHAMFERA
 40
0.5
  9
$CHAMFERB
 40
0.5
  9
$CHAMFERC
 40
1.0
  9
$CHAMFERD
 40
0.0
  9
$SKPOLY
 70
     0
  9
$TDCREATE
 40
2457917.636134259
  9
$TDUCREATE
 40
2457917.261134259
  9
$TDUPDATE
 40
2457917.636134259
  9
$TDUUPDATE
 40
2457917.261134259
  9
$TDINDWG
 40
0.0000000116
  9
$TDUSRTIMER
 40
0.0000000116
  9
$USRTIMER
 70
     1
  9
$ANGBASE
 50
0.0
  9
$ANGDIR
 70
     0
  9
$PDMODE
 70
     0
  9
$PDSIZE
 40
0.0
  9
$PLINEWID
 40
0.0
  9
$SPLFRAME
 70
     0
  9
$SPLINETYPE
 70
     6
  9
$SPLINESEGS
 70
     8
  9
$HANDSEED
  5
C2
  9
$SURFTAB1
 70
     6
  9
$SURFTAB2
 70
     6
  9
$SURFTYPE
 70
     6
  9
$SURFU
 70
     6
  9
$SURFV
 70
     6
  9
$UCSBASE
  2

  9
$UCSNAME
  2

  9
$UCSORG
 10
0.0
 20
0.0
 30
0.0
  9
$UCSXDIR
 10
1.0
 20
0.0
 30
0.0
  9
$UCSYDIR
 10
0.0
 20
1.0
 30
0.0
  9
$UCSORTHOREF
  2

  9
$UCSORTHOVIEW
 70
     0
  9
$UCSORGTOP
 10
0.0
 20
0.0
 30
0.0
  9
$UCSORGBOTTOM
 10
0.0
 20
0.0
 30
0.0
  9
$UCSORGLEFT
 10
0.0
 20
0.0
 30
0.0
  9
$UCSORGRIGHT
 10
0.0
 20
0.0
 30
0.0
  9
$UCSORGFRONT
 10
0.0
 20
0.0
 30
0.0
  9
$UCSORGBACK
 10
0.0
 20
0.0
 30
0.0
  9
$PUCSBASE
  2

  9
$PUCSNAME
  2

  9
$PUCSORG
 10
0.0
 20
0.0
 30
0.0
  9
$PUCSXDIR
 10
1.0
 20
0.0
 30
0.0
  9
$PUCSYDIR
 10
0.0
 20
1.0
 30
0.0
  9
$PUCSORTHOREF
  2

  9
$PUCSORTHOVIEW
 70
     0
  9
$PUCSORGTOP
 10
0.0
 20
0.0
 30
0.0
  9
$PUCSORGBOTTOM
 10
0.0
 20
0.0
 30
0.0
  9
$PUCSORGLEFT
 10
0.0
 20
0.0
 30
0.0
  9
$PUCSORGRIGHT
 10
0.0
 20
0.0
 30
0.0
  9
$PUCSORGFRONT
 10
0.0
 20
0.0
 30
0.0
  9
$PUCSORGBACK
 10
0.0
 20
0.0
 30
0.0
  9
$USERI1
 70
     0
  9
$USERI2
 70
     0
  9
$USERI3
 70
     0
  9
$USERI4
 70
     0
  9
$USERI5
 70
     0
  9
$USERR1
 40
0.0
  9
$USERR2
 40
0.0
  9
$USERR3
 40
0.0
  9
$USERR4
 40
0.0
  9
$USERR5
 40
0.0
  9
$WORLDVIEW
 70
     1
  9
$SHADEDGE
 70
     3
  9
$SHADEDIF
 70
    70
  9
$TILEMODE
 70
     1
  9
$MAXACTVP
 70
    64
  9
$PINSBASE
 10
0.0
 20
0.0
 30
0.0
  9
$PLIMCHECK
 70
     0
  9
$PEXTMIN
 10
1.000000000000000E+20
 20
1.000000000000000E+20
 30
1.000000000000000E+20
  9
$PEXTMAX
 10
-1.000000000000000E+20
 20
-1.000000000000000E+20
 30
-1.000000000000000E+20
  9
$PLIMMIN
 10
0.0
 20
0.0
  9
$PLIMMAX
 10
12.0
 20
9.0
  9
$UNITMODE
 70
     0
  9
$VISRETAIN
 70
     1
  9
$PLINEGEN
 70
     0
  9
$PSLTSCALE
 70
     1
  9
$TREEDEPTH
 70
  3020
  9
$CMLSTYLE
  2
Standard
  9
$CMLJUST
 70
     0
  9
$CMLSCALE
 40
1.0
  9
$PROXYGRAPHICS
 70
     1
  9
$MEASUREMENT
 70
     0
  9
$CELWEIGHT
370
    -1
  9
$ENDCAPS
280
     0
  9
$JOINSTYLE
280
     0
  9
$LWDISPLAY
290
     1
  9
$INSUNITS
 70
     1
  9
$HYPERLINKBASE
  1

  9
$STYLESHEET
  1

  9
$XEDIT
290
     1
  9
$CEPSNTYPE
380
     0
  9
$PSTYLEMODE
290
     1
  9
$FINGERPRINTGUID
  2
{EFA904B8-5B3C-BEB4-A1D0-C38D3B08C77D}
  9
$VERSIONGUID
  2
{FAEB1C32-E019-11D5-929B-00C0DF256EC4}
  9
$EXTNAMES
290
     1
  9
$PSVPSCALE
 40
0.0
  9
$OLESTARTUP
290
     0
  9
$SORTENTS
280
   127
  9
$INDEXCTL
280
     0
  9
$HIDETEXT
280
     1
  9
$XCLIPFRAME
280
     2
  9
$HALOGAP
280
     0
  9
$OBSCOLOR
 70
   257
  9
$OBSLTYPE
280
     0
  9
$INTERSECTIONDISPLAY
280
     0
  9
$INTERSECTIONCOLOR
 70
   257
  9
$DIMASSOC
280
     2
  9
$PROJECTNAME
  1

  9
$CAMERADISPLAY
290
     0
  9
$LENSLENGTH
 40
50.0
  9
$CAMERAHEIGHT
 40
0.0
  9
$STEPSPERSEC
 40
2.0
  9
$STEPSIZE
 40
6.0
  9
$3DDWFPREC
 40
2.0
  9
$PSOLWIDTH
 40
0.25
  9
$PSOLHEIGHT
 40
4.0
  9
$LOFTANG1
 40
1.570796326794897
  9
$LOFTANG2
 40
1.570796326794897
  9
$LOFTMAG1
 40
0.0
  9
$LOFTMAG2
 40
0.0
  9
$LOFTPARAM
 70
     7
  9
$LOFTNORMALS
280
     1
  9
$LATITUDE
 40
37.795
  9
$LONGITUDE
 40
-122.394
  9
$NORTHDIRECTION
 40
0.0
  9
$TIMEZONE
 70
 -8000
  9
$LIGHTGLYPHDISPLAY
280
     1
  9
$TILEMODELIGHTSYNCH
280
     1
  9
$CMATERIAL
347
3C
  9
$SOLIDHIST
280
     1
  9
$SHOWHIST
280
     1
  9
$DWFFRAME
280
     2
  9
$DGNFRAME
280
     2
  9
$REALWORLDSCALE
290
     1
  9
$INTERFERECOLOR
 62
   256
  9
$CSHADOW
280
     0
  9
$SHADOWPLANELOCATION
 40
0.0
  0
ENDSEC
  0
SECTION
  2
CLASSES
  0
CLASS
  1
ACDBDICTIONARYWDFLT
  2
AcDbDictionaryWithDefault
  3
ObjectDBX Classes
 90
        0
 91
        4
280
     0
281
     0
  0
CLASS
  1
VISUALSTYLE
  2
AcDbVisualStyle
  3
ObjectDBX Classes
 90
     4095
 91
        4
280
     0
281
     0
  0
CLASS
  1
MATERIAL
  2
AcDbMaterial
  3
ObjectDBX Classes
 90
     1153
 91
        4
280
     0
281
     0
  0
CLASS
  1
SUN
  2
AcDbSun
  3
SCENEOE
 90
     1024
 91
        4
280
     0
281
     0
  0
ENDSEC
  0
SECTION
  2
TABLES
  0
TABLE
  2
VPORT
  5
8
330
0
100
AcDbSymbolTable
 70
     1
  0
VPORT
  5
29
330
8
100
AcDbSymbolTableRecord
100
AcDbViewportTableRecord
  2
*Active
 70
     0
 10
0.0
 20
0.0
 11
1.0
 21
1.0
 12
0.0
 22
0.0
 13
0.0
 23
0.0
 14
0.5
 24
0.5
 15
0.5
 25
0.5
 16
0.0
 26
0.0
 36
1.0
 17
91.00082462281999
 27
-128.4993055234307
 37
0.0
 40
256.9986110468615
 41
0.7081814508812795
 42
50.0
 43
0.0
 44
0.0
 50
0.0
 51
0.0
 71
     0
 72
   100
 73
     1
 74
     3
 75
     0
 76
     0
 77
     0
 78
     0
281
     0
 65
     1
110
0.0
120
0.0
130
0.0
111
1.0
121
0.0
131
0.0
112
0.0
122
1.0
132
0.0
 79
     0
146
0.0
 60
     3
 61
     5
292
     1
282
     1
141
0.0
142
0.0
 63
   250
361
3F
  0
ENDTAB
  0
TABLE
  2
LTYPE
  5
5
330
0
100
AcDbSymbolTable
 70
     1
  0
LTYPE
  5
14
330
5
100
AcDbSymbolTableRecord
100
AcDbLinetypeTableRecord
  2
ByBlock
 70
     0
  3

 72
    65
 73
     0
 40
0.0
  0
LTYPE
  5
15
330
5
100
AcDbSymbolTableRecord
100
AcDbLinetypeTableRecord
  2
ByLayer
 70
     0
  3

 72
    65
 73
     0
 40
0.0
  0
LTYPE
  5
16
330
5
100
AcDbSymbolTableRecord
100
AcDbLinetypeTableRecord
  2
Continuous
 70
     0
  3
Solid line
 72
    65
 73
     0
 40
0.0
  0
ENDTAB
  0
TABLE
  2
LAYER
  5
2
330
0
100
AcDbSymbolTable
 70
     2
  0
LAYER
  5
10
330
2
100
AcDbSymbolTableRecord
100
AcDbLayerTableRecord
  2
0
 70
     0
 62
     7
  6
Continuous
370
    -3
390
F
347
3E
  0
LAYER
  5
40
330
2
100
AcDbSymbolTableRecord
100
AcDbLayerTableRecord
  2
_U+30EC_U+30A4_U+30E4_U+30FC 1
 70
     0
 62
     7
  6
Continuous
370
    -3
390
F
347
3E
  0
ENDTAB
  0
TABLE
  2
STYLE
  5
3
330
0
100
AcDbSymbolTable
 70
     1
  0
STYLE
  5
11
330
3
100
AcDbSymbolTableRecord
100
AcDbTextStyleTableRecord
  2
Standard
 70
     0
 40
0.0
 41
1.0
 50
0.0
 71
     0
 42
0.2
  3
txt
  4

  0
ENDTAB
  0
TABLE
  2
VIEW
  5
6
330
0
100
AcDbSymbolTable
 70
     0
  0
ENDTAB
  0
TABLE
  2
UCS
  5
7
330
0
100
AcDbSymbolTable
 70
     0
  0
ENDTAB
  0
TABLE
  2
APPID
  5
9
330
0
100
AcDbSymbolTable
 70
     1
  0
APPID
  5
12
330
9
100
AcDbSymbolTableRecord
100
AcDbRegAppTableRecord
  2
ACAD
 70
     0
  0
ENDTAB
  0
TABLE
  2
DIMSTYLE
  5
A
330
0
100
AcDbSymbolTable
 70
     1
100
AcDbDimStyleTable
  0
DIMSTYLE
105
27
330
A
100
AcDbSymbolTableRecord
100
AcDbDimStyleTableRecord
  2
Standard
 70
     0
178
     0
340
11
  0
ENDTAB
  0
TABLE
  2
BLOCK_RECORD
  5
1
330
0
100
AcDbSymbolTable
 70
     3
  0
BLOCK_RECORD
  5
1F
330
1
100
AcDbSymbolTableRecord
100
AcDbBlockTableRecord
  2
*Model_Space
340
22
 70
     0
280
     1
281
     0
  0
BLOCK_RECORD
  5
1B
330
1
100
AcDbSymbolTableRecord
100
AcDbBlockTableRecord
  2
*Paper_Space
340
1E
 70
     0
280
     1
281
     0
  0
BLOCK_RECORD
  5
23
330
1
100
AcDbSymbolTableRecord
100
AcDbBlockTableRecord
  2
*Paper_Space0
340
26
 70
     0
280
     1
281
     0
  0
BLOCK_RECORD
  5
4F
330
1
100
AcDbSymbolTableRecord
100
AcDbBlockTableRecord
  2
block 2
340
0
102
{BLKREFS
331
50
102
}
 70
     0
280
     1
281
     0
  0
BLOCK_RECORD
  5
B4
330
1
100
AcDbSymbolTableRecord
100
AcDbBlockTableRecord
  2
block 3
340
0
102
{BLKREFS
331
B5
102
}
 70
     0
280
     1
281
     0
  0
ENDTAB
  0
ENDSEC
  0
SECTION
  2
BLOCKS
  0
BLOCK
  5
20
330
1F
100
AcDbEntity
  8
0
100
AcDbBlockBegin
  2
*Model_Space
 70
     0
 10
0.0
 20
0.0
 30
0.0
  3
*Model_Space
  1

  0
ENDBLK
  5
21
330
1F
100
AcDbEntity
  8
0
100
AcDbBlockEnd
  0
BLOCK
  5
1C
330
1B
100
AcDbEntity
 67
     1
  8
0
100
AcDbBlockBegin
  2
*Paper_Space
 70
     0
 10
0.0
 20
0.0
 30
0.0
  3
*Paper_Space
  1

  0
ENDBLK
  5
1D
330
1B
100
AcDbEntity
 67
     1
  8
0
100
AcDbBlockEnd
  0
BLOCK
  5
24
330
23
100
AcDbEntity
  8
0
100
AcDbBlockBegin
  2
*Paper_Space0
 70
     0
 10
0.0
 20
0.0
 30
0.0
  3
*Paper_Space0
  1

  0
ENDBLK
  5
25
330
23
100
AcDbEntity
  8
0
100
AcDbBlockEnd
  0
BLOCK
  5
51
330
4F
100
AcDbEntity
  8
0
100
AcDbBlockBegin
  2
block 2
 70
     0
 10
0.0
 20
0.0
 30
0.0
  3
block 2
  1

  0
SPLINE
  5
53
330
4F
100
AcDbEntity
  8
_U+30EC_U+30A4_U+30E4_U+30FC 1
370
     0
100
AcDbSpline
210
0.0
220
0.0
230
1.0
 70
    11
 71
     3
 72
    44
 73
    40
 74
     0
 42
0.0000000001
 43
0.0000000001
 12
1.0
 22
0.0
 32
0.0
 13
1.0
 23
0.0
 33
0.0
 40
0.0
 40
0.0
 40
0.0
 40
0.0
 40
1.0
 40
1.0
 40
1.0
 40
2.0
 40
2.0
 40
2.0
 40
3.0
 40
3.0
 40
3.0
 40
4.0
 40
4.0
 40
4.0
 40
5.0
 40
5.0
 40
5.0
 40
6.0
 40
6.0
 40
6.0
 40
7.0
 40
7.0
 40
7.0
 40
8.0
 40
8.0
 40
8.0
 40
9.0
 40
9.0
 40
9.0
 40
10.0
 40
10.0
 40
10.0
 40
11.0
 40
11.0
 40
11.0
 40
12.0
 40
12.0
 40
12.0
 40
13.0
 40
13.0
 40
13.0
 40
13.0
 10
109.1681857365969
 20
-134.5568169151455
 30
0.0
 10
109.1402804631663
 20
-134.8248453438979
 30
0.0
 10
109.1330457626473
 20
-134.9437011381391
 30
0.0
 10
109.2074598251287
 20
-135.0759928047727
 30
0.0
 10
109.2074598251287
 20
-135.0759928047727
 30
0.0
 10
109.7283582624985
 20
-134.4975612727992
 30
0.0
 10
109.7283582624985
 20
-134.4975612727992
 30
0.0
 10
109.7283582624985
 20
-134.4975612727992
 30
0.0
 10
109.880975992495
 20
-134.6350205826607
 30
0.0
 10
109.880975992495
 20
-134.6350205826607
 30
0.0
 10
109.880975992495
 20
-134.6350205826607
 30
0.0
 10
109.1929904240907
 20
-135.3987982517406
 30
0.0
 10
109.1929904240907
 20
-135.3987982517406
 30
0.0
 10
108.9483886446379
 20
-135.1362819757645
 30
0.0
 10
108.9342637531484
 20
-135.0349961684982
 30
0.0
 10
108.970092746195
 20
-134.549237705078
 30
0.0
 10
108.9935193954947
 20
-134.2260877485616
 30
0.0
 10
108.9873182236212
 20
-134.1320366418142
 30
0.0
 10
108.8849988877093
 20
-134.0400525923581
 30
0.0
 10
108.7968044432869
 20
-133.9608153961973
 30
0.0
 10
108.6514214138094
 20
-133.9263644413448
 30
0.0
 10
108.5198187662728
 20
-134.0724364899194
 30
0.0
 10
108.3454969347192
 20
-134.2660508561904
 30
0.0
 10
108.5112060275597
 20
-134.4265923058031
 30
0.0
 10
108.5949218478513
 20
-134.5075520497064
 30
0.0
 10
108.5949218478513
 20
-134.5075520497064
 30
0.0
 10
108.4450601942429
 20
-134.6742946711925
 30
0.0
 10
108.4450601942429
 20
-134.6742946711925
 30
0.0
 10
108.3561767307235
 20
-134.5829996408334
 30
0.0
 10
108.2800401204994
 20
-134.4999728396389
 30
0.0
 10
108.2455891656469
 20
-134.3611354915833
 30
0.0
 10
108.1997693956931
 20
-134.1716552398946
 30
0.0
 10
108.2993326552168
 20
-134.0107692807334
 30
0.0
 10
108.3771918131835
 20
-133.9242973840537
 30
0.0
 10
108.5625379502899
 20
-133.7182806740357
 30
0.0
 10
108.8381455891099
 20
-133.6872748146685
 30
0.0
 10
109.0407172036426
 20
-133.8698648753867
 30
0.0
 10
109.2105604110654
 20
-134.0228271149318
 30
0.0
 10
109.2067708060316
 20
-134.1757893544769
 30
0.0
 10
109.1681857365969
 20
-134.5568169151455
 30
0.0
  0
HATCH
  5
54
330
4F
100
AcDbEntity
  8
_U+30EC_U+30A4_U+30E4_U+30FC 1
 62
   179
420
  2234388
100
AcDbHatch
 10
0.0
 20
0.0
 30
0.0
210
0.0
220
0.0
230
1.0
  2
SOLID
 70
     1
 71
     0
 91
        1
 92
        1
 93
        1
 72
     4
 94
        3
 73
     0
 74
     1
 95
       44
 96
       40
 40
0.0
 40
0.0
 40
0.0
 40
0.0
 40
1.0
 40
1.0
 40
1.0
 40
2.0
 40
2.0
 40
2.0
 40
3.0
 40
3.0
 40
3.0
 40
4.0
 40
4.0
 40
4.0
 40
5.0
 40
5.0
 40
5.0
 40
6.0
 40
6.0
 40
6.0
 40
7.0
 40
7.0
 40
7.0
 40
8.0
 40
8.0
 40
8.0
 40
9.0
 40
9.0
 40
9.0
 40
10.0
 40
10.0
 40
10.0
 40
11.0
 40
11.0
 40
11.0
 40
12.0
 40
12.0
 40
12.0
 40
13.0
 40
13.0
 40
13.0
 40
13.0
 10
109.1681857365969
 20
-134.5568169151455
 10
109.1402804631663
 20
-134.8248453438979
 10
109.1330457626473
 20
-134.9437011381391
 10
109.2074598251287
 20
-135.0759928047727
 10
109.2074598251287
 20
-135.0759928047727
 10
109.7283582624985
 20
-134.4975612727992
 10
109.7283582624985
 20
-134.4975612727992
 10
109.7283582624985
 20
-134.4975612727992
 10
109.880975992495
 20
-134.6350205826607
 10
109.880975992495
 20
-134.6350205826607
 10
109.880975992495
 20
-134.6350205826607
 10
109.1929904240907
 20
-135.3987982517406
 10
109.1929904240907
 20
-135.3987982517406
 10
108.9483886446379
 20
-135.1362819757645
 10
108.9342637531484
 20
-135.0349961684982
 10
108.970092746195
 20
-134.549237705078
 10
108.9935193954947
 20
-134.2260877485616
 10
108.9873182236212
 20
-134.1320366418142
 10
108.8849988877093
 20
-134.0400525923581
 10
108.7968044432869
 20
-133.9608153961973
 10
108.6514214138094
 20
-133.9263644413448
 10
108.5198187662728
 20
-134.0724364899194
 10
108.3454969347192
 20
-134.2660508561904
 10
108.5112060275597
 20
-134.4265923058031
 10
108.5949218478513
 20
-134.5075520497064
 10
108.5949218478513
 20
-134.5075520497064
 10
108.4450601942429
 20
-134.6742946711925
 10
108.4450601942429
 20
-134.6742946711925
 10
108.3561767307235
 20
-134.5829996408334
 10
108.2800401204994
 20
-134.4999728396389
 10
108.2455891656469
 20
-134.3611354915833
 10
108.1997693956931
 20
-134.1716552398946
 10
108.2993326552168
 20
-134.0107692807334
 10
108.3771918131835
 20
-133.9242973840537
 10
108.5625379502899
 20
-133.7182806740357
 10
108.8381455891099
 20
-133.6872748146685
 10
109.0407172036426
 20
-133.8698648753867
 10
109.2105604110654
 20
-134.0228271149318
 10
109.2067708060316
 20
-134.1757893544769
 10
109.1681857365969
 20
-134.5568169151455
 97
        0
 97
        0
 75
     2
 76
     1
 98
        0
  0
SPLINE
  5
55
330
4F
100
AcDbEntity
  8
_U+30EC_U+30A4_U+30E4_U+30FC 1
370
     0
100
AcDbSpline
210
0.0
220
0.0
230
1.0
 70
    11
 71
     3
 72
    62
 73
    58
 74
     0
 42
0.0000000001
 43
0.0000000001
 12
1.0
 22
0.0
 32
0.0
 13
1.0
 23
0.0
 33
0.0
 40
0.0
 40
0.0
 40
0.0
 40
0.0
 40
1.0
 40
1.0
 40
1.0
 40
2.0
 40
2.0
 40
2.0
 40
3.0
 40
3.0
 40
3.0
 40
4.0
 40
4.0
 40
4.0
 40
5.0
 40
5.0
 40
5.0
 40
6.0
 40
6.0
 40
6.0
 40
7.0
 40
7.0
 40
7.0
 40
8.0
 40
8.0
 40
8.0
 40
9.0
 40
9.0
 40
9.0
 40
10.0
 40
10.0
 40
10.0
 40
11.0
 40
11.0
 40
11.0
 40
12.0
 40
12.0
 40
12.0
 40
13.0
 40
13.0
 40
13.0
 40
14.0
 40
14.0
 40
14.0
 40
15.0
 40
15.0
 40
15.0
 40
16.0
 40
16.0
 40
16.0
 40
17.0
 40
17.0
 40
17.0
 40
18.0
 40
18.0
 40
18.0
 40
19.0
 40
19.0
 40
19.0
 40
19.0
 10
110.3577772076536
 20
-134.1809569977048
 30
0.0
 10
110.2940429411765
 20
-134.2519259647009
 30
0.0
 10
110.1324679629183
 20
-134.3993760514696
 30
0.0
 10
109.9106038136682
 20
-134.3676811730053
 30
0.0
 10
109.7779676374861
 20
-134.3476996191908
 30
0.0
 10
109.701142008165
 20
-134.2843098622623
 30
0.0
 10
109.6353406843967
 20
-134.2309108822409
 30
0.0
 10
109.6353406843967
 20
-134.2309108822409
 30
0.0
 10
109.7827907711654
 20
-134.0672688466915
 30
0.0
 10
109.7827907711654
 20
-134.0672688466915
 30
0.0
 10
109.8392903371235
 20
-134.115500183485
 30
0.0
 10
110.0208468691962
 20
-134.2646728179963
 30
0.0
 10
110.2103271208849
 20
-134.053832974299
 30
0.0
 10
110.3023111703411
 20
-133.9518581479356
 30
0.0
 10
110.3526095644257
 20
-133.7920057174201
 30
0.0
 10
110.1827663570029
 20
-133.639043477875
 30
0.0
 10
110.0962944603232
 20
-133.5611843199083
 30
0.0
 10
110.0346272511372
 20
-133.5567056957775
 30
0.0
 10
109.9898410098289
 20
-133.5591172626172
 30
0.0
 10
109.8851101070773
 20
-133.5646294153936
 30
0.0
 10
109.7979491913005
 20
-133.6424885733602
 30
0.0
 10
109.7610866696083
 20
-133.6834852096347
 30
0.0
 10
109.7483398163129
 20
-133.6976101011242
 30
0.0
 10
109.7259466956588
 20
-133.7258598841033
 30
0.0
 10
109.7104437659752
 20
-133.7489420238544
 30
0.0
 10
109.7104437659752
 20
-133.7489420238544
 30
0.0
 10
109.5660942651432
 20
-133.618717414512
 30
0.0
 10
109.5660942651432
 20
-133.618717414512
 30
0.0
 10
109.5960665958649
 20
-133.5949462556638
 30
0.0
 10
109.6260389265865
 20
-133.5646294153936
 30
0.0
 10
109.6301730411688
 20
-133.5601507912627
 30
0.0
 10
109.6742702633801
 20
-133.5112304353722
 30
0.0
 10
109.7914035098785
 20
-133.3493109475654
 30
0.0
 10
109.6153591305823
 20
-133.190836555244
 30
0.0
 10
109.4834119734972
 20
-133.0719807610028
 30
0.0
 10
109.3545654023489
 20
-133.1326144415432
 30
0.0
 10
109.281184868513
 20
-133.2142632045437
 30
0.0
 10
109.1041069605712
 20
-133.4109781567514
 30
0.0
 10
109.2715386011543
 20
-133.5728976445582
 30
0.0
 10
109.3221815047875
 20
-133.6242295672884
 30
0.0
 10
109.3221815047875
 20
-133.6242295672884
 30
0.0
 10
109.1861002331201
 20
-133.7751247495423
 30
0.0
 10
109.1861002331201
 20
-133.7751247495423
 30
0.0
 10
109.0989393173433
 20
-133.6852077573773
 30
0.0
 10
108.8374565700129
 20
-133.4127007044941
 30
0.0
 10
109.1433810491031
 20
-133.0733587991969
 30
0.0
 10
109.2935872122599
 20
-132.9066161777108
 30
0.0
 10
109.5492132972655
 20
-132.812220561415
 30
0.0
 10
109.7693548987729
 20
-133.0106580613654
 30
0.0
 10
109.9075032277315
 20
-133.1350260083829
 30
0.0
 10
109.9050916608918
 20
-133.2611165031431
 30
0.0
 10
109.8844210879803
 20
-133.3758381828019
 30
0.0
 10
109.9457437876177
 20
-133.3486219284684
 30
0.0
 10
110.1273003196904
 20
-133.2673176750165
 30
0.0
 10
110.3333170297083
 20
-133.4526638121229
 30
0.0
 10
110.5848090001316
 20
-133.6793510950524
 30
0.0
 10
110.5431233447601
 20
-133.9749402876868
 30
0.0
 10
110.3577772076536
 20
-134.1809569977048
 30
0.0
  0
HATCH
  5
56
330
4F
100
AcDbEntity
  8
_U+30EC_U+30A4_U+30E4_U+30FC 1
 62
   179
420
  2234388
100
AcDbHatch
 10
0.0
 20
0.0
 30
0.0
210
0.0
220
0.0
230
1.0
  2
SOLID
 70
     1
 71
     0
 91
        1
 92
        1
 93
        1
 72
     4
 94
        3
 73
     0
 74
     1
 95
       62
 96
       58
 40
0.0
 40
0.0
 40
0.0
 40
0.0
 40
1.0
 40
1.0
 40
1.0
 40
2.0
 40
2.0
 40
2.0
 40
3.0
 40
3.0
 40
3.0
 40
4.0
 40
4.0
 40
4.0
 40
5.0
 40
5.0
 40
5.0
 40
6.0
 40
6.0
 40
6.0
 40
7.0
 40
7.0
 40
7.0
 40
8.0
 40
8.0
 40
8.0
 40
9.0
 40
9.0
 40
9.0
 40
10.0
 40
10.0
 40
10.0
 40
11.0
 40
11.0
 40
11.0
 40
12.0
 40
12.0
 40
12.0
 40
13.0
 40
13.0
 40
13.0
 40
14.0
 40
14.0
 40
14.0
 40
15.0
 40
15.0
 40
15.0
 40
16.0
 40
16.0
 40
16.0
 40
17.0
 40
17.0
 40
17.0
 40
18.0
 40
18.0
 40
18.0
 40
19.0
 40
19.0
 40
19.0
 40
19.0
 10
110.3577772076536
 20
-134.1809569977048
 10
110.2940429411765
 20
-134.2519259647009
 10
110.1324679629183
 20
-134.3993760514696
 10
109.9106038136682
 20
-134.3676811730053
 10
109.7779676374861
 20
-134.3476996191908
 10
109.701142008165
 20
-134.2843098622623
 10
109.6353406843967
 20
-134.2309108822409
 10
109.6353406843967
 20
-134.2309108822409
 10
109.7827907711654
 20
-134.0672688466915
 10
109.7827907711654
 20
-134.0672688466915
 10
109.8392903371235
 20
-134.115500183485
 10
110.0208468691962
 20
-134.2646728179963
 10
110.2103271208849
 20
-134.053832974299
 10
110.3023111703411
 20
-133.9518581479356
 10
110.3526095644257
 20
-133.7920057174201
 10
110.1827663570029
 20
-133.639043477875
 10
110.0962944603232
 20
-133.5611843199083
 10
110.0346272511372
 20
-133.5567056957775
 10
109.9898410098289
 20
-133.5591172626172
 10
109.8851101070773
 20
-133.5646294153936
 10
109.7979491913005
 20
-133.6424885733602
 10
109.7610866696083
 20
-133.6834852096347
 10
109.7483398163129
 20
-133.6976101011242
 10
109.7259466956588
 20
-133.7258598841033
 10
109.7104437659752
 20
-133.7489420238544
 10
109.7104437659752
 20
-133.7489420238544
 10
109.5660942651432
 20
-133.618717414512
 10
109.5660942651432
 20
-133.618717414512
 10
109.5960665958649
 20
-133.5949462556638
 10
109.6260389265865
 20
-133.5646294153936
 10
109.6301730411688
 20
-133.5601507912627
 10
109.6742702633801
 20
-133.5112304353722
 10
109.7914035098785
 20
-133.3493109475654
 10
109.6153591305823
 20
-133.190836555244
 10
109.4834119734972
 20
-133.0719807610028
 10
109.3545654023489
 20
-133.1326144415432
 10
109.281184868513
 20
-133.2142632045437
 10
109.1041069605712
 20
-133.4109781567514
 10
109.2715386011543
 20
-133.5728976445582
 10
109.3221815047875
 20
-133.6242295672884
 10
109.3221815047875
 20
-133.6242295672884
 10
109.1861002331201
 20
-133.7751247495423
 10
109.1861002331201
 20
-133.7751247495423
 10
109.0989393173433
 20
-133.6852077573773
 10
108.8374565700129
 20
-133.4127007044941
 10
109.1433810491031
 20
-133.0733587991969
 10
109.2935872122599
 20
-132.9066161777108
 10
109.5492132972655
 20
-132.812220561415
 10
109.7693548987729
 20
-133.0106580613654
 10
109.9075032277315
 20
-133.1350260083829
 10
109.9050916608918
 20
-133.2611165031431
 10
109.8844210879803
 20
-133.3758381828019
 10
109.9457437876177
 20
-133.3486219284684
 10
110.1273003196904
 20
-133.2673176750165
 10
110.3333170297083
 20
-133.4526638121229
 10
110.5848090001316
 20
-133.6793510950524
 10
110.5431233447601
 20
-133.9749402876868
 10
110.3577772076536
 20
-134.1809569977048
 97
        0
 97
        0
 75
     2
 76
     1
 98
        0
  0
ENDBLK
  5
52
330
4F
100
AcDbEntity
  8
0
100
AcDbBlockEnd
  0
BLOCK
  5
B6
330
B4
100
AcDbEntity
  8
0
100
AcDbBlockBegin
  2
block 3
 70
     0
 10
0.0
 20
0.0
 30
0.0
  3
block 3
  1

  0
SPLINE
  5
B8
330
B4
100
AcDbEntity
  8
_U+30EC_U+30A4_U+30E4_U+30FC 1
370
     0
100
AcDbSpline
210
0.0
220
0.0
230
1.0
 70
    11
 71
     3
 72
    62
 73
    58
 74
     0
 42
0.0000000001
 43
0.0000000001
 12
1.0
 22
0.0
 32
0.0
 13
1.0
 23
0.0
 33
0.0
 40
0.0
 40
0.0
 40
0.0
 40
0.0
 40
1.0
 40
1.0
 40
1.0
 40
2.0
 40
2.0
 40
2.0
 40
3.0
 40
3.0
 40
3.0
 40
4.0
 40
4.0
 40
4.0
 40
5.0
 40
5.0
 40
5.0
 40
6.0
 40
6.0
 40
6.0
 40
7.0
 40
7.0
 40
7.0
 40
8.0
 40
8.0
 40
8.0
 40
9.0
 40
9.0
 40
9.0
 40
10.0
 40
10.0
 40
10.0
 40
11.0
 40
11.0
 40
11.0
 40
12.0
 40
12.0
 40
12.0
 40
13.0
 40
13.0
 40
13.0
 40
14.0
 40
14.0
 40
14.0
 40
15.0
 40
15.0
 40
15.0
 40
16.0
 40
16.0
 40
16.0
 40
17.0
 40
17.0
 40
17.0
 40
18.0
 40
18.0
 40
18.0
 40
19.0
 40
19.0
 40
19.0
 40
19.0
 10
82.48729924153096
 20
-137.6456895272205
 30
0.0
 10
82.3920423513638
 20
-137.6456895272205
 30
0.0
 10
82.17414006192175
 20
-137.6246744447605
 30
0.0
 10
82.0494276053557
 20
-137.438639288557
 30
0.0
 10
81.97535805242283
 20
-137.3263291757379
 30
0.0
 10
81.97105168306626
 20
-137.2271104257627
 30
0.0
 10
81.96691756848396
 20
-137.1423610768255
 30
0.0
 10
81.96691756848396
 20
-137.1423610768255
 30
0.0
 10
82.18688691521717
 20
-137.1423610768255
 30
0.0
 10
82.18688691521717
 20
-137.1423610768255
 30
0.0
 10
82.18895397250832
 20
-137.2164306297584
 30
0.0
 10
82.1996337685126
 20
-137.4510416323039
 30
0.0
 10
82.48316512694866
 20
-137.4510416323039
 30
0.0
 10
82.62062443681013
 20
-137.4510416323039
 30
0.0
 10
82.77289765725817
 20
-137.3814507035019
 30
0.0
 10
82.77289765725817
 20
-137.1530408728298
 30
0.0
 10
82.77289765725817
 20
-137.0365966454283
 30
0.0
 10
82.73482935214616
 20
-136.9880207990863
 30
0.0
 10
82.70313447368186
 20
-136.956325920622
 30
0.0
 10
82.62906492074899
 20
-136.8822563676892
 30
0.0
 10
82.51262069334754
 20
-136.8695095143937
 30
0.0
 10
82.45767142035781
 20
-136.8695095143937
 30
0.0
 10
82.43872339518893
 20
-136.8695095143937
 30
0.0
 10
82.40272214736807
 20
-136.8715765716849
 30
0.0
 10
82.37516138348607
 20
-136.8757106862672
 30
0.0
 10
82.37516138348607
 20
-136.8757106862672
 30
0.0
 10
82.37516138348607
 20
-136.6810627913506
 30
0.0
 10
82.37516138348607
 20
-136.6810627913506
 30
0.0
 10
82.41322968859808
 20
-136.6876084727726
 30
0.0
 10
82.45560436306666
 20
-136.6896755300637
 30
0.0
 10
82.46197778971437
 20
-136.6896755300637
 30
0.0
 10
82.52743460393411
 20
-136.6896755300637
 30
0.0
 10
82.7263888682073
 20
-136.6683159380551
 30
0.0
 10
82.7263888682073
 20
-136.4316378782185
 30
0.0
 10
82.7263888682073
 20
-136.2538709511796
 30
0.0
 10
82.59513073021928
 20
-136.1987494234156
 30
0.0
 10
82.4852321842398
 20
-136.1987494234156
 30
0.0
 10
82.22082110574688
 20
-136.1987494234156
 30
0.0
 10
82.21238062180802
 20
-136.4316378782185
 30
0.0
 10
82.20807425245145
 20
-136.5032958643117
 30
0.0
 10
82.20807425245145
 20
-136.5032958643117
 30
0.0
 10
82.00498587359598
 20
-136.5032958643117
 30
0.0
 10
82.00498587359598
 20
-136.5032958643117
 30
0.0
 10
82.01342635753484
 20
-136.3785834077457
 30
0.0
 10
82.04098712141683
 20
-136.0020344712078
 30
0.0
 10
82.49780678276097
 20
-136.0020344712078
 30
0.0
 10
82.72208249885074
 20
-136.0020344712078
 30
0.0
 10
82.96323918281823
 20
-136.1291584946136
 30
0.0
 10
82.96323918281823
 20
-136.4250921967965
 30
0.0
 10
82.96323918281823
 20
-136.6114718625485
 30
0.0
 10
82.86815454742532
 20
-136.693809644646
 30
0.0
 10
82.7685912879016
 20
-136.7551323442835
 30
0.0
 10
82.83008624231331
 20
-136.7826931081654
 30
0.0
 10
83.0119872839345
 20
-136.8629638329718
 30
0.0
 10
83.0119872839345
 20
-137.1402940195344
 30
0.0
 10
83.0119872839345
 20
-137.4786023961859
 30
0.0
 10
82.7644571733193
 20
-137.6456895272205
 30
0.0
 10
82.48729924153096
 20
-137.6456895272205
 30
0.0
  0
HATCH
  5
B9
330
B4
100
AcDbEntity
  8
_U+30EC_U+30A4_U+30E4_U+30FC 1
 62
   179
420
  2234388
100
AcDbHatch
 10
0.0
 20
0.0
 30
0.0
210
0.0
220
0.0
230
1.0
  2
SOLID
 70
     1
 71
     0
 91
        1
 92
        1
 93
        1
 72
     4
 94
        3
 73
     0
 74
     1
 95
       62
 96
       58
 40
0.0
 40
0.0
 40
0.0
 40
0.0
 40
1.0
 40
1.0
 40
1.0
 40
2.0
 40
2.0
 40
2.0
 40
3.0
 40
3.0
 40
3.0
 40
4.0
 40
4.0
 40
4.0
 40
5.0
 40
5.0
 40
5.0
 40
6.0
 40
6.0
 40
6.0
 40
7.0
 40
7.0
 40
7.0
 40
8.0
 40
8.0
 40
8.0
 40
9.0
 40
9.0
 40
9.0
 40
10.0
 40
10.0
 40
10.0
 40
11.0
 40
11.0
 40
11.0
 40
12.0
 40
12.0
 40
12.0
 40
13.0
 40
13.0
 40
13.0
 40
14.0
 40
14.0
 40
14.0
 40
15.0
 40
15.0
 40
15.0
 40
16.0
 40
16.0
 40
16.0
 40
17.0
 40
17.0
 40
17.0
 40
18.0
 40
18.0
 40
18.0
 40
19.0
 40
19.0
 40
19.0
 40
19.0
 10
82.48729924153096
 20
-137.6456895272205
 10
82.3920423513638
 20
-137.6456895272205
 10
82.17414006192175
 20
-137.6246744447605
 10
82.0494276053557
 20
-137.438639288557
 10
81.97535805242283
 20
-137.3263291757379
 10
81.97105168306626
 20
-137.2271104257627
 10
81.96691756848396
 20
-137.1423610768255
 10
81.96691756848396
 20
-137.1423610768255
 10
82.18688691521717
 20
-137.1423610768255
 10
82.18688691521717
 20
-137.1423610768255
 10
82.18895397250832
 20
-137.2164306297584
 10
82.1996337685126
 20
-137.4510416323039
 10
82.48316512694866
 20
-137.4510416323039
 10
82.62062443681013
 20
-137.4510416323039
 10
82.77289765725817
 20
-137.3814507035019
 10
82.77289765725817
 20
-137.1530408728298
 10
82.77289765725817
 20
-137.0365966454283
 10
82.73482935214616
 20
-136.9880207990863
 10
82.70313447368186
 20
-136.956325920622
 10
82.62906492074899
 20
-136.8822563676892
 10
82.51262069334754
 20
-136.8695095143937
 10
82.45767142035781
 20
-136.8695095143937
 10
82.43872339518893
 20
-136.8695095143937
 10
82.40272214736807
 20
-136.8715765716849
 10
82.37516138348607
 20
-136.8757106862672
 10
82.37516138348607
 20
-136.8757106862672
 10
82.37516138348607
 20
-136.6810627913506
 10
82.37516138348607
 20
-136.6810627913506
 10
82.41322968859808
 20
-136.6876084727726
 10
82.45560436306666
 20
-136.6896755300637
 10
82.46197778971437
 20
-136.6896755300637
 10
82.52743460393411
 20
-136.6896755300637
 10
82.7263888682073
 20
-136.6683159380551
 10
82.7263888682073
 20
-136.4316378782185
 10
82.7263888682073
 20
-136.2538709511796
 10
82.59513073021928
 20
-136.1987494234156
 10
82.4852321842398
 20
-136.1987494234156
 10
82.22082110574688
 20
-136.1987494234156
 10
82.21238062180802
 20
-136.4316378782185
 10
82.20807425245145
 20
-136.5032958643117
 10
82.20807425245145
 20
-136.5032958643117
 10
82.00498587359598
 20
-136.5032958643117
 10
82.00498587359598
 20
-136.5032958643117
 10
82.01342635753484
 20
-136.3785834077457
 10
82.04098712141683
 20
-136.0020344712078
 10
82.49780678276097
 20
-136.0020344712078
 10
82.72208249885074
 20
-136.0020344712078
 10
82.96323918281823
 20
-136.1291584946136
 10
82.96323918281823
 20
-136.4250921967965
 10
82.96323918281823
 20
-136.6114718625485
 10
82.86815454742532
 20
-136.693809644646
 10
82.7685912879016
 20
-136.7551323442835
 10
82.83008624231331
 20
-136.7826931081654
 10
83.0119872839345
 20
-136.8629638329718
 10
83.0119872839345
 20
-137.1402940195344
 10
83.0119872839345
 20
-137.4786023961859
 10
82.7644571733193
 20
-137.6456895272205
 10
82.48729924153096
 20
-137.6456895272205
 97
        0
 97
        0
 75
     2
 76
     1
 98
        0
  0
SPLINE
  5
BA
330
B4
100
AcDbEntity
  8
_U+30EC_U+30A4_U+30E4_U+30FC 1
370
     0
100
AcDbSpline
210
0.0
220
0.0
230
1.0
 70
    11
 71
     3
 72
    53
 73
    49
 74
     0
 42
0.0000000001
 43
0.0000000001
 12
1.0
 22
0.0
 32
0.0
 13
1.0
 23
0.0
 33
0.0
 40
0.0
 40
0.0
 40
0.0
 40
0.0
 40
1.0
 40
1.0
 40
1.0
 40
2.0
 40
2.0
 40
2.0
 40
3.0
 40
3.0
 40
3.0
 40
4.0
 40
4.0
 40
4.0
 40
5.0
 40
5.0
 40
5.0
 40
6.0
 40
6.0
 40
6.0
 40
7.0
 40
7.0
 40
7.0
 40
8.0
 40
8.0
 40
8.0
 40
9.0
 40
9.0
 40
9.0
 40
10.0
 40
10.0
 40
10.0
 40
11.0
 40
11.0
 40
11.0
 40
12.0
 40
12.0
 40
12.0
 40
13.0
 40
13.0
 40
13.0
 40
14.0
 40
14.0
 40
14.0
 40
15.0
 40
15.0
 40
15.0
 40
16.0
 40
16.0
 40
16.0
 40
16.0
 10
83.65363631806228
 20
-137.6456895272205
 30
0.0
 10
83.57526039577286
 20
-137.6456895272205
 30
0.0
 10
83.47380233373225
 20
-137.6288085593428
 30
0.0
 10
83.37217201691738
 20
-137.5654188024142
 30
0.0
 10
83.19871145923504
 20
-137.4555202564347
 30
0.0
 10
83.17752412200076
 20
-137.3242621184467
 30
0.0
 10
83.1585760968319
 20
-137.2164306297584
 30
0.0
 10
83.1585760968319
 20
-137.2164306297584
 30
0.0
 10
83.38061250085624
 20
-137.2164306297584
 30
0.0
 10
83.38061250085624
 20
-137.2164306297584
 30
0.0
 10
83.43573402862023
 20
-137.4152126392573
 30
0.0
 10
83.56268579725169
 20
-137.4448404604305
 30
0.0
 10
83.65570337535344
 20
-137.4448404604305
 30
0.0
 10
83.79540199728032
 20
-137.4448404604305
 30
0.0
 10
83.94767521772836
 20
-137.3452772009067
 30
0.0
 10
83.94767521772836
 20
-137.1127332556524
 30
0.0
 10
83.94767521772836
 20
-136.8567626610983
 30
0.0
 10
83.76784123339831
 20
-136.7868272227477
 30
0.0
 10
83.64726289141457
 20
-136.7868272227477
 30
0.0
 10
83.61556801295028
 20
-136.7868272227477
 30
0.0
 10
83.47380233373225
 20
-136.7868272227477
 30
0.0
 10
83.3849188702128
 20
-136.9160183034446
 30
0.0
 10
83.3849188702128
 20
-136.9160183034446
 30
0.0
 10
83.20939125523932
 20
-136.8970702782757
 30
0.0
 10
83.20939125523932
 20
-136.8970702782757
 30
0.0
 10
83.20939125523932
 20
-136.8970702782757
 30
0.0
 10
83.32996959722307
 20
-136.0506103175499
 30
0.0
 10
83.32996959722307
 20
-136.0506103175499
 30
0.0
 10
83.32996959722307
 20
-136.0506103175499
 30
0.0
 10
84.10838892211527
 20
-136.0506103175499
 30
0.0
 10
84.10838892211527
 20
-136.0506103175499
 30
0.0
 10
84.10838892211527
 20
-136.0506103175499
 30
0.0
 10
84.10838892211527
 20
-136.2452582124665
 30
0.0
 10
84.10838892211527
 20
-136.2452582124665
 30
0.0
 10
84.10838892211527
 20
-136.2452582124665
 30
0.0
 10
83.49275035890112
 20
-136.2452582124665
 30
0.0
 10
83.49275035890112
 20
-136.2452582124665
 30
0.0
 10
83.49275035890112
 20
-136.2452582124665
 30
0.0
 10
83.42729354468138
 20
-136.6683159380551
 30
0.0
 10
83.42729354468138
 20
-136.6683159380551
 30
0.0
 10
83.48861624431882
 20
-136.6345540022997
 30
0.0
 10
83.57112628119056
 20
-136.5942463851223
 30
0.0
 10
83.68946531110889
 20
-136.5942463851223
 30
0.0
 10
83.9433688483718
 20
-136.5942463851223
 30
0.0
 10
84.180391417757
 20
-136.7806260508743
 30
0.0
 10
84.180391417757
 20
-137.0937852304835
 30
0.0
 10
84.180391417757
 20
-137.411078524675
 30
0.0
 10
83.95611570166723
 20
-137.6456895272205
 30
0.0
 10
83.65363631806228
 20
-137.6456895272205
 30
0.0
  0
HATCH
  5
BB
330
B4
100
AcDbEntity
  8
_U+30EC_U+30A4_U+30E4_U+30FC 1
 62
   179
420
  2234388
100
AcDbHatch
 10
0.0
 20
0.0
 30
0.0
210
0.0
220
0.0
230
1.0
  2
SOLID
 70
     1
 71
     0
 91
        1
 92
        1
 93
        1
 72
     4
 94
        3
 73
     0
 74
     1
 95
       53
 96
       49
 40
0.0
 40
0.0
 40
0.0
 40
0.0
 40
1.0
 40
1.0
 40
1.0
 40
2.0
 40
2.0
 40
2.0
 40
3.0
 40
3.0
 40
3.0
 40
4.0
 40
4.0
 40
4.0
 40
5.0
 40
5.0
 40
5.0
 40
6.0
 40
6.0
 40
6.0
 40
7.0
 40
7.0
 40
7.0
 40
8.0
 40
8.0
 40
8.0
 40
9.0
 40
9.0
 40
9.0
 40
10.0
 40
10.0
 40
10.0
 40
11.0
 40
11.0
 40
11.0
 40
12.0
 40
12.0
 40
12.0
 40
13.0
 40
13.0
 40
13.0
 40
14.0
 40
14.0
 40
14.0
 40
15.0
 40
15.0
 40
15.0
 40
16.0
 40
16.0
 40
16.0
 40
16.0
 10
83.65363631806228
 20
-137.6456895272205
 10
83.57526039577286
 20
-137.6456895272205
 10
83.47380233373225
 20
-137.6288085593428
 10
83.37217201691738
 20
-137.5654188024142
 10
83.19871145923504
 20
-137.4555202564347
 10
83.17752412200076
 20
-137.3242621184467
 10
83.1585760968319
 20
-137.2164306297584
 10
83.1585760968319
 20
-137.2164306297584
 10
83.38061250085624
 20
-137.2164306297584
 10
83.38061250085624
 20
-137.2164306297584
 10
83.43573402862023
 20
-137.4152126392573
 10
83.56268579725169
 20
-137.4448404604305
 10
83.65570337535344
 20
-137.4448404604305
 10
83.79540199728032
 20
-137.4448404604305
 10
83.94767521772836
 20
-137.3452772009067
 10
83.94767521772836
 20
-137.1127332556524
 10
83.94767521772836
 20
-136.8567626610983
 10
83.76784123339831
 20
-136.7868272227477
 10
83.64726289141457
 20
-136.7868272227477
 10
83.61556801295028
 20
-136.7868272227477
 10
83.47380233373225
 20
-136.7868272227477
 10
83.3849188702128
 20
-136.9160183034446
 10
83.3849188702128
 20
-136.9160183034446
 10
83.20939125523932
 20
-136.8970702782757
 10
83.20939125523932
 20
-136.8970702782757
 10
83.20939125523932
 20
-136.8970702782757
 10
83.32996959722307
 20
-136.0506103175499
 10
83.32996959722307
 20
-136.0506103175499
 10
83.32996959722307
 20
-136.0506103175499
 10
84.10838892211527
 20
-136.0506103175499
 10
84.10838892211527
 20
-136.0506103175499
 10
84.10838892211527
 20
-136.0506103175499
 10
84.10838892211527
 20
-136.2452582124665
 10
84.10838892211527
 20
-136.2452582124665
 10
84.10838892211527
 20
-136.2452582124665
 10
83.49275035890112
 20
-136.2452582124665
 10
83.49275035890112
 20
-136.2452582124665
 10
83.49275035890112
 20
-136.2452582124665
 10
83.42729354468138
 20
-136.6683159380551
 10
83.42729354468138
 20
-136.6683159380551
 10
83.48861624431882
 20
-136.6345540022997
 10
83.57112628119056
 20
-136.5942463851223
 10
83.68946531110889
 20
-136.5942463851223
 10
83.9433688483718
 20
-136.5942463851223
 10
84.180391417757
 20
-136.7806260508743
 10
84.180391417757
 20
-137.0937852304835
 10
84.180391417757
 20
-137.411078524675
 10
83.95611570166723
 20
-137.6456895272205
 10
83.65363631806228
 20
-137.6456895272205
 97
        0
 97
        0
 75
     2
 76
     1
 98
        0
  0
ENDBLK
  5
B7
330
B4
100
AcDbEntity
  8
0
100
AcDbBlockEnd
  0
ENDSEC
  0
SECTION
  2
ENTITIES
  0
SPLINE
  5
41
330
1F
100
AcDbEntity
  8
_U+30EC_U+30A4_U+30E4_U+30FC 1
 62
   179
420
  2234388
370
     9
100
AcDbSpline
210
0.0
220
0.0
230
1.0
 70
    11
 71
     3
 72
    17
 73
    13
 74
     0
 42
0.0000000001
 43
0.0000000001
 12
1.0
 22
0.0
 32
0.0
 13
1.0
 23
0.0
 33
0.0
 40
0.0
 40
0.0
 40
0.0
 40
0.0
 40
1.0
 40
1.0
 40
1.0
 40
2.0
 40
2.0
 40
2.0
 40
3.0
 40
3.0
 40
3.0
 40
4.0
 40
4.0
 40
4.0
 40
4.0
 10
115.2839295588619
 20
-129.3127052454499
 30
0.0
 10
115.3211123356911
 20
-129.2703013565712
 30
0.0
 10
115.317690391334
 20
-129.2079655232534
 30
0.0
 10
115.2763448368332
 20
-129.1703946899295
 30
0.0
 10
115.2353520601012
 20
-129.1335646899387
 30
0.0
 10
115.1726281728126
 20
-129.1373394121602
 30
0.0
 10
115.1350926182146
 20
-129.1783321899279
 30
0.0
 10
115.0985801191461
 20
-129.2193249676949
 30
0.0
 10
115.1020020635033
 20
-129.2823663565682
 30
0.0
 10
115.1429948402352
 20
-129.3192316343365
 30
0.0
 10
115.1836701169753
 20
-129.3560969121056
 30
0.0
 10
115.2473817820166
 20
-129.352992467662
 30
0.0
 10
115.2839295588619
 20
-129.3127052454499
 30
0.0
  0
SPLINE
  5
42
330
1F
100
AcDbEntity
  8
_U+30EC_U+30A4_U+30E4_U+30FC 1
 62
   179
420
  2234388
370
     9
100
AcDbSpline
210
0.0
220
0.0
230
1.0
 70
    11
 71
     3
 72
    17
 73
    13
 74
     0
 42
0.0000000001
 43
0.0000000001
 12
1.0
 22
0.0
 32
0.0
 13
1.0
 23
0.0
 33
0.0
 40
0.0
 40
0.0
 40
0.0
 40
0.0
 40
1.0
 40
1.0
 40
1.0
 40
2.0
 40
2.0
 40
2.0
 40
3.0
 40
3.0
 40
3.0
 40
4.0
 40
4.0
 40
4.0
 40
4.0
 10
104.6602739965606
 20
-141.0952713536148
 30
0.0
 10
104.6971392733979
 20
-141.0542785758478
 30
0.0
 10
104.6940348290326
 20
-140.990531631419
 30
0.0
 10
104.6523364967631
 20
-140.9543719092061
 30
0.0
 10
104.6116964977999
 20
-140.9171538536594
 30
0.0
 10
104.5483023327506
 20
-140.9202582981035
 30
0.0
 10
104.5111221960946
 20
-140.9619213536486
 30
0.0
 10
104.4739015013154
 20
-141.0029494091937
 30
0.0
 10
104.4776762234413
 20
-141.0656380202893
 30
0.0
 10
104.5186690001733
 20
-141.1028560758354
 30
0.0
 10
104.560014554674
 20
-141.1403916313818
 30
0.0
 10
104.6227384419627
 20
-141.1372871869376
 30
0.0
 10
104.6602739965606
 20
-141.0952713536148
 30
0.0
  0
POLYLINE
  5
43
330
1F
100
AcDbEntity
  8
_U+30EC_U+30A4_U+30E4_U+30FC 1
 62
   179
420
  2234388
370
     9
100
AcDb2dPolyline
 66
     1
 10
0.0
 20
0.0
 30
0.0
  0
VERTEX
  5
44
330
43
100
AcDbEntity
  8
_U+30EC_U+30A4_U+30E4_U+30FC 1
 62
   179
420
  2234388
370
     9
100
AcDbVertex
100
AcDb2dVertex
 10
115.2094934496498
 20
-129.2448308010225
 30
0.0
  0
VERTEX
  5
45
330
43
100
AcDbEntity
  8
_U+30EC_U+30A4_U+30E4_U+30FC 1
 62
   179
420
  2234388
370
     9
100
AcDbVertex
100
AcDb2dVertex
 10
104.5855203873566
 20
-141.0287727425209
 30
0.0
  0
SEQEND
  5
46
330
43
100
AcDbEntity
  8
_U+30EC_U+30A4_U+30E4_U+30FC 1
 62
   179
420
  2234388
370
     9
  0
POLYLINE
  5
47
330
1F
100
AcDbEntity
  8
_U+30EC_U+30A4_U+30E4_U+30FC 1
 62
   179
420
  2234388
370
     9
100
AcDb2dPolyline
 66
     1
 10
0.0
 20
0.0
 30
0.0
  0
VERTEX
  5
48
330
47
100
AcDbEntity
  8
_U+30EC_U+30A4_U+30E4_U+30FC 1
 62
   179
420
  2234388
370
     9
100
AcDbVertex
100
AcDb2dVertex
 10
114.1243166381357
 20
-128.2681302457106
 30
0.0
  0
VERTEX
  5
49
330
47
100
AcDbEntity
  8
_U+30EC_U+30A4_U+30E4_U+30FC 1
 62
   179
420
  2234388
370
     9
100
AcDbVertex
100
AcDb2dVertex
 10
115.9529373195719
 20
-129.9141913564106
 30
0.0
  0
SEQEND
  5
4A
330
47
100
AcDbEntity
  8
_U+30EC_U+30A4_U+30E4_U+30FC 1
 62
   179
420
  2234388
370
     9
  0
POLYLINE
  5
4B
330
1F
100
AcDbEntity
  8
_U+30EC_U+30A4_U+30E4_U+30FC 1
 62
   179
420
  2234388
370
     9
100
AcDb2dPolyline
 66
     1
 10
0.0
 20
0.0
 30
0.0
  0
VERTEX
  5
4C
330
4B
100
AcDbEntity
  8
_U+30EC_U+30A4_U+30E4_U+30FC 1
 62
   179
420
  2234388
370
     9
100
AcDbVertex
100
AcDb2dVertex
 10
103.1289388631069
 20
-139.7161924650707
 30
0.0
  0
VERTEX
  5
4D
330
4B
100
AcDbEntity
  8
_U+30EC_U+30A4_U+30E4_U+30FC 1
 62
   179
420
  2234388
370
     9
100
AcDbVertex
100
AcDb2dVertex
 10
105.3289642572787
 20
-141.6978157979088
 30
0.0
  0
SEQEND
  5
4E
330
4B
100
AcDbEntity
  8
_U+30EC_U+30A4_U+30E4_U+30FC 1
 62
   179
420
  2234388
370
     9
  0
INSERT
  5
50
330
1F
100
AcDbEntity
  8
_U+30EC_U+30A4_U+30E4_U+30FC 1
100
AcDbBlockReference
  2
block 2
 10
0.0
 20
0.0
 30
0.0
  0
SPLINE
  5
57
330
1F
100
AcDbEntity
  8
_U+30EC_U+30A4_U+30E4_U+30FC 1
 62
   179
420
  2234388
370
     9
100
AcDbSpline
210
0.0
220
0.0
230
1.0
 70
    11
 71
     3
 72
    17
 73
    13
 74
     0
 42
0.0000000001
 43
0.0000000001
 12
1.0
 22
0.0
 32
0.0
 13
1.0
 23
0.0
 33
0.0
 40
0.0
 40
0.0
 40
0.0
 40
0.0
 40
1.0
 40
1.0
 40
1.0
 40
2.0
 40
2.0
 40
2.0
 40
3.0
 40
3.0
 40
3.0
 40
4.0
 40
4.0
 40
4.0
 40
4.0
 10
104.6116964977999
 20
-141.0521971869594
 30
0.0
 10
104.599316640517
 20
-141.0670138536221
 30
0.0
 10
104.5769126097985
 20
-141.0677194091777
 30
0.0
 10
104.561743165741
 20
-141.0549488536251
 30
0.0
 10
104.5476320549899
 20
-141.0415080202953
 30
0.0
 10
104.5469264994524
 20
-141.0191419091894
 30
0.0
 10
104.5593442769133
 20
-141.004995520304
 30
0.0
 10
104.572432332135
 20
-140.9898613536416
 30
0.0
 10
104.5944809426836
 20
-140.9895085758639
 30
0.0
 10
104.6089448312035
 20
-141.0022438536382
 30
0.0
 10
104.6234087197234
 20
-141.0160374647459
 30
0.0
 10
104.6247845530216
 20
-141.0380860758515
 30
0.0
 10
104.6116964977999
 20
-141.0521971869594
 30
0.0
  0
SPLINE
  5
58
330
1F
100
AcDbEntity
  8
_U+30EC_U+30A4_U+30E4_U+30FC 1
 62
     7
420
 16777215
370
    25
100
AcDbSpline
210
0.0
220
0.0
230
1.0
 70
     8
 71
     3
 72
    29
 73
    25
 74
     0
 42
0.0000000001
 43
0.0000000001
 12
1.0
 22
0.0
 32
0.0
 13
1.0
 23
0.0
 33
0.0
 40
0.0
 40
0.0
 40
0.0
 40
0.0
 40
1.0
 40
1.0
 40
1.0
 40
2.0
 40
2.0
 40
2.0
 40
3.0
 40
3.0
 40
3.0
 40
4.0
 40
4.0
 40
4.0
 40
5.0
 40
5.0
 40
5.0
 40
6.0
 40
6.0
 40
6.0
 40
7.0
 40
7.0
 40
7.0
 40
8.0
 40
8.0
 40
8.0
 40
8.0
 10
68.7510249126819
 20
-130.7089996895448
 30
0.0
 10
68.7510249126819
 20
-130.7089996895448
 30
0.0
 10
77.5980210758651
 20
-132.8363202445689
 30
0.0
 10
77.5980210758651
 20
-132.8363202445689
 30
0.0
 10
77.5980210758651
 20
-132.8363202445689
 30
0.0
 10
80.17322823238833
 20
-134.3483963553015
 30
0.0
 10
80.7330512736616
 20
-131.3804416338214
 30
0.0
 10
80.7330512736616
 20
-131.3804416338214
 30
0.0
 10
81.12717459694001
 20
-128.8052344122434
 30
0.0
 10
81.12717459694001
 20
-128.8052344122434
 30
0.0
 10
81.12717459694001
 20
-128.8052344122434
 30
0.0
 10
80.84502497978887
 20
-125.5580560797215
 30
0.0
 10
83.14083010112293
 20
-125.5018938575133
 30
0.0
 10
83.14083010112293
 20
-125.5018938575133
 30
0.0
 10
87.8437458144749
 20
-125.3899221908746
 30
0.0
 10
88.01184442129745
 20
-128.4135099678967
 30
0.0
 10
88.01184442129745
 20
-128.4135099678967
 30
0.0
 10
88.18033331128827
 20
-130.4847035784898
 30
0.0
 10
88.18033331128827
 20
-130.4847035784898
 30
0.0
 10
88.18033331128827
 20
-130.4847035784898
 30
0.0
 10
88.51518774178943
 20
-135.523181632786
 30
0.0
 10
90.19536242114683
 20
-136.0275127437708
 30
0.0
 10
90.19536242114683
 20
-136.0275127437708
 30
0.0
 10
102.6252754373667
 20
-139.2759257985142
 30
0.0
 10
102.6252754373667
 20
-139.2759257985142
 30
0.0
  0
SPLINE
  5
59
330
1F
100
AcDbEntity
  8
_U+30EC_U+30A4_U+30E4_U+30FC 1
 62
     7
420
 16777215
370
    25
100
AcDbSpline
210
0.0
220
0.0
230
1.0
 70
     8
 71
     3
 72
    11
 73
     7
 74
     0
 42
0.0000000001
 43
0.0000000001
 12
1.0
 22
0.0
 32
0.0
 13
1.0
 23
0.0
 33
0.0
 40
0.0
 40
0.0
 40
0.0
 40
0.0
 40
1.0
 40
1.0
 40
1.0
 40
2.0
 40
2.0
 40
2.0
 40
2.0
 10
90.64391935414763
 20
-116.543948859753
 30
0.0
 10
90.64391935414763
 20
-116.543948859753
 30
0.0
 10
92.32338847796747
 20
-123.598834135767
 30
0.0
 10
92.32338847796747
 20
-123.598834135767
 30
0.0
 10
92.32338847796747
 20
-123.598834135767
 30
0.0
 10
92.93937374003015
 20
-125.2783033020138
 30
0.0
 10
91.7074055326289
 20
-124.8866141354449
 30
0.0
  0
SPLINE
  5
5A
330
1F
100
AcDbEntity
  8
_U+30EC_U+30A4_U+30E4_U+30FC 1
 62
     7
420
 16777215
370
    25
100
AcDbSpline
210
0.0
220
0.0
230
1.0
 70
     8
 71
     3
 72
     8
 73
     4
 74
     0
 42
0.0000000001
 43
0.0000000001
 12
1.0
 22
0.0
 32
0.0
 13
1.0
 23
0.0
 33
0.0
 40
0.0
 40
0.0
 40
0.0
 40
0.0
 40
1.0
 40
1.0
 40
1.0
 40
1.0
 10
85.71639003541493
 20
-123.206439413643
 30
0.0
 10
84.59674395286837
 20
-121.6947160806875
 30
0.0
 10
88.85212578874898
 20
-116.4316596931142
 30
0.0
 10
88.85212578874898
 20
-116.4316596931142
 30
0.0
  0
POLYLINE
  5
5B
330
1F
100
AcDbEntity
  8
_U+30EC_U+30A4_U+30E4_U+30FC 1
 62
     7
420
 16777215
370
     9
100
AcDb2dPolyline
 66
     1
 10
0.0
 20
0.0
 30
0.0
  0
VERTEX
  5
5C
330
5B
100
AcDbEntity
  8
_U+30EC_U+30A4_U+30E4_U+30FC 1
 62
     7
420
 16777215
370
     9
100
AcDbVertex
100
AcDb2dVertex
 10
80.34136211698775
 20
-132.5562499668609
 30
0.0
  0
VERTEX
  5
5D
330
5B
100
AcDbEntity
  8
_U+30EC_U+30A4_U+30E4_U+30FC 1
 62
     7
420
 16777215
370
     9
100
AcDbVertex
100
AcDb2dVertex
 10
85.5482583119462
 20
-128.4135099678967
 30
0.0
  0
VERTEX
  5
5E
330
5B
100
AcDbEntity
  8
_U+30EC_U+30A4_U+30E4_U+30FC 1
 62
     7
420
 16777215
370
     9
100
AcDbVertex
100
AcDb2dVertex
 10
85.88448864223749
 20
-125.9500980240681
 30
0.0
  0
SEQEND
  5
5F
330
5B
100
AcDbEntity
  8
_U+30EC_U+30A4_U+30E4_U+30FC 1
 62
     7
420
 16777215
370
     9
  0
POLYLINE
  5
60
330
1F
100
AcDbEntity
  8
_U+30EC_U+30A4_U+30E4_U+30FC 1
 62
     7
420
 16777215
370
     9
100
AcDb2dPolyline
 66
     1
 10
0.0
 20
0.0
 30
0.0
  0
VERTEX
  5
61
330
60
100
AcDbEntity
  8
_U+30EC_U+30A4_U+30E4_U+30FC 1
 62
     7
420
 16777215
370
     9
100
AcDbVertex
100
AcDb2dVertex
 10
87.73244442842554
 20
-126.454111635053
 30
0.0
  0
VERTEX
  5
62
330
60
100
AcDbEntity
  8
_U+30EC_U+30A4_U+30E4_U+30FC 1
 62
     7
420
 16777215
370
     9
100
AcDbVertex
100
AcDb2dVertex
 10
90.58775713335822
 20
-123.9905233023355
 30
0.0
  0
SEQEND
  5
63
330
60
100
AcDbEntity
  8
_U+30EC_U+30A4_U+30E4_U+30FC 1
 62
     7
420
 16777215
370
     9
  0
POLYLINE
  5
64
330
1F
100
AcDbEntity
  8
_U+30EC_U+30A4_U+30E4_U+30FC 1
 62
     7
420
 16777215
370
     9
100
AcDb2dPolyline
 66
     1
 10
0.0
 20
0.0
 30
0.0
  0
VERTEX
  5
65
330
64
100
AcDbEntity
  8
_U+30EC_U+30A4_U+30E4_U+30FC 1
 62
     7
420
 16777215
370
     9
100
AcDbVertex
100
AcDb2dVertex
 10
82.63681650287029
 20
-125.5018938575133
 30
0.0
  0
VERTEX
  5
66
330
64
100
AcDbEntity
  8
_U+30EC_U+30A4_U+30E4_U+30FC 1
 62
     7
420
 16777215
370
     9
100
AcDbVertex
100
AcDb2dVertex
 10
91.09177073161088
 20
-119.6228521923164
 30
0.0
  0
SEQEND
  5
67
330
64
100
AcDbEntity
  8
_U+30EC_U+30A4_U+30E4_U+30FC 1
 62
     7
420
 16777215
370
     9
  0
POLYLINE
  5
68
330
1F
100
AcDbEntity
  8
_U+30EC_U+30A4_U+30E4_U+30FC 1
 62
     7
420
 16777215
370
     9
100
AcDb2dPolyline
 66
     1
 10
0.0
 20
0.0
 30
0.0
  0
VERTEX
  5
69
330
68
100
AcDbEntity
  8
_U+30EC_U+30A4_U+30E4_U+30FC 1
 62
     7
420
 16777215
370
     9
100
AcDbVertex
100
AcDb2dVertex
 10
88.85212578874898
 20
-116.3196880264755
 30
0.0
  0
VERTEX
  5
6A
330
68
100
AcDbEntity
  8
_U+30EC_U+30A4_U+30E4_U+30FC 1
 62
     7
420
 16777215
370
     9
100
AcDbVertex
100
AcDb2dVertex
 10
91.76356543669418
 20
-115.0877174712281
 30
0.0
  0
VERTEX
  5
6B
330
68
100
AcDbEntity
  8
_U+30EC_U+30A4_U+30E4_U+30FC 1
 62
     7
420
 16777215
370
     9
100
AcDbVertex
100
AcDb2dVertex
 10
92.21141681415743
 20
-115.5362744155603
 30
0.0
  0
SEQEND
  5
6C
330
68
100
AcDbEntity
  8
_U+30EC_U+30A4_U+30E4_U+30FC 1
 62
     7
420
 16777215
370
     9
  0
SPLINE
  5
6D
330
1F
100
AcDbEntity
  8
_U+30EC_U+30A4_U+30E4_U+30FC 1
 62
     7
420
 16777215
370
     9
100
AcDbSpline
210
0.0
220
0.0
230
1.0
 70
     8
 71
     3
 72
    29
 73
    25
 74
     0
 42
0.0000000001
 43
0.0000000001
 12
1.0
 22
0.0
 32
0.0
 13
1.0
 23
0.0
 33
0.0
 40
0.0
 40
0.0
 40
0.0
 40
0.0
 40
1.0
 40
1.0
 40
1.0
 40
2.0
 40
2.0
 40
2.0
 40
3.0
 40
3.0
 40
3.0
 40
4.0
 40
4.0
 40
4.0
 40
5.0
 40
5.0
 40
5.0
 40
6.0
 40
6.0
 40
6.0
 40
7.0
 40
7.0
 40
7.0
 40
8.0
 40
8.0
 40
8.0
 40
8.0
 10
90.53159719958933
 20
-116.543948859753
 30
0.0
 10
90.53159719958933
 20
-116.543948859753
 30
0.0
 10
93.83511177273353
 20
-115.0877174712281
 30
0.0
 10
93.83511177273353
 20
-115.0877174712281
 30
0.0
 10
93.83511177273353
 20
-115.0877174712281
 30
0.0
 10
98.20242999464729
 20
-119.0075371924702
 30
0.0
 10
96.91468530527817
 20
-121.0229213586332
 30
0.0
 10
96.91468530527817
 20
-121.0229213586332
 30
0.0
 10
98.25894499320547
 20
-122.9266866359349
 30
0.0
 10
97.86690553108872
 20
-126.2305210795535
 30
0.0
 10
97.86690553108872
 20
-126.2305210795535
 30
0.0
 10
98.20242999464729
 20
-127.6294260792038
 30
0.0
 10
98.81841525670997
 20
-127.8530166347033
 30
0.0
 10
98.81841525670997
 20
-127.8530166347033
 30
0.0
 10
98.76228831369744
 20
-128.8610438566738
 30
0.0
 10
98.76228831369744
 20
-128.8610438566738
 30
0.0
 10
98.76228831369744
 20
-128.8610438566738
 30
0.0
 10
96.18672837940545
 20
-131.49241330046
 30
0.0
 10
96.18672837940545
 20
-131.49241330046
 30
0.0
 10
96.18672837940545
 20
-131.49241330046
 30
0.0
 10
93.94704815876668
 20
-133.2848771889008
 30
0.0
 10
92.77123985543071
 20
-130.3727319118511
 30
0.0
 10
92.77123985543071
 20
-130.3727319118511
 30
0.0
 10
92.71511291241819
 20
-127.1254124682185
 30
0.0
 10
91.65159377288415
 20
-124.8866141354449
 30
0.0
  0
POLYLINE
  5
6E
330
1F
100
AcDbEntity
  8
_U+30EC_U+30A4_U+30E4_U+30FC 1
 62
     7
420
 16777215
370
     9
100
AcDb2dPolyline
 66
     1
 10
0.0
 20
0.0
 30
0.0
  0
VERTEX
  5
6F
330
6E
100
AcDbEntity
  8
_U+30EC_U+30A4_U+30E4_U+30FC 1
 62
     7
420
 16777215
370
     9
100
AcDbVertex
100
AcDb2dVertex
 10
92.4915223625669
 20
-124.4942194133209
 30
0.0
  0
VERTEX
  5
70
330
6E
100
AcDbEntity
  8
_U+30EC_U+30A4_U+30E4_U+30FC 1
 62
     7
420
 16777215
370
     9
100
AcDbVertex
100
AcDb2dVertex
 10
96.91468530527817
 20
-120.8548227475642
 30
0.0
  0
SEQEND
  5
71
330
6E
100
AcDbEntity
  8
_U+30EC_U+30A4_U+30E4_U+30FC 1
 62
     7
420
 16777215
370
     9
  0
POLYLINE
  5
72
330
1F
100
AcDbEntity
  8
_U+30EC_U+30A4_U+30E4_U+30FC 1
 62
     7
420
 16777215
370
     9
100
AcDb2dPolyline
 66
     1
 10
0.0
 20
0.0
 30
0.0
  0
VERTEX
  5
73
330
72
100
AcDbEntity
  8
_U+30EC_U+30A4_U+30E4_U+30FC 1
 62
     7
420
 16777215
370
     9
100
AcDbVertex
100
AcDb2dVertex
 10
85.49244670779487
 20
-122.0306310806034
 30
0.0
  0
VERTEX
  5
74
330
72
100
AcDbEntity
  8
_U+30EC_U+30A4_U+30E4_U+30FC 1
 62
     7
420
 16777215
370
     9
100
AcDbVertex
100
AcDb2dVertex
 10
83.30896398572237
 20
-121.4153160807572
 30
0.0
  0
VERTEX
  5
75
330
72
100
AcDbEntity
  8
_U+30EC_U+30A4_U+30E4_U+30FC 1
 62
     7
420
 16777215
370
     9
100
AcDbVertex
100
AcDb2dVertex
 10
68.63940602664064
 20
-130.6528374673366
 30
0.0
  0
SEQEND
  5
76
330
72
100
AcDbEntity
  8
_U+30EC_U+30A4_U+30E4_U+30FC 1
 62
     7
420
 16777215
370
     9
  0
SPLINE
  5
77
330
1F
100
AcDbEntity
  8
_U+30EC_U+30A4_U+30E4_U+30FC 1
 62
     7
420
 16777215
370
     9
100
AcDbSpline
210
0.0
220
0.0
230
1.0
 70
     8
 71
     3
 72
    20
 73
    16
 74
     0
 42
0.0000000001
 43
0.0000000001
 12
1.0
 22
0.0
 32
0.0
 13
1.0
 23
0.0
 33
0.0
 40
0.0
 40
0.0
 40
0.0
 40
0.0
 40
1.0
 40
1.0
 40
1.0
 40
2.0
 40
2.0
 40
2.0
 40
3.0
 40
3.0
 40
3.0
 40
4.0
 40
4.0
 40
4.0
 40
5.0
 40
5.0
 40
5.0
 40
5.0
 10
95.40260923274333
 20
-116.8237016374608
 30
0.0
 10
95.40260923274333
 20
-116.8237016374608
 30
0.0
 10
97.86619997553319
 20
-116.8237016374608
 30
0.0
 10
97.86619997553319
 20
-116.8237016374608
 30
0.0
 10
97.86619997553319
 20
-116.8237016374608
 30
0.0
 10
99.881934396244
 20
-117.1038071929462
 30
0.0
 10
99.881934396244
 20
-120.5189077476479
 30
0.0
 10
99.881934396244
 20
-120.5189077476479
 30
0.0
 10
99.60253440337209
 20
-124.9420708020979
 30
0.0
 10
103.5216837478307
 20
-125.4457316353051
 30
0.0
 10
103.5216837478307
 20
-125.4457316353051
 30
0.0
 10
113.3756840519898
 20
-127.6294260792038
 30
0.0
 10
113.3756840519898
 20
-127.6294260792038
 30
0.0
 10
113.3756840519898
 20
-127.6294260792038
 30
0.0
 10
102.6814023803792
 20
-139.2759257985142
 30
0.0
 10
102.6814023803792
 20
-139.2759257985142
 30
0.0
  0
SPLINE
  5
78
330
1F
100
AcDbEntity
  8
_U+30EC_U+30A4_U+30E4_U+30FC 1
 62
     7
420
 16777215
370
     9
100
AcDbSpline
210
0.0
220
0.0
230
1.0
 70
    11
 71
     3
 72
    17
 73
    13
 74
     0
 42
0.0000000001
 43
0.0000000001
 12
1.0
 22
0.0
 32
0.0
 13
1.0
 23
0.0
 33
0.0
 40
0.0
 40
0.0
 40
0.0
 40
0.0
 40
1.0
 40
1.0
 40
1.0
 40
2.0
 40
2.0
 40
2.0
 40
3.0
 40
3.0
 40
3.0
 40
4.0
 40
4.0
 40
4.0
 40
4.0
 10
102.905698485768
 20
-131.1013944116692
 30
0.0
 10
102.905698485768
 20
-131.471740522688
 30
0.0
 10
102.2914444188713
 20
-131.7728363559457
 30
0.0
 10
101.5338515763223
 20
-131.7728363559457
 30
0.0
 10
100.7759438178804
 20
-131.7728363559457
 30
0.0
 10
100.1616871668847
 20
-131.471740522688
 30
0.0
 10
100.1616871668847
 20
-131.1013944116692
 30
0.0
 10
100.1616871668847
 20
-130.7296724673175
 30
0.0
 10
100.7759438178804
 20
-130.4288941340593
 30
0.0
 10
101.5338515763223
 20
-130.4288941340593
 30
0.0
 10
102.2914444188713
 20
-130.4288941340593
 30
0.0
 10
102.905698485768
 20
-130.7296724673175
 30
0.0
 10
102.905698485768
 20
-131.1013944116692
 30
0.0
  0
SPLINE
  5
79
330
1F
100
AcDbEntity
  8
_U+30EC_U+30A4_U+30E4_U+30FC 1
 62
     7
420
 16777215
370
     9
100
AcDbSpline
210
0.0
220
0.0
230
1.0
 70
     8
 71
     3
 72
     8
 73
     4
 74
     0
 42
0.0000000001
 43
0.0000000001
 12
1.0
 22
0.0
 32
0.0
 13
1.0
 23
0.0
 33
0.0
 40
0.0
 40
0.0
 40
0.0
 40
0.0
 40
1.0
 40
1.0
 40
1.0
 40
1.0
 10
100.1616871668847
 20
-131.1013944116692
 30
0.0
 10
100.1616871668847
 20
-131.1013944116692
 30
0.0
 10
101.3402471368171
 20
-130.2607955229906
 30
0.0
 10
102.7957729330169
 20
-130.9332605228223
 30
0.0
  0
SPLINE
  5
7A
330
1F
100
AcDbEntity
  8
_U+30EC_U+30A4_U+30E4_U+30FC 1
 62
     7
420
 16777215
370
     9
100
AcDbSpline
210
0.0
220
0.0
230
1.0
 70
    11
 71
     3
 72
    17
 73
    13
 74
     0
 42
0.0000000001
 43
0.0000000001
 12
1.0
 22
0.0
 32
0.0
 13
1.0
 23
0.0
 33
0.0
 40
0.0
 40
0.0
 40
0.0
 40
0.0
 40
1.0
 40
1.0
 40
1.0
 40
2.0
 40
2.0
 40
2.0
 40
3.0
 40
3.0
 40
3.0
 40
4.0
 40
4.0
 40
4.0
 40
4.0
 10
81.29287431493488
 20
-125.8381263574294
 30
0.0
 10
81.29287431493488
 20
-126.1161505240265
 30
0.0
 10
80.87945404770433
 20
-126.3421752461922
 30
0.0
 10
80.3689140607293
 20
-126.3421752461922
 30
0.0
 10
79.85869157374616
 20
-126.3421752461922
 30
0.0
 10
79.44527130651561
 20
-126.1161505240265
 30
0.0
 10
79.44527130651561
 20
-125.8381263574294
 30
0.0
 10
79.44527130651561
 20
-125.5601374686099
 30
0.0
 10
79.85869157374616
 20
-125.334465524222
 30
0.0
 10
80.3689140607293
 20
-125.334465524222
 30
0.0
 10
80.87945404770433
 20
-125.334465524222
 30
0.0
 10
81.29287431493488
 20
-125.5601374686099
 30
0.0
 10
81.29287431493488
 20
-125.8381263574294
 30
0.0
  0
SPLINE
  5
7B
330
1F
100
AcDbEntity
  8
_U+30EC_U+30A4_U+30E4_U+30FC 1
 62
     7
420
 16777215
370
     9
100
AcDbSpline
210
0.0
220
0.0
230
1.0
 70
     8
 71
     3
 72
     8
 73
     4
 74
     0
 42
0.0000000001
 43
0.0000000001
 12
1.0
 22
0.0
 32
0.0
 13
1.0
 23
0.0
 33
0.0
 40
0.0
 40
0.0
 40
0.0
 40
0.0
 40
1.0
 40
1.0
 40
1.0
 40
1.0
 10
79.44527130651561
 20
-125.8381263574294
 30
0.0
 10
79.44527130651561
 20
-125.8381263574294
 30
0.0
 10
80.56491942430307
 20
-125.2221410798056
 30
0.0
 10
81.29287431493488
 20
-125.8381263574294
 30
0.0
  0
SPLINE
  5
7C
330
1F
100
AcDbEntity
  8
_U+30EC_U+30A4_U+30E4_U+30FC 1
 62
     7
420
 16777215
370
    25
100
AcDbSpline
210
0.0
220
0.0
230
1.0
 70
     8
 71
     3
 72
    29
 73
    25
 74
     0
 42
0.0000000001
 43
0.0000000001
 12
1.0
 22
0.0
 32
0.0
 13
1.0
 23
0.0
 33
0.0
 40
0.0
 40
0.0
 40
0.0
 40
0.0
 40
1.0
 40
1.0
 40
1.0
 40
2.0
 40
2.0
 40
2.0
 40
3.0
 40
3.0
 40
3.0
 40
4.0
 40
4.0
 40
4.0
 40
5.0
 40
5.0
 40
5.0
 40
6.0
 40
6.0
 40
6.0
 40
7.0
 40
7.0
 40
7.0
 40
8.0
 40
8.0
 40
8.0
 40
8.0
 10
68.7510249126819
 20
-130.7089996895448
 30
0.0
 10
68.7510249126819
 20
-130.7089996895448
 30
0.0
 10
77.5980210758651
 20
-132.8363202445689
 30
0.0
 10
77.5980210758651
 20
-132.8363202445689
 30
0.0
 10
77.5980210758651
 20
-132.8363202445689
 30
0.0
 10
80.17322823238833
 20
-134.3483963553015
 30
0.0
 10
80.7330512736616
 20
-131.3804416338214
 30
0.0
 10
80.7330512736616
 20
-131.3804416338214
 30
0.0
 10
81.12717459694001
 20
-128.8052344122434
 30
0.0
 10
81.12717459694001
 20
-128.8052344122434
 30
0.0
 10
81.12717459694001
 20
-128.8052344122434
 30
0.0
 10
80.84502497978887
 20
-125.5580560797215
 30
0.0
 10
83.14083010112293
 20
-125.5018938575133
 30
0.0
 10
83.14083010112293
 20
-125.5018938575133
 30
0.0
 10
87.8437458144749
 20
-125.3899221908746
 30
0.0
 10
88.01184442129745
 20
-128.4135099678967
 30
0.0
 10
88.01184442129745
 20
-128.4135099678967
 30
0.0
 10
88.18033331128827
 20
-130.4847035784898
 30
0.0
 10
88.18033331128827
 20
-130.4847035784898
 30
0.0
 10
88.18033331128827
 20
-130.4847035784898
 30
0.0
 10
88.51518774178943
 20
-135.523181632786
 30
0.0
 10
90.19536242114683
 20
-136.0275127437708
 30
0.0
 10
90.19536242114683
 20
-136.0275127437708
 30
0.0
 10
102.6252754373667
 20
-139.2759257985142
 30
0.0
 10
102.6252754373667
 20
-139.2759257985142
 30
0.0
  0
SPLINE
  5
7D
330
1F
100
AcDbEntity
  8
_U+30EC_U+30A4_U+30E4_U+30FC 1
 62
     7
420
 16777215
370
    25
100
AcDbSpline
210
0.0
220
0.0
230
1.0
 70
     8
 71
     3
 72
    11
 73
     7
 74
     0
 42
0.0000000001
 43
0.0000000001
 12
1.0
 22
0.0
 32
0.0
 13
1.0
 23
0.0
 33
0.0
 40
0.0
 40
0.0
 40
0.0
 40
0.0
 40
1.0
 40
1.0
 40
1.0
 40
2.0
 40
2.0
 40
2.0
 40
2.0
 10
90.64391935414763
 20
-116.543948859753
 30
0.0
 10
90.64391935414763
 20
-116.543948859753
 30
0.0
 10
92.32338847796747
 20
-123.598834135767
 30
0.0
 10
92.32338847796747
 20
-123.598834135767
 30
0.0
 10
92.32338847796747
 20
-123.598834135767
 30
0.0
 10
92.93937374003015
 20
-125.2783033020138
 30
0.0
 10
91.7074055326289
 20
-124.8866141354449
 30
0.0
  0
SPLINE
  5
7E
330
1F
100
AcDbEntity
  8
_U+30EC_U+30A4_U+30E4_U+30FC 1
 62
     7
420
 16777215
370
    25
100
AcDbSpline
210
0.0
220
0.0
230
1.0
 70
     8
 71
     3
 72
     8
 73
     4
 74
     0
 42
0.0000000001
 43
0.0000000001
 12
1.0
 22
0.0
 32
0.0
 13
1.0
 23
0.0
 33
0.0
 40
0.0
 40
0.0
 40
0.0
 40
0.0
 40
1.0
 40
1.0
 40
1.0
 40
1.0
 10
85.71639003541493
 20
-123.206439413643
 30
0.0
 10
84.59674395286837
 20
-121.6947160806875
 30
0.0
 10
88.85212578874898
 20
-116.4316596931142
 30
0.0
 10
88.85212578874898
 20
-116.4316596931142
 30
0.0
  0
POLYLINE
  5
7F
330
1F
100
AcDbEntity
  8
_U+30EC_U+30A4_U+30E4_U+30FC 1
 62
     7
420
 16777215
370
     9
100
AcDb2dPolyline
 66
     1
 10
0.0
 20
0.0
 30
0.0
  0
VERTEX
  5
80
330
7F
100
AcDbEntity
  8
_U+30EC_U+30A4_U+30E4_U+30FC 1
 62
     7
420
 16777215
370
     9
100
AcDbVertex
100
AcDb2dVertex
 10
80.34136211698775
 20
-132.5562499668609
 30
0.0
  0
VERTEX
  5
81
330
7F
100
AcDbEntity
  8
_U+30EC_U+30A4_U+30E4_U+30FC 1
 62
     7
420
 16777215
370
     9
100
AcDbVertex
100
AcDb2dVertex
 10
85.5482583119462
 20
-128.4135099678967
 30
0.0
  0
VERTEX
  5
82
330
7F
100
AcDbEntity
  8
_U+30EC_U+30A4_U+30E4_U+30FC 1
 62
     7
420
 16777215
370
     9
100
AcDbVertex
100
AcDb2dVertex
 10
85.88448864223749
 20
-125.9500980240681
 30
0.0
  0
SEQEND
  5
83
330
7F
100
AcDbEntity
  8
_U+30EC_U+30A4_U+30E4_U+30FC 1
 62
     7
420
 16777215
370
     9
  0
POLYLINE
  5
84
330
1F
100
AcDbEntity
  8
_U+30EC_U+30A4_U+30E4_U+30FC 1
 62
     7
420
 16777215
370
     9
100
AcDb2dPolyline
 66
     1
 10
0.0
 20
0.0
 30
0.0
  0
VERTEX
  5
85
330
84
100
AcDbEntity
  8
_U+30EC_U+30A4_U+30E4_U+30FC 1
 62
     7
420
 16777215
370
     9
100
AcDbVertex
100
AcDb2dVertex
 10
87.73244442842554
 20
-126.454111635053
 30
0.0
  0
VERTEX
  5
86
330
84
100
AcDbEntity
  8
_U+30EC_U+30A4_U+30E4_U+30FC 1
 62
     7
420
 16777215
370
     9
100
AcDbVertex
100
AcDb2dVertex
 10
90.58775713335822
 20
-123.9905233023355
 30
0.0
  0
SEQEND
  5
87
330
84
100
AcDbEntity
  8
_U+30EC_U+30A4_U+30E4_U+30FC 1
 62
     7
420
 16777215
370
     9
  0
POLYLINE
  5
88
330
1F
100
AcDbEntity
  8
_U+30EC_U+30A4_U+30E4_U+30FC 1
 62
     7
420
 16777215
370
     9
100
AcDb2dPolyline
 66
     1
 10
0.0
 20
0.0
 30
0.0
  0
VERTEX
  5
89
330
88
100
AcDbEntity
  8
_U+30EC_U+30A4_U+30E4_U+30FC 1
 62
     7
420
 16777215
370
     9
100
AcDbVertex
100
AcDb2dVertex
 10
82.63681650287029
 20
-125.5018938575133
 30
0.0
  0
VERTEX
  5
8A
330
88
100
AcDbEntity
  8
_U+30EC_U+30A4_U+30E4_U+30FC 1
 62
     7
420
 16777215
370
     9
100
AcDbVertex
100
AcDb2dVertex
 10
91.09177073161088
 20
-119.6228521923164
 30
0.0
  0
SEQEND
  5
8B
330
88
100
AcDbEntity
  8
_U+30EC_U+30A4_U+30E4_U+30FC 1
 62
     7
420
 16777215
370
     9
  0
POLYLINE
  5
8C
330
1F
100
AcDbEntity
  8
_U+30EC_U+30A4_U+30E4_U+30FC 1
 62
     7
420
 16777215
370
     9
100
AcDb2dPolyline
 66
     1
 10
0.0
 20
0.0
 30
0.0
  0
VERTEX
  5
8D
330
8C
100
AcDbEntity
  8
_U+30EC_U+30A4_U+30E4_U+30FC 1
 62
     7
420
 16777215
370
     9
100
AcDbVertex
100
AcDb2dVertex
 10
88.85212578874898
 20
-116.3196880264755
 30
0.0
  0
VERTEX
  5
8E
330
8C
100
AcDbEntity
  8
_U+30EC_U+30A4_U+30E4_U+30FC 1
 62
     7
420
 16777215
370
     9
100
AcDbVertex
100
AcDb2dVertex
 10
91.76356543669418
 20
-115.0877174712281
 30
0.0
  0
VERTEX
  5
8F
330
8C
100
AcDbEntity
  8
_U+30EC_U+30A4_U+30E4_U+30FC 1
 62
     7
420
 16777215
370
     9
100
AcDbVertex
100
AcDb2dVertex
 10
92.21141681415743
 20
-115.5362744155603
 30
0.0
  0
SEQEND
  5
90
330
8C
100
AcDbEntity
  8
_U+30EC_U+30A4_U+30E4_U+30FC 1
 62
     7
420
 16777215
370
     9
  0
SPLINE
  5
91
330
1F
100
AcDbEntity
  8
_U+30EC_U+30A4_U+30E4_U+30FC 1
 62
     7
420
 16777215
370
     9
100
AcDbSpline
210
0.0
220
0.0
230
1.0
 70
     8
 71
     3
 72
    29
 73
    25
 74
     0
 42
0.0000000001
 43
0.0000000001
 12
1.0
 22
0.0
 32
0.0
 13
1.0
 23
0.0
 33
0.0
 40
0.0
 40
0.0
 40
0.0
 40
0.0
 40
1.0
 40
1.0
 40
1.0
 40
2.0
 40
2.0
 40
2.0
 40
3.0
 40
3.0
 40
3.0
 40
4.0
 40
4.0
 40
4.0
 40
5.0
 40
5.0
 40
5.0
 40
6.0
 40
6.0
 40
6.0
 40
7.0
 40
7.0
 40
7.0
 40
8.0
 40
8.0
 40
8.0
 40
8.0
 10
90.53159719958933
 20
-116.543948859753
 30
0.0
 10
90.53159719958933
 20
-116.543948859753
 30
0.0
 10
93.83511177273353
 20
-115.0877174712281
 30
0.0
 10
93.83511177273353
 20
-115.0877174712281
 30
0.0
 10
93.83511177273353
 20
-115.0877174712281
 30
0.0
 10
98.20242999464729
 20
-119.0075371924702
 30
0.0
 10
96.91468530527817
 20
-121.0229213586332
 30
0.0
 10
96.91468530527817
 20
-121.0229213586332
 30
0.0
 10
98.25894499320547
 20
-122.9266866359349
 30
0.0
 10
97.86690553108872
 20
-126.2305210795535
 30
0.0
 10
97.86690553108872
 20
-126.2305210795535
 30
0.0
 10
98.20242999464729
 20
-127.6294260792038
 30
0.0
 10
98.81841525670997
 20
-127.8530166347033
 30
0.0
 10
98.81841525670997
 20
-127.8530166347033
 30
0.0
 10
98.76228831369744
 20
-128.8610438566738
 30
0.0
 10
98.76228831369744
 20
-128.8610438566738
 30
0.0
 10
98.76228831369744
 20
-128.8610438566738
 30
0.0
 10
96.18672837940545
 20
-131.49241330046
 30
0.0
 10
96.18672837940545
 20
-131.49241330046
 30
0.0
 10
96.18672837940545
 20
-131.49241330046
 30
0.0
 10
93.94704815876668
 20
-133.2848771889008
 30
0.0
 10
92.77123985543071
 20
-130.3727319118511
 30
0.0
 10
92.77123985543071
 20
-130.3727319118511
 30
0.0
 10
92.71511291241819
 20
-127.1254124682185
 30
0.0
 10
91.65159377288415
 20
-124.8866141354449
 30
0.0
  0
POLYLINE
  5
92
330
1F
100
AcDbEntity
  8
_U+30EC_U+30A4_U+30E4_U+30FC 1
 62
     7
420
 16777215
370
     9
100
AcDb2dPolyline
 66
     1
 10
0.0
 20
0.0
 30
0.0
  0
VERTEX
  5
93
330
92
100
AcDbEntity
  8
_U+30EC_U+30A4_U+30E4_U+30FC 1
 62
     7
420
 16777215
370
     9
100
AcDbVertex
100
AcDb2dVertex
 10
92.4915223625669
 20
-124.4942194133209
 30
0.0
  0
VERTEX
  5
94
330
92
100
AcDbEntity
  8
_U+30EC_U+30A4_U+30E4_U+30FC 1
 62
     7
420
 16777215
370
     9
100
AcDbVertex
100
AcDb2dVertex
 10
96.91468530527817
 20
-120.8548227475642
 30
0.0
  0
SEQEND
  5
95
330
92
100
AcDbEntity
  8
_U+30EC_U+30A4_U+30E4_U+30FC 1
 62
     7
420
 16777215
370
     9
  0
POLYLINE
  5
96
330
1F
100
AcDbEntity
  8
_U+30EC_U+30A4_U+30E4_U+30FC 1
 62
     7
420
 16777215
370
     9
100
AcDb2dPolyline
 66
     1
 10
0.0
 20
0.0
 30
0.0
  0
VERTEX
  5
97
330
96
100
AcDbEntity
  8
_U+30EC_U+30A4_U+30E4_U+30FC 1
 62
     7
420
 16777215
370
     9
100
AcDbVertex
100
AcDb2dVertex
 10
85.49244670779487
 20
-122.0306310806034
 30
0.0
  0
VERTEX
  5
98
330
96
100
AcDbEntity
  8
_U+30EC_U+30A4_U+30E4_U+30FC 1
 62
     7
420
 16777215
370
     9
100
AcDbVertex
100
AcDb2dVertex
 10
83.30896398572237
 20
-121.4153160807572
 30
0.0
  0
VERTEX
  5
99
330
96
100
AcDbEntity
  8
_U+30EC_U+30A4_U+30E4_U+30FC 1
 62
     7
420
 16777215
370
     9
100
AcDbVertex
100
AcDb2dVertex
 10
68.63940602664064
 20
-130.6528374673366
 30
0.0
  0
SEQEND
  5
9A
330
96
100
AcDbEntity
  8
_U+30EC_U+30A4_U+30E4_U+30FC 1
 62
     7
420
 16777215
370
     9
  0
SPLINE
  5
9B
330
1F
100
AcDbEntity
  8
_U+30EC_U+30A4_U+30E4_U+30FC 1
 62
     7
420
 16777215
370
     9
100
AcDbSpline
210
0.0
220
0.0
230
1.0
 70
     8
 71
     3
 72
    20
 73
    16
 74
     0
 42
0.0000000001
 43
0.0000000001
 12
1.0
 22
0.0
 32
0.0
 13
1.0
 23
0.0
 33
0.0
 40
0.0
 40
0.0
 40
0.0
 40
0.0
 40
1.0
 40
1.0
 40
1.0
 40
2.0
 40
2.0
 40
2.0
 40
3.0
 40
3.0
 40
3.0
 40
4.0
 40
4.0
 40
4.0
 40
5.0
 40
5.0
 40
5.0
 40
5.0
 10
95.40260923274333
 20
-116.8237016374608
 30
0.0
 10
95.40260923274333
 20
-116.8237016374608
 30
0.0
 10
97.86619997553319
 20
-116.8237016374608
 30
0.0
 10
97.86619997553319
 20
-116.8237016374608
 30
0.0
 10
97.86619997553319
 20
-116.8237016374608
 30
0.0
 10
99.881934396244
 20
-117.1038071929462
 30
0.0
 10
99.881934396244
 20
-120.5189077476479
 30
0.0
 10
99.881934396244
 20
-120.5189077476479
 30
0.0
 10
99.60253440337209
 20
-124.9420708020979
 30
0.0
 10
103.5216837478307
 20
-125.4457316353051
 30
0.0
 10
103.5216837478307
 20
-125.4457316353051
 30
0.0
 10
113.3756840519898
 20
-127.6294260792038
 30
0.0
 10
113.3756840519898
 20
-127.6294260792038
 30
0.0
 10
113.3756840519898
 20
-127.6294260792038
 30
0.0
 10
102.6814023803792
 20
-139.2759257985142
 30
0.0
 10
102.6814023803792
 20
-139.2759257985142
 30
0.0
  0
SPLINE
  5
9C
330
1F
100
AcDbEntity
  8
_U+30EC_U+30A4_U+30E4_U+30FC 1
 62
     7
420
 16777215
370
     9
100
AcDbSpline
210
0.0
220
0.0
230
1.0
 70
    11
 71
     3
 72
    17
 73
    13
 74
     0
 42
0.0000000001
 43
0.0000000001
 12
1.0
 22
0.0
 32
0.0
 13
1.0
 23
0.0
 33
0.0
 40
0.0
 40
0.0
 40
0.0
 40
0.0
 40
1.0
 40
1.0
 40
1.0
 40
2.0
 40
2.0
 40
2.0
 40
3.0
 40
3.0
 40
3.0
 40
4.0
 40
4.0
 40
4.0
 40
4.0
 10
102.905698485768
 20
-131.1013944116692
 30
0.0
 10
102.905698485768
 20
-131.471740522688
 30
0.0
 10
102.2914444188713
 20
-131.7728363559457
 30
0.0
 10
101.5338515763223
 20
-131.7728363559457
 30
0.0
 10
100.7759438178804
 20
-131.7728363559457
 30
0.0
 10
100.1616871668847
 20
-131.471740522688
 30
0.0
 10
100.1616871668847
 20
-131.1013944116692
 30
0.0
 10
100.1616871668847
 20
-130.7296724673175
 30
0.0
 10
100.7759438178804
 20
-130.4288941340593
 30
0.0
 10
101.5338515763223
 20
-130.4288941340593
 30
0.0
 10
102.2914444188713
 20
-130.4288941340593
 30
0.0
 10
102.905698485768
 20
-130.7296724673175
 30
0.0
 10
102.905698485768
 20
-131.1013944116692
 30
0.0
  0
SPLINE
  5
9D
330
1F
100
AcDbEntity
  8
_U+30EC_U+30A4_U+30E4_U+30FC 1
 62
     7
420
 16777215
370
     9
100
AcDbSpline
210
0.0
220
0.0
230
1.0
 70
     8
 71
     3
 72
     8
 73
     4
 74
     0
 42
0.0000000001
 43
0.0000000001
 12
1.0
 22
0.0
 32
0.0
 13
1.0
 23
0.0
 33
0.0
 40
0.0
 40
0.0
 40
0.0
 40
0.0
 40
1.0
 40
1.0
 40
1.0
 40
1.0
 10
100.1616871668847
 20
-131.1013944116692
 30
0.0
 10
100.1616871668847
 20
-131.1013944116692
 30
0.0
 10
101.3402471368171
 20
-130.2607955229906
 30
0.0
 10
102.7957729330169
 20
-130.9332605228223
 30
0.0
  0
SPLINE
  5
9E
330
1F
100
AcDbEntity
  8
_U+30EC_U+30A4_U+30E4_U+30FC 1
 62
     7
420
 16777215
370
     9
100
AcDbSpline
210
0.0
220
0.0
230
1.0
 70
    11
 71
     3
 72
    17
 73
    13
 74
     0
 42
0.0000000001
 43
0.0000000001
 12
1.0
 22
0.0
 32
0.0
 13
1.0
 23
0.0
 33
0.0
 40
0.0
 40
0.0
 40
0.0
 40
0.0
 40
1.0
 40
1.0
 40
1.0
 40
2.0
 40
2.0
 40
2.0
 40
3.0
 40
3.0
 40
3.0
 40
4.0
 40
4.0
 40
4.0
 40
4.0
 10
81.29287431493488
 20
-125.8381263574294
 30
0.0
 10
81.29287431493488
 20
-126.1161505240265
 30
0.0
 10
80.87945404770433
 20
-126.3421752461922
 30
0.0
 10
80.3689140607293
 20
-126.3421752461922
 30
0.0
 10
79.85869157374616
 20
-126.3421752461922
 30
0.0
 10
79.44527130651561
 20
-126.1161505240265
 30
0.0
 10
79.44527130651561
 20
-125.8381263574294
 30
0.0
 10
79.44527130651561
 20
-125.5601374686099
 30
0.0
 10
79.85869157374616
 20
-125.334465524222
 30
0.0
 10
80.3689140607293
 20
-125.334465524222
 30
0.0
 10
80.87945404770433
 20
-125.334465524222
 30
0.0
 10
81.29287431493488
 20
-125.5601374686099
 30
0.0
 10
81.29287431493488
 20
-125.8381263574294
 30
0.0
  0
SPLINE
  5
9F
330
1F
100
AcDbEntity
  8
_U+30EC_U+30A4_U+30E4_U+30FC 1
 62
     7
420
 16777215
370
     9
100
AcDbSpline
210
0.0
220
0.0
230
1.0
 70
     8
 71
     3
 72
     8
 73
     4
 74
     0
 42
0.0000000001
 43
0.0000000001
 12
1.0
 22
0.0
 32
0.0
 13
1.0
 23
0.0
 33
0.0
 40
0.0
 40
0.0
 40
0.0
 40
0.0
 40
1.0
 40
1.0
 40
1.0
 40
1.0
 10
79.44527130651561
 20
-125.8381263574294
 30
0.0
 10
79.44527130651561
 20
-125.8381263574294
 30
0.0
 10
80.56491942430307
 20
-125.2221410798056
 30
0.0
 10
81.29287431493488
 20
-125.8381263574294
 30
0.0
  0
POLYLINE
  5
A0
330
1F
100
AcDbEntity
  8
_U+30EC_U+30A4_U+30E4_U+30FC 1
 62
   179
420
  2234388
370
     9
100
AcDb2dPolyline
 66
     1
 10
0.0
 20
0.0
 30
0.0
  0
VERTEX
  5
A1
330
A0
100
AcDbEntity
  8
_U+30EC_U+30A4_U+30E4_U+30FC 1
 62
   179
420
  2234388
370
     9
100
AcDbVertex
100
AcDb2dVertex
 10
99.26767774524833
 20
-142.070243297816
 30
0.0
  0
VERTEX
  5
A2
330
A0
100
AcDbEntity
  8
_U+30EC_U+30A4_U+30E4_U+30FC 1
 62
   179
420
  2234388
370
     9
100
AcDbVertex
100
AcDb2dVertex
 10
101.7002568498547
 20
-140.2171016316124
 30
0.0
  0
SEQEND
  5
A3
330
A0
100
AcDbEntity
  8
_U+30EC_U+30A4_U+30E4_U+30FC 1
 62
   179
420
  2234388
370
     9
  0
POLYLINE
  5
A4
330
1F
100
AcDbEntity
  8
_U+30EC_U+30A4_U+30E4_U+30FC 1
 62
   179
420
  2234388
370
     9
100
AcDb2dPolyline
 66
     1
 10
0.0
 20
0.0
 30
0.0
  0
VERTEX
  5
A5
330
A4
100
AcDbEntity
  8
_U+30EC_U+30A4_U+30E4_U+30FC 1
 62
   179
420
  2234388
370
     9
100
AcDbVertex
100
AcDb2dVertex
 10
65.59546304874254
 20
-133.1398502444929
 30
0.0
  0
VERTEX
  5
A6
330
A4
100
AcDbEntity
  8
_U+30EC_U+30A4_U+30E4_U+30FC 1
 62
   179
420
  2234388
370
     9
100
AcDbVertex
100
AcDb2dVertex
 10
68.02754998299305
 20
-131.2867438560674
 30
0.0
  0
SEQEND
  5
A7
330
A4
100
AcDbEntity
  8
_U+30EC_U+30A4_U+30E4_U+30FC 1
 62
   179
420
  2234388
370
     9
  0
POLYLINE
  5
A8
330
1F
100
AcDbEntity
  8
_U+30EC_U+30A4_U+30E4_U+30FC 1
 62
   179
420
  2234388
370
     9
100
AcDb2dPolyline
 66
     1
 10
0.0
 20
0.0
 30
0.0
  0
VERTEX
  5
A9
330
A8
100
AcDbEntity
  8
_U+30EC_U+30A4_U+30E4_U+30FC 1
 62
   179
420
  2234388
370
     9
100
AcDbVertex
100
AcDb2dVertex
 10
66.65175024401663
 20
-132.3347408002498
 30
0.0
  0
VERTEX
  5
AA
330
A8
100
AcDbEntity
  8
_U+30EC_U+30A4_U+30E4_U+30FC 1
 62
   179
420
  2234388
370
     9
100
AcDbVertex
100
AcDb2dVertex
 10
100.296377719004
 20
-141.286476909123
 30
0.0
  0
SEQEND
  5
AB
330
A8
100
AcDbEntity
  8
_U+30EC_U+30A4_U+30E4_U+30FC 1
 62
   179
420
  2234388
370
     9
  0
POLYLINE
  5
AC
330
1F
100
AcDbEntity
  8
_U+30EC_U+30A4_U+30E4_U+30FC 1
370
     0
100
AcDb2dPolyline
 66
     1
 10
0.0
 20
0.0
 30
0.0
  0
VERTEX
  5
AD
330
AC
100
AcDbEntity
  8
_U+30EC_U+30A4_U+30E4_U+30FC 1
370
     0
100
AcDbVertex
100
AcDb2dVertex
 10
84.72229756077634
 20
-138.5627855209151
 30
0.0
  0
VERTEX
  5
AE
330
AC
100
AcDbEntity
  8
_U+30EC_U+30A4_U+30E4_U+30FC 1
370
     0
100
AcDbVertex
100
AcDb2dVertex
 10
81.49148819875671
 20
-138.5627855209151
 30
0.0
  0
VERTEX
  5
AF
330
AC
100
AcDbEntity
  8
_U+30EC_U+30A4_U+30E4_U+30FC 1
370
     0
100
AcDbVertex
100
AcDb2dVertex
 10
81.49148819875671
 20
-135.5627985772201
 30
0.0
  0
VERTEX
  5
B0
330
AC
100
AcDbEntity
  8
_U+30EC_U+30A4_U+30E4_U+30FC 1
370
     0
100
AcDbVertex
100
AcDb2dVertex
 10
84.72229756077634
 20
-135.5627985772201
 30
0.0
  0
VERTEX
  5
B1
330
AC
100
AcDbEntity
  8
_U+30EC_U+30A4_U+30E4_U+30FC 1
370
     0
100
AcDbVertex
100
AcDb2dVertex
 10
84.72229756077634
 20
-138.5627855209151
 30
0.0
  0
SEQEND
  5
B3
330
AC
100
AcDbEntity
  8
_U+30EC_U+30A4_U+30E4_U+30FC 1
370
     0
  0
HATCH
  5
B2
330
1F
100
AcDbEntity
  8
_U+30EC_U+30A4_U+30E4_U+30FC 1
 62
     7
420
 16711422
100
AcDbHatch
 10
0.0
 20
0.0
 30
0.0
210
0.0
220
0.0
230
1.0
  2
SOLID
 70
     1
 71
     0
 91
        1
 92
        1
 93
        4
 72
     1
 10
84.72229756077634
 20
-138.5627855209151
 11
81.49148819875671
 21
-138.5627855209151
 72
     1
 10
81.49148819875671
 20
-138.5627855209151
 11
81.49148819875671
 21
-135.5627985772201
 72
     1
 10
81.49148819875671
 20
-135.5627985772201
 11
84.72229756077634
 21
-135.5627985772201
 72
     1
 10
84.72229756077634
 20
-135.5627985772201
 11
84.72229756077634
 21
-138.5627855209151
 97
        0
 75
     2
 76
     1
 98
        0
  0
INSERT
  5
B5
330
1F
100
AcDbEntity
  8
_U+30EC_U+30A4_U+30E4_U+30FC 1
100
AcDbBlockReference
  2
block 3
 10
0.0
 20
0.0
 30
0.0
  0
SPLINE
  5
BC
330
1F
100
AcDbEntity
  8
_U+30EC_U+30A4_U+30E4_U+30FC 1
 62
   179
420
  2234388
370
     9
100
AcDbSpline
210
0.0
220
0.0
230
1.0
 70
    11
 71
     3
 72
    17
 73
    13
 74
     0
 42
0.0000000001
 43
0.0000000001
 12
1.0
 22
0.0
 32
0.0
 13
1.0
 23
0.0
 33
0.0
 40
0.0
 40
0.0
 40
0.0
 40
0.0
 40
1.0
 40
1.0
 40
1.0
 40
2.0
 40
2.0
 40
2.0
 40
3.0
 40
3.0
 40
3.0
 40
4.0
 40
4.0
 40
4.0
 40
4.0
 10
66.61693107823828
 20
-132.428085800226
 30
0.0
 10
66.66984774355493
 20
-132.4473827446658
 30
0.0
 10
66.7261527610964
 20
-132.4201835780058
 30
0.0
 10
66.7450952416352
 20
-132.3688544113524
 30
0.0
 10
66.7654152411168
 20
-132.3164669113651
 30
0.0
 10
66.73751051960649
 20
-132.2589288558241
 30
0.0
 10
66.68618135424933
 20
-132.2406902447175
 30
0.0
 10
66.63453468890029
 20
-132.2210405225005
 30
0.0
 10
66.57682024592826
 20
-132.2482749669381
 30
0.0
 10
66.55805246862928
 20
-132.2999216335917
 30
0.0
 10
66.54030774685977
 20
-132.3523091335784
 30
0.0
 10
66.56510802400484
 20
-132.4091416335646
 30
0.0
 10
66.61693107823828
 20
-132.428085800226
 30
0.0
  0
SPLINE
  5
BD
330
1F
100
AcDbEntity
  8
_U+30EC_U+30A4_U+30E4_U+30FC 1
 62
   179
420
  2234388
370
     9
100
AcDbSpline
210
0.0
220
0.0
230
1.0
 70
    11
 71
     3
 72
    17
 73
    13
 74
     0
 42
0.0000000001
 43
0.0000000001
 12
1.0
 22
0.0
 32
0.0
 13
1.0
 23
0.0
 33
0.0
 40
0.0
 40
0.0
 40
0.0
 40
0.0
 40
1.0
 40
1.0
 40
1.0
 40
2.0
 40
2.0
 40
2.0
 40
3.0
 40
3.0
 40
3.0
 40
4.0
 40
4.0
 40
4.0
 40
4.0
 10
66.63933246655566
 20
-132.3674433002414
 30
0.0
 10
66.62074107814108
 20
-132.3609169113541
 30
0.0
 10
66.61093385616905
 20
-132.3402441335814
 30
0.0
 10
66.61834218931338
 20
-132.3219702446973
 30
0.0
 10
66.62522135580456
 20
-132.3040844113685
 30
0.0
 10
66.64554135528614
 20
-132.295123855815
 30
0.0
 10
66.66310968817128
 20
-132.300979966925
 30
0.0
 10
66.68187746547025
 20
-132.3082119113672
 30
0.0
 10
66.69189635410353
 20
-132.3285319113621
 30
0.0
 10
66.68604024314182
 20
-132.3464530224691
 30
0.0
 10
66.67863190999749
 20
-132.3643741335754
 30
0.0
 10
66.65707718832518
 20
-132.375028022462
 30
0.0
 10
66.63933246655566
 20
-132.3674433002414
 30
0.0
  0
SPLINE
  5
BE
330
1F
100
AcDbEntity
  8
_U+30EC_U+30A4_U+30E4_U+30FC 1
 62
   179
420
  2234388
370
     9
100
AcDbSpline
210
0.0
220
0.0
230
1.0
 70
    11
 71
     3
 72
    17
 73
    13
 74
     0
 42
0.0000000001
 43
0.0000000001
 12
1.0
 22
0.0
 32
0.0
 13
1.0
 23
0.0
 33
0.0
 40
0.0
 40
0.0
 40
0.0
 40
0.0
 40
1.0
 40
1.0
 40
1.0
 40
2.0
 40
2.0
 40
2.0
 40
3.0
 40
3.0
 40
3.0
 40
4.0
 40
4.0
 40
4.0
 40
4.0
 10
100.2619138638235
 20
-141.3798219090992
 30
0.0
 10
100.3146163296498
 20
-141.399118853539
 30
0.0
 10
100.3707785504392
 20
-141.371919686879
 30
0.0
 10
100.3900754943914
 20
-141.3205905202256
 30
0.0
 10
100.4100805304532
 20
-141.2682030202383
 30
0.0
 10
100.3824907723626
 20
-141.2106649646972
 30
0.0
 10
100.3308088292367
 20
-141.1924263535907
 30
0.0
 10
100.2791621638877
 20
-141.1727766313737
 30
0.0
 10
100.2216241098
 20
-141.2000110758113
 30
0.0
 10
100.2026799436167
 20
-141.2516577424649
 30
0.0
 10
100.1851116107315
 20
-141.3040452424515
 30
0.0
 10
100.2099118878766
 20
-141.3608777424378
 30
0.0
 10
100.2619138638235
 20
-141.3798219090992
 30
0.0
  0
SPLINE
  5
BF
330
1F
100
AcDbEntity
  8
_U+30EC_U+30A4_U+30E4_U+30FC 1
 62
   179
420
  2234388
370
     9
100
AcDbSpline
210
0.0
220
0.0
230
1.0
 70
    11
 71
     3
 72
    17
 73
    13
 74
     0
 42
0.0000000001
 43
0.0000000001
 12
1.0
 22
0.0
 32
0.0
 13
1.0
 23
0.0
 33
0.0
 40
0.0
 40
0.0
 40
0.0
 40
0.0
 40
1.0
 40
1.0
 40
1.0
 40
2.0
 40
2.0
 40
2.0
 40
3.0
 40
3.0
 40
3.0
 40
4.0
 40
4.0
 40
4.0
 40
4.0
 10
100.283959941543
 20
-141.3191794091146
 30
0.0
 10
100.2653685531285
 20
-141.3126530202273
 30
0.0
 10
100.2557377200408
 20
-141.2919802424545
 30
0.0
 10
100.2632871642927
 20
-141.2737063535705
 30
0.0
 10
100.2702016085607
 20
-141.2558205202417
 30
0.0
 10
100.2901688302735
 20
-141.2468599646882
 30
0.0
 10
100.3080899409274
 20
-141.2527160757982
 30
0.0
 10
100.326681329342
 20
-141.2599480202404
 30
0.0
 10
100.3366649401984
 20
-141.2802680202353
 30
0.0
 10
100.3308088292367
 20
-141.2981891313422
 30
0.0
 10
100.3232593849849
 20
-141.3161102424486
 30
0.0
 10
100.3018810521969
 20
-141.3267641313352
 30
0.0
 10
100.283959941543
 20
-141.3191794091146
 30
0.0
  0
ENDSEC
  0
SECTION
  2
OBJECTS
  0
DICTIONARY
  5
C
330
0
100
AcDbDictionary
281
     1
  3
ACAD_GROUP
350
D
  3
ACAD_LAYOUT
350
1A
  3
ACAD_MATERIAL
350
3B
  3
ACAD_MLEADERSTYLE
350
C1
  3
ACAD_MLINESTYLE
350
17
  3
ACAD_PLOTSETTINGS
350
19
  3
ACAD_PLOTSTYLENAME
350
E
  3
ACAD_TABLESTYLE
350
C0
  3
ACAD_VISUALSTYLE
350
2A
  0
SUN
  5
3F
330
29
100
AcDbSun
 90
        1
290
     0
 63
     7
421
 16777215
 40
1.0
291
     1
 91
  2455826
 92
 54000000
292
     0
 70
     2
 71
   256
280
     1
  0
DICTIONARY
  5
D
102
{ACAD_REACTORS
330
C
102
}
330
C
100
AcDbDictionary
281
     1
  0
DICTIONARY
  5
1A
102
{ACAD_REACTORS
330
C
102
}
330
C
100
AcDbDictionary
281
     1
  3
Layout1
350
1E
  3
Layout2
350
26
  3
Model
350
22
  0
DICTIONARY
  5
3B
102
{ACAD_REACTORS
330
C
102
}
330
C
100
AcDbDictionary
281
     1
  3
ByBlock
350
3D
  3
ByLayer
350
3C
  3
Global
350
3E
  0
DICTIONARY
  5
C1
102
{ACAD_REACTORS
330
C
102
}
330
C
100
AcDbDictionary
281
     1
  0
DICTIONARY
  5
17
102
{ACAD_REACTORS
330
C
102
}
330
C
100
AcDbDictionary
281
     1
  3
Standard
350
18
  0
DICTIONARY
  5
19
102
{ACAD_REACTORS
330
C
102
}
330
C
100
AcDbDictionary
281
     1
  0
ACDBDICTIONARYWDFLT
  5
E
102
{ACAD_REACTORS
330
C
102
}
330
C
100
AcDbDictionary
281
     1
  3
Normal
350
F
100
AcDbDictionaryWithDefault
340
F
  0
DICTIONARY
  5
C0
102
{ACAD_REACTORS
330
C
102
}
330
C
100
AcDbDictionary
281
     1
  0
DICTIONARY
  5
2A
102
{ACAD_REACTORS
330
C
102
}
330
C
100
AcDbDictionary
281
     1
  3
2dWireframe
350
2F
  3
3D Hidden
350
31
  3
3dWireframe
350
30
  3
Basic
350
32
  3
Brighten
350
36
  3
ColorChange
350
3A
  3
Conceptual
350
34
  3
Dim
350
35
  3
Facepattern
350
39
  3
Flat
350
2B
  3
FlatWithEdges
350
2C
  3
Gouraud
350
2D
  3
GouraudWithEdges
350
2E
  3
Linepattern
350
38
  3
Realistic
350
33
  3
Thicken
350
37
  0
LAYOUT
  5
1E
102
{ACAD_REACTORS
330
1A
102
}
330
1A
100
AcDbPlotSettings
  1

  2
none_device
  4

  6

 40
0.0
 41
0.0
 42
0.0
 43
0.0
 44
0.0
 45
0.0
 46
0.0
 47
0.0
 48
0.0
 49
0.0
140
0.0
141
0.0
142
1.0
143
1.0
 70
   688
 72
     0
 73
     0
 74
     5
  7

 75
    16
 76
     0
 77
     2
 78
   300
147
1.0
148
0.0
149
0.0
100
AcDbLayout
  1
Layout1
 70
     1
 71
     1
 10
0.0
 20
0.0
 11
12.0
 21
9.0
 12
0.0
 22
0.0
 32
0.0
 14
1.000000000000000E+20
 24
1.000000000000000E+20
 34
1.000000000000000E+20
 15
-1.000000000000000E+20
 25
-1.000000000000000E+20
 35
-1.000000000000000E+20
146
0.0
 13
0.0
 23
0.0
 33
0.0
 16
1.0
 26
0.0
 36
0.0
 17
0.0
 27
1.0
 37
0.0
 76
     0
330
1B
  0
LAYOUT
  5
26
102
{ACAD_REACTORS
330
1A
102
}
330
1A
100
AcDbPlotSettings
  1

  2
none_device
  4

  6

 40
0.0
 41
0.0
 42
0.0
 43
0.0
 44
0.0
 45
0.0
 46
0.0
 47
0.0
 48
0.0
 49
0.0
140
0.0
141
0.0
142
1.0
143
1.0
 70
   688
 72
     0
 73
     0
 74
     5
  7

 75
    16
 76
     0
 77
     2
 78
   300
147
1.0
148
0.0
149
0.0
100
AcDbLayout
  1
Layout2
 70
     1
 71
     2
 10
0.0
 20
0.0
 11
0.0
 21
0.0
 12
0.0
 22
0.0
 32
0.0
 14
0.0
 24
0.0
 34
0.0
 15
0.0
 25
0.0
 35
0.0
146
0.0
 13
0.0
 23
0.0
 33
0.0
 16
1.0
 26
0.0
 36
0.0
 17
0.0
 27
1.0
 37
0.0
 76
     0
330
23
  0
LAYOUT
  5
22
102
{ACAD_REACTORS
330
1A
102
}
330
1A
100
AcDbPlotSettings
  1

  2
none_device
  4

  6

 40
0.0
 41
0.0
 42
0.0
 43
0.0
 44
0.0
 45
0.0
 46
0.0
 47
0.0
 48
0.0
 49
0.0
140
0.0
141
0.0
142
1.0
143
1.0
 70
  1712
 72
     0
 73
     0
 74
     0
  7

 75
     0
 76
     0
 77
     2
 78
   300
147
1.0
148
0.0
149
0.0
100
AcDbLayout
  1
Model
 70
     1
 71
     0
 10
0.0
 20
0.0
 11
12.0
 21
9.0
 12
0.0
 22
0.0
 32
0.0
 14
1.000000000000000E+20
 24
1.000000000000000E+20
 34
1.000000000000000E+20
 15
-1.000000000000000E+20
 25
-1.000000000000000E+20
 35
-1.000000000000000E+20
146
0.0
 13
0.0
 23
0.0
 33
0.0
 16
1.0
 26
0.0
 36
0.0
 17
0.0
 27
1.0
 37
0.0
 76
     0
330
1F
331
29
  0
MATERIAL
  5
3D
102
{ACAD_REACTORS
330
3B
102
}
330
3B
100
AcDbMaterial
  1
ByBlock
 72
     1
 94
      127
  0
MATERIAL
  5
3C
102
{ACAD_REACTORS
330
3B
102
}
330
3B
100
AcDbMaterial
  1
ByLayer
 72
     1
 94
      127
  0
MATERIAL
  5
3E
102
{ACAD_REACTORS
330
3B
102
}
330
3B
100
AcDbMaterial
  1
Global
 72
     1
 94
      127
  0
MLINESTYLE
  5
18
102
{ACAD_REACTORS
330
17
102
}
330
17
100
AcDbMlineStyle
  2
Standard
 70
     0
  3

 62
   256
 51
90.0
 52
90.0
 71
     2
 49
0.5
 62
   256
  6
BYLAYER
 49
-0.5
 62
   256
  6
BYLAYER
  0
ACDBPLACEHOLDER
  5
F
102
{ACAD_REACTORS
330
E
102
}
330
E
  0
VISUALSTYLE
  5
2F
102
{ACAD_REACTORS
330
2A
102
}
330
2A
100
AcDbVisualStyle
  2
2dWireframe
 70
     4
177
     2
291
     0
 71
     0
176
     1
 72
     2
176
     1
 73
     0
176
     1
 90
        0
176
     1
 40
-0.6
176
     1
 41
-30.0
176
     1
 62
     5
 63
     7
421
 16777215
176
     1
 74
     1
176
     1
 91
        4
176
     1
 64
     7
176
     1
 65
   257
176
     1
 75
     1
176
     1
175
     1
176
     1
 42
1.0
176
     1
 92
        0
176
     1
 66
   257
176
     1
 43
1.0
176
     1
 76
     1
176
     1
 77
     6
176
     1
 78
     2
176
     1
 67
     7
176
     1
 79
     5
176
     1
170
     0
176
     1
171
     0
176
     1
290
     0
176
     1
 93
        1
176
     1
 44
0.0
176
     1
173
     0
176
     1
  0
VISUALSTYLE
  5
31
102
{ACAD_REACTORS
330
2A
102
}
330
2A
100
AcDbVisualStyle
  2
3D Hidden
 70
     6
177
     2
291
     0
 71
     1
176
     1
 72
     2
176
     1
 73
     2
176
     1
 90
        0
176
     1
 40
-0.6
176
     1
 41
-30.0
176
     1
 62
     5
 63
     7
421
 16777215
176
     1
 74
     2
176
     1
 91
        2
176
     1
 64
     7
176
     1
 65
   257
176
     1
 75
     2
176
     1
175
     1
176
     1
 42
40.0
176
     1
 92
        0
176
     1
 66
   257
176
     1
 43
1.0
176
     1
 76
     1
176
     1
 77
     6
176
     1
 78
     2
176
     1
 67
     7
176
     1
 79
     3
176
     1
170
     0
176
     1
171
     0
176
     1
290
     0
176
     1
 93
        1
176
     1
 44
0.0
176
     1
173
     0
176
     1
  0
VISUALSTYLE
  5
30
102
{ACAD_REACTORS
330
2A
102
}
330
2A
100
AcDbVisualStyle
  2
3dWireframe
 70
     5
177
     2
291
     0
 71
     0
176
     1
 72
     2
176
     1
 73
     0
176
     1
 90
        0
176
     1
 40
-0.6
176
     1
 41
-30.0
176
     1
 62
     5
 63
     7
421
 16777215
176
     1
 74
     1
176
     1
 91
        4
176
     1
 64
     7
176
     1
 65
   257
176
     1
 75
     1
176
     1
175
     1
176
     1
 42
1.0
176
     1
 92
        0
176
     1
 66
   257
176
     1
 43
1.0
176
     1
 76
     1
176
     1
 77
     6
176
     1
 78
     2
176
     1
 67
     7
176
     1
 79
     5
176
     1
170
     0
176
     1
171
     0
176
     1
290
     0
176
     1
 93
        1
176
     1
 44
0.0
176
     1
173
     0
176
     1
  0
VISUALSTYLE
  5
32
102
{ACAD_REACTORS
330
2A
102
}
330
2A
100
AcDbVisualStyle
  2
Basic
 70
     7
177
     2
291
     1
 71
     1
176
     1
 72
     0
176
     1
 73
     1
176
     1
 90
        0
176
     1
 40
-0.6
176
     1
 41
-30.0
176
     1
 62
     5
 63
     7
421
 16777215
176
     1
 74
     0
176
     1
 91
        4
176
     1
 64
     7
176
     1
 65
   257
176
     1
 75
     1
176
     1
175
     1
176
     1
 42
1.0
176
     1
 92
        8
176
     1
 66
     7
176
     1
 43
1.0
176
     1
 76
     1
176
     1
 77
     6
176
     1
 78
     2
176
     1
 67
     7
176
     1
 79
     5
176
     1
170
     0
176
     1
171
     0
176
     1
290
     0
176
     1
 93
        1
176
     1
 44
0.0
176
     1
173
     0
176
     1
  0
VISUALSTYLE
  5
36
102
{ACAD_REACTORS
330
2A
102
}
330
2A
100
AcDbVisualStyle
  2
Brighten
 70
    12
177
     2
291
     1
 71
     2
176
     1
 72
     2
176
     1
 73
     0
176
     1
 90
        0
176
     1
 40
-0.6
176
     1
 41
-30.0
176
     1
 62
     5
 63
     7
421
 16777215
176
     1
 74
     1
176
     1
 91
        4
176
     1
 64
     7
176
     1
 65
   257
176
     1
 75
     1
176
     1
175
     1
176
     1
 42
1.0
176
     1
 92
        8
176
     1
 66
     7
176
     1
 43
1.0
176
     1
 76
     1
176
     1
 77
     6
176
     1
 78
     2
176
     1
 67
     7
176
     1
 79
     5
176
     1
170
     0
176
     1
171
     0
176
     1
290
     0
176
     1
 93
        1
176
     1
 44
50.0
176
     1
173
     0
176
     1
  0
VISUALSTYLE
  5
3A
102
{ACAD_REACTORS
330
2A
102
}
330
2A
100
AcDbVisualStyle
  2
ColorChange
 70
    16
177
     2
291
     1
 71
     2
176
     1
 72
     2
176
     1
 73
     3
176
     1
 90
        0
176
     1
 40
-0.6
176
     1
 41
-30.0
176
     1
 62
     5
 63
     8
421
  8421504
176
     1
 74
     1
176
     1
 91
        4
176
     1
 64
     7
176
     1
 65
   257
176
     1
 75
     1
176
     1
175
     1
176
     1
 42
1.0
176
     1
 92
        8
176
     1
 66
     8
424
  8421504
176
     1
 43
1.0
176
     1
 76
     1
176
     1
 77
     6
176
     1
 78
     2
176
     1
 67
     7
176
     1
 79
     5
176
     1
170
     0
176
     1
171
     0
176
     1
290
     0
176
     1
 93
        1
176
     1
 44
0.0
176
     1
173
     0
176
     1
  0
VISUALSTYLE
  5
34
102
{ACAD_REACTORS
330
2A
102
}
330
2A
100
AcDbVisualStyle
  2
Conceptual
 70
     9
177
     2
291
     0
 71
     3
176
     1
 72
     2
176
     1
 73
     0
176
     1
 90
        0
176
     1
 40
-0.6
176
     1
 41
-30.0
176
     1
 62
     5
 63
     7
421
 16777215
176
     1
 74
     2
176
     1
 91
        2
176
     1
 64
     7
176
     1
 65
   257
176
     1
 75
     1
176
     1
175
     1
176
     1
 42
40.0
176
     1
 92
        8
176
     1
 66
     7
176
     1
 43
1.0
176
     1
 76
     1
176
     1
 77
     6
176
     1
 78
     2
176
     1
 67
     7
176
     1
 79
     3
176
     1
170
     0
176
     1
171
     0
176
     1
290
     0
176
     1
 93
        1
176
     1
 44
0.0
176
     1
173
     0
176
     1
  0
VISUALSTYLE
  5
35
102
{ACAD_REACTORS
330
2A
102
}
330
2A
100
AcDbVisualStyle
  2
Dim
 70
    11
177
     2
291
     1
 71
     2
176
     1
 72
     2
176
     1
 73
     0
176
     1
 90
        0
176
     1
 40
-0.6
176
     1
 41
-30.0
176
     1
 62
     5
 63
     7
421
 16777215
176
     1
 74
     1
176
     1
 91
        4
176
     1
 64
     7
176
     1
 65
   257
176
     1
 75
     1
176
     1
175
     1
176
     1
 42
1.0
176
     1
 92
        8
176
     1
 66
     7
176
     1
 43
1.0
176
     1
 76
     1
176
     1
 77
     6
176
     1
 78
     2
176
     1
 67
     7
176
     1
 79
     5
176
     1
170
     0
176
     1
171
     0
176
     1
290
     0
176
     1
 93
        1
176
     1
 44
-50.0
176
     1
173
     0
176
     1
  0
VISUALSTYLE
  5
39
102
{ACAD_REACTORS
330
2A
102
}
330
2A
100
AcDbVisualStyle
  2
Facepattern
 70
    15
177
     2
291
     1
 71
     2
176
     1
 72
     2
176
     1
 73
     0
176
     1
 90
        0
176
     1
 40
-0.6
176
     1
 41
-30.0
176
     1
 62
     5
 63
     7
421
 16777215
176
     1
 74
     1
176
     1
 91
        4
176
     1
 64
     7
176
     1
 65
   257
176
     1
 75
     1
176
     1
175
     1
176
     1
 42
1.0
176
     1
 92
        8
176
     1
 66
     7
176
     1
 43
1.0
176
     1
 76
     1
176
     1
 77
     6
176
     1
 78
     2
176
     1
 67
     7
176
     1
 79
     5
176
     1
170
     0
176
     1
171
     0
176
     1
290
     0
176
     1
 93
        1
176
     1
 44
0.0
176
     1
173
     0
176
     1
  0
VISUALSTYLE
  5
2B
102
{ACAD_REACTORS
330
2A
102
}
330
2A
100
AcDbVisualStyle
  2
Flat
 70
     0
177
     2
291
     1
 71
     2
176
     1
 72
     1
176
     1
 73
     1
176
     1
 90
        2
176
     1
 40
-0.6
176
     1
 41
30.0
176
     1
 62
     5
 63
     7
421
 16777215
176
     1
 74
     0
176
     1
 91
        4
176
     1
 64
     7
176
     1
 65
   257
176
     1
 75
     1
176
     1
175
     1
176
     1
 42
1.0
176
     1
 92
        8
176
     1
 66
     7
176
     1
 43
1.0
176
     1
 76
     1
176
     1
 77
     6
176
     1
 78
     2
176
     1
 67
     7
176
     1
 79
     5
176
     1
170
     0
176
     1
171
     0
176
     1
290
     0
176
     1
 93
       13
176
     1
 44
0.0
176
     1
173
     0
176
     1
  0
VISUALSTYLE
  5
2C
102
{ACAD_REACTORS
330
2A
102
}
330
2A
100
AcDbVisualStyle
  2
FlatWithEdges
 70
     1
177
     2
291
     1
 71
     2
176
     1
 72
     1
176
     1
 73
     1
176
     1
 90
        2
176
     1
 40
-0.6
176
     1
 41
30.0
176
     1
 62
     5
 63
     7
421
 16777215
176
     1
 74
     1
176
     1
 91
        4
176
     1
 64
     7
176
     1
 65
   257
176
     1
 75
     1
176
     1
175
     1
176
     1
 42
1.0
176
     1
 92
        0
176
     1
 66
   257
176
     1
 43
1.0
176
     1
 76
     1
176
     1
 77
     6
176
     1
 78
     2
176
     1
 67
     7
176
     1
 79
     5
176
     1
170
     0
176
     1
171
     0
176
     1
290
     0
176
     1
 93
       13
176
     1
 44
0.0
176
     1
173
     0
176
     1
  0
VISUALSTYLE
  5
2D
102
{ACAD_REACTORS
330
2A
102
}
330
2A
100
AcDbVisualStyle
  2
Gouraud
 70
     2
177
     2
291
     1
 71
     2
176
     1
 72
     2
176
     1
 73
     1
176
     1
 90
        2
176
     1
 40
-0.6
176
     1
 41
30.0
176
     1
 62
     5
 63
     7
421
 16777215
176
     1
 74
     0
176
     1
 91
        4
176
     1
 64
     7
176
     1
 65
   257
176
     1
 75
     1
176
     1
175
     1
176
     1
 42
1.0
176
     1
 92
        0
176
     1
 66
     7
176
     1
 43
1.0
176
     1
 76
     1
176
     1
 77
     6
176
     1
 78
     2
176
     1
 67
     7
176
     1
 79
     5
176
     1
170
     0
176
     1
171
     0
176
     1
290
     0
176
     1
 93
       13
176
     1
 44
0.0
176
     1
173
     0
176
     1
  0
VISUALSTYLE
  5
2E
102
{ACAD_REACTORS
330
2A
102
}
330
2A
100
AcDbVisualStyle
  2
GouraudWithEdges
 70
     3
177
     2
291
     1
 71
     2
176
     1
 72
     2
176
     1
 73
     1
176
     1
 90
        2
176
     1
 40
-0.6
176
     1
 41
30.0
176
     1
 62
     5
 63
     7
421
 16777215
176
     1
 74
     1
176
     1
 91
        4
176
     1
 64
     7
176
     1
 65
   257
176
     1
 75
     1
176
     1
175
     1
176
     1
 42
1.0
176
     1
 92
        0
176
     1
 66
   257
176
     1
 43
1.0
176
     1
 76
     1
176
     1
 77
     6
176
     1
 78
     2
176
     1
 67
     7
176
     1
 79
     5
176
     1
170
     0
176
     1
171
     0
176
     1
290
     0
176
     1
 93
       13
176
     1
 44
0.0
176
     1
173
     0
176
     1
  0
VISUALSTYLE
  5
38
102
{ACAD_REACTORS
330
2A
102
}
330
2A
100
AcDbVisualStyle
  2
Linepattern
 70
    14
177
     2
291
     1
 71
     2
176
     1
 72
     2
176
     1
 73
     0
176
     1
 90
        0
176
     1
 40
-0.6
176
     1
 41
-30.0
176
     1
 62
     5
 63
     7
421
 16777215
176
     1
 74
     1
176
     1
 91
        4
176
     1
 64
     7
176
     1
 65
   257
176
     1
 75
     7
176
     1
175
     7
176
     1
 42
1.0
176
     1
 92
        8
176
     1
 66
     7
176
     1
 43
1.0
176
     1
 76
     1
176
     1
 77
     6
176
     1
 78
     2
176
     1
 67
     7
176
     1
 79
     5
176
     1
170
     0
176
     1
171
     0
176
     1
290
     0
176
     1
 93
        1
176
     1
 44
0.0
176
     1
173
     0
176
     1
  0
VISUALSTYLE
  5
33
102
{ACAD_REACTORS
330
2A
102
}
330
2A
100
AcDbVisualStyle
  2
Realistic
 70
     8
177
     2
291
     0
 71
     2
176
     1
 72
     2
176
     1
 73
     0
176
     1
 90
        0
176
     1
 40
-0.6
176
     1
 41
-30.0
176
     1
 62
     5
 63
     7
421
 16777215
176
     1
 74
     1
176
     1
 91
        0
176
     1
 64
     7
176
     1
 65
   257
176
     1
 75
     1
176
     1
175
     1
176
     1
 42
1.0
176
     1
 92
        8
176
     1
 66
     8
424
  7895160
176
     1
 43
1.0
176
     1
 76
     1
176
     1
 77
     6
176
     1
 78
     2
176
     1
 67
     7
176
     1
 79
     5
176
     1
170
     0
176
     1
171
     0
176
     1
290
     0
176
     1
 93
       13
176
     1
 44
0.0
176
     1
173
     0
176
     1
  0
VISUALSTYLE
  5
37
102
{ACAD_REACTORS
330
2A
102
}
330
2A
100
AcDbVisualStyle
  2
Thicken
 70
    13
177
     2
291
     1
 71
     2
176
     1
 72
     2
176
     1
 73
     0
176
     1
 90
        0
176
     1
 40
-0.6
176
     1
 41
-30.0
176
     1
 62
     5
 63
     7
421
 16777215
176
     1
 74
     1
176
     1
 91
        4
176
     1
 64
     7
176
     1
 65
   257
176
     1
 75
     1
176
     1
175
     1
176
     1
 42
1.0
176
     1
 92
       12
176
     1
 66
     7
176
     1
 43
1.0
176
     1
 76
     1
176
     1
 77
     6
176
     1
 78
     2
176
     1
 67
     7
176
     1
 79
     5
176
     1
170
     0
176
     1
171
     0
176
     1
290
     0
176
     1
 93
        1
176
     1
 44
0.0
176
     1
173
     0
176
     1
  0
ENDSEC
  0
EOF
