  0
SECTION
  2
HEADER
  9
$ACADVER
  1
AC1024
  9
$ACADMAINTVER
 70
     6
  9
$DWGCODEPAGE
  3
UNDEFINED
  9
$INSBASE
 10
0.0
 20
0.0
 30
0.0
  9
$EXTMIN
 10
1.000000000000000E+20
 20
1.000000000000000E+20
 30
1.000000000000000E+20
  9
$EXTMAX
 10
-1.000000000000000E+20
 20
-1.000000000000000E+20
 30
-1.000000000000000E+20
  9
$LIMMIN
 10
0.0
 20
0.0
  9
$LIMMAX
 10
12.0
 20
9.0
  9
$ORTHOMODE
 70
     0
  9
$REGENMODE
 70
     1
  9
$FILLMODE
 70
     1
  9
$QTEXTMODE
 70
     0
  9
$MIRRTEXT
 70
     1
  9
$LTSCALE
 40
1.0
  9
$ATTMODE
 70
     1
  9
$TEXTSIZE
 40
0.2
  9
$TRACEWID
 40
0.05
  9
$TEXTSTYLE
  7
Standard
  9
$CLAYER
  8
0
  9
$CELTYPE
  6
ByLayer
  9
$CECOLOR
 62
   256
  9
$CELTSCALE
 40
1.0
  9
$DISPSILH
 70
     0
  9
$DIMSCALE
 40
1.0
  9
$DIMASZ
 40
0.18
  9
$DIMEXO
 40
0.0625
  9
$DIMDLI
 40
0.38
  9
$DIMRND
 40
0.0
  9
$DIMDLE
 40
0.0
  9
$DIMEXE
 40
0.18
  9
$DIMTP
 40
0.0
  9
$DIMTM
 40
0.0
  9
$DIMTXT
 40
0.18
  9
$DIMCEN
 40
0.09
  9
$DIMTSZ
 40
0.0
  9
$DIMTOL
 70
     0
  9
$DIMLIM
 70
     0
  9
$DIMTIH
 70
     1
  9
$DIMTOH
 70
     1
  9
$DIMSE1
 70
     0
  9
$DIMSE2
 70
     0
  9
$DIMTAD
 70
     0
  9
$DIMZIN
 70
     0
  9
$DIMBLK
  1

  9
$DIMASO
 70
     1
  9
$DIMSHO
 70
     1
  9
$DIMPOST
  1

  9
$DIMAPOST
  1

  9
$DIMALT
 70
     0
  9
$DIMALTD
 70
     2
  9
$DIMALTF
 40
25.4
  9
$DIMLFAC
 40
1.0
  9
$DIMTOFL
 70
     0
  9
$DIMTVP
 40
0.0
  9
$DIMTIX
 70
     0
  9
$DIMSOXD
 70
     0
  9
$DIMSAH
 70
     0
  9
$DIMBLK1
  1

  9
$DIMBLK2
  1

  9
$DIMSTYLE
  2
Standard
  9
$DIMCLRD
 70
     0
  9
$DIMCLRE
 70
     0
  9
$DIMCLRT
 70
     0
  9
$DIMTFAC
 40
1.0
  9
$DIMGAP
 40
0.09
  9
$DIMJUST
 70
     0
  9
$DIMSD1
 70
     0
  9
$DIMSD2
 70
     0
  9
$DIMTOLJ
 70
     1
  9
$DIMTZIN
 70
     0
  9
$DIMALTZ
 70
     0
  9
$DIMALTTZ
 70
     0
  9
$DIMUPT
 70
     0
  9
$DIMDEC
 70
     4
  9
$DIMTDEC
 70
     4
  9
$DIMALTU
 70
     2
  9
$DIMALTTD
 70
     2
  9
$DIMTXSTY
  7
Standard
  9
$DIMAUNIT
 70
     0
  9
$DIMADEC
 70
     0
  9
$DIMALTRND
 40
0.0
  9
$DIMAZIN
 70
     0
  9
$DIMDSEP
 70
    46
  9
$DIMATFIT
 70
     3
  9
$DIMFRAC
 70
     0
  9
$DIMLDRBLK
  1

  9
$DIMLUNIT
 70
     2
  9
$DIMLWD
 70
    -2
  9
$DIMLWE
 70
    -2
  9
$DIMTMOVE
 70
     0
  9
$DIMFXL
 40
1.0
  9
$DIMFXLON
 70
     0
  9
$DIMJOGANG
 40
0.7853981633974483
  9
$DIMTFILL
 70
     0
  9
$DIMTFILLCLR
 70
     0
  9
$DIMARCSYM
 70
     0
  9
$DIMLTYPE
  6

  9
$DIMLTEX1
  6

  9
$DIMLTEX2
  6

  9
$DIMTXTDIRECTION
 70
     0
  9
$LUNITS
 70
     2
  9
$LUPREC
 70
     4
  9
$SKETCHINC
 40
0.1
  9
$FILLETRAD
 40
0.5
  9
$AUNITS
 70
     0
  9
$AUPREC
 70
     0
  9
$MENU
  1
.
  9
$ELEVATION
 40
0.0
  9
$PELEVATION
 40
0.0
  9
$THICKNESS
 40
0.0
  9
$LIMCHECK
 70
     0
  9
$CHAMFERA
 40
0.5
  9
$CHAMFERB
 40
0.5
  9
$CHAMFERC
 40
1.0
  9
$CHAMFERD
 40
0.0
  9
$SKPOLY
 70
     0
  9
$TDCREATE
 40
2457917.636087951
  9
$TDUCREATE
 40
2457917.261087963
  9
$TDUPDATE
 40
2457917.636087951
  9
$TDUUPDATE
 40
2457917.261087963
  9
$TDINDWG
 40
0.0000000116
  9
$TDUSRTIMER
 40
0.0000000116
  9
$USRTIMER
 70
     1
  9
$ANGBASE
 50
0.0
  9
$ANGDIR
 70
     0
  9
$PDMODE
 70
     0
  9
$PDSIZE
 40
0.0
  9
$PLINEWID
 40
0.0
  9
$SPLFRAME
 70
     0
  9
$SPLINETYPE
 70
     6
  9
$SPLINESEGS
 70
     8
  9
$HANDSEED
  5
CC
  9
$SURFTAB1
 70
     6
  9
$SURFTAB2
 70
     6
  9
$SURFTYPE
 70
     6
  9
$SURFU
 70
     6
  9
$SURFV
 70
     6
  9
$UCSBASE
  2

  9
$UCSNAME
  2

  9
$UCSORG
 10
0.0
 20
0.0
 30
0.0
  9
$UCSXDIR
 10
1.0
 20
0.0
 30
0.0
  9
$UCSYDIR
 10
0.0
 20
1.0
 30
0.0
  9
$UCSORTHOREF
  2

  9
$UCSORTHOVIEW
 70
     0
  9
$UCSORGTOP
 10
0.0
 20
0.0
 30
0.0
  9
$UCSORGBOTTOM
 10
0.0
 20
0.0
 30
0.0
  9
$UCSORGLEFT
 10
0.0
 20
0.0
 30
0.0
  9
$UCSORGRIGHT
 10
0.0
 20
0.0
 30
0.0
  9
$UCSORGFRONT
 10
0.0
 20
0.0
 30
0.0
  9
$UCSORGBACK
 10
0.0
 20
0.0
 30
0.0
  9
$PUCSBASE
  2

  9
$PUCSNAME
  2

  9
$PUCSORG
 10
0.0
 20
0.0
 30
0.0
  9
$PUCSXDIR
 10
1.0
 20
0.0
 30
0.0
  9
$PUCSYDIR
 10
0.0
 20
1.0
 30
0.0
  9
$PUCSORTHOREF
  2

  9
$PUCSORTHOVIEW
 70
     0
  9
$PUCSORGTOP
 10
0.0
 20
0.0
 30
0.0
  9
$PUCSORGBOTTOM
 10
0.0
 20
0.0
 30
0.0
  9
$PUCSORGLEFT
 10
0.0
 20
0.0
 30
0.0
  9
$PUCSORGRIGHT
 10
0.0
 20
0.0
 30
0.0
  9
$PUCSORGFRONT
 10
0.0
 20
0.0
 30
0.0
  9
$PUCSORGBACK
 10
0.0
 20
0.0
 30
0.0
  9
$USERI1
 70
     0
  9
$USERI2
 70
     0
  9
$USERI3
 70
     0
  9
$USERI4
 70
     0
  9
$USERI5
 70
     0
  9
$USERR1
 40
0.0
  9
$USERR2
 40
0.0
  9
$USERR3
 40
0.0
  9
$USERR4
 40
0.0
  9
$USERR5
 40
0.0
  9
$WORLDVIEW
 70
     1
  9
$SHADEDGE
 70
     3
  9
$SHADEDIF
 70
    70
  9
$TILEMODE
 70
     1
  9
$MAXACTVP
 70
    64
  9
$PINSBASE
 10
0.0
 20
0.0
 30
0.0
  9
$PLIMCHECK
 70
     0
  9
$PEXTMIN
 10
1.000000000000000E+20
 20
1.000000000000000E+20
 30
1.000000000000000E+20
  9
$PEXTMAX
 10
-1.000000000000000E+20
 20
-1.000000000000000E+20
 30
-1.000000000000000E+20
  9
$PLIMMIN
 10
0.0
 20
0.0
  9
$PLIMMAX
 10
12.0
 20
9.0
  9
$UNITMODE
 70
     0
  9
$VISRETAIN
 70
     1
  9
$PLINEGEN
 70
     0
  9
$PSLTSCALE
 70
     1
  9
$TREEDEPTH
 70
  3020
  9
$CMLSTYLE
  2
Standard
  9
$CMLJUST
 70
     0
  9
$CMLSCALE
 40
1.0
  9
$PROXYGRAPHICS
 70
     1
  9
$MEASUREMENT
 70
     0
  9
$CELWEIGHT
370
    -1
  9
$ENDCAPS
280
     0
  9
$JOINSTYLE
280
     0
  9
$LWDISPLAY
290
     1
  9
$INSUNITS
 70
     1
  9
$HYPERLINKBASE
  1

  9
$STYLESHEET
  1

  9
$XEDIT
290
     1
  9
$CEPSNTYPE
380
     0
  9
$PSTYLEMODE
290
     1
  9
$FINGERPRINTGUID
  2
{CD0E23B7-5A2C-3FE6-4376-8316F824FBD6}
  9
$VERSIONGUID
  2
{FAEB1C32-E019-11D5-929B-00C0DF256EC4}
  9
$EXTNAMES
290
     1
  9
$PSVPSCALE
 40
0.0
  9
$OLESTARTUP
290
     0
  9
$SORTENTS
280
   127
  9
$INDEXCTL
280
     0
  9
$HIDETEXT
280
     1
  9
$XCLIPFRAME
280
     2
  9
$HALOGAP
280
     0
  9
$OBSCOLOR
 70
   257
  9
$OBSLTYPE
280
     0
  9
$INTERSECTIONDISPLAY
280
     0
  9
$INTERSECTIONCOLOR
 70
   257
  9
$DIMASSOC
280
     2
  9
$PROJECTNAME
  1

  9
$CAMERADISPLAY
290
     0
  9
$LENSLENGTH
 40
50.0
  9
$CAMERAHEIGHT
 40
0.0
  9
$STEPSPERSEC
 40
2.0
  9
$STEPSIZE
 40
6.0
  9
$3DDWFPREC
 40
2.0
  9
$PSOLWIDTH
 40
0.25
  9
$PSOLHEIGHT
 40
4.0
  9
$LOFTANG1
 40
1.570796326794897
  9
$LOFTANG2
 40
1.570796326794897
  9
$LOFTMAG1
 40
0.0
  9
$LOFTMAG2
 40
0.0
  9
$LOFTPARAM
 70
     7
  9
$LOFTNORMALS
280
     1
  9
$LATITUDE
 40
37.795
  9
$LONGITUDE
 40
-122.394
  9
$NORTHDIRECTION
 40
0.0
  9
$TIMEZONE
 70
 -8000
  9
$LIGHTGLYPHDISPLAY
280
     1
  9
$TILEMODELIGHTSYNCH
280
     1
  9
$CMATERIAL
347
3C
  9
$SOLIDHIST
280
     1
  9
$SHOWHIST
280
     1
  9
$DWFFRAME
280
     2
  9
$DGNFRAME
280
     2
  9
$REALWORLDSCALE
290
     1
  9
$INTERFERECOLOR
 62
   256
  9
$CSHADOW
280
     0
  9
$SHADOWPLANELOCATION
 40
0.0
  0
ENDSEC
  0
SECTION
  2
CLASSES
  0
CLASS
  1
ACDBDICTIONARYWDFLT
  2
AcDbDictionaryWithDefault
  3
ObjectDBX Classes
 90
        0
 91
        4
280
     0
281
     0
  0
CLASS
  1
VISUALSTYLE
  2
AcDbVisualStyle
  3
ObjectDBX Classes
 90
     4095
 91
        4
280
     0
281
     0
  0
CLASS
  1
MATERIAL
  2
AcDbMaterial
  3
ObjectDBX Classes
 90
     1153
 91
        4
280
     0
281
     0
  0
CLASS
  1
SUN
  2
AcDbSun
  3
SCENEOE
 90
     1024
 91
        4
280
     0
281
     0
  0
ENDSEC
  0
SECTION
  2
TABLES
  0
TABLE
  2
VPORT
  5
8
330
0
100
AcDbSymbolTable
 70
     1
  0
VPORT
  5
29
330
8
100
AcDbSymbolTableRecord
100
AcDbViewportTableRecord
  2
*Active
 70
     0
 10
0.0
 20
0.0
 11
1.0
 21
1.0
 12
0.0
 22
0.0
 13
0.0
 23
0.0
 14
0.5
 24
0.5
 15
0.5
 25
0.5
 16
0.0
 26
0.0
 36
1.0
 17
91.00082462281999
 27
-128.4993055234307
 37
0.0
 40
256.9986110468615
 41
0.7081814508812795
 42
50.0
 43
0.0
 44
0.0
 50
0.0
 51
0.0
 71
     0
 72
   100
 73
     1
 74
     3
 75
     0
 76
     0
 77
     0
 78
     0
281
     0
 65
     1
110
0.0
120
0.0
130
0.0
111
1.0
121
0.0
131
0.0
112
0.0
122
1.0
132
0.0
 79
     0
146
0.0
 60
     3
 61
     5
292
     1
282
     1
141
0.0
142
0.0
 63
   250
361
3F
  0
ENDTAB
  0
TABLE
  2
LTYPE
  5
5
330
0
100
AcDbSymbolTable
 70
     1
  0
LTYPE
  5
14
330
5
100
AcDbSymbolTableRecord
100
AcDbLinetypeTableRecord
  2
ByBlock
 70
     0
  3

 72
    65
 73
     0
 40
0.0
  0
LTYPE
  5
15
330
5
100
AcDbSymbolTableRecord
100
AcDbLinetypeTableRecord
  2
ByLayer
 70
     0
  3

 72
    65
 73
     0
 40
0.0
  0
LTYPE
  5
16
330
5
100
AcDbSymbolTableRecord
100
AcDbLinetypeTableRecord
  2
Continuous
 70
     0
  3
Solid line
 72
    65
 73
     0
 40
0.0
  0
ENDTAB
  0
TABLE
  2
LAYER
  5
2
330
0
100
AcDbSymbolTable
 70
     2
  0
LAYER
  5
10
330
2
100
AcDbSymbolTableRecord
100
AcDbLayerTableRecord
  2
0
 70
     0
 62
     7
  6
Continuous
370
    -3
390
F
347
3E
  0
LAYER
  5
40
330
2
100
AcDbSymbolTableRecord
100
AcDbLayerTableRecord
  2
_U+30EC_U+30A4_U+30E4_U+30FC 1
 70
     0
 62
     7
  6
Continuous
370
    -3
390
F
347
3E
  0
ENDTAB
  0
TABLE
  2
STYLE
  5
3
330
0
100
AcDbSymbolTable
 70
     1
  0
STYLE
  5
11
330
3
100
AcDbSymbolTableRecord
100
AcDbTextStyleTableRecord
  2
Standard
 70
     0
 40
0.0
 41
1.0
 50
0.0
 71
     0
 42
0.2
  3
txt
  4

  0
ENDTAB
  0
TABLE
  2
VIEW
  5
6
330
0
100
AcDbSymbolTable
 70
     0
  0
ENDTAB
  0
TABLE
  2
UCS
  5
7
330
0
100
AcDbSymbolTable
 70
     0
  0
ENDTAB
  0
TABLE
  2
APPID
  5
9
330
0
100
AcDbSymbolTable
 70
     1
  0
APPID
  5
12
330
9
100
AcDbSymbolTableRecord
100
AcDbRegAppTableRecord
  2
ACAD
 70
     0
  0
ENDTAB
  0
TABLE
  2
DIMSTYLE
  5
A
330
0
100
AcDbSymbolTable
 70
     1
100
AcDbDimStyleTable
  0
DIMSTYLE
105
27
330
A
100
AcDbSymbolTableRecord
100
AcDbDimStyleTableRecord
  2
Standard
 70
     0
178
     0
340
11
  0
ENDTAB
  0
TABLE
  2
BLOCK_RECORD
  5
1
330
0
100
AcDbSymbolTable
 70
     4
  0
BLOCK_RECORD
  5
1F
330
1
100
AcDbSymbolTableRecord
100
AcDbBlockTableRecord
  2
*Model_Space
340
22
 70
     0
280
     1
281
     0
  0
BLOCK_RECORD
  5
1B
330
1
100
AcDbSymbolTableRecord
100
AcDbBlockTableRecord
  2
*Paper_Space
340
1E
 70
     0
280
     1
281
     0
  0
BLOCK_RECORD
  5
23
330
1
100
AcDbSymbolTableRecord
100
AcDbBlockTableRecord
  2
*Paper_Space0
340
26
 70
     0
280
     1
281
     0
  0
BLOCK_RECORD
  5
8B
330
1
100
AcDbSymbolTableRecord
100
AcDbBlockTableRecord
  2
block 2
340
0
102
{BLKREFS
331
8C
102
}
 70
     0
280
     1
281
     0
  0
BLOCK_RECORD
  5
A2
330
1
100
AcDbSymbolTableRecord
100
AcDbBlockTableRecord
  2
block 3
340
0
102
{BLKREFS
331
A3
102
}
 70
     0
280
     1
281
     0
  0
BLOCK_RECORD
  5
B7
330
1
100
AcDbSymbolTableRecord
100
AcDbBlockTableRecord
  2
block 4
340
0
102
{BLKREFS
331
B8
102
}
 70
     0
280
     1
281
     0
  0
ENDTAB
  0
ENDSEC
  0
SECTION
  2
BLOCKS
  0
BLOCK
  5
20
330
1F
100
AcDbEntity
  8
0
100
AcDbBlockBegin
  2
*Model_Space
 70
     0
 10
0.0
 20
0.0
 30
0.0
  3
*Model_Space
  1

  0
ENDBLK
  5
21
330
1F
100
AcDbEntity
  8
0
100
AcDbBlockEnd
  0
BLOCK
  5
1C
330
1B
100
AcDbEntity
 67
     1
  8
0
100
AcDbBlockBegin
  2
*Paper_Space
 70
     0
 10
0.0
 20
0.0
 30
0.0
  3
*Paper_Space
  1

  0
ENDBLK
  5
1D
330
1B
100
AcDbEntity
 67
     1
  8
0
100
AcDbBlockEnd
  0
BLOCK
  5
24
330
23
100
AcDbEntity
  8
0
100
AcDbBlockBegin
  2
*Paper_Space0
 70
     0
 10
0.0
 20
0.0
 30
0.0
  3
*Paper_Space0
  1

  0
ENDBLK
  5
25
330
23
100
AcDbEntity
  8
0
100
AcDbBlockEnd
  0
BLOCK
  5
8D
330
8B
100
AcDbEntity
  8
0
100
AcDbBlockBegin
  2
block 2
 70
     0
 10
0.0
 20
0.0
 30
0.0
  3
block 2
  1

  0
SPLINE
  5
8F
330
8B
100
AcDbEntity
  8
_U+30EC_U+30A4_U+30E4_U+30FC 1
370
     0
100
AcDbSpline
210
0.0
220
0.0
230
1.0
 70
    11
 71
     3
 72
    26
 73
    22
 74
     0
 42
0.0000000001
 43
0.0000000001
 12
1.0
 22
0.0
 32
0.0
 13
1.0
 23
0.0
 33
0.0
 40
0.0
 40
0.0
 40
0.0
 40
0.0
 40
1.0
 40
1.0
 40
1.0
 40
2.0
 40
2.0
 40
2.0
 40
3.0
 40
3.0
 40
3.0
 40
4.0
 40
4.0
 40
4.0
 40
5.0
 40
5.0
 40
5.0
 40
6.0
 40
6.0
 40
6.0
 40
7.0
 40
7.0
 40
7.0
 40
7.0
 10
98.4298231090731
 20
-133.1660318677502
 30
0.0
 10
98.4298231090731
 20
-133.1660318677502
 30
0.0
 10
97.325325496502
 20
-133.1660318677502
 30
0.0
 10
97.325325496502
 20
-133.1660318677502
 30
0.0
 10
97.325325496502
 20
-133.1660318677502
 30
0.0
 10
97.325325496502
 20
-133.4960720152371
 30
0.0
 10
97.325325496502
 20
-133.4960720152371
 30
0.0
 10
97.325325496502
 20
-133.4960720152371
 30
0.0
 10
97.17718639063627
 20
-133.4960720152371
 30
0.0
 10
97.17718639063627
 20
-133.4960720152371
 30
0.0
 10
97.16237248004968
 20
-133.163964810459
 30
0.0
 10
96.9997639731459
 20
-133.1171115118596
 30
0.0
 10
96.8853868030356
 20
-133.0874836906865
 30
0.0
 10
96.8853868030356
 20
-133.0874836906865
 30
0.0
 10
96.8853868030356
 20
-132.9417561516604
 30
0.0
 10
96.8853868030356
 20
-132.9417561516604
 30
0.0
 10
96.8853868030356
 20
-132.9417561516604
 30
0.0
 10
98.4298231090731
 20
-132.9417561516604
 30
0.0
 10
98.4298231090731
 20
-132.9417561516604
 30
0.0
 10
98.4298231090731
 20
-132.9417561516604
 30
0.0
 10
98.4298231090731
 20
-133.1660318677502
 30
0.0
 10
98.4298231090731
 20
-133.1660318677502
 30
0.0
  0
HATCH
  5
90
330
8B
100
AcDbEntity
  8
_U+30EC_U+30A4_U+30E4_U+30FC 1
 62
   179
420
  2234388
100
AcDbHatch
 10
0.0
 20
0.0
 30
0.0
210
0.0
220
0.0
230
1.0
  2
SOLID
 70
     1
 71
     0
 91
        1
 92
        1
 93
        1
 72
     4
 94
        3
 73
     0
 74
     1
 95
       26
 96
       22
 40
0.0
 40
0.0
 40
0.0
 40
0.0
 40
1.0
 40
1.0
 40
1.0
 40
2.0
 40
2.0
 40
2.0
 40
3.0
 40
3.0
 40
3.0
 40
4.0
 40
4.0
 40
4.0
 40
5.0
 40
5.0
 40
5.0
 40
6.0
 40
6.0
 40
6.0
 40
7.0
 40
7.0
 40
7.0
 40
7.0
 10
98.4298231090731
 20
-133.1660318677502
 10
98.4298231090731
 20
-133.1660318677502
 10
97.325325496502
 20
-133.1660318677502
 10
97.325325496502
 20
-133.1660318677502
 10
97.325325496502
 20
-133.1660318677502
 10
97.325325496502
 20
-133.4960720152371
 10
97.325325496502
 20
-133.4960720152371
 10
97.325325496502
 20
-133.4960720152371
 10
97.17718639063627
 20
-133.4960720152371
 10
97.17718639063627
 20
-133.4960720152371
 10
97.16237248004968
 20
-133.163964810459
 10
96.9997639731459
 20
-133.1171115118596
 10
96.8853868030356
 20
-133.0874836906865
 10
96.8853868030356
 20
-133.0874836906865
 10
96.8853868030356
 20
-132.9417561516604
 10
96.8853868030356
 20
-132.9417561516604
 10
96.8853868030356
 20
-132.9417561516604
 10
98.4298231090731
 20
-132.9417561516604
 10
98.4298231090731
 20
-132.9417561516604
 10
98.4298231090731
 20
-132.9417561516604
 10
98.4298231090731
 20
-133.1660318677502
 10
98.4298231090731
 20
-133.1660318677502
 97
        0
 97
        0
 75
     2
 76
     1
 98
        0
  0
SPLINE
  5
91
330
8B
100
AcDbEntity
  8
_U+30EC_U+30A4_U+30E4_U+30FC 1
370
     0
100
AcDbSpline
210
0.0
220
0.0
230
1.0
 70
    11
 71
     3
 72
    44
 73
    40
 74
     0
 42
0.0000000001
 43
0.0000000001
 12
1.0
 22
0.0
 32
0.0
 13
1.0
 23
0.0
 33
0.0
 40
0.0
 40
0.0
 40
0.0
 40
0.0
 40
1.0
 40
1.0
 40
1.0
 40
2.0
 40
2.0
 40
2.0
 40
3.0
 40
3.0
 40
3.0
 40
4.0
 40
4.0
 40
4.0
 40
5.0
 40
5.0
 40
5.0
 40
6.0
 40
6.0
 40
6.0
 40
7.0
 40
7.0
 40
7.0
 40
8.0
 40
8.0
 40
8.0
 40
9.0
 40
9.0
 40
9.0
 40
10.0
 40
10.0
 40
10.0
 40
11.0
 40
11.0
 40
11.0
 40
12.0
 40
12.0
 40
12.0
 40
13.0
 40
13.0
 40
13.0
 40
13.0
 10
97.8479464816144
 20
-131.8472493159965
 30
0.0
 10
98.0064208739359
 20
-132.0653238602128
 30
0.0
 10
98.08049042686878
 20
-132.1583414383146
 30
0.0
 10
98.22449541815222
 20
-132.2069172846566
 30
0.0
 10
98.22449541815222
 20
-132.2069172846566
 30
0.0
 10
98.22449541815222
 20
-131.4283257049902
 30
0.0
 10
98.22449541815222
 20
-131.4283257049902
 30
0.0
 10
98.22449541815222
 20
-131.4283257049902
 30
0.0
 10
98.4298231090731
 20
-131.4283257049902
 30
0.0
 10
98.4298231090731
 20
-131.4283257049902
 30
0.0
 10
98.4298231090731
 20
-131.4283257049902
 30
0.0
 10
98.4298231090731
 20
-132.4566867073372
 30
0.0
 10
98.4298231090731
 20
-132.4566867073372
 30
0.0
 10
98.07222219770416
 20
-132.4249918288729
 30
0.0
 10
97.994018530189
 20
-132.3591905051047
 30
0.0
 10
97.69567326116636
 20
-131.9743733394022
 30
0.0
 10
97.49689125166745
 20
-131.7184027448482
 30
0.0
 10
97.42902287060802
 20
-131.6526014210799
 30
0.0
 10
97.29156356074655
 20
-131.6526014210799
 30
0.0
 10
97.17305227605397
 20
-131.6526014210799
 30
0.0
 10
97.04179413806594
 20
-131.7246039167216
 30
0.0
 10
97.04179413806594
 20
-131.9213188689294
 30
0.0
 10
97.04179413806594
 20
-132.1814235780658
 30
0.0
 10
97.27261553557769
 20
-132.1900363167789
 30
0.0
 10
97.3887152534306
 20
-132.1941704313612
 30
0.0
 10
97.3887152534306
 20
-132.1941704313612
 30
0.0
 10
97.3887152534306
 20
-132.4184461474509
 30
0.0
 10
97.3887152534306
 20
-132.4184461474509
 30
0.0
 10
97.2619357395734
 20
-132.4101779182863
 30
0.0
 10
97.14997013630278
 20
-132.3994981222821
 30
0.0
 10
97.0314588516102
 20
-132.3192273974757
 30
0.0
 10
96.87057289244903
 20
-132.2089843419478
 30
0.0
 10
96.83681095669358
 20
-132.0229491857443
 30
0.0
 10
96.83681095669358
 20
-131.9065049583428
 30
0.0
 10
96.83681095669358
 20
-131.6295192813287
 30
0.0
 10
97.02077905560591
 20
-131.4221245331167
 30
0.0
 10
97.29363061803771
 20
-131.4221245331167
 30
0.0
 10
97.52204044870977
 20
-131.4221245331167
 30
0.0
 10
97.6216037082335
 20
-131.5385687605181
 30
0.0
 10
97.8479464816144
 20
-131.8472493159965
 30
0.0
  0
HATCH
  5
92
330
8B
100
AcDbEntity
  8
_U+30EC_U+30A4_U+30E4_U+30FC 1
 62
   179
420
  2234388
100
AcDbHatch
 10
0.0
 20
0.0
 30
0.0
210
0.0
220
0.0
230
1.0
  2
SOLID
 70
     1
 71
     0
 91
        1
 92
        1
 93
        1
 72
     4
 94
        3
 73
     0
 74
     1
 95
       44
 96
       40
 40
0.0
 40
0.0
 40
0.0
 40
0.0
 40
1.0
 40
1.0
 40
1.0
 40
2.0
 40
2.0
 40
2.0
 40
3.0
 40
3.0
 40
3.0
 40
4.0
 40
4.0
 40
4.0
 40
5.0
 40
5.0
 40
5.0
 40
6.0
 40
6.0
 40
6.0
 40
7.0
 40
7.0
 40
7.0
 40
8.0
 40
8.0
 40
8.0
 40
9.0
 40
9.0
 40
9.0
 40
10.0
 40
10.0
 40
10.0
 40
11.0
 40
11.0
 40
11.0
 40
12.0
 40
12.0
 40
12.0
 40
13.0
 40
13.0
 40
13.0
 40
13.0
 10
97.8479464816144
 20
-131.8472493159965
 10
98.0064208739359
 20
-132.0653238602128
 10
98.08049042686878
 20
-132.1583414383146
 10
98.22449541815222
 20
-132.2069172846566
 10
98.22449541815222
 20
-132.2069172846566
 10
98.22449541815222
 20
-131.4283257049902
 10
98.22449541815222
 20
-131.4283257049902
 10
98.22449541815222
 20
-131.4283257049902
 10
98.4298231090731
 20
-131.4283257049902
 10
98.4298231090731
 20
-131.4283257049902
 10
98.4298231090731
 20
-131.4283257049902
 10
98.4298231090731
 20
-132.4566867073372
 10
98.4298231090731
 20
-132.4566867073372
 10
98.07222219770416
 20
-132.4249918288729
 10
97.994018530189
 20
-132.3591905051047
 10
97.69567326116636
 20
-131.9743733394022
 10
97.49689125166745
 20
-131.7184027448482
 10
97.42902287060802
 20
-131.6526014210799
 10
97.29156356074655
 20
-131.6526014210799
 10
97.17305227605397
 20
-131.6526014210799
 10
97.04179413806594
 20
-131.7246039167216
 10
97.04179413806594
 20
-131.9213188689294
 10
97.04179413806594
 20
-132.1814235780658
 10
97.27261553557769
 20
-132.1900363167789
 10
97.3887152534306
 20
-132.1941704313612
 10
97.3887152534306
 20
-132.1941704313612
 10
97.3887152534306
 20
-132.4184461474509
 10
97.3887152534306
 20
-132.4184461474509
 10
97.2619357395734
 20
-132.4101779182863
 10
97.14997013630278
 20
-132.3994981222821
 10
97.0314588516102
 20
-132.3192273974757
 10
96.87057289244903
 20
-132.2089843419478
 10
96.83681095669358
 20
-132.0229491857443
 10
96.83681095669358
 20
-131.9065049583428
 10
96.83681095669358
 20
-131.6295192813287
 10
97.02077905560591
 20
-131.4221245331167
 10
97.29363061803771
 20
-131.4221245331167
 10
97.52204044870977
 20
-131.4221245331167
 10
97.6216037082335
 20
-131.5385687605181
 10
97.8479464816144
 20
-131.8472493159965
 97
        0
 97
        0
 75
     2
 76
     1
 98
        0
  0
ENDBLK
  5
8E
330
8B
100
AcDbEntity
  8
0
100
AcDbBlockEnd
  0
BLOCK
  5
A4
330
A2
100
AcDbEntity
  8
0
100
AcDbBlockBegin
  2
block 3
 70
     0
 10
0.0
 20
0.0
 30
0.0
  3
block 3
  1

  0
SPLINE
  5
A6
330
A2
100
AcDbEntity
  8
_U+30EC_U+30A4_U+30E4_U+30FC 1
370
     0
100
AcDbSpline
210
0.0
220
0.0
230
1.0
 70
    11
 71
     3
 72
    53
 73
    49
 74
     0
 42
0.0000000001
 43
0.0000000001
 12
1.0
 22
0.0
 32
0.0
 13
1.0
 23
0.0
 33
0.0
 40
0.0
 40
0.0
 40
0.0
 40
0.0
 40
1.0
 40
1.0
 40
1.0
 40
2.0
 40
2.0
 40
2.0
 40
3.0
 40
3.0
 40
3.0
 40
4.0
 40
4.0
 40
4.0
 40
5.0
 40
5.0
 40
5.0
 40
6.0
 40
6.0
 40
6.0
 40
7.0
 40
7.0
 40
7.0
 40
8.0
 40
8.0
 40
8.0
 40
9.0
 40
9.0
 40
9.0
 40
10.0
 40
10.0
 40
10.0
 40
11.0
 40
11.0
 40
11.0
 40
12.0
 40
12.0
 40
12.0
 40
13.0
 40
13.0
 40
13.0
 40
14.0
 40
14.0
 40
14.0
 40
15.0
 40
15.0
 40
15.0
 40
16.0
 40
16.0
 40
16.0
 40
16.0
 10
92.28308374429034
 20
-122.2064941100734
 30
0.0
 10
92.20453556722664
 20
-122.2064941100734
 30
0.0
 10
92.1032497599603
 20
-122.1896131421957
 30
0.0
 10
92.00161944314543
 20
-122.1260511304928
 30
0.0
 10
91.82798663068884
 20
-122.0161525845133
 30
0.0
 10
91.80697154822882
 20
-121.8848944465253
 30
0.0
 10
91.78802352305995
 20
-121.777062957837
 30
0.0
 10
91.78802352305995
 20
-121.777062957837
 30
0.0
 10
92.00988767231003
 20
-121.777062957837
 30
0.0
 10
92.00988767231003
 20
-121.777062957837
 30
0.0
 10
92.06500920007403
 20
-121.9758449673359
 30
0.0
 10
92.19178871393122
 20
-122.0054727885091
 30
0.0
 10
92.2851508015815
 20
-122.0054727885091
 30
0.0
 10
92.4246771687341
 20
-122.0054727885091
 30
0.0
 10
92.57695038918216
 20
-121.9060817837596
 30
0.0
 10
92.57695038918216
 20
-121.673365583731
 30
0.0
 10
92.57695038918216
 20
-121.4173949891769
 30
0.0
 10
92.39711640485211
 20
-121.3476318056006
 30
0.0
 10
92.27653806286837
 20
-121.3476318056006
 30
0.0
 10
92.24484318440408
 20
-121.3476318056006
 30
0.0
 10
92.1032497599603
 20
-121.3476318056006
 30
0.0
 10
92.01436629644085
 20
-121.4766506315232
 30
0.0
 10
92.01436629644085
 20
-121.4766506315232
 30
0.0
 10
91.83866642669311
 20
-121.4575303515801
 30
0.0
 10
91.83866642669311
 20
-121.4575303515801
 30
0.0
 10
91.83866642669311
 20
-121.4575303515801
 30
0.0
 10
91.95924476867685
 20
-120.6114149004027
 30
0.0
 10
91.95924476867685
 20
-120.6114149004027
 30
0.0
 10
91.95924476867685
 20
-120.6114149004027
 30
0.0
 10
92.73783634834332
 20
-120.6114149004027
 30
0.0
 10
92.73783634834332
 20
-120.6114149004027
 30
0.0
 10
92.73783634834332
 20
-120.6114149004027
 30
0.0
 10
92.73783634834332
 20
-120.8060627953193
 30
0.0
 10
92.73783634834332
 20
-120.8060627953193
 30
0.0
 10
92.73783634834332
 20
-120.8060627953193
 30
0.0
 10
92.12219778512917
 20
-120.8060627953193
 30
0.0
 10
92.12219778512917
 20
-120.8060627953193
 30
0.0
 10
92.12219778512917
 20
-120.8060627953193
 30
0.0
 10
92.0563964613609
 20
-121.229120520908
 30
0.0
 10
92.0563964613609
 20
-121.229120520908
 30
0.0
 10
92.11806367054687
 20
-121.1953585851526
 30
0.0
 10
92.20040145264434
 20
-121.1550509679751
 30
0.0
 10
92.31891273733694
 20
-121.1550509679751
 30
0.0
 10
92.57281627459986
 20
-121.1550509679751
 30
0.0
 10
92.80983884398505
 20
-121.3412583789529
 30
0.0
 10
92.80983884398505
 20
-121.6544175585621
 30
0.0
 10
92.80983884398505
 20
-121.9717108527536
 30
0.0
 10
92.58556312789528
 20
-122.2064941100734
 30
0.0
 10
92.28308374429034
 20
-122.2064941100734
 30
0.0
  0
HATCH
  5
A7
330
A2
100
AcDbEntity
  8
_U+30EC_U+30A4_U+30E4_U+30FC 1
 62
   179
420
  2234388
100
AcDbHatch
 10
0.0
 20
0.0
 30
0.0
210
0.0
220
0.0
230
1.0
  2
SOLID
 70
     1
 71
     0
 91
        1
 92
        1
 93
        1
 72
     4
 94
        3
 73
     0
 74
     1
 95
       53
 96
       49
 40
0.0
 40
0.0
 40
0.0
 40
0.0
 40
1.0
 40
1.0
 40
1.0
 40
2.0
 40
2.0
 40
2.0
 40
3.0
 40
3.0
 40
3.0
 40
4.0
 40
4.0
 40
4.0
 40
5.0
 40
5.0
 40
5.0
 40
6.0
 40
6.0
 40
6.0
 40
7.0
 40
7.0
 40
7.0
 40
8.0
 40
8.0
 40
8.0
 40
9.0
 40
9.0
 40
9.0
 40
10.0
 40
10.0
 40
10.0
 40
11.0
 40
11.0
 40
11.0
 40
12.0
 40
12.0
 40
12.0
 40
13.0
 40
13.0
 40
13.0
 40
14.0
 40
14.0
 40
14.0
 40
15.0
 40
15.0
 40
15.0
 40
16.0
 40
16.0
 40
16.0
 40
16.0
 10
92.28308374429034
 20
-122.2064941100734
 10
92.20453556722664
 20
-122.2064941100734
 10
92.1032497599603
 20
-122.1896131421957
 10
92.00161944314543
 20
-122.1260511304928
 10
91.82798663068884
 20
-122.0161525845133
 10
91.80697154822882
 20
-121.8848944465253
 10
91.78802352305995
 20
-121.777062957837
 10
91.78802352305995
 20
-121.777062957837
 10
92.00988767231003
 20
-121.777062957837
 10
92.00988767231003
 20
-121.777062957837
 10
92.06500920007403
 20
-121.9758449673359
 10
92.19178871393122
 20
-122.0054727885091
 10
92.2851508015815
 20
-122.0054727885091
 10
92.4246771687341
 20
-122.0054727885091
 10
92.57695038918216
 20
-121.9060817837596
 10
92.57695038918216
 20
-121.673365583731
 10
92.57695038918216
 20
-121.4173949891769
 10
92.39711640485211
 20
-121.3476318056006
 10
92.27653806286837
 20
-121.3476318056006
 10
92.24484318440408
 20
-121.3476318056006
 10
92.1032497599603
 20
-121.3476318056006
 10
92.01436629644085
 20
-121.4766506315232
 10
92.01436629644085
 20
-121.4766506315232
 10
91.83866642669311
 20
-121.4575303515801
 10
91.83866642669311
 20
-121.4575303515801
 10
91.83866642669311
 20
-121.4575303515801
 10
91.95924476867685
 20
-120.6114149004027
 10
91.95924476867685
 20
-120.6114149004027
 10
91.95924476867685
 20
-120.6114149004027
 10
92.73783634834332
 20
-120.6114149004027
 10
92.73783634834332
 20
-120.6114149004027
 10
92.73783634834332
 20
-120.6114149004027
 10
92.73783634834332
 20
-120.8060627953193
 10
92.73783634834332
 20
-120.8060627953193
 10
92.73783634834332
 20
-120.8060627953193
 10
92.12219778512917
 20
-120.8060627953193
 10
92.12219778512917
 20
-120.8060627953193
 10
92.12219778512917
 20
-120.8060627953193
 10
92.0563964613609
 20
-121.229120520908
 10
92.0563964613609
 20
-121.229120520908
 10
92.11806367054687
 20
-121.1953585851526
 10
92.20040145264434
 20
-121.1550509679751
 10
92.31891273733694
 20
-121.1550509679751
 10
92.57281627459986
 20
-121.1550509679751
 10
92.80983884398505
 20
-121.3412583789529
 10
92.80983884398505
 20
-121.6544175585621
 10
92.80983884398505
 20
-121.9717108527536
 10
92.58556312789528
 20
-122.2064941100734
 10
92.28308374429034
 20
-122.2064941100734
 97
        0
 97
        0
 75
     2
 76
     1
 98
        0
  0
ENDBLK
  5
A5
330
A2
100
AcDbEntity
  8
0
100
AcDbBlockEnd
  0
BLOCK
  5
B9
330
B7
100
AcDbEntity
  8
0
100
AcDbBlockBegin
  2
block 4
 70
     0
 10
0.0
 20
0.0
 30
0.0
  3
block 4
  1

  0
SPLINE
  5
BB
330
B7
100
AcDbEntity
  8
_U+30EC_U+30A4_U+30E4_U+30FC 1
370
     0
100
AcDbSpline
210
0.0
220
0.0
230
1.0
 70
    11
 71
     3
 72
    62
 73
    58
 74
     0
 42
0.0000000001
 43
0.0000000001
 12
1.0
 22
0.0
 32
0.0
 13
1.0
 23
0.0
 33
0.0
 40
0.0
 40
0.0
 40
0.0
 40
0.0
 40
1.0
 40
1.0
 40
1.0
 40
2.0
 40
2.0
 40
2.0
 40
3.0
 40
3.0
 40
3.0
 40
4.0
 40
4.0
 40
4.0
 40
5.0
 40
5.0
 40
5.0
 40
6.0
 40
6.0
 40
6.0
 40
7.0
 40
7.0
 40
7.0
 40
8.0
 40
8.0
 40
8.0
 40
9.0
 40
9.0
 40
9.0
 40
10.0
 40
10.0
 40
10.0
 40
11.0
 40
11.0
 40
11.0
 40
12.0
 40
12.0
 40
12.0
 40
13.0
 40
13.0
 40
13.0
 40
14.0
 40
14.0
 40
14.0
 40
15.0
 40
15.0
 40
15.0
 40
16.0
 40
16.0
 40
16.0
 40
17.0
 40
17.0
 40
17.0
 40
18.0
 40
18.0
 40
18.0
 40
19.0
 40
19.0
 40
19.0
 40
19.0
 10
84.8926649093324
 20
-129.1028862524465
 30
0.0
 10
84.8926649093324
 20
-129.1979708878394
 30
0.0
 10
84.8714775720981
 20
-129.4160454320557
 30
0.0
 10
84.68527016112036
 20
-129.5407578886218
 30
0.0
 10
84.57313230307547
 20
-129.6148274415546
 30
0.0
 10
84.47374129832602
 20
-129.6189615561369
 30
0.0
 10
84.38916420416312
 20
-129.6234401802677
 30
0.0
 10
84.38916420416312
 20
-129.6234401802677
 30
0.0
 10
84.38916420416312
 20
-129.4032985787603
 30
0.0
 10
84.38916420416312
 20
-129.4032985787603
 30
0.0
 10
84.463233757096
 20
-129.4012315214691
 30
0.0
 10
84.69801701441578
 20
-129.3905517254649
 30
0.0
 10
84.69801701441578
 20
-129.1070203670288
 30
0.0
 10
84.69801701441578
 20
-128.9695610571673
 30
0.0
 10
84.62825383083947
 20
-128.8172878367193
 30
0.0
 10
84.39967174539314
 20
-128.8172878367193
 30
0.0
 10
84.28339977276596
 20
-128.8172878367193
 30
0.0
 10
84.23465167164967
 20
-128.8555283966056
 30
0.0
 10
84.20295679318538
 20
-128.8872232750699
 30
0.0
 10
84.12888724025251
 20
-128.9612928280027
 30
0.0
 10
84.11631264173134
 20
-129.0773925458556
 30
0.0
 10
84.11631264173134
 20
-129.1325140736197
 30
0.0
 10
84.11631264173134
 20
-129.1514620987885
 30
0.0
 10
84.1183796990225
 20
-129.1876356013836
 30
0.0
 10
84.12268606837905
 20
-129.2151963652657
 30
0.0
 10
84.12268606837905
 20
-129.2151963652657
 30
0.0
 10
83.92803817346244
 20
-129.2151963652657
 30
0.0
 10
83.92803817346244
 20
-129.2151963652657
 30
0.0
 10
83.93441160011015
 20
-129.1769558053794
 30
0.0
 10
83.9364786574013
 20
-129.1345811309108
 30
0.0
 10
83.9364786574013
 20
-129.1283799590373
 30
0.0
 10
83.9364786574013
 20
-129.0625786352691
 30
0.0
 10
83.91529132016701
 20
-128.8637966257702
 30
0.0
 10
83.67826875078183
 20
-128.8637966257702
 30
0.0
 10
83.50067407851719
 20
-128.8637966257702
 30
0.0
 10
83.44572480552746
 20
-128.9950547637582
 30
0.0
 10
83.44572480552746
 20
-129.1049533097377
 30
0.0
 10
83.44572480552746
 20
-129.3695366430048
 30
0.0
 10
83.67826875078183
 20
-129.3778048721694
 30
0.0
 10
83.75027124642355
 20
-129.3822834963003
 30
0.0
 10
83.75027124642355
 20
-129.3822834963003
 30
0.0
 10
83.75027124642355
 20
-129.5851996203815
 30
0.0
 10
83.75027124642355
 20
-129.5851996203815
 30
0.0
 10
83.62538653508324
 20
-129.5769313912169
 30
0.0
 10
83.24883759854544
 20
-129.5493706273349
 30
0.0
 10
83.24883759854544
 20
-129.0922064564422
 30
0.0
 10
83.24883759854544
 20
-128.868275249901
 30
0.0
 10
83.37578936717689
 20
-128.6269463111592
 30
0.0
 10
83.67206757890838
 20
-128.6269463111592
 30
0.0
 10
83.85810273511187
 20
-128.6269463111592
 30
0.0
 10
83.9406127719836
 20
-128.7222032013264
 30
0.0
 10
84.00210772639531
 20
-128.8214219513016
 30
0.0
 10
84.02949623550305
 20
-128.7602715064384
 30
0.0
 10
84.10993921508363
 20
-128.5783704648172
 30
0.0
 10
84.38709714687198
 20
-128.5783704648172
 30
0.0
 10
84.72557777829778
 20
-128.5783704648172
 30
0.0
 10
84.8926649093324
 20
-128.8259005754324
 30
0.0
 10
84.8926649093324
 20
-129.1028862524465
 30
0.0
  0
HATCH
  5
BC
330
B7
100
AcDbEntity
  8
_U+30EC_U+30A4_U+30E4_U+30FC 1
 62
   179
420
  2234388
100
AcDbHatch
 10
0.0
 20
0.0
 30
0.0
210
0.0
220
0.0
230
1.0
  2
SOLID
 70
     1
 71
     0
 91
        1
 92
        1
 93
        1
 72
     4
 94
        3
 73
     0
 74
     1
 95
       62
 96
       58
 40
0.0
 40
0.0
 40
0.0
 40
0.0
 40
1.0
 40
1.0
 40
1.0
 40
2.0
 40
2.0
 40
2.0
 40
3.0
 40
3.0
 40
3.0
 40
4.0
 40
4.0
 40
4.0
 40
5.0
 40
5.0
 40
5.0
 40
6.0
 40
6.0
 40
6.0
 40
7.0
 40
7.0
 40
7.0
 40
8.0
 40
8.0
 40
8.0
 40
9.0
 40
9.0
 40
9.0
 40
10.0
 40
10.0
 40
10.0
 40
11.0
 40
11.0
 40
11.0
 40
12.0
 40
12.0
 40
12.0
 40
13.0
 40
13.0
 40
13.0
 40
14.0
 40
14.0
 40
14.0
 40
15.0
 40
15.0
 40
15.0
 40
16.0
 40
16.0
 40
16.0
 40
17.0
 40
17.0
 40
17.0
 40
18.0
 40
18.0
 40
18.0
 40
19.0
 40
19.0
 40
19.0
 40
19.0
 10
84.8926649093324
 20
-129.1028862524465
 10
84.8926649093324
 20
-129.1979708878394
 10
84.8714775720981
 20
-129.4160454320557
 10
84.68527016112036
 20
-129.5407578886218
 10
84.57313230307547
 20
-129.6148274415546
 10
84.47374129832602
 20
-129.6189615561369
 10
84.38916420416312
 20
-129.6234401802677
 10
84.38916420416312
 20
-129.6234401802677
 10
84.38916420416312
 20
-129.4032985787603
 10
84.38916420416312
 20
-129.4032985787603
 10
84.463233757096
 20
-129.4012315214691
 10
84.69801701441578
 20
-129.3905517254649
 10
84.69801701441578
 20
-129.1070203670288
 10
84.69801701441578
 20
-128.9695610571673
 10
84.62825383083947
 20
-128.8172878367193
 10
84.39967174539314
 20
-128.8172878367193
 10
84.28339977276596
 20
-128.8172878367193
 10
84.23465167164967
 20
-128.8555283966056
 10
84.20295679318538
 20
-128.8872232750699
 10
84.12888724025251
 20
-128.9612928280027
 10
84.11631264173134
 20
-129.0773925458556
 10
84.11631264173134
 20
-129.1325140736197
 10
84.11631264173134
 20
-129.1514620987885
 10
84.1183796990225
 20
-129.1876356013836
 10
84.12268606837905
 20
-129.2151963652657
 10
84.12268606837905
 20
-129.2151963652657
 10
83.92803817346244
 20
-129.2151963652657
 10
83.92803817346244
 20
-129.2151963652657
 10
83.93441160011015
 20
-129.1769558053794
 10
83.9364786574013
 20
-129.1345811309108
 10
83.9364786574013
 20
-129.1283799590373
 10
83.9364786574013
 20
-129.0625786352691
 10
83.91529132016701
 20
-128.8637966257702
 10
83.67826875078183
 20
-128.8637966257702
 10
83.50067407851719
 20
-128.8637966257702
 10
83.44572480552746
 20
-128.9950547637582
 10
83.44572480552746
 20
-129.1049533097377
 10
83.44572480552746
 20
-129.3695366430048
 10
83.67826875078183
 20
-129.3778048721694
 10
83.75027124642355
 20
-129.3822834963003
 10
83.75027124642355
 20
-129.3822834963003
 10
83.75027124642355
 20
-129.5851996203815
 10
83.75027124642355
 20
-129.5851996203815
 10
83.62538653508324
 20
-129.5769313912169
 10
83.24883759854544
 20
-129.5493706273349
 10
83.24883759854544
 20
-129.0922064564422
 10
83.24883759854544
 20
-128.868275249901
 10
83.37578936717689
 20
-128.6269463111592
 10
83.67206757890838
 20
-128.6269463111592
 10
83.85810273511187
 20
-128.6269463111592
 10
83.9406127719836
 20
-128.7222032013264
 10
84.00210772639531
 20
-128.8214219513016
 10
84.02949623550305
 20
-128.7602715064384
 10
84.10993921508363
 20
-128.5783704648172
 10
84.38709714687198
 20
-128.5783704648172
 10
84.72557777829778
 20
-128.5783704648172
 10
84.8926649093324
 20
-128.8259005754324
 10
84.8926649093324
 20
-129.1028862524465
 97
        0
 97
        0
 75
     2
 76
     1
 98
        0
  0
POLYLINE
  5
BD
330
B7
100
AcDbEntity
  8
_U+30EC_U+30A4_U+30E4_U+30FC 1
370
     0
100
AcDb2dPolyline
 66
     1
 10
0.0
 20
0.0
 30
0.0
  0
VERTEX
  5
BE
330
BD
100
AcDbEntity
  8
_U+30EC_U+30A4_U+30E4_U+30FC 1
370
     0
100
AcDbVertex
100
AcDb2dVertex
 10
84.84184975092496
 20
-128.357712098987
 30
0.0
  0
VERTEX
  5
BF
330
BD
100
AcDbEntity
  8
_U+30EC_U+30A4_U+30E4_U+30FC 1
370
     0
100
AcDbVertex
100
AcDb2dVertex
 10
84.59018552572746
 20
-128.357712098987
 30
0.0
  0
VERTEX
  5
C0
330
BD
100
AcDbEntity
  8
_U+30EC_U+30A4_U+30E4_U+30FC 1
370
     0
100
AcDbVertex
100
AcDb2dVertex
 10
84.59018552572746
 20
-128.1058756190152
 30
0.0
  0
VERTEX
  5
C1
330
BD
100
AcDbEntity
  8
_U+30EC_U+30A4_U+30E4_U+30FC 1
370
     0
100
AcDbVertex
100
AcDb2dVertex
 10
84.84184975092496
 20
-128.1058756190152
 30
0.0
  0
VERTEX
  5
C2
330
BD
100
AcDbEntity
  8
_U+30EC_U+30A4_U+30E4_U+30FC 1
370
     0
100
AcDbVertex
100
AcDb2dVertex
 10
84.84184975092496
 20
-128.357712098987
 30
0.0
  0
SEQEND
  5
C3
330
BD
100
AcDbEntity
  8
_U+30EC_U+30A4_U+30E4_U+30FC 1
370
     0
  0
HATCH
  5
C4
330
B7
100
AcDbEntity
  8
_U+30EC_U+30A4_U+30E4_U+30FC 1
 62
   179
420
  2234388
100
AcDbHatch
 10
0.0
 20
0.0
 30
0.0
210
0.0
220
0.0
230
1.0
  2
SOLID
 70
     1
 71
     0
 91
        1
 92
        1
 93
        4
 72
     1
 10
84.84184975092496
 20
-128.357712098987
 11
84.59018552572746
 21
-128.357712098987
 72
     1
 10
84.59018552572746
 20
-128.357712098987
 11
84.59018552572746
 21
-128.1058756190152
 72
     1
 10
84.59018552572746
 20
-128.1058756190152
 11
84.84184975092496
 21
-128.1058756190152
 72
     1
 10
84.84184975092496
 20
-128.1058756190152
 11
84.84184975092496
 21
-128.357712098987
 97
        0
 75
     2
 76
     1
 98
        0
  0
SPLINE
  5
C5
330
B7
100
AcDbEntity
  8
_U+30EC_U+30A4_U+30E4_U+30FC 1
370
     0
100
AcDbSpline
210
0.0
220
0.0
230
1.0
 70
    11
 71
     3
 72
    53
 73
    49
 74
     0
 42
0.0000000001
 43
0.0000000001
 12
1.0
 22
0.0
 32
0.0
 13
1.0
 23
0.0
 33
0.0
 40
0.0
 40
0.0
 40
0.0
 40
0.0
 40
1.0
 40
1.0
 40
1.0
 40
2.0
 40
2.0
 40
2.0
 40
3.0
 40
3.0
 40
3.0
 40
4.0
 40
4.0
 40
4.0
 40
5.0
 40
5.0
 40
5.0
 40
6.0
 40
6.0
 40
6.0
 40
7.0
 40
7.0
 40
7.0
 40
8.0
 40
8.0
 40
8.0
 40
9.0
 40
9.0
 40
9.0
 40
10.0
 40
10.0
 40
10.0
 40
11.0
 40
11.0
 40
11.0
 40
12.0
 40
12.0
 40
12.0
 40
13.0
 40
13.0
 40
13.0
 40
14.0
 40
14.0
 40
14.0
 40
15.0
 40
15.0
 40
15.0
 40
16.0
 40
16.0
 40
16.0
 40
16.0
 10
84.8926649093324
 20
-127.3884344842119
 30
0.0
 10
84.8926649093324
 20
-127.4668104065014
 30
0.0
 10
84.87578394145467
 20
-127.568268468542
 30
0.0
 10
84.81222192975181
 20
-127.6698987853568
 30
0.0
 10
84.70232338377234
 20
-127.8433593430392
 30
0.0
 10
84.57106524578433
 20
-127.8643744254992
 30
0.0
 10
84.463233757096
 20
-127.8834947054423
 30
0.0
 10
84.463233757096
 20
-127.8834947054423
 30
0.0
 10
84.463233757096
 20
-127.6612860466437
 30
0.0
 10
84.463233757096
 20
-127.6612860466437
 30
0.0
 10
84.66201576659492
 20
-127.606336773654
 30
0.0
 10
84.69164358776807
 20
-127.4793850050225
 30
0.0
 10
84.69164358776807
 20
-127.3863674269208
 30
0.0
 10
84.69164358776807
 20
-127.2466688049939
 30
0.0
 10
84.5922525830186
 20
-127.0943955845459
 30
0.0
 10
84.35953638298999
 20
-127.0943955845459
 30
0.0
 10
84.10356578843592
 20
-127.0943955845459
 30
0.0
 10
84.0338026048596
 20
-127.2742295688759
 30
0.0
 10
84.0338026048596
 20
-127.3948079108596
 30
0.0
 10
84.0338026048596
 20
-127.4265027893239
 30
0.0
 10
84.0338026048596
 20
-127.568268468542
 30
0.0
 10
84.16282143078222
 20
-127.6571519320614
 30
0.0
 10
84.16282143078222
 20
-127.6571519320614
 30
0.0
 10
84.14370115083908
 20
-127.8326795470349
 30
0.0
 10
84.14370115083908
 20
-127.8326795470349
 30
0.0
 10
84.14370115083908
 20
-127.8326795470349
 30
0.0
 10
83.29758569966172
 20
-127.7121012050511
 30
0.0
 10
83.29758569966172
 20
-127.7121012050511
 30
0.0
 10
83.29758569966172
 20
-127.7121012050511
 30
0.0
 10
83.29758569966172
 20
-126.9336818801589
 30
0.0
 10
83.29758569966172
 20
-126.9336818801589
 30
0.0
 10
83.29758569966172
 20
-126.9336818801589
 30
0.0
 10
83.49223359457834
 20
-126.9336818801589
 30
0.0
 10
83.49223359457834
 20
-126.9336818801589
 30
0.0
 10
83.49223359457834
 20
-126.9336818801589
 30
0.0
 10
83.49223359457834
 20
-127.5493204433731
 30
0.0
 10
83.49223359457834
 20
-127.5493204433731
 30
0.0
 10
83.49223359457834
 20
-127.5493204433731
 30
0.0
 10
83.91529132016701
 20
-127.6147772575928
 30
0.0
 10
83.91529132016701
 20
-127.6147772575928
 30
0.0
 10
83.88152938441156
 20
-127.5534545579554
 30
0.0
 10
83.84122176723415
 20
-127.4709445210837
 30
0.0
 10
83.84122176723415
 20
-127.3524332363911
 30
0.0
 10
83.84122176723415
 20
-127.0987019539024
 30
0.0
 10
84.0274291782119
 20
-126.8616793845172
 30
0.0
 10
84.3405883578211
 20
-126.8616793845172
 30
0.0
 10
84.65788165201262
 20
-126.8616793845172
 30
0.0
 10
84.8926649093324
 20
-127.085955100607
 30
0.0
 10
84.8926649093324
 20
-127.3884344842119
 30
0.0
  0
HATCH
  5
C6
330
B7
100
AcDbEntity
  8
_U+30EC_U+30A4_U+30E4_U+30FC 1
 62
   179
420
  2234388
100
AcDbHatch
 10
0.0
 20
0.0
 30
0.0
210
0.0
220
0.0
230
1.0
  2
SOLID
 70
     1
 71
     0
 91
        1
 92
        1
 93
        1
 72
     4
 94
        3
 73
     0
 74
     1
 95
       53
 96
       49
 40
0.0
 40
0.0
 40
0.0
 40
0.0
 40
1.0
 40
1.0
 40
1.0
 40
2.0
 40
2.0
 40
2.0
 40
3.0
 40
3.0
 40
3.0
 40
4.0
 40
4.0
 40
4.0
 40
5.0
 40
5.0
 40
5.0
 40
6.0
 40
6.0
 40
6.0
 40
7.0
 40
7.0
 40
7.0
 40
8.0
 40
8.0
 40
8.0
 40
9.0
 40
9.0
 40
9.0
 40
10.0
 40
10.0
 40
10.0
 40
11.0
 40
11.0
 40
11.0
 40
12.0
 40
12.0
 40
12.0
 40
13.0
 40
13.0
 40
13.0
 40
14.0
 40
14.0
 40
14.0
 40
15.0
 40
15.0
 40
15.0
 40
16.0
 40
16.0
 40
16.0
 40
16.0
 10
84.8926649093324
 20
-127.3884344842119
 10
84.8926649093324
 20
-127.4668104065014
 10
84.87578394145467
 20
-127.568268468542
 10
84.81222192975181
 20
-127.6698987853568
 10
84.70232338377234
 20
-127.8433593430392
 10
84.57106524578433
 20
-127.8643744254992
 10
84.463233757096
 20
-127.8834947054423
 10
84.463233757096
 20
-127.8834947054423
 10
84.463233757096
 20
-127.6612860466437
 10
84.463233757096
 20
-127.6612860466437
 10
84.66201576659492
 20
-127.606336773654
 10
84.69164358776807
 20
-127.4793850050225
 10
84.69164358776807
 20
-127.3863674269208
 10
84.69164358776807
 20
-127.2466688049939
 10
84.5922525830186
 20
-127.0943955845459
 10
84.35953638298999
 20
-127.0943955845459
 10
84.10356578843592
 20
-127.0943955845459
 10
84.0338026048596
 20
-127.2742295688759
 10
84.0338026048596
 20
-127.3948079108596
 10
84.0338026048596
 20
-127.4265027893239
 10
84.0338026048596
 20
-127.568268468542
 10
84.16282143078222
 20
-127.6571519320614
 10
84.16282143078222
 20
-127.6571519320614
 10
84.14370115083908
 20
-127.8326795470349
 10
84.14370115083908
 20
-127.8326795470349
 10
84.14370115083908
 20
-127.8326795470349
 10
83.29758569966172
 20
-127.7121012050511
 10
83.29758569966172
 20
-127.7121012050511
 10
83.29758569966172
 20
-127.7121012050511
 10
83.29758569966172
 20
-126.9336818801589
 10
83.29758569966172
 20
-126.9336818801589
 10
83.29758569966172
 20
-126.9336818801589
 10
83.49223359457834
 20
-126.9336818801589
 10
83.49223359457834
 20
-126.9336818801589
 10
83.49223359457834
 20
-126.9336818801589
 10
83.49223359457834
 20
-127.5493204433731
 10
83.49223359457834
 20
-127.5493204433731
 10
83.49223359457834
 20
-127.5493204433731
 10
83.91529132016701
 20
-127.6147772575928
 10
83.91529132016701
 20
-127.6147772575928
 10
83.88152938441156
 20
-127.5534545579554
 10
83.84122176723415
 20
-127.4709445210837
 10
83.84122176723415
 20
-127.3524332363911
 10
83.84122176723415
 20
-127.0987019539024
 10
84.0274291782119
 20
-126.8616793845172
 10
84.3405883578211
 20
-126.8616793845172
 10
84.65788165201262
 20
-126.8616793845172
 10
84.8926649093324
 20
-127.085955100607
 10
84.8926649093324
 20
-127.3884344842119
 97
        0
 97
        0
 75
     2
 76
     1
 98
        0
  0
ENDBLK
  5
BA
330
B7
100
AcDbEntity
  8
0
100
AcDbBlockEnd
  0
ENDSEC
  0
SECTION
  2
ENTITIES
  0
SPLINE
  5
41
330
1F
100
AcDbEntity
  8
_U+30EC_U+30A4_U+30E4_U+30FC 1
370
     0
100
AcDbSpline
210
0.0
220
0.0
230
1.0
 70
    11
 71
     3
 72
    53
 73
    49
 74
     0
 42
0.0000000001
 43
0.0000000001
 12
1.0
 22
0.0
 32
0.0
 13
1.0
 23
0.0
 33
0.0
 40
0.0
 40
0.0
 40
0.0
 40
0.0
 40
1.0
 40
1.0
 40
1.0
 40
2.0
 40
2.0
 40
2.0
 40
3.0
 40
3.0
 40
3.0
 40
4.0
 40
4.0
 40
4.0
 40
5.0
 40
5.0
 40
5.0
 40
6.0
 40
6.0
 40
6.0
 40
7.0
 40
7.0
 40
7.0
 40
8.0
 40
8.0
 40
8.0
 40
9.0
 40
9.0
 40
9.0
 40
10.0
 40
10.0
 40
10.0
 40
11.0
 40
11.0
 40
11.0
 40
12.0
 40
12.0
 40
12.0
 40
13.0
 40
13.0
 40
13.0
 40
14.0
 40
14.0
 40
14.0
 40
15.0
 40
15.0
 40
15.0
 40
16.0
 40
16.0
 40
16.0
 40
16.0
 10
94.76700952673662
 20
-126.5283713572567
 30
0.0
 10
94.76700952673662
 20
-126.5283713572567
 30
0.0
 10
89.8377515969369
 20
-126.5283713572567
 30
0.0
 10
89.8377515969369
 20
-126.5283713572567
 30
0.0
 10
89.8377515969369
 20
-126.5476683016965
 30
0.0
 10
89.82191187511879
 20
-126.5635080239148
 30
0.0
 10
89.80226215339786
 20
-126.5635080239148
 30
0.0
 10
89.80226215339786
 20
-126.5635080239148
 30
0.0
 10
89.80226215339786
 20
-129.9927549675015
 30
0.0
 10
89.80226215339786
 20
-129.9927549675015
 30
0.0
 10
89.82191187511879
 20
-129.9927549675015
 30
0.0
 10
89.8377515969369
 20
-130.0085946897201
 30
0.0
 10
89.8377515969369
 20
-130.0282444119377
 30
0.0
 10
89.8377515969369
 20
-130.0282444119377
 30
0.0
 10
91.3022732262405
 20
-130.0282444119377
 30
0.0
 10
91.3022732262405
 20
-130.0282444119377
 30
0.0
 10
91.3022732262405
 20
-130.0282444119377
 30
0.0
 10
91.3022732262405
 20
-137.5282294100626
 30
0.0
 10
91.3022732262405
 20
-137.5282294100626
 30
0.0
 10
91.3022732262405
 20
-137.5282294100626
 30
0.0
 10
90.30214825175582
 20
-137.5282294100626
 30
0.0
 10
90.30214825175582
 20
-137.5282294100626
 30
0.0
 10
90.30214825175582
 20
-137.5282294100626
 30
0.0
 10
90.30214825175582
 20
-138.5283191320347
 30
0.0
 10
90.30214825175582
 20
-138.5283191320347
 30
0.0
 10
90.30214825175582
 20
-138.5283191320347
 30
0.0
 10
94.26712342837865
 20
-138.5283191320347
 30
0.0
 10
94.26712342837865
 20
-138.5283191320347
 30
0.0
 10
94.26712342837865
 20
-138.5086694098171
 30
0.0
 10
94.282610372428
 20
-138.4928296875993
 30
0.0
 10
94.30261287191769
 20
-138.4928296875993
 30
0.0
 10
94.30261287191769
 20
-138.4928296875993
 30
0.0
 10
94.30261287191769
 20
-137.5282294100626
 30
0.0
 10
94.30261287191769
 20
-137.5282294100626
 30
0.0
 10
94.30261287191769
 20
-137.5282294100626
 30
0.0
 10
93.30213511966423
 20
-137.5282294100626
 30
0.0
 10
93.30213511966423
 20
-137.5282294100626
 30
0.0
 10
93.30213511966423
 20
-137.5282294100626
 30
0.0
 10
93.30213511966423
 20
-130.0282444119377
 30
0.0
 10
93.30213511966423
 20
-130.0282444119377
 30
0.0
 10
93.30213511966423
 20
-130.0282444119377
 30
0.0
 10
94.80214619250687
 20
-130.0282444119377
 30
0.0
 10
94.80214619250687
 20
-130.0282444119377
 30
0.0
 10
94.80214619250687
 20
-130.0282444119377
 30
0.0
 10
94.80214619250687
 20
-126.5635080239148
 30
0.0
 10
94.80214619250687
 20
-126.5635080239148
 30
0.0
 10
94.78284924855473
 20
-126.5635080239148
 30
0.0
 10
94.76700952673662
 20
-126.5476683016965
 30
0.0
 10
94.76700952673662
 20
-126.5283713572567
 30
0.0
  0
HATCH
  5
42
330
1F
100
AcDbEntity
  8
_U+30EC_U+30A4_U+30E4_U+30FC 1
 62
     8
420
  8355711
100
AcDbHatch
 10
0.0
 20
0.0
 30
0.0
210
0.0
220
0.0
230
1.0
  2
SOLID
 70
     1
 71
     0
 91
        1
 92
        1
 93
        1
 72
     4
 94
        3
 73
     0
 74
     1
 95
       53
 96
       49
 40
0.0
 40
0.0
 40
0.0
 40
0.0
 40
1.0
 40
1.0
 40
1.0
 40
2.0
 40
2.0
 40
2.0
 40
3.0
 40
3.0
 40
3.0
 40
4.0
 40
4.0
 40
4.0
 40
5.0
 40
5.0
 40
5.0
 40
6.0
 40
6.0
 40
6.0
 40
7.0
 40
7.0
 40
7.0
 40
8.0
 40
8.0
 40
8.0
 40
9.0
 40
9.0
 40
9.0
 40
10.0
 40
10.0
 40
10.0
 40
11.0
 40
11.0
 40
11.0
 40
12.0
 40
12.0
 40
12.0
 40
13.0
 40
13.0
 40
13.0
 40
14.0
 40
14.0
 40
14.0
 40
15.0
 40
15.0
 40
15.0
 40
16.0
 40
16.0
 40
16.0
 40
16.0
 10
94.76700952673662
 20
-126.5283713572567
 10
94.76700952673662
 20
-126.5283713572567
 10
89.8377515969369
 20
-126.5283713572567
 10
89.8377515969369
 20
-126.5283713572567
 10
89.8377515969369
 20
-126.5476683016965
 10
89.82191187511879
 20
-126.5635080239148
 10
89.80226215339786
 20
-126.5635080239148
 10
89.80226215339786
 20
-126.5635080239148
 10
89.80226215339786
 20
-129.9927549675015
 10
89.80226215339786
 20
-129.9927549675015
 10
89.82191187511879
 20
-129.9927549675015
 10
89.8377515969369
 20
-130.0085946897201
 10
89.8377515969369
 20
-130.0282444119377
 10
89.8377515969369
 20
-130.0282444119377
 10
91.3022732262405
 20
-130.0282444119377
 10
91.3022732262405
 20
-130.0282444119377
 10
91.3022732262405
 20
-130.0282444119377
 10
91.3022732262405
 20
-137.5282294100626
 10
91.3022732262405
 20
-137.5282294100626
 10
91.3022732262405
 20
-137.5282294100626
 10
90.30214825175582
 20
-137.5282294100626
 10
90.30214825175582
 20
-137.5282294100626
 10
90.30214825175582
 20
-137.5282294100626
 10
90.30214825175582
 20
-138.5283191320347
 10
90.30214825175582
 20
-138.5283191320347
 10
90.30214825175582
 20
-138.5283191320347
 10
94.26712342837865
 20
-138.5283191320347
 10
94.26712342837865
 20
-138.5283191320347
 10
94.26712342837865
 20
-138.5086694098171
 10
94.282610372428
 20
-138.4928296875993
 10
94.30261287191769
 20
-138.4928296875993
 10
94.30261287191769
 20
-138.4928296875993
 10
94.30261287191769
 20
-137.5282294100626
 10
94.30261287191769
 20
-137.5282294100626
 10
94.30261287191769
 20
-137.5282294100626
 10
93.30213511966423
 20
-137.5282294100626
 10
93.30213511966423
 20
-137.5282294100626
 10
93.30213511966423
 20
-137.5282294100626
 10
93.30213511966423
 20
-130.0282444119377
 10
93.30213511966423
 20
-130.0282444119377
 10
93.30213511966423
 20
-130.0282444119377
 10
94.80214619250687
 20
-130.0282444119377
 10
94.80214619250687
 20
-130.0282444119377
 10
94.80214619250687
 20
-130.0282444119377
 10
94.80214619250687
 20
-126.5635080239148
 10
94.80214619250687
 20
-126.5635080239148
 10
94.78284924855473
 20
-126.5635080239148
 10
94.76700952673662
 20
-126.5476683016965
 10
94.76700952673662
 20
-126.5283713572567
 97
        0
 97
        0
 75
     2
 76
     1
 98
        0
  0
SPLINE
  5
43
330
1F
100
AcDbEntity
  8
_U+30EC_U+30A4_U+30E4_U+30FC 1
 62
   179
420
  2234388
370
     9
100
AcDbSpline
210
0.0
220
0.0
230
1.0
 70
    11
 71
     3
 72
    17
 73
    13
 74
     0
 42
0.0000000001
 43
0.0000000001
 12
1.0
 22
0.0
 32
0.0
 13
1.0
 23
0.0
 33
0.0
 40
0.0
 40
0.0
 40
0.0
 40
0.0
 40
1.0
 40
1.0
 40
1.0
 40
2.0
 40
2.0
 40
2.0
 40
3.0
 40
3.0
 40
3.0
 40
4.0
 40
4.0
 40
4.0
 40
4.0
 10
85.83763975454382
 20
-130.0282444119377
 30
0.0
 10
85.83763975454382
 20
-130.0475413563768
 30
0.0
 10
85.82180003272569
 20
-130.0633810785954
 30
0.0
 10
85.80218558878165
 20
-130.0633810785954
 30
0.0
 10
85.78288864482951
 20
-130.0633810785954
 30
0.0
 10
85.76701364523453
 20
-130.0475413563768
 30
0.0
 10
85.76701364523453
 20
-130.0282444119377
 30
0.0
 10
85.76701364523453
 20
-130.0085946897201
 30
0.0
 10
85.78288864482951
 20
-129.9927549675015
 30
0.0
 10
85.80218558878165
 20
-129.9927549675015
 30
0.0
 10
85.82180003272569
 20
-129.9927549675015
 30
0.0
 10
85.83763975454382
 20
-130.0085946897201
 30
0.0
 10
85.83763975454382
 20
-130.0282444119377
 30
0.0
  0
SPLINE
  5
44
330
1F
100
AcDbEntity
  8
_U+30EC_U+30A4_U+30E4_U+30FC 1
 62
   179
420
  2234388
370
     9
100
AcDbSpline
210
0.0
220
0.0
230
1.0
 70
    11
 71
     3
 72
    17
 73
    13
 74
     0
 42
0.0000000001
 43
0.0000000001
 12
1.0
 22
0.0
 32
0.0
 13
1.0
 23
0.0
 33
0.0
 40
0.0
 40
0.0
 40
0.0
 40
0.0
 40
1.0
 40
1.0
 40
1.0
 40
2.0
 40
2.0
 40
2.0
 40
3.0
 40
3.0
 40
3.0
 40
4.0
 40
4.0
 40
4.0
 40
4.0
 10
85.83763975454382
 20
-126.5283713572567
 30
0.0
 10
85.83763975454382
 20
-126.5476683016965
 30
0.0
 10
85.82180003272569
 20
-126.5635080239148
 30
0.0
 10
85.80218558878165
 20
-126.5635080239148
 30
0.0
 10
85.78288864482951
 20
-126.5635080239148
 30
0.0
 10
85.76701364523453
 20
-126.5476683016965
 30
0.0
 10
85.76701364523453
 20
-126.5283713572567
 30
0.0
 10
85.76701364523453
 20
-126.5087216350394
 30
0.0
 10
85.78288864482951
 20
-126.4928819128212
 30
0.0
 10
85.80218558878165
 20
-126.4928819128212
 30
0.0
 10
85.82180003272569
 20
-126.4928819128212
 30
0.0
 10
85.83763975454382
 20
-126.5087216350394
 30
0.0
 10
85.83763975454382
 20
-126.5283713572567
 30
0.0
  0
SPLINE
  5
45
330
1F
100
AcDbEntity
  8
_U+30EC_U+30A4_U+30E4_U+30FC 1
 62
   179
420
  2234388
370
     9
100
AcDbSpline
210
0.0
220
0.0
230
1.0
 70
    11
 71
     3
 72
    17
 73
    13
 74
     0
 42
0.0000000001
 43
0.0000000001
 12
1.0
 22
0.0
 32
0.0
 13
1.0
 23
0.0
 33
0.0
 40
0.0
 40
0.0
 40
0.0
 40
0.0
 40
1.0
 40
1.0
 40
1.0
 40
2.0
 40
2.0
 40
2.0
 40
3.0
 40
3.0
 40
3.0
 40
4.0
 40
4.0
 40
4.0
 40
4.0
 10
89.8377515969369
 20
-122.5282594138124
 30
0.0
 10
89.8377515969369
 20
-122.5475563582519
 30
0.0
 10
89.82191187511879
 20
-122.5633960804704
 30
0.0
 10
89.80226215339786
 20
-122.5633960804704
 30
0.0
 10
89.78264997755448
 20
-122.5633960804704
 30
0.0
 10
89.76712775533586
 20
-122.5475563582519
 30
0.0
 10
89.76712775533586
 20
-122.5282594138124
 30
0.0
 10
89.76712775533586
 20
-122.508644969373
 30
0.0
 10
89.78264997755448
 20
-122.4927699693769
 30
0.0
 10
89.80226215339786
 20
-122.4927699693769
 30
0.0
 10
89.82191187511879
 20
-122.4927699693769
 30
0.0
 10
89.8377515969369
 20
-122.508644969373
 30
0.0
 10
89.8377515969369
 20
-122.5282594138124
 30
0.0
  0
SPLINE
  5
46
330
1F
100
AcDbEntity
  8
_U+30EC_U+30A4_U+30E4_U+30FC 1
 62
   179
420
  2234388
370
     9
100
AcDbSpline
210
0.0
220
0.0
230
1.0
 70
    11
 71
     3
 72
    17
 73
    13
 74
     0
 42
0.0000000001
 43
0.0000000001
 12
1.0
 22
0.0
 32
0.0
 13
1.0
 23
0.0
 33
0.0
 40
0.0
 40
0.0
 40
0.0
 40
0.0
 40
1.0
 40
1.0
 40
1.0
 40
2.0
 40
2.0
 40
2.0
 40
3.0
 40
3.0
 40
3.0
 40
4.0
 40
4.0
 40
4.0
 40
4.0
 10
94.8376356360459
 20
-122.5282594138124
 30
0.0
 10
94.8376356360459
 20
-122.5475563582519
 30
0.0
 10
94.8217606364509
 20
-122.5633960804704
 30
0.0
 10
94.80214619250687
 20
-122.5633960804704
 30
0.0
 10
94.78284924855473
 20
-122.5633960804704
 30
0.0
 10
94.76700952673662
 20
-122.5475563582519
 30
0.0
 10
94.76700952673662
 20
-122.5282594138124
 30
0.0
 10
94.76700952673662
 20
-122.508644969373
 30
0.0
 10
94.78284924855473
 20
-122.4927699693769
 30
0.0
 10
94.80214619250687
 20
-122.4927699693769
 30
0.0
 10
94.8217606364509
 20
-122.4927699693769
 30
0.0
 10
94.8376356360459
 20
-122.508644969373
 30
0.0
 10
94.8376356360459
 20
-122.5282594138124
 30
0.0
  0
SPLINE
  5
47
330
1F
100
AcDbEntity
  8
_U+30EC_U+30A4_U+30E4_U+30FC 1
 62
   179
420
  2234388
370
     9
100
AcDbSpline
210
0.0
220
0.0
230
1.0
 70
    11
 71
     3
 72
    17
 73
    13
 74
     0
 42
0.0000000001
 43
0.0000000001
 12
1.0
 22
0.0
 32
0.0
 13
1.0
 23
0.0
 33
0.0
 40
0.0
 40
0.0
 40
0.0
 40
0.0
 40
1.0
 40
1.0
 40
1.0
 40
2.0
 40
2.0
 40
2.0
 40
3.0
 40
3.0
 40
3.0
 40
4.0
 40
4.0
 40
4.0
 40
4.0
 10
98.83771220066211
 20
-126.5283713572567
 30
0.0
 10
98.83771220066211
 20
-126.5476683016965
 30
0.0
 10
98.82187497529453
 20
-126.5635080239148
 30
0.0
 10
98.80257553489186
 20
-126.5635080239148
 30
0.0
 10
98.78260831317904
 20
-126.5635080239148
 30
0.0
 10
98.76708609135282
 20
-126.5476683016965
 30
0.0
 10
98.76708609135282
 20
-126.5283713572567
 30
0.0
 10
98.76708609135282
 20
-126.5087216350394
 30
0.0
 10
98.78260831317904
 20
-126.4928819128212
 30
0.0
 10
98.80257553489186
 20
-126.4928819128212
 30
0.0
 10
98.82187497529453
 20
-126.4928819128212
 30
0.0
 10
98.83771220066211
 20
-126.5087216350394
 30
0.0
 10
98.83771220066211
 20
-126.5283713572567
 30
0.0
  0
SPLINE
  5
48
330
1F
100
AcDbEntity
  8
_U+30EC_U+30A4_U+30E4_U+30FC 1
 62
   179
420
  2234388
370
     9
100
AcDbSpline
210
0.0
220
0.0
230
1.0
 70
    11
 71
     3
 72
    17
 73
    13
 74
     0
 42
0.0000000001
 43
0.0000000001
 12
1.0
 22
0.0
 32
0.0
 13
1.0
 23
0.0
 33
0.0
 40
0.0
 40
0.0
 40
0.0
 40
0.0
 40
1.0
 40
1.0
 40
1.0
 40
2.0
 40
2.0
 40
2.0
 40
3.0
 40
3.0
 40
3.0
 40
4.0
 40
4.0
 40
4.0
 40
4.0
 10
98.83771220066211
 20
-138.5283191320347
 30
0.0
 10
98.83771220066211
 20
-138.5476160764739
 30
0.0
 10
98.82187497529453
 20
-138.5634557986924
 30
0.0
 10
98.80257553489186
 20
-138.5634557986924
 30
0.0
 10
98.78260831317904
 20
-138.5634557986924
 30
0.0
 10
98.76708609135282
 20
-138.5476160764739
 30
0.0
 10
98.76708609135282
 20
-138.5283191320347
 30
0.0
 10
98.76708609135282
 20
-138.5086694098171
 30
0.0
 10
98.78260831317904
 20
-138.4928296875993
 30
0.0
 10
98.80257553489186
 20
-138.4928296875993
 30
0.0
 10
98.82187497529453
 20
-138.4928296875993
 30
0.0
 10
98.83771220066211
 20
-138.5086694098171
 30
0.0
 10
98.83771220066211
 20
-138.5283191320347
 30
0.0
  0
POLYLINE
  5
49
330
1F
100
AcDbEntity
  8
_U+30EC_U+30A4_U+30E4_U+30FC 1
 62
   179
420
  2234388
370
    25
100
AcDb2dPolyline
 66
     1
 10
0.0
 20
0.0
 30
0.0
  0
VERTEX
  5
4A
330
49
100
AcDbEntity
  8
_U+30EC_U+30A4_U+30E4_U+30FC 1
 62
   179
420
  2234388
370
    25
100
AcDbVertex
100
AcDb2dVertex
 10
90.30214825175582
 20
-138.5283191320347
 30
0.0
  0
VERTEX
  5
4B
330
49
100
AcDbEntity
  8
_U+30EC_U+30A4_U+30E4_U+30FC 1
 62
   179
420
  2234388
370
    25
100
AcDbVertex
100
AcDb2dVertex
 10
94.30261287191769
 20
-138.5283191320347
 30
0.0
  0
SEQEND
  5
4C
330
49
100
AcDbEntity
  8
_U+30EC_U+30A4_U+30E4_U+30FC 1
 62
   179
420
  2234388
370
    25
  0
POLYLINE
  5
4D
330
1F
100
AcDbEntity
  8
_U+30EC_U+30A4_U+30E4_U+30FC 1
 62
   179
420
  2234388
370
    25
100
AcDb2dPolyline
 66
     1
 10
0.0
 20
0.0
 30
0.0
  0
VERTEX
  5
4E
330
4D
100
AcDbEntity
  8
_U+30EC_U+30A4_U+30E4_U+30FC 1
 62
   179
420
  2234388
370
    25
100
AcDbVertex
100
AcDb2dVertex
 10
89.80226215339786
 20
-126.5283713572567
 30
0.0
  0
VERTEX
  5
4F
330
4D
100
AcDbEntity
  8
_U+30EC_U+30A4_U+30E4_U+30FC 1
 62
   179
420
  2234388
370
    25
100
AcDbVertex
100
AcDb2dVertex
 10
94.80214619250687
 20
-126.5283713572567
 30
0.0
  0
SEQEND
  5
50
330
4D
100
AcDbEntity
  8
_U+30EC_U+30A4_U+30E4_U+30FC 1
 62
   179
420
  2234388
370
    25
  0
POLYLINE
  5
51
330
1F
100
AcDbEntity
  8
_U+30EC_U+30A4_U+30E4_U+30FC 1
 62
   179
420
  2234388
370
    25
100
AcDb2dPolyline
 66
     1
 10
0.0
 20
0.0
 30
0.0
  0
VERTEX
  5
52
330
51
100
AcDbEntity
  8
_U+30EC_U+30A4_U+30E4_U+30FC 1
 62
   179
420
  2234388
370
    25
100
AcDbVertex
100
AcDb2dVertex
 10
90.30214825175582
 20
-137.5282294100626
 30
0.0
  0
VERTEX
  5
53
330
51
100
AcDbEntity
  8
_U+30EC_U+30A4_U+30E4_U+30FC 1
 62
   179
420
  2234388
370
    25
100
AcDbVertex
100
AcDb2dVertex
 10
91.3022732262405
 20
-137.5282294100626
 30
0.0
  0
SEQEND
  5
54
330
51
100
AcDbEntity
  8
_U+30EC_U+30A4_U+30E4_U+30FC 1
 62
   179
420
  2234388
370
    25
  0
POLYLINE
  5
55
330
1F
100
AcDbEntity
  8
_U+30EC_U+30A4_U+30E4_U+30FC 1
 62
   179
420
  2234388
370
    25
100
AcDb2dPolyline
 66
     1
 10
0.0
 20
0.0
 30
0.0
  0
VERTEX
  5
56
330
55
100
AcDbEntity
  8
_U+30EC_U+30A4_U+30E4_U+30FC 1
 62
   179
420
  2234388
370
    25
100
AcDbVertex
100
AcDb2dVertex
 10
94.30261287191769
 20
-137.5282294100626
 30
0.0
  0
VERTEX
  5
57
330
55
100
AcDbEntity
  8
_U+30EC_U+30A4_U+30E4_U+30FC 1
 62
   179
420
  2234388
370
    25
100
AcDbVertex
100
AcDb2dVertex
 10
94.30261287191769
 20
-138.5283191320347
 30
0.0
  0
SEQEND
  5
58
330
55
100
AcDbEntity
  8
_U+30EC_U+30A4_U+30E4_U+30FC 1
 62
   179
420
  2234388
370
    25
  0
POLYLINE
  5
59
330
1F
100
AcDbEntity
  8
_U+30EC_U+30A4_U+30E4_U+30FC 1
 62
   179
420
  2234388
370
    25
100
AcDb2dPolyline
 66
     1
 10
0.0
 20
0.0
 30
0.0
  0
VERTEX
  5
5A
330
59
100
AcDbEntity
  8
_U+30EC_U+30A4_U+30E4_U+30FC 1
 62
   179
420
  2234388
370
    25
100
AcDbVertex
100
AcDb2dVertex
 10
90.30214825175582
 20
-137.5282294100626
 30
0.0
  0
VERTEX
  5
5B
330
59
100
AcDbEntity
  8
_U+30EC_U+30A4_U+30E4_U+30FC 1
 62
   179
420
  2234388
370
    25
100
AcDbVertex
100
AcDb2dVertex
 10
90.30214825175582
 20
-138.5283191320347
 30
0.0
  0
SEQEND
  5
5C
330
59
100
AcDbEntity
  8
_U+30EC_U+30A4_U+30E4_U+30FC 1
 62
   179
420
  2234388
370
    25
  0
POLYLINE
  5
5D
330
1F
100
AcDbEntity
  8
_U+30EC_U+30A4_U+30E4_U+30FC 1
 62
   179
420
  2234388
370
    25
100
AcDb2dPolyline
 66
     1
 10
0.0
 20
0.0
 30
0.0
  0
VERTEX
  5
5E
330
5D
100
AcDbEntity
  8
_U+30EC_U+30A4_U+30E4_U+30FC 1
 62
   179
420
  2234388
370
    25
100
AcDbVertex
100
AcDb2dVertex
 10
93.30213511966423
 20
-130.0282444119377
 30
0.0
  0
VERTEX
  5
5F
330
5D
100
AcDbEntity
  8
_U+30EC_U+30A4_U+30E4_U+30FC 1
 62
   179
420
  2234388
370
    25
100
AcDbVertex
100
AcDb2dVertex
 10
93.30213511966423
 20
-137.5282294100626
 30
0.0
  0
SEQEND
  5
60
330
5D
100
AcDbEntity
  8
_U+30EC_U+30A4_U+30E4_U+30FC 1
 62
   179
420
  2234388
370
    25
  0
POLYLINE
  5
61
330
1F
100
AcDbEntity
  8
_U+30EC_U+30A4_U+30E4_U+30FC 1
 62
   179
420
  2234388
370
    25
100
AcDb2dPolyline
 66
     1
 10
0.0
 20
0.0
 30
0.0
  0
VERTEX
  5
62
330
61
100
AcDbEntity
  8
_U+30EC_U+30A4_U+30E4_U+30FC 1
 62
   179
420
  2234388
370
    25
100
AcDbVertex
100
AcDb2dVertex
 10
91.3022732262405
 20
-130.0282444119377
 30
0.0
  0
VERTEX
  5
63
330
61
100
AcDbEntity
  8
_U+30EC_U+30A4_U+30E4_U+30FC 1
 62
   179
420
  2234388
370
    25
100
AcDbVertex
100
AcDb2dVertex
 10
91.3022732262405
 20
-137.5282294100626
 30
0.0
  0
SEQEND
  5
64
330
61
100
AcDbEntity
  8
_U+30EC_U+30A4_U+30E4_U+30FC 1
 62
   179
420
  2234388
370
    25
  0
POLYLINE
  5
65
330
1F
100
AcDbEntity
  8
_U+30EC_U+30A4_U+30E4_U+30FC 1
 62
   179
420
  2234388
370
    25
100
AcDb2dPolyline
 66
     1
 10
0.0
 20
0.0
 30
0.0
  0
VERTEX
  5
66
330
65
100
AcDbEntity
  8
_U+30EC_U+30A4_U+30E4_U+30FC 1
 62
   179
420
  2234388
370
    25
100
AcDbVertex
100
AcDb2dVertex
 10
89.80226215339786
 20
-130.0282444119377
 30
0.0
  0
VERTEX
  5
67
330
65
100
AcDbEntity
  8
_U+30EC_U+30A4_U+30E4_U+30FC 1
 62
   179
420
  2234388
370
    25
100
AcDbVertex
100
AcDb2dVertex
 10
91.3022732262405
 20
-130.0282444119377
 30
0.0
  0
SEQEND
  5
68
330
65
100
AcDbEntity
  8
_U+30EC_U+30A4_U+30E4_U+30FC 1
 62
   179
420
  2234388
370
    25
  0
POLYLINE
  5
69
330
1F
100
AcDbEntity
  8
_U+30EC_U+30A4_U+30E4_U+30FC 1
 62
   179
420
  2234388
370
    25
100
AcDb2dPolyline
 66
     1
 10
0.0
 20
0.0
 30
0.0
  0
VERTEX
  5
6A
330
69
100
AcDbEntity
  8
_U+30EC_U+30A4_U+30E4_U+30FC 1
 62
   179
420
  2234388
370
    25
100
AcDbVertex
100
AcDb2dVertex
 10
93.30213511966423
 20
-130.0282444119377
 30
0.0
  0
VERTEX
  5
6B
330
69
100
AcDbEntity
  8
_U+30EC_U+30A4_U+30E4_U+30FC 1
 62
   179
420
  2234388
370
    25
100
AcDbVertex
100
AcDb2dVertex
 10
94.80214619250687
 20
-130.0282444119377
 30
0.0
  0
SEQEND
  5
6C
330
69
100
AcDbEntity
  8
_U+30EC_U+30A4_U+30E4_U+30FC 1
 62
   179
420
  2234388
370
    25
  0
POLYLINE
  5
6D
330
1F
100
AcDbEntity
  8
_U+30EC_U+30A4_U+30E4_U+30FC 1
 62
   179
420
  2234388
370
    25
100
AcDb2dPolyline
 66
     1
 10
0.0
 20
0.0
 30
0.0
  0
VERTEX
  5
6E
330
6D
100
AcDbEntity
  8
_U+30EC_U+30A4_U+30E4_U+30FC 1
 62
   179
420
  2234388
370
    25
100
AcDbVertex
100
AcDb2dVertex
 10
94.80214619250687
 20
-126.5283713572567
 30
0.0
  0
VERTEX
  5
6F
330
6D
100
AcDbEntity
  8
_U+30EC_U+30A4_U+30E4_U+30FC 1
 62
   179
420
  2234388
370
    25
100
AcDbVertex
100
AcDb2dVertex
 10
94.80214619250687
 20
-130.0282444119377
 30
0.0
  0
SEQEND
  5
70
330
6D
100
AcDbEntity
  8
_U+30EC_U+30A4_U+30E4_U+30FC 1
 62
   179
420
  2234388
370
    25
  0
POLYLINE
  5
71
330
1F
100
AcDbEntity
  8
_U+30EC_U+30A4_U+30E4_U+30FC 1
 62
   179
420
  2234388
370
    25
100
AcDb2dPolyline
 66
     1
 10
0.0
 20
0.0
 30
0.0
  0
VERTEX
  5
72
330
71
100
AcDbEntity
  8
_U+30EC_U+30A4_U+30E4_U+30FC 1
 62
   179
420
  2234388
370
    25
100
AcDbVertex
100
AcDb2dVertex
 10
89.80226215339786
 20
-126.5283713572567
 30
0.0
  0
VERTEX
  5
73
330
71
100
AcDbEntity
  8
_U+30EC_U+30A4_U+30E4_U+30FC 1
 62
   179
420
  2234388
370
    25
100
AcDbVertex
100
AcDb2dVertex
 10
89.80226215339786
 20
-130.0282444119377
 30
0.0
  0
SEQEND
  5
74
330
71
100
AcDbEntity
  8
_U+30EC_U+30A4_U+30E4_U+30FC 1
 62
   179
420
  2234388
370
    25
  0
POLYLINE
  5
75
330
1F
100
AcDbEntity
  8
_U+30EC_U+30A4_U+30E4_U+30FC 1
 62
   179
420
  2234388
370
    25
100
AcDb2dPolyline
 66
     1
 10
0.0
 20
0.0
 30
0.0
  0
VERTEX
  5
76
330
75
100
AcDbEntity
  8
_U+30EC_U+30A4_U+30E4_U+30FC 1
 62
   179
420
  2234388
370
    25
100
AcDbVertex
100
AcDb2dVertex
 10
93.30213511966423
 20
-137.5282294100626
 30
0.0
  0
VERTEX
  5
77
330
75
100
AcDbEntity
  8
_U+30EC_U+30A4_U+30E4_U+30FC 1
 62
   179
420
  2234388
370
    25
100
AcDbVertex
100
AcDb2dVertex
 10
94.30261287191769
 20
-137.5282294100626
 30
0.0
  0
SEQEND
  5
78
330
75
100
AcDbEntity
  8
_U+30EC_U+30A4_U+30E4_U+30FC 1
 62
   179
420
  2234388
370
    25
  0
SPLINE
  5
79
330
1F
100
AcDbEntity
  8
_U+30EC_U+30A4_U+30E4_U+30FC 1
 62
   179
420
  2234388
370
     9
100
AcDbSpline
210
0.0
220
0.0
230
1.0
 70
    11
 71
     3
 72
    17
 73
    13
 74
     0
 42
0.0000000001
 43
0.0000000001
 12
1.0
 22
0.0
 32
0.0
 13
1.0
 23
0.0
 33
0.0
 40
0.0
 40
0.0
 40
0.0
 40
0.0
 40
1.0
 40
1.0
 40
1.0
 40
2.0
 40
2.0
 40
2.0
 40
3.0
 40
3.0
 40
3.0
 40
4.0
 40
4.0
 40
4.0
 40
4.0
 10
98.9024821990097
 20
-126.5283713572567
 30
0.0
 10
98.9024821990097
 20
-126.472914690604
 30
0.0
 10
98.8577147001518
 20
-126.4281119128373
 30
0.0
 10
98.80257553489186
 20
-126.4281119128373
 30
0.0
 10
98.74711886964
 20
-126.4281119128373
 30
0.0
 10
98.70231609300524
 20
-126.472914690604
 30
0.0
 10
98.70231609300524
 20
-126.5283713572567
 30
0.0
 10
98.70231609300524
 20
-126.583475246132
 30
0.0
 10
98.74711886964
 20
-126.6282780238984
 30
0.0
 10
98.80257553489186
 20
-126.6282780238984
 30
0.0
 10
98.8577147001518
 20
-126.6282780238984
 30
0.0
 10
98.9024821990097
 20
-126.583475246132
 30
0.0
 10
98.9024821990097
 20
-126.5283713572567
 30
0.0
  0
SPLINE
  5
7A
330
1F
100
AcDbEntity
  8
_U+30EC_U+30A4_U+30E4_U+30FC 1
 62
   179
420
  2234388
370
     9
100
AcDbSpline
210
0.0
220
0.0
230
1.0
 70
    11
 71
     3
 72
    17
 73
    13
 74
     0
 42
0.0000000001
 43
0.0000000001
 12
1.0
 22
0.0
 32
0.0
 13
1.0
 23
0.0
 33
0.0
 40
0.0
 40
0.0
 40
0.0
 40
0.0
 40
1.0
 40
1.0
 40
1.0
 40
2.0
 40
2.0
 40
2.0
 40
3.0
 40
3.0
 40
3.0
 40
4.0
 40
4.0
 40
4.0
 40
4.0
 10
98.9024821990097
 20
-138.5283191320347
 30
0.0
 10
98.9024821990097
 20
-138.4728624653821
 30
0.0
 10
98.8577147001518
 20
-138.4280596876153
 30
0.0
 10
98.80257553489186
 20
-138.4280596876153
 30
0.0
 10
98.74711886964
 20
-138.4280596876153
 30
0.0
 10
98.70231609300524
 20
-138.4728624653821
 30
0.0
 10
98.70231609300524
 20
-138.5283191320347
 30
0.0
 10
98.70231609300524
 20
-138.5834582986872
 30
0.0
 10
98.74711886964
 20
-138.6282257986764
 30
0.0
 10
98.80257553489186
 20
-138.6282257986764
 30
0.0
 10
98.8577147001518
 20
-138.6282257986764
 30
0.0
 10
98.9024821990097
 20
-138.5834582986872
 30
0.0
 10
98.9024821990097
 20
-138.5283191320347
 30
0.0
  0
SPLINE
  5
7B
330
1F
100
AcDbEntity
  8
_U+30EC_U+30A4_U+30E4_U+30FC 1
 62
   179
420
  2234388
370
     9
100
AcDbSpline
210
0.0
220
0.0
230
1.0
 70
    11
 71
     3
 72
    17
 73
    13
 74
     0
 42
0.0000000001
 43
0.0000000001
 12
1.0
 22
0.0
 32
0.0
 13
1.0
 23
0.0
 33
0.0
 40
0.0
 40
0.0
 40
0.0
 40
0.0
 40
1.0
 40
1.0
 40
1.0
 40
2.0
 40
2.0
 40
2.0
 40
3.0
 40
3.0
 40
3.0
 40
4.0
 40
4.0
 40
4.0
 40
4.0
 10
94.9023703566166
 20
-122.5282594138124
 30
0.0
 10
94.9023703566166
 20
-122.4728027471597
 30
0.0
 10
94.85760285775872
 20
-122.4283527471707
 30
0.0
 10
94.80214619250687
 20
-122.4283527471707
 30
0.0
 10
94.74700702724692
 20
-122.4283527471707
 30
0.0
 10
94.70223952838903
 20
-122.4728027471597
 30
0.0
 10
94.70223952838903
 20
-122.5282594138124
 30
0.0
 10
94.70223952838903
 20
-122.5833985804651
 30
0.0
 10
94.74700702724692
 20
-122.628166080454
 30
0.0
 10
94.80214619250687
 20
-122.628166080454
 30
0.0
 10
94.85760285775872
 20
-122.628166080454
 30
0.0
 10
94.9023703566166
 20
-122.5833985804651
 30
0.0
 10
94.9023703566166
 20
-122.5282594138124
 30
0.0
  0
SPLINE
  5
7C
330
1F
100
AcDbEntity
  8
_U+30EC_U+30A4_U+30E4_U+30FC 1
 62
   179
420
  2234388
370
     9
100
AcDbSpline
210
0.0
220
0.0
230
1.0
 70
    11
 71
     3
 72
    17
 73
    13
 74
     0
 42
0.0000000001
 43
0.0000000001
 12
1.0
 22
0.0
 32
0.0
 13
1.0
 23
0.0
 33
0.0
 40
0.0
 40
0.0
 40
0.0
 40
0.0
 40
1.0
 40
1.0
 40
1.0
 40
2.0
 40
2.0
 40
2.0
 40
3.0
 40
3.0
 40
3.0
 40
4.0
 40
4.0
 40
4.0
 40
4.0
 10
89.90252159528448
 20
-122.5282594138124
 30
0.0
 10
89.90252159528448
 20
-122.4728027471597
 30
0.0
 10
89.85771881864972
 20
-122.4283527471707
 30
0.0
 10
89.80226215339786
 20
-122.4283527471707
 30
0.0
 10
89.74715826591479
 20
-122.4283527471707
 30
0.0
 10
89.70235548928004
 20
-122.4728027471597
 30
0.0
 10
89.70235548928004
 20
-122.5282594138124
 30
0.0
 10
89.70235548928004
 20
-122.5833985804651
 30
0.0
 10
89.74715826591479
 20
-122.628166080454
 30
0.0
 10
89.80226215339786
 20
-122.628166080454
 30
0.0
 10
89.85771881864972
 20
-122.628166080454
 30
0.0
 10
89.90252159528448
 20
-122.5833985804651
 30
0.0
 10
89.90252159528448
 20
-122.5282594138124
 30
0.0
  0
SPLINE
  5
7D
330
1F
100
AcDbEntity
  8
_U+30EC_U+30A4_U+30E4_U+30FC 1
 62
   179
420
  2234388
370
     9
100
AcDbSpline
210
0.0
220
0.0
230
1.0
 70
    11
 71
     3
 72
    17
 73
    13
 74
     0
 42
0.0000000001
 43
0.0000000001
 12
1.0
 22
0.0
 32
0.0
 13
1.0
 23
0.0
 33
0.0
 40
0.0
 40
0.0
 40
0.0
 40
0.0
 40
1.0
 40
1.0
 40
1.0
 40
2.0
 40
2.0
 40
2.0
 40
3.0
 40
3.0
 40
3.0
 40
4.0
 40
4.0
 40
4.0
 40
4.0
 10
85.90240975289139
 20
-130.0282444119377
 30
0.0
 10
85.90240975289139
 20
-129.9731052452846
 30
0.0
 10
85.85764442298012
 20
-129.928337745296
 30
0.0
 10
85.80218558878165
 20
-129.928337745296
 30
0.0
 10
85.74704642352171
 20
-129.928337745296
 30
0.0
 10
85.70224364688694
 20
-129.9731052452846
 30
0.0
 10
85.70224364688694
 20
-130.0282444119377
 30
0.0
 10
85.70224364688694
 20
-130.0833483008126
 30
0.0
 10
85.74704642352171
 20
-130.1281510785793
 30
0.0
 10
85.80218558878165
 20
-130.1281510785793
 30
0.0
 10
85.85764442298012
 20
-130.1281510785793
 30
0.0
 10
85.90240975289139
 20
-130.0833483008126
 30
0.0
 10
85.90240975289139
 20
-130.0282444119377
 30
0.0
  0
SPLINE
  5
7E
330
1F
100
AcDbEntity
  8
_U+30EC_U+30A4_U+30E4_U+30FC 1
 62
   179
420
  2234388
370
     9
100
AcDbSpline
210
0.0
220
0.0
230
1.0
 70
    11
 71
     3
 72
    17
 73
    13
 74
     0
 42
0.0000000001
 43
0.0000000001
 12
1.0
 22
0.0
 32
0.0
 13
1.0
 23
0.0
 33
0.0
 40
0.0
 40
0.0
 40
0.0
 40
0.0
 40
1.0
 40
1.0
 40
1.0
 40
2.0
 40
2.0
 40
2.0
 40
3.0
 40
3.0
 40
3.0
 40
4.0
 40
4.0
 40
4.0
 40
4.0
 10
85.90240975289139
 20
-126.5283713572567
 30
0.0
 10
85.90240975289139
 20
-126.472914690604
 30
0.0
 10
85.85764442298012
 20
-126.4281119128373
 30
0.0
 10
85.80218558878165
 20
-126.4281119128373
 30
0.0
 10
85.74704642352171
 20
-126.4281119128373
 30
0.0
 10
85.70224364688694
 20
-126.472914690604
 30
0.0
 10
85.70224364688694
 20
-126.5283713572567
 30
0.0
 10
85.70224364688694
 20
-126.583475246132
 30
0.0
 10
85.74704642352171
 20
-126.6282780238984
 30
0.0
 10
85.80218558878165
 20
-126.6282780238984
 30
0.0
 10
85.85764442298012
 20
-126.6282780238984
 30
0.0
 10
85.90240975289139
 20
-126.583475246132
 30
0.0
 10
85.90240975289139
 20
-126.5283713572567
 30
0.0
  0
POLYLINE
  5
7F
330
1F
100
AcDbEntity
  8
_U+30EC_U+30A4_U+30E4_U+30FC 1
 62
   179
420
  2234388
370
     9
100
AcDb2dPolyline
 66
     1
 10
0.0
 20
0.0
 30
0.0
  0
VERTEX
  5
80
330
7F
100
AcDbEntity
  8
_U+30EC_U+30A4_U+30E4_U+30FC 1
 62
   179
420
  2234388
370
     9
100
AcDbVertex
100
AcDb2dVertex
 10
98.80257553489186
 20
-126.5283713572567
 30
0.0
  0
VERTEX
  5
81
330
7F
100
AcDbEntity
  8
_U+30EC_U+30A4_U+30E4_U+30FC 1
 62
   179
420
  2234388
370
     9
100
AcDbVertex
100
AcDb2dVertex
 10
98.80257553489186
 20
-138.5283191320347
 30
0.0
  0
SEQEND
  5
82
330
7F
100
AcDbEntity
  8
_U+30EC_U+30A4_U+30E4_U+30FC 1
 62
   179
420
  2234388
370
     9
  0
POLYLINE
  5
83
330
1F
100
AcDbEntity
  8
_U+30EC_U+30A4_U+30E4_U+30FC 1
 62
   179
420
  2234388
370
     9
100
AcDb2dPolyline
 66
     1
 10
0.0
 20
0.0
 30
0.0
  0
VERTEX
  5
84
330
83
100
AcDbEntity
  8
_U+30EC_U+30A4_U+30E4_U+30FC 1
 62
   179
420
  2234388
370
     9
100
AcDbVertex
100
AcDb2dVertex
 10
97.34253418325173
 20
-126.5283713572567
 30
0.0
  0
VERTEX
  5
85
330
83
100
AcDbEntity
  8
_U+30EC_U+30A4_U+30E4_U+30FC 1
 62
   179
420
  2234388
370
     9
100
AcDbVertex
100
AcDb2dVertex
 10
99.80234773160777
 20
-126.5283713572567
 30
0.0
  0
SEQEND
  5
86
330
83
100
AcDbEntity
  8
_U+30EC_U+30A4_U+30E4_U+30FC 1
 62
   179
420
  2234388
370
     9
  0
POLYLINE
  5
87
330
1F
100
AcDbEntity
  8
_U+30EC_U+30A4_U+30E4_U+30FC 1
 62
   179
420
  2234388
370
     9
100
AcDb2dPolyline
 66
     1
 10
0.0
 20
0.0
 30
0.0
  0
VERTEX
  5
88
330
87
100
AcDbEntity
  8
_U+30EC_U+30A4_U+30E4_U+30FC 1
 62
   179
420
  2234388
370
     9
100
AcDbVertex
100
AcDb2dVertex
 10
96.84233058490187
 20
-138.5283191320347
 30
0.0
  0
VERTEX
  5
89
330
87
100
AcDbEntity
  8
_U+30EC_U+30A4_U+30E4_U+30FC 1
 62
   179
420
  2234388
370
     9
100
AcDbVertex
100
AcDb2dVertex
 10
99.80234773160777
 20
-138.5283191320347
 30
0.0
  0
SEQEND
  5
8A
330
87
100
AcDbEntity
  8
_U+30EC_U+30A4_U+30E4_U+30FC 1
 62
   179
420
  2234388
370
     9
  0
INSERT
  5
8C
330
1F
100
AcDbEntity
  8
_U+30EC_U+30A4_U+30E4_U+30FC 1
100
AcDbBlockReference
  2
block 2
 10
0.0
 20
0.0
 30
0.0
  0
SPLINE
  5
93
330
1F
100
AcDbEntity
  8
_U+30EC_U+30A4_U+30E4_U+30FC 1
 62
   179
420
  2234388
370
    25
100
AcDbSpline
210
0.0
220
0.0
230
1.0
 70
    11
 71
     3
 72
    17
 73
    13
 74
     0
 42
0.0000000001
 43
0.0000000001
 12
1.0
 22
0.0
 32
0.0
 13
1.0
 23
0.0
 33
0.0
 40
0.0
 40
0.0
 40
0.0
 40
0.0
 40
1.0
 40
1.0
 40
1.0
 40
2.0
 40
2.0
 40
2.0
 40
3.0
 40
3.0
 40
3.0
 40
4.0
 40
4.0
 40
4.0
 40
4.0
 10
94.8376356360459
 20
-126.5283713572567
 30
0.0
 10
94.8376356360459
 20
-126.5476683016965
 30
0.0
 10
94.8217606364509
 20
-126.5635080239148
 30
0.0
 10
94.80214619250687
 20
-126.5635080239148
 30
0.0
 10
94.78284924855473
 20
-126.5635080239148
 30
0.0
 10
94.76700952673662
 20
-126.5476683016965
 30
0.0
 10
94.76700952673662
 20
-126.5283713572567
 30
0.0
 10
94.76700952673662
 20
-126.5087216350394
 30
0.0
 10
94.78284924855473
 20
-126.4928819128212
 30
0.0
 10
94.80214619250687
 20
-126.4928819128212
 30
0.0
 10
94.8217606364509
 20
-126.4928819128212
 30
0.0
 10
94.8376356360459
 20
-126.5087216350394
 30
0.0
 10
94.8376356360459
 20
-126.5283713572567
 30
0.0
  0
SPLINE
  5
94
330
1F
100
AcDbEntity
  8
_U+30EC_U+30A4_U+30E4_U+30FC 1
 62
   179
420
  2234388
370
    25
100
AcDbSpline
210
0.0
220
0.0
230
1.0
 70
    11
 71
     3
 72
    17
 73
    13
 74
     0
 42
0.0000000001
 43
0.0000000001
 12
1.0
 22
0.0
 32
0.0
 13
1.0
 23
0.0
 33
0.0
 40
0.0
 40
0.0
 40
0.0
 40
0.0
 40
1.0
 40
1.0
 40
1.0
 40
2.0
 40
2.0
 40
2.0
 40
3.0
 40
3.0
 40
3.0
 40
4.0
 40
4.0
 40
4.0
 40
4.0
 10
94.33774953768794
 20
-138.5283191320347
 30
0.0
 10
94.33774953768794
 20
-138.5476160764739
 30
0.0
 10
94.32187453809296
 20
-138.5634557986924
 30
0.0
 10
94.30261287191769
 20
-138.5634557986924
 30
0.0
 10
94.282610372428
 20
-138.5634557986924
 30
0.0
 10
94.26712342837865
 20
-138.5476160764739
 30
0.0
 10
94.26712342837865
 20
-138.5283191320347
 30
0.0
 10
94.26712342837865
 20
-138.5086694098171
 30
0.0
 10
94.282610372428
 20
-138.4928296875993
 30
0.0
 10
94.30261287191769
 20
-138.4928296875993
 30
0.0
 10
94.32187453809296
 20
-138.4928296875993
 30
0.0
 10
94.33774953768794
 20
-138.5086694098171
 30
0.0
 10
94.33774953768794
 20
-138.5283191320347
 30
0.0
  0
SPLINE
  5
95
330
1F
100
AcDbEntity
  8
_U+30EC_U+30A4_U+30E4_U+30FC 1
 62
   179
420
  2234388
370
     9
100
AcDbSpline
210
0.0
220
0.0
230
1.0
 70
    11
 71
     3
 72
    17
 73
    13
 74
     0
 42
0.0000000001
 43
0.0000000001
 12
1.0
 22
0.0
 32
0.0
 13
1.0
 23
0.0
 33
0.0
 40
0.0
 40
0.0
 40
0.0
 40
0.0
 40
1.0
 40
1.0
 40
1.0
 40
2.0
 40
2.0
 40
2.0
 40
3.0
 40
3.0
 40
3.0
 40
4.0
 40
4.0
 40
4.0
 40
4.0
 10
98.83771220066211
 20
-138.5283191320347
 30
0.0
 10
98.83771220066211
 20
-138.5476160764739
 30
0.0
 10
98.82187497529453
 20
-138.5634557986924
 30
0.0
 10
98.80257553489186
 20
-138.5634557986924
 30
0.0
 10
98.78260831317904
 20
-138.5634557986924
 30
0.0
 10
98.76708609135282
 20
-138.5476160764739
 30
0.0
 10
98.76708609135282
 20
-138.5283191320347
 30
0.0
 10
98.76708609135282
 20
-138.5086694098171
 30
0.0
 10
98.78260831317904
 20
-138.4928296875993
 30
0.0
 10
98.80257553489186
 20
-138.4928296875993
 30
0.0
 10
98.82187497529453
 20
-138.4928296875993
 30
0.0
 10
98.83771220066211
 20
-138.5086694098171
 30
0.0
 10
98.83771220066211
 20
-138.5283191320347
 30
0.0
  0
POLYLINE
  5
96
330
1F
100
AcDbEntity
  8
_U+30EC_U+30A4_U+30E4_U+30FC 1
 62
   179
420
  2234388
370
     9
100
AcDb2dPolyline
 66
     1
 10
0.0
 20
0.0
 30
0.0
  0
VERTEX
  5
97
330
96
100
AcDbEntity
  8
_U+30EC_U+30A4_U+30E4_U+30FC 1
 62
   179
420
  2234388
370
     9
100
AcDbVertex
100
AcDb2dVertex
 10
89.80226215339786
 20
-122.5282594138124
 30
0.0
  0
VERTEX
  5
98
330
96
100
AcDbEntity
  8
_U+30EC_U+30A4_U+30E4_U+30FC 1
 62
   179
420
  2234388
370
     9
100
AcDbVertex
100
AcDb2dVertex
 10
94.80214619250687
 20
-122.5282594138124
 30
0.0
  0
SEQEND
  5
99
330
96
100
AcDbEntity
  8
_U+30EC_U+30A4_U+30E4_U+30FC 1
 62
   179
420
  2234388
370
     9
  0
POLYLINE
  5
9A
330
1F
100
AcDbEntity
  8
_U+30EC_U+30A4_U+30E4_U+30FC 1
 62
   179
420
  2234388
370
     9
100
AcDb2dPolyline
 66
     1
 10
0.0
 20
0.0
 30
0.0
  0
VERTEX
  5
9B
330
9A
100
AcDbEntity
  8
_U+30EC_U+30A4_U+30E4_U+30FC 1
 62
   179
420
  2234388
370
     9
100
AcDbVertex
100
AcDb2dVertex
 10
89.80226215339786
 20
-123.9883008023364
 30
0.0
  0
VERTEX
  5
9C
330
9A
100
AcDbEntity
  8
_U+30EC_U+30A4_U+30E4_U+30FC 1
 62
   179
420
  2234388
370
     9
100
AcDbVertex
100
AcDb2dVertex
 10
89.80226215339786
 20
-121.5281696918402
 30
0.0
  0
SEQEND
  5
9D
330
9A
100
AcDbEntity
  8
_U+30EC_U+30A4_U+30E4_U+30FC 1
 62
   179
420
  2234388
370
     9
  0
POLYLINE
  5
9E
330
1F
100
AcDbEntity
  8
_U+30EC_U+30A4_U+30E4_U+30FC 1
 62
   179
420
  2234388
370
     9
100
AcDb2dPolyline
 66
     1
 10
0.0
 20
0.0
 30
0.0
  0
VERTEX
  5
9F
330
9E
100
AcDbEntity
  8
_U+30EC_U+30A4_U+30E4_U+30FC 1
 62
   179
420
  2234388
370
     9
100
AcDbVertex
100
AcDb2dVertex
 10
94.80214619250687
 20
-123.9883008023364
 30
0.0
  0
VERTEX
  5
A0
330
9E
100
AcDbEntity
  8
_U+30EC_U+30A4_U+30E4_U+30FC 1
 62
   179
420
  2234388
370
     9
100
AcDbVertex
100
AcDb2dVertex
 10
94.80214619250687
 20
-121.5281696918402
 30
0.0
  0
SEQEND
  5
A1
330
9E
100
AcDbEntity
  8
_U+30EC_U+30A4_U+30E4_U+30FC 1
 62
   179
420
  2234388
370
     9
  0
INSERT
  5
A3
330
1F
100
AcDbEntity
  8
_U+30EC_U+30A4_U+30E4_U+30FC 1
100
AcDbBlockReference
  2
block 3
 10
0.0
 20
0.0
 30
0.0
  0
SPLINE
  5
A8
330
1F
100
AcDbEntity
  8
_U+30EC_U+30A4_U+30E4_U+30FC 1
 62
   179
420
  2234388
370
    25
100
AcDbSpline
210
0.0
220
0.0
230
1.0
 70
    11
 71
     3
 72
    17
 73
    13
 74
     0
 42
0.0000000001
 43
0.0000000001
 12
1.0
 22
0.0
 32
0.0
 13
1.0
 23
0.0
 33
0.0
 40
0.0
 40
0.0
 40
0.0
 40
0.0
 40
1.0
 40
1.0
 40
1.0
 40
2.0
 40
2.0
 40
2.0
 40
3.0
 40
3.0
 40
3.0
 40
4.0
 40
4.0
 40
4.0
 40
4.0
 10
89.8377515969369
 20
-126.5283713572567
 30
0.0
 10
89.8377515969369
 20
-126.5476683016965
 30
0.0
 10
89.82191187511879
 20
-126.5635080239148
 30
0.0
 10
89.80226215339786
 20
-126.5635080239148
 30
0.0
 10
89.78264997755448
 20
-126.5635080239148
 30
0.0
 10
89.76712775533586
 20
-126.5476683016965
 30
0.0
 10
89.76712775533586
 20
-126.5283713572567
 30
0.0
 10
89.76712775533586
 20
-126.5087216350394
 30
0.0
 10
89.78264997755448
 20
-126.4928819128212
 30
0.0
 10
89.80226215339786
 20
-126.4928819128212
 30
0.0
 10
89.82191187511879
 20
-126.4928819128212
 30
0.0
 10
89.8377515969369
 20
-126.5087216350394
 30
0.0
 10
89.8377515969369
 20
-126.5283713572567
 30
0.0
  0
SPLINE
  5
A9
330
1F
100
AcDbEntity
  8
_U+30EC_U+30A4_U+30E4_U+30FC 1
 62
   179
420
  2234388
370
    25
100
AcDbSpline
210
0.0
220
0.0
230
1.0
 70
    11
 71
     3
 72
    17
 73
    13
 74
     0
 42
0.0000000001
 43
0.0000000001
 12
1.0
 22
0.0
 32
0.0
 13
1.0
 23
0.0
 33
0.0
 40
0.0
 40
0.0
 40
0.0
 40
0.0
 40
1.0
 40
1.0
 40
1.0
 40
2.0
 40
2.0
 40
2.0
 40
3.0
 40
3.0
 40
3.0
 40
4.0
 40
4.0
 40
4.0
 40
4.0
 10
94.8376356360459
 20
-126.5283713572567
 30
0.0
 10
94.8376356360459
 20
-126.5476683016965
 30
0.0
 10
94.8217606364509
 20
-126.5635080239148
 30
0.0
 10
94.80214619250687
 20
-126.5635080239148
 30
0.0
 10
94.78284924855473
 20
-126.5635080239148
 30
0.0
 10
94.76700952673662
 20
-126.5476683016965
 30
0.0
 10
94.76700952673662
 20
-126.5283713572567
 30
0.0
 10
94.76700952673662
 20
-126.5087216350394
 30
0.0
 10
94.78284924855473
 20
-126.4928819128212
 30
0.0
 10
94.80214619250687
 20
-126.4928819128212
 30
0.0
 10
94.8217606364509
 20
-126.4928819128212
 30
0.0
 10
94.8376356360459
 20
-126.5087216350394
 30
0.0
 10
94.8376356360459
 20
-126.5283713572567
 30
0.0
  0
SPLINE
  5
AA
330
1F
100
AcDbEntity
  8
_U+30EC_U+30A4_U+30E4_U+30FC 1
 62
   179
420
  2234388
370
     9
100
AcDbSpline
210
0.0
220
0.0
230
1.0
 70
    11
 71
     3
 72
    17
 73
    13
 74
     0
 42
0.0000000001
 43
0.0000000001
 12
1.0
 22
0.0
 32
0.0
 13
1.0
 23
0.0
 33
0.0
 40
0.0
 40
0.0
 40
0.0
 40
0.0
 40
1.0
 40
1.0
 40
1.0
 40
2.0
 40
2.0
 40
2.0
 40
3.0
 40
3.0
 40
3.0
 40
4.0
 40
4.0
 40
4.0
 40
4.0
 10
94.8376356360459
 20
-122.5282594138124
 30
0.0
 10
94.8376356360459
 20
-122.5475563582519
 30
0.0
 10
94.8217606364509
 20
-122.5633960804704
 30
0.0
 10
94.80214619250687
 20
-122.5633960804704
 30
0.0
 10
94.78284924855473
 20
-122.5633960804704
 30
0.0
 10
94.76700952673662
 20
-122.5475563582519
 30
0.0
 10
94.76700952673662
 20
-122.5282594138124
 30
0.0
 10
94.76700952673662
 20
-122.508644969373
 30
0.0
 10
94.78284924855473
 20
-122.4927699693769
 30
0.0
 10
94.80214619250687
 20
-122.4927699693769
 30
0.0
 10
94.8217606364509
 20
-122.4927699693769
 30
0.0
 10
94.8376356360459
 20
-122.508644969373
 30
0.0
 10
94.8376356360459
 20
-122.5282594138124
 30
0.0
  0
POLYLINE
  5
AB
330
1F
100
AcDbEntity
  8
_U+30EC_U+30A4_U+30E4_U+30FC 1
 62
   179
420
  2234388
370
     9
100
AcDb2dPolyline
 66
     1
 10
0.0
 20
0.0
 30
0.0
  0
VERTEX
  5
AC
330
AB
100
AcDbEntity
  8
_U+30EC_U+30A4_U+30E4_U+30FC 1
 62
   179
420
  2234388
370
     9
100
AcDbVertex
100
AcDb2dVertex
 10
85.80218558878165
 20
-126.5283713572567
 30
0.0
  0
VERTEX
  5
AD
330
AB
100
AcDbEntity
  8
_U+30EC_U+30A4_U+30E4_U+30FC 1
 62
   179
420
  2234388
370
     9
100
AcDbVertex
100
AcDb2dVertex
 10
85.80218558878165
 20
-131.0283341339098
 30
0.0
  0
SEQEND
  5
AE
330
AB
100
AcDbEntity
  8
_U+30EC_U+30A4_U+30E4_U+30FC 1
 62
   179
420
  2234388
370
     9
  0
POLYLINE
  5
AF
330
1F
100
AcDbEntity
  8
_U+30EC_U+30A4_U+30E4_U+30FC 1
 62
   179
420
  2234388
370
     9
100
AcDb2dPolyline
 66
     1
 10
0.0
 20
0.0
 30
0.0
  0
VERTEX
  5
B0
330
AF
100
AcDbEntity
  8
_U+30EC_U+30A4_U+30E4_U+30FC 1
 62
   179
420
  2234388
370
     9
100
AcDbVertex
100
AcDb2dVertex
 10
87.26219166264491
 20
-126.5283713572567
 30
0.0
  0
VERTEX
  5
B1
330
AF
100
AcDbEntity
  8
_U+30EC_U+30A4_U+30E4_U+30FC 1
 62
   179
420
  2234388
370
     9
100
AcDbVertex
100
AcDb2dVertex
 10
84.80241339206574
 20
-126.5283713572567
 30
0.0
  0
SEQEND
  5
B2
330
AF
100
AcDbEntity
  8
_U+30EC_U+30A4_U+30E4_U+30FC 1
 62
   179
420
  2234388
370
     9
  0
POLYLINE
  5
B3
330
1F
100
AcDbEntity
  8
_U+30EC_U+30A4_U+30E4_U+30FC 1
 62
   179
420
  2234388
370
     9
100
AcDb2dPolyline
 66
     1
 10
0.0
 20
0.0
 30
0.0
  0
VERTEX
  5
B4
330
B3
100
AcDbEntity
  8
_U+30EC_U+30A4_U+30E4_U+30FC 1
 62
   179
420
  2234388
370
     9
100
AcDbVertex
100
AcDb2dVertex
 10
87.26219166264491
 20
-130.0282444119377
 30
0.0
  0
VERTEX
  5
B5
330
B3
100
AcDbEntity
  8
_U+30EC_U+30A4_U+30E4_U+30FC 1
 62
   179
420
  2234388
370
     9
100
AcDbVertex
100
AcDb2dVertex
 10
84.80241339206574
 20
-130.0282444119377
 30
0.0
  0
SEQEND
  5
B6
330
B3
100
AcDbEntity
  8
_U+30EC_U+30A4_U+30E4_U+30FC 1
 62
   179
420
  2234388
370
     9
  0
INSERT
  5
B8
330
1F
100
AcDbEntity
  8
_U+30EC_U+30A4_U+30E4_U+30FC 1
100
AcDbBlockReference
  2
block 4
 10
0.0
 20
0.0
 30
0.0
  0
SPLINE
  5
C7
330
1F
100
AcDbEntity
  8
_U+30EC_U+30A4_U+30E4_U+30FC 1
 62
   179
420
  2234388
370
    25
100
AcDbSpline
210
0.0
220
0.0
230
1.0
 70
    11
 71
     3
 72
    17
 73
    13
 74
     0
 42
0.0000000001
 43
0.0000000001
 12
1.0
 22
0.0
 32
0.0
 13
1.0
 23
0.0
 33
0.0
 40
0.0
 40
0.0
 40
0.0
 40
0.0
 40
1.0
 40
1.0
 40
1.0
 40
2.0
 40
2.0
 40
2.0
 40
3.0
 40
3.0
 40
3.0
 40
4.0
 40
4.0
 40
4.0
 40
4.0
 10
89.8377515969369
 20
-126.5283713572567
 30
0.0
 10
89.8377515969369
 20
-126.5476683016965
 30
0.0
 10
89.82191187511879
 20
-126.5635080239148
 30
0.0
 10
89.80226215339786
 20
-126.5635080239148
 30
0.0
 10
89.78264997755448
 20
-126.5635080239148
 30
0.0
 10
89.76712775533586
 20
-126.5476683016965
 30
0.0
 10
89.76712775533586
 20
-126.5283713572567
 30
0.0
 10
89.76712775533586
 20
-126.5087216350394
 30
0.0
 10
89.78264997755448
 20
-126.4928819128212
 30
0.0
 10
89.80226215339786
 20
-126.4928819128212
 30
0.0
 10
89.82191187511879
 20
-126.4928819128212
 30
0.0
 10
89.8377515969369
 20
-126.5087216350394
 30
0.0
 10
89.8377515969369
 20
-126.5283713572567
 30
0.0
  0
SPLINE
  5
C8
330
1F
100
AcDbEntity
  8
_U+30EC_U+30A4_U+30E4_U+30FC 1
 62
   179
420
  2234388
370
    25
100
AcDbSpline
210
0.0
220
0.0
230
1.0
 70
    11
 71
     3
 72
    17
 73
    13
 74
     0
 42
0.0000000001
 43
0.0000000001
 12
1.0
 22
0.0
 32
0.0
 13
1.0
 23
0.0
 33
0.0
 40
0.0
 40
0.0
 40
0.0
 40
0.0
 40
1.0
 40
1.0
 40
1.0
 40
2.0
 40
2.0
 40
2.0
 40
3.0
 40
3.0
 40
3.0
 40
4.0
 40
4.0
 40
4.0
 40
4.0
 10
89.8377515969369
 20
-130.0282444119377
 30
0.0
 10
89.8377515969369
 20
-130.0475413563768
 30
0.0
 10
89.82191187511879
 20
-130.0633810785954
 30
0.0
 10
89.80226215339786
 20
-130.0633810785954
 30
0.0
 10
89.78264997755448
 20
-130.0633810785954
 30
0.0
 10
89.76712775533586
 20
-130.0475413563768
 30
0.0
 10
89.76712775533586
 20
-130.0282444119377
 30
0.0
 10
89.76712775533586
 20
-130.0085946897201
 30
0.0
 10
89.78264997755448
 20
-129.9927549675015
 30
0.0
 10
89.80226215339786
 20
-129.9927549675015
 30
0.0
 10
89.82191187511879
 20
-129.9927549675015
 30
0.0
 10
89.8377515969369
 20
-130.0085946897201
 30
0.0
 10
89.8377515969369
 20
-130.0282444119377
 30
0.0
  0
SPLINE
  5
C9
330
1F
100
AcDbEntity
  8
_U+30EC_U+30A4_U+30E4_U+30FC 1
 62
   179
420
  2234388
370
     9
100
AcDbSpline
210
0.0
220
0.0
230
1.0
 70
    11
 71
     3
 72
    17
 73
    13
 74
     0
 42
0.0000000001
 43
0.0000000001
 12
1.0
 22
0.0
 32
0.0
 13
1.0
 23
0.0
 33
0.0
 40
0.0
 40
0.0
 40
0.0
 40
0.0
 40
1.0
 40
1.0
 40
1.0
 40
2.0
 40
2.0
 40
2.0
 40
3.0
 40
3.0
 40
3.0
 40
4.0
 40
4.0
 40
4.0
 40
4.0
 10
85.83763975454382
 20
-131.0283341339098
 30
0.0
 10
85.83763975454382
 20
-131.047631078349
 30
0.0
 10
85.82180003272569
 20
-131.063506078345
 30
0.0
 10
85.80218558878165
 20
-131.063506078345
 30
0.0
 10
85.78288864482951
 20
-131.063506078345
 30
0.0
 10
85.76701364523453
 20
-131.047631078349
 30
0.0
 10
85.76701364523453
 20
-131.0283341339098
 30
0.0
 10
85.76701364523453
 20
-131.0087196894704
 30
0.0
 10
85.78288864482951
 20
-130.9928799672518
 30
0.0
 10
85.80218558878165
 20
-130.9928799672518
 30
0.0
 10
85.82180003272569
 20
-130.9928799672518
 30
0.0
 10
85.83763975454382
 20
-131.0087196894704
 30
0.0
 10
85.83763975454382
 20
-131.0283341339098
 30
0.0
  0
ENDSEC
  0
SECTION
  2
OBJECTS
  0
DICTIONARY
  5
C
330
0
100
AcDbDictionary
281
     1
  3
ACAD_GROUP
350
D
  3
ACAD_LAYOUT
350
1A
  3
ACAD_MATERIAL
350
3B
  3
ACAD_MLEADERSTYLE
350
CB
  3
ACAD_MLINESTYLE
350
17
  3
ACAD_PLOTSETTINGS
350
19
  3
ACAD_PLOTSTYLENAME
350
E
  3
ACAD_TABLESTYLE
350
CA
  3
ACAD_VISUALSTYLE
350
2A
  0
SUN
  5
3F
330
29
100
AcDbSun
 90
        1
290
     0
 63
     7
421
 16777215
 40
1.0
291
     1
 91
  2455826
 92
 54000000
292
     0
 70
     2
 71
   256
280
     1
  0
DICTIONARY
  5
D
102
{ACAD_REACTORS
330
C
102
}
330
C
100
AcDbDictionary
281
     1
  0
DICTIONARY
  5
1A
102
{ACAD_REACTORS
330
C
102
}
330
C
100
AcDbDictionary
281
     1
  3
Layout1
350
1E
  3
Layout2
350
26
  3
Model
350
22
  0
DICTIONARY
  5
3B
102
{ACAD_REACTORS
330
C
102
}
330
C
100
AcDbDictionary
281
     1
  3
ByBlock
350
3D
  3
ByLayer
350
3C
  3
Global
350
3E
  0
DICTIONARY
  5
CB
102
{ACAD_REACTORS
330
C
102
}
330
C
100
AcDbDictionary
281
     1
  0
DICTIONARY
  5
17
102
{ACAD_REACTORS
330
C
102
}
330
C
100
AcDbDictionary
281
     1
  3
Standard
350
18
  0
DICTIONARY
  5
19
102
{ACAD_REACTORS
330
C
102
}
330
C
100
AcDbDictionary
281
     1
  0
ACDBDICTIONARYWDFLT
  5
E
102
{ACAD_REACTORS
330
C
102
}
330
C
100
AcDbDictionary
281
     1
  3
Normal
350
F
100
AcDbDictionaryWithDefault
340
F
  0
DICTIONARY
  5
CA
102
{ACAD_REACTORS
330
C
102
}
330
C
100
AcDbDictionary
281
     1
  0
DICTIONARY
  5
2A
102
{ACAD_REACTORS
330
C
102
}
330
C
100
AcDbDictionary
281
     1
  3
2dWireframe
350
2F
  3
3D Hidden
350
31
  3
3dWireframe
350
30
  3
Basic
350
32
  3
Brighten
350
36
  3
ColorChange
350
3A
  3
Conceptual
350
34
  3
Dim
350
35
  3
Facepattern
350
39
  3
Flat
350
2B
  3
FlatWithEdges
350
2C
  3
Gouraud
350
2D
  3
GouraudWithEdges
350
2E
  3
Linepattern
350
38
  3
Realistic
350
33
  3
Thicken
350
37
  0
LAYOUT
  5
1E
102
{ACAD_REACTORS
330
1A
102
}
330
1A
100
AcDbPlotSettings
  1

  2
none_device
  4

  6

 40
0.0
 41
0.0
 42
0.0
 43
0.0
 44
0.0
 45
0.0
 46
0.0
 47
0.0
 48
0.0
 49
0.0
140
0.0
141
0.0
142
1.0
143
1.0
 70
   688
 72
     0
 73
     0
 74
     5
  7

 75
    16
 76
     0
 77
     2
 78
   300
147
1.0
148
0.0
149
0.0
100
AcDbLayout
  1
Layout1
 70
     1
 71
     1
 10
0.0
 20
0.0
 11
12.0
 21
9.0
 12
0.0
 22
0.0
 32
0.0
 14
1.000000000000000E+20
 24
1.000000000000000E+20
 34
1.000000000000000E+20
 15
-1.000000000000000E+20
 25
-1.000000000000000E+20
 35
-1.000000000000000E+20
146
0.0
 13
0.0
 23
0.0
 33
0.0
 16
1.0
 26
0.0
 36
0.0
 17
0.0
 27
1.0
 37
0.0
 76
     0
330
1B
  0
LAYOUT
  5
26
102
{ACAD_REACTORS
330
1A
102
}
330
1A
100
AcDbPlotSettings
  1

  2
none_device
  4

  6

 40
0.0
 41
0.0
 42
0.0
 43
0.0
 44
0.0
 45
0.0
 46
0.0
 47
0.0
 48
0.0
 49
0.0
140
0.0
141
0.0
142
1.0
143
1.0
 70
   688
 72
     0
 73
     0
 74
     5
  7

 75
    16
 76
     0
 77
     2
 78
   300
147
1.0
148
0.0
149
0.0
100
AcDbLayout
  1
Layout2
 70
     1
 71
     2
 10
0.0
 20
0.0
 11
0.0
 21
0.0
 12
0.0
 22
0.0
 32
0.0
 14
0.0
 24
0.0
 34
0.0
 15
0.0
 25
0.0
 35
0.0
146
0.0
 13
0.0
 23
0.0
 33
0.0
 16
1.0
 26
0.0
 36
0.0
 17
0.0
 27
1.0
 37
0.0
 76
     0
330
23
  0
LAYOUT
  5
22
102
{ACAD_REACTORS
330
1A
102
}
330
1A
100
AcDbPlotSettings
  1

  2
none_device
  4

  6

 40
0.0
 41
0.0
 42
0.0
 43
0.0
 44
0.0
 45
0.0
 46
0.0
 47
0.0
 48
0.0
 49
0.0
140
0.0
141
0.0
142
1.0
143
1.0
 70
  1712
 72
     0
 73
     0
 74
     0
  7

 75
     0
 76
     0
 77
     2
 78
   300
147
1.0
148
0.0
149
0.0
100
AcDbLayout
  1
Model
 70
     1
 71
     0
 10
0.0
 20
0.0
 11
12.0
 21
9.0
 12
0.0
 22
0.0
 32
0.0
 14
1.000000000000000E+20
 24
1.000000000000000E+20
 34
1.000000000000000E+20
 15
-1.000000000000000E+20
 25
-1.000000000000000E+20
 35
-1.000000000000000E+20
146
0.0
 13
0.0
 23
0.0
 33
0.0
 16
1.0
 26
0.0
 36
0.0
 17
0.0
 27
1.0
 37
0.0
 76
     0
330
1F
331
29
  0
MATERIAL
  5
3D
102
{ACAD_REACTORS
330
3B
102
}
330
3B
100
AcDbMaterial
  1
ByBlock
 72
     1
 94
      127
  0
MATERIAL
  5
3C
102
{ACAD_REACTORS
330
3B
102
}
330
3B
100
AcDbMaterial
  1
ByLayer
 72
     1
 94
      127
  0
MATERIAL
  5
3E
102
{ACAD_REACTORS
330
3B
102
}
330
3B
100
AcDbMaterial
  1
Global
 72
     1
 94
      127
  0
MLINESTYLE
  5
18
102
{ACAD_REACTORS
330
17
102
}
330
17
100
AcDbMlineStyle
  2
Standard
 70
     0
  3

 62
   256
 51
90.0
 52
90.0
 71
     2
 49
0.5
 62
   256
  6
BYLAYER
 49
-0.5
 62
   256
  6
BYLAYER
  0
ACDBPLACEHOLDER
  5
F
102
{ACAD_REACTORS
330
E
102
}
330
E
  0
VISUALSTYLE
  5
2F
102
{ACAD_REACTORS
330
2A
102
}
330
2A
100
AcDbVisualStyle
  2
2dWireframe
 70
     4
177
     2
291
     0
 71
     0
176
     1
 72
     2
176
     1
 73
     0
176
     1
 90
        0
176
     1
 40
-0.6
176
     1
 41
-30.0
176
     1
 62
     5
 63
     7
421
 16777215
176
     1
 74
     1
176
     1
 91
        4
176
     1
 64
     7
176
     1
 65
   257
176
     1
 75
     1
176
     1
175
     1
176
     1
 42
1.0
176
     1
 92
        0
176
     1
 66
   257
176
     1
 43
1.0
176
     1
 76
     1
176
     1
 77
     6
176
     1
 78
     2
176
     1
 67
     7
176
     1
 79
     5
176
     1
170
     0
176
     1
171
     0
176
     1
290
     0
176
     1
 93
        1
176
     1
 44
0.0
176
     1
173
     0
176
     1
  0
VISUALSTYLE
  5
31
102
{ACAD_REACTORS
330
2A
102
}
330
2A
100
AcDbVisualStyle
  2
3D Hidden
 70
     6
177
     2
291
     0
 71
     1
176
     1
 72
     2
176
     1
 73
     2
176
     1
 90
        0
176
     1
 40
-0.6
176
     1
 41
-30.0
176
     1
 62
     5
 63
     7
421
 16777215
176
     1
 74
     2
176
     1
 91
        2
176
     1
 64
     7
176
     1
 65
   257
176
     1
 75
     2
176
     1
175
     1
176
     1
 42
40.0
176
     1
 92
        0
176
     1
 66
   257
176
     1
 43
1.0
176
     1
 76
     1
176
     1
 77
     6
176
     1
 78
     2
176
     1
 67
     7
176
     1
 79
     3
176
     1
170
     0
176
     1
171
     0
176
     1
290
     0
176
     1
 93
        1
176
     1
 44
0.0
176
     1
173
     0
176
     1
  0
VISUALSTYLE
  5
30
102
{ACAD_REACTORS
330
2A
102
}
330
2A
100
AcDbVisualStyle
  2
3dWireframe
 70
     5
177
     2
291
     0
 71
     0
176
     1
 72
     2
176
     1
 73
     0
176
     1
 90
        0
176
     1
 40
-0.6
176
     1
 41
-30.0
176
     1
 62
     5
 63
     7
421
 16777215
176
     1
 74
     1
176
     1
 91
        4
176
     1
 64
     7
176
     1
 65
   257
176
     1
 75
     1
176
     1
175
     1
176
     1
 42
1.0
176
     1
 92
        0
176
     1
 66
   257
176
     1
 43
1.0
176
     1
 76
     1
176
     1
 77
     6
176
     1
 78
     2
176
     1
 67
     7
176
     1
 79
     5
176
     1
170
     0
176
     1
171
     0
176
     1
290
     0
176
     1
 93
        1
176
     1
 44
0.0
176
     1
173
     0
176
     1
  0
VISUALSTYLE
  5
32
102
{ACAD_REACTORS
330
2A
102
}
330
2A
100
AcDbVisualStyle
  2
Basic
 70
     7
177
     2
291
     1
 71
     1
176
     1
 72
     0
176
     1
 73
     1
176
     1
 90
        0
176
     1
 40
-0.6
176
     1
 41
-30.0
176
     1
 62
     5
 63
     7
421
 16777215
176
     1
 74
     0
176
     1
 91
        4
176
     1
 64
     7
176
     1
 65
   257
176
     1
 75
     1
176
     1
175
     1
176
     1
 42
1.0
176
     1
 92
        8
176
     1
 66
     7
176
     1
 43
1.0
176
     1
 76
     1
176
     1
 77
     6
176
     1
 78
     2
176
     1
 67
     7
176
     1
 79
     5
176
     1
170
     0
176
     1
171
     0
176
     1
290
     0
176
     1
 93
        1
176
     1
 44
0.0
176
     1
173
     0
176
     1
  0
VISUALSTYLE
  5
36
102
{ACAD_REACTORS
330
2A
102
}
330
2A
100
AcDbVisualStyle
  2
Brighten
 70
    12
177
     2
291
     1
 71
     2
176
     1
 72
     2
176
     1
 73
     0
176
     1
 90
        0
176
     1
 40
-0.6
176
     1
 41
-30.0
176
     1
 62
     5
 63
     7
421
 16777215
176
     1
 74
     1
176
     1
 91
        4
176
     1
 64
     7
176
     1
 65
   257
176
     1
 75
     1
176
     1
175
     1
176
     1
 42
1.0
176
     1
 92
        8
176
     1
 66
     7
176
     1
 43
1.0
176
     1
 76
     1
176
     1
 77
     6
176
     1
 78
     2
176
     1
 67
     7
176
     1
 79
     5
176
     1
170
     0
176
     1
171
     0
176
     1
290
     0
176
     1
 93
        1
176
     1
 44
50.0
176
     1
173
     0
176
     1
  0
VISUALSTYLE
  5
3A
102
{ACAD_REACTORS
330
2A
102
}
330
2A
100
AcDbVisualStyle
  2
ColorChange
 70
    16
177
     2
291
     1
 71
     2
176
     1
 72
     2
176
     1
 73
     3
176
     1
 90
        0
176
     1
 40
-0.6
176
     1
 41
-30.0
176
     1
 62
     5
 63
     8
421
  8421504
176
     1
 74
     1
176
     1
 91
        4
176
     1
 64
     7
176
     1
 65
   257
176
     1
 75
     1
176
     1
175
     1
176
     1
 42
1.0
176
     1
 92
        8
176
     1
 66
     8
424
  8421504
176
     1
 43
1.0
176
     1
 76
     1
176
     1
 77
     6
176
     1
 78
     2
176
     1
 67
     7
176
     1
 79
     5
176
     1
170
     0
176
     1
171
     0
176
     1
290
     0
176
     1
 93
        1
176
     1
 44
0.0
176
     1
173
     0
176
     1
  0
VISUALSTYLE
  5
34
102
{ACAD_REACTORS
330
2A
102
}
330
2A
100
AcDbVisualStyle
  2
Conceptual
 70
     9
177
     2
291
     0
 71
     3
176
     1
 72
     2
176
     1
 73
     0
176
     1
 90
        0
176
     1
 40
-0.6
176
     1
 41
-30.0
176
     1
 62
     5
 63
     7
421
 16777215
176
     1
 74
     2
176
     1
 91
        2
176
     1
 64
     7
176
     1
 65
   257
176
     1
 75
     1
176
     1
175
     1
176
     1
 42
40.0
176
     1
 92
        8
176
     1
 66
     7
176
     1
 43
1.0
176
     1
 76
     1
176
     1
 77
     6
176
     1
 78
     2
176
     1
 67
     7
176
     1
 79
     3
176
     1
170
     0
176
     1
171
     0
176
     1
290
     0
176
     1
 93
        1
176
     1
 44
0.0
176
     1
173
     0
176
     1
  0
VISUALSTYLE
  5
35
102
{ACAD_REACTORS
330
2A
102
}
330
2A
100
AcDbVisualStyle
  2
Dim
 70
    11
177
     2
291
     1
 71
     2
176
     1
 72
     2
176
     1
 73
     0
176
     1
 90
        0
176
     1
 40
-0.6
176
     1
 41
-30.0
176
     1
 62
     5
 63
     7
421
 16777215
176
     1
 74
     1
176
     1
 91
        4
176
     1
 64
     7
176
     1
 65
   257
176
     1
 75
     1
176
     1
175
     1
176
     1
 42
1.0
176
     1
 92
        8
176
     1
 66
     7
176
     1
 43
1.0
176
     1
 76
     1
176
     1
 77
     6
176
     1
 78
     2
176
     1
 67
     7
176
     1
 79
     5
176
     1
170
     0
176
     1
171
     0
176
     1
290
     0
176
     1
 93
        1
176
     1
 44
-50.0
176
     1
173
     0
176
     1
  0
VISUALSTYLE
  5
39
102
{ACAD_REACTORS
330
2A
102
}
330
2A
100
AcDbVisualStyle
  2
Facepattern
 70
    15
177
     2
291
     1
 71
     2
176
     1
 72
     2
176
     1
 73
     0
176
     1
 90
        0
176
     1
 40
-0.6
176
     1
 41
-30.0
176
     1
 62
     5
 63
     7
421
 16777215
176
     1
 74
     1
176
     1
 91
        4
176
     1
 64
     7
176
     1
 65
   257
176
     1
 75
     1
176
     1
175
     1
176
     1
 42
1.0
176
     1
 92
        8
176
     1
 66
     7
176
     1
 43
1.0
176
     1
 76
     1
176
     1
 77
     6
176
     1
 78
     2
176
     1
 67
     7
176
     1
 79
     5
176
     1
170
     0
176
     1
171
     0
176
     1
290
     0
176
     1
 93
        1
176
     1
 44
0.0
176
     1
173
     0
176
     1
  0
VISUALSTYLE
  5
2B
102
{ACAD_REACTORS
330
2A
102
}
330
2A
100
AcDbVisualStyle
  2
Flat
 70
     0
177
     2
291
     1
 71
     2
176
     1
 72
     1
176
     1
 73
     1
176
     1
 90
        2
176
     1
 40
-0.6
176
     1
 41
30.0
176
     1
 62
     5
 63
     7
421
 16777215
176
     1
 74
     0
176
     1
 91
        4
176
     1
 64
     7
176
     1
 65
   257
176
     1
 75
     1
176
     1
175
     1
176
     1
 42
1.0
176
     1
 92
        8
176
     1
 66
     7
176
     1
 43
1.0
176
     1
 76
     1
176
     1
 77
     6
176
     1
 78
     2
176
     1
 67
     7
176
     1
 79
     5
176
     1
170
     0
176
     1
171
     0
176
     1
290
     0
176
     1
 93
       13
176
     1
 44
0.0
176
     1
173
     0
176
     1
  0
VISUALSTYLE
  5
2C
102
{ACAD_REACTORS
330
2A
102
}
330
2A
100
AcDbVisualStyle
  2
FlatWithEdges
 70
     1
177
     2
291
     1
 71
     2
176
     1
 72
     1
176
     1
 73
     1
176
     1
 90
        2
176
     1
 40
-0.6
176
     1
 41
30.0
176
     1
 62
     5
 63
     7
421
 16777215
176
     1
 74
     1
176
     1
 91
        4
176
     1
 64
     7
176
     1
 65
   257
176
     1
 75
     1
176
     1
175
     1
176
     1
 42
1.0
176
     1
 92
        0
176
     1
 66
   257
176
     1
 43
1.0
176
     1
 76
     1
176
     1
 77
     6
176
     1
 78
     2
176
     1
 67
     7
176
     1
 79
     5
176
     1
170
     0
176
     1
171
     0
176
     1
290
     0
176
     1
 93
       13
176
     1
 44
0.0
176
     1
173
     0
176
     1
  0
VISUALSTYLE
  5
2D
102
{ACAD_REACTORS
330
2A
102
}
330
2A
100
AcDbVisualStyle
  2
Gouraud
 70
     2
177
     2
291
     1
 71
     2
176
     1
 72
     2
176
     1
 73
     1
176
     1
 90
        2
176
     1
 40
-0.6
176
     1
 41
30.0
176
     1
 62
     5
 63
     7
421
 16777215
176
     1
 74
     0
176
     1
 91
        4
176
     1
 64
     7
176
     1
 65
   257
176
     1
 75
     1
176
     1
175
     1
176
     1
 42
1.0
176
     1
 92
        0
176
     1
 66
     7
176
     1
 43
1.0
176
     1
 76
     1
176
     1
 77
     6
176
     1
 78
     2
176
     1
 67
     7
176
     1
 79
     5
176
     1
170
     0
176
     1
171
     0
176
     1
290
     0
176
     1
 93
       13
176
     1
 44
0.0
176
     1
173
     0
176
     1
  0
VISUALSTYLE
  5
2E
102
{ACAD_REACTORS
330
2A
102
}
330
2A
100
AcDbVisualStyle
  2
GouraudWithEdges
 70
     3
177
     2
291
     1
 71
     2
176
     1
 72
     2
176
     1
 73
     1
176
     1
 90
        2
176
     1
 40
-0.6
176
     1
 41
30.0
176
     1
 62
     5
 63
     7
421
 16777215
176
     1
 74
     1
176
     1
 91
        4
176
     1
 64
     7
176
     1
 65
   257
176
     1
 75
     1
176
     1
175
     1
176
     1
 42
1.0
176
     1
 92
        0
176
     1
 66
   257
176
     1
 43
1.0
176
     1
 76
     1
176
     1
 77
     6
176
     1
 78
     2
176
     1
 67
     7
176
     1
 79
     5
176
     1
170
     0
176
     1
171
     0
176
     1
290
     0
176
     1
 93
       13
176
     1
 44
0.0
176
     1
173
     0
176
     1
  0
VISUALSTYLE
  5
38
102
{ACAD_REACTORS
330
2A
102
}
330
2A
100
AcDbVisualStyle
  2
Linepattern
 70
    14
177
     2
291
     1
 71
     2
176
     1
 72
     2
176
     1
 73
     0
176
     1
 90
        0
176
     1
 40
-0.6
176
     1
 41
-30.0
176
     1
 62
     5
 63
     7
421
 16777215
176
     1
 74
     1
176
     1
 91
        4
176
     1
 64
     7
176
     1
 65
   257
176
     1
 75
     7
176
     1
175
     7
176
     1
 42
1.0
176
     1
 92
        8
176
     1
 66
     7
176
     1
 43
1.0
176
     1
 76
     1
176
     1
 77
     6
176
     1
 78
     2
176
     1
 67
     7
176
     1
 79
     5
176
     1
170
     0
176
     1
171
     0
176
     1
290
     0
176
     1
 93
        1
176
     1
 44
0.0
176
     1
173
     0
176
     1
  0
VISUALSTYLE
  5
33
102
{ACAD_REACTORS
330
2A
102
}
330
2A
100
AcDbVisualStyle
  2
Realistic
 70
     8
177
     2
291
     0
 71
     2
176
     1
 72
     2
176
     1
 73
     0
176
     1
 90
        0
176
     1
 40
-0.6
176
     1
 41
-30.0
176
     1
 62
     5
 63
     7
421
 16777215
176
     1
 74
     1
176
     1
 91
        0
176
     1
 64
     7
176
     1
 65
   257
176
     1
 75
     1
176
     1
175
     1
176
     1
 42
1.0
176
     1
 92
        8
176
     1
 66
     8
424
  7895160
176
     1
 43
1.0
176
     1
 76
     1
176
     1
 77
     6
176
     1
 78
     2
176
     1
 67
     7
176
     1
 79
     5
176
     1
170
     0
176
     1
171
     0
176
     1
290
     0
176
     1
 93
       13
176
     1
 44
0.0
176
     1
173
     0
176
     1
  0
VISUALSTYLE
  5
37
102
{ACAD_REACTORS
330
2A
102
}
330
2A
100
AcDbVisualStyle
  2
Thicken
 70
    13
177
     2
291
     1
 71
     2
176
     1
 72
     2
176
     1
 73
     0
176
     1
 90
        0
176
     1
 40
-0.6
176
     1
 41
-30.0
176
     1
 62
     5
 63
     7
421
 16777215
176
     1
 74
     1
176
     1
 91
        4
176
     1
 64
     7
176
     1
 65
   257
176
     1
 75
     1
176
     1
175
     1
176
     1
 42
1.0
176
     1
 92
       12
176
     1
 66
     7
176
     1
 43
1.0
176
     1
 76
     1
176
     1
 77
     6
176
     1
 78
     2
176
     1
 67
     7
176
     1
 79
     5
176
     1
170
     0
176
     1
171
     0
176
     1
290
     0
176
     1
 93
        1
176
     1
 44
0.0
176
     1
173
     0
176
     1
  0
ENDSEC
  0
EOF
