  0
SECTION
  2
HEADER
  9
$ACADVER
  1
AC1024
  9
$ACADMAINTVER
 70
     6
  9
$DWGCODEPAGE
  3
UNDEFINED
  9
$INSBASE
 10
0.0
 20
0.0
 30
0.0
  9
$EXTMIN
 10
1.000000000000000E+20
 20
1.000000000000000E+20
 30
1.000000000000000E+20
  9
$EXTMAX
 10
-1.000000000000000E+20
 20
-1.000000000000000E+20
 30
-1.000000000000000E+20
  9
$LIMMIN
 10
0.0
 20
0.0
  9
$LIMMAX
 10
12.0
 20
9.0
  9
$ORTHOMODE
 70
     0
  9
$REGENMODE
 70
     1
  9
$FILLMODE
 70
     1
  9
$QTEXTMODE
 70
     0
  9
$MIRRTEXT
 70
     1
  9
$LTSCALE
 40
1.0
  9
$ATTMODE
 70
     1
  9
$TEXTSIZE
 40
0.2
  9
$TRACEWID
 40
0.05
  9
$TEXTSTYLE
  7
Standard
  9
$CLAYER
  8
0
  9
$CELTYPE
  6
ByLayer
  9
$CECOLOR
 62
   256
  9
$CELTSCALE
 40
1.0
  9
$DISPSILH
 70
     0
  9
$DIMSCALE
 40
1.0
  9
$DIMASZ
 40
0.18
  9
$DIMEXO
 40
0.0625
  9
$DIMDLI
 40
0.38
  9
$DIMRND
 40
0.0
  9
$DIMDLE
 40
0.0
  9
$DIMEXE
 40
0.18
  9
$DIMTP
 40
0.0
  9
$DIMTM
 40
0.0
  9
$DIMTXT
 40
0.18
  9
$DIMCEN
 40
0.09
  9
$DIMTSZ
 40
0.0
  9
$DIMTOL
 70
     0
  9
$DIMLIM
 70
     0
  9
$DIMTIH
 70
     1
  9
$DIMTOH
 70
     1
  9
$DIMSE1
 70
     0
  9
$DIMSE2
 70
     0
  9
$DIMTAD
 70
     0
  9
$DIMZIN
 70
     0
  9
$DIMBLK
  1

  9
$DIMASO
 70
     1
  9
$DIMSHO
 70
     1
  9
$DIMPOST
  1

  9
$DIMAPOST
  1

  9
$DIMALT
 70
     0
  9
$DIMALTD
 70
     2
  9
$DIMALTF
 40
25.4
  9
$DIMLFAC
 40
1.0
  9
$DIMTOFL
 70
     0
  9
$DIMTVP
 40
0.0
  9
$DIMTIX
 70
     0
  9
$DIMSOXD
 70
     0
  9
$DIMSAH
 70
     0
  9
$DIMBLK1
  1

  9
$DIMBLK2
  1

  9
$DIMSTYLE
  2
Standard
  9
$DIMCLRD
 70
     0
  9
$DIMCLRE
 70
     0
  9
$DIMCLRT
 70
     0
  9
$DIMTFAC
 40
1.0
  9
$DIMGAP
 40
0.09
  9
$DIMJUST
 70
     0
  9
$DIMSD1
 70
     0
  9
$DIMSD2
 70
     0
  9
$DIMTOLJ
 70
     1
  9
$DIMTZIN
 70
     0
  9
$DIMALTZ
 70
     0
  9
$DIMALTTZ
 70
     0
  9
$DIMUPT
 70
     0
  9
$DIMDEC
 70
     4
  9
$DIMTDEC
 70
     4
  9
$DIMALTU
 70
     2
  9
$DIMALTTD
 70
     2
  9
$DIMTXSTY
  7
Standard
  9
$DIMAUNIT
 70
     0
  9
$DIMADEC
 70
     0
  9
$DIMALTRND
 40
0.0
  9
$DIMAZIN
 70
     0
  9
$DIMDSEP
 70
    46
  9
$DIMATFIT
 70
     3
  9
$DIMFRAC
 70
     0
  9
$DIMLDRBLK
  1

  9
$DIMLUNIT
 70
     2
  9
$DIMLWD
 70
    -2
  9
$DIMLWE
 70
    -2
  9
$DIMTMOVE
 70
     0
  9
$DIMFXL
 40
1.0
  9
$DIMFXLON
 70
     0
  9
$DIMJOGANG
 40
0.7853981633974483
  9
$DIMTFILL
 70
     0
  9
$DIMTFILLCLR
 70
     0
  9
$DIMARCSYM
 70
     0
  9
$DIMLTYPE
  6

  9
$DIMLTEX1
  6

  9
$DIMLTEX2
  6

  9
$DIMTXTDIRECTION
 70
     0
  9
$LUNITS
 70
     2
  9
$LUPREC
 70
     4
  9
$SKETCHINC
 40
0.1
  9
$FILLETRAD
 40
0.5
  9
$AUNITS
 70
     0
  9
$AUPREC
 70
     0
  9
$MENU
  1
.
  9
$ELEVATION
 40
0.0
  9
$PELEVATION
 40
0.0
  9
$THICKNESS
 40
0.0
  9
$LIMCHECK
 70
     0
  9
$CHAMFERA
 40
0.5
  9
$CHAMFERB
 40
0.5
  9
$CHAMFERC
 40
1.0
  9
$CHAMFERD
 40
0.0
  9
$SKPOLY
 70
     0
  9
$TDCREATE
 40
2457917.636006933
  9
$TDUCREATE
 40
2457917.261006944
  9
$TDUPDATE
 40
2457917.636006933
  9
$TDUUPDATE
 40
2457917.261006944
  9
$TDINDWG
 40
0.0000000116
  9
$TDUSRTIMER
 40
0.0000000116
  9
$USRTIMER
 70
     1
  9
$ANGBASE
 50
0.0
  9
$ANGDIR
 70
     0
  9
$PDMODE
 70
     0
  9
$PDSIZE
 40
0.0
  9
$PLINEWID
 40
0.0
  9
$SPLFRAME
 70
     0
  9
$SPLINETYPE
 70
     6
  9
$SPLINESEGS
 70
     8
  9
$HANDSEED
  5
CB
  9
$SURFTAB1
 70
     6
  9
$SURFTAB2
 70
     6
  9
$SURFTYPE
 70
     6
  9
$SURFU
 70
     6
  9
$SURFV
 70
     6
  9
$UCSBASE
  2

  9
$UCSNAME
  2

  9
$UCSORG
 10
0.0
 20
0.0
 30
0.0
  9
$UCSXDIR
 10
1.0
 20
0.0
 30
0.0
  9
$UCSYDIR
 10
0.0
 20
1.0
 30
0.0
  9
$UCSORTHOREF
  2

  9
$UCSORTHOVIEW
 70
     0
  9
$UCSORGTOP
 10
0.0
 20
0.0
 30
0.0
  9
$UCSORGBOTTOM
 10
0.0
 20
0.0
 30
0.0
  9
$UCSORGLEFT
 10
0.0
 20
0.0
 30
0.0
  9
$UCSORGRIGHT
 10
0.0
 20
0.0
 30
0.0
  9
$UCSORGFRONT
 10
0.0
 20
0.0
 30
0.0
  9
$UCSORGBACK
 10
0.0
 20
0.0
 30
0.0
  9
$PUCSBASE
  2

  9
$PUCSNAME
  2

  9
$PUCSORG
 10
0.0
 20
0.0
 30
0.0
  9
$PUCSXDIR
 10
1.0
 20
0.0
 30
0.0
  9
$PUCSYDIR
 10
0.0
 20
1.0
 30
0.0
  9
$PUCSORTHOREF
  2

  9
$PUCSORTHOVIEW
 70
     0
  9
$PUCSORGTOP
 10
0.0
 20
0.0
 30
0.0
  9
$PUCSORGBOTTOM
 10
0.0
 20
0.0
 30
0.0
  9
$PUCSORGLEFT
 10
0.0
 20
0.0
 30
0.0
  9
$PUCSORGRIGHT
 10
0.0
 20
0.0
 30
0.0
  9
$PUCSORGFRONT
 10
0.0
 20
0.0
 30
0.0
  9
$PUCSORGBACK
 10
0.0
 20
0.0
 30
0.0
  9
$USERI1
 70
     0
  9
$USERI2
 70
     0
  9
$USERI3
 70
     0
  9
$USERI4
 70
     0
  9
$USERI5
 70
     0
  9
$USERR1
 40
0.0
  9
$USERR2
 40
0.0
  9
$USERR3
 40
0.0
  9
$USERR4
 40
0.0
  9
$USERR5
 40
0.0
  9
$WORLDVIEW
 70
     1
  9
$SHADEDGE
 70
     3
  9
$SHADEDIF
 70
    70
  9
$TILEMODE
 70
     1
  9
$MAXACTVP
 70
    64
  9
$PINSBASE
 10
0.0
 20
0.0
 30
0.0
  9
$PLIMCHECK
 70
     0
  9
$PEXTMIN
 10
1.000000000000000E+20
 20
1.000000000000000E+20
 30
1.000000000000000E+20
  9
$PEXTMAX
 10
-1.000000000000000E+20
 20
-1.000000000000000E+20
 30
-1.000000000000000E+20
  9
$PLIMMIN
 10
0.0
 20
0.0
  9
$PLIMMAX
 10
12.0
 20
9.0
  9
$UNITMODE
 70
     0
  9
$VISRETAIN
 70
     1
  9
$PLINEGEN
 70
     0
  9
$PSLTSCALE
 70
     1
  9
$TREEDEPTH
 70
  3020
  9
$CMLSTYLE
  2
Standard
  9
$CMLJUST
 70
     0
  9
$CMLSCALE
 40
1.0
  9
$PROXYGRAPHICS
 70
     1
  9
$MEASUREMENT
 70
     0
  9
$CELWEIGHT
370
    -1
  9
$ENDCAPS
280
     0
  9
$JOINSTYLE
280
     0
  9
$LWDISPLAY
290
     1
  9
$INSUNITS
 70
     1
  9
$HYPERLINKBASE
  1

  9
$STYLESHEET
  1

  9
$XEDIT
290
     1
  9
$CEPSNTYPE
380
     0
  9
$PSTYLEMODE
290
     1
  9
$FINGERPRINTGUID
  2
{AE9118B3-636A-33C7-EBA6-9C17AD73A251}
  9
$VERSIONGUID
  2
{FAEB1C32-E019-11D5-929B-00C0DF256EC4}
  9
$EXTNAMES
290
     1
  9
$PSVPSCALE
 40
0.0
  9
$OLESTARTUP
290
     0
  9
$SORTENTS
280
   127
  9
$INDEXCTL
280
     0
  9
$HIDETEXT
280
     1
  9
$XCLIPFRAME
280
     2
  9
$HALOGAP
280
     0
  9
$OBSCOLOR
 70
   257
  9
$OBSLTYPE
280
     0
  9
$INTERSECTIONDISPLAY
280
     0
  9
$INTERSECTIONCOLOR
 70
   257
  9
$DIMASSOC
280
     2
  9
$PROJECTNAME
  1

  9
$CAMERADISPLAY
290
     0
  9
$LENSLENGTH
 40
50.0
  9
$CAMERAHEIGHT
 40
0.0
  9
$STEPSPERSEC
 40
2.0
  9
$STEPSIZE
 40
6.0
  9
$3DDWFPREC
 40
2.0
  9
$PSOLWIDTH
 40
0.25
  9
$PSOLHEIGHT
 40
4.0
  9
$LOFTANG1
 40
1.570796326794897
  9
$LOFTANG2
 40
1.570796326794897
  9
$LOFTMAG1
 40
0.0
  9
$LOFTMAG2
 40
0.0
  9
$LOFTPARAM
 70
     7
  9
$LOFTNORMALS
280
     1
  9
$LATITUDE
 40
37.795
  9
$LONGITUDE
 40
-122.394
  9
$NORTHDIRECTION
 40
0.0
  9
$TIMEZONE
 70
 -8000
  9
$LIGHTGLYPHDISPLAY
280
     1
  9
$TILEMODELIGHTSYNCH
280
     1
  9
$CMATERIAL
347
3C
  9
$SOLIDHIST
280
     1
  9
$SHOWHIST
280
     1
  9
$DWFFRAME
280
     2
  9
$DGNFRAME
280
     2
  9
$REALWORLDSCALE
290
     1
  9
$INTERFERECOLOR
 62
   256
  9
$CSHADOW
280
     0
  9
$SHADOWPLANELOCATION
 40
0.0
  0
ENDSEC
  0
SECTION
  2
CLASSES
  0
CLASS
  1
ACDBDICTIONARYWDFLT
  2
AcDbDictionaryWithDefault
  3
ObjectDBX Classes
 90
        0
 91
        4
280
     0
281
     0
  0
CLASS
  1
VISUALSTYLE
  2
AcDbVisualStyle
  3
ObjectDBX Classes
 90
     4095
 91
        4
280
     0
281
     0
  0
CLASS
  1
MATERIAL
  2
AcDbMaterial
  3
ObjectDBX Classes
 90
     1153
 91
        4
280
     0
281
     0
  0
CLASS
  1
SUN
  2
AcDbSun
  3
SCENEOE
 90
     1024
 91
        4
280
     0
281
     0
  0
ENDSEC
  0
SECTION
  2
TABLES
  0
TABLE
  2
VPORT
  5
8
330
0
100
AcDbSymbolTable
 70
     1
  0
VPORT
  5
29
330
8
100
AcDbSymbolTableRecord
100
AcDbViewportTableRecord
  2
*Active
 70
     0
 10
0.0
 20
0.0
 11
1.0
 21
1.0
 12
0.0
 22
0.0
 13
0.0
 23
0.0
 14
0.5
 24
0.5
 15
0.5
 25
0.5
 16
0.0
 26
0.0
 36
1.0
 17
91.00082462281999
 27
-128.4993055234307
 37
0.0
 40
256.9986110468615
 41
0.7081814508812795
 42
50.0
 43
0.0
 44
0.0
 50
0.0
 51
0.0
 71
     0
 72
   100
 73
     1
 74
     3
 75
     0
 76
     0
 77
     0
 78
     0
281
     0
 65
     1
110
0.0
120
0.0
130
0.0
111
1.0
121
0.0
131
0.0
112
0.0
122
1.0
132
0.0
 79
     0
146
0.0
 60
     3
 61
     5
292
     1
282
     1
141
0.0
142
0.0
 63
   250
361
3F
  0
ENDTAB
  0
TABLE
  2
LTYPE
  5
5
330
0
100
AcDbSymbolTable
 70
     1
  0
LTYPE
  5
14
330
5
100
AcDbSymbolTableRecord
100
AcDbLinetypeTableRecord
  2
ByBlock
 70
     0
  3

 72
    65
 73
     0
 40
0.0
  0
LTYPE
  5
15
330
5
100
AcDbSymbolTableRecord
100
AcDbLinetypeTableRecord
  2
ByLayer
 70
     0
  3

 72
    65
 73
     0
 40
0.0
  0
LTYPE
  5
16
330
5
100
AcDbSymbolTableRecord
100
AcDbLinetypeTableRecord
  2
Continuous
 70
     0
  3
Solid line
 72
    65
 73
     0
 40
0.0
  0
ENDTAB
  0
TABLE
  2
LAYER
  5
2
330
0
100
AcDbSymbolTable
 70
     2
  0
LAYER
  5
10
330
2
100
AcDbSymbolTableRecord
100
AcDbLayerTableRecord
  2
0
 70
     0
 62
     7
  6
Continuous
370
    -3
390
F
347
3E
  0
LAYER
  5
40
330
2
100
AcDbSymbolTableRecord
100
AcDbLayerTableRecord
  2
_U+30EC_U+30A4_U+30E4_U+30FC 1
 70
     0
 62
     7
  6
Continuous
370
    -3
390
F
347
3E
  0
ENDTAB
  0
TABLE
  2
STYLE
  5
3
330
0
100
AcDbSymbolTable
 70
     1
  0
STYLE
  5
11
330
3
100
AcDbSymbolTableRecord
100
AcDbTextStyleTableRecord
  2
Standard
 70
     0
 40
0.0
 41
1.0
 50
0.0
 71
     0
 42
0.2
  3
txt
  4

  0
ENDTAB
  0
TABLE
  2
VIEW
  5
6
330
0
100
AcDbSymbolTable
 70
     0
  0
ENDTAB
  0
TABLE
  2
UCS
  5
7
330
0
100
AcDbSymbolTable
 70
     0
  0
ENDTAB
  0
TABLE
  2
APPID
  5
9
330
0
100
AcDbSymbolTable
 70
     1
  0
APPID
  5
12
330
9
100
AcDbSymbolTableRecord
100
AcDbRegAppTableRecord
  2
ACAD
 70
     0
  0
ENDTAB
  0
TABLE
  2
DIMSTYLE
  5
A
330
0
100
AcDbSymbolTable
 70
     1
100
AcDbDimStyleTable
  0
DIMSTYLE
105
27
330
A
100
AcDbSymbolTableRecord
100
AcDbDimStyleTableRecord
  2
Standard
 70
     0
178
     0
340
11
  0
ENDTAB
  0
TABLE
  2
BLOCK_RECORD
  5
1
330
0
100
AcDbSymbolTable
 70
     4
  0
BLOCK_RECORD
  5
1F
330
1
100
AcDbSymbolTableRecord
100
AcDbBlockTableRecord
  2
*Model_Space
340
22
 70
     0
280
     1
281
     0
  0
BLOCK_RECORD
  5
1B
330
1
100
AcDbSymbolTableRecord
100
AcDbBlockTableRecord
  2
*Paper_Space
340
1E
 70
     0
280
     1
281
     0
  0
BLOCK_RECORD
  5
23
330
1
100
AcDbSymbolTableRecord
100
AcDbBlockTableRecord
  2
*Paper_Space0
340
26
 70
     0
280
     1
281
     0
  0
BLOCK_RECORD
  5
8A
330
1
100
AcDbSymbolTableRecord
100
AcDbBlockTableRecord
  2
block 2
340
0
102
{BLKREFS
331
8B
102
}
 70
     0
280
     1
281
     0
  0
BLOCK_RECORD
  5
A1
330
1
100
AcDbSymbolTableRecord
100
AcDbBlockTableRecord
  2
block 3
340
0
102
{BLKREFS
331
A2
102
}
 70
     0
280
     1
281
     0
  0
BLOCK_RECORD
  5
B6
330
1
100
AcDbSymbolTableRecord
100
AcDbBlockTableRecord
  2
block 4
340
0
102
{BLKREFS
331
B7
102
}
 70
     0
280
     1
281
     0
  0
ENDTAB
  0
ENDSEC
  0
SECTION
  2
BLOCKS
  0
BLOCK
  5
20
330
1F
100
AcDbEntity
  8
0
100
AcDbBlockBegin
  2
*Model_Space
 70
     0
 10
0.0
 20
0.0
 30
0.0
  3
*Model_Space
  1

  0
ENDBLK
  5
21
330
1F
100
AcDbEntity
  8
0
100
AcDbBlockEnd
  0
BLOCK
  5
1C
330
1B
100
AcDbEntity
 67
     1
  8
0
100
AcDbBlockBegin
  2
*Paper_Space
 70
     0
 10
0.0
 20
0.0
 30
0.0
  3
*Paper_Space
  1

  0
ENDBLK
  5
1D
330
1B
100
AcDbEntity
 67
     1
  8
0
100
AcDbBlockEnd
  0
BLOCK
  5
24
330
23
100
AcDbEntity
  8
0
100
AcDbBlockBegin
  2
*Paper_Space0
 70
     0
 10
0.0
 20
0.0
 30
0.0
  3
*Paper_Space0
  1

  0
ENDBLK
  5
25
330
23
100
AcDbEntity
  8
0
100
AcDbBlockEnd
  0
BLOCK
  5
8C
330
8A
100
AcDbEntity
  8
0
100
AcDbBlockBegin
  2
block 2
 70
     0
 10
0.0
 20
0.0
 30
0.0
  3
block 2
  1

  0
SPLINE
  5
8E
330
8A
100
AcDbEntity
  8
_U+30EC_U+30A4_U+30E4_U+30FC 1
370
     0
100
AcDbSpline
210
0.0
220
0.0
230
1.0
 70
    11
 71
     3
 72
    26
 73
    22
 74
     0
 42
0.0000000001
 43
0.0000000001
 12
1.0
 22
0.0
 32
0.0
 13
1.0
 23
0.0
 33
0.0
 40
0.0
 40
0.0
 40
0.0
 40
0.0
 40
1.0
 40
1.0
 40
1.0
 40
2.0
 40
2.0
 40
2.0
 40
3.0
 40
3.0
 40
3.0
 40
4.0
 40
4.0
 40
4.0
 40
5.0
 40
5.0
 40
5.0
 40
6.0
 40
6.0
 40
6.0
 40
7.0
 40
7.0
 40
7.0
 40
7.0
 10
98.59587671146214
 20
-133.1784342114971
 30
0.0
 10
98.59587671146214
 20
-133.1784342114971
 30
0.0
 10
97.49137909889104
 20
-133.1784342114971
 30
0.0
 10
97.49137909889104
 20
-133.1784342114971
 30
0.0
 10
97.49137909889104
 20
-133.1784342114971
 30
0.0
 10
97.49137909889104
 20
-133.508474358984
 30
0.0
 10
97.49137909889104
 20
-133.508474358984
 30
0.0
 10
97.49137909889104
 20
-133.508474358984
 30
0.0
 10
97.3432399930253
 20
-133.508474358984
 30
0.0
 10
97.3432399930253
 20
-133.508474358984
 30
0.0
 10
97.32842608243872
 20
-133.1763671542059
 30
0.0
 10
97.16581757553494
 20
-133.1295138556065
 30
0.0
 10
97.05144040542464
 20
-133.0998860344334
 30
0.0
 10
97.05144040542464
 20
-133.0998860344334
 30
0.0
 10
97.05144040542464
 20
-132.9541584954073
 30
0.0
 10
97.05144040542464
 20
-132.9541584954073
 30
0.0
 10
97.05144040542464
 20
-132.9541584954073
 30
0.0
 10
98.59587671146214
 20
-132.9541584954073
 30
0.0
 10
98.59587671146214
 20
-132.9541584954073
 30
0.0
 10
98.59587671146214
 20
-132.9541584954073
 30
0.0
 10
98.59587671146214
 20
-133.1784342114971
 30
0.0
 10
98.59587671146214
 20
-133.1784342114971
 30
0.0
  0
HATCH
  5
8F
330
8A
100
AcDbEntity
  8
_U+30EC_U+30A4_U+30E4_U+30FC 1
 62
   179
420
  2234388
100
AcDbHatch
 10
0.0
 20
0.0
 30
0.0
210
0.0
220
0.0
230
1.0
  2
SOLID
 70
     1
 71
     0
 91
        1
 92
        1
 93
        1
 72
     4
 94
        3
 73
     0
 74
     1
 95
       26
 96
       22
 40
0.0
 40
0.0
 40
0.0
 40
0.0
 40
1.0
 40
1.0
 40
1.0
 40
2.0
 40
2.0
 40
2.0
 40
3.0
 40
3.0
 40
3.0
 40
4.0
 40
4.0
 40
4.0
 40
5.0
 40
5.0
 40
5.0
 40
6.0
 40
6.0
 40
6.0
 40
7.0
 40
7.0
 40
7.0
 40
7.0
 10
98.59587671146214
 20
-133.1784342114971
 10
98.59587671146214
 20
-133.1784342114971
 10
97.49137909889104
 20
-133.1784342114971
 10
97.49137909889104
 20
-133.1784342114971
 10
97.49137909889104
 20
-133.1784342114971
 10
97.49137909889104
 20
-133.508474358984
 10
97.49137909889104
 20
-133.508474358984
 10
97.49137909889104
 20
-133.508474358984
 10
97.3432399930253
 20
-133.508474358984
 10
97.3432399930253
 20
-133.508474358984
 10
97.32842608243872
 20
-133.1763671542059
 10
97.16581757553494
 20
-133.1295138556065
 10
97.05144040542464
 20
-133.0998860344334
 10
97.05144040542464
 20
-133.0998860344334
 10
97.05144040542464
 20
-132.9541584954073
 10
97.05144040542464
 20
-132.9541584954073
 10
97.05144040542464
 20
-132.9541584954073
 10
98.59587671146214
 20
-132.9541584954073
 10
98.59587671146214
 20
-132.9541584954073
 10
98.59587671146214
 20
-132.9541584954073
 10
98.59587671146214
 20
-133.1784342114971
 10
98.59587671146214
 20
-133.1784342114971
 97
        0
 97
        0
 75
     2
 76
     1
 98
        0
  0
SPLINE
  5
90
330
8A
100
AcDbEntity
  8
_U+30EC_U+30A4_U+30E4_U+30FC 1
370
     0
100
AcDbSpline
210
0.0
220
0.0
230
1.0
 70
    11
 71
     3
 72
    44
 73
    40
 74
     0
 42
0.0000000001
 43
0.0000000001
 12
1.0
 22
0.0
 32
0.0
 13
1.0
 23
0.0
 33
0.0
 40
0.0
 40
0.0
 40
0.0
 40
0.0
 40
1.0
 40
1.0
 40
1.0
 40
2.0
 40
2.0
 40
2.0
 40
3.0
 40
3.0
 40
3.0
 40
4.0
 40
4.0
 40
4.0
 40
5.0
 40
5.0
 40
5.0
 40
6.0
 40
6.0
 40
6.0
 40
7.0
 40
7.0
 40
7.0
 40
8.0
 40
8.0
 40
8.0
 40
9.0
 40
9.0
 40
9.0
 40
10.0
 40
10.0
 40
10.0
 40
11.0
 40
11.0
 40
11.0
 40
12.0
 40
12.0
 40
12.0
 40
13.0
 40
13.0
 40
13.0
 40
13.0
 10
98.01400008400346
 20
-131.8596516597434
 30
0.0
 10
98.17247447632494
 20
-132.0777262039597
 30
0.0
 10
98.24654402925782
 20
-132.1707437820615
 30
0.0
 10
98.39054902054126
 20
-132.2193196284035
 30
0.0
 10
98.39054902054126
 20
-132.2193196284035
 30
0.0
 10
98.39054902054126
 20
-131.440728048737
 30
0.0
 10
98.39054902054126
 20
-131.440728048737
 30
0.0
 10
98.39054902054126
 20
-131.440728048737
 30
0.0
 10
98.59587671146214
 20
-131.440728048737
 30
0.0
 10
98.59587671146214
 20
-131.440728048737
 30
0.0
 10
98.59587671146214
 20
-131.440728048737
 30
0.0
 10
98.59587671146214
 20
-132.4690890510841
 30
0.0
 10
98.59587671146214
 20
-132.4690890510841
 30
0.0
 10
98.23827580009322
 20
-132.4373941726198
 30
0.0
 10
98.16007213257804
 20
-132.3715928488515
 30
0.0
 10
97.8617268635554
 20
-131.9867756831491
 30
0.0
 10
97.66294485405649
 20
-131.7308050885951
 30
0.0
 10
97.59507647299706
 20
-131.6650037648268
 30
0.0
 10
97.4576171631356
 20
-131.6650037648268
 30
0.0
 10
97.33910587844301
 20
-131.6650037648268
 30
0.0
 10
97.20784774045498
 20
-131.7370062604685
 30
0.0
 10
97.20784774045498
 20
-131.9337212126763
 30
0.0
 10
97.20784774045498
 20
-132.1938259218127
 30
0.0
 10
97.43866913796673
 20
-132.2024386605258
 30
0.0
 10
97.55476885581965
 20
-132.2065727751081
 30
0.0
 10
97.55476885581965
 20
-132.2065727751081
 30
0.0
 10
97.55476885581965
 20
-132.4308484911978
 30
0.0
 10
97.55476885581965
 20
-132.4308484911978
 30
0.0
 10
97.42798934196246
 20
-132.4225802620333
 30
0.0
 10
97.31602373869183
 20
-132.411900466029
 30
0.0
 10
97.19751245399924
 20
-132.3316297412227
 30
0.0
 10
97.03662649483807
 20
-132.2213866856947
 30
0.0
 10
97.00286455908262
 20
-132.0353515294912
 30
0.0
 10
97.00286455908262
 20
-131.9189073020897
 30
0.0
 10
97.00286455908262
 20
-131.6419216250756
 30
0.0
 10
97.18683265799497
 20
-131.4345268768636
 30
0.0
 10
97.45968422042675
 20
-131.4345268768636
 30
0.0
 10
97.68809405109882
 20
-131.4345268768636
 30
0.0
 10
97.78765731062254
 20
-131.550971104265
 30
0.0
 10
98.01400008400346
 20
-131.8596516597434
 30
0.0
  0
HATCH
  5
91
330
8A
100
AcDbEntity
  8
_U+30EC_U+30A4_U+30E4_U+30FC 1
 62
   179
420
  2234388
100
AcDbHatch
 10
0.0
 20
0.0
 30
0.0
210
0.0
220
0.0
230
1.0
  2
SOLID
 70
     1
 71
     0
 91
        1
 92
        1
 93
        1
 72
     4
 94
        3
 73
     0
 74
     1
 95
       44
 96
       40
 40
0.0
 40
0.0
 40
0.0
 40
0.0
 40
1.0
 40
1.0
 40
1.0
 40
2.0
 40
2.0
 40
2.0
 40
3.0
 40
3.0
 40
3.0
 40
4.0
 40
4.0
 40
4.0
 40
5.0
 40
5.0
 40
5.0
 40
6.0
 40
6.0
 40
6.0
 40
7.0
 40
7.0
 40
7.0
 40
8.0
 40
8.0
 40
8.0
 40
9.0
 40
9.0
 40
9.0
 40
10.0
 40
10.0
 40
10.0
 40
11.0
 40
11.0
 40
11.0
 40
12.0
 40
12.0
 40
12.0
 40
13.0
 40
13.0
 40
13.0
 40
13.0
 10
98.01400008400346
 20
-131.8596516597434
 10
98.17247447632494
 20
-132.0777262039597
 10
98.24654402925782
 20
-132.1707437820615
 10
98.39054902054126
 20
-132.2193196284035
 10
98.39054902054126
 20
-132.2193196284035
 10
98.39054902054126
 20
-131.440728048737
 10
98.39054902054126
 20
-131.440728048737
 10
98.39054902054126
 20
-131.440728048737
 10
98.59587671146214
 20
-131.440728048737
 10
98.59587671146214
 20
-131.440728048737
 10
98.59587671146214
 20
-131.440728048737
 10
98.59587671146214
 20
-132.4690890510841
 10
98.59587671146214
 20
-132.4690890510841
 10
98.23827580009322
 20
-132.4373941726198
 10
98.16007213257804
 20
-132.3715928488515
 10
97.8617268635554
 20
-131.9867756831491
 10
97.66294485405649
 20
-131.7308050885951
 10
97.59507647299706
 20
-131.6650037648268
 10
97.4576171631356
 20
-131.6650037648268
 10
97.33910587844301
 20
-131.6650037648268
 10
97.20784774045498
 20
-131.7370062604685
 10
97.20784774045498
 20
-131.9337212126763
 10
97.20784774045498
 20
-132.1938259218127
 10
97.43866913796673
 20
-132.2024386605258
 10
97.55476885581965
 20
-132.2065727751081
 10
97.55476885581965
 20
-132.2065727751081
 10
97.55476885581965
 20
-132.4308484911978
 10
97.55476885581965
 20
-132.4308484911978
 10
97.42798934196246
 20
-132.4225802620333
 10
97.31602373869183
 20
-132.411900466029
 10
97.19751245399924
 20
-132.3316297412227
 10
97.03662649483807
 20
-132.2213866856947
 10
97.00286455908262
 20
-132.0353515294912
 10
97.00286455908262
 20
-131.9189073020897
 10
97.00286455908262
 20
-131.6419216250756
 10
97.18683265799497
 20
-131.4345268768636
 10
97.45968422042675
 20
-131.4345268768636
 10
97.68809405109882
 20
-131.4345268768636
 10
97.78765731062254
 20
-131.550971104265
 10
98.01400008400346
 20
-131.8596516597434
 97
        0
 97
        0
 75
     2
 76
     1
 98
        0
  0
ENDBLK
  5
8D
330
8A
100
AcDbEntity
  8
0
100
AcDbBlockEnd
  0
BLOCK
  5
A3
330
A1
100
AcDbEntity
  8
0
100
AcDbBlockBegin
  2
block 3
 70
     0
 10
0.0
 20
0.0
 30
0.0
  3
block 3
  1

  0
SPLINE
  5
A5
330
A1
100
AcDbEntity
  8
_U+30EC_U+30A4_U+30E4_U+30FC 1
370
     0
100
AcDbSpline
210
0.0
220
0.0
230
1.0
 70
    11
 71
     3
 72
    53
 73
    49
 74
     0
 42
0.0000000001
 43
0.0000000001
 12
1.0
 22
0.0
 32
0.0
 13
1.0
 23
0.0
 33
0.0
 40
0.0
 40
0.0
 40
0.0
 40
0.0
 40
1.0
 40
1.0
 40
1.0
 40
2.0
 40
2.0
 40
2.0
 40
3.0
 40
3.0
 40
3.0
 40
4.0
 40
4.0
 40
4.0
 40
5.0
 40
5.0
 40
5.0
 40
6.0
 40
6.0
 40
6.0
 40
7.0
 40
7.0
 40
7.0
 40
8.0
 40
8.0
 40
8.0
 40
9.0
 40
9.0
 40
9.0
 40
10.0
 40
10.0
 40
10.0
 40
11.0
 40
11.0
 40
11.0
 40
12.0
 40
12.0
 40
12.0
 40
13.0
 40
13.0
 40
13.0
 40
14.0
 40
14.0
 40
14.0
 40
15.0
 40
15.0
 40
15.0
 40
16.0
 40
16.0
 40
16.0
 40
16.0
 10
92.4491373466794
 20
-122.2188964538203
 30
0.0
 10
92.37058916961568
 20
-122.2188964538203
 30
0.0
 10
92.26930336234935
 20
-122.2020154859426
 30
0.0
 10
92.16767304553447
 20
-122.1384534742397
 30
0.0
 10
91.99404023307788
 20
-122.0285549282602
 30
0.0
 10
91.97302515061786
 20
-121.8972967902722
 30
0.0
 10
91.95407712544899
 20
-121.7894653015839
 30
0.0
 10
91.95407712544899
 20
-121.7894653015839
 30
0.0
 10
92.17594127469907
 20
-121.7894653015839
 30
0.0
 10
92.17594127469907
 20
-121.7894653015839
 30
0.0
 10
92.23106280246307
 20
-121.9882473110828
 30
0.0
 10
92.35784231632027
 20
-122.017875132256
 30
0.0
 10
92.45120440397054
 20
-122.017875132256
 30
0.0
 10
92.59073077112315
 20
-122.017875132256
 30
0.0
 10
92.7430039915712
 20
-121.9184841275065
 30
0.0
 10
92.7430039915712
 20
-121.6857679274779
 30
0.0
 10
92.7430039915712
 20
-121.4297973329238
 30
0.0
 10
92.56317000724115
 20
-121.3600341493475
 30
0.0
 10
92.44259166525741
 20
-121.3600341493475
 30
0.0
 10
92.41089678679312
 20
-121.3600341493475
 30
0.0
 10
92.26930336234935
 20
-121.3600341493475
 30
0.0
 10
92.1804198988299
 20
-121.4890529752701
 30
0.0
 10
92.1804198988299
 20
-121.4890529752701
 30
0.0
 10
92.00472002908215
 20
-121.469932695327
 30
0.0
 10
92.00472002908215
 20
-121.469932695327
 30
0.0
 10
92.00472002908215
 20
-121.469932695327
 30
0.0
 10
92.1252983710659
 20
-120.6238172441496
 30
0.0
 10
92.1252983710659
 20
-120.6238172441496
 30
0.0
 10
92.1252983710659
 20
-120.6238172441496
 30
0.0
 10
92.90388995073236
 20
-120.6238172441496
 30
0.0
 10
92.90388995073236
 20
-120.6238172441496
 30
0.0
 10
92.90388995073236
 20
-120.6238172441496
 30
0.0
 10
92.90388995073236
 20
-120.8184651390662
 30
0.0
 10
92.90388995073236
 20
-120.8184651390662
 30
0.0
 10
92.90388995073236
 20
-120.8184651390662
 30
0.0
 10
92.28825138751822
 20
-120.8184651390662
 30
0.0
 10
92.28825138751822
 20
-120.8184651390662
 30
0.0
 10
92.28825138751822
 20
-120.8184651390662
 30
0.0
 10
92.22245006374995
 20
-121.2415228646549
 30
0.0
 10
92.22245006374995
 20
-121.2415228646549
 30
0.0
 10
92.28411727293592
 20
-121.2077609288995
 30
0.0
 10
92.36645505503338
 20
-121.167453311722
 30
0.0
 10
92.48496633972599
 20
-121.167453311722
 30
0.0
 10
92.7388698769889
 20
-121.167453311722
 30
0.0
 10
92.97589244637409
 20
-121.3536607226998
 30
0.0
 10
92.97589244637409
 20
-121.666819902309
 30
0.0
 10
92.97589244637409
 20
-121.9841131965005
 30
0.0
 10
92.75161673028433
 20
-122.2188964538203
 30
0.0
 10
92.4491373466794
 20
-122.2188964538203
 30
0.0
  0
HATCH
  5
A6
330
A1
100
AcDbEntity
  8
_U+30EC_U+30A4_U+30E4_U+30FC 1
 62
   179
420
  2234388
100
AcDbHatch
 10
0.0
 20
0.0
 30
0.0
210
0.0
220
0.0
230
1.0
  2
SOLID
 70
     1
 71
     0
 91
        1
 92
        1
 93
        1
 72
     4
 94
        3
 73
     0
 74
     1
 95
       53
 96
       49
 40
0.0
 40
0.0
 40
0.0
 40
0.0
 40
1.0
 40
1.0
 40
1.0
 40
2.0
 40
2.0
 40
2.0
 40
3.0
 40
3.0
 40
3.0
 40
4.0
 40
4.0
 40
4.0
 40
5.0
 40
5.0
 40
5.0
 40
6.0
 40
6.0
 40
6.0
 40
7.0
 40
7.0
 40
7.0
 40
8.0
 40
8.0
 40
8.0
 40
9.0
 40
9.0
 40
9.0
 40
10.0
 40
10.0
 40
10.0
 40
11.0
 40
11.0
 40
11.0
 40
12.0
 40
12.0
 40
12.0
 40
13.0
 40
13.0
 40
13.0
 40
14.0
 40
14.0
 40
14.0
 40
15.0
 40
15.0
 40
15.0
 40
16.0
 40
16.0
 40
16.0
 40
16.0
 10
92.4491373466794
 20
-122.2188964538203
 10
92.37058916961568
 20
-122.2188964538203
 10
92.26930336234935
 20
-122.2020154859426
 10
92.16767304553447
 20
-122.1384534742397
 10
91.99404023307788
 20
-122.0285549282602
 10
91.97302515061786
 20
-121.8972967902722
 10
91.95407712544899
 20
-121.7894653015839
 10
91.95407712544899
 20
-121.7894653015839
 10
92.17594127469907
 20
-121.7894653015839
 10
92.17594127469907
 20
-121.7894653015839
 10
92.23106280246307
 20
-121.9882473110828
 10
92.35784231632027
 20
-122.017875132256
 10
92.45120440397054
 20
-122.017875132256
 10
92.59073077112315
 20
-122.017875132256
 10
92.7430039915712
 20
-121.9184841275065
 10
92.7430039915712
 20
-121.6857679274779
 10
92.7430039915712
 20
-121.4297973329238
 10
92.56317000724115
 20
-121.3600341493475
 10
92.44259166525741
 20
-121.3600341493475
 10
92.41089678679312
 20
-121.3600341493475
 10
92.26930336234935
 20
-121.3600341493475
 10
92.1804198988299
 20
-121.4890529752701
 10
92.1804198988299
 20
-121.4890529752701
 10
92.00472002908215
 20
-121.469932695327
 10
92.00472002908215
 20
-121.469932695327
 10
92.00472002908215
 20
-121.469932695327
 10
92.1252983710659
 20
-120.6238172441496
 10
92.1252983710659
 20
-120.6238172441496
 10
92.1252983710659
 20
-120.6238172441496
 10
92.90388995073236
 20
-120.6238172441496
 10
92.90388995073236
 20
-120.6238172441496
 10
92.90388995073236
 20
-120.6238172441496
 10
92.90388995073236
 20
-120.8184651390662
 10
92.90388995073236
 20
-120.8184651390662
 10
92.90388995073236
 20
-120.8184651390662
 10
92.28825138751822
 20
-120.8184651390662
 10
92.28825138751822
 20
-120.8184651390662
 10
92.28825138751822
 20
-120.8184651390662
 10
92.22245006374995
 20
-121.2415228646549
 10
92.22245006374995
 20
-121.2415228646549
 10
92.28411727293592
 20
-121.2077609288995
 10
92.36645505503338
 20
-121.167453311722
 10
92.48496633972599
 20
-121.167453311722
 10
92.7388698769889
 20
-121.167453311722
 10
92.97589244637409
 20
-121.3536607226998
 10
92.97589244637409
 20
-121.666819902309
 10
92.97589244637409
 20
-121.9841131965005
 10
92.75161673028433
 20
-122.2188964538203
 10
92.4491373466794
 20
-122.2188964538203
 97
        0
 97
        0
 75
     2
 76
     1
 98
        0
  0
ENDBLK
  5
A4
330
A1
100
AcDbEntity
  8
0
100
AcDbBlockEnd
  0
BLOCK
  5
B8
330
B6
100
AcDbEntity
  8
0
100
AcDbBlockBegin
  2
block 4
 70
     0
 10
0.0
 20
0.0
 30
0.0
  3
block 4
  1

  0
SPLINE
  5
BA
330
B6
100
AcDbEntity
  8
_U+30EC_U+30A4_U+30E4_U+30FC 1
370
     0
100
AcDbSpline
210
0.0
220
0.0
230
1.0
 70
    11
 71
     3
 72
    62
 73
    58
 74
     0
 42
0.0000000001
 43
0.0000000001
 12
1.0
 22
0.0
 32
0.0
 13
1.0
 23
0.0
 33
0.0
 40
0.0
 40
0.0
 40
0.0
 40
0.0
 40
1.0
 40
1.0
 40
1.0
 40
2.0
 40
2.0
 40
2.0
 40
3.0
 40
3.0
 40
3.0
 40
4.0
 40
4.0
 40
4.0
 40
5.0
 40
5.0
 40
5.0
 40
6.0
 40
6.0
 40
6.0
 40
7.0
 40
7.0
 40
7.0
 40
8.0
 40
8.0
 40
8.0
 40
9.0
 40
9.0
 40
9.0
 40
10.0
 40
10.0
 40
10.0
 40
11.0
 40
11.0
 40
11.0
 40
12.0
 40
12.0
 40
12.0
 40
13.0
 40
13.0
 40
13.0
 40
14.0
 40
14.0
 40
14.0
 40
15.0
 40
15.0
 40
15.0
 40
16.0
 40
16.0
 40
16.0
 40
17.0
 40
17.0
 40
17.0
 40
18.0
 40
18.0
 40
18.0
 40
19.0
 40
19.0
 40
19.0
 40
19.0
 10
84.94124075567441
 20
-128.9978108401464
 30
0.0
 10
84.94124075567441
 20
-129.0928954755393
 30
0.0
 10
84.92005341844013
 20
-129.3109700197556
 30
0.0
 10
84.73384600746238
 20
-129.4356824763216
 30
0.0
 10
84.6217081494175
 20
-129.5097520292545
 30
0.0
 10
84.52231714466804
 20
-129.5138861438368
 30
0.0
 10
84.43774005050516
 20
-129.5183647679676
 30
0.0
 10
84.43774005050516
 20
-129.5183647679676
 30
0.0
 10
84.43774005050516
 20
-129.2982231664602
 30
0.0
 10
84.43774005050516
 20
-129.2982231664602
 30
0.0
 10
84.51180960343802
 20
-129.296156109169
 30
0.0
 10
84.7465928607578
 20
-129.2854763131647
 30
0.0
 10
84.7465928607578
 20
-129.0019449547287
 30
0.0
 10
84.7465928607578
 20
-128.8644856448672
 30
0.0
 10
84.67682967718149
 20
-128.7122124244192
 30
0.0
 10
84.44824759173517
 20
-128.7122124244192
 30
0.0
 10
84.33197561910798
 20
-128.7122124244192
 30
0.0
 10
84.28322751799169
 20
-128.7502807295312
 30
0.0
 10
84.2515326395274
 20
-128.7821478627697
 30
0.0
 10
84.17746308659453
 20
-128.8562174157026
 30
0.0
 10
84.16488848807336
 20
-128.9723171335555
 30
0.0
 10
84.16488848807336
 20
-129.0274386613195
 30
0.0
 10
84.16488848807336
 20
-129.0463866864884
 30
0.0
 10
84.16695554536452
 20
-129.0825601890835
 30
0.0
 10
84.17126191472107
 20
-129.1101209529655
 30
0.0
 10
84.17126191472107
 20
-129.1101209529655
 30
0.0
 10
83.97661401980446
 20
-129.1101209529655
 30
0.0
 10
83.97661401980446
 20
-129.1101209529655
 30
0.0
 10
83.98298744645217
 20
-129.0718803930793
 30
0.0
 10
83.98505450374333
 20
-129.0295057186107
 30
0.0
 10
83.98505450374333
 20
-129.0233045467372
 30
0.0
 10
83.98505450374333
 20
-128.957503222969
 30
0.0
 10
83.96386716650903
 20
-128.7588934682443
 30
0.0
 10
83.72684459712384
 20
-128.7588934682443
 30
0.0
 10
83.54924992485923
 20
-128.7588934682443
 30
0.0
 10
83.49430065186948
 20
-128.8899793514581
 30
0.0
 10
83.49430065186948
 20
-128.9998778974375
 30
0.0
 10
83.49430065186948
 20
-129.2644612307047
 30
0.0
 10
83.72684459712384
 20
-129.2727294598693
 30
0.0
 10
83.79884709276557
 20
-129.2772080840001
 30
0.0
 10
83.79884709276557
 20
-129.2772080840001
 30
0.0
 10
83.79884709276557
 20
-129.4801242080814
 30
0.0
 10
83.79884709276557
 20
-129.4801242080814
 30
0.0
 10
83.67396238142527
 20
-129.4718559789168
 30
0.0
 10
83.29741344488745
 20
-129.4442952150348
 30
0.0
 10
83.29741344488745
 20
-128.9871310441421
 30
0.0
 10
83.29741344488745
 20
-128.7630275828266
 30
0.0
 10
83.42436521351891
 20
-128.5218708988591
 30
0.0
 10
83.7206434252504
 20
-128.5218708988591
 30
0.0
 10
83.90667858145389
 20
-128.5218708988591
 30
0.0
 10
83.98918861832563
 20
-128.6171277890263
 30
0.0
 10
84.05068357273733
 20
-128.7165187937757
 30
0.0
 10
84.07807208184506
 20
-128.6551960941383
 30
0.0
 10
84.15851506142565
 20
-128.4732950525171
 30
0.0
 10
84.435672993214
 20
-128.4732950525171
 30
0.0
 10
84.7741536246398
 20
-128.4732950525171
 30
0.0
 10
84.94124075567441
 20
-128.720652908358
 30
0.0
 10
84.94124075567441
 20
-128.9978108401464
 30
0.0
  0
HATCH
  5
BB
330
B6
100
AcDbEntity
  8
_U+30EC_U+30A4_U+30E4_U+30FC 1
 62
   179
420
  2234388
100
AcDbHatch
 10
0.0
 20
0.0
 30
0.0
210
0.0
220
0.0
230
1.0
  2
SOLID
 70
     1
 71
     0
 91
        1
 92
        1
 93
        1
 72
     4
 94
        3
 73
     0
 74
     1
 95
       62
 96
       58
 40
0.0
 40
0.0
 40
0.0
 40
0.0
 40
1.0
 40
1.0
 40
1.0
 40
2.0
 40
2.0
 40
2.0
 40
3.0
 40
3.0
 40
3.0
 40
4.0
 40
4.0
 40
4.0
 40
5.0
 40
5.0
 40
5.0
 40
6.0
 40
6.0
 40
6.0
 40
7.0
 40
7.0
 40
7.0
 40
8.0
 40
8.0
 40
8.0
 40
9.0
 40
9.0
 40
9.0
 40
10.0
 40
10.0
 40
10.0
 40
11.0
 40
11.0
 40
11.0
 40
12.0
 40
12.0
 40
12.0
 40
13.0
 40
13.0
 40
13.0
 40
14.0
 40
14.0
 40
14.0
 40
15.0
 40
15.0
 40
15.0
 40
16.0
 40
16.0
 40
16.0
 40
17.0
 40
17.0
 40
17.0
 40
18.0
 40
18.0
 40
18.0
 40
19.0
 40
19.0
 40
19.0
 40
19.0
 10
84.94124075567441
 20
-128.9978108401464
 10
84.94124075567441
 20
-129.0928954755393
 10
84.92005341844013
 20
-129.3109700197556
 10
84.73384600746238
 20
-129.4356824763216
 10
84.6217081494175
 20
-129.5097520292545
 10
84.52231714466804
 20
-129.5138861438368
 10
84.43774005050516
 20
-129.5183647679676
 10
84.43774005050516
 20
-129.5183647679676
 10
84.43774005050516
 20
-129.2982231664602
 10
84.43774005050516
 20
-129.2982231664602
 10
84.51180960343802
 20
-129.296156109169
 10
84.7465928607578
 20
-129.2854763131647
 10
84.7465928607578
 20
-129.0019449547287
 10
84.7465928607578
 20
-128.8644856448672
 10
84.67682967718149
 20
-128.7122124244192
 10
84.44824759173517
 20
-128.7122124244192
 10
84.33197561910798
 20
-128.7122124244192
 10
84.28322751799169
 20
-128.7502807295312
 10
84.2515326395274
 20
-128.7821478627697
 10
84.17746308659453
 20
-128.8562174157026
 10
84.16488848807336
 20
-128.9723171335555
 10
84.16488848807336
 20
-129.0274386613195
 10
84.16488848807336
 20
-129.0463866864884
 10
84.16695554536452
 20
-129.0825601890835
 10
84.17126191472107
 20
-129.1101209529655
 10
84.17126191472107
 20
-129.1101209529655
 10
83.97661401980446
 20
-129.1101209529655
 10
83.97661401980446
 20
-129.1101209529655
 10
83.98298744645217
 20
-129.0718803930793
 10
83.98505450374333
 20
-129.0295057186107
 10
83.98505450374333
 20
-129.0233045467372
 10
83.98505450374333
 20
-128.957503222969
 10
83.96386716650903
 20
-128.7588934682443
 10
83.72684459712384
 20
-128.7588934682443
 10
83.54924992485923
 20
-128.7588934682443
 10
83.49430065186948
 20
-128.8899793514581
 10
83.49430065186948
 20
-128.9998778974375
 10
83.49430065186948
 20
-129.2644612307047
 10
83.72684459712384
 20
-129.2727294598693
 10
83.79884709276557
 20
-129.2772080840001
 10
83.79884709276557
 20
-129.2772080840001
 10
83.79884709276557
 20
-129.4801242080814
 10
83.79884709276557
 20
-129.4801242080814
 10
83.67396238142527
 20
-129.4718559789168
 10
83.29741344488745
 20
-129.4442952150348
 10
83.29741344488745
 20
-128.9871310441421
 10
83.29741344488745
 20
-128.7630275828266
 10
83.42436521351891
 20
-128.5218708988591
 10
83.7206434252504
 20
-128.5218708988591
 10
83.90667858145389
 20
-128.5218708988591
 10
83.98918861832563
 20
-128.6171277890263
 10
84.05068357273733
 20
-128.7165187937757
 10
84.07807208184506
 20
-128.6551960941383
 10
84.15851506142565
 20
-128.4732950525171
 10
84.435672993214
 20
-128.4732950525171
 10
84.7741536246398
 20
-128.4732950525171
 10
84.94124075567441
 20
-128.720652908358
 10
84.94124075567441
 20
-128.9978108401464
 97
        0
 97
        0
 75
     2
 76
     1
 98
        0
  0
POLYLINE
  5
BC
330
B6
100
AcDbEntity
  8
_U+30EC_U+30A4_U+30E4_U+30FC 1
370
     0
100
AcDb2dPolyline
 66
     1
 10
0.0
 20
0.0
 30
0.0
  0
VERTEX
  5
BD
330
BC
100
AcDbEntity
  8
_U+30EC_U+30A4_U+30E4_U+30FC 1
370
     0
100
AcDbVertex
100
AcDb2dVertex
 10
84.89042559726698
 20
-128.2526366866869
 30
0.0
  0
VERTEX
  5
BE
330
BC
100
AcDbEntity
  8
_U+30EC_U+30A4_U+30E4_U+30FC 1
370
     0
100
AcDbVertex
100
AcDb2dVertex
 10
84.63876137206948
 20
-128.2526366866869
 30
0.0
  0
VERTEX
  5
BF
330
BC
100
AcDbEntity
  8
_U+30EC_U+30A4_U+30E4_U+30FC 1
370
     0
100
AcDbVertex
100
AcDb2dVertex
 10
84.63876137206948
 20
-128.0008002067151
 30
0.0
  0
VERTEX
  5
C0
330
BC
100
AcDbEntity
  8
_U+30EC_U+30A4_U+30E4_U+30FC 1
370
     0
100
AcDbVertex
100
AcDb2dVertex
 10
84.89042559726698
 20
-128.0008002067151
 30
0.0
  0
VERTEX
  5
C1
330
BC
100
AcDbEntity
  8
_U+30EC_U+30A4_U+30E4_U+30FC 1
370
     0
100
AcDbVertex
100
AcDb2dVertex
 10
84.89042559726698
 20
-128.2526366866869
 30
0.0
  0
SEQEND
  5
C2
330
BC
100
AcDbEntity
  8
_U+30EC_U+30A4_U+30E4_U+30FC 1
370
     0
  0
HATCH
  5
C3
330
B6
100
AcDbEntity
  8
_U+30EC_U+30A4_U+30E4_U+30FC 1
 62
   179
420
  2234388
100
AcDbHatch
 10
0.0
 20
0.0
 30
0.0
210
0.0
220
0.0
230
1.0
  2
SOLID
 70
     1
 71
     0
 91
        1
 92
        1
 93
        4
 72
     1
 10
84.89042559726698
 20
-128.2526366866869
 11
84.63876137206948
 21
-128.2526366866869
 72
     1
 10
84.63876137206948
 20
-128.2526366866869
 11
84.63876137206948
 21
-128.0008002067151
 72
     1
 10
84.63876137206948
 20
-128.0008002067151
 11
84.89042559726698
 21
-128.0008002067151
 72
     1
 10
84.89042559726698
 20
-128.0008002067151
 11
84.89042559726698
 21
-128.2526366866869
 97
        0
 75
     2
 76
     1
 98
        0
  0
SPLINE
  5
C4
330
B6
100
AcDbEntity
  8
_U+30EC_U+30A4_U+30E4_U+30FC 1
370
     0
100
AcDbSpline
210
0.0
220
0.0
230
1.0
 70
    11
 71
     3
 72
    53
 73
    49
 74
     0
 42
0.0000000001
 43
0.0000000001
 12
1.0
 22
0.0
 32
0.0
 13
1.0
 23
0.0
 33
0.0
 40
0.0
 40
0.0
 40
0.0
 40
0.0
 40
1.0
 40
1.0
 40
1.0
 40
2.0
 40
2.0
 40
2.0
 40
3.0
 40
3.0
 40
3.0
 40
4.0
 40
4.0
 40
4.0
 40
5.0
 40
5.0
 40
5.0
 40
6.0
 40
6.0
 40
6.0
 40
7.0
 40
7.0
 40
7.0
 40
8.0
 40
8.0
 40
8.0
 40
9.0
 40
9.0
 40
9.0
 40
10.0
 40
10.0
 40
10.0
 40
11.0
 40
11.0
 40
11.0
 40
12.0
 40
12.0
 40
12.0
 40
13.0
 40
13.0
 40
13.0
 40
14.0
 40
14.0
 40
14.0
 40
15.0
 40
15.0
 40
15.0
 40
16.0
 40
16.0
 40
16.0
 40
16.0
 10
84.94124075567441
 20
-127.2833590719118
 30
0.0
 10
84.94124075567441
 20
-127.3617349942012
 30
0.0
 10
84.92435978779669
 20
-127.4631930562418
 30
0.0
 10
84.86079777609383
 20
-127.5648233730567
 30
0.0
 10
84.75089923011436
 20
-127.738283930739
 30
0.0
 10
84.61964109212634
 20
-127.7592990131991
 30
0.0
 10
84.51180960343802
 20
-127.7784192931422
 30
0.0
 10
84.51180960343802
 20
-127.7784192931422
 30
0.0
 10
84.51180960343802
 20
-127.5562106343436
 30
0.0
 10
84.51180960343802
 20
-127.5562106343436
 30
0.0
 10
84.71059161293694
 20
-127.5012613613539
 30
0.0
 10
84.74021943411009
 20
-127.3743095927224
 30
0.0
 10
84.74021943411009
 20
-127.2812920146207
 30
0.0
 10
84.74021943411009
 20
-127.1415933926938
 30
0.0
 10
84.64082842936062
 20
-126.9893201722457
 30
0.0
 10
84.408112229332
 20
-126.9893201722457
 30
0.0
 10
84.15214163477793
 20
-126.9893201722457
 30
0.0
 10
84.08237845120163
 20
-127.1691541565758
 30
0.0
 10
84.08237845120163
 20
-127.2897324985595
 30
0.0
 10
84.08237845120163
 20
-127.3214273770238
 30
0.0
 10
84.08237845120163
 20
-127.4631930562418
 30
0.0
 10
84.21139727712423
 20
-127.5520765197613
 30
0.0
 10
84.21139727712423
 20
-127.5520765197613
 30
0.0
 10
84.1922769971811
 20
-127.7276041347348
 30
0.0
 10
84.1922769971811
 20
-127.7276041347348
 30
0.0
 10
84.1922769971811
 20
-127.7276041347348
 30
0.0
 10
83.34616154600374
 20
-127.607025792751
 30
0.0
 10
83.34616154600374
 20
-127.607025792751
 30
0.0
 10
83.34616154600374
 20
-127.607025792751
 30
0.0
 10
83.34616154600374
 20
-126.8286064678588
 30
0.0
 10
83.34616154600374
 20
-126.8286064678588
 30
0.0
 10
83.34616154600374
 20
-126.8286064678588
 30
0.0
 10
83.54080944092036
 20
-126.8286064678588
 30
0.0
 10
83.54080944092036
 20
-126.8286064678588
 30
0.0
 10
83.54080944092036
 20
-126.8286064678588
 30
0.0
 10
83.54080944092036
 20
-127.444245031073
 30
0.0
 10
83.54080944092036
 20
-127.444245031073
 30
0.0
 10
83.54080944092036
 20
-127.444245031073
 30
0.0
 10
83.96386716650903
 20
-127.5097018452927
 30
0.0
 10
83.96386716650903
 20
-127.5097018452927
 30
0.0
 10
83.93010523075358
 20
-127.4483791456553
 30
0.0
 10
83.88979761357616
 20
-127.3658691087835
 30
0.0
 10
83.88979761357616
 20
-127.2473578240909
 30
0.0
 10
83.88979761357616
 20
-126.9936265416023
 30
0.0
 10
84.07600502455392
 20
-126.7566039722171
 30
0.0
 10
84.38916420416312
 20
-126.7566039722171
 30
0.0
 10
84.70645749835464
 20
-126.7566039722171
 30
0.0
 10
84.94124075567441
 20
-126.9808796883069
 30
0.0
 10
84.94124075567441
 20
-127.2833590719118
 30
0.0
  0
HATCH
  5
C5
330
B6
100
AcDbEntity
  8
_U+30EC_U+30A4_U+30E4_U+30FC 1
 62
   179
420
  2234388
100
AcDbHatch
 10
0.0
 20
0.0
 30
0.0
210
0.0
220
0.0
230
1.0
  2
SOLID
 70
     1
 71
     0
 91
        1
 92
        1
 93
        1
 72
     4
 94
        3
 73
     0
 74
     1
 95
       53
 96
       49
 40
0.0
 40
0.0
 40
0.0
 40
0.0
 40
1.0
 40
1.0
 40
1.0
 40
2.0
 40
2.0
 40
2.0
 40
3.0
 40
3.0
 40
3.0
 40
4.0
 40
4.0
 40
4.0
 40
5.0
 40
5.0
 40
5.0
 40
6.0
 40
6.0
 40
6.0
 40
7.0
 40
7.0
 40
7.0
 40
8.0
 40
8.0
 40
8.0
 40
9.0
 40
9.0
 40
9.0
 40
10.0
 40
10.0
 40
10.0
 40
11.0
 40
11.0
 40
11.0
 40
12.0
 40
12.0
 40
12.0
 40
13.0
 40
13.0
 40
13.0
 40
14.0
 40
14.0
 40
14.0
 40
15.0
 40
15.0
 40
15.0
 40
16.0
 40
16.0
 40
16.0
 40
16.0
 10
84.94124075567441
 20
-127.2833590719118
 10
84.94124075567441
 20
-127.3617349942012
 10
84.92435978779669
 20
-127.4631930562418
 10
84.86079777609383
 20
-127.5648233730567
 10
84.75089923011436
 20
-127.738283930739
 10
84.61964109212634
 20
-127.7592990131991
 10
84.51180960343802
 20
-127.7784192931422
 10
84.51180960343802
 20
-127.7784192931422
 10
84.51180960343802
 20
-127.5562106343436
 10
84.51180960343802
 20
-127.5562106343436
 10
84.71059161293694
 20
-127.5012613613539
 10
84.74021943411009
 20
-127.3743095927224
 10
84.74021943411009
 20
-127.2812920146207
 10
84.74021943411009
 20
-127.1415933926938
 10
84.64082842936062
 20
-126.9893201722457
 10
84.408112229332
 20
-126.9893201722457
 10
84.15214163477793
 20
-126.9893201722457
 10
84.08237845120163
 20
-127.1691541565758
 10
84.08237845120163
 20
-127.2897324985595
 10
84.08237845120163
 20
-127.3214273770238
 10
84.08237845120163
 20
-127.4631930562418
 10
84.21139727712423
 20
-127.5520765197613
 10
84.21139727712423
 20
-127.5520765197613
 10
84.1922769971811
 20
-127.7276041347348
 10
84.1922769971811
 20
-127.7276041347348
 10
84.1922769971811
 20
-127.7276041347348
 10
83.34616154600374
 20
-127.607025792751
 10
83.34616154600374
 20
-127.607025792751
 10
83.34616154600374
 20
-127.607025792751
 10
83.34616154600374
 20
-126.8286064678588
 10
83.34616154600374
 20
-126.8286064678588
 10
83.34616154600374
 20
-126.8286064678588
 10
83.54080944092036
 20
-126.8286064678588
 10
83.54080944092036
 20
-126.8286064678588
 10
83.54080944092036
 20
-126.8286064678588
 10
83.54080944092036
 20
-127.444245031073
 10
83.54080944092036
 20
-127.444245031073
 10
83.54080944092036
 20
-127.444245031073
 10
83.96386716650903
 20
-127.5097018452927
 10
83.96386716650903
 20
-127.5097018452927
 10
83.93010523075358
 20
-127.4483791456553
 10
83.88979761357616
 20
-127.3658691087835
 10
83.88979761357616
 20
-127.2473578240909
 10
83.88979761357616
 20
-126.9936265416023
 10
84.07600502455392
 20
-126.7566039722171
 10
84.38916420416312
 20
-126.7566039722171
 10
84.70645749835464
 20
-126.7566039722171
 10
84.94124075567441
 20
-126.9808796883069
 10
84.94124075567441
 20
-127.2833590719118
 97
        0
 97
        0
 75
     2
 76
     1
 98
        0
  0
ENDBLK
  5
B9
330
B6
100
AcDbEntity
  8
0
100
AcDbBlockEnd
  0
ENDSEC
  0
SECTION
  2
ENTITIES
  0
SPLINE
  5
41
330
1F
100
AcDbEntity
  8
_U+30EC_U+30A4_U+30E4_U+30FC 1
370
     0
100
AcDbSpline
210
0.0
220
0.0
230
1.0
 70
    11
 71
     3
 72
    47
 73
    43
 74
     0
 42
0.0000000001
 43
0.0000000001
 12
1.0
 22
0.0
 32
0.0
 13
1.0
 23
0.0
 33
0.0
 40
0.0
 40
0.0
 40
0.0
 40
0.0
 40
1.0
 40
1.0
 40
1.0
 40
2.0
 40
2.0
 40
2.0
 40
3.0
 40
3.0
 40
3.0
 40
4.0
 40
4.0
 40
4.0
 40
5.0
 40
5.0
 40
5.0
 40
6.0
 40
6.0
 40
6.0
 40
7.0
 40
7.0
 40
7.0
 40
8.0
 40
8.0
 40
8.0
 40
9.0
 40
9.0
 40
9.0
 40
10.0
 40
10.0
 40
10.0
 40
11.0
 40
11.0
 40
11.0
 40
12.0
 40
12.0
 40
12.0
 40
13.0
 40
13.0
 40
13.0
 40
14.0
 40
14.0
 40
14.0
 40
14.0
 10
90.00380409270055
 20
-130.0406269119343
 30
0.0
 10
90.00380409270055
 20
-130.0406269119343
 30
0.0
 10
91.46832572200415
 20
-130.0406269119343
 30
0.0
 10
91.46832572200415
 20
-130.0406269119343
 30
0.0
 10
91.46832572200415
 20
-130.0406269119343
 30
0.0
 10
91.46832572200415
 20
-137.5406119100592
 30
0.0
 10
91.46832572200415
 20
-137.5406119100592
 30
0.0
 10
91.46832572200415
 20
-137.5406119100592
 30
0.0
 10
90.46820074751948
 20
-137.5406119100592
 30
0.0
 10
90.46820074751948
 20
-137.5406119100592
 30
0.0
 10
90.46820074751948
 20
-137.5406119100592
 30
0.0
 10
90.46820074751948
 20
-138.5410544098091
 30
0.0
 10
90.46820074751948
 20
-138.5410544098091
 30
0.0
 10
90.46820074751948
 20
-138.5410544098091
 30
0.0
 10
94.4331759241423
 20
-138.5410544098091
 30
0.0
 10
94.4331759241423
 20
-138.5410544098091
 30
0.0
 10
94.4331759241423
 20
-138.5210871875919
 30
0.0
 10
94.44866286819165
 20
-138.505247465374
 30
0.0
 10
94.46866536768134
 20
-138.505247465374
 30
0.0
 10
94.46866536768134
 20
-138.505247465374
 30
0.0
 10
94.46866536768134
 20
-137.5406119100592
 30
0.0
 10
94.46866536768134
 20
-137.5406119100592
 30
0.0
 10
94.46866536768134
 20
-137.5406119100592
 30
0.0
 10
93.46818761542788
 20
-137.5406119100592
 30
0.0
 10
93.46818761542788
 20
-137.5406119100592
 30
0.0
 10
93.46818761542788
 20
-137.5406119100592
 30
0.0
 10
93.46818761542788
 20
-130.0406269119343
 30
0.0
 10
93.46818761542788
 20
-130.0406269119343
 30
0.0
 10
93.46818761542788
 20
-130.0406269119343
 30
0.0
 10
94.96819868827052
 20
-130.0406269119343
 30
0.0
 10
94.96819868827052
 20
-130.0406269119343
 30
0.0
 10
94.96819868827052
 20
-130.0406269119343
 30
0.0
 10
94.96819868827052
 20
-126.5760669128006
 30
0.0
 10
94.96819868827052
 20
-126.5760669128006
 30
0.0
 10
94.96819868827052
 20
-126.5760669128006
 30
0.0
 10
89.96831464916151
 20
-126.5760669128006
 30
0.0
 10
89.96831464916151
 20
-126.5760669128006
 30
0.0
 10
89.96831464916151
 20
-126.5760669128006
 30
0.0
 10
89.96831464916151
 20
-130.0054902452765
 30
0.0
 10
89.96831464916151
 20
-130.0054902452765
 30
0.0
 10
89.98796664416962
 20
-130.0054902452765
 30
0.0
 10
90.00380409270055
 20
-130.0213652452726
 30
0.0
 10
90.00380409270055
 20
-130.0406269119343
 30
0.0
  0
SPLINE
  5
42
330
1F
100
AcDbEntity
  8
_U+30EC_U+30A4_U+30E4_U+30FC 1
 62
   179
420
  2234388
370
     9
100
AcDbSpline
210
0.0
220
0.0
230
1.0
 70
    11
 71
     3
 72
    17
 73
    13
 74
     0
 42
0.0000000001
 43
0.0000000001
 12
1.0
 22
0.0
 32
0.0
 13
1.0
 23
0.0
 33
0.0
 40
0.0
 40
0.0
 40
0.0
 40
0.0
 40
1.0
 40
1.0
 40
1.0
 40
2.0
 40
2.0
 40
2.0
 40
3.0
 40
3.0
 40
3.0
 40
4.0
 40
4.0
 40
4.0
 40
4.0
 10
86.00369442294351
 20
-130.0406269119343
 30
0.0
 10
86.00369442294351
 20
-130.0599238563741
 30
0.0
 10
85.98785252848934
 20
-130.0757988563701
 30
0.0
 10
85.9682380845453
 20
-130.0757988563701
 30
0.0
 10
85.94894114059316
 20
-130.0757988563701
 30
0.0
 10
85.93306614099816
 20
-130.0599238563741
 30
0.0
 10
85.93306614099816
 20
-130.0406269119343
 30
0.0
 10
85.93306614099816
 20
-130.0213652452726
 30
0.0
 10
85.94894114059316
 20
-130.0054902452765
 30
0.0
 10
85.9682380845453
 20
-130.0054902452765
 30
0.0
 10
85.98785252848934
 20
-130.0054902452765
 30
0.0
 10
86.00369442294351
 20
-130.0213652452726
 30
0.0
 10
86.00369442294351
 20
-130.0406269119343
 30
0.0
  0
SPLINE
  5
43
330
1F
100
AcDbEntity
  8
_U+30EC_U+30A4_U+30E4_U+30FC 1
 62
   179
420
  2234388
370
     9
100
AcDbSpline
210
0.0
220
0.0
230
1.0
 70
    11
 71
     3
 72
    17
 73
    13
 74
     0
 42
0.0000000001
 43
0.0000000001
 12
1.0
 22
0.0
 32
0.0
 13
1.0
 23
0.0
 33
0.0
 40
0.0
 40
0.0
 40
0.0
 40
0.0
 40
1.0
 40
1.0
 40
1.0
 40
2.0
 40
2.0
 40
2.0
 40
3.0
 40
3.0
 40
3.0
 40
4.0
 40
4.0
 40
4.0
 40
4.0
 10
86.00369442294351
 20
-126.5409302461425
 30
0.0
 10
86.00369442294351
 20
-126.560227190582
 30
0.0
 10
85.98785252848934
 20
-126.5760669128006
 30
0.0
 10
85.9682380845453
 20
-126.5760669128006
 30
0.0
 10
85.94894114059316
 20
-126.5760669128006
 30
0.0
 10
85.93306614099816
 20
-126.560227190582
 30
0.0
 10
85.93306614099816
 20
-126.5409302461425
 30
0.0
 10
85.93306614099816
 20
-126.5213158017031
 30
0.0
 10
85.94894114059316
 20
-126.505440801707
 30
0.0
 10
85.9682380845453
 20
-126.505440801707
 30
0.0
 10
85.98785252848934
 20
-126.505440801707
 30
0.0
 10
86.00369442294351
 20
-126.5213158017031
 30
0.0
 10
86.00369442294351
 20
-126.5409302461425
 30
0.0
  0
SPLINE
  5
44
330
1F
100
AcDbEntity
  8
_U+30EC_U+30A4_U+30E4_U+30FC 1
 62
   179
420
  2234388
370
     9
100
AcDbSpline
210
0.0
220
0.0
230
1.0
 70
    11
 71
     3
 72
    17
 73
    13
 74
     0
 42
0.0000000001
 43
0.0000000001
 12
1.0
 22
0.0
 32
0.0
 13
1.0
 23
0.0
 33
0.0
 40
0.0
 40
0.0
 40
0.0
 40
0.0
 40
1.0
 40
1.0
 40
1.0
 40
2.0
 40
2.0
 40
2.0
 40
3.0
 40
3.0
 40
3.0
 40
4.0
 40
4.0
 40
4.0
 40
4.0
 10
90.00380409270055
 20
-122.540853580476
 30
0.0
 10
90.00380409270055
 20
-122.5601505249155
 30
0.0
 10
89.98796664416962
 20
-122.5759902471338
 30
0.0
 10
89.96831464916151
 20
-122.5759902471338
 30
0.0
 10
89.94870020521748
 20
-122.5759902471338
 30
0.0
 10
89.93317798339126
 20
-122.5601505249155
 30
0.0
 10
89.93317798339126
 20
-122.540853580476
 30
0.0
 10
89.93317798339126
 20
-122.5212038582588
 30
0.0
 10
89.94870020521748
 20
-122.5053641360402
 30
0.0
 10
89.96831464916151
 20
-122.5053641360402
 30
0.0
 10
89.98796664416962
 20
-122.5053641360402
 30
0.0
 10
90.00380409270055
 20
-122.5212038582588
 30
0.0
 10
90.00380409270055
 20
-122.540853580476
 30
0.0
  0
SPLINE
  5
45
330
1F
100
AcDbEntity
  8
_U+30EC_U+30A4_U+30E4_U+30FC 1
 62
   179
420
  2234388
370
     9
100
AcDbSpline
210
0.0
220
0.0
230
1.0
 70
    11
 71
     3
 72
    17
 73
    13
 74
     0
 42
0.0000000001
 43
0.0000000001
 12
1.0
 22
0.0
 32
0.0
 13
1.0
 23
0.0
 33
0.0
 40
0.0
 40
0.0
 40
0.0
 40
0.0
 40
1.0
 40
1.0
 40
1.0
 40
2.0
 40
2.0
 40
2.0
 40
3.0
 40
3.0
 40
3.0
 40
4.0
 40
4.0
 40
4.0
 40
4.0
 10
95.00368813180955
 20
-122.540853580476
 30
0.0
 10
95.00368813180955
 20
-122.5601505249155
 30
0.0
 10
94.98781313221455
 20
-122.5759902471338
 30
0.0
 10
94.96819868827052
 20
-122.5759902471338
 30
0.0
 10
94.94890174431838
 20
-122.5759902471338
 30
0.0
 10
94.93306202250025
 20
-122.5601505249155
 30
0.0
 10
94.93306202250025
 20
-122.540853580476
 30
0.0
 10
94.93306202250025
 20
-122.5212038582588
 30
0.0
 10
94.94890174431838
 20
-122.5053641360402
 30
0.0
 10
94.96819868827052
 20
-122.5053641360402
 30
0.0
 10
94.98781313221455
 20
-122.5053641360402
 30
0.0
 10
95.00368813180955
 20
-122.5212038582588
 30
0.0
 10
95.00368813180955
 20
-122.540853580476
 30
0.0
  0
SPLINE
  5
46
330
1F
100
AcDbEntity
  8
_U+30EC_U+30A4_U+30E4_U+30FC 1
 62
   179
420
  2234388
370
     9
100
AcDbSpline
210
0.0
220
0.0
230
1.0
 70
    11
 71
     3
 72
    17
 73
    13
 74
     0
 42
0.0000000001
 43
0.0000000001
 12
1.0
 22
0.0
 32
0.0
 13
1.0
 23
0.0
 33
0.0
 40
0.0
 40
0.0
 40
0.0
 40
0.0
 40
1.0
 40
1.0
 40
1.0
 40
2.0
 40
2.0
 40
2.0
 40
3.0
 40
3.0
 40
3.0
 40
4.0
 40
4.0
 40
4.0
 40
4.0
 10
99.00376469642576
 20
-126.5409302461425
 30
0.0
 10
99.00376469642576
 20
-126.560227190582
 30
0.0
 10
98.98792497460764
 20
-126.5760669128006
 30
0.0
 10
98.96863053081314
 20
-126.5760669128006
 30
0.0
 10
98.94866080894269
 20
-126.5760669128006
 30
0.0
 10
98.93313858711647
 20
-126.560227190582
 30
0.0
 10
98.93313858711647
 20
-126.5409302461425
 30
0.0
 10
98.93313858711647
 20
-126.5213158017031
 30
0.0
 10
98.94866080894269
 20
-126.505440801707
 30
0.0
 10
98.96863053081314
 20
-126.505440801707
 30
0.0
 10
98.98792497460764
 20
-126.505440801707
 30
0.0
 10
99.00376469642576
 20
-126.5213158017031
 30
0.0
 10
99.00376469642576
 20
-126.5409302461425
 30
0.0
  0
SPLINE
  5
47
330
1F
100
AcDbEntity
  8
_U+30EC_U+30A4_U+30E4_U+30FC 1
 62
   179
420
  2234388
370
     9
100
AcDbSpline
210
0.0
220
0.0
230
1.0
 70
    11
 71
     3
 72
    17
 73
    13
 74
     0
 42
0.0000000001
 43
0.0000000001
 12
1.0
 22
0.0
 32
0.0
 13
1.0
 23
0.0
 33
0.0
 40
0.0
 40
0.0
 40
0.0
 40
0.0
 40
1.0
 40
1.0
 40
1.0
 40
2.0
 40
2.0
 40
2.0
 40
3.0
 40
3.0
 40
3.0
 40
4.0
 40
4.0
 40
4.0
 40
4.0
 10
99.00376469642576
 20
-138.5410544098091
 30
0.0
 10
99.00376469642576
 20
-138.5603513542489
 30
0.0
 10
98.98792497460764
 20
-138.576226354245
 30
0.0
 10
98.96863053081314
 20
-138.576226354245
 30
0.0
 10
98.94866080894269
 20
-138.576226354245
 30
0.0
 10
98.93313858711647
 20
-138.5603513542489
 30
0.0
 10
98.93313858711647
 20
-138.5410544098091
 30
0.0
 10
98.93313858711647
 20
-138.5210871875919
 30
0.0
 10
98.94866080894269
 20
-138.505247465374
 30
0.0
 10
98.96863053081314
 20
-138.505247465374
 30
0.0
 10
98.98792497460764
 20
-138.505247465374
 30
0.0
 10
99.00376469642576
 20
-138.5210871875919
 30
0.0
 10
99.00376469642576
 20
-138.5410544098091
 30
0.0
  0
POLYLINE
  5
48
330
1F
100
AcDbEntity
  8
_U+30EC_U+30A4_U+30E4_U+30FC 1
 62
   179
420
  2234388
370
    25
100
AcDb2dPolyline
 66
     1
 10
0.0
 20
0.0
 30
0.0
  0
VERTEX
  5
49
330
48
100
AcDbEntity
  8
_U+30EC_U+30A4_U+30E4_U+30FC 1
 62
   179
420
  2234388
370
    25
100
AcDbVertex
100
AcDb2dVertex
 10
90.46820074751948
 20
-138.5410544098091
 30
0.0
  0
VERTEX
  5
4A
330
48
100
AcDbEntity
  8
_U+30EC_U+30A4_U+30E4_U+30FC 1
 62
   179
420
  2234388
370
    25
100
AcDbVertex
100
AcDb2dVertex
 10
94.46866536768134
 20
-138.5410544098091
 30
0.0
  0
SEQEND
  5
4B
330
48
100
AcDbEntity
  8
_U+30EC_U+30A4_U+30E4_U+30FC 1
 62
   179
420
  2234388
370
    25
  0
POLYLINE
  5
4C
330
1F
100
AcDbEntity
  8
_U+30EC_U+30A4_U+30E4_U+30FC 1
 62
   179
420
  2234388
370
    25
100
AcDb2dPolyline
 66
     1
 10
0.0
 20
0.0
 30
0.0
  0
VERTEX
  5
4D
330
4C
100
AcDbEntity
  8
_U+30EC_U+30A4_U+30E4_U+30FC 1
 62
   179
420
  2234388
370
    25
100
AcDbVertex
100
AcDb2dVertex
 10
89.96831464916151
 20
-126.5409302461425
 30
0.0
  0
VERTEX
  5
4E
330
4C
100
AcDbEntity
  8
_U+30EC_U+30A4_U+30E4_U+30FC 1
 62
   179
420
  2234388
370
    25
100
AcDbVertex
100
AcDb2dVertex
 10
94.96819868827052
 20
-126.5409302461425
 30
0.0
  0
SEQEND
  5
4F
330
4C
100
AcDbEntity
  8
_U+30EC_U+30A4_U+30E4_U+30FC 1
 62
   179
420
  2234388
370
    25
  0
POLYLINE
  5
50
330
1F
100
AcDbEntity
  8
_U+30EC_U+30A4_U+30E4_U+30FC 1
 62
   179
420
  2234388
370
    25
100
AcDb2dPolyline
 66
     1
 10
0.0
 20
0.0
 30
0.0
  0
VERTEX
  5
51
330
50
100
AcDbEntity
  8
_U+30EC_U+30A4_U+30E4_U+30FC 1
 62
   179
420
  2234388
370
    25
100
AcDbVertex
100
AcDb2dVertex
 10
90.46820074751948
 20
-137.5406119100592
 30
0.0
  0
VERTEX
  5
52
330
50
100
AcDbEntity
  8
_U+30EC_U+30A4_U+30E4_U+30FC 1
 62
   179
420
  2234388
370
    25
100
AcDbVertex
100
AcDb2dVertex
 10
91.46832572200415
 20
-137.5406119100592
 30
0.0
  0
SEQEND
  5
53
330
50
100
AcDbEntity
  8
_U+30EC_U+30A4_U+30E4_U+30FC 1
 62
   179
420
  2234388
370
    25
  0
POLYLINE
  5
54
330
1F
100
AcDbEntity
  8
_U+30EC_U+30A4_U+30E4_U+30FC 1
 62
   179
420
  2234388
370
    25
100
AcDb2dPolyline
 66
     1
 10
0.0
 20
0.0
 30
0.0
  0
VERTEX
  5
55
330
54
100
AcDbEntity
  8
_U+30EC_U+30A4_U+30E4_U+30FC 1
 62
   179
420
  2234388
370
    25
100
AcDbVertex
100
AcDb2dVertex
 10
94.46866536768134
 20
-137.5406119100592
 30
0.0
  0
VERTEX
  5
56
330
54
100
AcDbEntity
  8
_U+30EC_U+30A4_U+30E4_U+30FC 1
 62
   179
420
  2234388
370
    25
100
AcDbVertex
100
AcDb2dVertex
 10
94.46866536768134
 20
-138.5410544098091
 30
0.0
  0
SEQEND
  5
57
330
54
100
AcDbEntity
  8
_U+30EC_U+30A4_U+30E4_U+30FC 1
 62
   179
420
  2234388
370
    25
  0
POLYLINE
  5
58
330
1F
100
AcDbEntity
  8
_U+30EC_U+30A4_U+30E4_U+30FC 1
 62
   179
420
  2234388
370
    25
100
AcDb2dPolyline
 66
     1
 10
0.0
 20
0.0
 30
0.0
  0
VERTEX
  5
59
330
58
100
AcDbEntity
  8
_U+30EC_U+30A4_U+30E4_U+30FC 1
 62
   179
420
  2234388
370
    25
100
AcDbVertex
100
AcDb2dVertex
 10
90.46820074751948
 20
-137.5406119100592
 30
0.0
  0
VERTEX
  5
5A
330
58
100
AcDbEntity
  8
_U+30EC_U+30A4_U+30E4_U+30FC 1
 62
   179
420
  2234388
370
    25
100
AcDbVertex
100
AcDb2dVertex
 10
90.46820074751948
 20
-138.5410544098091
 30
0.0
  0
SEQEND
  5
5B
330
58
100
AcDbEntity
  8
_U+30EC_U+30A4_U+30E4_U+30FC 1
 62
   179
420
  2234388
370
    25
  0
POLYLINE
  5
5C
330
1F
100
AcDbEntity
  8
_U+30EC_U+30A4_U+30E4_U+30FC 1
 62
   179
420
  2234388
370
    25
100
AcDb2dPolyline
 66
     1
 10
0.0
 20
0.0
 30
0.0
  0
VERTEX
  5
5D
330
5C
100
AcDbEntity
  8
_U+30EC_U+30A4_U+30E4_U+30FC 1
 62
   179
420
  2234388
370
    25
100
AcDbVertex
100
AcDb2dVertex
 10
93.46818761542788
 20
-130.0406269119343
 30
0.0
  0
VERTEX
  5
5E
330
5C
100
AcDbEntity
  8
_U+30EC_U+30A4_U+30E4_U+30FC 1
 62
   179
420
  2234388
370
    25
100
AcDbVertex
100
AcDb2dVertex
 10
93.46818761542788
 20
-137.5406119100592
 30
0.0
  0
SEQEND
  5
5F
330
5C
100
AcDbEntity
  8
_U+30EC_U+30A4_U+30E4_U+30FC 1
 62
   179
420
  2234388
370
    25
  0
POLYLINE
  5
60
330
1F
100
AcDbEntity
  8
_U+30EC_U+30A4_U+30E4_U+30FC 1
 62
   179
420
  2234388
370
    25
100
AcDb2dPolyline
 66
     1
 10
0.0
 20
0.0
 30
0.0
  0
VERTEX
  5
61
330
60
100
AcDbEntity
  8
_U+30EC_U+30A4_U+30E4_U+30FC 1
 62
   179
420
  2234388
370
    25
100
AcDbVertex
100
AcDb2dVertex
 10
91.46832572200415
 20
-130.0406269119343
 30
0.0
  0
VERTEX
  5
62
330
60
100
AcDbEntity
  8
_U+30EC_U+30A4_U+30E4_U+30FC 1
 62
   179
420
  2234388
370
    25
100
AcDbVertex
100
AcDb2dVertex
 10
91.46832572200415
 20
-137.5406119100592
 30
0.0
  0
SEQEND
  5
63
330
60
100
AcDbEntity
  8
_U+30EC_U+30A4_U+30E4_U+30FC 1
 62
   179
420
  2234388
370
    25
  0
POLYLINE
  5
64
330
1F
100
AcDbEntity
  8
_U+30EC_U+30A4_U+30E4_U+30FC 1
 62
   179
420
  2234388
370
    25
100
AcDb2dPolyline
 66
     1
 10
0.0
 20
0.0
 30
0.0
  0
VERTEX
  5
65
330
64
100
AcDbEntity
  8
_U+30EC_U+30A4_U+30E4_U+30FC 1
 62
   179
420
  2234388
370
    25
100
AcDbVertex
100
AcDb2dVertex
 10
89.96831464916151
 20
-130.0406269119343
 30
0.0
  0
VERTEX
  5
66
330
64
100
AcDbEntity
  8
_U+30EC_U+30A4_U+30E4_U+30FC 1
 62
   179
420
  2234388
370
    25
100
AcDbVertex
100
AcDb2dVertex
 10
91.46832572200415
 20
-130.0406269119343
 30
0.0
  0
SEQEND
  5
67
330
64
100
AcDbEntity
  8
_U+30EC_U+30A4_U+30E4_U+30FC 1
 62
   179
420
  2234388
370
    25
  0
POLYLINE
  5
68
330
1F
100
AcDbEntity
  8
_U+30EC_U+30A4_U+30E4_U+30FC 1
 62
   179
420
  2234388
370
    25
100
AcDb2dPolyline
 66
     1
 10
0.0
 20
0.0
 30
0.0
  0
VERTEX
  5
69
330
68
100
AcDbEntity
  8
_U+30EC_U+30A4_U+30E4_U+30FC 1
 62
   179
420
  2234388
370
    25
100
AcDbVertex
100
AcDb2dVertex
 10
93.46818761542788
 20
-130.0406269119343
 30
0.0
  0
VERTEX
  5
6A
330
68
100
AcDbEntity
  8
_U+30EC_U+30A4_U+30E4_U+30FC 1
 62
   179
420
  2234388
370
    25
100
AcDbVertex
100
AcDb2dVertex
 10
94.96819868827052
 20
-130.0406269119343
 30
0.0
  0
SEQEND
  5
6B
330
68
100
AcDbEntity
  8
_U+30EC_U+30A4_U+30E4_U+30FC 1
 62
   179
420
  2234388
370
    25
  0
POLYLINE
  5
6C
330
1F
100
AcDbEntity
  8
_U+30EC_U+30A4_U+30E4_U+30FC 1
 62
   179
420
  2234388
370
    25
100
AcDb2dPolyline
 66
     1
 10
0.0
 20
0.0
 30
0.0
  0
VERTEX
  5
6D
330
6C
100
AcDbEntity
  8
_U+30EC_U+30A4_U+30E4_U+30FC 1
 62
   179
420
  2234388
370
    25
100
AcDbVertex
100
AcDb2dVertex
 10
94.96819868827052
 20
-126.5409302461425
 30
0.0
  0
VERTEX
  5
6E
330
6C
100
AcDbEntity
  8
_U+30EC_U+30A4_U+30E4_U+30FC 1
 62
   179
420
  2234388
370
    25
100
AcDbVertex
100
AcDb2dVertex
 10
94.96819868827052
 20
-130.0406269119343
 30
0.0
  0
SEQEND
  5
6F
330
6C
100
AcDbEntity
  8
_U+30EC_U+30A4_U+30E4_U+30FC 1
 62
   179
420
  2234388
370
    25
  0
POLYLINE
  5
70
330
1F
100
AcDbEntity
  8
_U+30EC_U+30A4_U+30E4_U+30FC 1
 62
   179
420
  2234388
370
    25
100
AcDb2dPolyline
 66
     1
 10
0.0
 20
0.0
 30
0.0
  0
VERTEX
  5
71
330
70
100
AcDbEntity
  8
_U+30EC_U+30A4_U+30E4_U+30FC 1
 62
   179
420
  2234388
370
    25
100
AcDbVertex
100
AcDb2dVertex
 10
89.96831464916151
 20
-126.5409302461425
 30
0.0
  0
VERTEX
  5
72
330
70
100
AcDbEntity
  8
_U+30EC_U+30A4_U+30E4_U+30FC 1
 62
   179
420
  2234388
370
    25
100
AcDbVertex
100
AcDb2dVertex
 10
89.96831464916151
 20
-130.0406269119343
 30
0.0
  0
SEQEND
  5
73
330
70
100
AcDbEntity
  8
_U+30EC_U+30A4_U+30E4_U+30FC 1
 62
   179
420
  2234388
370
    25
  0
POLYLINE
  5
74
330
1F
100
AcDbEntity
  8
_U+30EC_U+30A4_U+30E4_U+30FC 1
 62
   179
420
  2234388
370
    25
100
AcDb2dPolyline
 66
     1
 10
0.0
 20
0.0
 30
0.0
  0
VERTEX
  5
75
330
74
100
AcDbEntity
  8
_U+30EC_U+30A4_U+30E4_U+30FC 1
 62
   179
420
  2234388
370
    25
100
AcDbVertex
100
AcDb2dVertex
 10
93.46818761542788
 20
-137.5406119100592
 30
0.0
  0
VERTEX
  5
76
330
74
100
AcDbEntity
  8
_U+30EC_U+30A4_U+30E4_U+30FC 1
 62
   179
420
  2234388
370
    25
100
AcDbVertex
100
AcDb2dVertex
 10
94.46866536768134
 20
-137.5406119100592
 30
0.0
  0
SEQEND
  5
77
330
74
100
AcDbEntity
  8
_U+30EC_U+30A4_U+30E4_U+30FC 1
 62
   179
420
  2234388
370
    25
  0
SPLINE
  5
78
330
1F
100
AcDbEntity
  8
_U+30EC_U+30A4_U+30E4_U+30FC 1
 62
   179
420
  2234388
370
     9
100
AcDbSpline
210
0.0
220
0.0
230
1.0
 70
    11
 71
     3
 72
    17
 73
    13
 74
     0
 42
0.0000000001
 43
0.0000000001
 12
1.0
 22
0.0
 32
0.0
 13
1.0
 23
0.0
 33
0.0
 40
0.0
 40
0.0
 40
0.0
 40
0.0
 40
1.0
 40
1.0
 40
1.0
 40
2.0
 40
2.0
 40
2.0
 40
3.0
 40
3.0
 40
3.0
 40
4.0
 40
4.0
 40
4.0
 40
4.0
 10
99.06853469477333
 20
-126.5409302461425
 30
0.0
 10
99.06853469477333
 20
-126.4854735794898
 30
0.0
 10
99.02376719591545
 20
-126.440706079501
 30
0.0
 10
98.96863053081314
 20
-126.440706079501
 30
0.0
 10
98.91317136540366
 20
-126.440706079501
 30
0.0
 10
98.86836858876889
 20
-126.4854735794898
 30
0.0
 10
98.86836858876889
 20
-126.5409302461425
 30
0.0
 10
98.86836858876889
 20
-126.5960694127953
 30
0.0
 10
98.91317136540366
 20
-126.6408369127842
 30
0.0
 10
98.96863053081314
 20
-126.6408369127842
 30
0.0
 10
99.02376719591545
 20
-126.6408369127842
 30
0.0
 10
99.06853469477333
 20
-126.5960694127953
 30
0.0
 10
99.06853469477333
 20
-126.5409302461425
 30
0.0
  0
SPLINE
  5
79
330
1F
100
AcDbEntity
  8
_U+30EC_U+30A4_U+30E4_U+30FC 1
 62
   179
420
  2234388
370
     9
100
AcDbSpline
210
0.0
220
0.0
230
1.0
 70
    11
 71
     3
 72
    17
 73
    13
 74
     0
 42
0.0000000001
 43
0.0000000001
 12
1.0
 22
0.0
 32
0.0
 13
1.0
 23
0.0
 33
0.0
 40
0.0
 40
0.0
 40
0.0
 40
0.0
 40
1.0
 40
1.0
 40
1.0
 40
2.0
 40
2.0
 40
2.0
 40
3.0
 40
3.0
 40
3.0
 40
4.0
 40
4.0
 40
4.0
 40
4.0
 10
99.06853469477333
 20
-138.5410544098091
 30
0.0
 10
99.06853469477333
 20
-138.4852449653787
 30
0.0
 10
99.02376719591545
 20
-138.4404774653901
 30
0.0
 10
98.96863053081314
 20
-138.4404774653901
 30
0.0
 10
98.91317136540366
 20
-138.4404774653901
 30
0.0
 10
98.86836858876889
 20
-138.4852449653787
 30
0.0
 10
98.86836858876889
 20
-138.5410544098091
 30
0.0
 10
98.86836858876889
 20
-138.5961935764622
 30
0.0
 10
98.91317136540366
 20
-138.6409610764507
 30
0.0
 10
98.96863053081314
 20
-138.6409610764507
 30
0.0
 10
99.02376719591545
 20
-138.6409610764507
 30
0.0
 10
99.06853469477333
 20
-138.5961935764622
 30
0.0
 10
99.06853469477333
 20
-138.5410544098091
 30
0.0
  0
SPLINE
  5
7A
330
1F
100
AcDbEntity
  8
_U+30EC_U+30A4_U+30E4_U+30FC 1
 62
   179
420
  2234388
370
     9
100
AcDbSpline
210
0.0
220
0.0
230
1.0
 70
    11
 71
     3
 72
    17
 73
    13
 74
     0
 42
0.0000000001
 43
0.0000000001
 12
1.0
 22
0.0
 32
0.0
 13
1.0
 23
0.0
 33
0.0
 40
0.0
 40
0.0
 40
0.0
 40
0.0
 40
1.0
 40
1.0
 40
1.0
 40
2.0
 40
2.0
 40
2.0
 40
3.0
 40
3.0
 40
3.0
 40
4.0
 40
4.0
 40
4.0
 40
4.0
 10
95.06845813015713
 20
-122.540853580476
 30
0.0
 10
95.06845813015713
 20
-122.4853616360452
 30
0.0
 10
95.02365535352236
 20
-122.4409469138341
 30
0.0
 10
94.96819868827052
 20
-122.4409469138341
 30
0.0
 10
94.91305952301056
 20
-122.4409469138341
 30
0.0
 10
94.86829442072725
 20
-122.4853616360452
 30
0.0
 10
94.86829442072725
 20
-122.540853580476
 30
0.0
 10
94.86829442072725
 20
-122.5959574693509
 30
0.0
 10
94.91305952301056
 20
-122.6407602471177
 30
0.0
 10
94.96819868827052
 20
-122.6407602471177
 30
0.0
 10
95.02365535352236
 20
-122.6407602471177
 30
0.0
 10
95.06845813015713
 20
-122.5959574693509
 30
0.0
 10
95.06845813015713
 20
-122.540853580476
 30
0.0
  0
SPLINE
  5
7B
330
1F
100
AcDbEntity
  8
_U+30EC_U+30A4_U+30E4_U+30FC 1
 62
   179
420
  2234388
370
     9
100
AcDbSpline
210
0.0
220
0.0
230
1.0
 70
    11
 71
     3
 72
    17
 73
    13
 74
     0
 42
0.0000000001
 43
0.0000000001
 12
1.0
 22
0.0
 32
0.0
 13
1.0
 23
0.0
 33
0.0
 40
0.0
 40
0.0
 40
0.0
 40
0.0
 40
1.0
 40
1.0
 40
1.0
 40
2.0
 40
2.0
 40
2.0
 40
3.0
 40
3.0
 40
3.0
 40
4.0
 40
4.0
 40
4.0
 40
4.0
 10
90.06857409104813
 20
-122.540853580476
 30
0.0
 10
90.06857409104813
 20
-122.4853616360452
 30
0.0
 10
90.02377131441337
 20
-122.4409469138341
 30
0.0
 10
89.96831464916151
 20
-122.4409469138341
 30
0.0
 10
89.91321076167844
 20
-122.4409469138341
 30
0.0
 10
89.86840798504367
 20
-122.4853616360452
 30
0.0
 10
89.86840798504367
 20
-122.540853580476
 30
0.0
 10
89.86840798504367
 20
-122.5959574693509
 30
0.0
 10
89.91321076167844
 20
-122.6407602471177
 30
0.0
 10
89.96831464916151
 20
-122.6407602471177
 30
0.0
 10
90.02377131441337
 20
-122.6407602471177
 30
0.0
 10
90.06857409104813
 20
-122.5959574693509
 30
0.0
 10
90.06857409104813
 20
-122.540853580476
 30
0.0
  0
SPLINE
  5
7C
330
1F
100
AcDbEntity
  8
_U+30EC_U+30A4_U+30E4_U+30FC 1
 62
   179
420
  2234388
370
     9
100
AcDbSpline
210
0.0
220
0.0
230
1.0
 70
    11
 71
     3
 72
    17
 73
    13
 74
     0
 42
0.0000000001
 43
0.0000000001
 12
1.0
 22
0.0
 32
0.0
 13
1.0
 23
0.0
 33
0.0
 40
0.0
 40
0.0
 40
0.0
 40
0.0
 40
1.0
 40
1.0
 40
1.0
 40
2.0
 40
2.0
 40
2.0
 40
3.0
 40
3.0
 40
3.0
 40
4.0
 40
4.0
 40
4.0
 40
4.0
 10
86.06846224865504
 20
-130.0406269119343
 30
0.0
 10
86.06846224865504
 20
-129.9855230230593
 30
0.0
 10
86.02369474979716
 20
-129.9407202452926
 30
0.0
 10
85.9682380845453
 20
-129.9407202452926
 30
0.0
 10
85.91309891928536
 20
-129.9407202452926
 30
0.0
 10
85.86833142042747
 20
-129.9855230230593
 30
0.0
 10
85.86833142042747
 20
-130.0406269119343
 30
0.0
 10
85.86833142042747
 20
-130.0957660785873
 30
0.0
 10
85.91309891928536
 20
-130.1405335785759
 30
0.0
 10
85.9682380845453
 20
-130.1405335785759
 30
0.0
 10
86.02369474979716
 20
-130.1405335785759
 30
0.0
 10
86.06846224865504
 20
-130.0957660785873
 30
0.0
 10
86.06846224865504
 20
-130.0406269119343
 30
0.0
  0
SPLINE
  5
7D
330
1F
100
AcDbEntity
  8
_U+30EC_U+30A4_U+30E4_U+30FC 1
 62
   179
420
  2234388
370
     9
100
AcDbSpline
210
0.0
220
0.0
230
1.0
 70
    11
 71
     3
 72
    17
 73
    13
 74
     0
 42
0.0000000001
 43
0.0000000001
 12
1.0
 22
0.0
 32
0.0
 13
1.0
 23
0.0
 33
0.0
 40
0.0
 40
0.0
 40
0.0
 40
0.0
 40
1.0
 40
1.0
 40
1.0
 40
2.0
 40
2.0
 40
2.0
 40
3.0
 40
3.0
 40
3.0
 40
4.0
 40
4.0
 40
4.0
 40
4.0
 10
86.06846224865504
 20
-126.5409302461425
 30
0.0
 10
86.06846224865504
 20
-126.4854735794898
 30
0.0
 10
86.02369474979716
 20
-126.440706079501
 30
0.0
 10
85.9682380845453
 20
-126.440706079501
 30
0.0
 10
85.91309891928536
 20
-126.440706079501
 30
0.0
 10
85.86833142042747
 20
-126.4854735794898
 30
0.0
 10
85.86833142042747
 20
-126.5409302461425
 30
0.0
 10
85.86833142042747
 20
-126.5960694127953
 30
0.0
 10
85.91309891928536
 20
-126.6408369127842
 30
0.0
 10
85.9682380845453
 20
-126.6408369127842
 30
0.0
 10
86.02369474979716
 20
-126.6408369127842
 30
0.0
 10
86.06846224865504
 20
-126.5960694127953
 30
0.0
 10
86.06846224865504
 20
-126.5409302461425
 30
0.0
  0
POLYLINE
  5
7E
330
1F
100
AcDbEntity
  8
_U+30EC_U+30A4_U+30E4_U+30FC 1
 62
   179
420
  2234388
370
     9
100
AcDb2dPolyline
 66
     1
 10
0.0
 20
0.0
 30
0.0
  0
VERTEX
  5
7F
330
7E
100
AcDbEntity
  8
_U+30EC_U+30A4_U+30E4_U+30FC 1
 62
   179
420
  2234388
370
     9
100
AcDbVertex
100
AcDb2dVertex
 10
98.96863053081314
 20
-126.5409302461425
 30
0.0
  0
VERTEX
  5
80
330
7E
100
AcDbEntity
  8
_U+30EC_U+30A4_U+30E4_U+30FC 1
 62
   179
420
  2234388
370
     9
100
AcDbVertex
100
AcDb2dVertex
 10
98.96863053081314
 20
-138.5410544098091
 30
0.0
  0
SEQEND
  5
81
330
7E
100
AcDbEntity
  8
_U+30EC_U+30A4_U+30E4_U+30FC 1
 62
   179
420
  2234388
370
     9
  0
POLYLINE
  5
82
330
1F
100
AcDbEntity
  8
_U+30EC_U+30A4_U+30E4_U+30FC 1
 62
   179
420
  2234388
370
     9
100
AcDb2dPolyline
 66
     1
 10
0.0
 20
0.0
 30
0.0
  0
VERTEX
  5
83
330
82
100
AcDbEntity
  8
_U+30EC_U+30A4_U+30E4_U+30FC 1
 62
   179
420
  2234388
370
     9
100
AcDbVertex
100
AcDb2dVertex
 10
97.50858667901537
 20
-126.5409302461425
 30
0.0
  0
VERTEX
  5
84
330
82
100
AcDbEntity
  8
_U+30EC_U+30A4_U+30E4_U+30FC 1
 62
   179
420
  2234388
370
     9
100
AcDbVertex
100
AcDb2dVertex
 10
99.96840275278568
 20
-126.5409302461425
 30
0.0
  0
SEQEND
  5
85
330
82
100
AcDbEntity
  8
_U+30EC_U+30A4_U+30E4_U+30FC 1
 62
   179
420
  2234388
370
     9
  0
POLYLINE
  5
86
330
1F
100
AcDbEntity
  8
_U+30EC_U+30A4_U+30E4_U+30FC 1
 62
   179
420
  2234388
370
     9
100
AcDb2dPolyline
 66
     1
 10
0.0
 20
0.0
 30
0.0
  0
VERTEX
  5
87
330
86
100
AcDbEntity
  8
_U+30EC_U+30A4_U+30E4_U+30FC 1
 62
   179
420
  2234388
370
     9
100
AcDbVertex
100
AcDb2dVertex
 10
97.00838308066552
 20
-138.5410544098091
 30
0.0
  0
VERTEX
  5
88
330
86
100
AcDbEntity
  8
_U+30EC_U+30A4_U+30E4_U+30FC 1
 62
   179
420
  2234388
370
     9
100
AcDbVertex
100
AcDb2dVertex
 10
99.96840275278568
 20
-138.5410544098091
 30
0.0
  0
SEQEND
  5
89
330
86
100
AcDbEntity
  8
_U+30EC_U+30A4_U+30E4_U+30FC 1
 62
   179
420
  2234388
370
     9
  0
INSERT
  5
8B
330
1F
100
AcDbEntity
  8
_U+30EC_U+30A4_U+30E4_U+30FC 1
100
AcDbBlockReference
  2
block 2
 10
0.0
 20
0.0
 30
0.0
  0
SPLINE
  5
92
330
1F
100
AcDbEntity
  8
_U+30EC_U+30A4_U+30E4_U+30FC 1
 62
   179
420
  2234388
370
    25
100
AcDbSpline
210
0.0
220
0.0
230
1.0
 70
    11
 71
     3
 72
    17
 73
    13
 74
     0
 42
0.0000000001
 43
0.0000000001
 12
1.0
 22
0.0
 32
0.0
 13
1.0
 23
0.0
 33
0.0
 40
0.0
 40
0.0
 40
0.0
 40
0.0
 40
1.0
 40
1.0
 40
1.0
 40
2.0
 40
2.0
 40
2.0
 40
3.0
 40
3.0
 40
3.0
 40
4.0
 40
4.0
 40
4.0
 40
4.0
 10
95.00368813180955
 20
-126.5409302461425
 30
0.0
 10
95.00368813180955
 20
-126.560227190582
 30
0.0
 10
94.98781313221455
 20
-126.5760669128006
 30
0.0
 10
94.96819868827052
 20
-126.5760669128006
 30
0.0
 10
94.94890174431838
 20
-126.5760669128006
 30
0.0
 10
94.93306202250025
 20
-126.560227190582
 30
0.0
 10
94.93306202250025
 20
-126.5409302461425
 30
0.0
 10
94.93306202250025
 20
-126.5213158017031
 30
0.0
 10
94.94890174431838
 20
-126.505440801707
 30
0.0
 10
94.96819868827052
 20
-126.505440801707
 30
0.0
 10
94.98781313221455
 20
-126.505440801707
 30
0.0
 10
95.00368813180955
 20
-126.5213158017031
 30
0.0
 10
95.00368813180955
 20
-126.5409302461425
 30
0.0
  0
SPLINE
  5
93
330
1F
100
AcDbEntity
  8
_U+30EC_U+30A4_U+30E4_U+30FC 1
 62
   179
420
  2234388
370
    25
100
AcDbSpline
210
0.0
220
0.0
230
1.0
 70
    11
 71
     3
 72
    17
 73
    13
 74
     0
 42
0.0000000001
 43
0.0000000001
 12
1.0
 22
0.0
 32
0.0
 13
1.0
 23
0.0
 33
0.0
 40
0.0
 40
0.0
 40
0.0
 40
0.0
 40
1.0
 40
1.0
 40
1.0
 40
2.0
 40
2.0
 40
2.0
 40
3.0
 40
3.0
 40
3.0
 40
4.0
 40
4.0
 40
4.0
 40
4.0
 10
94.50380203345159
 20
-138.5410544098091
 30
0.0
 10
94.50380203345159
 20
-138.5603513542489
 30
0.0
 10
94.4879270338566
 20
-138.576226354245
 30
0.0
 10
94.46866536768134
 20
-138.576226354245
 30
0.0
 10
94.44866286819165
 20
-138.576226354245
 30
0.0
 10
94.4331759241423
 20
-138.5603513542489
 30
0.0
 10
94.4331759241423
 20
-138.5410544098091
 30
0.0
 10
94.4331759241423
 20
-138.5210871875919
 30
0.0
 10
94.44866286819165
 20
-138.505247465374
 30
0.0
 10
94.46866536768134
 20
-138.505247465374
 30
0.0
 10
94.4879270338566
 20
-138.505247465374
 30
0.0
 10
94.50380203345159
 20
-138.5210871875919
 30
0.0
 10
94.50380203345159
 20
-138.5410544098091
 30
0.0
  0
SPLINE
  5
94
330
1F
100
AcDbEntity
  8
_U+30EC_U+30A4_U+30E4_U+30FC 1
 62
   179
420
  2234388
370
     9
100
AcDbSpline
210
0.0
220
0.0
230
1.0
 70
    11
 71
     3
 72
    17
 73
    13
 74
     0
 42
0.0000000001
 43
0.0000000001
 12
1.0
 22
0.0
 32
0.0
 13
1.0
 23
0.0
 33
0.0
 40
0.0
 40
0.0
 40
0.0
 40
0.0
 40
1.0
 40
1.0
 40
1.0
 40
2.0
 40
2.0
 40
2.0
 40
3.0
 40
3.0
 40
3.0
 40
4.0
 40
4.0
 40
4.0
 40
4.0
 10
99.00376469642576
 20
-138.5410544098091
 30
0.0
 10
99.00376469642576
 20
-138.5603513542489
 30
0.0
 10
98.98792497460764
 20
-138.576226354245
 30
0.0
 10
98.96863053081314
 20
-138.576226354245
 30
0.0
 10
98.94866080894269
 20
-138.576226354245
 30
0.0
 10
98.93313858711647
 20
-138.5603513542489
 30
0.0
 10
98.93313858711647
 20
-138.5410544098091
 30
0.0
 10
98.93313858711647
 20
-138.5210871875919
 30
0.0
 10
98.94866080894269
 20
-138.505247465374
 30
0.0
 10
98.96863053081314
 20
-138.505247465374
 30
0.0
 10
98.98792497460764
 20
-138.505247465374
 30
0.0
 10
99.00376469642576
 20
-138.5210871875919
 30
0.0
 10
99.00376469642576
 20
-138.5410544098091
 30
0.0
  0
POLYLINE
  5
95
330
1F
100
AcDbEntity
  8
_U+30EC_U+30A4_U+30E4_U+30FC 1
 62
   179
420
  2234388
370
     9
100
AcDb2dPolyline
 66
     1
 10
0.0
 20
0.0
 30
0.0
  0
VERTEX
  5
96
330
95
100
AcDbEntity
  8
_U+30EC_U+30A4_U+30E4_U+30FC 1
 62
   179
420
  2234388
370
     9
100
AcDbVertex
100
AcDb2dVertex
 10
89.96831464916151
 20
-122.540853580476
 30
0.0
  0
VERTEX
  5
97
330
95
100
AcDbEntity
  8
_U+30EC_U+30A4_U+30E4_U+30FC 1
 62
   179
420
  2234388
370
     9
100
AcDbVertex
100
AcDb2dVertex
 10
94.96819868827052
 20
-122.540853580476
 30
0.0
  0
SEQEND
  5
98
330
95
100
AcDbEntity
  8
_U+30EC_U+30A4_U+30E4_U+30FC 1
 62
   179
420
  2234388
370
     9
  0
POLYLINE
  5
99
330
1F
100
AcDbEntity
  8
_U+30EC_U+30A4_U+30E4_U+30FC 1
 62
   179
420
  2234388
370
     9
100
AcDb2dPolyline
 66
     1
 10
0.0
 20
0.0
 30
0.0
  0
VERTEX
  5
9A
330
99
100
AcDbEntity
  8
_U+30EC_U+30A4_U+30E4_U+30FC 1
 62
   179
420
  2234388
370
     9
100
AcDbVertex
100
AcDb2dVertex
 10
89.96831464916151
 20
-124.0008596912219
 30
0.0
  0
VERTEX
  5
9B
330
99
100
AcDbEntity
  8
_U+30EC_U+30A4_U+30E4_U+30FC 1
 62
   179
420
  2234388
370
     9
100
AcDbVertex
100
AcDb2dVertex
 10
89.96831464916151
 20
-121.5407285807261
 30
0.0
  0
SEQEND
  5
9C
330
99
100
AcDbEntity
  8
_U+30EC_U+30A4_U+30E4_U+30FC 1
 62
   179
420
  2234388
370
     9
  0
POLYLINE
  5
9D
330
1F
100
AcDbEntity
  8
_U+30EC_U+30A4_U+30E4_U+30FC 1
 62
   179
420
  2234388
370
     9
100
AcDb2dPolyline
 66
     1
 10
0.0
 20
0.0
 30
0.0
  0
VERTEX
  5
9E
330
9D
100
AcDbEntity
  8
_U+30EC_U+30A4_U+30E4_U+30FC 1
 62
   179
420
  2234388
370
     9
100
AcDbVertex
100
AcDb2dVertex
 10
94.96819868827052
 20
-124.0008596912219
 30
0.0
  0
VERTEX
  5
9F
330
9D
100
AcDbEntity
  8
_U+30EC_U+30A4_U+30E4_U+30FC 1
 62
   179
420
  2234388
370
     9
100
AcDbVertex
100
AcDb2dVertex
 10
94.96819868827052
 20
-121.5407285807261
 30
0.0
  0
SEQEND
  5
A0
330
9D
100
AcDbEntity
  8
_U+30EC_U+30A4_U+30E4_U+30FC 1
 62
   179
420
  2234388
370
     9
  0
INSERT
  5
A2
330
1F
100
AcDbEntity
  8
_U+30EC_U+30A4_U+30E4_U+30FC 1
100
AcDbBlockReference
  2
block 3
 10
0.0
 20
0.0
 30
0.0
  0
SPLINE
  5
A7
330
1F
100
AcDbEntity
  8
_U+30EC_U+30A4_U+30E4_U+30FC 1
 62
   179
420
  2234388
370
    25
100
AcDbSpline
210
0.0
220
0.0
230
1.0
 70
    11
 71
     3
 72
    17
 73
    13
 74
     0
 42
0.0000000001
 43
0.0000000001
 12
1.0
 22
0.0
 32
0.0
 13
1.0
 23
0.0
 33
0.0
 40
0.0
 40
0.0
 40
0.0
 40
0.0
 40
1.0
 40
1.0
 40
1.0
 40
2.0
 40
2.0
 40
2.0
 40
3.0
 40
3.0
 40
3.0
 40
4.0
 40
4.0
 40
4.0
 40
4.0
 10
90.00380409270055
 20
-126.5409302461425
 30
0.0
 10
90.00380409270055
 20
-126.560227190582
 30
0.0
 10
89.98796664416962
 20
-126.5760669128006
 30
0.0
 10
89.96831464916151
 20
-126.5760669128006
 30
0.0
 10
89.94870020521748
 20
-126.5760669128006
 30
0.0
 10
89.93317798339126
 20
-126.560227190582
 30
0.0
 10
89.93317798339126
 20
-126.5409302461425
 30
0.0
 10
89.93317798339126
 20
-126.5213158017031
 30
0.0
 10
89.94870020521748
 20
-126.505440801707
 30
0.0
 10
89.96831464916151
 20
-126.505440801707
 30
0.0
 10
89.98796664416962
 20
-126.505440801707
 30
0.0
 10
90.00380409270055
 20
-126.5213158017031
 30
0.0
 10
90.00380409270055
 20
-126.5409302461425
 30
0.0
  0
SPLINE
  5
A8
330
1F
100
AcDbEntity
  8
_U+30EC_U+30A4_U+30E4_U+30FC 1
 62
   179
420
  2234388
370
    25
100
AcDbSpline
210
0.0
220
0.0
230
1.0
 70
    11
 71
     3
 72
    17
 73
    13
 74
     0
 42
0.0000000001
 43
0.0000000001
 12
1.0
 22
0.0
 32
0.0
 13
1.0
 23
0.0
 33
0.0
 40
0.0
 40
0.0
 40
0.0
 40
0.0
 40
1.0
 40
1.0
 40
1.0
 40
2.0
 40
2.0
 40
2.0
 40
3.0
 40
3.0
 40
3.0
 40
4.0
 40
4.0
 40
4.0
 40
4.0
 10
95.00368813180955
 20
-126.5409302461425
 30
0.0
 10
95.00368813180955
 20
-126.560227190582
 30
0.0
 10
94.98781313221455
 20
-126.5760669128006
 30
0.0
 10
94.96819868827052
 20
-126.5760669128006
 30
0.0
 10
94.94890174431838
 20
-126.5760669128006
 30
0.0
 10
94.93306202250025
 20
-126.560227190582
 30
0.0
 10
94.93306202250025
 20
-126.5409302461425
 30
0.0
 10
94.93306202250025
 20
-126.5213158017031
 30
0.0
 10
94.94890174431838
 20
-126.505440801707
 30
0.0
 10
94.96819868827052
 20
-126.505440801707
 30
0.0
 10
94.98781313221455
 20
-126.505440801707
 30
0.0
 10
95.00368813180955
 20
-126.5213158017031
 30
0.0
 10
95.00368813180955
 20
-126.5409302461425
 30
0.0
  0
SPLINE
  5
A9
330
1F
100
AcDbEntity
  8
_U+30EC_U+30A4_U+30E4_U+30FC 1
 62
   179
420
  2234388
370
     9
100
AcDbSpline
210
0.0
220
0.0
230
1.0
 70
    11
 71
     3
 72
    17
 73
    13
 74
     0
 42
0.0000000001
 43
0.0000000001
 12
1.0
 22
0.0
 32
0.0
 13
1.0
 23
0.0
 33
0.0
 40
0.0
 40
0.0
 40
0.0
 40
0.0
 40
1.0
 40
1.0
 40
1.0
 40
2.0
 40
2.0
 40
2.0
 40
3.0
 40
3.0
 40
3.0
 40
4.0
 40
4.0
 40
4.0
 40
4.0
 10
95.00368813180955
 20
-122.540853580476
 30
0.0
 10
95.00368813180955
 20
-122.5601505249155
 30
0.0
 10
94.98781313221455
 20
-122.5759902471338
 30
0.0
 10
94.96819868827052
 20
-122.5759902471338
 30
0.0
 10
94.94890174431838
 20
-122.5759902471338
 30
0.0
 10
94.93306202250025
 20
-122.5601505249155
 30
0.0
 10
94.93306202250025
 20
-122.540853580476
 30
0.0
 10
94.93306202250025
 20
-122.5212038582588
 30
0.0
 10
94.94890174431838
 20
-122.5053641360402
 30
0.0
 10
94.96819868827052
 20
-122.5053641360402
 30
0.0
 10
94.98781313221455
 20
-122.5053641360402
 30
0.0
 10
95.00368813180955
 20
-122.5212038582588
 30
0.0
 10
95.00368813180955
 20
-122.540853580476
 30
0.0
  0
POLYLINE
  5
AA
330
1F
100
AcDbEntity
  8
_U+30EC_U+30A4_U+30E4_U+30FC 1
 62
   179
420
  2234388
370
     9
100
AcDb2dPolyline
 66
     1
 10
0.0
 20
0.0
 30
0.0
  0
VERTEX
  5
AB
330
AA
100
AcDbEntity
  8
_U+30EC_U+30A4_U+30E4_U+30FC 1
 62
   179
420
  2234388
370
     9
100
AcDbVertex
100
AcDb2dVertex
 10
85.9682380845453
 20
-126.5409302461425
 30
0.0
  0
VERTEX
  5
AC
330
AA
100
AcDbEntity
  8
_U+30EC_U+30A4_U+30E4_U+30FC 1
 62
   179
420
  2234388
370
     9
100
AcDbVertex
100
AcDb2dVertex
 10
85.9682380845453
 20
-131.0411046894617
 30
0.0
  0
SEQEND
  5
AD
330
AA
100
AcDbEntity
  8
_U+30EC_U+30A4_U+30E4_U+30FC 1
 62
   179
420
  2234388
370
     9
  0
POLYLINE
  5
AE
330
1F
100
AcDbEntity
  8
_U+30EC_U+30A4_U+30E4_U+30FC 1
 62
   179
420
  2234388
370
     9
100
AcDb2dPolyline
 66
     1
 10
0.0
 20
0.0
 30
0.0
  0
VERTEX
  5
AF
330
AE
100
AcDbEntity
  8
_U+30EC_U+30A4_U+30E4_U+30FC 1
 62
   179
420
  2234388
370
     9
100
AcDbVertex
100
AcDb2dVertex
 10
87.42824415840856
 20
-126.5409302461425
 30
0.0
  0
VERTEX
  5
B0
330
AE
100
AcDbEntity
  8
_U+30EC_U+30A4_U+30E4_U+30FC 1
 62
   179
420
  2234388
370
     9
100
AcDbVertex
100
AcDb2dVertex
 10
84.9684658878294
 20
-126.5409302461425
 30
0.0
  0
SEQEND
  5
B1
330
AE
100
AcDbEntity
  8
_U+30EC_U+30A4_U+30E4_U+30FC 1
 62
   179
420
  2234388
370
     9
  0
POLYLINE
  5
B2
330
1F
100
AcDbEntity
  8
_U+30EC_U+30A4_U+30E4_U+30FC 1
 62
   179
420
  2234388
370
     9
100
AcDb2dPolyline
 66
     1
 10
0.0
 20
0.0
 30
0.0
  0
VERTEX
  5
B3
330
B2
100
AcDbEntity
  8
_U+30EC_U+30A4_U+30E4_U+30FC 1
 62
   179
420
  2234388
370
     9
100
AcDbVertex
100
AcDb2dVertex
 10
87.42824415840856
 20
-130.0406269119343
 30
0.0
  0
VERTEX
  5
B4
330
B2
100
AcDbEntity
  8
_U+30EC_U+30A4_U+30E4_U+30FC 1
 62
   179
420
  2234388
370
     9
100
AcDbVertex
100
AcDb2dVertex
 10
84.9684658878294
 20
-130.0406269119343
 30
0.0
  0
SEQEND
  5
B5
330
B2
100
AcDbEntity
  8
_U+30EC_U+30A4_U+30E4_U+30FC 1
 62
   179
420
  2234388
370
     9
  0
INSERT
  5
B7
330
1F
100
AcDbEntity
  8
_U+30EC_U+30A4_U+30E4_U+30FC 1
100
AcDbBlockReference
  2
block 4
 10
0.0
 20
0.0
 30
0.0
  0
SPLINE
  5
C6
330
1F
100
AcDbEntity
  8
_U+30EC_U+30A4_U+30E4_U+30FC 1
 62
   179
420
  2234388
370
    25
100
AcDbSpline
210
0.0
220
0.0
230
1.0
 70
    11
 71
     3
 72
    17
 73
    13
 74
     0
 42
0.0000000001
 43
0.0000000001
 12
1.0
 22
0.0
 32
0.0
 13
1.0
 23
0.0
 33
0.0
 40
0.0
 40
0.0
 40
0.0
 40
0.0
 40
1.0
 40
1.0
 40
1.0
 40
2.0
 40
2.0
 40
2.0
 40
3.0
 40
3.0
 40
3.0
 40
4.0
 40
4.0
 40
4.0
 40
4.0
 10
90.00380409270055
 20
-126.5409302461425
 30
0.0
 10
90.00380409270055
 20
-126.560227190582
 30
0.0
 10
89.98796664416962
 20
-126.5760669128006
 30
0.0
 10
89.96831464916151
 20
-126.5760669128006
 30
0.0
 10
89.94870020521748
 20
-126.5760669128006
 30
0.0
 10
89.93317798339126
 20
-126.560227190582
 30
0.0
 10
89.93317798339126
 20
-126.5409302461425
 30
0.0
 10
89.93317798339126
 20
-126.5213158017031
 30
0.0
 10
89.94870020521748
 20
-126.505440801707
 30
0.0
 10
89.96831464916151
 20
-126.505440801707
 30
0.0
 10
89.98796664416962
 20
-126.505440801707
 30
0.0
 10
90.00380409270055
 20
-126.5213158017031
 30
0.0
 10
90.00380409270055
 20
-126.5409302461425
 30
0.0
  0
SPLINE
  5
C7
330
1F
100
AcDbEntity
  8
_U+30EC_U+30A4_U+30E4_U+30FC 1
 62
   179
420
  2234388
370
    25
100
AcDbSpline
210
0.0
220
0.0
230
1.0
 70
    11
 71
     3
 72
    17
 73
    13
 74
     0
 42
0.0000000001
 43
0.0000000001
 12
1.0
 22
0.0
 32
0.0
 13
1.0
 23
0.0
 33
0.0
 40
0.0
 40
0.0
 40
0.0
 40
0.0
 40
1.0
 40
1.0
 40
1.0
 40
2.0
 40
2.0
 40
2.0
 40
3.0
 40
3.0
 40
3.0
 40
4.0
 40
4.0
 40
4.0
 40
4.0
 10
90.00380409270055
 20
-130.0406269119343
 30
0.0
 10
90.00380409270055
 20
-130.0599238563741
 30
0.0
 10
89.98796664416962
 20
-130.0757988563701
 30
0.0
 10
89.96831464916151
 20
-130.0757988563701
 30
0.0
 10
89.94870020521748
 20
-130.0757988563701
 30
0.0
 10
89.93317798339126
 20
-130.0599238563741
 30
0.0
 10
89.93317798339126
 20
-130.0406269119343
 30
0.0
 10
89.93317798339126
 20
-130.0213652452726
 30
0.0
 10
89.94870020521748
 20
-130.0054902452765
 30
0.0
 10
89.96831464916151
 20
-130.0054902452765
 30
0.0
 10
89.98796664416962
 20
-130.0054902452765
 30
0.0
 10
90.00380409270055
 20
-130.0213652452726
 30
0.0
 10
90.00380409270055
 20
-130.0406269119343
 30
0.0
  0
SPLINE
  5
C8
330
1F
100
AcDbEntity
  8
_U+30EC_U+30A4_U+30E4_U+30FC 1
 62
   179
420
  2234388
370
     9
100
AcDbSpline
210
0.0
220
0.0
230
1.0
 70
    11
 71
     3
 72
    17
 73
    13
 74
     0
 42
0.0000000001
 43
0.0000000001
 12
1.0
 22
0.0
 32
0.0
 13
1.0
 23
0.0
 33
0.0
 40
0.0
 40
0.0
 40
0.0
 40
0.0
 40
1.0
 40
1.0
 40
1.0
 40
2.0
 40
2.0
 40
2.0
 40
3.0
 40
3.0
 40
3.0
 40
4.0
 40
4.0
 40
4.0
 40
4.0
 10
86.00369442294351
 20
-131.0411046894617
 30
0.0
 10
86.00369442294351
 20
-131.0604016339015
 30
0.0
 10
85.98785252848934
 20
-131.0762413561201
 30
0.0
 10
85.9682380845453
 20
-131.0762413561201
 30
0.0
 10
85.94894114059316
 20
-131.0762413561201
 30
0.0
 10
85.93306614099816
 20
-131.0604016339015
 30
0.0
 10
85.93306614099816
 20
-131.0411046894617
 30
0.0
 10
85.93306614099816
 20
-131.021102189467
 30
0.0
 10
85.94894114059316
 20
-131.0052624672484
 30
0.0
 10
85.9682380845453
 20
-131.0052624672484
 30
0.0
 10
85.98785252848934
 20
-131.0052624672484
 30
0.0
 10
86.00369442294351
 20
-131.021102189467
 30
0.0
 10
86.00369442294351
 20
-131.0411046894617
 30
0.0
  0
ENDSEC
  0
SECTION
  2
OBJECTS
  0
DICTIONARY
  5
C
330
0
100
AcDbDictionary
281
     1
  3
ACAD_GROUP
350
D
  3
ACAD_LAYOUT
350
1A
  3
ACAD_MATERIAL
350
3B
  3
ACAD_MLEADERSTYLE
350
CA
  3
ACAD_MLINESTYLE
350
17
  3
ACAD_PLOTSETTINGS
350
19
  3
ACAD_PLOTSTYLENAME
350
E
  3
ACAD_TABLESTYLE
350
C9
  3
ACAD_VISUALSTYLE
350
2A
  0
SUN
  5
3F
330
29
100
AcDbSun
 90
        1
290
     0
 63
     7
421
 16777215
 40
1.0
291
     1
 91
  2455826
 92
 54000000
292
     0
 70
     2
 71
   256
280
     1
  0
DICTIONARY
  5
D
102
{ACAD_REACTORS
330
C
102
}
330
C
100
AcDbDictionary
281
     1
  0
DICTIONARY
  5
1A
102
{ACAD_REACTORS
330
C
102
}
330
C
100
AcDbDictionary
281
     1
  3
Layout1
350
1E
  3
Layout2
350
26
  3
Model
350
22
  0
DICTIONARY
  5
3B
102
{ACAD_REACTORS
330
C
102
}
330
C
100
AcDbDictionary
281
     1
  3
ByBlock
350
3D
  3
ByLayer
350
3C
  3
Global
350
3E
  0
DICTIONARY
  5
CA
102
{ACAD_REACTORS
330
C
102
}
330
C
100
AcDbDictionary
281
     1
  0
DICTIONARY
  5
17
102
{ACAD_REACTORS
330
C
102
}
330
C
100
AcDbDictionary
281
     1
  3
Standard
350
18
  0
DICTIONARY
  5
19
102
{ACAD_REACTORS
330
C
102
}
330
C
100
AcDbDictionary
281
     1
  0
ACDBDICTIONARYWDFLT
  5
E
102
{ACAD_REACTORS
330
C
102
}
330
C
100
AcDbDictionary
281
     1
  3
Normal
350
F
100
AcDbDictionaryWithDefault
340
F
  0
DICTIONARY
  5
C9
102
{ACAD_REACTORS
330
C
102
}
330
C
100
AcDbDictionary
281
     1
  0
DICTIONARY
  5
2A
102
{ACAD_REACTORS
330
C
102
}
330
C
100
AcDbDictionary
281
     1
  3
2dWireframe
350
2F
  3
3D Hidden
350
31
  3
3dWireframe
350
30
  3
Basic
350
32
  3
Brighten
350
36
  3
ColorChange
350
3A
  3
Conceptual
350
34
  3
Dim
350
35
  3
Facepattern
350
39
  3
Flat
350
2B
  3
FlatWithEdges
350
2C
  3
Gouraud
350
2D
  3
GouraudWithEdges
350
2E
  3
Linepattern
350
38
  3
Realistic
350
33
  3
Thicken
350
37
  0
LAYOUT
  5
1E
102
{ACAD_REACTORS
330
1A
102
}
330
1A
100
AcDbPlotSettings
  1

  2
none_device
  4

  6

 40
0.0
 41
0.0
 42
0.0
 43
0.0
 44
0.0
 45
0.0
 46
0.0
 47
0.0
 48
0.0
 49
0.0
140
0.0
141
0.0
142
1.0
143
1.0
 70
   688
 72
     0
 73
     0
 74
     5
  7

 75
    16
 76
     0
 77
     2
 78
   300
147
1.0
148
0.0
149
0.0
100
AcDbLayout
  1
Layout1
 70
     1
 71
     1
 10
0.0
 20
0.0
 11
12.0
 21
9.0
 12
0.0
 22
0.0
 32
0.0
 14
1.000000000000000E+20
 24
1.000000000000000E+20
 34
1.000000000000000E+20
 15
-1.000000000000000E+20
 25
-1.000000000000000E+20
 35
-1.000000000000000E+20
146
0.0
 13
0.0
 23
0.0
 33
0.0
 16
1.0
 26
0.0
 36
0.0
 17
0.0
 27
1.0
 37
0.0
 76
     0
330
1B
  0
LAYOUT
  5
26
102
{ACAD_REACTORS
330
1A
102
}
330
1A
100
AcDbPlotSettings
  1

  2
none_device
  4

  6

 40
0.0
 41
0.0
 42
0.0
 43
0.0
 44
0.0
 45
0.0
 46
0.0
 47
0.0
 48
0.0
 49
0.0
140
0.0
141
0.0
142
1.0
143
1.0
 70
   688
 72
     0
 73
     0
 74
     5
  7

 75
    16
 76
     0
 77
     2
 78
   300
147
1.0
148
0.0
149
0.0
100
AcDbLayout
  1
Layout2
 70
     1
 71
     2
 10
0.0
 20
0.0
 11
0.0
 21
0.0
 12
0.0
 22
0.0
 32
0.0
 14
0.0
 24
0.0
 34
0.0
 15
0.0
 25
0.0
 35
0.0
146
0.0
 13
0.0
 23
0.0
 33
0.0
 16
1.0
 26
0.0
 36
0.0
 17
0.0
 27
1.0
 37
0.0
 76
     0
330
23
  0
LAYOUT
  5
22
102
{ACAD_REACTORS
330
1A
102
}
330
1A
100
AcDbPlotSettings
  1

  2
none_device
  4

  6

 40
0.0
 41
0.0
 42
0.0
 43
0.0
 44
0.0
 45
0.0
 46
0.0
 47
0.0
 48
0.0
 49
0.0
140
0.0
141
0.0
142
1.0
143
1.0
 70
  1712
 72
     0
 73
     0
 74
     0
  7

 75
     0
 76
     0
 77
     2
 78
   300
147
1.0
148
0.0
149
0.0
100
AcDbLayout
  1
Model
 70
     1
 71
     0
 10
0.0
 20
0.0
 11
12.0
 21
9.0
 12
0.0
 22
0.0
 32
0.0
 14
1.000000000000000E+20
 24
1.000000000000000E+20
 34
1.000000000000000E+20
 15
-1.000000000000000E+20
 25
-1.000000000000000E+20
 35
-1.000000000000000E+20
146
0.0
 13
0.0
 23
0.0
 33
0.0
 16
1.0
 26
0.0
 36
0.0
 17
0.0
 27
1.0
 37
0.0
 76
     0
330
1F
331
29
  0
MATERIAL
  5
3D
102
{ACAD_REACTORS
330
3B
102
}
330
3B
100
AcDbMaterial
  1
ByBlock
 72
     1
 94
      127
  0
MATERIAL
  5
3C
102
{ACAD_REACTORS
330
3B
102
}
330
3B
100
AcDbMaterial
  1
ByLayer
 72
     1
 94
      127
  0
MATERIAL
  5
3E
102
{ACAD_REACTORS
330
3B
102
}
330
3B
100
AcDbMaterial
  1
Global
 72
     1
 94
      127
  0
MLINESTYLE
  5
18
102
{ACAD_REACTORS
330
17
102
}
330
17
100
AcDbMlineStyle
  2
Standard
 70
     0
  3

 62
   256
 51
90.0
 52
90.0
 71
     2
 49
0.5
 62
   256
  6
BYLAYER
 49
-0.5
 62
   256
  6
BYLAYER
  0
ACDBPLACEHOLDER
  5
F
102
{ACAD_REACTORS
330
E
102
}
330
E
  0
VISUALSTYLE
  5
2F
102
{ACAD_REACTORS
330
2A
102
}
330
2A
100
AcDbVisualStyle
  2
2dWireframe
 70
     4
177
     2
291
     0
 71
     0
176
     1
 72
     2
176
     1
 73
     0
176
     1
 90
        0
176
     1
 40
-0.6
176
     1
 41
-30.0
176
     1
 62
     5
 63
     7
421
 16777215
176
     1
 74
     1
176
     1
 91
        4
176
     1
 64
     7
176
     1
 65
   257
176
     1
 75
     1
176
     1
175
     1
176
     1
 42
1.0
176
     1
 92
        0
176
     1
 66
   257
176
     1
 43
1.0
176
     1
 76
     1
176
     1
 77
     6
176
     1
 78
     2
176
     1
 67
     7
176
     1
 79
     5
176
     1
170
     0
176
     1
171
     0
176
     1
290
     0
176
     1
 93
        1
176
     1
 44
0.0
176
     1
173
     0
176
     1
  0
VISUALSTYLE
  5
31
102
{ACAD_REACTORS
330
2A
102
}
330
2A
100
AcDbVisualStyle
  2
3D Hidden
 70
     6
177
     2
291
     0
 71
     1
176
     1
 72
     2
176
     1
 73
     2
176
     1
 90
        0
176
     1
 40
-0.6
176
     1
 41
-30.0
176
     1
 62
     5
 63
     7
421
 16777215
176
     1
 74
     2
176
     1
 91
        2
176
     1
 64
     7
176
     1
 65
   257
176
     1
 75
     2
176
     1
175
     1
176
     1
 42
40.0
176
     1
 92
        0
176
     1
 66
   257
176
     1
 43
1.0
176
     1
 76
     1
176
     1
 77
     6
176
     1
 78
     2
176
     1
 67
     7
176
     1
 79
     3
176
     1
170
     0
176
     1
171
     0
176
     1
290
     0
176
     1
 93
        1
176
     1
 44
0.0
176
     1
173
     0
176
     1
  0
VISUALSTYLE
  5
30
102
{ACAD_REACTORS
330
2A
102
}
330
2A
100
AcDbVisualStyle
  2
3dWireframe
 70
     5
177
     2
291
     0
 71
     0
176
     1
 72
     2
176
     1
 73
     0
176
     1
 90
        0
176
     1
 40
-0.6
176
     1
 41
-30.0
176
     1
 62
     5
 63
     7
421
 16777215
176
     1
 74
     1
176
     1
 91
        4
176
     1
 64
     7
176
     1
 65
   257
176
     1
 75
     1
176
     1
175
     1
176
     1
 42
1.0
176
     1
 92
        0
176
     1
 66
   257
176
     1
 43
1.0
176
     1
 76
     1
176
     1
 77
     6
176
     1
 78
     2
176
     1
 67
     7
176
     1
 79
     5
176
     1
170
     0
176
     1
171
     0
176
     1
290
     0
176
     1
 93
        1
176
     1
 44
0.0
176
     1
173
     0
176
     1
  0
VISUALSTYLE
  5
32
102
{ACAD_REACTORS
330
2A
102
}
330
2A
100
AcDbVisualStyle
  2
Basic
 70
     7
177
     2
291
     1
 71
     1
176
     1
 72
     0
176
     1
 73
     1
176
     1
 90
        0
176
     1
 40
-0.6
176
     1
 41
-30.0
176
     1
 62
     5
 63
     7
421
 16777215
176
     1
 74
     0
176
     1
 91
        4
176
     1
 64
     7
176
     1
 65
   257
176
     1
 75
     1
176
     1
175
     1
176
     1
 42
1.0
176
     1
 92
        8
176
     1
 66
     7
176
     1
 43
1.0
176
     1
 76
     1
176
     1
 77
     6
176
     1
 78
     2
176
     1
 67
     7
176
     1
 79
     5
176
     1
170
     0
176
     1
171
     0
176
     1
290
     0
176
     1
 93
        1
176
     1
 44
0.0
176
     1
173
     0
176
     1
  0
VISUALSTYLE
  5
36
102
{ACAD_REACTORS
330
2A
102
}
330
2A
100
AcDbVisualStyle
  2
Brighten
 70
    12
177
     2
291
     1
 71
     2
176
     1
 72
     2
176
     1
 73
     0
176
     1
 90
        0
176
     1
 40
-0.6
176
     1
 41
-30.0
176
     1
 62
     5
 63
     7
421
 16777215
176
     1
 74
     1
176
     1
 91
        4
176
     1
 64
     7
176
     1
 65
   257
176
     1
 75
     1
176
     1
175
     1
176
     1
 42
1.0
176
     1
 92
        8
176
     1
 66
     7
176
     1
 43
1.0
176
     1
 76
     1
176
     1
 77
     6
176
     1
 78
     2
176
     1
 67
     7
176
     1
 79
     5
176
     1
170
     0
176
     1
171
     0
176
     1
290
     0
176
     1
 93
        1
176
     1
 44
50.0
176
     1
173
     0
176
     1
  0
VISUALSTYLE
  5
3A
102
{ACAD_REACTORS
330
2A
102
}
330
2A
100
AcDbVisualStyle
  2
ColorChange
 70
    16
177
     2
291
     1
 71
     2
176
     1
 72
     2
176
     1
 73
     3
176
     1
 90
        0
176
     1
 40
-0.6
176
     1
 41
-30.0
176
     1
 62
     5
 63
     8
421
  8421504
176
     1
 74
     1
176
     1
 91
        4
176
     1
 64
     7
176
     1
 65
   257
176
     1
 75
     1
176
     1
175
     1
176
     1
 42
1.0
176
     1
 92
        8
176
     1
 66
     8
424
  8421504
176
     1
 43
1.0
176
     1
 76
     1
176
     1
 77
     6
176
     1
 78
     2
176
     1
 67
     7
176
     1
 79
     5
176
     1
170
     0
176
     1
171
     0
176
     1
290
     0
176
     1
 93
        1
176
     1
 44
0.0
176
     1
173
     0
176
     1
  0
VISUALSTYLE
  5
34
102
{ACAD_REACTORS
330
2A
102
}
330
2A
100
AcDbVisualStyle
  2
Conceptual
 70
     9
177
     2
291
     0
 71
     3
176
     1
 72
     2
176
     1
 73
     0
176
     1
 90
        0
176
     1
 40
-0.6
176
     1
 41
-30.0
176
     1
 62
     5
 63
     7
421
 16777215
176
     1
 74
     2
176
     1
 91
        2
176
     1
 64
     7
176
     1
 65
   257
176
     1
 75
     1
176
     1
175
     1
176
     1
 42
40.0
176
     1
 92
        8
176
     1
 66
     7
176
     1
 43
1.0
176
     1
 76
     1
176
     1
 77
     6
176
     1
 78
     2
176
     1
 67
     7
176
     1
 79
     3
176
     1
170
     0
176
     1
171
     0
176
     1
290
     0
176
     1
 93
        1
176
     1
 44
0.0
176
     1
173
     0
176
     1
  0
VISUALSTYLE
  5
35
102
{ACAD_REACTORS
330
2A
102
}
330
2A
100
AcDbVisualStyle
  2
Dim
 70
    11
177
     2
291
     1
 71
     2
176
     1
 72
     2
176
     1
 73
     0
176
     1
 90
        0
176
     1
 40
-0.6
176
     1
 41
-30.0
176
     1
 62
     5
 63
     7
421
 16777215
176
     1
 74
     1
176
     1
 91
        4
176
     1
 64
     7
176
     1
 65
   257
176
     1
 75
     1
176
     1
175
     1
176
     1
 42
1.0
176
     1
 92
        8
176
     1
 66
     7
176
     1
 43
1.0
176
     1
 76
     1
176
     1
 77
     6
176
     1
 78
     2
176
     1
 67
     7
176
     1
 79
     5
176
     1
170
     0
176
     1
171
     0
176
     1
290
     0
176
     1
 93
        1
176
     1
 44
-50.0
176
     1
173
     0
176
     1
  0
VISUALSTYLE
  5
39
102
{ACAD_REACTORS
330
2A
102
}
330
2A
100
AcDbVisualStyle
  2
Facepattern
 70
    15
177
     2
291
     1
 71
     2
176
     1
 72
     2
176
     1
 73
     0
176
     1
 90
        0
176
     1
 40
-0.6
176
     1
 41
-30.0
176
     1
 62
     5
 63
     7
421
 16777215
176
     1
 74
     1
176
     1
 91
        4
176
     1
 64
     7
176
     1
 65
   257
176
     1
 75
     1
176
     1
175
     1
176
     1
 42
1.0
176
     1
 92
        8
176
     1
 66
     7
176
     1
 43
1.0
176
     1
 76
     1
176
     1
 77
     6
176
     1
 78
     2
176
     1
 67
     7
176
     1
 79
     5
176
     1
170
     0
176
     1
171
     0
176
     1
290
     0
176
     1
 93
        1
176
     1
 44
0.0
176
     1
173
     0
176
     1
  0
VISUALSTYLE
  5
2B
102
{ACAD_REACTORS
330
2A
102
}
330
2A
100
AcDbVisualStyle
  2
Flat
 70
     0
177
     2
291
     1
 71
     2
176
     1
 72
     1
176
     1
 73
     1
176
     1
 90
        2
176
     1
 40
-0.6
176
     1
 41
30.0
176
     1
 62
     5
 63
     7
421
 16777215
176
     1
 74
     0
176
     1
 91
        4
176
     1
 64
     7
176
     1
 65
   257
176
     1
 75
     1
176
     1
175
     1
176
     1
 42
1.0
176
     1
 92
        8
176
     1
 66
     7
176
     1
 43
1.0
176
     1
 76
     1
176
     1
 77
     6
176
     1
 78
     2
176
     1
 67
     7
176
     1
 79
     5
176
     1
170
     0
176
     1
171
     0
176
     1
290
     0
176
     1
 93
       13
176
     1
 44
0.0
176
     1
173
     0
176
     1
  0
VISUALSTYLE
  5
2C
102
{ACAD_REACTORS
330
2A
102
}
330
2A
100
AcDbVisualStyle
  2
FlatWithEdges
 70
     1
177
     2
291
     1
 71
     2
176
     1
 72
     1
176
     1
 73
     1
176
     1
 90
        2
176
     1
 40
-0.6
176
     1
 41
30.0
176
     1
 62
     5
 63
     7
421
 16777215
176
     1
 74
     1
176
     1
 91
        4
176
     1
 64
     7
176
     1
 65
   257
176
     1
 75
     1
176
     1
175
     1
176
     1
 42
1.0
176
     1
 92
        0
176
     1
 66
   257
176
     1
 43
1.0
176
     1
 76
     1
176
     1
 77
     6
176
     1
 78
     2
176
     1
 67
     7
176
     1
 79
     5
176
     1
170
     0
176
     1
171
     0
176
     1
290
     0
176
     1
 93
       13
176
     1
 44
0.0
176
     1
173
     0
176
     1
  0
VISUALSTYLE
  5
2D
102
{ACAD_REACTORS
330
2A
102
}
330
2A
100
AcDbVisualStyle
  2
Gouraud
 70
     2
177
     2
291
     1
 71
     2
176
     1
 72
     2
176
     1
 73
     1
176
     1
 90
        2
176
     1
 40
-0.6
176
     1
 41
30.0
176
     1
 62
     5
 63
     7
421
 16777215
176
     1
 74
     0
176
     1
 91
        4
176
     1
 64
     7
176
     1
 65
   257
176
     1
 75
     1
176
     1
175
     1
176
     1
 42
1.0
176
     1
 92
        0
176
     1
 66
     7
176
     1
 43
1.0
176
     1
 76
     1
176
     1
 77
     6
176
     1
 78
     2
176
     1
 67
     7
176
     1
 79
     5
176
     1
170
     0
176
     1
171
     0
176
     1
290
     0
176
     1
 93
       13
176
     1
 44
0.0
176
     1
173
     0
176
     1
  0
VISUALSTYLE
  5
2E
102
{ACAD_REACTORS
330
2A
102
}
330
2A
100
AcDbVisualStyle
  2
GouraudWithEdges
 70
     3
177
     2
291
     1
 71
     2
176
     1
 72
     2
176
     1
 73
     1
176
     1
 90
        2
176
     1
 40
-0.6
176
     1
 41
30.0
176
     1
 62
     5
 63
     7
421
 16777215
176
     1
 74
     1
176
     1
 91
        4
176
     1
 64
     7
176
     1
 65
   257
176
     1
 75
     1
176
     1
175
     1
176
     1
 42
1.0
176
     1
 92
        0
176
     1
 66
   257
176
     1
 43
1.0
176
     1
 76
     1
176
     1
 77
     6
176
     1
 78
     2
176
     1
 67
     7
176
     1
 79
     5
176
     1
170
     0
176
     1
171
     0
176
     1
290
     0
176
     1
 93
       13
176
     1
 44
0.0
176
     1
173
     0
176
     1
  0
VISUALSTYLE
  5
38
102
{ACAD_REACTORS
330
2A
102
}
330
2A
100
AcDbVisualStyle
  2
Linepattern
 70
    14
177
     2
291
     1
 71
     2
176
     1
 72
     2
176
     1
 73
     0
176
     1
 90
        0
176
     1
 40
-0.6
176
     1
 41
-30.0
176
     1
 62
     5
 63
     7
421
 16777215
176
     1
 74
     1
176
     1
 91
        4
176
     1
 64
     7
176
     1
 65
   257
176
     1
 75
     7
176
     1
175
     7
176
     1
 42
1.0
176
     1
 92
        8
176
     1
 66
     7
176
     1
 43
1.0
176
     1
 76
     1
176
     1
 77
     6
176
     1
 78
     2
176
     1
 67
     7
176
     1
 79
     5
176
     1
170
     0
176
     1
171
     0
176
     1
290
     0
176
     1
 93
        1
176
     1
 44
0.0
176
     1
173
     0
176
     1
  0
VISUALSTYLE
  5
33
102
{ACAD_REACTORS
330
2A
102
}
330
2A
100
AcDbVisualStyle
  2
Realistic
 70
     8
177
     2
291
     0
 71
     2
176
     1
 72
     2
176
     1
 73
     0
176
     1
 90
        0
176
     1
 40
-0.6
176
     1
 41
-30.0
176
     1
 62
     5
 63
     7
421
 16777215
176
     1
 74
     1
176
     1
 91
        0
176
     1
 64
     7
176
     1
 65
   257
176
     1
 75
     1
176
     1
175
     1
176
     1
 42
1.0
176
     1
 92
        8
176
     1
 66
     8
424
  7895160
176
     1
 43
1.0
176
     1
 76
     1
176
     1
 77
     6
176
     1
 78
     2
176
     1
 67
     7
176
     1
 79
     5
176
     1
170
     0
176
     1
171
     0
176
     1
290
     0
176
     1
 93
       13
176
     1
 44
0.0
176
     1
173
     0
176
     1
  0
VISUALSTYLE
  5
37
102
{ACAD_REACTORS
330
2A
102
}
330
2A
100
AcDbVisualStyle
  2
Thicken
 70
    13
177
     2
291
     1
 71
     2
176
     1
 72
     2
176
     1
 73
     0
176
     1
 90
        0
176
     1
 40
-0.6
176
     1
 41
-30.0
176
     1
 62
     5
 63
     7
421
 16777215
176
     1
 74
     1
176
     1
 91
        4
176
     1
 64
     7
176
     1
 65
   257
176
     1
 75
     1
176
     1
175
     1
176
     1
 42
1.0
176
     1
 92
       12
176
     1
 66
     7
176
     1
 43
1.0
176
     1
 76
     1
176
     1
 77
     6
176
     1
 78
     2
176
     1
 67
     7
176
     1
 79
     5
176
     1
170
     0
176
     1
171
     0
176
     1
290
     0
176
     1
 93
        1
176
     1
 44
0.0
176
     1
173
     0
176
     1
  0
ENDSEC
  0
EOF
