  0
SECTION
  2
HEADER
  9
$ACADVER
  1
AC1024
  9
$ACADMAINTVER
 70
     6
  9
$DWGCODEPAGE
  3
UNDEFINED
  9
$INSBASE
 10
0.0
 20
0.0
 30
0.0
  9
$EXTMIN
 10
1.000000000000000E+20
 20
1.000000000000000E+20
 30
1.000000000000000E+20
  9
$EXTMAX
 10
-1.000000000000000E+20
 20
-1.000000000000000E+20
 30
-1.000000000000000E+20
  9
$LIMMIN
 10
0.0
 20
0.0
  9
$LIMMAX
 10
12.0
 20
9.0
  9
$ORTHOMODE
 70
     0
  9
$REGENMODE
 70
     1
  9
$FILLMODE
 70
     1
  9
$QTEXTMODE
 70
     0
  9
$MIRRTEXT
 70
     1
  9
$LTSCALE
 40
1.0
  9
$ATTMODE
 70
     1
  9
$TEXTSIZE
 40
0.2
  9
$TRACEWID
 40
0.05
  9
$TEXTSTYLE
  7
Standard
  9
$CLAYER
  8
0
  9
$CELTYPE
  6
ByLayer
  9
$CECOLOR
 62
   256
  9
$CELTSCALE
 40
1.0
  9
$DISPSILH
 70
     0
  9
$DIMSCALE
 40
1.0
  9
$DIMASZ
 40
0.18
  9
$DIMEXO
 40
0.0625
  9
$DIMDLI
 40
0.38
  9
$DIMRND
 40
0.0
  9
$DIMDLE
 40
0.0
  9
$DIMEXE
 40
0.18
  9
$DIMTP
 40
0.0
  9
$DIMTM
 40
0.0
  9
$DIMTXT
 40
0.18
  9
$DIMCEN
 40
0.09
  9
$DIMTSZ
 40
0.0
  9
$DIMTOL
 70
     0
  9
$DIMLIM
 70
     0
  9
$DIMTIH
 70
     1
  9
$DIMTOH
 70
     1
  9
$DIMSE1
 70
     0
  9
$DIMSE2
 70
     0
  9
$DIMTAD
 70
     0
  9
$DIMZIN
 70
     0
  9
$DIMBLK
  1

  9
$DIMASO
 70
     1
  9
$DIMSHO
 70
     1
  9
$DIMPOST
  1

  9
$DIMAPOST
  1

  9
$DIMALT
 70
     0
  9
$DIMALTD
 70
     2
  9
$DIMALTF
 40
25.4
  9
$DIMLFAC
 40
1.0
  9
$DIMTOFL
 70
     0
  9
$DIMTVP
 40
0.0
  9
$DIMTIX
 70
     0
  9
$DIMSOXD
 70
     0
  9
$DIMSAH
 70
     0
  9
$DIMBLK1
  1

  9
$DIMBLK2
  1

  9
$DIMSTYLE
  2
Standard
  9
$DIMCLRD
 70
     0
  9
$DIMCLRE
 70
     0
  9
$DIMCLRT
 70
     0
  9
$DIMTFAC
 40
1.0
  9
$DIMGAP
 40
0.09
  9
$DIMJUST
 70
     0
  9
$DIMSD1
 70
     0
  9
$DIMSD2
 70
     0
  9
$DIMTOLJ
 70
     1
  9
$DIMTZIN
 70
     0
  9
$DIMALTZ
 70
     0
  9
$DIMALTTZ
 70
     0
  9
$DIMUPT
 70
     0
  9
$DIMDEC
 70
     4
  9
$DIMTDEC
 70
     4
  9
$DIMALTU
 70
     2
  9
$DIMALTTD
 70
     2
  9
$DIMTXSTY
  7
Standard
  9
$DIMAUNIT
 70
     0
  9
$DIMADEC
 70
     0
  9
$DIMALTRND
 40
0.0
  9
$DIMAZIN
 70
     0
  9
$DIMDSEP
 70
    46
  9
$DIMATFIT
 70
     3
  9
$DIMFRAC
 70
     0
  9
$DIMLDRBLK
  1

  9
$DIMLUNIT
 70
     2
  9
$DIMLWD
 70
    -2
  9
$DIMLWE
 70
    -2
  9
$DIMTMOVE
 70
     0
  9
$DIMFXL
 40
1.0
  9
$DIMFXLON
 70
     0
  9
$DIMJOGANG
 40
0.7853981633974483
  9
$DIMTFILL
 70
     0
  9
$DIMTFILLCLR
 70
     0
  9
$DIMARCSYM
 70
     0
  9
$DIMLTYPE
  6

  9
$DIMLTEX1
  6

  9
$DIMLTEX2
  6

  9
$DIMTXTDIRECTION
 70
     0
  9
$LUNITS
 70
     2
  9
$LUPREC
 70
     4
  9
$SKETCHINC
 40
0.1
  9
$FILLETRAD
 40
0.5
  9
$AUNITS
 70
     0
  9
$AUPREC
 70
     0
  9
$MENU
  1
.
  9
$ELEVATION
 40
0.0
  9
$PELEVATION
 40
0.0
  9
$THICKNESS
 40
0.0
  9
$LIMCHECK
 70
     0
  9
$CHAMFERA
 40
0.5
  9
$CHAMFERB
 40
0.5
  9
$CHAMFERC
 40
1.0
  9
$CHAMFERD
 40
0.0
  9
$SKPOLY
 70
     0
  9
$TDCREATE
 40
2457917.635891204
  9
$TDUCREATE
 40
2457917.260891204
  9
$TDUPDATE
 40
2457917.635891204
  9
$TDUUPDATE
 40
2457917.260891204
  9
$TDINDWG
 40
0.0000000116
  9
$TDUSRTIMER
 40
0.0000000116
  9
$USRTIMER
 70
     1
  9
$ANGBASE
 50
0.0
  9
$ANGDIR
 70
     0
  9
$PDMODE
 70
     0
  9
$PDSIZE
 40
0.0
  9
$PLINEWID
 40
0.0
  9
$SPLFRAME
 70
     0
  9
$SPLINETYPE
 70
     6
  9
$SPLINESEGS
 70
     8
  9
$HANDSEED
  5
123
  9
$SURFTAB1
 70
     6
  9
$SURFTAB2
 70
     6
  9
$SURFTYPE
 70
     6
  9
$SURFU
 70
     6
  9
$SURFV
 70
     6
  9
$UCSBASE
  2

  9
$UCSNAME
  2

  9
$UCSORG
 10
0.0
 20
0.0
 30
0.0
  9
$UCSXDIR
 10
1.0
 20
0.0
 30
0.0
  9
$UCSYDIR
 10
0.0
 20
1.0
 30
0.0
  9
$UCSORTHOREF
  2

  9
$UCSORTHOVIEW
 70
     0
  9
$UCSORGTOP
 10
0.0
 20
0.0
 30
0.0
  9
$UCSORGBOTTOM
 10
0.0
 20
0.0
 30
0.0
  9
$UCSORGLEFT
 10
0.0
 20
0.0
 30
0.0
  9
$UCSORGRIGHT
 10
0.0
 20
0.0
 30
0.0
  9
$UCSORGFRONT
 10
0.0
 20
0.0
 30
0.0
  9
$UCSORGBACK
 10
0.0
 20
0.0
 30
0.0
  9
$PUCSBASE
  2

  9
$PUCSNAME
  2

  9
$PUCSORG
 10
0.0
 20
0.0
 30
0.0
  9
$PUCSXDIR
 10
1.0
 20
0.0
 30
0.0
  9
$PUCSYDIR
 10
0.0
 20
1.0
 30
0.0
  9
$PUCSORTHOREF
  2

  9
$PUCSORTHOVIEW
 70
     0
  9
$PUCSORGTOP
 10
0.0
 20
0.0
 30
0.0
  9
$PUCSORGBOTTOM
 10
0.0
 20
0.0
 30
0.0
  9
$PUCSORGLEFT
 10
0.0
 20
0.0
 30
0.0
  9
$PUCSORGRIGHT
 10
0.0
 20
0.0
 30
0.0
  9
$PUCSORGFRONT
 10
0.0
 20
0.0
 30
0.0
  9
$PUCSORGBACK
 10
0.0
 20
0.0
 30
0.0
  9
$USERI1
 70
     0
  9
$USERI2
 70
     0
  9
$USERI3
 70
     0
  9
$USERI4
 70
     0
  9
$USERI5
 70
     0
  9
$USERR1
 40
0.0
  9
$USERR2
 40
0.0
  9
$USERR3
 40
0.0
  9
$USERR4
 40
0.0
  9
$USERR5
 40
0.0
  9
$WORLDVIEW
 70
     1
  9
$SHADEDGE
 70
     3
  9
$SHADEDIF
 70
    70
  9
$TILEMODE
 70
     1
  9
$MAXACTVP
 70
    64
  9
$PINSBASE
 10
0.0
 20
0.0
 30
0.0
  9
$PLIMCHECK
 70
     0
  9
$PEXTMIN
 10
1.000000000000000E+20
 20
1.000000000000000E+20
 30
1.000000000000000E+20
  9
$PEXTMAX
 10
-1.000000000000000E+20
 20
-1.000000000000000E+20
 30
-1.000000000000000E+20
  9
$PLIMMIN
 10
0.0
 20
0.0
  9
$PLIMMAX
 10
12.0
 20
9.0
  9
$UNITMODE
 70
     0
  9
$VISRETAIN
 70
     1
  9
$PLINEGEN
 70
     0
  9
$PSLTSCALE
 70
     1
  9
$TREEDEPTH
 70
  3020
  9
$CMLSTYLE
  2
Standard
  9
$CMLJUST
 70
     0
  9
$CMLSCALE
 40
1.0
  9
$PROXYGRAPHICS
 70
     1
  9
$MEASUREMENT
 70
     0
  9
$CELWEIGHT
370
    -1
  9
$ENDCAPS
280
     0
  9
$JOINSTYLE
280
     0
  9
$LWDISPLAY
290
     1
  9
$INSUNITS
 70
     1
  9
$HYPERLINKBASE
  1

  9
$STYLESHEET
  1

  9
$XEDIT
290
     1
  9
$CEPSNTYPE
380
     0
  9
$PSTYLEMODE
290
     1
  9
$FINGERPRINTGUID
  2
{0D8969D4-EE6C-9CCA-14A5-C752D65D5F68}
  9
$VERSIONGUID
  2
{FAEB1C32-E019-11D5-929B-00C0DF256EC4}
  9
$EXTNAMES
290
     1
  9
$PSVPSCALE
 40
0.0
  9
$OLESTARTUP
290
     0
  9
$SORTENTS
280
   127
  9
$INDEXCTL
280
     0
  9
$HIDETEXT
280
     1
  9
$XCLIPFRAME
280
     2
  9
$HALOGAP
280
     0
  9
$OBSCOLOR
 70
   257
  9
$OBSLTYPE
280
     0
  9
$INTERSECTIONDISPLAY
280
     0
  9
$INTERSECTIONCOLOR
 70
   257
  9
$DIMASSOC
280
     2
  9
$PROJECTNAME
  1

  9
$CAMERADISPLAY
290
     0
  9
$LENSLENGTH
 40
50.0
  9
$CAMERAHEIGHT
 40
0.0
  9
$STEPSPERSEC
 40
2.0
  9
$STEPSIZE
 40
6.0
  9
$3DDWFPREC
 40
2.0
  9
$PSOLWIDTH
 40
0.25
  9
$PSOLHEIGHT
 40
4.0
  9
$LOFTANG1
 40
1.570796326794897
  9
$LOFTANG2
 40
1.570796326794897
  9
$LOFTMAG1
 40
0.0
  9
$LOFTMAG2
 40
0.0
  9
$LOFTPARAM
 70
     7
  9
$LOFTNORMALS
280
     1
  9
$LATITUDE
 40
37.795
  9
$LONGITUDE
 40
-122.394
  9
$NORTHDIRECTION
 40
0.0
  9
$TIMEZONE
 70
 -8000
  9
$LIGHTGLYPHDISPLAY
280
     1
  9
$TILEMODELIGHTSYNCH
280
     1
  9
$CMATERIAL
347
3C
  9
$SOLIDHIST
280
     1
  9
$SHOWHIST
280
     1
  9
$DWFFRAME
280
     2
  9
$DGNFRAME
280
     2
  9
$REALWORLDSCALE
290
     1
  9
$INTERFERECOLOR
 62
   256
  9
$CSHADOW
280
     0
  9
$SHADOWPLANELOCATION
 40
0.0
  0
ENDSEC
  0
SECTION
  2
CLASSES
  0
CLASS
  1
ACDBDICTIONARYWDFLT
  2
AcDbDictionaryWithDefault
  3
ObjectDBX Classes
 90
        0
 91
        4
280
     0
281
     0
  0
CLASS
  1
VISUALSTYLE
  2
AcDbVisualStyle
  3
ObjectDBX Classes
 90
     4095
 91
        4
280
     0
281
     0
  0
CLASS
  1
MATERIAL
  2
AcDbMaterial
  3
ObjectDBX Classes
 90
     1153
 91
        4
280
     0
281
     0
  0
CLASS
  1
SUN
  2
AcDbSun
  3
SCENEOE
 90
     1024
 91
        4
280
     0
281
     0
  0
ENDSEC
  0
SECTION
  2
TABLES
  0
TABLE
  2
VPORT
  5
8
330
0
100
AcDbSymbolTable
 70
     1
  0
VPORT
  5
29
330
8
100
AcDbSymbolTableRecord
100
AcDbViewportTableRecord
  2
*Active
 70
     0
 10
0.0
 20
0.0
 11
1.0
 21
1.0
 12
0.0
 22
0.0
 13
0.0
 23
0.0
 14
0.5
 24
0.5
 15
0.5
 25
0.5
 16
0.0
 26
0.0
 36
1.0
 17
91.00082462281999
 27
-128.4993055234307
 37
0.0
 40
256.9986110468615
 41
0.7081814508812795
 42
50.0
 43
0.0
 44
0.0
 50
0.0
 51
0.0
 71
     0
 72
   100
 73
     1
 74
     3
 75
     0
 76
     0
 77
     0
 78
     0
281
     0
 65
     1
110
0.0
120
0.0
130
0.0
111
1.0
121
0.0
131
0.0
112
0.0
122
1.0
132
0.0
 79
     0
146
0.0
 60
     3
 61
     5
292
     1
282
     1
141
0.0
142
0.0
 63
   250
361
3F
  0
ENDTAB
  0
TABLE
  2
LTYPE
  5
5
330
0
100
AcDbSymbolTable
 70
     1
  0
LTYPE
  5
14
330
5
100
AcDbSymbolTableRecord
100
AcDbLinetypeTableRecord
  2
ByBlock
 70
     0
  3

 72
    65
 73
     0
 40
0.0
  0
LTYPE
  5
15
330
5
100
AcDbSymbolTableRecord
100
AcDbLinetypeTableRecord
  2
ByLayer
 70
     0
  3

 72
    65
 73
     0
 40
0.0
  0
LTYPE
  5
16
330
5
100
AcDbSymbolTableRecord
100
AcDbLinetypeTableRecord
  2
Continuous
 70
     0
  3
Solid line
 72
    65
 73
     0
 40
0.0
  0
ENDTAB
  0
TABLE
  2
LAYER
  5
2
330
0
100
AcDbSymbolTable
 70
     2
  0
LAYER
  5
10
330
2
100
AcDbSymbolTableRecord
100
AcDbLayerTableRecord
  2
0
 70
     0
 62
     7
  6
Continuous
370
    -3
390
F
347
3E
  0
LAYER
  5
40
330
2
100
AcDbSymbolTableRecord
100
AcDbLayerTableRecord
  2
_U+30EC_U+30A4_U+30E4_U+30FC 1
 70
     0
 62
     7
  6
Continuous
370
    -3
390
F
347
3E
  0
ENDTAB
  0
TABLE
  2
STYLE
  5
3
330
0
100
AcDbSymbolTable
 70
     1
  0
STYLE
  5
11
330
3
100
AcDbSymbolTableRecord
100
AcDbTextStyleTableRecord
  2
Standard
 70
     0
 40
0.0
 41
1.0
 50
0.0
 71
     0
 42
0.2
  3
txt
  4

  0
ENDTAB
  0
TABLE
  2
VIEW
  5
6
330
0
100
AcDbSymbolTable
 70
     0
  0
ENDTAB
  0
TABLE
  2
UCS
  5
7
330
0
100
AcDbSymbolTable
 70
     0
  0
ENDTAB
  0
TABLE
  2
APPID
  5
9
330
0
100
AcDbSymbolTable
 70
     1
  0
APPID
  5
12
330
9
100
AcDbSymbolTableRecord
100
AcDbRegAppTableRecord
  2
ACAD
 70
     0
  0
ENDTAB
  0
TABLE
  2
DIMSTYLE
  5
A
330
0
100
AcDbSymbolTable
 70
     1
100
AcDbDimStyleTable
  0
DIMSTYLE
105
27
330
A
100
AcDbSymbolTableRecord
100
AcDbDimStyleTableRecord
  2
Standard
 70
     0
178
     0
340
11
  0
ENDTAB
  0
TABLE
  2
BLOCK_RECORD
  5
1
330
0
100
AcDbSymbolTable
 70
     4
  0
BLOCK_RECORD
  5
1F
330
1
100
AcDbSymbolTableRecord
100
AcDbBlockTableRecord
  2
*Model_Space
340
22
 70
     0
280
     1
281
     0
  0
BLOCK_RECORD
  5
1B
330
1
100
AcDbSymbolTableRecord
100
AcDbBlockTableRecord
  2
*Paper_Space
340
1E
 70
     0
280
     1
281
     0
  0
BLOCK_RECORD
  5
23
330
1
100
AcDbSymbolTableRecord
100
AcDbBlockTableRecord
  2
*Paper_Space0
340
26
 70
     0
280
     1
281
     0
  0
BLOCK_RECORD
  5
D3
330
1
100
AcDbSymbolTableRecord
100
AcDbBlockTableRecord
  2
block 2
340
0
102
{BLKREFS
331
D4
102
}
 70
     0
280
     1
281
     0
  0
BLOCK_RECORD
  5
EB
330
1
100
AcDbSymbolTableRecord
100
AcDbBlockTableRecord
  2
block 3
340
0
102
{BLKREFS
331
EC
102
}
 70
     0
280
     1
281
     0
  0
BLOCK_RECORD
  5
10C
330
1
100
AcDbSymbolTableRecord
100
AcDbBlockTableRecord
  2
block 4
340
0
102
{BLKREFS
331
10D
102
}
 70
     0
280
     1
281
     0
  0
ENDTAB
  0
ENDSEC
  0
SECTION
  2
BLOCKS
  0
BLOCK
  5
20
330
1F
100
AcDbEntity
  8
0
100
AcDbBlockBegin
  2
*Model_Space
 70
     0
 10
0.0
 20
0.0
 30
0.0
  3
*Model_Space
  1

  0
ENDBLK
  5
21
330
1F
100
AcDbEntity
  8
0
100
AcDbBlockEnd
  0
BLOCK
  5
1C
330
1B
100
AcDbEntity
 67
     1
  8
0
100
AcDbBlockBegin
  2
*Paper_Space
 70
     0
 10
0.0
 20
0.0
 30
0.0
  3
*Paper_Space
  1

  0
ENDBLK
  5
1D
330
1B
100
AcDbEntity
 67
     1
  8
0
100
AcDbBlockEnd
  0
BLOCK
  5
24
330
23
100
AcDbEntity
  8
0
100
AcDbBlockBegin
  2
*Paper_Space0
 70
     0
 10
0.0
 20
0.0
 30
0.0
  3
*Paper_Space0
  1

  0
ENDBLK
  5
25
330
23
100
AcDbEntity
  8
0
100
AcDbBlockEnd
  0
BLOCK
  5
D5
330
D3
100
AcDbEntity
  8
0
100
AcDbBlockBegin
  2
block 2
 70
     0
 10
0.0
 20
0.0
 30
0.0
  3
block 2
  1

  0
SPLINE
  5
D7
330
D3
100
AcDbEntity
  8
_U+30EC_U+30A4_U+30E4_U+30FC 1
370
     0
100
AcDbSpline
210
0.0
220
0.0
230
1.0
 70
    11
 71
     3
 72
    26
 73
    22
 74
     0
 42
0.0000000001
 43
0.0000000001
 12
1.0
 22
0.0
 32
0.0
 13
1.0
 23
0.0
 33
0.0
 40
0.0
 40
0.0
 40
0.0
 40
0.0
 40
1.0
 40
1.0
 40
1.0
 40
2.0
 40
2.0
 40
2.0
 40
3.0
 40
3.0
 40
3.0
 40
4.0
 40
4.0
 40
4.0
 40
5.0
 40
5.0
 40
5.0
 40
6.0
 40
6.0
 40
6.0
 40
7.0
 40
7.0
 40
7.0
 40
7.0
 10
87.35125730238094
 20
-121.0990681663398
 30
0.0
 10
87.35125730238094
 20
-121.0990681663398
 30
0.0
 10
87.35125730238094
 20
-119.994742808543
 30
0.0
 10
87.35125730238094
 20
-119.994742808543
 30
0.0
 10
87.35125730238094
 20
-119.994742808543
 30
0.0
 10
87.021217154894
 20
-119.994742808543
 30
0.0
 10
87.021217154894
 20
-119.994742808543
 30
0.0
 10
87.021217154894
 20
-119.994742808543
 30
0.0
 10
87.021217154894
 20
-119.8467759574515
 30
0.0
 10
87.021217154894
 20
-119.8467759574515
 30
0.0
 10
87.35332435967209
 20
-119.8319620468649
 30
0.0
 10
87.39983314872296
 20
-119.6690090304126
 30
0.0
 10
87.42946096989611
 20
-119.5548041150766
 30
0.0
 10
87.42946096989611
 20
-119.5548041150766
 30
0.0
 10
87.57536076369644
 20
-119.5548041150766
 30
0.0
 10
87.57536076369644
 20
-119.5548041150766
 30
0.0
 10
87.57536076369644
 20
-119.5548041150766
 30
0.0
 10
87.57536076369644
 20
-121.0990681663398
 30
0.0
 10
87.57536076369644
 20
-121.0990681663398
 30
0.0
 10
87.57536076369644
 20
-121.0990681663398
 30
0.0
 10
87.35125730238094
 20
-121.0990681663398
 30
0.0
 10
87.35125730238094
 20
-121.0990681663398
 30
0.0
  0
HATCH
  5
D8
330
D3
100
AcDbEntity
  8
_U+30EC_U+30A4_U+30E4_U+30FC 1
 62
   179
420
  2234388
100
AcDbHatch
 10
0.0
 20
0.0
 30
0.0
210
0.0
220
0.0
230
1.0
  2
SOLID
 70
     1
 71
     0
 91
        1
 92
        1
 93
        1
 72
     4
 94
        3
 73
     0
 74
     1
 95
       26
 96
       22
 40
0.0
 40
0.0
 40
0.0
 40
0.0
 40
1.0
 40
1.0
 40
1.0
 40
2.0
 40
2.0
 40
2.0
 40
3.0
 40
3.0
 40
3.0
 40
4.0
 40
4.0
 40
4.0
 40
5.0
 40
5.0
 40
5.0
 40
6.0
 40
6.0
 40
6.0
 40
7.0
 40
7.0
 40
7.0
 40
7.0
 10
87.35125730238094
 20
-121.0990681663398
 10
87.35125730238094
 20
-121.0990681663398
 10
87.35125730238094
 20
-119.994742808543
 10
87.35125730238094
 20
-119.994742808543
 10
87.35125730238094
 20
-119.994742808543
 10
87.021217154894
 20
-119.994742808543
 10
87.021217154894
 20
-119.994742808543
 10
87.021217154894
 20
-119.994742808543
 10
87.021217154894
 20
-119.8467759574515
 10
87.021217154894
 20
-119.8467759574515
 10
87.35332435967209
 20
-119.8319620468649
 10
87.39983314872296
 20
-119.6690090304126
 10
87.42946096989611
 20
-119.5548041150766
 10
87.42946096989611
 20
-119.5548041150766
 10
87.57536076369644
 20
-119.5548041150766
 10
87.57536076369644
 20
-119.5548041150766
 10
87.57536076369644
 20
-119.5548041150766
 10
87.57536076369644
 20
-121.0990681663398
 10
87.57536076369644
 20
-121.0990681663398
 10
87.57536076369644
 20
-121.0990681663398
 10
87.35125730238094
 20
-121.0990681663398
 10
87.35125730238094
 20
-121.0990681663398
 97
        0
 97
        0
 75
     2
 76
     1
 98
        0
  0
SPLINE
  5
D9
330
D3
100
AcDbEntity
  8
_U+30EC_U+30A4_U+30E4_U+30FC 1
370
     0
100
AcDbSpline
210
0.0
220
0.0
230
1.0
 70
    11
 71
     3
 72
    29
 73
    25
 74
     0
 42
0.0000000001
 43
0.0000000001
 12
1.0
 22
0.0
 32
0.0
 13
1.0
 23
0.0
 33
0.0
 40
0.0
 40
0.0
 40
0.0
 40
0.0
 40
1.0
 40
1.0
 40
1.0
 40
2.0
 40
2.0
 40
2.0
 40
3.0
 40
3.0
 40
3.0
 40
4.0
 40
4.0
 40
4.0
 40
5.0
 40
5.0
 40
5.0
 40
6.0
 40
6.0
 40
6.0
 40
7.0
 40
7.0
 40
7.0
 40
8.0
 40
8.0
 40
8.0
 40
8.0
 10
88.9744140402564
 20
-120.9214734940752
 30
0.0
 10
88.86658255156809
 20
-121.1307630448041
 30
0.0
 10
88.69312199388575
 20
-121.1498833247473
 30
0.0
 10
88.57667776648431
 20
-121.1498833247473
 30
0.0
 10
88.4159640620974
 20
-121.1498833247473
 30
0.0
 10
88.27419838287938
 20
-121.1033745356964
 30
0.0
 10
88.17894149271221
 20
-120.9214734940752
 30
0.0
 10
88.07541637338045
 20
-120.7268255991586
 30
0.0
 10
88.05629609343733
 20
-120.4898030297734
 30
0.0
 10
88.05629609343733
 20
-120.3270222680953
 30
0.0
 10
88.05629609343733
 20
-120.1830172768119
 30
0.0
 10
88.07317706131505
 20
-119.9313530516144
 30
0.0
 10
88.17894149271221
 20
-119.7325710421155
 30
0.0
 10
88.2869452361748
 20
-119.5293104084857
 30
0.0
 10
88.4476589405617
 20
-119.5060560139603
 30
0.0
 10
88.57667776648431
 20
-119.5060560139603
 30
0.0
 10
88.73532441358006
 20
-119.5060560139603
 30
0.0
 10
88.87915715008924
 20
-119.55049774572
 30
0.0
 10
88.9744140402564
 20
-119.7325710421155
 30
0.0
 10
89.07380504500586
 20
-119.9249796249667
 30
0.0
 10
89.0970594395313
 20
-120.1533894556387
 30
0.0
 10
89.0970594395313
 20
-120.3270222680953
 30
0.0
 10
89.0970594395313
 20
-120.4982435137123
 30
0.0
 10
89.07604435707127
 20
-120.7288926564497
 30
0.0
 10
88.9744140402564
 20
-120.9214734940752
 30
0.0
  0
SPLINE
  5
DA
330
D3
100
AcDbEntity
  8
_U+30EC_U+30A4_U+30E4_U+30FC 1
370
     0
100
AcDbSpline
210
0.0
220
0.0
230
1.0
 70
    11
 71
     3
 72
    17
 73
    13
 74
     0
 42
0.0000000001
 43
0.0000000001
 12
1.0
 22
0.0
 32
0.0
 13
1.0
 23
0.0
 33
0.0
 40
0.0
 40
0.0
 40
0.0
 40
0.0
 40
1.0
 40
1.0
 40
1.0
 40
2.0
 40
2.0
 40
2.0
 40
3.0
 40
3.0
 40
3.0
 40
4.0
 40
4.0
 40
4.0
 40
4.0
 10
88.57667776648431
 20
-119.6986368515858
 30
0.0
 10
88.32708059857795
 20
-119.6986368515858
 30
0.0
 10
88.28057180952709
 20
-119.9821682100218
 30
0.0
 10
88.28057180952709
 20
-120.3270222680953
 30
0.0
 10
88.28057180952709
 20
-120.646382619578
 30
0.0
 10
88.31657305734794
 20
-120.9552354298306
 30
0.0
 10
88.57667776648431
 20
-120.9552354298306
 30
0.0
 10
88.82420787709951
 20
-120.9552354298306
 30
0.0
 10
88.8729559782158
 20
-120.67394338346
 30
0.0
 10
88.8729559782158
 20
-120.3270222680953
 30
0.0
 10
88.8729559782158
 20
-120.0074896618384
 30
0.0
 10
88.83488767310378
 20
-119.6986368515858
 30
0.0
 10
88.57667776648431
 20
-119.6986368515858
 30
0.0
  0
HATCH
  5
DB
330
D3
100
AcDbEntity
  8
_U+30EC_U+30A4_U+30E4_U+30FC 1
 62
   179
420
  2234388
100
AcDbHatch
 10
0.0
 20
0.0
 30
0.0
210
0.0
220
0.0
230
1.0
  2
SOLID
 70
     1
 71
     0
 91
        2
 92
        1
 93
        1
 72
     4
 94
        3
 73
     0
 74
     1
 95
       29
 96
       25
 40
0.0
 40
0.0
 40
0.0
 40
0.0
 40
1.0
 40
1.0
 40
1.0
 40
2.0
 40
2.0
 40
2.0
 40
3.0
 40
3.0
 40
3.0
 40
4.0
 40
4.0
 40
4.0
 40
5.0
 40
5.0
 40
5.0
 40
6.0
 40
6.0
 40
6.0
 40
7.0
 40
7.0
 40
7.0
 40
8.0
 40
8.0
 40
8.0
 40
8.0
 10
88.9744140402564
 20
-120.9214734940752
 10
88.86658255156809
 20
-121.1307630448041
 10
88.69312199388575
 20
-121.1498833247473
 10
88.57667776648431
 20
-121.1498833247473
 10
88.4159640620974
 20
-121.1498833247473
 10
88.27419838287938
 20
-121.1033745356964
 10
88.17894149271221
 20
-120.9214734940752
 10
88.07541637338045
 20
-120.7268255991586
 10
88.05629609343733
 20
-120.4898030297734
 10
88.05629609343733
 20
-120.3270222680953
 10
88.05629609343733
 20
-120.1830172768119
 10
88.07317706131505
 20
-119.9313530516144
 10
88.17894149271221
 20
-119.7325710421155
 10
88.2869452361748
 20
-119.5293104084857
 10
88.4476589405617
 20
-119.5060560139603
 10
88.57667776648431
 20
-119.5060560139603
 10
88.73532441358006
 20
-119.5060560139603
 10
88.87915715008924
 20
-119.55049774572
 10
88.9744140402564
 20
-119.7325710421155
 10
89.07380504500586
 20
-119.9249796249667
 10
89.0970594395313
 20
-120.1533894556387
 10
89.0970594395313
 20
-120.3270222680953
 10
89.0970594395313
 20
-120.4982435137123
 10
89.07604435707127
 20
-120.7288926564497
 10
88.9744140402564
 20
-120.9214734940752
 97
        0
 97
        0
 92
        1
 93
        1
 72
     4
 94
        3
 73
     0
 74
     1
 95
       17
 96
       13
 40
0.0
 40
0.0
 40
0.0
 40
0.0
 40
1.0
 40
1.0
 40
1.0
 40
2.0
 40
2.0
 40
2.0
 40
3.0
 40
3.0
 40
3.0
 40
4.0
 40
4.0
 40
4.0
 40
4.0
 10
88.57667776648431
 20
-119.6986368515858
 10
88.32708059857795
 20
-119.6986368515858
 10
88.28057180952709
 20
-119.9821682100218
 10
88.28057180952709
 20
-120.3270222680953
 10
88.28057180952709
 20
-120.646382619578
 10
88.31657305734794
 20
-120.9552354298306
 10
88.57667776648431
 20
-120.9552354298306
 10
88.82420787709951
 20
-120.9552354298306
 10
88.8729559782158
 20
-120.67394338346
 10
88.8729559782158
 20
-120.3270222680953
 10
88.8729559782158
 20
-120.0074896618384
 10
88.83488767310378
 20
-119.6986368515858
 10
88.57667776648431
 20
-119.6986368515858
 97
        0
 97
        0
 75
     2
 76
     1
 98
        0
  0
ENDBLK
  5
D6
330
D3
100
AcDbEntity
  8
0
100
AcDbBlockEnd
  0
BLOCK
  5
ED
330
EB
100
AcDbEntity
  8
0
100
AcDbBlockBegin
  2
block 3
 70
     0
 10
0.0
 20
0.0
 30
0.0
  3
block 3
  1

  0
SPLINE
  5
EF
330
EB
100
AcDbEntity
  8
_U+30EC_U+30A4_U+30E4_U+30FC 1
370
     0
100
AcDbSpline
210
0.0
220
0.0
230
1.0
 70
    11
 71
     3
 72
    26
 73
    22
 74
     0
 42
0.0000000001
 43
0.0000000001
 12
1.0
 22
0.0
 32
0.0
 13
1.0
 23
0.0
 33
0.0
 40
0.0
 40
0.0
 40
0.0
 40
0.0
 40
1.0
 40
1.0
 40
1.0
 40
2.0
 40
2.0
 40
2.0
 40
3.0
 40
3.0
 40
3.0
 40
4.0
 40
4.0
 40
4.0
 40
5.0
 40
5.0
 40
5.0
 40
6.0
 40
6.0
 40
6.0
 40
7.0
 40
7.0
 40
7.0
 40
7.0
 10
86.48912215719717
 20
-137.0996418928084
 30
0.0
 10
86.48912215719717
 20
-137.0996418928084
 30
0.0
 10
86.48912215719717
 20
-135.9951442802373
 30
0.0
 10
86.48912215719717
 20
-135.9951442802373
 30
0.0
 10
86.48912215719717
 20
-135.9951442802373
 30
0.0
 10
86.15908200971023
 20
-135.9951442802373
 30
0.0
 10
86.15908200971023
 20
-135.9951442802373
 30
0.0
 10
86.15908200971023
 20
-135.9951442802373
 30
0.0
 10
86.15908200971023
 20
-135.8470051743716
 30
0.0
 10
86.15908200971023
 20
-135.8470051743716
 30
0.0
 10
86.49118921448832
 20
-135.832191263785
 30
0.0
 10
86.53769800353919
 20
-135.6695827568812
 30
0.0
 10
86.56732582471234
 20
-135.5552055867709
 30
0.0
 10
86.56732582471234
 20
-135.5552055867709
 30
0.0
 10
86.71339787328694
 20
-135.5552055867709
 30
0.0
 10
86.71339787328694
 20
-135.5552055867709
 30
0.0
 10
86.71339787328694
 20
-135.5552055867709
 30
0.0
 10
86.71339787328694
 20
-137.0996418928084
 30
0.0
 10
86.71339787328694
 20
-137.0996418928084
 30
0.0
 10
86.71339787328694
 20
-137.0996418928084
 30
0.0
 10
86.48912215719717
 20
-137.0996418928084
 30
0.0
 10
86.48912215719717
 20
-137.0996418928084
 30
0.0
  0
HATCH
  5
F0
330
EB
100
AcDbEntity
  8
_U+30EC_U+30A4_U+30E4_U+30FC 1
 62
   179
420
  2234388
100
AcDbHatch
 10
0.0
 20
0.0
 30
0.0
210
0.0
220
0.0
230
1.0
  2
SOLID
 70
     1
 71
     0
 91
        1
 92
        1
 93
        1
 72
     4
 94
        3
 73
     0
 74
     1
 95
       26
 96
       22
 40
0.0
 40
0.0
 40
0.0
 40
0.0
 40
1.0
 40
1.0
 40
1.0
 40
2.0
 40
2.0
 40
2.0
 40
3.0
 40
3.0
 40
3.0
 40
4.0
 40
4.0
 40
4.0
 40
5.0
 40
5.0
 40
5.0
 40
6.0
 40
6.0
 40
6.0
 40
7.0
 40
7.0
 40
7.0
 40
7.0
 10
86.48912215719717
 20
-137.0996418928084
 10
86.48912215719717
 20
-137.0996418928084
 10
86.48912215719717
 20
-135.9951442802373
 10
86.48912215719717
 20
-135.9951442802373
 10
86.48912215719717
 20
-135.9951442802373
 10
86.15908200971023
 20
-135.9951442802373
 10
86.15908200971023
 20
-135.9951442802373
 10
86.15908200971023
 20
-135.9951442802373
 10
86.15908200971023
 20
-135.8470051743716
 10
86.15908200971023
 20
-135.8470051743716
 10
86.49118921448832
 20
-135.832191263785
 10
86.53769800353919
 20
-135.6695827568812
 10
86.56732582471234
 20
-135.5552055867709
 10
86.56732582471234
 20
-135.5552055867709
 10
86.71339787328694
 20
-135.5552055867709
 10
86.71339787328694
 20
-135.5552055867709
 10
86.71339787328694
 20
-135.5552055867709
 10
86.71339787328694
 20
-137.0996418928084
 10
86.71339787328694
 20
-137.0996418928084
 10
86.71339787328694
 20
-137.0996418928084
 10
86.48912215719717
 20
-137.0996418928084
 10
86.48912215719717
 20
-137.0996418928084
 97
        0
 97
        0
 75
     2
 76
     1
 98
        0
  0
SPLINE
  5
F1
330
EB
100
AcDbEntity
  8
_U+30EC_U+30A4_U+30E4_U+30FC 1
370
     0
100
AcDbSpline
210
0.0
220
0.0
230
1.0
 70
    11
 71
     3
 72
    62
 73
    58
 74
     0
 42
0.0000000001
 43
0.0000000001
 12
1.0
 22
0.0
 32
0.0
 13
1.0
 23
0.0
 33
0.0
 40
0.0
 40
0.0
 40
0.0
 40
0.0
 40
1.0
 40
1.0
 40
1.0
 40
2.0
 40
2.0
 40
2.0
 40
3.0
 40
3.0
 40
3.0
 40
4.0
 40
4.0
 40
4.0
 40
5.0
 40
5.0
 40
5.0
 40
6.0
 40
6.0
 40
6.0
 40
7.0
 40
7.0
 40
7.0
 40
8.0
 40
8.0
 40
8.0
 40
9.0
 40
9.0
 40
9.0
 40
10.0
 40
10.0
 40
10.0
 40
11.0
 40
11.0
 40
11.0
 40
12.0
 40
12.0
 40
12.0
 40
13.0
 40
13.0
 40
13.0
 40
14.0
 40
14.0
 40
14.0
 40
15.0
 40
15.0
 40
15.0
 40
16.0
 40
16.0
 40
16.0
 40
17.0
 40
17.0
 40
17.0
 40
18.0
 40
18.0
 40
18.0
 40
19.0
 40
19.0
 40
19.0
 40
19.0
 10
87.70610213736167
 20
-137.1502847964416
 30
0.0
 10
87.61101750196877
 20
-137.1502847964416
 30
0.0
 10
87.39311521252672
 20
-137.1292697139816
 30
0.0
 10
87.26823050118642
 20
-136.9428900482296
 30
0.0
 10
87.19416094825355
 20
-136.830924444959
 30
0.0
 10
87.19002683367125
 20
-136.7313611854352
 30
0.0
 10
87.18572046431468
 20
-136.6469563460466
 30
0.0
 10
87.18572046431468
 20
-136.6469563460466
 30
0.0
 10
87.40568981104789
 20
-136.6469563460466
 30
0.0
 10
87.40568981104789
 20
-136.6469563460466
 30
0.0
 10
87.4079291231133
 20
-136.720681389431
 30
0.0
 10
87.41843666434332
 20
-136.955636901525
 30
0.0
 10
87.70196802277937
 20
-136.955636901525
 30
0.0
 10
87.83942733264084
 20
-136.955636901525
 30
0.0
 10
87.99170055308889
 20
-136.8857014631744
 30
0.0
 10
87.99170055308889
 20
-136.6572916325024
 30
0.0
 10
87.99170055308889
 20
-136.5408474051009
 30
0.0
 10
87.95363224797687
 20
-136.4922715587589
 30
0.0
 10
87.92193736951258
 20
-136.4605766802946
 30
0.0
 10
87.84786781657971
 20
-136.3865071273617
 30
0.0
 10
87.73159584395252
 20
-136.3737602740663
 30
0.0
 10
87.67647431618852
 20
-136.3737602740663
 30
0.0
 10
87.65752629101965
 20
-136.3737602740663
 30
0.0
 10
87.62152504319879
 20
-136.376171840906
 30
0.0
 10
87.5939642793168
 20
-136.3803059554883
 30
0.0
 10
87.5939642793168
 20
-136.3803059554883
 30
0.0
 10
87.5939642793168
 20
-136.1856580605717
 30
0.0
 10
87.5939642793168
 20
-136.1856580605717
 30
0.0
 10
87.6320325844288
 20
-136.1918592324451
 30
0.0
 10
87.67440725889738
 20
-136.1939262897363
 30
0.0
 10
87.68078068554509
 20
-136.1939262897363
 30
0.0
 10
87.7464097545391
 20
-136.1939262897363
 30
0.0
 10
87.94519176403801
 20
-136.1729112072762
 30
0.0
 10
87.94519176403801
 20
-135.935888637891
 30
0.0
 10
87.94519176403801
 20
-135.7581217108522
 30
0.0
 10
87.81410588082426
 20
-135.7033446926367
 30
0.0
 10
87.70403508007053
 20
-135.7033446926367
 30
0.0
 10
87.4396240015776
 20
-135.7033446926367
 30
0.0
 10
87.43118351763873
 20
-135.935888637891
 30
0.0
 10
87.42687714828217
 20
-136.0078911335328
 30
0.0
 10
87.42687714828217
 20
-136.0078911335328
 30
0.0
 10
87.22378876942669
 20
-136.0078911335328
 30
0.0
 10
87.22378876942669
 20
-136.0078911335328
 30
0.0
 10
87.23222925336556
 20
-135.8831786769667
 30
0.0
 10
87.25979001724755
 20
-135.5066297404289
 30
0.0
 10
87.71678193336595
 20
-135.5066297404289
 30
0.0
 10
87.94088539468144
 20
-135.5066297404289
 30
0.0
 10
88.1822143334232
 20
-135.6334092542861
 30
0.0
 10
88.1822143334232
 20
-135.9296874660176
 30
0.0
 10
88.1822143334232
 20
-136.1157226222211
 30
0.0
 10
88.08695744325604
 20
-136.1984049138671
 30
0.0
 10
87.98756643850659
 20
-136.2597276135045
 30
0.0
 10
88.04888913814403
 20
-136.2872883773865
 30
0.0
 10
88.23079017976522
 20
-136.3675591021928
 30
0.0
 10
88.23079017976522
 20
-136.6445447792069
 30
0.0
 10
88.23079017976522
 20
-136.983197665407
 30
0.0
 10
87.98326006915002
 20
-137.1502847964416
 30
0.0
 10
87.70610213736167
 20
-137.1502847964416
 30
0.0
  0
HATCH
  5
F2
330
EB
100
AcDbEntity
  8
_U+30EC_U+30A4_U+30E4_U+30FC 1
 62
   179
420
  2234388
100
AcDbHatch
 10
0.0
 20
0.0
 30
0.0
210
0.0
220
0.0
230
1.0
  2
SOLID
 70
     1
 71
     0
 91
        1
 92
        1
 93
        1
 72
     4
 94
        3
 73
     0
 74
     1
 95
       62
 96
       58
 40
0.0
 40
0.0
 40
0.0
 40
0.0
 40
1.0
 40
1.0
 40
1.0
 40
2.0
 40
2.0
 40
2.0
 40
3.0
 40
3.0
 40
3.0
 40
4.0
 40
4.0
 40
4.0
 40
5.0
 40
5.0
 40
5.0
 40
6.0
 40
6.0
 40
6.0
 40
7.0
 40
7.0
 40
7.0
 40
8.0
 40
8.0
 40
8.0
 40
9.0
 40
9.0
 40
9.0
 40
10.0
 40
10.0
 40
10.0
 40
11.0
 40
11.0
 40
11.0
 40
12.0
 40
12.0
 40
12.0
 40
13.0
 40
13.0
 40
13.0
 40
14.0
 40
14.0
 40
14.0
 40
15.0
 40
15.0
 40
15.0
 40
16.0
 40
16.0
 40
16.0
 40
17.0
 40
17.0
 40
17.0
 40
18.0
 40
18.0
 40
18.0
 40
19.0
 40
19.0
 40
19.0
 40
19.0
 10
87.70610213736167
 20
-137.1502847964416
 10
87.61101750196877
 20
-137.1502847964416
 10
87.39311521252672
 20
-137.1292697139816
 10
87.26823050118642
 20
-136.9428900482296
 10
87.19416094825355
 20
-136.830924444959
 10
87.19002683367125
 20
-136.7313611854352
 10
87.18572046431468
 20
-136.6469563460466
 10
87.18572046431468
 20
-136.6469563460466
 10
87.40568981104789
 20
-136.6469563460466
 10
87.40568981104789
 20
-136.6469563460466
 10
87.4079291231133
 20
-136.720681389431
 10
87.41843666434332
 20
-136.955636901525
 10
87.70196802277937
 20
-136.955636901525
 10
87.83942733264084
 20
-136.955636901525
 10
87.99170055308889
 20
-136.8857014631744
 10
87.99170055308889
 20
-136.6572916325024
 10
87.99170055308889
 20
-136.5408474051009
 10
87.95363224797687
 20
-136.4922715587589
 10
87.92193736951258
 20
-136.4605766802946
 10
87.84786781657971
 20
-136.3865071273617
 10
87.73159584395252
 20
-136.3737602740663
 10
87.67647431618852
 20
-136.3737602740663
 10
87.65752629101965
 20
-136.3737602740663
 10
87.62152504319879
 20
-136.376171840906
 10
87.5939642793168
 20
-136.3803059554883
 10
87.5939642793168
 20
-136.3803059554883
 10
87.5939642793168
 20
-136.1856580605717
 10
87.5939642793168
 20
-136.1856580605717
 10
87.6320325844288
 20
-136.1918592324451
 10
87.67440725889738
 20
-136.1939262897363
 10
87.68078068554509
 20
-136.1939262897363
 10
87.7464097545391
 20
-136.1939262897363
 10
87.94519176403801
 20
-136.1729112072762
 10
87.94519176403801
 20
-135.935888637891
 10
87.94519176403801
 20
-135.7581217108522
 10
87.81410588082426
 20
-135.7033446926367
 10
87.70403508007053
 20
-135.7033446926367
 10
87.4396240015776
 20
-135.7033446926367
 10
87.43118351763873
 20
-135.935888637891
 10
87.42687714828217
 20
-136.0078911335328
 10
87.42687714828217
 20
-136.0078911335328
 10
87.22378876942669
 20
-136.0078911335328
 10
87.22378876942669
 20
-136.0078911335328
 10
87.23222925336556
 20
-135.8831786769667
 10
87.25979001724755
 20
-135.5066297404289
 10
87.71678193336595
 20
-135.5066297404289
 10
87.94088539468144
 20
-135.5066297404289
 10
88.1822143334232
 20
-135.6334092542861
 10
88.1822143334232
 20
-135.9296874660176
 10
88.1822143334232
 20
-136.1157226222211
 10
88.08695744325604
 20
-136.1984049138671
 10
87.98756643850659
 20
-136.2597276135045
 10
88.04888913814403
 20
-136.2872883773865
 10
88.23079017976522
 20
-136.3675591021928
 10
88.23079017976522
 20
-136.6445447792069
 10
88.23079017976522
 20
-136.983197665407
 10
87.98326006915002
 20
-137.1502847964416
 10
87.70610213736167
 20
-137.1502847964416
 97
        0
 97
        0
 75
     2
 76
     1
 98
        0
  0
POLYLINE
  5
F3
330
EB
100
AcDbEntity
  8
_U+30EC_U+30A4_U+30E4_U+30FC 1
370
     0
100
AcDb2dPolyline
 66
     1
 10
0.0
 20
0.0
 30
0.0
  0
VERTEX
  5
F4
330
F3
100
AcDbEntity
  8
_U+30EC_U+30A4_U+30E4_U+30FC 1
370
     0
100
AcDbVertex
100
AcDb2dVertex
 10
88.45144854559547
 20
-137.0996418928084
 30
0.0
  0
VERTEX
  5
F5
330
F3
100
AcDbEntity
  8
_U+30EC_U+30A4_U+30E4_U+30FC 1
370
     0
100
AcDbVertex
100
AcDb2dVertex
 10
88.45144854559547
 20
-136.8478054128367
 30
0.0
  0
VERTEX
  5
F6
330
F3
100
AcDbEntity
  8
_U+30EC_U+30A4_U+30E4_U+30FC 1
370
     0
100
AcDbVertex
100
AcDb2dVertex
 10
88.70311277079297
 20
-136.8478054128367
 30
0.0
  0
VERTEX
  5
F7
330
F3
100
AcDbEntity
  8
_U+30EC_U+30A4_U+30E4_U+30FC 1
370
     0
100
AcDbVertex
100
AcDb2dVertex
 10
88.70311277079297
 20
-137.0996418928084
 30
0.0
  0
VERTEX
  5
F8
330
F3
100
AcDbEntity
  8
_U+30EC_U+30A4_U+30E4_U+30FC 1
370
     0
100
AcDbVertex
100
AcDb2dVertex
 10
88.45144854559547
 20
-137.0996418928084
 30
0.0
  0
SEQEND
  5
F9
330
F3
100
AcDbEntity
  8
_U+30EC_U+30A4_U+30E4_U+30FC 1
370
     0
  0
HATCH
  5
FA
330
EB
100
AcDbEntity
  8
_U+30EC_U+30A4_U+30E4_U+30FC 1
 62
   179
420
  2234388
100
AcDbHatch
 10
0.0
 20
0.0
 30
0.0
210
0.0
220
0.0
230
1.0
  2
SOLID
 70
     1
 71
     0
 91
        1
 92
        1
 93
        4
 72
     1
 10
88.45144854559547
 20
-137.0996418928084
 11
88.45144854559547
 21
-136.8478054128367
 72
     1
 10
88.45144854559547
 20
-136.8478054128367
 11
88.70311277079297
 21
-136.8478054128367
 72
     1
 10
88.70311277079297
 20
-136.8478054128367
 11
88.70311277079297
 21
-137.0996418928084
 72
     1
 10
88.70311277079297
 20
-137.0996418928084
 11
88.45144854559547
 21
-137.0996418928084
 97
        0
 75
     2
 76
     1
 98
        0
  0
SPLINE
  5
FB
330
EB
100
AcDbEntity
  8
_U+30EC_U+30A4_U+30E4_U+30FC 1
370
     0
100
AcDbSpline
210
0.0
220
0.0
230
1.0
 70
    11
 71
     3
 72
    53
 73
    49
 74
     0
 42
0.0000000001
 43
0.0000000001
 12
1.0
 22
0.0
 32
0.0
 13
1.0
 23
0.0
 33
0.0
 40
0.0
 40
0.0
 40
0.0
 40
0.0
 40
1.0
 40
1.0
 40
1.0
 40
2.0
 40
2.0
 40
2.0
 40
3.0
 40
3.0
 40
3.0
 40
4.0
 40
4.0
 40
4.0
 40
5.0
 40
5.0
 40
5.0
 40
6.0
 40
6.0
 40
6.0
 40
7.0
 40
7.0
 40
7.0
 40
8.0
 40
8.0
 40
8.0
 40
9.0
 40
9.0
 40
9.0
 40
10.0
 40
10.0
 40
10.0
 40
11.0
 40
11.0
 40
11.0
 40
12.0
 40
12.0
 40
12.0
 40
13.0
 40
13.0
 40
13.0
 40
14.0
 40
14.0
 40
14.0
 40
15.0
 40
15.0
 40
15.0
 40
16.0
 40
16.0
 40
16.0
 40
16.0
 10
89.42055390559625
 20
-137.1502847964416
 30
0.0
 10
89.34235023808108
 20
-137.1502847964416
 30
0.0
 10
89.24089217604048
 20
-137.1334038285639
 30
0.0
 10
89.1392618592256
 20
-137.0700140716353
 30
0.0
 10
88.96580130154328
 20
-136.9597710161073
 30
0.0
 10
88.94461396430899
 20
-136.8288573876678
 30
0.0
 10
88.92566593914012
 20
-136.720681389431
 30
0.0
 10
88.92566593914012
 20
-136.720681389431
 30
0.0
 10
89.14770234316447
 20
-136.720681389431
 30
0.0
 10
89.14770234316447
 20
-136.720681389431
 30
0.0
 10
89.2026516161542
 20
-136.9198079084784
 30
0.0
 10
89.32960338478566
 20
-136.9494357296515
 30
0.0
 10
89.42279321766166
 20
-136.9494357296515
 30
0.0
 10
89.56231958481429
 20
-136.9494357296515
 30
0.0
 10
89.71476506003658
 20
-136.8498724701278
 30
0.0
 10
89.71476506003658
 20
-136.6173285248734
 30
0.0
 10
89.71476506003658
 20
-136.3613579303194
 30
0.0
 10
89.53493107570655
 20
-136.2914224919688
 30
0.0
 10
89.41435273372281
 20
-136.2914224919688
 30
0.0
 10
89.38248560048424
 20
-136.2914224919688
 30
0.0
 10
89.24089217604048
 20
-136.2914224919688
 30
0.0
 10
89.15200871252102
 20
-136.4202690631172
 30
0.0
 10
89.15200871252102
 20
-136.4202690631172
 30
0.0
 10
88.97630884277329
 20
-136.4013210379483
 30
0.0
 10
88.97630884277329
 20
-136.4013210379483
 30
0.0
 10
88.97630884277329
 20
-136.4013210379483
 30
0.0
 10
89.09688718475704
 20
-135.5552055867709
 30
0.0
 10
89.09688718475704
 20
-135.5552055867709
 30
0.0
 10
89.09688718475704
 20
-135.5552055867709
 30
0.0
 10
89.87547876442349
 20
-135.5552055867709
 30
0.0
 10
89.87547876442349
 20
-135.5552055867709
 30
0.0
 10
89.87547876442349
 20
-135.5552055867709
 30
0.0
 10
89.87547876442349
 20
-135.7498534816876
 30
0.0
 10
89.87547876442349
 20
-135.7498534816876
 30
0.0
 10
89.87547876442349
 20
-135.7498534816876
 30
0.0
 10
89.25984020120934
 20
-135.7498534816876
 30
0.0
 10
89.25984020120934
 20
-135.7498534816876
 30
0.0
 10
89.25984020120934
 20
-135.7498534816876
 30
0.0
 10
89.19421113221534
 20
-136.1729112072762
 30
0.0
 10
89.19421113221534
 20
-136.1729112072762
 30
0.0
 10
89.25553383185279
 20
-136.1391492715208
 30
0.0
 10
89.33804386872453
 20
-136.0988416543433
 30
0.0
 10
89.45655515341711
 20
-136.0988416543433
 30
0.0
 10
89.71045869068003
 20
-136.0988416543433
 30
0.0
 10
89.94730900529096
 20
-136.2848768105468
 30
0.0
 10
89.94730900529096
 20
-136.5980359901561
 30
0.0
 10
89.94730900529096
 20
-136.9153292843476
 30
0.0
 10
89.72320554397545
 20
-137.1502847964416
 30
0.0
 10
89.42055390559625
 20
-137.1502847964416
 30
0.0
  0
HATCH
  5
FC
330
EB
100
AcDbEntity
  8
_U+30EC_U+30A4_U+30E4_U+30FC 1
 62
   179
420
  2234388
100
AcDbHatch
 10
0.0
 20
0.0
 30
0.0
210
0.0
220
0.0
230
1.0
  2
SOLID
 70
     1
 71
     0
 91
        1
 92
        1
 93
        1
 72
     4
 94
        3
 73
     0
 74
     1
 95
       53
 96
       49
 40
0.0
 40
0.0
 40
0.0
 40
0.0
 40
1.0
 40
1.0
 40
1.0
 40
2.0
 40
2.0
 40
2.0
 40
3.0
 40
3.0
 40
3.0
 40
4.0
 40
4.0
 40
4.0
 40
5.0
 40
5.0
 40
5.0
 40
6.0
 40
6.0
 40
6.0
 40
7.0
 40
7.0
 40
7.0
 40
8.0
 40
8.0
 40
8.0
 40
9.0
 40
9.0
 40
9.0
 40
10.0
 40
10.0
 40
10.0
 40
11.0
 40
11.0
 40
11.0
 40
12.0
 40
12.0
 40
12.0
 40
13.0
 40
13.0
 40
13.0
 40
14.0
 40
14.0
 40
14.0
 40
15.0
 40
15.0
 40
15.0
 40
16.0
 40
16.0
 40
16.0
 40
16.0
 10
89.42055390559625
 20
-137.1502847964416
 10
89.34235023808108
 20
-137.1502847964416
 10
89.24089217604048
 20
-137.1334038285639
 10
89.1392618592256
 20
-137.0700140716353
 10
88.96580130154328
 20
-136.9597710161073
 10
88.94461396430899
 20
-136.8288573876678
 10
88.92566593914012
 20
-136.720681389431
 10
88.92566593914012
 20
-136.720681389431
 10
89.14770234316447
 20
-136.720681389431
 10
89.14770234316447
 20
-136.720681389431
 10
89.2026516161542
 20
-136.9198079084784
 10
89.32960338478566
 20
-136.9494357296515
 10
89.42279321766166
 20
-136.9494357296515
 10
89.56231958481429
 20
-136.9494357296515
 10
89.71476506003658
 20
-136.8498724701278
 10
89.71476506003658
 20
-136.6173285248734
 10
89.71476506003658
 20
-136.3613579303194
 10
89.53493107570655
 20
-136.2914224919688
 10
89.41435273372281
 20
-136.2914224919688
 10
89.38248560048424
 20
-136.2914224919688
 10
89.24089217604048
 20
-136.2914224919688
 10
89.15200871252102
 20
-136.4202690631172
 10
89.15200871252102
 20
-136.4202690631172
 10
88.97630884277329
 20
-136.4013210379483
 10
88.97630884277329
 20
-136.4013210379483
 10
88.97630884277329
 20
-136.4013210379483
 10
89.09688718475704
 20
-135.5552055867709
 10
89.09688718475704
 20
-135.5552055867709
 10
89.09688718475704
 20
-135.5552055867709
 10
89.87547876442349
 20
-135.5552055867709
 10
89.87547876442349
 20
-135.5552055867709
 10
89.87547876442349
 20
-135.5552055867709
 10
89.87547876442349
 20
-135.7498534816876
 10
89.87547876442349
 20
-135.7498534816876
 10
89.87547876442349
 20
-135.7498534816876
 10
89.25984020120934
 20
-135.7498534816876
 10
89.25984020120934
 20
-135.7498534816876
 10
89.25984020120934
 20
-135.7498534816876
 10
89.19421113221534
 20
-136.1729112072762
 10
89.19421113221534
 20
-136.1729112072762
 10
89.25553383185279
 20
-136.1391492715208
 10
89.33804386872453
 20
-136.0988416543433
 10
89.45655515341711
 20
-136.0988416543433
 10
89.71045869068003
 20
-136.0988416543433
 10
89.94730900529096
 20
-136.2848768105468
 10
89.94730900529096
 20
-136.5980359901561
 10
89.94730900529096
 20
-136.9153292843476
 10
89.72320554397545
 20
-137.1502847964416
 10
89.42055390559625
 20
-137.1502847964416
 97
        0
 97
        0
 75
     2
 76
     1
 98
        0
  0
ENDBLK
  5
EE
330
EB
100
AcDbEntity
  8
0
100
AcDbBlockEnd
  0
BLOCK
  5
10E
330
10C
100
AcDbEntity
  8
0
100
AcDbBlockBegin
  2
block 4
 70
     0
 10
0.0
 20
0.0
 30
0.0
  3
block 4
  1

  0
SPLINE
  5
110
330
10C
100
AcDbEntity
  8
_U+30EC_U+30A4_U+30E4_U+30FC 1
370
     0
100
AcDbSpline
210
0.0
220
0.0
230
1.0
 70
    11
 71
     3
 72
    26
 73
    22
 74
     0
 42
0.0000000001
 43
0.0000000001
 12
1.0
 22
0.0
 32
0.0
 13
1.0
 23
0.0
 33
0.0
 40
0.0
 40
0.0
 40
0.0
 40
0.0
 40
1.0
 40
1.0
 40
1.0
 40
2.0
 40
2.0
 40
2.0
 40
3.0
 40
3.0
 40
3.0
 40
4.0
 40
4.0
 40
4.0
 40
5.0
 40
5.0
 40
5.0
 40
6.0
 40
6.0
 40
6.0
 40
7.0
 40
7.0
 40
7.0
 40
7.0
 10
98.36608884259599
 20
-130.3062581054443
 30
0.0
 10
98.36608884259599
 20
-130.3062581054443
 30
0.0
 10
98.36608884259599
 20
-130.5432806748295
 30
0.0
 10
98.36608884259599
 20
-130.5432806748295
 30
0.0
 10
98.05706377756907
 20
-130.5177869682386
 30
0.0
 10
97.5389214165875
 20
-130.3252061306131
 30
0.0
 10
97.03318139935283
 20
-129.9190293729022
 30
0.0
 10
97.03318139935283
 20
-129.9190293729022
 30
0.0
 10
97.03318139935283
 20
-130.756876594915
 30
0.0
 10
97.03318139935283
 20
-130.756876594915
 30
0.0
 10
97.03318139935283
 20
-130.756876594915
 30
0.0
 10
96.82165253655847
 20
-130.756876594915
 30
0.0
 10
96.82165253655847
 20
-130.756876594915
 30
0.0
 10
96.82165253655847
 20
-130.756876594915
 30
0.0
 10
96.82165253655847
 20
-129.6823513130655
 30
0.0
 10
96.82165253655847
 20
-129.6823513130655
 30
0.0
 10
96.82165253655847
 20
-129.6823513130655
 30
0.0
 10
97.03318139935283
 20
-129.6823513130655
 30
0.0
 10
97.03318139935283
 20
-129.6823513130655
 30
0.0
 10
97.32291392966233
 20
-130.0058457791305
 30
0.0
 10
97.9154703531253
 20
-130.2724961696888
 30
0.0
 10
98.36608884259599
 20
-130.3062581054443
 30
0.0
  0
HATCH
  5
111
330
10C
100
AcDbEntity
  8
_U+30EC_U+30A4_U+30E4_U+30FC 1
 62
   179
420
  2234388
100
AcDbHatch
 10
0.0
 20
0.0
 30
0.0
210
0.0
220
0.0
230
1.0
  2
SOLID
 70
     1
 71
     0
 91
        1
 92
        1
 93
        1
 72
     4
 94
        3
 73
     0
 74
     1
 95
       26
 96
       22
 40
0.0
 40
0.0
 40
0.0
 40
0.0
 40
1.0
 40
1.0
 40
1.0
 40
2.0
 40
2.0
 40
2.0
 40
3.0
 40
3.0
 40
3.0
 40
4.0
 40
4.0
 40
4.0
 40
5.0
 40
5.0
 40
5.0
 40
6.0
 40
6.0
 40
6.0
 40
7.0
 40
7.0
 40
7.0
 40
7.0
 10
98.36608884259599
 20
-130.3062581054443
 10
98.36608884259599
 20
-130.3062581054443
 10
98.36608884259599
 20
-130.5432806748295
 10
98.36608884259599
 20
-130.5432806748295
 10
98.05706377756907
 20
-130.5177869682386
 10
97.5389214165875
 20
-130.3252061306131
 10
97.03318139935283
 20
-129.9190293729022
 10
97.03318139935283
 20
-129.9190293729022
 10
97.03318139935283
 20
-130.756876594915
 10
97.03318139935283
 20
-130.756876594915
 10
97.03318139935283
 20
-130.756876594915
 10
96.82165253655847
 20
-130.756876594915
 10
96.82165253655847
 20
-130.756876594915
 10
96.82165253655847
 20
-130.756876594915
 10
96.82165253655847
 20
-129.6823513130655
 10
96.82165253655847
 20
-129.6823513130655
 10
96.82165253655847
 20
-129.6823513130655
 10
97.03318139935283
 20
-129.6823513130655
 10
97.03318139935283
 20
-129.6823513130655
 10
97.32291392966233
 20
-130.0058457791305
 10
97.9154703531253
 20
-130.2724961696888
 10
98.36608884259599
 20
-130.3062581054443
 97
        0
 97
        0
 75
     2
 76
     1
 98
        0
  0
POLYLINE
  5
112
330
10C
100
AcDbEntity
  8
_U+30EC_U+30A4_U+30E4_U+30FC 1
370
     0
100
AcDb2dPolyline
 66
     1
 10
0.0
 20
0.0
 30
0.0
  0
VERTEX
  5
113
330
112
100
AcDbEntity
  8
_U+30EC_U+30A4_U+30E4_U+30FC 1
370
     0
100
AcDbVertex
100
AcDb2dVertex
 10
98.36608884259599
 20
-129.4804687176299
 30
0.0
  0
VERTEX
  5
114
330
112
100
AcDbEntity
  8
_U+30EC_U+30A4_U+30E4_U+30FC 1
370
     0
100
AcDbVertex
100
AcDb2dVertex
 10
98.11425236262421
 20
-129.4804687176299
 30
0.0
  0
VERTEX
  5
115
330
112
100
AcDbEntity
  8
_U+30EC_U+30A4_U+30E4_U+30FC 1
370
     0
100
AcDbVertex
100
AcDb2dVertex
 10
98.11425236262421
 20
-129.2289767472066
 30
0.0
  0
VERTEX
  5
116
330
112
100
AcDbEntity
  8
_U+30EC_U+30A4_U+30E4_U+30FC 1
370
     0
100
AcDbVertex
100
AcDb2dVertex
 10
98.36608884259599
 20
-129.2289767472066
 30
0.0
  0
VERTEX
  5
117
330
112
100
AcDbEntity
  8
_U+30EC_U+30A4_U+30E4_U+30FC 1
370
     0
100
AcDbVertex
100
AcDb2dVertex
 10
98.36608884259599
 20
-129.4804687176299
 30
0.0
  0
SEQEND
  5
118
330
112
100
AcDbEntity
  8
_U+30EC_U+30A4_U+30E4_U+30FC 1
370
     0
  0
HATCH
  5
119
330
10C
100
AcDbEntity
  8
_U+30EC_U+30A4_U+30E4_U+30FC 1
 62
   179
420
  2234388
100
AcDbHatch
 10
0.0
 20
0.0
 30
0.0
210
0.0
220
0.0
230
1.0
  2
SOLID
 70
     1
 71
     0
 91
        1
 92
        1
 93
        4
 72
     1
 10
98.36608884259599
 20
-129.4804687176299
 11
98.11425236262421
 21
-129.4804687176299
 72
     1
 10
98.11425236262421
 20
-129.4804687176299
 11
98.11425236262421
 21
-129.2289767472066
 72
     1
 10
98.11425236262421
 20
-129.2289767472066
 11
98.36608884259599
 21
-129.2289767472066
 72
     1
 10
98.36608884259599
 20
-129.2289767472066
 11
98.36608884259599
 21
-129.4804687176299
 97
        0
 75
     2
 76
     1
 98
        0
  0
SPLINE
  5
11A
330
10C
100
AcDbEntity
  8
_U+30EC_U+30A4_U+30E4_U+30FC 1
370
     0
100
AcDbSpline
210
0.0
220
0.0
230
1.0
 70
    11
 71
     3
 72
    29
 73
    25
 74
     0
 42
0.0000000001
 43
0.0000000001
 12
1.0
 22
0.0
 32
0.0
 13
1.0
 23
0.0
 33
0.0
 40
0.0
 40
0.0
 40
0.0
 40
0.0
 40
1.0
 40
1.0
 40
1.0
 40
2.0
 40
2.0
 40
2.0
 40
3.0
 40
3.0
 40
3.0
 40
4.0
 40
4.0
 40
4.0
 40
5.0
 40
5.0
 40
5.0
 40
6.0
 40
6.0
 40
6.0
 40
7.0
 40
7.0
 40
7.0
 40
8.0
 40
8.0
 40
8.0
 40
8.0
 10
98.41673174622916
 20
-128.4924153324602
 30
0.0
 10
98.41673174622916
 20
-128.7588934682443
 30
0.0
 10
98.27927243636769
 20
-129.012624750733
 30
0.0
 10
97.93028426371188
 20
-129.012624750733
 30
0.0
 10
97.67431366915781
 20
-129.012624750733
 30
0.0
 10
97.57888452421639
 20
-128.8710313262892
 30
0.0
 10
97.51756182457895
 20
-128.765266894892
 30
0.0
 10
97.45830618223265
 20
-128.8899793514581
 30
0.0
 10
97.34427352167089
 20
-128.9661159616821
 30
0.0
 10
97.18338756250971
 20
-128.9661159616821
 30
0.0
 10
96.90846894278678
 20
-128.9661159616821
 30
0.0
 10
96.77307669021646
 20
-128.7673339521832
 30
0.0
 10
96.77307669021646
 20
-128.4924153324602
 30
0.0
 10
96.77307669021646
 20
-128.2088839740242
 30
0.0
 10
96.91673717195138
 20
-128.0185424484641
 30
0.0
 10
97.18338756250971
 20
-128.0185424484641
 30
0.0
 10
97.34427352167089
 20
-128.0185424484641
 30
0.0
 10
97.45830618223265
 20
-128.0967461159793
 30
0.0
 10
97.51756182457895
 20
-128.2216308273196
 30
0.0
 10
97.56854923776065
 20
-128.1327473638001
 30
0.0
 10
97.66363387315354
 20
-127.9741007167044
 30
0.0
 10
97.92580563958106
 20
-127.9741007167044
 30
0.0
 10
98.30028751882772
 20
-127.9741007167044
 30
0.0
 10
98.41673174622916
 20
-128.2533257057839
 30
0.0
 10
98.41673174622916
 20
-128.4924153324602
 30
0.0
  0
SPLINE
  5
11B
330
10C
100
AcDbEntity
  8
_U+30EC_U+30A4_U+30E4_U+30FC 1
370
     0
100
AcDbSpline
210
0.0
220
0.0
230
1.0
 70
    11
 71
     3
 72
    17
 73
    13
 74
     0
 42
0.0000000001
 43
0.0000000001
 12
1.0
 22
0.0
 32
0.0
 13
1.0
 23
0.0
 33
0.0
 40
0.0
 40
0.0
 40
0.0
 40
0.0
 40
1.0
 40
1.0
 40
1.0
 40
2.0
 40
2.0
 40
2.0
 40
3.0
 40
3.0
 40
3.0
 40
4.0
 40
4.0
 40
4.0
 40
4.0
 10
96.96565752784193
 20
-128.4924153324602
 30
0.0
 10
96.96565752784193
 20
-128.6574354062037
 30
0.0
 10
97.06074216323482
 20
-128.7420125003666
 30
0.0
 10
97.19613441580513
 20
-128.7420125003666
 30
0.0
 10
97.31877981508003
 20
-128.7420125003666
 30
0.0
 10
97.43729109977262
 20
-128.6700100047249
 30
0.0
 10
97.43729109977262
 20
-128.4924153324602
 30
0.0
 10
97.43729109977262
 20
-128.3146484054213
 30
0.0
 10
97.31877981508003
 20
-128.2426459097796
 30
0.0
 10
97.19613441580513
 20
-128.2426459097796
 30
0.0
 10
97.06074216323482
 20
-128.2426459097796
 30
0.0
 10
96.96565752784193
 20
-128.3294623160079
 30
0.0
 10
96.96565752784193
 20
-128.4924153324602
 30
0.0
  0
SPLINE
  5
11C
330
10C
100
AcDbEntity
  8
_U+30EC_U+30A4_U+30E4_U+30FC 1
370
     0
100
AcDbSpline
210
0.0
220
0.0
230
1.0
 70
    11
 71
     3
 72
    17
 73
    13
 74
     0
 42
0.0000000001
 43
0.0000000001
 12
1.0
 22
0.0
 32
0.0
 13
1.0
 23
0.0
 33
0.0
 40
0.0
 40
0.0
 40
0.0
 40
0.0
 40
1.0
 40
1.0
 40
1.0
 40
2.0
 40
2.0
 40
2.0
 40
3.0
 40
3.0
 40
3.0
 40
4.0
 40
4.0
 40
4.0
 40
4.0
 10
97.62539331326727
 20
-128.4924153324602
 30
0.0
 10
97.62539331326727
 20
-128.6362480689694
 30
0.0
 10
97.71220971949556
 20
-128.7883490346432
 30
0.0
 10
97.9154703531253
 20
-128.7883490346432
 30
0.0
 10
98.12045353449767
 20
-128.7883490346432
 30
0.0
 10
98.22208385131253
 20
-128.661569520786
 30
0.0
 10
98.22208385131253
 20
-128.4924153324602
 30
0.0
 10
98.22208385131253
 20
-128.3062079214825
 30
0.0
 10
98.09943845203765
 20
-128.1961371207287
 30
0.0
 10
97.92167152499876
 20
-128.1961371207287
 30
0.0
 10
97.69946286620014
 20
-128.1961371207287
 30
0.0
 10
97.62539331326727
 20
-128.3590901371811
 30
0.0
 10
97.62539331326727
 20
-128.4924153324602
 30
0.0
  0
HATCH
  5
11D
330
10C
100
AcDbEntity
  8
_U+30EC_U+30A4_U+30E4_U+30FC 1
 62
   179
420
  2234388
100
AcDbHatch
 10
0.0
 20
0.0
 30
0.0
210
0.0
220
0.0
230
1.0
  2
SOLID
 70
     1
 71
     0
 91
        3
 92
        1
 93
        1
 72
     4
 94
        3
 73
     0
 74
     1
 95
       29
 96
       25
 40
0.0
 40
0.0
 40
0.0
 40
0.0
 40
1.0
 40
1.0
 40
1.0
 40
2.0
 40
2.0
 40
2.0
 40
3.0
 40
3.0
 40
3.0
 40
4.0
 40
4.0
 40
4.0
 40
5.0
 40
5.0
 40
5.0
 40
6.0
 40
6.0
 40
6.0
 40
7.0
 40
7.0
 40
7.0
 40
8.0
 40
8.0
 40
8.0
 40
8.0
 10
98.41673174622916
 20
-128.4924153324602
 10
98.41673174622916
 20
-128.7588934682443
 10
98.27927243636769
 20
-129.012624750733
 10
97.93028426371188
 20
-129.012624750733
 10
97.67431366915781
 20
-129.012624750733
 10
97.57888452421639
 20
-128.8710313262892
 10
97.51756182457895
 20
-128.765266894892
 10
97.45830618223265
 20
-128.8899793514581
 10
97.34427352167089
 20
-128.9661159616821
 10
97.18338756250971
 20
-128.9661159616821
 10
96.90846894278678
 20
-128.9661159616821
 10
96.77307669021646
 20
-128.7673339521832
 10
96.77307669021646
 20
-128.4924153324602
 10
96.77307669021646
 20
-128.2088839740242
 10
96.91673717195138
 20
-128.0185424484641
 10
97.18338756250971
 20
-128.0185424484641
 10
97.34427352167089
 20
-128.0185424484641
 10
97.45830618223265
 20
-128.0967461159793
 10
97.51756182457895
 20
-128.2216308273196
 10
97.56854923776065
 20
-128.1327473638001
 10
97.66363387315354
 20
-127.9741007167044
 10
97.92580563958106
 20
-127.9741007167044
 10
98.30028751882772
 20
-127.9741007167044
 10
98.41673174622916
 20
-128.2533257057839
 10
98.41673174622916
 20
-128.4924153324602
 97
        0
 97
        0
 92
        1
 93
        1
 72
     4
 94
        3
 73
     0
 74
     1
 95
       17
 96
       13
 40
0.0
 40
0.0
 40
0.0
 40
0.0
 40
1.0
 40
1.0
 40
1.0
 40
2.0
 40
2.0
 40
2.0
 40
3.0
 40
3.0
 40
3.0
 40
4.0
 40
4.0
 40
4.0
 40
4.0
 10
96.96565752784193
 20
-128.4924153324602
 10
96.96565752784193
 20
-128.6574354062037
 10
97.06074216323482
 20
-128.7420125003666
 10
97.19613441580513
 20
-128.7420125003666
 10
97.31877981508003
 20
-128.7420125003666
 10
97.43729109977262
 20
-128.6700100047249
 10
97.43729109977262
 20
-128.4924153324602
 10
97.43729109977262
 20
-128.3146484054213
 10
97.31877981508003
 20
-128.2426459097796
 10
97.19613441580513
 20
-128.2426459097796
 10
97.06074216323482
 20
-128.2426459097796
 10
96.96565752784193
 20
-128.3294623160079
 10
96.96565752784193
 20
-128.4924153324602
 97
        0
 97
        0
 92
        1
 93
        1
 72
     4
 94
        3
 73
     0
 74
     1
 95
       17
 96
       13
 40
0.0
 40
0.0
 40
0.0
 40
0.0
 40
1.0
 40
1.0
 40
1.0
 40
2.0
 40
2.0
 40
2.0
 40
3.0
 40
3.0
 40
3.0
 40
4.0
 40
4.0
 40
4.0
 40
4.0
 10
97.62539331326727
 20
-128.4924153324602
 10
97.62539331326727
 20
-128.6362480689694
 10
97.71220971949556
 20
-128.7883490346432
 10
97.9154703531253
 20
-128.7883490346432
 10
98.12045353449767
 20
-128.7883490346432
 10
98.22208385131253
 20
-128.661569520786
 10
98.22208385131253
 20
-128.4924153324602
 10
98.22208385131253
 20
-128.3062079214825
 10
98.09943845203765
 20
-128.1961371207287
 10
97.92167152499876
 20
-128.1961371207287
 10
97.69946286620014
 20
-128.1961371207287
 10
97.62539331326727
 20
-128.3590901371811
 10
97.62539331326727
 20
-128.4924153324602
 97
        0
 97
        0
 75
     2
 76
     1
 98
        0
  0
ENDBLK
  5
10F
330
10C
100
AcDbEntity
  8
0
100
AcDbBlockEnd
  0
ENDSEC
  0
SECTION
  2
ENTITIES
  0
POLYLINE
  5
41
330
1F
100
AcDbEntity
  8
_U+30EC_U+30A4_U+30E4_U+30FC 1
 62
   179
420
  2234388
370
    25
100
AcDb2dPolyline
 66
     1
 10
0.0
 20
0.0
 30
0.0
  0
VERTEX
  5
42
330
41
100
AcDbEntity
  8
_U+30EC_U+30A4_U+30E4_U+30FC 1
 62
   179
420
  2234388
370
    25
100
AcDbVertex
100
AcDb2dVertex
 10
93.73862705297283
 20
-127.4719813570211
 30
0.0
  0
VERTEX
  5
43
330
41
100
AcDbEntity
  8
_U+30EC_U+30A4_U+30E4_U+30FC 1
 62
   179
420
  2234388
370
    25
100
AcDbVertex
100
AcDb2dVertex
 10
94.48898536716293
 20
-127.4719813570211
 30
0.0
  0
SEQEND
  5
44
330
41
100
AcDbEntity
  8
_U+30EC_U+30A4_U+30E4_U+30FC 1
 62
   179
420
  2234388
370
    25
  0
POLYLINE
  5
45
330
1F
100
AcDbEntity
  8
_U+30EC_U+30A4_U+30E4_U+30FC 1
 62
   179
420
  2234388
370
    25
100
AcDb2dPolyline
 66
     1
 10
0.0
 20
0.0
 30
0.0
  0
VERTEX
  5
46
330
45
100
AcDbEntity
  8
_U+30EC_U+30A4_U+30E4_U+30FC 1
 62
   179
420
  2234388
370
    25
100
AcDbVertex
100
AcDb2dVertex
 10
92.98897429432029
 20
-125.4717666352986
 30
0.0
  0
VERTEX
  5
47
330
45
100
AcDbEntity
  8
_U+30EC_U+30A4_U+30E4_U+30FC 1
 62
   179
420
  2234388
370
    25
100
AcDbVertex
100
AcDb2dVertex
 10
94.48898536716293
 20
-127.4719813570211
 30
0.0
  0
SEQEND
  5
48
330
45
100
AcDbEntity
  8
_U+30EC_U+30A4_U+30E4_U+30FC 1
 62
   179
420
  2234388
370
    25
  0
POLYLINE
  5
49
330
1F
100
AcDbEntity
  8
_U+30EC_U+30A4_U+30E4_U+30FC 1
 62
   179
420
  2234388
370
    25
100
AcDb2dPolyline
 66
     1
 10
0.0
 20
0.0
 30
0.0
  0
VERTEX
  5
4A
330
49
100
AcDbEntity
  8
_U+30EC_U+30A4_U+30E4_U+30FC 1
 62
   179
420
  2234388
370
    25
100
AcDbVertex
100
AcDb2dVertex
 10
93.36380067364657
 20
-128.10243052353
 30
0.0
  0
VERTEX
  5
4B
330
49
100
AcDbEntity
  8
_U+30EC_U+30A4_U+30E4_U+30FC 1
 62
   179
420
  2234388
370
    25
100
AcDbVertex
100
AcDb2dVertex
 10
93.73862705297283
 20
-128.5619941345262
 30
0.0
  0
SEQEND
  5
4C
330
49
100
AcDbEntity
  8
_U+30EC_U+30A4_U+30E4_U+30FC 1
 62
   179
420
  2234388
370
    25
  0
POLYLINE
  5
4D
330
1F
100
AcDbEntity
  8
_U+30EC_U+30A4_U+30E4_U+30FC 1
 62
   179
420
  2234388
370
    25
100
AcDb2dPolyline
 66
     1
 10
0.0
 20
0.0
 30
0.0
  0
VERTEX
  5
4E
330
4D
100
AcDbEntity
  8
_U+30EC_U+30A4_U+30E4_U+30FC 1
 62
   179
420
  2234388
370
    25
100
AcDbVertex
100
AcDb2dVertex
 10
93.36380067364657
 20
-129.0222633010781
 30
0.0
  0
VERTEX
  5
4F
330
4D
100
AcDbEntity
  8
_U+30EC_U+30A4_U+30E4_U+30FC 1
 62
   179
420
  2234388
370
    25
100
AcDbVertex
100
AcDb2dVertex
 10
93.73862705297283
 20
-128.5619941345262
 30
0.0
  0
SEQEND
  5
50
330
4D
100
AcDbEntity
  8
_U+30EC_U+30A4_U+30E4_U+30FC 1
 62
   179
420
  2234388
370
    25
  0
POLYLINE
  5
51
330
1F
100
AcDbEntity
  8
_U+30EC_U+30A4_U+30E4_U+30FC 1
 62
   179
420
  2234388
370
    25
100
AcDb2dPolyline
 66
     1
 10
0.0
 20
0.0
 30
0.0
  0
VERTEX
  5
52
330
51
100
AcDbEntity
  8
_U+30EC_U+30A4_U+30E4_U+30FC 1
 62
   179
420
  2234388
370
    25
100
AcDbVertex
100
AcDb2dVertex
 10
93.36380067364657
 20
-129.0222633010781
 30
0.0
  0
VERTEX
  5
53
330
51
100
AcDbEntity
  8
_U+30EC_U+30A4_U+30E4_U+30FC 1
 62
   179
420
  2234388
370
    25
100
AcDbVertex
100
AcDb2dVertex
 10
93.73862705297283
 20
-129.4818621898519
 30
0.0
  0
SEQEND
  5
54
330
51
100
AcDbEntity
  8
_U+30EC_U+30A4_U+30E4_U+30FC 1
 62
   179
420
  2234388
370
    25
  0
POLYLINE
  5
55
330
1F
100
AcDbEntity
  8
_U+30EC_U+30A4_U+30E4_U+30FC 1
 62
   179
420
  2234388
370
    25
100
AcDb2dPolyline
 66
     1
 10
0.0
 20
0.0
 30
0.0
  0
VERTEX
  5
56
330
55
100
AcDbEntity
  8
_U+30EC_U+30A4_U+30E4_U+30FC 1
 62
   179
420
  2234388
370
    25
100
AcDbVertex
100
AcDb2dVertex
 10
93.36380067364657
 20
-129.9414258008482
 30
0.0
  0
VERTEX
  5
57
330
55
100
AcDbEntity
  8
_U+30EC_U+30A4_U+30E4_U+30FC 1
 62
   179
420
  2234388
370
    25
100
AcDbVertex
100
AcDb2dVertex
 10
93.73862705297283
 20
-129.4818621898519
 30
0.0
  0
SEQEND
  5
58
330
55
100
AcDbEntity
  8
_U+30EC_U+30A4_U+30E4_U+30FC 1
 62
   179
420
  2234388
370
    25
  0
POLYLINE
  5
59
330
1F
100
AcDbEntity
  8
_U+30EC_U+30A4_U+30E4_U+30FC 1
 62
   179
420
  2234388
370
    25
100
AcDb2dPolyline
 66
     1
 10
0.0
 20
0.0
 30
0.0
  0
VERTEX
  5
5A
330
59
100
AcDbEntity
  8
_U+30EC_U+30A4_U+30E4_U+30FC 1
 62
   179
420
  2234388
370
    25
100
AcDbVertex
100
AcDb2dVertex
 10
92.98897429432029
 20
-125.4717666352986
 30
0.0
  0
VERTEX
  5
5B
330
59
100
AcDbEntity
  8
_U+30EC_U+30A4_U+30E4_U+30FC 1
 62
   179
420
  2234388
370
    25
100
AcDbVertex
100
AcDb2dVertex
 10
92.98897429432029
 20
-132.4721830224372
 30
0.0
  0
SEQEND
  5
5C
330
59
100
AcDbEntity
  8
_U+30EC_U+30A4_U+30E4_U+30FC 1
 62
   179
420
  2234388
370
    25
  0
POLYLINE
  5
5D
330
1F
100
AcDbEntity
  8
_U+30EC_U+30A4_U+30E4_U+30FC 1
 62
   179
420
  2234388
370
    25
100
AcDb2dPolyline
 66
     1
 10
0.0
 20
0.0
 30
0.0
  0
VERTEX
  5
5E
330
5D
100
AcDbEntity
  8
_U+30EC_U+30A4_U+30E4_U+30FC 1
 62
   179
420
  2234388
370
    25
100
AcDbVertex
100
AcDb2dVertex
 10
94.73875202745752
 20
-132.4721830224372
 30
0.0
  0
VERTEX
  5
5F
330
5D
100
AcDbEntity
  8
_U+30EC_U+30A4_U+30E4_U+30FC 1
 62
   179
420
  2234388
370
    25
100
AcDbVertex
100
AcDb2dVertex
 10
94.73875202745752
 20
-133.4719552444097
 30
0.0
  0
SEQEND
  5
60
330
5D
100
AcDbEntity
  8
_U+30EC_U+30A4_U+30E4_U+30FC 1
 62
   179
420
  2234388
370
    25
  0
POLYLINE
  5
61
330
1F
100
AcDbEntity
  8
_U+30EC_U+30A4_U+30E4_U+30FC 1
 62
   179
420
  2234388
370
    25
100
AcDb2dPolyline
 66
     1
 10
0.0
 20
0.0
 30
0.0
  0
VERTEX
  5
62
330
61
100
AcDbEntity
  8
_U+30EC_U+30A4_U+30E4_U+30FC 1
 62
   179
420
  2234388
370
    25
100
AcDbVertex
100
AcDb2dVertex
 10
81.23879348298127
 20
-132.4721830224372
 30
0.0
  0
VERTEX
  5
63
330
61
100
AcDbEntity
  8
_U+30EC_U+30A4_U+30E4_U+30FC 1
 62
   179
420
  2234388
370
    25
100
AcDbVertex
100
AcDb2dVertex
 10
81.23879348298127
 20
-133.4719552444097
 30
0.0
  0
SEQEND
  5
64
330
61
100
AcDbEntity
  8
_U+30EC_U+30A4_U+30E4_U+30FC 1
 62
   179
420
  2234388
370
    25
  0
POLYLINE
  5
65
330
1F
100
AcDbEntity
  8
_U+30EC_U+30A4_U+30E4_U+30FC 1
 62
   179
420
  2234388
370
    25
100
AcDb2dPolyline
 66
     1
 10
0.0
 20
0.0
 30
0.0
  0
VERTEX
  5
66
330
65
100
AcDbEntity
  8
_U+30EC_U+30A4_U+30E4_U+30FC 1
 62
   179
420
  2234388
370
    25
100
AcDbVertex
100
AcDb2dVertex
 10
81.23879348298127
 20
-133.4719552444097
 30
0.0
  0
VERTEX
  5
67
330
65
100
AcDbEntity
  8
_U+30EC_U+30A4_U+30E4_U+30FC 1
 62
   179
420
  2234388
370
    25
100
AcDbVertex
100
AcDb2dVertex
 10
94.73875202745752
 20
-133.4719552444097
 30
0.0
  0
SEQEND
  5
68
330
65
100
AcDbEntity
  8
_U+30EC_U+30A4_U+30E4_U+30FC 1
 62
   179
420
  2234388
370
    25
  0
POLYLINE
  5
69
330
1F
100
AcDbEntity
  8
_U+30EC_U+30A4_U+30E4_U+30FC 1
 62
   179
420
  2234388
370
    25
100
AcDb2dPolyline
 66
     1
 10
0.0
 20
0.0
 30
0.0
  0
VERTEX
  5
6A
330
69
100
AcDbEntity
  8
_U+30EC_U+30A4_U+30E4_U+30FC 1
 62
   179
420
  2234388
370
    25
100
AcDbVertex
100
AcDb2dVertex
 10
93.86368677200451
 20
-132.4721830224372
 30
0.0
  0
VERTEX
  5
6B
330
69
100
AcDbEntity
  8
_U+30EC_U+30A4_U+30E4_U+30FC 1
 62
   179
420
  2234388
370
    25
100
AcDbVertex
100
AcDb2dVertex
 10
94.73875202745752
 20
-132.4721830224372
 30
0.0
  0
SEQEND
  5
6C
330
69
100
AcDbEntity
  8
_U+30EC_U+30A4_U+30E4_U+30FC 1
 62
   179
420
  2234388
370
    25
  0
POLYLINE
  5
6D
330
1F
100
AcDbEntity
  8
_U+30EC_U+30A4_U+30E4_U+30FC 1
 62
   179
420
  2234388
370
    25
100
AcDb2dPolyline
 66
     1
 10
0.0
 20
0.0
 30
0.0
  0
VERTEX
  5
6E
330
6D
100
AcDbEntity
  8
_U+30EC_U+30A4_U+30E4_U+30FC 1
 62
   179
420
  2234388
370
    25
100
AcDbVertex
100
AcDb2dVertex
 10
93.36380067364657
 20
-129.9414258008482
 30
0.0
  0
VERTEX
  5
6F
330
6D
100
AcDbEntity
  8
_U+30EC_U+30A4_U+30E4_U+30FC 1
 62
   179
420
  2234388
370
    25
100
AcDbVertex
100
AcDb2dVertex
 10
93.73862705297283
 20
-130.4016949673993
 30
0.0
  0
SEQEND
  5
70
330
6D
100
AcDbEntity
  8
_U+30EC_U+30A4_U+30E4_U+30FC 1
 62
   179
420
  2234388
370
    25
  0
POLYLINE
  5
71
330
1F
100
AcDbEntity
  8
_U+30EC_U+30A4_U+30E4_U+30FC 1
 62
   179
420
  2234388
370
    25
100
AcDb2dPolyline
 66
     1
 10
0.0
 20
0.0
 30
0.0
  0
VERTEX
  5
72
330
71
100
AcDbEntity
  8
_U+30EC_U+30A4_U+30E4_U+30FC 1
 62
   179
420
  2234388
370
    25
100
AcDbVertex
100
AcDb2dVertex
 10
93.36380067364657
 20
-130.8612585783956
 30
0.0
  0
VERTEX
  5
73
330
71
100
AcDbEntity
  8
_U+30EC_U+30A4_U+30E4_U+30FC 1
 62
   179
420
  2234388
370
    25
100
AcDbVertex
100
AcDb2dVertex
 10
93.73862705297283
 20
-130.4016949673993
 30
0.0
  0
SEQEND
  5
74
330
71
100
AcDbEntity
  8
_U+30EC_U+30A4_U+30E4_U+30FC 1
 62
   179
420
  2234388
370
    25
  0
POLYLINE
  5
75
330
1F
100
AcDbEntity
  8
_U+30EC_U+30A4_U+30E4_U+30FC 1
 62
   179
420
  2234388
370
    25
100
AcDb2dPolyline
 66
     1
 10
0.0
 20
0.0
 30
0.0
  0
VERTEX
  5
76
330
75
100
AcDbEntity
  8
_U+30EC_U+30A4_U+30E4_U+30FC 1
 62
   179
420
  2234388
370
    25
100
AcDbVertex
100
AcDb2dVertex
 10
93.36380067364657
 20
-130.8612585783956
 30
0.0
  0
VERTEX
  5
77
330
75
100
AcDbEntity
  8
_U+30EC_U+30A4_U+30E4_U+30FC 1
 62
   179
420
  2234388
370
    25
100
AcDbVertex
100
AcDb2dVertex
 10
93.73862705297283
 20
-131.3215277449474
 30
0.0
  0
SEQEND
  5
78
330
75
100
AcDbEntity
  8
_U+30EC_U+30A4_U+30E4_U+30FC 1
 62
   179
420
  2234388
370
    25
  0
POLYLINE
  5
79
330
1F
100
AcDbEntity
  8
_U+30EC_U+30A4_U+30E4_U+30FC 1
 62
   179
420
  2234388
370
    25
100
AcDb2dPolyline
 66
     1
 10
0.0
 20
0.0
 30
0.0
  0
VERTEX
  5
7A
330
79
100
AcDbEntity
  8
_U+30EC_U+30A4_U+30E4_U+30FC 1
 62
   179
420
  2234388
370
    25
100
AcDbVertex
100
AcDb2dVertex
 10
93.36380067364657
 20
-131.7810913559437
 30
0.0
  0
VERTEX
  5
7B
330
79
100
AcDbEntity
  8
_U+30EC_U+30A4_U+30E4_U+30FC 1
 62
   179
420
  2234388
370
    25
100
AcDbVertex
100
AcDb2dVertex
 10
93.73862705297283
 20
-131.3215277449474
 30
0.0
  0
SEQEND
  5
7C
330
79
100
AcDbEntity
  8
_U+30EC_U+30A4_U+30E4_U+30FC 1
 62
   179
420
  2234388
370
    25
  0
POLYLINE
  5
7D
330
1F
100
AcDbEntity
  8
_U+30EC_U+30A4_U+30E4_U+30FC 1
 62
   179
420
  2234388
370
    25
100
AcDb2dPolyline
 66
     1
 10
0.0
 20
0.0
 30
0.0
  0
VERTEX
  5
7E
330
7D
100
AcDbEntity
  8
_U+30EC_U+30A4_U+30E4_U+30FC 1
 62
   179
420
  2234388
370
    25
100
AcDbVertex
100
AcDb2dVertex
 10
93.73862705297283
 20
-127.4719813570211
 30
0.0
  0
VERTEX
  5
7F
330
7D
100
AcDbEntity
  8
_U+30EC_U+30A4_U+30E4_U+30FC 1
 62
   179
420
  2234388
370
    25
100
AcDbVertex
100
AcDb2dVertex
 10
93.36380067364657
 20
-128.10243052353
 30
0.0
  0
SEQEND
  5
80
330
7D
100
AcDbEntity
  8
_U+30EC_U+30A4_U+30E4_U+30FC 1
 62
   179
420
  2234388
370
    25
  0
POLYLINE
  5
81
330
1F
100
AcDbEntity
  8
_U+30EC_U+30A4_U+30E4_U+30FC 1
 62
   179
420
  2234388
370
    25
100
AcDb2dPolyline
 66
     1
 10
0.0
 20
0.0
 30
0.0
  0
VERTEX
  5
82
330
81
100
AcDbEntity
  8
_U+30EC_U+30A4_U+30E4_U+30FC 1
 62
   179
420
  2234388
370
    25
100
AcDbVertex
100
AcDb2dVertex
 10
93.36380067364657
 20
-131.7810913559437
 30
0.0
  0
VERTEX
  5
83
330
81
100
AcDbEntity
  8
_U+30EC_U+30A4_U+30E4_U+30FC 1
 62
   179
420
  2234388
370
    25
100
AcDbVertex
100
AcDb2dVertex
 10
93.86368677200451
 20
-132.4721830224372
 30
0.0
  0
SEQEND
  5
84
330
81
100
AcDbEntity
  8
_U+30EC_U+30A4_U+30E4_U+30FC 1
 62
   179
420
  2234388
370
    25
  0
POLYLINE
  5
85
330
1F
100
AcDbEntity
  8
_U+30EC_U+30A4_U+30E4_U+30FC 1
 62
   179
420
  2234388
370
    25
100
AcDb2dPolyline
 66
     1
 10
0.0
 20
0.0
 30
0.0
  0
VERTEX
  5
86
330
85
100
AcDbEntity
  8
_U+30EC_U+30A4_U+30E4_U+30FC 1
 62
   179
420
  2234388
370
    25
100
AcDbVertex
100
AcDb2dVertex
 10
82.9888887161104
 20
-132.4721830224372
 30
0.0
  0
VERTEX
  5
87
330
85
100
AcDbEntity
  8
_U+30EC_U+30A4_U+30E4_U+30FC 1
 62
   179
420
  2234388
370
    25
100
AcDbVertex
100
AcDb2dVertex
 10
92.98897429432029
 20
-132.4721830224372
 30
0.0
  0
SEQEND
  5
88
330
85
100
AcDbEntity
  8
_U+30EC_U+30A4_U+30E4_U+30FC 1
 62
   179
420
  2234388
370
    25
  0
POLYLINE
  5
89
330
1F
100
AcDbEntity
  8
_U+30EC_U+30A4_U+30E4_U+30FC 1
 62
   179
420
  2234388
370
    25
100
AcDb2dPolyline
 66
     1
 10
0.0
 20
0.0
 30
0.0
  0
VERTEX
  5
8A
330
89
100
AcDbEntity
  8
_U+30EC_U+30A4_U+30E4_U+30FC 1
 62
   179
420
  2234388
370
    25
100
AcDbVertex
100
AcDb2dVertex
 10
82.61374483679222
 20
-129.9414258008482
 30
0.0
  0
VERTEX
  5
8B
330
89
100
AcDbEntity
  8
_U+30EC_U+30A4_U+30E4_U+30FC 1
 62
   179
420
  2234388
370
    25
100
AcDbVertex
100
AcDb2dVertex
 10
82.23856567969717
 20
-129.4818621898519
 30
0.0
  0
SEQEND
  5
8C
330
89
100
AcDbEntity
  8
_U+30EC_U+30A4_U+30E4_U+30FC 1
 62
   179
420
  2234388
370
    25
  0
POLYLINE
  5
8D
330
1F
100
AcDbEntity
  8
_U+30EC_U+30A4_U+30E4_U+30FC 1
 62
   179
420
  2234388
370
    25
100
AcDb2dPolyline
 66
     1
 10
0.0
 20
0.0
 30
0.0
  0
VERTEX
  5
8E
330
8D
100
AcDbEntity
  8
_U+30EC_U+30A4_U+30E4_U+30FC 1
 62
   179
420
  2234388
370
    25
100
AcDbVertex
100
AcDb2dVertex
 10
82.61374483679222
 20
-129.0222633010781
 30
0.0
  0
VERTEX
  5
8F
330
8D
100
AcDbEntity
  8
_U+30EC_U+30A4_U+30E4_U+30FC 1
 62
   179
420
  2234388
370
    25
100
AcDbVertex
100
AcDb2dVertex
 10
82.23856567969717
 20
-129.4818621898519
 30
0.0
  0
SEQEND
  5
90
330
8D
100
AcDbEntity
  8
_U+30EC_U+30A4_U+30E4_U+30FC 1
 62
   179
420
  2234388
370
    25
  0
POLYLINE
  5
91
330
1F
100
AcDbEntity
  8
_U+30EC_U+30A4_U+30E4_U+30FC 1
 62
   179
420
  2234388
370
    25
100
AcDb2dPolyline
 66
     1
 10
0.0
 20
0.0
 30
0.0
  0
VERTEX
  5
92
330
91
100
AcDbEntity
  8
_U+30EC_U+30A4_U+30E4_U+30FC 1
 62
   179
420
  2234388
370
    25
100
AcDbVertex
100
AcDb2dVertex
 10
82.61374483679222
 20
-129.9414258008482
 30
0.0
  0
VERTEX
  5
93
330
91
100
AcDbEntity
  8
_U+30EC_U+30A4_U+30E4_U+30FC 1
 62
   179
420
  2234388
370
    25
100
AcDbVertex
100
AcDb2dVertex
 10
82.23856567969717
 20
-130.4016949673993
 30
0.0
  0
SEQEND
  5
94
330
91
100
AcDbEntity
  8
_U+30EC_U+30A4_U+30E4_U+30FC 1
 62
   179
420
  2234388
370
    25
  0
POLYLINE
  5
95
330
1F
100
AcDbEntity
  8
_U+30EC_U+30A4_U+30E4_U+30FC 1
 62
   179
420
  2234388
370
    25
100
AcDb2dPolyline
 66
     1
 10
0.0
 20
0.0
 30
0.0
  0
VERTEX
  5
96
330
95
100
AcDbEntity
  8
_U+30EC_U+30A4_U+30E4_U+30FC 1
 62
   179
420
  2234388
370
    25
100
AcDbVertex
100
AcDb2dVertex
 10
82.61374483679222
 20
-129.0222633010781
 30
0.0
  0
VERTEX
  5
97
330
95
100
AcDbEntity
  8
_U+30EC_U+30A4_U+30E4_U+30FC 1
 62
   179
420
  2234388
370
    25
100
AcDbVertex
100
AcDb2dVertex
 10
82.23856567969717
 20
-128.5619941345262
 30
0.0
  0
SEQEND
  5
98
330
95
100
AcDbEntity
  8
_U+30EC_U+30A4_U+30E4_U+30FC 1
 62
   179
420
  2234388
370
    25
  0
POLYLINE
  5
99
330
1F
100
AcDbEntity
  8
_U+30EC_U+30A4_U+30E4_U+30FC 1
 62
   179
420
  2234388
370
    25
100
AcDb2dPolyline
 66
     1
 10
0.0
 20
0.0
 30
0.0
  0
VERTEX
  5
9A
330
99
100
AcDbEntity
  8
_U+30EC_U+30A4_U+30E4_U+30FC 1
 62
   179
420
  2234388
370
    25
100
AcDbVertex
100
AcDb2dVertex
 10
82.61374483679222
 20
-128.10243052353
 30
0.0
  0
VERTEX
  5
9B
330
99
100
AcDbEntity
  8
_U+30EC_U+30A4_U+30E4_U+30FC 1
 62
   179
420
  2234388
370
    25
100
AcDbVertex
100
AcDb2dVertex
 10
82.23856567969717
 20
-128.5619941345262
 30
0.0
  0
SEQEND
  5
9C
330
99
100
AcDbEntity
  8
_U+30EC_U+30A4_U+30E4_U+30FC 1
 62
   179
420
  2234388
370
    25
  0
POLYLINE
  5
9D
330
1F
100
AcDbEntity
  8
_U+30EC_U+30A4_U+30E4_U+30FC 1
 62
   179
420
  2234388
370
    25
100
AcDb2dPolyline
 66
     1
 10
0.0
 20
0.0
 30
0.0
  0
VERTEX
  5
9E
330
9D
100
AcDbEntity
  8
_U+30EC_U+30A4_U+30E4_U+30FC 1
 62
   179
420
  2234388
370
    25
100
AcDbVertex
100
AcDb2dVertex
 10
82.61374483679222
 20
-131.7810913559437
 30
0.0
  0
VERTEX
  5
9F
330
9D
100
AcDbEntity
  8
_U+30EC_U+30A4_U+30E4_U+30FC 1
 62
   179
420
  2234388
370
    25
100
AcDbVertex
100
AcDb2dVertex
 10
82.11385873843427
 20
-132.4721830224372
 30
0.0
  0
SEQEND
  5
A0
330
9D
100
AcDbEntity
  8
_U+30EC_U+30A4_U+30E4_U+30FC 1
 62
   179
420
  2234388
370
    25
  0
POLYLINE
  5
A1
330
1F
100
AcDbEntity
  8
_U+30EC_U+30A4_U+30E4_U+30FC 1
 62
   179
420
  2234388
370
    25
100
AcDb2dPolyline
 66
     1
 10
0.0
 20
0.0
 30
0.0
  0
VERTEX
  5
A2
330
A1
100
AcDbEntity
  8
_U+30EC_U+30A4_U+30E4_U+30FC 1
 62
   179
420
  2234388
370
    25
100
AcDbVertex
100
AcDb2dVertex
 10
82.9888887161104
 20
-125.4717666352986
 30
0.0
  0
VERTEX
  5
A3
330
A1
100
AcDbEntity
  8
_U+30EC_U+30A4_U+30E4_U+30FC 1
 62
   179
420
  2234388
370
    25
100
AcDbVertex
100
AcDb2dVertex
 10
81.48891292104463
 20
-127.4719813570211
 30
0.0
  0
SEQEND
  5
A4
330
A1
100
AcDbEntity
  8
_U+30EC_U+30A4_U+30E4_U+30FC 1
 62
   179
420
  2234388
370
    25
  0
POLYLINE
  5
A5
330
1F
100
AcDbEntity
  8
_U+30EC_U+30A4_U+30E4_U+30FC 1
 62
   179
420
  2234388
370
    25
100
AcDb2dPolyline
 66
     1
 10
0.0
 20
0.0
 30
0.0
  0
VERTEX
  5
A6
330
A5
100
AcDbEntity
  8
_U+30EC_U+30A4_U+30E4_U+30FC 1
 62
   179
420
  2234388
370
    25
100
AcDbVertex
100
AcDb2dVertex
 10
82.23856567969717
 20
-127.4719813570211
 30
0.0
  0
VERTEX
  5
A7
330
A5
100
AcDbEntity
  8
_U+30EC_U+30A4_U+30E4_U+30FC 1
 62
   179
420
  2234388
370
    25
100
AcDbVertex
100
AcDb2dVertex
 10
81.48891292104463
 20
-127.4719813570211
 30
0.0
  0
SEQEND
  5
A8
330
A5
100
AcDbEntity
  8
_U+30EC_U+30A4_U+30E4_U+30FC 1
 62
   179
420
  2234388
370
    25
  0
POLYLINE
  5
A9
330
1F
100
AcDbEntity
  8
_U+30EC_U+30A4_U+30E4_U+30FC 1
 62
   179
420
  2234388
370
    25
100
AcDb2dPolyline
 66
     1
 10
0.0
 20
0.0
 30
0.0
  0
VERTEX
  5
AA
330
A9
100
AcDbEntity
  8
_U+30EC_U+30A4_U+30E4_U+30FC 1
 62
   179
420
  2234388
370
    25
100
AcDbVertex
100
AcDb2dVertex
 10
82.61374483679222
 20
-130.8612585783956
 30
0.0
  0
VERTEX
  5
AB
330
A9
100
AcDbEntity
  8
_U+30EC_U+30A4_U+30E4_U+30FC 1
 62
   179
420
  2234388
370
    25
100
AcDbVertex
100
AcDb2dVertex
 10
82.23856567969717
 20
-130.4016949673993
 30
0.0
  0
SEQEND
  5
AC
330
A9
100
AcDbEntity
  8
_U+30EC_U+30A4_U+30E4_U+30FC 1
 62
   179
420
  2234388
370
    25
  0
POLYLINE
  5
AD
330
1F
100
AcDbEntity
  8
_U+30EC_U+30A4_U+30E4_U+30FC 1
 62
   179
420
  2234388
370
    25
100
AcDb2dPolyline
 66
     1
 10
0.0
 20
0.0
 30
0.0
  0
VERTEX
  5
AE
330
AD
100
AcDbEntity
  8
_U+30EC_U+30A4_U+30E4_U+30FC 1
 62
   179
420
  2234388
370
    25
100
AcDbVertex
100
AcDb2dVertex
 10
82.9888887161104
 20
-125.4717666352986
 30
0.0
  0
VERTEX
  5
AF
330
AD
100
AcDbEntity
  8
_U+30EC_U+30A4_U+30E4_U+30FC 1
 62
   179
420
  2234388
370
    25
100
AcDbVertex
100
AcDb2dVertex
 10
82.9888887161104
 20
-132.4721830224372
 30
0.0
  0
SEQEND
  5
B0
330
AD
100
AcDbEntity
  8
_U+30EC_U+30A4_U+30E4_U+30FC 1
 62
   179
420
  2234388
370
    25
  0
POLYLINE
  5
B1
330
1F
100
AcDbEntity
  8
_U+30EC_U+30A4_U+30E4_U+30FC 1
 62
   179
420
  2234388
370
    25
100
AcDb2dPolyline
 66
     1
 10
0.0
 20
0.0
 30
0.0
  0
VERTEX
  5
B2
330
B1
100
AcDbEntity
  8
_U+30EC_U+30A4_U+30E4_U+30FC 1
 62
   179
420
  2234388
370
    25
100
AcDbVertex
100
AcDb2dVertex
 10
82.61374483679222
 20
-130.8612585783956
 30
0.0
  0
VERTEX
  5
B3
330
B1
100
AcDbEntity
  8
_U+30EC_U+30A4_U+30E4_U+30FC 1
 62
   179
420
  2234388
370
    25
100
AcDbVertex
100
AcDb2dVertex
 10
82.23856567969717
 20
-131.3215277449474
 30
0.0
  0
SEQEND
  5
B4
330
B1
100
AcDbEntity
  8
_U+30EC_U+30A4_U+30E4_U+30FC 1
 62
   179
420
  2234388
370
    25
  0
POLYLINE
  5
B5
330
1F
100
AcDbEntity
  8
_U+30EC_U+30A4_U+30E4_U+30FC 1
 62
   179
420
  2234388
370
    25
100
AcDb2dPolyline
 66
     1
 10
0.0
 20
0.0
 30
0.0
  0
VERTEX
  5
B6
330
B5
100
AcDbEntity
  8
_U+30EC_U+30A4_U+30E4_U+30FC 1
 62
   179
420
  2234388
370
    25
100
AcDbVertex
100
AcDb2dVertex
 10
82.61374483679222
 20
-131.7810913559437
 30
0.0
  0
VERTEX
  5
B7
330
B5
100
AcDbEntity
  8
_U+30EC_U+30A4_U+30E4_U+30FC 1
 62
   179
420
  2234388
370
    25
100
AcDbVertex
100
AcDb2dVertex
 10
82.23856567969717
 20
-131.3215277449474
 30
0.0
  0
SEQEND
  5
B8
330
B5
100
AcDbEntity
  8
_U+30EC_U+30A4_U+30E4_U+30FC 1
 62
   179
420
  2234388
370
    25
  0
POLYLINE
  5
B9
330
1F
100
AcDbEntity
  8
_U+30EC_U+30A4_U+30E4_U+30FC 1
 62
   179
420
  2234388
370
    25
100
AcDb2dPolyline
 66
     1
 10
0.0
 20
0.0
 30
0.0
  0
VERTEX
  5
BA
330
B9
100
AcDbEntity
  8
_U+30EC_U+30A4_U+30E4_U+30FC 1
 62
   179
420
  2234388
370
    25
100
AcDbVertex
100
AcDb2dVertex
 10
82.23856567969717
 20
-127.4719813570211
 30
0.0
  0
VERTEX
  5
BB
330
B9
100
AcDbEntity
  8
_U+30EC_U+30A4_U+30E4_U+30FC 1
 62
   179
420
  2234388
370
    25
100
AcDbVertex
100
AcDb2dVertex
 10
82.61374483679222
 20
-128.10243052353
 30
0.0
  0
SEQEND
  5
BC
330
B9
100
AcDbEntity
  8
_U+30EC_U+30A4_U+30E4_U+30FC 1
 62
   179
420
  2234388
370
    25
  0
POLYLINE
  5
BD
330
1F
100
AcDbEntity
  8
_U+30EC_U+30A4_U+30E4_U+30FC 1
 62
   179
420
  2234388
370
    25
100
AcDb2dPolyline
 66
     1
 10
0.0
 20
0.0
 30
0.0
  0
VERTEX
  5
BE
330
BD
100
AcDbEntity
  8
_U+30EC_U+30A4_U+30E4_U+30FC 1
 62
   179
420
  2234388
370
    25
100
AcDbVertex
100
AcDb2dVertex
 10
82.11385873843427
 20
-132.4721830224372
 30
0.0
  0
VERTEX
  5
BF
330
BD
100
AcDbEntity
  8
_U+30EC_U+30A4_U+30E4_U+30FC 1
 62
   179
420
  2234388
370
    25
100
AcDbVertex
100
AcDb2dVertex
 10
81.23879348298127
 20
-132.4721830224372
 30
0.0
  0
SEQEND
  5
C0
330
BD
100
AcDbEntity
  8
_U+30EC_U+30A4_U+30E4_U+30FC 1
 62
   179
420
  2234388
370
    25
  0
SPLINE
  5
C1
330
1F
100
AcDbEntity
  8
_U+30EC_U+30A4_U+30E4_U+30FC 1
 62
   179
420
  2234388
370
     9
100
AcDbSpline
210
0.0
220
0.0
230
1.0
 70
    11
 71
     3
 72
    17
 73
    13
 74
     0
 42
0.0000000001
 43
0.0000000001
 12
1.0
 22
0.0
 32
0.0
 13
1.0
 23
0.0
 33
0.0
 40
0.0
 40
0.0
 40
0.0
 40
0.0
 40
1.0
 40
1.0
 40
1.0
 40
2.0
 40
2.0
 40
2.0
 40
3.0
 40
3.0
 40
3.0
 40
4.0
 40
4.0
 40
4.0
 40
4.0
 10
83.08879538022823
 20
-121.472007469632
 30
0.0
 10
83.08879538022823
 20
-121.4168683029793
 30
0.0
 10
83.04402788137034
 20
-121.3721008029904
 30
0.0
 10
82.9888887161104
 20
-121.3721008029904
 30
0.0
 10
82.93343205085854
 20
-121.3721008029904
 30
0.0
 10
82.88866664594451
 20
-121.4168683029793
 30
0.0
 10
82.88866664594451
 20
-121.472007469632
 30
0.0
 10
82.88866664594451
 20
-121.5271113585073
 30
0.0
 10
82.93343205085854
 20
-121.5719141362737
 30
0.0
 10
82.9888887161104
 20
-121.5719141362737
 30
0.0
 10
83.04402788137034
 20
-121.5719141362737
 30
0.0
 10
83.08879538022823
 20
-121.5271113585073
 30
0.0
 10
83.08879538022823
 20
-121.472007469632
 30
0.0
  0
SPLINE
  5
C2
330
1F
100
AcDbEntity
  8
_U+30EC_U+30A4_U+30E4_U+30FC 1
 62
   179
420
  2234388
370
     9
100
AcDbSpline
210
0.0
220
0.0
230
1.0
 70
    11
 71
     3
 72
    17
 73
    13
 74
     0
 42
0.0000000001
 43
0.0000000001
 12
1.0
 22
0.0
 32
0.0
 13
1.0
 23
0.0
 33
0.0
 40
0.0
 40
0.0
 40
0.0
 40
0.0
 40
1.0
 40
1.0
 40
1.0
 40
2.0
 40
2.0
 40
2.0
 40
3.0
 40
3.0
 40
3.0
 40
4.0
 40
4.0
 40
4.0
 40
4.0
 10
93.08888331006105
 20
-121.472007469632
 30
0.0
 10
93.08888331006105
 20
-121.4168683029793
 30
0.0
 10
93.04411345958025
 20
-121.3721008029904
 30
0.0
 10
92.98897429432029
 20
-121.3721008029904
 30
0.0
 10
92.93351762906845
 20
-121.3721008029904
 30
0.0
 10
92.88871485243368
 20
-121.4168683029793
 30
0.0
 10
92.88871485243368
 20
-121.472007469632
 30
0.0
 10
92.88871485243368
 20
-121.5271113585073
 30
0.0
 10
92.93351762906845
 20
-121.5719141362737
 30
0.0
 10
92.98897429432029
 20
-121.5719141362737
 30
0.0
 10
93.04411345958025
 20
-121.5719141362737
 30
0.0
 10
93.08888331006105
 20
-121.5271113585073
 30
0.0
 10
93.08888331006105
 20
-121.472007469632
 30
0.0
  0
SPLINE
  5
C3
330
1F
100
AcDbEntity
  8
_U+30EC_U+30A4_U+30E4_U+30FC 1
 62
   179
420
  2234388
370
     9
100
AcDbSpline
210
0.0
220
0.0
230
1.0
 70
    11
 71
     3
 72
    17
 73
    13
 74
     0
 42
0.0000000001
 43
0.0000000001
 12
1.0
 22
0.0
 32
0.0
 13
1.0
 23
0.0
 33
0.0
 40
0.0
 40
0.0
 40
0.0
 40
0.0
 40
1.0
 40
1.0
 40
1.0
 40
2.0
 40
2.0
 40
2.0
 40
3.0
 40
3.0
 40
3.0
 40
4.0
 40
4.0
 40
4.0
 40
4.0
 10
98.83877053396844
 20
-125.4717666352986
 30
0.0
 10
98.83877053396844
 20
-125.4166274686459
 30
0.0
 10
98.79396775733368
 20
-125.371859968657
 30
0.0
 10
98.73882859207373
 20
-125.371859968657
 30
0.0
 10
98.68372470459066
 20
-125.371859968657
 30
0.0
 10
98.63892192795589
 20
-125.4166274686459
 30
0.0
 10
98.63892192795589
 20
-125.4717666352986
 30
0.0
 10
98.63892192795589
 20
-125.5268705241738
 30
0.0
 10
98.68372470459066
 20
-125.5716733019406
 30
0.0
 10
98.73882859207373
 20
-125.5716733019406
 30
0.0
 10
98.79396775733368
 20
-125.5716733019406
 30
0.0
 10
98.83877053396844
 20
-125.5268705241738
 30
0.0
 10
98.83877053396844
 20
-125.4717666352986
 30
0.0
  0
SPLINE
  5
C4
330
1F
100
AcDbEntity
  8
_U+30EC_U+30A4_U+30E4_U+30FC 1
 62
   179
420
  2234388
370
     9
100
AcDbSpline
210
0.0
220
0.0
230
1.0
 70
    11
 71
     3
 72
    17
 73
    13
 74
     0
 42
0.0000000001
 43
0.0000000001
 12
1.0
 22
0.0
 32
0.0
 13
1.0
 23
0.0
 33
0.0
 40
0.0
 40
0.0
 40
0.0
 40
0.0
 40
1.0
 40
1.0
 40
1.0
 40
2.0
 40
2.0
 40
2.0
 40
3.0
 40
3.0
 40
3.0
 40
4.0
 40
4.0
 40
4.0
 40
4.0
 10
98.83877053396844
 20
-133.4719552444097
 30
0.0
 10
98.83877053396844
 20
-133.4168513555348
 30
0.0
 10
98.79396775733368
 20
-133.3720485777681
 30
0.0
 10
98.73882859207373
 20
-133.3720485777681
 30
0.0
 10
98.68372470459066
 20
-133.3720485777681
 30
0.0
 10
98.63892192795589
 20
-133.4168513555348
 30
0.0
 10
98.63892192795589
 20
-133.4719552444097
 30
0.0
 10
98.63892192795589
 20
-133.5270944110628
 30
0.0
 10
98.68372470459066
 20
-133.5718619110514
 30
0.0
 10
98.73882859207373
 20
-133.5718619110514
 30
0.0
 10
98.79396775733368
 20
-133.5718619110514
 30
0.0
 10
98.83877053396844
 20
-133.5270944110628
 30
0.0
 10
98.83877053396844
 20
-133.4719552444097
 30
0.0
  0
SPLINE
  5
C5
330
1F
100
AcDbEntity
  8
_U+30EC_U+30A4_U+30E4_U+30FC 1
 62
   179
420
  2234388
370
     9
100
AcDbSpline
210
0.0
220
0.0
230
1.0
 70
    11
 71
     3
 72
    17
 73
    13
 74
     0
 42
0.0000000001
 43
0.0000000001
 12
1.0
 22
0.0
 32
0.0
 13
1.0
 23
0.0
 33
0.0
 40
0.0
 40
0.0
 40
0.0
 40
0.0
 40
1.0
 40
1.0
 40
1.0
 40
2.0
 40
2.0
 40
2.0
 40
3.0
 40
3.0
 40
3.0
 40
4.0
 40
4.0
 40
4.0
 40
4.0
 10
94.83866108740172
 20
-137.4717144100766
 30
0.0
 10
94.83866108740172
 20
-137.4165752434236
 30
0.0
 10
94.79421108741275
 20
-137.371807743435
 30
0.0
 10
94.73875202745752
 20
-137.371807743435
 30
0.0
 10
94.68329536220567
 20
-137.371807743435
 30
0.0
 10
94.6384925855709
 20
-137.4165752434236
 30
0.0
 10
94.6384925855709
 20
-137.4717144100766
 30
0.0
 10
94.6384925855709
 20
-137.5268182989516
 30
0.0
 10
94.68329536220567
 20
-137.5716210767183
 30
0.0
 10
94.73875202745752
 20
-137.5716210767183
 30
0.0
 10
94.79421108741275
 20
-137.5716210767183
 30
0.0
 10
94.83866108740172
 20
-137.5268182989516
 30
0.0
 10
94.83866108740172
 20
-137.4717144100766
 30
0.0
  0
SPLINE
  5
C6
330
1F
100
AcDbEntity
  8
_U+30EC_U+30A4_U+30E4_U+30FC 1
 62
   179
420
  2234388
370
     9
100
AcDbSpline
210
0.0
220
0.0
230
1.0
 70
    11
 71
     3
 72
    17
 73
    13
 74
     0
 42
0.0000000001
 43
0.0000000001
 12
1.0
 22
0.0
 32
0.0
 13
1.0
 23
0.0
 33
0.0
 40
0.0
 40
0.0
 40
0.0
 40
0.0
 40
1.0
 40
1.0
 40
1.0
 40
2.0
 40
2.0
 40
2.0
 40
3.0
 40
3.0
 40
3.0
 40
4.0
 40
4.0
 40
4.0
 40
4.0
 10
81.3387001470991
 20
-137.4717144100766
 30
0.0
 10
81.3387001470991
 20
-137.4165752434236
 30
0.0
 10
81.29393264824121
 20
-137.371807743435
 30
0.0
 10
81.23879348298127
 20
-137.371807743435
 30
0.0
 10
81.18369164637089
 20
-137.371807743435
 30
0.0
 10
81.13888886860417
 20
-137.4165752434236
 30
0.0
 10
81.13888886860417
 20
-137.4717144100766
 30
0.0
 10
81.13888886860417
 20
-137.5268182989516
 30
0.0
 10
81.18369164637089
 20
-137.5716210767183
 30
0.0
 10
81.23879348298127
 20
-137.5716210767183
 30
0.0
 10
81.29393264824121
 20
-137.5716210767183
 30
0.0
 10
81.3387001470991
 20
-137.5268182989516
 30
0.0
 10
81.3387001470991
 20
-137.4717144100766
 30
0.0
  0
POLYLINE
  5
C7
330
1F
100
AcDbEntity
  8
_U+30EC_U+30A4_U+30E4_U+30FC 1
 62
   179
420
  2234388
370
     9
100
AcDb2dPolyline
 66
     1
 10
0.0
 20
0.0
 30
0.0
  0
VERTEX
  5
C8
330
C7
100
AcDbEntity
  8
_U+30EC_U+30A4_U+30E4_U+30FC 1
 62
   179
420
  2234388
370
     9
100
AcDbVertex
100
AcDb2dVertex
 10
82.9888887161104
 20
-121.472007469632
 30
0.0
  0
VERTEX
  5
C9
330
C7
100
AcDbEntity
  8
_U+30EC_U+30A4_U+30E4_U+30FC 1
 62
   179
420
  2234388
370
     9
100
AcDbVertex
100
AcDb2dVertex
 10
92.98897429432029
 20
-121.472007469632
 30
0.0
  0
SEQEND
  5
CA
330
C7
100
AcDbEntity
  8
_U+30EC_U+30A4_U+30E4_U+30FC 1
 62
   179
420
  2234388
370
     9
  0
POLYLINE
  5
CB
330
1F
100
AcDbEntity
  8
_U+30EC_U+30A4_U+30E4_U+30FC 1
 62
   179
420
  2234388
370
     9
100
AcDb2dPolyline
 66
     1
 10
0.0
 20
0.0
 30
0.0
  0
VERTEX
  5
CC
330
CB
100
AcDbEntity
  8
_U+30EC_U+30A4_U+30E4_U+30FC 1
 62
   179
420
  2234388
370
     9
100
AcDbVertex
100
AcDb2dVertex
 10
82.9888887161104
 20
-122.9320488581558
 30
0.0
  0
VERTEX
  5
CD
330
CB
100
AcDbEntity
  8
_U+30EC_U+30A4_U+30E4_U+30FC 1
 62
   179
420
  2234388
370
     9
100
AcDbVertex
100
AcDb2dVertex
 10
82.9888887161104
 20
-120.4715296921043
 30
0.0
  0
SEQEND
  5
CE
330
CB
100
AcDbEntity
  8
_U+30EC_U+30A4_U+30E4_U+30FC 1
 62
   179
420
  2234388
370
     9
  0
POLYLINE
  5
CF
330
1F
100
AcDbEntity
  8
_U+30EC_U+30A4_U+30E4_U+30FC 1
 62
   179
420
  2234388
370
     9
100
AcDb2dPolyline
 66
     1
 10
0.0
 20
0.0
 30
0.0
  0
VERTEX
  5
D0
330
CF
100
AcDbEntity
  8
_U+30EC_U+30A4_U+30E4_U+30FC 1
 62
   179
420
  2234388
370
     9
100
AcDbVertex
100
AcDb2dVertex
 10
92.98897429432029
 20
-122.9320488581558
 30
0.0
  0
VERTEX
  5
D1
330
CF
100
AcDbEntity
  8
_U+30EC_U+30A4_U+30E4_U+30FC 1
 62
   179
420
  2234388
370
     9
100
AcDbVertex
100
AcDb2dVertex
 10
92.98897429432029
 20
-120.4715296921043
 30
0.0
  0
SEQEND
  5
D2
330
CF
100
AcDbEntity
  8
_U+30EC_U+30A4_U+30E4_U+30FC 1
 62
   179
420
  2234388
370
     9
  0
INSERT
  5
D4
330
1F
100
AcDbEntity
  8
_U+30EC_U+30A4_U+30E4_U+30FC 1
100
AcDbBlockReference
  2
block 2
 10
0.0
 20
0.0
 30
0.0
  0
SPLINE
  5
DC
330
1F
100
AcDbEntity
  8
_U+30EC_U+30A4_U+30E4_U+30FC 1
 62
   179
420
  2234388
370
    25
100
AcDbSpline
210
0.0
220
0.0
230
1.0
 70
    11
 71
     3
 72
    17
 73
    13
 74
     0
 42
0.0000000001
 43
0.0000000001
 12
1.0
 22
0.0
 32
0.0
 13
1.0
 23
0.0
 33
0.0
 40
0.0
 40
0.0
 40
0.0
 40
0.0
 40
1.0
 40
1.0
 40
1.0
 40
2.0
 40
2.0
 40
2.0
 40
3.0
 40
3.0
 40
3.0
 40
4.0
 40
4.0
 40
4.0
 40
4.0
 10
83.02406065965752
 20
-125.4717666352986
 30
0.0
 10
83.02406065965752
 20
-125.4910635797384
 30
0.0
 10
83.00818566006254
 20
-125.5069033019567
 30
0.0
 10
82.9888887161104
 20
-125.5069033019567
 30
0.0
 10
82.96927427216636
 20
-125.5069033019567
 30
0.0
 10
82.95343455034823
 20
-125.4910635797384
 30
0.0
 10
82.95343455034823
 20
-125.4717666352986
 30
0.0
 10
82.95343455034823
 20
-125.4524696908591
 30
0.0
 10
82.96927427216636
 20
-125.4366299686409
 30
0.0
 10
82.9888887161104
 20
-125.4366299686409
 30
0.0
 10
83.00818566006254
 20
-125.4366299686409
 30
0.0
 10
83.02406065965752
 20
-125.4524696908591
 30
0.0
 10
83.02406065965752
 20
-125.4717666352986
 30
0.0
  0
SPLINE
  5
DD
330
1F
100
AcDbEntity
  8
_U+30EC_U+30A4_U+30E4_U+30FC 1
 62
   179
420
  2234388
370
    25
100
AcDbSpline
210
0.0
220
0.0
230
1.0
 70
    11
 71
     3
 72
    17
 73
    13
 74
     0
 42
0.0000000001
 43
0.0000000001
 12
1.0
 22
0.0
 32
0.0
 13
1.0
 23
0.0
 33
0.0
 40
0.0
 40
0.0
 40
0.0
 40
0.0
 40
1.0
 40
1.0
 40
1.0
 40
2.0
 40
2.0
 40
2.0
 40
3.0
 40
3.0
 40
3.0
 40
4.0
 40
4.0
 40
4.0
 40
4.0
 10
93.02411096009054
 20
-125.4717666352986
 30
0.0
 10
93.02411096009054
 20
-125.4910635797384
 30
0.0
 10
93.00827123827243
 20
-125.5069033019567
 30
0.0
 10
92.98897429432029
 20
-125.5069033019567
 30
0.0
 10
92.96900707260747
 20
-125.5069033019567
 30
0.0
 10
92.95348485078125
 20
-125.4910635797384
 30
0.0
 10
92.95348485078125
 20
-125.4717666352986
 30
0.0
 10
92.95348485078125
 20
-125.4524696908591
 30
0.0
 10
92.96900707260747
 20
-125.4366299686409
 30
0.0
 10
92.98897429432029
 20
-125.4366299686409
 30
0.0
 10
93.00827123827243
 20
-125.4366299686409
 30
0.0
 10
93.02411096009054
 20
-125.4524696908591
 30
0.0
 10
93.02411096009054
 20
-125.4717666352986
 30
0.0
  0
SPLINE
  5
DE
330
1F
100
AcDbEntity
  8
_U+30EC_U+30A4_U+30E4_U+30FC 1
 62
   179
420
  2234388
370
     9
100
AcDbSpline
210
0.0
220
0.0
230
1.0
 70
    11
 71
     3
 72
    17
 73
    13
 74
     0
 42
0.0000000001
 43
0.0000000001
 12
1.0
 22
0.0
 32
0.0
 13
1.0
 23
0.0
 33
0.0
 40
0.0
 40
0.0
 40
0.0
 40
0.0
 40
1.0
 40
1.0
 40
1.0
 40
2.0
 40
2.0
 40
2.0
 40
3.0
 40
3.0
 40
3.0
 40
4.0
 40
4.0
 40
4.0
 40
4.0
 10
93.02411096009054
 20
-121.472007469632
 30
0.0
 10
93.02411096009054
 20
-121.4913044140716
 30
0.0
 10
93.00827123827243
 20
-121.5071441362898
 30
0.0
 10
92.98897429432029
 20
-121.5071441362898
 30
0.0
 10
92.96900707260747
 20
-121.5071441362898
 30
0.0
 10
92.95348485078125
 20
-121.4913044140716
 30
0.0
 10
92.95348485078125
 20
-121.472007469632
 30
0.0
 10
92.95348485078125
 20
-121.4527105251925
 30
0.0
 10
92.96900707260747
 20
-121.436870802974
 30
0.0
 10
92.98897429432029
 20
-121.436870802974
 30
0.0
 10
93.00827123827243
 20
-121.436870802974
 30
0.0
 10
93.02411096009054
 20
-121.4527105251925
 30
0.0
 10
93.02411096009054
 20
-121.472007469632
 30
0.0
  0
POLYLINE
  5
DF
330
1F
100
AcDbEntity
  8
_U+30EC_U+30A4_U+30E4_U+30FC 1
 62
   179
420
  2234388
370
     9
100
AcDb2dPolyline
 66
     1
 10
0.0
 20
0.0
 30
0.0
  0
VERTEX
  5
E0
330
DF
100
AcDbEntity
  8
_U+30EC_U+30A4_U+30E4_U+30FC 1
 62
   179
420
  2234388
370
     9
100
AcDbVertex
100
AcDb2dVertex
 10
81.23879348298127
 20
-137.4717144100766
 30
0.0
  0
VERTEX
  5
E1
330
DF
100
AcDbEntity
  8
_U+30EC_U+30A4_U+30E4_U+30FC 1
 62
   179
420
  2234388
370
     9
100
AcDbVertex
100
AcDb2dVertex
 10
94.73875202745752
 20
-137.4717144100766
 30
0.0
  0
SEQEND
  5
E2
330
DF
100
AcDbEntity
  8
_U+30EC_U+30A4_U+30E4_U+30FC 1
 62
   179
420
  2234388
370
     9
  0
POLYLINE
  5
E3
330
1F
100
AcDbEntity
  8
_U+30EC_U+30A4_U+30E4_U+30FC 1
 62
   179
420
  2234388
370
     9
100
AcDb2dPolyline
 66
     1
 10
0.0
 20
0.0
 30
0.0
  0
VERTEX
  5
E4
330
E3
100
AcDbEntity
  8
_U+30EC_U+30A4_U+30E4_U+30FC 1
 62
   179
420
  2234388
370
     9
100
AcDbVertex
100
AcDb2dVertex
 10
81.23879348298127
 20
-136.0116730215529
 30
0.0
  0
VERTEX
  5
E5
330
E3
100
AcDbEntity
  8
_U+30EC_U+30A4_U+30E4_U+30FC 1
 62
   179
420
  2234388
370
     9
100
AcDbVertex
100
AcDb2dVertex
 10
81.23879348298127
 20
-138.4721569098265
 30
0.0
  0
SEQEND
  5
E6
330
E3
100
AcDbEntity
  8
_U+30EC_U+30A4_U+30E4_U+30FC 1
 62
   179
420
  2234388
370
     9
  0
POLYLINE
  5
E7
330
1F
100
AcDbEntity
  8
_U+30EC_U+30A4_U+30E4_U+30FC 1
 62
   179
420
  2234388
370
     9
100
AcDb2dPolyline
 66
     1
 10
0.0
 20
0.0
 30
0.0
  0
VERTEX
  5
E8
330
E7
100
AcDbEntity
  8
_U+30EC_U+30A4_U+30E4_U+30FC 1
 62
   179
420
  2234388
370
     9
100
AcDbVertex
100
AcDb2dVertex
 10
94.73875202745752
 20
-136.0116730215529
 30
0.0
  0
VERTEX
  5
E9
330
E7
100
AcDbEntity
  8
_U+30EC_U+30A4_U+30E4_U+30FC 1
 62
   179
420
  2234388
370
     9
100
AcDbVertex
100
AcDb2dVertex
 10
94.73875202745752
 20
-138.4721569098265
 30
0.0
  0
SEQEND
  5
EA
330
E7
100
AcDbEntity
  8
_U+30EC_U+30A4_U+30E4_U+30FC 1
 62
   179
420
  2234388
370
     9
  0
INSERT
  5
EC
330
1F
100
AcDbEntity
  8
_U+30EC_U+30A4_U+30E4_U+30FC 1
100
AcDbBlockReference
  2
block 3
 10
0.0
 20
0.0
 30
0.0
  0
SPLINE
  5
FD
330
1F
100
AcDbEntity
  8
_U+30EC_U+30A4_U+30E4_U+30FC 1
 62
   179
420
  2234388
370
    25
100
AcDbSpline
210
0.0
220
0.0
230
1.0
 70
    11
 71
     3
 72
    17
 73
    13
 74
     0
 42
0.0000000001
 43
0.0000000001
 12
1.0
 22
0.0
 32
0.0
 13
1.0
 23
0.0
 33
0.0
 40
0.0
 40
0.0
 40
0.0
 40
0.0
 40
1.0
 40
1.0
 40
1.0
 40
2.0
 40
2.0
 40
2.0
 40
3.0
 40
3.0
 40
3.0
 40
4.0
 40
4.0
 40
4.0
 40
4.0
 10
81.27393014875152
 20
-133.4719552444097
 30
0.0
 10
81.27393014875152
 20
-133.4912521888496
 30
0.0
 10
81.2580904269334
 20
-133.5070919110675
 30
0.0
 10
81.23879348298127
 20
-133.5070919110675
 30
0.0
 10
81.21949653902912
 20
-133.5070919110675
 30
0.0
 10
81.20365681721101
 20
-133.4912521888496
 30
0.0
 10
81.20365681721101
 20
-133.4719552444097
 30
0.0
 10
81.20365681721101
 20
-133.4526582999699
 30
0.0
 10
81.21949653902912
 20
-133.436818577752
 30
0.0
 10
81.23879348298127
 20
-133.436818577752
 30
0.0
 10
81.2580904269334
 20
-133.436818577752
 30
0.0
 10
81.27393014875152
 20
-133.4526582999699
 30
0.0
 10
81.27393014875152
 20
-133.4719552444097
 30
0.0
  0
SPLINE
  5
FE
330
1F
100
AcDbEntity
  8
_U+30EC_U+30A4_U+30E4_U+30FC 1
 62
   179
420
  2234388
370
    25
100
AcDbSpline
210
0.0
220
0.0
230
1.0
 70
    11
 71
     3
 72
    17
 73
    13
 74
     0
 42
0.0000000001
 43
0.0000000001
 12
1.0
 22
0.0
 32
0.0
 13
1.0
 23
0.0
 33
0.0
 40
0.0
 40
0.0
 40
0.0
 40
0.0
 40
1.0
 40
1.0
 40
1.0
 40
2.0
 40
2.0
 40
2.0
 40
3.0
 40
3.0
 40
3.0
 40
4.0
 40
4.0
 40
4.0
 40
4.0
 10
94.77424147099656
 20
-133.4719552444097
 30
0.0
 10
94.77424147099656
 20
-133.4912521888496
 30
0.0
 10
94.75836647140156
 20
-133.5070919110675
 30
0.0
 10
94.73875202745752
 20
-133.5070919110675
 30
0.0
 10
94.7191023057366
 20
-133.5070919110675
 30
0.0
 10
94.70326258391849
 20
-133.4912521888496
 30
0.0
 10
94.70326258391849
 20
-133.4719552444097
 30
0.0
 10
94.70326258391849
 20
-133.4526582999699
 30
0.0
 10
94.7191023057366
 20
-133.436818577752
 30
0.0
 10
94.73875202745752
 20
-133.436818577752
 30
0.0
 10
94.75836647140156
 20
-133.436818577752
 30
0.0
 10
94.77424147099656
 20
-133.4526582999699
 30
0.0
 10
94.77424147099656
 20
-133.4719552444097
 30
0.0
  0
SPLINE
  5
FF
330
1F
100
AcDbEntity
  8
_U+30EC_U+30A4_U+30E4_U+30FC 1
 62
   179
420
  2234388
370
     9
100
AcDbSpline
210
0.0
220
0.0
230
1.0
 70
    11
 71
     3
 72
    17
 73
    13
 74
     0
 42
0.0000000001
 43
0.0000000001
 12
1.0
 22
0.0
 32
0.0
 13
1.0
 23
0.0
 33
0.0
 40
0.0
 40
0.0
 40
0.0
 40
0.0
 40
1.0
 40
1.0
 40
1.0
 40
2.0
 40
2.0
 40
2.0
 40
3.0
 40
3.0
 40
3.0
 40
4.0
 40
4.0
 40
4.0
 40
4.0
 10
94.77424147099656
 20
-137.4717144100766
 30
0.0
 10
94.77424147099656
 20
-137.4916816322938
 30
0.0
 10
94.75836647140156
 20
-137.5068510767344
 30
0.0
 10
94.73875202745752
 20
-137.5068510767344
 30
0.0
 10
94.7191023057366
 20
-137.5068510767344
 30
0.0
 10
94.70326258391849
 20
-137.4916816322938
 30
0.0
 10
94.70326258391849
 20
-137.4717144100766
 30
0.0
 10
94.70326258391849
 20
-137.4524174656368
 30
0.0
 10
94.7191023057366
 20
-137.4365777434189
 30
0.0
 10
94.73875202745752
 20
-137.4365777434189
 30
0.0
 10
94.75836647140156
 20
-137.4365777434189
 30
0.0
 10
94.77424147099656
 20
-137.4524174656368
 30
0.0
 10
94.77424147099656
 20
-137.4717144100766
 30
0.0
  0
POLYLINE
  5
100
330
1F
100
AcDbEntity
  8
_U+30EC_U+30A4_U+30E4_U+30FC 1
 62
   179
420
  2234388
370
     9
100
AcDb2dPolyline
 66
     1
 10
0.0
 20
0.0
 30
0.0
  0
VERTEX
  5
101
330
100
100
AcDbEntity
  8
_U+30EC_U+30A4_U+30E4_U+30FC 1
 62
   179
420
  2234388
370
     9
100
AcDbVertex
100
AcDb2dVertex
 10
98.73882859207373
 20
-125.4717666352986
 30
0.0
  0
VERTEX
  5
102
330
100
100
AcDbEntity
  8
_U+30EC_U+30A4_U+30E4_U+30FC 1
 62
   179
420
  2234388
370
     9
100
AcDbVertex
100
AcDb2dVertex
 10
98.73882859207373
 20
-133.4719552444097
 30
0.0
  0
SEQEND
  5
103
330
100
100
AcDbEntity
  8
_U+30EC_U+30A4_U+30E4_U+30FC 1
 62
   179
420
  2234388
370
     9
  0
POLYLINE
  5
104
330
1F
100
AcDbEntity
  8
_U+30EC_U+30A4_U+30E4_U+30FC 1
 62
   179
420
  2234388
370
     9
100
AcDb2dPolyline
 66
     1
 10
0.0
 20
0.0
 30
0.0
  0
VERTEX
  5
105
330
104
100
AcDbEntity
  8
_U+30EC_U+30A4_U+30E4_U+30FC 1
 62
   179
420
  2234388
370
     9
100
AcDbVertex
100
AcDb2dVertex
 10
95.52869442056259
 20
-125.4717666352986
 30
0.0
  0
VERTEX
  5
106
330
104
100
AcDbEntity
  8
_U+30EC_U+30A4_U+30E4_U+30FC 1
 62
   179
420
  2234388
370
     9
100
AcDbVertex
100
AcDb2dVertex
 10
99.73860078878964
 20
-125.4717666352986
 30
0.0
  0
SEQEND
  5
107
330
104
100
AcDbEntity
  8
_U+30EC_U+30A4_U+30E4_U+30FC 1
 62
   179
420
  2234388
370
     9
  0
POLYLINE
  5
108
330
1F
100
AcDbEntity
  8
_U+30EC_U+30A4_U+30E4_U+30FC 1
 62
   179
420
  2234388
370
     9
100
AcDb2dPolyline
 66
     1
 10
0.0
 20
0.0
 30
0.0
  0
VERTEX
  5
109
330
108
100
AcDbEntity
  8
_U+30EC_U+30A4_U+30E4_U+30FC 1
 62
   179
420
  2234388
370
     9
100
AcDbVertex
100
AcDb2dVertex
 10
97.27882497568037
 20
-133.4719552444097
 30
0.0
  0
VERTEX
  5
10A
330
108
100
AcDbEntity
  8
_U+30EC_U+30A4_U+30E4_U+30FC 1
 62
   179
420
  2234388
370
     9
100
AcDbVertex
100
AcDb2dVertex
 10
99.73860078878964
 20
-133.4719552444097
 30
0.0
  0
SEQEND
  5
10B
330
108
100
AcDbEntity
  8
_U+30EC_U+30A4_U+30E4_U+30FC 1
 62
   179
420
  2234388
370
     9
  0
INSERT
  5
10D
330
1F
100
AcDbEntity
  8
_U+30EC_U+30A4_U+30E4_U+30FC 1
100
AcDbBlockReference
  2
block 4
 10
0.0
 20
0.0
 30
0.0
  0
SPLINE
  5
11E
330
1F
100
AcDbEntity
  8
_U+30EC_U+30A4_U+30E4_U+30FC 1
 62
   179
420
  2234388
370
    25
100
AcDbSpline
210
0.0
220
0.0
230
1.0
 70
    11
 71
     3
 72
    17
 73
    13
 74
     0
 42
0.0000000001
 43
0.0000000001
 12
1.0
 22
0.0
 32
0.0
 13
1.0
 23
0.0
 33
0.0
 40
0.0
 40
0.0
 40
0.0
 40
0.0
 40
1.0
 40
1.0
 40
1.0
 40
2.0
 40
2.0
 40
2.0
 40
3.0
 40
3.0
 40
3.0
 40
4.0
 40
4.0
 40
4.0
 40
4.0
 10
93.02411096009054
 20
-125.4717666352986
 30
0.0
 10
93.02411096009054
 20
-125.4910635797384
 30
0.0
 10
93.00827123827243
 20
-125.5069033019567
 30
0.0
 10
92.98897429432029
 20
-125.5069033019567
 30
0.0
 10
92.96900707260747
 20
-125.5069033019567
 30
0.0
 10
92.95348485078125
 20
-125.4910635797384
 30
0.0
 10
92.95348485078125
 20
-125.4717666352986
 30
0.0
 10
92.95348485078125
 20
-125.4524696908591
 30
0.0
 10
92.96900707260747
 20
-125.4366299686409
 30
0.0
 10
92.98897429432029
 20
-125.4366299686409
 30
0.0
 10
93.00827123827243
 20
-125.4366299686409
 30
0.0
 10
93.02411096009054
 20
-125.4524696908591
 30
0.0
 10
93.02411096009054
 20
-125.4717666352986
 30
0.0
  0
SPLINE
  5
11F
330
1F
100
AcDbEntity
  8
_U+30EC_U+30A4_U+30E4_U+30FC 1
 62
   179
420
  2234388
370
    25
100
AcDbSpline
210
0.0
220
0.0
230
1.0
 70
    11
 71
     3
 72
    17
 73
    13
 74
     0
 42
0.0000000001
 43
0.0000000001
 12
1.0
 22
0.0
 32
0.0
 13
1.0
 23
0.0
 33
0.0
 40
0.0
 40
0.0
 40
0.0
 40
0.0
 40
1.0
 40
1.0
 40
1.0
 40
2.0
 40
2.0
 40
2.0
 40
3.0
 40
3.0
 40
3.0
 40
4.0
 40
4.0
 40
4.0
 40
4.0
 10
94.77424147099656
 20
-133.4719552444097
 30
0.0
 10
94.77424147099656
 20
-133.4912521888496
 30
0.0
 10
94.75836647140156
 20
-133.5070919110675
 30
0.0
 10
94.73875202745752
 20
-133.5070919110675
 30
0.0
 10
94.7191023057366
 20
-133.5070919110675
 30
0.0
 10
94.70326258391849
 20
-133.4912521888496
 30
0.0
 10
94.70326258391849
 20
-133.4719552444097
 30
0.0
 10
94.70326258391849
 20
-133.4526582999699
 30
0.0
 10
94.7191023057366
 20
-133.436818577752
 30
0.0
 10
94.73875202745752
 20
-133.436818577752
 30
0.0
 10
94.75836647140156
 20
-133.436818577752
 30
0.0
 10
94.77424147099656
 20
-133.4526582999699
 30
0.0
 10
94.77424147099656
 20
-133.4719552444097
 30
0.0
  0
SPLINE
  5
120
330
1F
100
AcDbEntity
  8
_U+30EC_U+30A4_U+30E4_U+30FC 1
 62
   179
420
  2234388
370
     9
100
AcDbSpline
210
0.0
220
0.0
230
1.0
 70
    11
 71
     3
 72
    17
 73
    13
 74
     0
 42
0.0000000001
 43
0.0000000001
 12
1.0
 22
0.0
 32
0.0
 13
1.0
 23
0.0
 33
0.0
 40
0.0
 40
0.0
 40
0.0
 40
0.0
 40
1.0
 40
1.0
 40
1.0
 40
2.0
 40
2.0
 40
2.0
 40
3.0
 40
3.0
 40
3.0
 40
4.0
 40
4.0
 40
4.0
 40
4.0
 10
98.77400053562087
 20
-133.4719552444097
 30
0.0
 10
98.77400053562087
 20
-133.4912521888496
 30
0.0
 10
98.75812553602587
 20
-133.5070919110675
 30
0.0
 10
98.73882859207373
 20
-133.5070919110675
 30
0.0
 10
98.71921664198713
 20
-133.5070919110675
 30
0.0
 10
98.70369441976884
 20
-133.4912521888496
 30
0.0
 10
98.70369441976884
 20
-133.4719552444097
 30
0.0
 10
98.70369441976884
 20
-133.4526582999699
 30
0.0
 10
98.71921664198713
 20
-133.436818577752
 30
0.0
 10
98.73882859207373
 20
-133.436818577752
 30
0.0
 10
98.75812553602587
 20
-133.436818577752
 30
0.0
 10
98.77400053562087
 20
-133.4526582999699
 30
0.0
 10
98.77400053562087
 20
-133.4719552444097
 30
0.0
  0
ENDSEC
  0
SECTION
  2
OBJECTS
  0
DICTIONARY
  5
C
330
0
100
AcDbDictionary
281
     1
  3
ACAD_GROUP
350
D
  3
ACAD_LAYOUT
350
1A
  3
ACAD_MATERIAL
350
3B
  3
ACAD_MLEADERSTYLE
350
122
  3
ACAD_MLINESTYLE
350
17
  3
ACAD_PLOTSETTINGS
350
19
  3
ACAD_PLOTSTYLENAME
350
E
  3
ACAD_TABLESTYLE
350
121
  3
ACAD_VISUALSTYLE
350
2A
  0
SUN
  5
3F
330
29
100
AcDbSun
 90
        1
290
     0
 63
     7
421
 16777215
 40
1.0
291
     1
 91
  2455826
 92
 54000000
292
     0
 70
     2
 71
   256
280
     1
  0
DICTIONARY
  5
D
102
{ACAD_REACTORS
330
C
102
}
330
C
100
AcDbDictionary
281
     1
  0
DICTIONARY
  5
1A
102
{ACAD_REACTORS
330
C
102
}
330
C
100
AcDbDictionary
281
     1
  3
Layout1
350
1E
  3
Layout2
350
26
  3
Model
350
22
  0
DICTIONARY
  5
3B
102
{ACAD_REACTORS
330
C
102
}
330
C
100
AcDbDictionary
281
     1
  3
ByBlock
350
3D
  3
ByLayer
350
3C
  3
Global
350
3E
  0
DICTIONARY
  5
122
102
{ACAD_REACTORS
330
C
102
}
330
C
100
AcDbDictionary
281
     1
  0
DICTIONARY
  5
17
102
{ACAD_REACTORS
330
C
102
}
330
C
100
AcDbDictionary
281
     1
  3
Standard
350
18
  0
DICTIONARY
  5
19
102
{ACAD_REACTORS
330
C
102
}
330
C
100
AcDbDictionary
281
     1
  0
ACDBDICTIONARYWDFLT
  5
E
102
{ACAD_REACTORS
330
C
102
}
330
C
100
AcDbDictionary
281
     1
  3
Normal
350
F
100
AcDbDictionaryWithDefault
340
F
  0
DICTIONARY
  5
121
102
{ACAD_REACTORS
330
C
102
}
330
C
100
AcDbDictionary
281
     1
  0
DICTIONARY
  5
2A
102
{ACAD_REACTORS
330
C
102
}
330
C
100
AcDbDictionary
281
     1
  3
2dWireframe
350
2F
  3
3D Hidden
350
31
  3
3dWireframe
350
30
  3
Basic
350
32
  3
Brighten
350
36
  3
ColorChange
350
3A
  3
Conceptual
350
34
  3
Dim
350
35
  3
Facepattern
350
39
  3
Flat
350
2B
  3
FlatWithEdges
350
2C
  3
Gouraud
350
2D
  3
GouraudWithEdges
350
2E
  3
Linepattern
350
38
  3
Realistic
350
33
  3
Thicken
350
37
  0
LAYOUT
  5
1E
102
{ACAD_REACTORS
330
1A
102
}
330
1A
100
AcDbPlotSettings
  1

  2
none_device
  4

  6

 40
0.0
 41
0.0
 42
0.0
 43
0.0
 44
0.0
 45
0.0
 46
0.0
 47
0.0
 48
0.0
 49
0.0
140
0.0
141
0.0
142
1.0
143
1.0
 70
   688
 72
     0
 73
     0
 74
     5
  7

 75
    16
 76
     0
 77
     2
 78
   300
147
1.0
148
0.0
149
0.0
100
AcDbLayout
  1
Layout1
 70
     1
 71
     1
 10
0.0
 20
0.0
 11
12.0
 21
9.0
 12
0.0
 22
0.0
 32
0.0
 14
1.000000000000000E+20
 24
1.000000000000000E+20
 34
1.000000000000000E+20
 15
-1.000000000000000E+20
 25
-1.000000000000000E+20
 35
-1.000000000000000E+20
146
0.0
 13
0.0
 23
0.0
 33
0.0
 16
1.0
 26
0.0
 36
0.0
 17
0.0
 27
1.0
 37
0.0
 76
     0
330
1B
  0
LAYOUT
  5
26
102
{ACAD_REACTORS
330
1A
102
}
330
1A
100
AcDbPlotSettings
  1

  2
none_device
  4

  6

 40
0.0
 41
0.0
 42
0.0
 43
0.0
 44
0.0
 45
0.0
 46
0.0
 47
0.0
 48
0.0
 49
0.0
140
0.0
141
0.0
142
1.0
143
1.0
 70
   688
 72
     0
 73
     0
 74
     5
  7

 75
    16
 76
     0
 77
     2
 78
   300
147
1.0
148
0.0
149
0.0
100
AcDbLayout
  1
Layout2
 70
     1
 71
     2
 10
0.0
 20
0.0
 11
0.0
 21
0.0
 12
0.0
 22
0.0
 32
0.0
 14
0.0
 24
0.0
 34
0.0
 15
0.0
 25
0.0
 35
0.0
146
0.0
 13
0.0
 23
0.0
 33
0.0
 16
1.0
 26
0.0
 36
0.0
 17
0.0
 27
1.0
 37
0.0
 76
     0
330
23
  0
LAYOUT
  5
22
102
{ACAD_REACTORS
330
1A
102
}
330
1A
100
AcDbPlotSettings
  1

  2
none_device
  4

  6

 40
0.0
 41
0.0
 42
0.0
 43
0.0
 44
0.0
 45
0.0
 46
0.0
 47
0.0
 48
0.0
 49
0.0
140
0.0
141
0.0
142
1.0
143
1.0
 70
  1712
 72
     0
 73
     0
 74
     0
  7

 75
     0
 76
     0
 77
     2
 78
   300
147
1.0
148
0.0
149
0.0
100
AcDbLayout
  1
Model
 70
     1
 71
     0
 10
0.0
 20
0.0
 11
12.0
 21
9.0
 12
0.0
 22
0.0
 32
0.0
 14
1.000000000000000E+20
 24
1.000000000000000E+20
 34
1.000000000000000E+20
 15
-1.000000000000000E+20
 25
-1.000000000000000E+20
 35
-1.000000000000000E+20
146
0.0
 13
0.0
 23
0.0
 33
0.0
 16
1.0
 26
0.0
 36
0.0
 17
0.0
 27
1.0
 37
0.0
 76
     0
330
1F
331
29
  0
MATERIAL
  5
3D
102
{ACAD_REACTORS
330
3B
102
}
330
3B
100
AcDbMaterial
  1
ByBlock
 72
     1
 94
      127
  0
MATERIAL
  5
3C
102
{ACAD_REACTORS
330
3B
102
}
330
3B
100
AcDbMaterial
  1
ByLayer
 72
     1
 94
      127
  0
MATERIAL
  5
3E
102
{ACAD_REACTORS
330
3B
102
}
330
3B
100
AcDbMaterial
  1
Global
 72
     1
 94
      127
  0
MLINESTYLE
  5
18
102
{ACAD_REACTORS
330
17
102
}
330
17
100
AcDbMlineStyle
  2
Standard
 70
     0
  3

 62
   256
 51
90.0
 52
90.0
 71
     2
 49
0.5
 62
   256
  6
BYLAYER
 49
-0.5
 62
   256
  6
BYLAYER
  0
ACDBPLACEHOLDER
  5
F
102
{ACAD_REACTORS
330
E
102
}
330
E
  0
VISUALSTYLE
  5
2F
102
{ACAD_REACTORS
330
2A
102
}
330
2A
100
AcDbVisualStyle
  2
2dWireframe
 70
     4
177
     2
291
     0
 71
     0
176
     1
 72
     2
176
     1
 73
     0
176
     1
 90
        0
176
     1
 40
-0.6
176
     1
 41
-30.0
176
     1
 62
     5
 63
     7
421
 16777215
176
     1
 74
     1
176
     1
 91
        4
176
     1
 64
     7
176
     1
 65
   257
176
     1
 75
     1
176
     1
175
     1
176
     1
 42
1.0
176
     1
 92
        0
176
     1
 66
   257
176
     1
 43
1.0
176
     1
 76
     1
176
     1
 77
     6
176
     1
 78
     2
176
     1
 67
     7
176
     1
 79
     5
176
     1
170
     0
176
     1
171
     0
176
     1
290
     0
176
     1
 93
        1
176
     1
 44
0.0
176
     1
173
     0
176
     1
  0
VISUALSTYLE
  5
31
102
{ACAD_REACTORS
330
2A
102
}
330
2A
100
AcDbVisualStyle
  2
3D Hidden
 70
     6
177
     2
291
     0
 71
     1
176
     1
 72
     2
176
     1
 73
     2
176
     1
 90
        0
176
     1
 40
-0.6
176
     1
 41
-30.0
176
     1
 62
     5
 63
     7
421
 16777215
176
     1
 74
     2
176
     1
 91
        2
176
     1
 64
     7
176
     1
 65
   257
176
     1
 75
     2
176
     1
175
     1
176
     1
 42
40.0
176
     1
 92
        0
176
     1
 66
   257
176
     1
 43
1.0
176
     1
 76
     1
176
     1
 77
     6
176
     1
 78
     2
176
     1
 67
     7
176
     1
 79
     3
176
     1
170
     0
176
     1
171
     0
176
     1
290
     0
176
     1
 93
        1
176
     1
 44
0.0
176
     1
173
     0
176
     1
  0
VISUALSTYLE
  5
30
102
{ACAD_REACTORS
330
2A
102
}
330
2A
100
AcDbVisualStyle
  2
3dWireframe
 70
     5
177
     2
291
     0
 71
     0
176
     1
 72
     2
176
     1
 73
     0
176
     1
 90
        0
176
     1
 40
-0.6
176
     1
 41
-30.0
176
     1
 62
     5
 63
     7
421
 16777215
176
     1
 74
     1
176
     1
 91
        4
176
     1
 64
     7
176
     1
 65
   257
176
     1
 75
     1
176
     1
175
     1
176
     1
 42
1.0
176
     1
 92
        0
176
     1
 66
   257
176
     1
 43
1.0
176
     1
 76
     1
176
     1
 77
     6
176
     1
 78
     2
176
     1
 67
     7
176
     1
 79
     5
176
     1
170
     0
176
     1
171
     0
176
     1
290
     0
176
     1
 93
        1
176
     1
 44
0.0
176
     1
173
     0
176
     1
  0
VISUALSTYLE
  5
32
102
{ACAD_REACTORS
330
2A
102
}
330
2A
100
AcDbVisualStyle
  2
Basic
 70
     7
177
     2
291
     1
 71
     1
176
     1
 72
     0
176
     1
 73
     1
176
     1
 90
        0
176
     1
 40
-0.6
176
     1
 41
-30.0
176
     1
 62
     5
 63
     7
421
 16777215
176
     1
 74
     0
176
     1
 91
        4
176
     1
 64
     7
176
     1
 65
   257
176
     1
 75
     1
176
     1
175
     1
176
     1
 42
1.0
176
     1
 92
        8
176
     1
 66
     7
176
     1
 43
1.0
176
     1
 76
     1
176
     1
 77
     6
176
     1
 78
     2
176
     1
 67
     7
176
     1
 79
     5
176
     1
170
     0
176
     1
171
     0
176
     1
290
     0
176
     1
 93
        1
176
     1
 44
0.0
176
     1
173
     0
176
     1
  0
VISUALSTYLE
  5
36
102
{ACAD_REACTORS
330
2A
102
}
330
2A
100
AcDbVisualStyle
  2
Brighten
 70
    12
177
     2
291
     1
 71
     2
176
     1
 72
     2
176
     1
 73
     0
176
     1
 90
        0
176
     1
 40
-0.6
176
     1
 41
-30.0
176
     1
 62
     5
 63
     7
421
 16777215
176
     1
 74
     1
176
     1
 91
        4
176
     1
 64
     7
176
     1
 65
   257
176
     1
 75
     1
176
     1
175
     1
176
     1
 42
1.0
176
     1
 92
        8
176
     1
 66
     7
176
     1
 43
1.0
176
     1
 76
     1
176
     1
 77
     6
176
     1
 78
     2
176
     1
 67
     7
176
     1
 79
     5
176
     1
170
     0
176
     1
171
     0
176
     1
290
     0
176
     1
 93
        1
176
     1
 44
50.0
176
     1
173
     0
176
     1
  0
VISUALSTYLE
  5
3A
102
{ACAD_REACTORS
330
2A
102
}
330
2A
100
AcDbVisualStyle
  2
ColorChange
 70
    16
177
     2
291
     1
 71
     2
176
     1
 72
     2
176
     1
 73
     3
176
     1
 90
        0
176
     1
 40
-0.6
176
     1
 41
-30.0
176
     1
 62
     5
 63
     8
421
  8421504
176
     1
 74
     1
176
     1
 91
        4
176
     1
 64
     7
176
     1
 65
   257
176
     1
 75
     1
176
     1
175
     1
176
     1
 42
1.0
176
     1
 92
        8
176
     1
 66
     8
424
  8421504
176
     1
 43
1.0
176
     1
 76
     1
176
     1
 77
     6
176
     1
 78
     2
176
     1
 67
     7
176
     1
 79
     5
176
     1
170
     0
176
     1
171
     0
176
     1
290
     0
176
     1
 93
        1
176
     1
 44
0.0
176
     1
173
     0
176
     1
  0
VISUALSTYLE
  5
34
102
{ACAD_REACTORS
330
2A
102
}
330
2A
100
AcDbVisualStyle
  2
Conceptual
 70
     9
177
     2
291
     0
 71
     3
176
     1
 72
     2
176
     1
 73
     0
176
     1
 90
        0
176
     1
 40
-0.6
176
     1
 41
-30.0
176
     1
 62
     5
 63
     7
421
 16777215
176
     1
 74
     2
176
     1
 91
        2
176
     1
 64
     7
176
     1
 65
   257
176
     1
 75
     1
176
     1
175
     1
176
     1
 42
40.0
176
     1
 92
        8
176
     1
 66
     7
176
     1
 43
1.0
176
     1
 76
     1
176
     1
 77
     6
176
     1
 78
     2
176
     1
 67
     7
176
     1
 79
     3
176
     1
170
     0
176
     1
171
     0
176
     1
290
     0
176
     1
 93
        1
176
     1
 44
0.0
176
     1
173
     0
176
     1
  0
VISUALSTYLE
  5
35
102
{ACAD_REACTORS
330
2A
102
}
330
2A
100
AcDbVisualStyle
  2
Dim
 70
    11
177
     2
291
     1
 71
     2
176
     1
 72
     2
176
     1
 73
     0
176
     1
 90
        0
176
     1
 40
-0.6
176
     1
 41
-30.0
176
     1
 62
     5
 63
     7
421
 16777215
176
     1
 74
     1
176
     1
 91
        4
176
     1
 64
     7
176
     1
 65
   257
176
     1
 75
     1
176
     1
175
     1
176
     1
 42
1.0
176
     1
 92
        8
176
     1
 66
     7
176
     1
 43
1.0
176
     1
 76
     1
176
     1
 77
     6
176
     1
 78
     2
176
     1
 67
     7
176
     1
 79
     5
176
     1
170
     0
176
     1
171
     0
176
     1
290
     0
176
     1
 93
        1
176
     1
 44
-50.0
176
     1
173
     0
176
     1
  0
VISUALSTYLE
  5
39
102
{ACAD_REACTORS
330
2A
102
}
330
2A
100
AcDbVisualStyle
  2
Facepattern
 70
    15
177
     2
291
     1
 71
     2
176
     1
 72
     2
176
     1
 73
     0
176
     1
 90
        0
176
     1
 40
-0.6
176
     1
 41
-30.0
176
     1
 62
     5
 63
     7
421
 16777215
176
     1
 74
     1
176
     1
 91
        4
176
     1
 64
     7
176
     1
 65
   257
176
     1
 75
     1
176
     1
175
     1
176
     1
 42
1.0
176
     1
 92
        8
176
     1
 66
     7
176
     1
 43
1.0
176
     1
 76
     1
176
     1
 77
     6
176
     1
 78
     2
176
     1
 67
     7
176
     1
 79
     5
176
     1
170
     0
176
     1
171
     0
176
     1
290
     0
176
     1
 93
        1
176
     1
 44
0.0
176
     1
173
     0
176
     1
  0
VISUALSTYLE
  5
2B
102
{ACAD_REACTORS
330
2A
102
}
330
2A
100
AcDbVisualStyle
  2
Flat
 70
     0
177
     2
291
     1
 71
     2
176
     1
 72
     1
176
     1
 73
     1
176
     1
 90
        2
176
     1
 40
-0.6
176
     1
 41
30.0
176
     1
 62
     5
 63
     7
421
 16777215
176
     1
 74
     0
176
     1
 91
        4
176
     1
 64
     7
176
     1
 65
   257
176
     1
 75
     1
176
     1
175
     1
176
     1
 42
1.0
176
     1
 92
        8
176
     1
 66
     7
176
     1
 43
1.0
176
     1
 76
     1
176
     1
 77
     6
176
     1
 78
     2
176
     1
 67
     7
176
     1
 79
     5
176
     1
170
     0
176
     1
171
     0
176
     1
290
     0
176
     1
 93
       13
176
     1
 44
0.0
176
     1
173
     0
176
     1
  0
VISUALSTYLE
  5
2C
102
{ACAD_REACTORS
330
2A
102
}
330
2A
100
AcDbVisualStyle
  2
FlatWithEdges
 70
     1
177
     2
291
     1
 71
     2
176
     1
 72
     1
176
     1
 73
     1
176
     1
 90
        2
176
     1
 40
-0.6
176
     1
 41
30.0
176
     1
 62
     5
 63
     7
421
 16777215
176
     1
 74
     1
176
     1
 91
        4
176
     1
 64
     7
176
     1
 65
   257
176
     1
 75
     1
176
     1
175
     1
176
     1
 42
1.0
176
     1
 92
        0
176
     1
 66
   257
176
     1
 43
1.0
176
     1
 76
     1
176
     1
 77
     6
176
     1
 78
     2
176
     1
 67
     7
176
     1
 79
     5
176
     1
170
     0
176
     1
171
     0
176
     1
290
     0
176
     1
 93
       13
176
     1
 44
0.0
176
     1
173
     0
176
     1
  0
VISUALSTYLE
  5
2D
102
{ACAD_REACTORS
330
2A
102
}
330
2A
100
AcDbVisualStyle
  2
Gouraud
 70
     2
177
     2
291
     1
 71
     2
176
     1
 72
     2
176
     1
 73
     1
176
     1
 90
        2
176
     1
 40
-0.6
176
     1
 41
30.0
176
     1
 62
     5
 63
     7
421
 16777215
176
     1
 74
     0
176
     1
 91
        4
176
     1
 64
     7
176
     1
 65
   257
176
     1
 75
     1
176
     1
175
     1
176
     1
 42
1.0
176
     1
 92
        0
176
     1
 66
     7
176
     1
 43
1.0
176
     1
 76
     1
176
     1
 77
     6
176
     1
 78
     2
176
     1
 67
     7
176
     1
 79
     5
176
     1
170
     0
176
     1
171
     0
176
     1
290
     0
176
     1
 93
       13
176
     1
 44
0.0
176
     1
173
     0
176
     1
  0
VISUALSTYLE
  5
2E
102
{ACAD_REACTORS
330
2A
102
}
330
2A
100
AcDbVisualStyle
  2
GouraudWithEdges
 70
     3
177
     2
291
     1
 71
     2
176
     1
 72
     2
176
     1
 73
     1
176
     1
 90
        2
176
     1
 40
-0.6
176
     1
 41
30.0
176
     1
 62
     5
 63
     7
421
 16777215
176
     1
 74
     1
176
     1
 91
        4
176
     1
 64
     7
176
     1
 65
   257
176
     1
 75
     1
176
     1
175
     1
176
     1
 42
1.0
176
     1
 92
        0
176
     1
 66
   257
176
     1
 43
1.0
176
     1
 76
     1
176
     1
 77
     6
176
     1
 78
     2
176
     1
 67
     7
176
     1
 79
     5
176
     1
170
     0
176
     1
171
     0
176
     1
290
     0
176
     1
 93
       13
176
     1
 44
0.0
176
     1
173
     0
176
     1
  0
VISUALSTYLE
  5
38
102
{ACAD_REACTORS
330
2A
102
}
330
2A
100
AcDbVisualStyle
  2
Linepattern
 70
    14
177
     2
291
     1
 71
     2
176
     1
 72
     2
176
     1
 73
     0
176
     1
 90
        0
176
     1
 40
-0.6
176
     1
 41
-30.0
176
     1
 62
     5
 63
     7
421
 16777215
176
     1
 74
     1
176
     1
 91
        4
176
     1
 64
     7
176
     1
 65
   257
176
     1
 75
     7
176
     1
175
     7
176
     1
 42
1.0
176
     1
 92
        8
176
     1
 66
     7
176
     1
 43
1.0
176
     1
 76
     1
176
     1
 77
     6
176
     1
 78
     2
176
     1
 67
     7
176
     1
 79
     5
176
     1
170
     0
176
     1
171
     0
176
     1
290
     0
176
     1
 93
        1
176
     1
 44
0.0
176
     1
173
     0
176
     1
  0
VISUALSTYLE
  5
33
102
{ACAD_REACTORS
330
2A
102
}
330
2A
100
AcDbVisualStyle
  2
Realistic
 70
     8
177
     2
291
     0
 71
     2
176
     1
 72
     2
176
     1
 73
     0
176
     1
 90
        0
176
     1
 40
-0.6
176
     1
 41
-30.0
176
     1
 62
     5
 63
     7
421
 16777215
176
     1
 74
     1
176
     1
 91
        0
176
     1
 64
     7
176
     1
 65
   257
176
     1
 75
     1
176
     1
175
     1
176
     1
 42
1.0
176
     1
 92
        8
176
     1
 66
     8
424
  7895160
176
     1
 43
1.0
176
     1
 76
     1
176
     1
 77
     6
176
     1
 78
     2
176
     1
 67
     7
176
     1
 79
     5
176
     1
170
     0
176
     1
171
     0
176
     1
290
     0
176
     1
 93
       13
176
     1
 44
0.0
176
     1
173
     0
176
     1
  0
VISUALSTYLE
  5
37
102
{ACAD_REACTORS
330
2A
102
}
330
2A
100
AcDbVisualStyle
  2
Thicken
 70
    13
177
     2
291
     1
 71
     2
176
     1
 72
     2
176
     1
 73
     0
176
     1
 90
        0
176
     1
 40
-0.6
176
     1
 41
-30.0
176
     1
 62
     5
 63
     7
421
 16777215
176
     1
 74
     1
176
     1
 91
        4
176
     1
 64
     7
176
     1
 65
   257
176
     1
 75
     1
176
     1
175
     1
176
     1
 42
1.0
176
     1
 92
       12
176
     1
 66
     7
176
     1
 43
1.0
176
     1
 76
     1
176
     1
 77
     6
176
     1
 78
     2
176
     1
 67
     7
176
     1
 79
     5
176
     1
170
     0
176
     1
171
     0
176
     1
290
     0
176
     1
 93
        1
176
     1
 44
0.0
176
     1
173
     0
176
     1
  0
ENDSEC
  0
EOF
