  0
SECTION
  2
HEADER
  9
$ACADVER
  1
AC1024
  9
$ACADMAINTVER
 70
   226
  9
$DWGCODEPAGE
  3
ANSI_932
  9
$INSBASE
 10
0.0
 20
0.0
 30
0.0
  9
$EXTMIN
 10
1.000000000000000E+20
 20
1.000000000000000E+20
 30
1.000000000000000E+20
  9
$EXTMAX
 10
-1.000000000000000E+20
 20
-1.000000000000000E+20
 30
-1.000000000000000E+20
  9
$LIMMIN
 10
0.0
 20
0.0
  9
$LIMMAX
 10
12.0
 20
9.0
  9
$ORTHOMODE
 70
     0
  9
$REGENMODE
 70
     1
  9
$FILLMODE
 70
     1
  9
$QTEXTMODE
 70
     0
  9
$MIRRTEXT
 70
     0
  9
$LTSCALE
 40
1.0
  9
$ATTMODE
 70
     1
  9
$TEXTSIZE
 40
0.2
  9
$TRACEWID
 40
0.05
  9
$TEXTSTYLE
  7
Standard
  9
$CLAYER
  8
0
  9
$CELTYPE
  6
ByLayer
  9
$CECOLOR
 62
   256
  9
$CELTSCALE
 40
1.0
  9
$DISPSILH
 70
     0
  9
$DIMSCALE
 40
1.0
  9
$DIMASZ
 40
0.18
  9
$DIMEXO
 40
0.0625
  9
$DIMDLI
 40
0.38
  9
$DIMRND
 40
0.0
  9
$DIMDLE
 40
0.0
  9
$DIMEXE
 40
0.18
  9
$DIMTP
 40
0.0
  9
$DIMTM
 40
0.0
  9
$DIMTXT
 40
0.18
  9
$DIMCEN
 40
0.09
  9
$DIMTSZ
 40
0.0
  9
$DIMTOL
 70
     0
  9
$DIMLIM
 70
     0
  9
$DIMTIH
 70
     1
  9
$DIMTOH
 70
     1
  9
$DIMSE1
 70
     0
  9
$DIMSE2
 70
     0
  9
$DIMTAD
 70
     0
  9
$DIMZIN
 70
     0
  9
$DIMBLK
  1

  9
$DIMASO
 70
     1
  9
$DIMSHO
 70
     1
  9
$DIMPOST
  1

  9
$DIMAPOST
  1

  9
$DIMALT
 70
     0
  9
$DIMALTD
 70
     2
  9
$DIMALTF
 40
25.4
  9
$DIMLFAC
 40
1.0
  9
$DIMTOFL
 70
     0
  9
$DIMTVP
 40
0.0
  9
$DIMTIX
 70
     0
  9
$DIMSOXD
 70
     0
  9
$DIMSAH
 70
     0
  9
$DIMBLK1
  1

  9
$DIMBLK2
  1

  9
$DIMSTYLE
  2
Standard
  9
$DIMCLRD
 70
     0
  9
$DIMCLRE
 70
     0
  9
$DIMCLRT
 70
     0
  9
$DIMTFAC
 40
1.0
  9
$DIMGAP
 40
0.09
  9
$DIMJUST
 70
     0
  9
$DIMSD1
 70
     0
  9
$DIMSD2
 70
     0
  9
$DIMTOLJ
 70
     1
  9
$DIMTZIN
 70
     0
  9
$DIMALTZ
 70
     0
  9
$DIMALTTZ
 70
     0
  9
$DIMUPT
 70
     0
  9
$DIMDEC
 70
     4
  9
$DIMTDEC
 70
     4
  9
$DIMALTU
 70
     2
  9
$DIMALTTD
 70
     2
  9
$DIMTXSTY
  7
Standard
  9
$DIMAUNIT
 70
     0
  9
$DIMADEC
 70
     0
  9
$DIMALTRND
 40
0.0
  9
$DIMAZIN
 70
     0
  9
$DIMDSEP
 70
    46
  9
$DIMATFIT
 70
     3
  9
$DIMFRAC
 70
     0
  9
$DIMLDRBLK
  1

  9
$DIMLUNIT
 70
     2
  9
$DIMLWD
 70
    -2
  9
$DIMLWE
 70
    -2
  9
$DIMTMOVE
 70
     0
  9
$DIMFXL
 40
1.0
  9
$DIMFXLON
 70
     0
  9
$DIMJOGANG
 40
0.7853981633974483
  9
$DIMTFILL
 70
     0
  9
$DIMTFILLCLR
 70
     0
  9
$DIMARCSYM
 70
     0
  9
$DIMLTYPE
  6

  9
$DIMLTEX1
  6

  9
$DIMLTEX2
  6

  9
$DIMTXTDIRECTION
 70
     0
  9
$LUNITS
 70
     2
  9
$LUPREC
 70
     4
  9
$SKETCHINC
 40
0.1
  9
$FILLETRAD
 40
0.0
  9
$AUNITS
 70
     0
  9
$AUPREC
 70
     0
  9
$MENU
  1
.
  9
$ELEVATION
 40
0.0
  9
$PELEVATION
 40
0.0
  9
$THICKNESS
 40
0.0
  9
$LIMCHECK
 70
     0
  9
$CHAMFERA
 40
0.0
  9
$CHAMFERB
 40
0.0
  9
$CHAMFERC
 40
0.0
  9
$CHAMFERD
 40
0.0
  9
$SKPOLY
 70
     0
  9
$TDCREATE
 40
2459569.488703703
  9
$TDUCREATE
 40
2459569.113703704
  9
$TDUPDATE
 40
2459569.488703703
  9
$TDUUPDATE
 40
2459569.113703704
  9
$TDINDWG
 40
0.0000000000
  9
$TDUSRTIMER
 40
0.0000000000
  9
$USRTIMER
 70
     1
  9
$ANGBASE
 50
0.0
  9
$ANGDIR
 70
     0
  9
$PDMODE
 70
     0
  9
$PDSIZE
 40
0.0
  9
$PLINEWID
 40
0.0
  9
$SPLFRAME
 70
     0
  9
$SPLINETYPE
 70
     6
  9
$SPLINESEGS
 70
     8
  9
$HANDSEED
  5
19A
  9
$SURFTAB1
 70
     6
  9
$SURFTAB2
 70
     6
  9
$SURFTYPE
 70
     6
  9
$SURFU
 70
     6
  9
$SURFV
 70
     6
  9
$UCSBASE
  2

  9
$UCSNAME
  2

  9
$UCSORG
 10
0.0
 20
0.0
 30
0.0
  9
$UCSXDIR
 10
1.0
 20
0.0
 30
0.0
  9
$UCSYDIR
 10
0.0
 20
1.0
 30
0.0
  9
$UCSORTHOREF
  2

  9
$UCSORTHOVIEW
 70
     0
  9
$UCSORGTOP
 10
0.0
 20
0.0
 30
0.0
  9
$UCSORGBOTTOM
 10
0.0
 20
0.0
 30
0.0
  9
$UCSORGLEFT
 10
0.0
 20
0.0
 30
0.0
  9
$UCSORGRIGHT
 10
0.0
 20
0.0
 30
0.0
  9
$UCSORGFRONT
 10
0.0
 20
0.0
 30
0.0
  9
$UCSORGBACK
 10
0.0
 20
0.0
 30
0.0
  9
$PUCSBASE
  2

  9
$PUCSNAME
  2

  9
$PUCSORG
 10
0.0
 20
0.0
 30
0.0
  9
$PUCSXDIR
 10
1.0
 20
0.0
 30
0.0
  9
$PUCSYDIR
 10
0.0
 20
1.0
 30
0.0
  9
$PUCSORTHOREF
  2

  9
$PUCSORTHOVIEW
 70
     0
  9
$PUCSORGTOP
 10
0.0
 20
0.0
 30
0.0
  9
$PUCSORGBOTTOM
 10
0.0
 20
0.0
 30
0.0
  9
$PUCSORGLEFT
 10
0.0
 20
0.0
 30
0.0
  9
$PUCSORGRIGHT
 10
0.0
 20
0.0
 30
0.0
  9
$PUCSORGFRONT
 10
0.0
 20
0.0
 30
0.0
  9
$PUCSORGBACK
 10
0.0
 20
0.0
 30
0.0
  9
$USERI1
 70
     0
  9
$USERI2
 70
     0
  9
$USERI3
 70
     0
  9
$USERI4
 70
     0
  9
$USERI5
 70
     0
  9
$USERR1
 40
0.0
  9
$USERR2
 40
0.0
  9
$USERR3
 40
0.0
  9
$USERR4
 40
0.0
  9
$USERR5
 40
0.0
  9
$WORLDVIEW
 70
     1
  9
$SHADEDGE
 70
     3
  9
$SHADEDIF
 70
    70
  9
$TILEMODE
 70
     1
  9
$MAXACTVP
 70
    64
  9
$PINSBASE
 10
0.0
 20
0.0
 30
0.0
  9
$PLIMCHECK
 70
     0
  9
$PEXTMIN
 10
1.000000000000000E+20
 20
1.000000000000000E+20
 30
1.000000000000000E+20
  9
$PEXTMAX
 10
-1.000000000000000E+20
 20
-1.000000000000000E+20
 30
-1.000000000000000E+20
  9
$PLIMMIN
 10
0.0
 20
0.0
  9
$PLIMMAX
 10
12.0
 20
9.0
  9
$UNITMODE
 70
     0
  9
$VISRETAIN
 70
     1
  9
$PLINEGEN
 70
     0
  9
$PSLTSCALE
 70
     1
  9
$TREEDEPTH
 70
  3020
  9
$CMLSTYLE
  2
Standard
  9
$CMLJUST
 70
     0
  9
$CMLSCALE
 40
1.0
  9
$PROXYGRAPHICS
 70
     1
  9
$MEASUREMENT
 70
     0
  9
$CELWEIGHT
370
    -1
  9
$ENDCAPS
280
     0
  9
$JOINSTYLE
280
     0
  9
$LWDISPLAY
290
     1
  9
$INSUNITS
 70
     4
  9
$HYPERLINKBASE
  1

  9
$STYLESHEET
  1

  9
$XEDIT
290
     1
  9
$CEPSNTYPE
380
     0
  9
$PSTYLEMODE
290
     1
  9
$FINGERPRINTGUID
  2
{4EA4D8A4-D5E4-AD4B-BC27-B4562AFC2D2B}
  9
$VERSIONGUID
  2
{50E48B71-F59C-CD40-B211-BD6D4E5E22AD}
  9
$EXTNAMES
290
     1
  9
$PSVPSCALE
 40
0.0
  9
$OLESTARTUP
290
     0
  9
$SORTENTS
280
   127
  9
$INDEXCTL
280
     0
  9
$HIDETEXT
280
     1
  9
$XCLIPFRAME
280
     2
  9
$HALOGAP
280
     0
  9
$OBSCOLOR
 70
   257
  9
$OBSLTYPE
280
     0
  9
$INTERSECTIONDISPLAY
280
     0
  9
$INTERSECTIONCOLOR
 70
   257
  9
$DIMASSOC
280
     2
  9
$PROJECTNAME
  1

  9
$CAMERADISPLAY
290
     0
  9
$LENSLENGTH
 40
50.0
  9
$CAMERAHEIGHT
 40
0.0
  9
$STEPSPERSEC
 40
2.0
  9
$STEPSIZE
 40
6.0
  9
$3DDWFPREC
 40
2.0
  9
$PSOLWIDTH
 40
0.25
  9
$PSOLHEIGHT
 40
4.0
  9
$LOFTANG1
 40
1.570796326794896
  9
$LOFTANG2
 40
1.570796326794896
  9
$LOFTMAG1
 40
0.0
  9
$LOFTMAG2
 40
0.0
  9
$LOFTPARAM
 70
     7
  9
$LOFTNORMALS
280
     1
  9
$LATITUDE
 40
37.795
  9
$LONGITUDE
 40
-122.394
  9
$NORTHDIRECTION
 40
0.0
  9
$TIMEZONE
 70
 -8000
  9
$LIGHTGLYPHDISPLAY
280
     1
  9
$TILEMODELIGHTSYNCH
280
     1
  9
$CMATERIAL
347
11
  9
$SOLIDHIST
280
     0
  9
$SHOWHIST
280
     1
  9
$DWFFRAME
280
     2
  9
$DGNFRAME
280
     0
  9
$REALWORLDSCALE
290
     1
  9
$INTERFERECOLOR
 62
     1
  9
$INTERFEREOBJVS
345
33
  9
$INTERFEREVPVS
346
30
  9
$CSHADOW
280
     0
  9
$SHADOWPLANELOCATION
 40
0.0
  0
ENDSEC
  0
SECTION
  2
CLASSES
  0
CLASS
  1
ACDBDICTIONARYWDFLT
  2
AcDbDictionaryWithDefault
  3
ObjectDBX Classes
 90
        0
 91
        1
280
     0
281
     0
  0
CLASS
  1
MATERIAL
  2
AcDbMaterial
  3
ObjectDBX Classes
 90
     1153
 91
        3
280
     0
281
     0
  0
CLASS
  1
VISUALSTYLE
  2
AcDbVisualStyle
  3
ObjectDBX Classes
 90
     4095
 91
       24
280
     0
281
     0
  0
CLASS
  1
SCALE
  2
AcDbScale
  3
ObjectDBX Classes
 90
     1153
 91
       17
280
     0
281
     0
  0
CLASS
  1
TABLESTYLE
  2
AcDbTableStyle
  3
ObjectDBX Classes
 90
     4095
 91
        1
280
     0
281
     0
  0
CLASS
  1
MLEADERSTYLE
  2
AcDbMLeaderStyle
  3
ACDB_MLEADERSTYLE_CLASS
 90
     4095
 91
        1
280
     0
281
     0
  0
CLASS
  1
ACDBSECTIONVIEWSTYLE
  2
AcDbSectionViewStyle
  3
ObjectDBX Classes
 90
     1025
 91
        1
280
     0
281
     0
  0
CLASS
  1
ACDBDETAILVIEWSTYLE
  2
AcDbDetailViewStyle
  3
ObjectDBX Classes
 90
     1025
 91
        1
280
     0
281
     0
  0
CLASS
  1
DICTIONARYVAR
  2
AcDbDictionaryVar
  3
ObjectDBX Classes
 90
        0
 91
        5
280
     0
281
     0
  0
CLASS
  1
CELLSTYLEMAP
  2
AcDbCellStyleMap
  3
ObjectDBX Classes
 90
     1152
 91
        1
280
     0
281
     0
  0
ENDSEC
  0
SECTION
  2
TABLES
  0
TABLE
  2
VPORT
  5
8
330
0
100
AcDbSymbolTable
 70
     1
  0
VPORT
  5
57
330
8
100
AcDbSymbolTableRecord
100
AcDbViewportTableRecord
  2
*Active
 70
     0
 10
0.0
 20
0.0
 11
1.0
 21
1.0
 12
0.0
 22
0.0
 13
0.0
 23
0.0
 14
1.0
 24
1.0
 15
0.0
 25
0.0
 16
0.0
 26
0.0
 36
1.0
 17
104.9999999737534
 27
-148.4999999628701
 37
0.0
 40
302.939999924255
 41
0.7070707070707534
 42
50.0
 43
0.0
 44
0.0
 50
0.0
 51
0.0
 71
     0
 72
   100
 73
     1
 74
     0
 75
     1
 76
     0
 77
     0
 78
     0
281
     0
 65
     1
110
0.0
120
0.0
130
0.0
111
1.0
121
0.0
131
0.0
112
0.0
122
1.0
132
0.0
 79
     0
146
0.0
 60
     3
 61
     5
292
     1
282
     1
141
0.0
142
0.0
 63
   250
421
  3355443
  0
ENDTAB
  0
TABLE
  2
LTYPE
  5
5
330
0
100
AcDbSymbolTable
 70
     1
  0
LTYPE
  5
5B
330
5
100
AcDbSymbolTableRecord
100
AcDbLinetypeTableRecord
  2
ByBlock
 70
     0
  3

 72
    65
 73
     0
 40
0.0
  0
LTYPE
  5
5C
330
5
100
AcDbSymbolTableRecord
100
AcDbLinetypeTableRecord
  2
ByLayer
 70
     0
  3

 72
    65
 73
     0
 40
0.0
  0
LTYPE
  5
5D
330
5
100
AcDbSymbolTableRecord
100
AcDbLinetypeTableRecord
  2
Continuous
 70
     0
  3
Solid line
 72
    65
 73
     0
 40
0.0
  0
ENDTAB
  0
TABLE
  2
LAYER
  5
2
330
0
100
AcDbSymbolTable
 70
     2
  0
LAYER
  5
54
330
2
100
AcDbSymbolTableRecord
100
AcDbLayerTableRecord
  2
0
 70
     0
 62
     7
  6
Continuous
370
    -3
390
F
347
21
  0
LAYER
  5
78
330
2
100
AcDbSymbolTableRecord
100
AcDbLayerTableRecord
  2
レイヤー 1
 70
     0
 62
     7
  6
Continuous
370
     0
390
F
347
21
  0
ENDTAB
  0
TABLE
  2
STYLE
  5
3
330
0
100
AcDbSymbolTable
 70
     2
  0
STYLE
  5
55
330
3
100
AcDbSymbolTableRecord
100
AcDbTextStyleTableRecord
  2
Standard
 70
     0
 40
0.0
 41
1.0
 50
0.0
 71
     0
 42
0.2
  3
txt
  4

  0
STYLE
  5
5A
330
3
100
AcDbSymbolTableRecord
100
AcDbTextStyleTableRecord
  2
Annotative
 70
     0
 40
0.0
 41
1.0
 50
0.0
 71
     0
 42
0.2
  3
txt
  4

1001
AcadAnnotative
1000
AnnotativeData
1002
{
1070
     1
1070
     1
1002
}
  0
ENDTAB
  0
TABLE
  2
VIEW
  5
6
330
0
100
AcDbSymbolTable
 70
     0
  0
ENDTAB
  0
TABLE
  2
UCS
  5
7
330
0
100
AcDbSymbolTable
 70
     0
  0
ENDTAB
  0
TABLE
  2
APPID
  5
9
330
0
100
AcDbSymbolTable
 70
     2
  0
APPID
  5
56
330
9
100
AcDbSymbolTableRecord
100
AcDbRegAppTableRecord
  2
ACAD
 70
     0
  0
APPID
  5
5E
330
9
100
AcDbSymbolTableRecord
100
AcDbRegAppTableRecord
  2
AcadAnnotative
 70
     0
  0
ENDTAB
  0
TABLE
  2
DIMSTYLE
  5
A
330
0
100
AcDbSymbolTable
 70
     2
100
AcDbDimStyleTable
 71
     0
  0
DIMSTYLE
105
58
330
A
100
AcDbSymbolTableRecord
100
AcDbDimStyleTableRecord
  2
Standard
 70
     0
340
55
  0
DIMSTYLE
105
59
330
A
100
AcDbSymbolTableRecord
100
AcDbDimStyleTableRecord
  2
Annotative
 70
     0
340
55
1001
AcadAnnotative
1000
AnnotativeData
1002
{
1070
     1
1070
     1
1002
}
  0
ENDTAB
  0
TABLE
  2
BLOCK_RECORD
  5
1
330
0
100
AcDbSymbolTable
 70
    30
  0
BLOCK_RECORD
  5
70
330
1
100
AcDbSymbolTableRecord
100
AcDbBlockTableRecord
  2
*Model_Space
340
73
 70
     0
280
     1
281
     0
  0
BLOCK_RECORD
  5
6C
330
1
100
AcDbSymbolTableRecord
100
AcDbBlockTableRecord
  2
*Paper_Space
340
6F
 70
     0
280
     1
281
     0
  0
BLOCK_RECORD
  5
74
330
1
100
AcDbSymbolTableRecord
100
AcDbBlockTableRecord
  2
*Paper_Space0
340
77
 70
     0
280
     1
281
     0
  0
BLOCK_RECORD
  5
79
330
1
100
AcDbSymbolTableRecord
100
AcDbBlockTableRecord
  2
Block_0
340
0
102
{BLKREFS
331
7A
102
}
 70
     0
280
     1
281
     0
  0
BLOCK_RECORD
  5
91
330
1
100
AcDbSymbolTableRecord
100
AcDbBlockTableRecord
  2
Block_1
340
0
102
{BLKREFS
331
92
102
}
 70
     0
280
     1
281
     0
  0
BLOCK_RECORD
  5
95
330
1
100
AcDbSymbolTableRecord
100
AcDbBlockTableRecord
  2
Block_2
340
0
102
{BLKREFS
331
96
102
}
 70
     0
280
     1
281
     0
  0
BLOCK_RECORD
  5
A7
330
1
100
AcDbSymbolTableRecord
100
AcDbBlockTableRecord
  2
Block_3
340
0
102
{BLKREFS
331
A8
102
}
 70
     0
280
     1
281
     0
  0
BLOCK_RECORD
  5
AE
330
1
100
AcDbSymbolTableRecord
100
AcDbBlockTableRecord
  2
Block_4
340
0
102
{BLKREFS
331
AF
102
}
 70
     0
280
     1
281
     0
  0
BLOCK_RECORD
  5
B2
330
1
100
AcDbSymbolTableRecord
100
AcDbBlockTableRecord
  2
Block_5
340
0
102
{BLKREFS
331
B3
102
}
 70
     0
280
     1
281
     0
  0
BLOCK_RECORD
  5
BB
330
1
100
AcDbSymbolTableRecord
100
AcDbBlockTableRecord
  2
Block_6
340
0
102
{BLKREFS
331
BC
102
}
 70
     0
280
     1
281
     0
  0
BLOCK_RECORD
  5
C1
330
1
100
AcDbSymbolTableRecord
100
AcDbBlockTableRecord
  2
Block_7
340
0
102
{BLKREFS
331
C2
102
}
 70
     0
280
     1
281
     0
  0
BLOCK_RECORD
  5
C5
330
1
100
AcDbSymbolTableRecord
100
AcDbBlockTableRecord
  2
Block_8
340
0
102
{BLKREFS
331
C6
102
}
 70
     0
280
     1
281
     0
  0
BLOCK_RECORD
  5
CF
330
1
100
AcDbSymbolTableRecord
100
AcDbBlockTableRecord
  2
Block_9
340
0
102
{BLKREFS
331
D0
102
}
 70
     0
280
     1
281
     0
  0
BLOCK_RECORD
  5
D5
330
1
100
AcDbSymbolTableRecord
100
AcDbBlockTableRecord
  2
Block_10
340
0
102
{BLKREFS
331
D6
102
}
 70
     0
280
     1
281
     0
  0
BLOCK_RECORD
  5
D9
330
1
100
AcDbSymbolTableRecord
100
AcDbBlockTableRecord
  2
Block_11
340
0
102
{BLKREFS
331
DA
102
}
 70
     0
280
     1
281
     0
  0
BLOCK_RECORD
  5
E2
330
1
100
AcDbSymbolTableRecord
100
AcDbBlockTableRecord
  2
Block_12
340
0
102
{BLKREFS
331
E3
102
}
 70
     0
280
     1
281
     0
  0
BLOCK_RECORD
  5
EA
330
1
100
AcDbSymbolTableRecord
100
AcDbBlockTableRecord
  2
Block_13
340
0
102
{BLKREFS
331
EB
102
}
 70
     0
280
     1
281
     0
  0
BLOCK_RECORD
  5
EE
330
1
100
AcDbSymbolTableRecord
100
AcDbBlockTableRecord
  2
Block_14
340
0
102
{BLKREFS
331
EF
102
}
 70
     0
280
     1
281
     0
  0
BLOCK_RECORD
  5
F9
330
1
100
AcDbSymbolTableRecord
100
AcDbBlockTableRecord
  2
Block_15
340
0
102
{BLKREFS
331
FA
102
}
 70
     0
280
     1
281
     0
  0
BLOCK_RECORD
  5
100
330
1
100
AcDbSymbolTableRecord
100
AcDbBlockTableRecord
  2
Block_16
340
0
102
{BLKREFS
331
101
102
}
 70
     0
280
     1
281
     0
  0
BLOCK_RECORD
  5
104
330
1
100
AcDbSymbolTableRecord
100
AcDbBlockTableRecord
  2
Block_17
340
0
102
{BLKREFS
331
105
102
}
 70
     0
280
     1
281
     0
  0
BLOCK_RECORD
  5
10D
330
1
100
AcDbSymbolTableRecord
100
AcDbBlockTableRecord
  2
Block_18
340
0
102
{BLKREFS
331
10E
102
}
 70
     0
280
     1
281
     0
  0
BLOCK_RECORD
  5
113
330
1
100
AcDbSymbolTableRecord
100
AcDbBlockTableRecord
  2
Block_19
340
0
102
{BLKREFS
331
114
102
}
 70
     0
280
     1
281
     0
  0
BLOCK_RECORD
  5
11B
330
1
100
AcDbSymbolTableRecord
100
AcDbBlockTableRecord
  2
Block_20
340
0
102
{BLKREFS
331
11C
102
}
 70
     0
280
     1
281
     0
  0
BLOCK_RECORD
  5
121
330
1
100
AcDbSymbolTableRecord
100
AcDbBlockTableRecord
  2
Block_21
340
0
102
{BLKREFS
331
122
102
}
 70
     0
280
     1
281
     0
  0
BLOCK_RECORD
  5
129
330
1
100
AcDbSymbolTableRecord
100
AcDbBlockTableRecord
  2
Block_22
340
0
102
{BLKREFS
331
12A
102
}
 70
     0
280
     1
281
     0
  0
BLOCK_RECORD
  5
130
330
1
100
AcDbSymbolTableRecord
100
AcDbBlockTableRecord
  2
Block_23
340
0
102
{BLKREFS
331
131
102
}
 70
     0
280
     1
281
     0
  0
BLOCK_RECORD
  5
137
330
1
100
AcDbSymbolTableRecord
100
AcDbBlockTableRecord
  2
Block_24
340
0
102
{BLKREFS
331
138
102
}
 70
     0
280
     1
281
     0
  0
BLOCK_RECORD
  5
13E
330
1
100
AcDbSymbolTableRecord
100
AcDbBlockTableRecord
  2
Block_25
340
0
102
{BLKREFS
331
13F
102
}
 70
     0
280
     1
281
     0
  0
BLOCK_RECORD
  5
145
330
1
100
AcDbSymbolTableRecord
100
AcDbBlockTableRecord
  2
Block_26
340
0
102
{BLKREFS
331
146
102
}
 70
     0
280
     1
281
     0
  0
BLOCK_RECORD
  5
14B
330
1
100
AcDbSymbolTableRecord
100
AcDbBlockTableRecord
  2
Block_27
340
0
102
{BLKREFS
331
14C
102
}
 70
     0
280
     1
281
     0
  0
BLOCK_RECORD
  5
14F
330
1
100
AcDbSymbolTableRecord
100
AcDbBlockTableRecord
  2
Block_28
340
0
102
{BLKREFS
331
150
102
}
 70
     0
280
     1
281
     0
  0
ENDTAB
  0
ENDSEC
  0
SECTION
  2
BLOCKS
  0
BLOCK
  5
71
330
70
100
AcDbEntity
  8
0
100
AcDbBlockBegin
  2
*Model_Space
 70
     0
 10
0.0
 20
0.0
 30
0.0
  3
*Model_Space
  1

  0
ENDBLK
  5
72
330
70
100
AcDbEntity
  8
0
100
AcDbBlockEnd
  0
BLOCK
  5
6D
330
6C
100
AcDbEntity
 67
     1
  8
0
100
AcDbBlockBegin
  2
*Paper_Space
 70
     0
 10
0.0
 20
0.0
 30
0.0
  3
*Paper_Space
  1

  0
ENDBLK
  5
6E
330
6C
100
AcDbEntity
 67
     1
  8
0
100
AcDbBlockEnd
  0
BLOCK
  5
75
330
74
100
AcDbEntity
 67
     1
  8
0
100
AcDbBlockBegin
  2
*Paper_Space0
 70
     0
 10
0.0
 20
0.0
 30
0.0
  3
*Paper_Space0
  1

  0
ENDBLK
  5
76
330
74
100
AcDbEntity
 67
     1
  8
0
100
AcDbBlockEnd
  0
BLOCK
  5
7B
330
79
100
AcDbEntity
  8
0
100
AcDbBlockBegin
  2
Block_0
 70
     0
 10
0.0
 20
0.0
 30
0.0
  3
Block_0
  1

  0
LINE
  5
7D
330
79
100
AcDbEntity
  8
レイヤー 1
 62
   250
420
  2299925
370
     9
100
AcDbLine
 10
102.8630677447238
 20
-150.4368310484021
 30
0.0
 11
106.5003829297059
 21
-150.4368310484021
 31
0.0
  0
LINE
  5
7E
330
79
100
AcDbEntity
  8
レイヤー 1
 62
   250
420
  2299925
370
     9
100
AcDbLine
 10
102.1024083196854
 20
-153.275915975971
 30
0.0
 11
102.6019416402746
 21
-152.409811275845
 31
0.0
  0
LINE
  5
7F
330
79
100
AcDbEntity
  8
レイヤー 1
 62
   250
420
  2299925
370
     9
100
AcDbLine
 10
102.1024083196854
 20
-153.275915975971
 30
0.0
 11
102.1024083196854
 21
-152.2758262792632
 31
0.0
  0
LINE
  5
80
330
79
100
AcDbEntity
  8
レイヤー 1
 62
   250
420
  2299925
370
     9
100
AcDbLine
 10
102.1024083196854
 20
-153.275915975971
 30
0.0
 11
102.8630677447238
 21
-150.4368310484021
 31
0.0
  0
LWPOLYLINE
  5
81
330
79
100
AcDbEntity
  8
レイヤー 1
 62
   250
420
  2299925
370
    25
100
AcDbPolyline
 90
       25
 70
     0
 43
0.0
 10
108.1023820555022
 20
-141.7758546026953
 10
129.102290130861
 20
-141.7758546026953
 10
129.102290130861
 20
-140.7760824059795
 10
107.1026098587863
 20
-140.7760824059795
 10
107.1026098587863
 20
-153.7758020743283
 10
97.10217150280762
 20
-153.7758020743283
 10
97.10217150280762
 20
-140.7760824059795
 10
75.10196247015842
 20
-140.7760824059795
 10
75.10196247015842
 20
-141.7758546026953
 10
96.10239930609171
 20
-141.7758546026953
 10
96.10239930609171
 20
-153.7758020743283
 10
88.10221163357498
 20
-153.7758020743283
 10
88.10221163357498
 20
-152.776029877613
 10
91.10219857726931
 20
-152.776029877613
 10
91.10219857726931
 20
-151.7759401809052
 10
87.10243941160277
 20
-151.7759401809052
 10
87.10243941160277
 20
-154.7759270488137
 10
117.1023441263253
 20
-154.7759270488137
 10
117.1023441263253
 20
-151.7759401809052
 10
113.1025835946031
 20
-151.7759401809052
 10
113.1025835946031
 20
-152.776029877613
 10
116.1025719043528
 20
-152.776029877613
 10
116.1025719043528
 20
-153.7758020743283
 10
108.1023820555022
 20
-153.7758020743283
 10
108.1023820555022
 20
-141.7758546026953
  0
HATCH
  5
82
330
79
100
AcDbEntity
  8
レイヤー 1
 62
   254
420
 16050384
440
 33554687
100
AcDbHatch
 10
0.0
 20
0.0
 30
0.0
210
0.0
220
0.0
230
1.0
  2
SOLID
 70
     1
 71
     1
 91
        1
 92
        3
 72
     0
 73
     1
 93
       25
 10
108.1023820555022
 20
-141.7758546026953
 10
129.102290130861
 20
-141.7758546026953
 10
129.102290130861
 20
-140.7760824059795
 10
107.1026098587863
 20
-140.7760824059795
 10
107.1026098587863
 20
-153.7758020743283
 10
97.10217150280762
 20
-153.7758020743283
 10
97.10217150280762
 20
-140.7760824059795
 10
75.10196247015842
 20
-140.7760824059795
 10
75.10196247015842
 20
-141.7758546026953
 10
96.10239930609171
 20
-141.7758546026953
 10
96.10239930609171
 20
-153.7758020743283
 10
88.10221163357498
 20
-153.7758020743283
 10
88.10221163357498
 20
-152.776029877613
 10
91.10219857726931
 20
-152.776029877613
 10
91.10219857726931
 20
-151.7759401809052
 10
87.10243941160277
 20
-151.7759401809052
 10
87.10243941160277
 20
-154.7759270488137
 10
117.1023441263253
 20
-154.7759270488137
 10
117.1023441263253
 20
-151.7759401809052
 10
113.1025835946031
 20
-151.7759401809052
 10
113.1025835946031
 20
-152.776029877613
 10
116.1025719043528
 20
-152.776029877613
 10
116.1025719043528
 20
-153.7758020743283
 10
108.1023820555022
 20
-153.7758020743283
 10
108.1023820555022
 20
-141.7758546026953
 97
        0
 75
     2
 76
     1
 98
        1
 10
0.0
 20
0.0
450
        0
451
        0
460
0.0
461
0.0
452
        0
462
0.0
453
        0
470

  0
SPLINE
  5
83
330
79
100
AcDbEntity
  8
レイヤー 1
 62
   250
420
  2299925
370
     9
100
AcDbSpline
210
0.0
220
0.0
230
1.0
 70
     9
 71
     3
 72
    17
 73
    13
 74
     0
 42
0.0000000001
 43
0.0000000001
 40
0.0
 40
0.0
 40
0.0
 40
0.0
 40
1.0
 40
1.0
 40
1.0
 40
2.0
 40
2.0
 40
2.0
 40
3.0
 40
3.0
 40
3.0
 40
4.0
 40
4.0
 40
4.0
 40
4.0
 10
75.20257469235527
 20
-136.7759652233702
 30
0.0
 10
75.20257469235527
 20
-136.7208666761036
 30
0.0
 10
75.15777191458886
 20
-136.6760638994685
 30
0.0
 10
75.10196247015842
 20
-136.6760638994685
 30
0.0
 10
75.04685858128318
 20
-136.6760638994685
 30
0.0
 10
75.00205580351678
 20
-136.7208666761036
 30
0.0
 10
75.00205580351678
 20
-136.7759652233702
 30
0.0
 10
75.00205580351678
 20
-136.8311097288463
 30
0.0
 10
75.04685858128318
 20
-136.8758772277042
 30
0.0
 10
75.10196247015842
 20
-136.8758772277042
 30
0.0
 10
75.15777191458886
 20
-136.8758772277042
 30
0.0
 10
75.20257469235527
 20
-136.8311097288463
 30
0.0
 10
75.20257469235527
 20
-136.7759652233702
 30
0.0
  0
SPLINE
  5
84
330
79
100
AcDbEntity
  8
レイヤー 1
 62
   250
420
  2299925
370
     9
100
AcDbSpline
210
0.0
220
0.0
230
1.0
 70
     9
 71
     3
 72
    17
 73
    13
 74
     0
 42
0.0000000001
 43
0.0000000001
 40
0.0
 40
0.0
 40
0.0
 40
0.0
 40
1.0
 40
1.0
 40
1.0
 40
2.0
 40
2.0
 40
2.0
 40
3.0
 40
3.0
 40
3.0
 40
4.0
 40
4.0
 40
4.0
 40
4.0
 10
97.20207816692546
 20
-136.7759652233702
 30
0.0
 10
97.20207816692546
 20
-136.7208666761036
 30
0.0
 10
97.15731066806757
 20
-136.6760638994685
 30
0.0
 10
97.10217150280762
 20
-136.6760638994685
 30
0.0
 10
97.04706761532456
 20
-136.6760638994685
 30
0.0
 10
97.00226483868979
 20
-136.7208666761036
 30
0.0
 10
97.00226483868979
 20
-136.7759652233702
 30
0.0
 10
97.00226483868979
 20
-136.8311097288463
 30
0.0
 10
97.04706761532456
 20
-136.8758772277042
 30
0.0
 10
97.10217150280762
 20
-136.8758772277042
 30
0.0
 10
97.15731066806757
 20
-136.8758772277042
 30
0.0
 10
97.20207816692546
 20
-136.8311097288463
 30
0.0
 10
97.20207816692546
 20
-136.7759652233702
 30
0.0
  0
SPLINE
  5
85
330
79
100
AcDbEntity
  8
レイヤー 1
 62
   250
420
  2299925
370
     9
100
AcDbSpline
210
0.0
220
0.0
230
1.0
 70
     9
 71
     3
 72
    17
 73
    13
 74
     0
 42
0.0000000001
 43
0.0000000001
 40
0.0
 40
0.0
 40
0.0
 40
0.0
 40
1.0
 40
1.0
 40
1.0
 40
2.0
 40
2.0
 40
2.0
 40
3.0
 40
3.0
 40
3.0
 40
4.0
 40
4.0
 40
4.0
 40
4.0
 10
107.2025165229041
 20
-136.7759652233702
 30
0.0
 10
107.2025165229041
 20
-136.7208666761036
 30
0.0
 10
107.1577137462693
 20
-136.6760638994685
 30
0.0
 10
107.1026098587863
 20
-136.6760638994685
 30
0.0
 10
107.0468004157663
 20
-136.6760638994685
 30
0.0
 10
107.0019976391309
 20
-136.7208666761036
 30
0.0
 10
107.0019976391309
 20
-136.7759652233702
 30
0.0
 10
107.0019976391309
 20
-136.8311097288463
 30
0.0
 10
107.0468004157663
 20
-136.8758772277042
 30
0.0
 10
107.1026098587863
 20
-136.8758772277042
 30
0.0
 10
107.1577137462693
 20
-136.8758772277042
 30
0.0
 10
107.2025165229041
 20
-136.8311097288463
 30
0.0
 10
107.2025165229041
 20
-136.7759652233702
 30
0.0
  0
SPLINE
  5
86
330
79
100
AcDbEntity
  8
レイヤー 1
 62
   250
420
  2299925
370
     9
100
AcDbSpline
210
0.0
220
0.0
230
1.0
 70
     9
 71
     3
 72
    17
 73
    13
 74
     0
 42
0.0000000001
 43
0.0000000001
 40
0.0
 40
0.0
 40
0.0
 40
0.0
 40
1.0
 40
1.0
 40
1.0
 40
2.0
 40
2.0
 40
2.0
 40
3.0
 40
3.0
 40
3.0
 40
4.0
 40
4.0
 40
4.0
 40
4.0
 10
129.2021967949788
 20
-136.7759652233702
 30
0.0
 10
129.2021967949788
 20
-136.7208666761036
 30
0.0
 10
129.1574292961209
 20
-136.6760638994685
 30
0.0
 10
129.102290130861
 20
-136.6760638994685
 30
0.0
 10
129.0471862433779
 20
-136.6760638994685
 30
0.0
 10
129.0023834667432
 20
-136.7208666761036
 30
0.0
 10
129.0023834667432
 20
-136.7759652233702
 30
0.0
 10
129.0023834667432
 20
-136.8311097288463
 30
0.0
 10
129.0471862433779
 20
-136.8758772277042
 30
0.0
 10
129.102290130861
 20
-136.8758772277042
 30
0.0
 10
129.1574292961209
 20
-136.8758772277042
 30
0.0
 10
129.2021967949788
 20
-136.8311097288463
 30
0.0
 10
129.2021967949788
 20
-136.7759652233702
 30
0.0
  0
SPLINE
  5
87
330
79
100
AcDbEntity
  8
レイヤー 1
 62
   250
420
  2299925
370
     9
100
AcDbSpline
210
0.0
220
0.0
230
1.0
 70
     9
 71
     3
 72
    17
 73
    13
 74
     0
 42
0.0000000001
 43
0.0000000001
 40
0.0
 40
0.0
 40
0.0
 40
0.0
 40
1.0
 40
1.0
 40
1.0
 40
2.0
 40
2.0
 40
2.0
 40
3.0
 40
3.0
 40
3.0
 40
4.0
 40
4.0
 40
4.0
 40
4.0
 10
133.2019558596031
 20
-140.7760824059795
 30
0.0
 10
133.2019558596031
 20
-140.7206257407276
 30
0.0
 10
133.1571530829684
 20
-140.6758229640928
 30
0.0
 10
133.1020491954853
 20
-140.6758229640928
 30
0.0
 10
133.0469100302253
 20
-140.6758229640928
 30
0.0
 10
133.0021425313675
 20
-140.7206257407276
 30
0.0
 10
133.0021425313675
 20
-140.7760824059795
 30
0.0
 10
133.0021425313675
 20
-140.8312215712394
 30
0.0
 10
133.0469100302253
 20
-140.8759890700973
 30
0.0
 10
133.1020491954853
 20
-140.8759890700973
 30
0.0
 10
133.1571530829684
 20
-140.8759890700973
 30
0.0
 10
133.2019558596031
 20
-140.8312215712394
 30
0.0
 10
133.2019558596031
 20
-140.7760824059795
 30
0.0
  0
SPLINE
  5
88
330
79
100
AcDbEntity
  8
レイヤー 1
 62
   250
420
  2299925
370
     9
100
AcDbSpline
210
0.0
220
0.0
230
1.0
 70
     9
 71
     3
 72
    17
 73
    13
 74
     0
 42
0.0000000001
 43
0.0000000001
 40
0.0
 40
0.0
 40
0.0
 40
0.0
 40
1.0
 40
1.0
 40
1.0
 40
2.0
 40
2.0
 40
2.0
 40
3.0
 40
3.0
 40
3.0
 40
4.0
 40
4.0
 40
4.0
 40
4.0
 10
133.2019558596031
 20
-141.7758546026953
 30
0.0
 10
133.2019558596031
 20
-141.7207154374357
 30
0.0
 10
133.1571530829684
 20
-141.6759479385775
 30
0.0
 10
133.1020491954853
 20
-141.6759479385775
 30
0.0
 10
133.0469100302253
 20
-141.6759479385775
 30
0.0
 10
133.0021425313675
 20
-141.7207154374357
 30
0.0
 10
133.0021425313675
 20
-141.7758546026953
 30
0.0
 10
133.0021425313675
 20
-141.8313112679472
 30
0.0
 10
133.0469100302253
 20
-141.8761140445823
 30
0.0
 10
133.1020491954853
 20
-141.8761140445823
 30
0.0
 10
133.1571530829684
 20
-141.8761140445823
 30
0.0
 10
133.2019558596031
 20
-141.8313112679472
 30
0.0
 10
133.2019558596031
 20
-141.7758546026953
 30
0.0
  0
CIRCLE
  5
89
330
79
100
AcDbEntity
  8
レイヤー 1
 62
   250
420
  2299925
370
     9
100
AcDbCircle
 10
133.1020491954853
 20
-151.7759401809052
 30
0.0
 40
0.0999066641178353
  0
CIRCLE
  5
8A
330
79
100
AcDbEntity
  8
レイヤー 1
 62
   250
420
  2299925
370
     9
100
AcDbCircle
 10
133.1020491954853
 20
-154.7759270488137
 30
0.0
 40
0.0999066641178353
  0
SPLINE
  5
8B
330
79
100
AcDbEntity
  8
レイヤー 1
 62
   250
420
  2299925
370
     9
100
AcDbSpline
210
0.0
220
0.0
230
1.0
 70
     9
 71
     3
 72
    17
 73
    13
 74
     0
 42
0.0000000001
 43
0.0000000001
 40
0.0
 40
0.0
 40
0.0
 40
0.0
 40
1.0
 40
1.0
 40
1.0
 40
2.0
 40
2.0
 40
2.0
 40
3.0
 40
3.0
 40
3.0
 40
4.0
 40
4.0
 40
4.0
 40
4.0
 10
117.2022493233452
 20
-162.7761154558223
 30
0.0
 10
117.2022493233452
 20
-162.7206541057728
 30
0.0
 10
117.1574465467111
 20
-162.6758513280061
 30
0.0
 10
117.1023441263253
 20
-162.6758513280061
 30
0.0
 10
117.0472034939674
 20
-162.6758513280061
 30
0.0
 10
117.0024359951095
 20
-162.7206541057728
 30
0.0
 10
117.0024359951095
 20
-162.7761154558223
 30
0.0
 10
117.0024359951095
 20
-162.8312546210829
 30
0.0
 10
117.0472034939674
 20
-162.8760221199408
 30
0.0
 10
117.1023441263253
 20
-162.8760221199408
 30
0.0
 10
117.1574465467111
 20
-162.8760221199408
 30
0.0
 10
117.2022493233452
 20
-162.8312546210829
 30
0.0
 10
117.2022493233452
 20
-162.7761154558223
 30
0.0
  0
SPLINE
  5
8C
330
79
100
AcDbEntity
  8
レイヤー 1
 62
   250
420
  2299925
370
     9
100
AcDbSpline
210
0.0
220
0.0
230
1.0
 70
     9
 71
     3
 72
    17
 73
    13
 74
     0
 42
0.0000000001
 43
0.0000000001
 40
0.0
 40
0.0
 40
0.0
 40
0.0
 40
1.0
 40
1.0
 40
1.0
 40
2.0
 40
2.0
 40
2.0
 40
3.0
 40
3.0
 40
3.0
 40
4.0
 40
4.0
 40
4.0
 40
4.0
 10
108.20228871962
 20
-162.7761154558223
 30
0.0
 10
108.20228871962
 20
-162.7206541057728
 30
0.0
 10
108.1574859429853
 20
-162.6758513280061
 30
0.0
 10
108.1023820555022
 20
-162.6758513280061
 30
0.0
 10
108.0472441285885
 20
-162.6758513280061
 30
0.0
 10
108.0024753913843
 20
-162.7206541057728
 30
0.0
 10
108.0024753913843
 20
-162.7761154558223
 30
0.0
 10
108.0024753913843
 20
-162.8312546210829
 30
0.0
 10
108.0472441285885
 20
-162.8760221199408
 30
0.0
 10
108.1023820555022
 20
-162.8760221199408
 30
0.0
 10
108.1574859429853
 20
-162.8760221199408
 30
0.0
 10
108.20228871962
 20
-162.8312546210829
 30
0.0
 10
108.20228871962
 20
-162.7761154558223
 30
0.0
  0
SPLINE
  5
8D
330
79
100
AcDbEntity
  8
レイヤー 1
 62
   250
420
  2299925
370
     9
100
AcDbSpline
210
0.0
220
0.0
230
1.0
 70
     9
 71
     3
 72
    17
 73
    13
 74
     0
 42
0.0000000001
 43
0.0000000001
 40
0.0
 40
0.0
 40
0.0
 40
0.0
 40
1.0
 40
1.0
 40
1.0
 40
2.0
 40
2.0
 40
2.0
 40
3.0
 40
3.0
 40
3.0
 40
4.0
 40
4.0
 40
4.0
 40
4.0
 10
96.20230597020956
 20
-162.7761154558223
 30
0.0
 10
96.20230597020956
 20
-162.7206541057728
 30
0.0
 10
96.15753847135167
 20
-162.6758513280061
 30
0.0
 10
96.10239930609171
 20
-162.6758513280061
 30
0.0
 10
96.04658986307141
 20
-162.6758513280061
 30
0.0
 10
96.0018223642132
 20
-162.7206541057728
 30
0.0
 10
96.0018223642132
 20
-162.7761154558223
 30
0.0
 10
96.0018223642132
 20
-162.8312546210829
 30
0.0
 10
96.04658986307141
 20
-162.8760221199408
 30
0.0
 10
96.10239930609171
 20
-162.8760221199408
 30
0.0
 10
96.15753847135167
 20
-162.8760221199408
 30
0.0
 10
96.20230597020956
 20
-162.8312546210829
 30
0.0
 10
96.20230597020956
 20
-162.7761154558223
 30
0.0
  0
SPLINE
  5
8E
330
79
100
AcDbEntity
  8
レイヤー 1
 62
   250
420
  2299925
370
     9
100
AcDbSpline
210
0.0
220
0.0
230
1.0
 70
     9
 71
     3
 72
    17
 73
    13
 74
     0
 42
0.0000000001
 43
0.0000000001
 40
0.0
 40
0.0
 40
0.0
 40
0.0
 40
1.0
 40
1.0
 40
1.0
 40
2.0
 40
2.0
 40
2.0
 40
3.0
 40
3.0
 40
3.0
 40
4.0
 40
4.0
 40
4.0
 40
4.0
 10
87.20234607824441
 20
-162.7761154558223
 30
0.0
 10
87.20234607824441
 20
-162.7206541057728
 30
0.0
 10
87.15757857825551
 20
-162.6758513280061
 30
0.0
 10
87.10243941160277
 20
-162.6758513280061
 30
0.0
 10
87.046629967172
 20
-162.6758513280061
 30
0.0
 10
87.00186246718343
 20
-162.7206541057728
 30
0.0
 10
87.00186246718343
 20
-162.7761154558223
 30
0.0
 10
87.00186246718343
 20
-162.8312546210829
 30
0.0
 10
87.046629967172
 20
-162.8760221199408
 30
0.0
 10
87.10243941160277
 20
-162.8760221199408
 30
0.0
 10
87.15757857825551
 20
-162.8760221199408
 30
0.0
 10
87.20234607824441
 20
-162.8312546210829
 30
0.0
 10
87.20234607824441
 20
-162.7761154558223
 30
0.0
  0
SPLINE
  5
8F
330
79
100
AcDbEntity
  8
レイヤー 1
 62
   250
420
  2299925
370
     9
100
AcDbSpline
210
0.0
220
0.0
230
1.0
 70
     9
 71
     3
 72
    17
 73
    13
 74
     0
 42
0.0000000001
 43
0.0000000001
 40
0.0
 40
0.0
 40
0.0
 40
0.0
 40
1.0
 40
1.0
 40
1.0
 40
2.0
 40
2.0
 40
2.0
 40
3.0
 40
3.0
 40
3.0
 40
4.0
 40
4.0
 40
4.0
 40
4.0
 10
100.4521844728975
 20
-158.7760036134298
 30
0.0
 10
100.4521844728975
 20
-158.7208997259468
 30
0.0
 10
100.4074169740393
 20
-158.676096949312
 30
0.0
 10
100.3522778087794
 20
-158.676096949312
 30
0.0
 10
100.2971739212966
 20
-158.676096949312
 30
0.0
 10
100.2523711446615
 20
-158.7208997259468
 30
0.0
 10
100.2523711446615
 20
-158.7760036134298
 30
0.0
 10
100.2523711446615
 20
-158.8311427786898
 30
0.0
 10
100.2971739212966
 20
-158.8759455553246
 30
0.0
 10
100.3522778087794
 20
-158.8759455553246
 30
0.0
 10
100.4074169740393
 20
-158.8759455553246
 30
0.0
 10
100.4521844728975
 20
-158.8311427786898
 30
0.0
 10
100.4521844728975
 20
-158.7760036134298
 30
0.0
  0
SPLINE
  5
90
330
79
100
AcDbEntity
  8
レイヤー 1
 62
   250
420
  2299925
370
     9
100
AcDbSpline
210
0.0
220
0.0
230
1.0
 70
     9
 71
     3
 72
    17
 73
    13
 74
     0
 42
0.0000000001
 43
0.0000000001
 40
0.0
 40
0.0
 40
0.0
 40
0.0
 40
1.0
 40
1.0
 40
1.0
 40
2.0
 40
2.0
 40
2.0
 40
3.0
 40
3.0
 40
3.0
 40
4.0
 40
4.0
 40
4.0
 40
4.0
 10
103.9524102169323
 20
-158.7760036134298
 30
0.0
 10
103.9524102169323
 20
-158.7208997259468
 30
0.0
 10
103.9076074402976
 20
-158.676096949312
 30
0.0
 10
103.8525035528142
 20
-158.676096949312
 30
0.0
 10
103.7973643875545
 20
-158.676096949312
 30
0.0
 10
103.7525968886967
 20
-158.7208997259468
 30
0.0
 10
103.7525968886967
 20
-158.7760036134298
 30
0.0
 10
103.7525968886967
 20
-158.8311427786898
 30
0.0
 10
103.7973643875545
 20
-158.8759455553246
 30
0.0
 10
103.8525035528142
 20
-158.8759455553246
 30
0.0
 10
103.9076074402976
 20
-158.8759455553246
 30
0.0
 10
103.9524102169323
 20
-158.8311427786898
 30
0.0
 10
103.9524102169323
 20
-158.7760036134298
 30
0.0
  0
INSERT
  5
92
330
79
100
AcDbEntity
  8
レイヤー 1
100
AcDbBlockReference
  2
Block_1
 10
0.0
 20
0.0
 30
0.0
  0
INSERT
  5
A8
330
79
100
AcDbEntity
  8
レイヤー 1
100
AcDbBlockReference
  2
Block_3
 10
0.0
 20
0.0
 30
0.0
  0
INSERT
  5
BC
330
79
100
AcDbEntity
  8
レイヤー 1
100
AcDbBlockReference
  2
Block_6
 10
0.0
 20
0.0
 30
0.0
  0
INSERT
  5
D0
330
79
100
AcDbEntity
  8
レイヤー 1
100
AcDbBlockReference
  2
Block_9
 10
0.0
 20
0.0
 30
0.0
  0
INSERT
  5
E3
330
79
100
AcDbEntity
  8
レイヤー 1
100
AcDbBlockReference
  2
Block_12
 10
0.0
 20
0.0
 30
0.0
  0
INSERT
  5
FA
330
79
100
AcDbEntity
  8
レイヤー 1
100
AcDbBlockReference
  2
Block_15
 10
0.0
 20
0.0
 30
0.0
  0
INSERT
  5
10E
330
79
100
AcDbEntity
  8
レイヤー 1
100
AcDbBlockReference
  2
Block_18
 10
0.0
 20
0.0
 30
0.0
  0
INSERT
  5
11C
330
79
100
AcDbEntity
  8
レイヤー 1
100
AcDbBlockReference
  2
Block_20
 10
0.0
 20
0.0
 30
0.0
  0
INSERT
  5
12A
330
79
100
AcDbEntity
  8
レイヤー 1
100
AcDbBlockReference
  2
Block_22
 10
0.0
 20
0.0
 30
0.0
  0
INSERT
  5
138
330
79
100
AcDbEntity
  8
レイヤー 1
100
AcDbBlockReference
  2
Block_24
 10
0.0
 20
0.0
 30
0.0
  0
INSERT
  5
146
330
79
100
AcDbEntity
  8
レイヤー 1
100
AcDbBlockReference
  2
Block_26
 10
0.0
 20
0.0
 30
0.0
  0
LINE
  5
159
330
79
100
AcDbEntity
  8
レイヤー 1
 62
   250
420
  2299925
370
    25
100
AcDbLine
 10
100.3522778087794
 20
-153.7758020743283
 30
0.0
 11
100.3522778087794
 21
-154.7759270488137
 31
0.0
  0
LINE
  5
15A
330
79
100
AcDbEntity
  8
レイヤー 1
 62
   250
420
  2299925
370
    25
100
AcDbLine
 10
103.8525035528142
 20
-153.7758020743283
 30
0.0
 11
103.8525035528142
 21
-154.7759270488137
 31
0.0
  0
ENDBLK
  5
7C
330
79
100
AcDbEntity
  8
0
100
AcDbBlockEnd
  0
BLOCK
  5
93
330
91
100
AcDbEntity
  8
0
100
AcDbBlockBegin
  2
Block_1
 70
     0
 10
0.0
 20
0.0
 30
0.0
  3
Block_1
  1

  0
INSERT
  5
96
330
91
100
AcDbEntity
  8
レイヤー 1
100
AcDbBlockReference
  2
Block_2
 10
0.0
 20
0.0
 30
0.0
  0
ENDBLK
  5
94
330
91
100
AcDbEntity
  8
0
100
AcDbBlockEnd
  0
BLOCK
  5
97
330
95
100
AcDbEntity
  8
0
100
AcDbBlockBegin
  2
Block_2
 70
     0
 10
0.0
 20
0.0
 30
0.0
  3
Block_2
  1

  0
SPLINE
  5
99
330
95
100
AcDbEntity
  8
レイヤー 1
100
AcDbSpline
210
0.0
220
0.0
230
1.0
 70
     9
 71
     3
 72
    41
 73
    37
 74
     0
 42
0.0000000001
 43
0.0000000001
 40
0.0
 40
0.0
 40
0.0
 40
0.0
 40
1.0
 40
1.0
 40
1.0
 40
2.0
 40
2.0
 40
2.0
 40
3.0
 40
3.0
 40
3.0
 40
4.0
 40
4.0
 40
4.0
 40
5.0
 40
5.0
 40
5.0
 40
6.0
 40
6.0
 40
6.0
 40
7.0
 40
7.0
 40
7.0
 40
8.0
 40
8.0
 40
8.0
 40
9.0
 40
9.0
 40
9.0
 40
10.0
 40
10.0
 40
10.0
 40
11.0
 40
11.0
 40
11.0
 40
12.0
 40
12.0
 40
12.0
 40
12.0
 10
104.4456488454164
 20
-150.062502675158
 30
0.0
 10
104.1877834483454
 20
-149.9271104225877
 30
0.0
 10
103.9979586871081
 20
-149.6308322108562
 30
0.0
 10
103.9548949935425
 20
-149.5016411301593
 30
0.0
 10
103.8260484223942
 20
-149.7662244634265
 30
0.0
 10
103.652071100389
 20
-149.9439913904654
 30
0.0
 10
103.4575954602467
 20
-150.0580240510271
 30
0.0
 10
103.4575954602467
 20
-150.0580240510271
 30
0.0
 10
103.2472723808722
 20
-149.9205647411657
 30
0.0
 10
103.2472723808722
 20
-149.9205647411657
 30
0.0
 10
103.3218586981278
 20
-149.8950710345748
 30
0.0
 10
103.4779215236097
 20
-149.8337483349374
 30
0.0
 10
103.6090074068234
 20
-149.6794080571982
 30
0.0
 10
103.7425048568769
 20
-149.5230007221678
 30
0.0
 10
103.8374172374955
 20
-149.2901122673649
 30
0.0
 10
103.8374172374955
 20
-149.0300075582286
 30
0.0
 10
103.8374172374955
 20
-148.9283772414137
 30
0.0
 10
103.8238091103288
 20
-148.8565470005463
 30
0.0
 10
103.8126125500017
 20
-148.8100382114954
 30
0.0
 10
103.8126125500017
 20
-148.8100382114954
 30
0.0
 10
104.0318928776378
 20
-148.8310532939554
 30
0.0
 10
104.0318928776378
 20
-148.8310532939554
 30
0.0
 10
104.0544582530662
 20
-148.8332926060208
 30
0.0
 10
104.0770236284946
 20
-148.835359663312
 30
0.0
 10
104.0770236284946
 20
-148.8565470005463
 30
0.0
 10
104.0770236284946
 20
-148.8756672804894
 30
0.0
 10
104.0658270681676
 20
-148.883935509654
 30
0.0
 10
104.0296535655724
 20
-148.9052951016625
 30
0.0
 10
104.0205240625365
 20
-149.1061441684526
 30
0.0
 10
104.0815022526254
 20
-149.3493679097112
 30
0.0
 10
104.1471313216195
 20
-149.469946251695
 30
0.0
 10
104.2442830143035
 20
-149.6456461214427
 30
0.0
 10
104.4523667816126
 20
-149.8254801057728
 30
0.0
 10
104.5970607919931
 20
-149.8826686908279
 30
0.0
 10
104.5970607919931
 20
-149.8826686908279
 30
0.0
 10
104.4456488454164
 20
-150.062502675158
 30
0.0
 10
104.4456488454164
 20
-150.062502675158
 30
0.0
  0
SPLINE
  5
9A
330
95
100
AcDbEntity
  8
レイヤー 1
100
AcDbSpline
210
0.0
220
0.0
230
1.0
 70
    11
 71
     3
 72
    17
 73
    13
 74
     0
 42
0.0000000001
 43
0.0000000001
 40
0.0
 40
0.0
 40
0.0
 40
0.0
 40
1.0
 40
1.0
 40
1.0
 40
2.0
 40
2.0
 40
2.0
 40
3.0
 40
3.0
 40
3.0
 40
4.0
 40
4.0
 40
4.0
 40
4.0
 10
103.2812065714019
 20
-149.1040771111615
 30
0.0
 10
103.2812065714019
 20
-149.1040771111615
 30
0.0
 10
103.1094685614622
 20
-149.1040771111615
 30
0.0
 10
103.1094685614622
 20
-149.1040771111615
 30
0.0
 10
103.1094685614622
 20
-149.1040771111615
 30
0.0
 10
103.1094685614622
 20
-149.2329236823098
 30
0.0
 10
103.1094685614622
 20
-149.2329236823098
 30
0.0
 10
103.1094685614622
 20
-149.2329236823098
 30
0.0
 10
103.2812065714019
 20
-149.2329236823098
 30
0.0
 10
103.2812065714019
 20
-149.2329236823098
 30
0.0
 10
103.2812065714019
 20
-149.2329236823098
 30
0.0
 10
103.2812065714019
 20
-149.1040771111615
 30
0.0
 10
103.2812065714019
 20
-149.1040771111615
 30
0.0
  0
SPLINE
  5
9B
330
95
100
AcDbEntity
  8
レイヤー 1
100
AcDbSpline
210
0.0
220
0.0
230
1.0
 70
    11
 71
     3
 72
    17
 73
    13
 74
     0
 42
0.0000000001
 43
0.0000000001
 40
0.0
 40
0.0
 40
0.0
 40
0.0
 40
1.0
 40
1.0
 40
1.0
 40
2.0
 40
2.0
 40
2.0
 40
3.0
 40
3.0
 40
3.0
 40
4.0
 40
4.0
 40
4.0
 40
4.0
 10
103.2812065714019
 20
-148.8310532939554
 30
0.0
 10
103.2812065714019
 20
-148.8310532939554
 30
0.0
 10
103.1094685614622
 20
-148.8310532939554
 30
0.0
 10
103.1094685614622
 20
-148.8310532939554
 30
0.0
 10
103.1094685614622
 20
-148.8310532939554
 30
0.0
 10
103.1094685614622
 20
-148.960072119878
 30
0.0
 10
103.1094685614622
 20
-148.960072119878
 30
0.0
 10
103.1094685614622
 20
-148.960072119878
 30
0.0
 10
103.2812065714019
 20
-148.960072119878
 30
0.0
 10
103.2812065714019
 20
-148.960072119878
 30
0.0
 10
103.2812065714019
 20
-148.960072119878
 30
0.0
 10
103.2812065714019
 20
-148.8310532939554
 30
0.0
 10
103.2812065714019
 20
-148.8310532939554
 30
0.0
  0
SPLINE
  5
9C
330
95
100
AcDbEntity
  8
レイヤー 1
100
AcDbSpline
210
0.0
220
0.0
230
1.0
 70
    11
 71
     3
 72
    17
 73
    13
 74
     0
 42
0.0000000001
 43
0.0000000001
 40
0.0
 40
0.0
 40
0.0
 40
0.0
 40
1.0
 40
1.0
 40
1.0
 40
2.0
 40
2.0
 40
2.0
 40
3.0
 40
3.0
 40
3.0
 40
4.0
 40
4.0
 40
4.0
 40
4.0
 10
102.9263617364212
 20
-149.1040771111615
 30
0.0
 10
102.9263617364212
 20
-149.1040771111615
 30
0.0
 10
102.7566907837726
 20
-149.1040771111615
 30
0.0
 10
102.7566907837726
 20
-149.1040771111615
 30
0.0
 10
102.7566907837726
 20
-149.1040771111615
 30
0.0
 10
102.7566907837726
 20
-149.2329236823098
 30
0.0
 10
102.7566907837726
 20
-149.2329236823098
 30
0.0
 10
102.7566907837726
 20
-149.2329236823098
 30
0.0
 10
102.9263617364212
 20
-149.2329236823098
 30
0.0
 10
102.9263617364212
 20
-149.2329236823098
 30
0.0
 10
102.9263617364212
 20
-149.2329236823098
 30
0.0
 10
102.9263617364212
 20
-149.1040771111615
 30
0.0
 10
102.9263617364212
 20
-149.1040771111615
 30
0.0
  0
SPLINE
  5
9D
330
95
100
AcDbEntity
  8
レイヤー 1
100
AcDbSpline
210
0.0
220
0.0
230
1.0
 70
    11
 71
     3
 72
    17
 73
    13
 74
     0
 42
0.0000000001
 43
0.0000000001
 40
0.0
 40
0.0
 40
0.0
 40
0.0
 40
1.0
 40
1.0
 40
1.0
 40
2.0
 40
2.0
 40
2.0
 40
3.0
 40
3.0
 40
3.0
 40
4.0
 40
4.0
 40
4.0
 40
4.0
 10
102.9263617364212
 20
-148.8310532939554
 30
0.0
 10
102.9263617364212
 20
-148.8310532939554
 30
0.0
 10
102.7566907837726
 20
-148.8310532939554
 30
0.0
 10
102.7566907837726
 20
-148.8310532939554
 30
0.0
 10
102.7566907837726
 20
-148.8310532939554
 30
0.0
 10
102.7566907837726
 20
-148.960072119878
 30
0.0
 10
102.7566907837726
 20
-148.960072119878
 30
0.0
 10
102.7566907837726
 20
-148.960072119878
 30
0.0
 10
102.9263617364212
 20
-148.960072119878
 30
0.0
 10
102.9263617364212
 20
-148.960072119878
 30
0.0
 10
102.9263617364212
 20
-148.960072119878
 30
0.0
 10
102.9263617364212
 20
-148.8310532939554
 30
0.0
 10
102.9263617364212
 20
-148.8310532939554
 30
0.0
  0
SPLINE
  5
9E
330
95
100
AcDbEntity
  8
レイヤー 1
100
AcDbSpline
210
0.0
220
0.0
230
1.0
 70
     9
 71
     3
 72
   197
 73
   193
 74
     0
 42
0.0000000001
 43
0.0000000001
 40
0.0
 40
0.0
 40
0.0
 40
0.0
 40
1.0
 40
1.0
 40
1.0
 40
2.0
 40
2.0
 40
2.0
 40
3.0
 40
3.0
 40
3.0
 40
4.0
 40
4.0
 40
4.0
 40
5.0
 40
5.0
 40
5.0
 40
6.0
 40
6.0
 40
6.0
 40
7.0
 40
7.0
 40
7.0
 40
8.0
 40
8.0
 40
8.0
 40
9.0
 40
9.0
 40
9.0
 40
10.0
 40
10.0
 40
10.0
 40
11.0
 40
11.0
 40
11.0
 40
12.0
 40
12.0
 40
12.0
 40
13.0
 40
13.0
 40
13.0
 40
14.0
 40
14.0
 40
14.0
 40
15.0
 40
15.0
 40
15.0
 40
16.0
 40
16.0
 40
16.0
 40
17.0
 40
17.0
 40
17.0
 40
18.0
 40
18.0
 40
18.0
 40
19.0
 40
19.0
 40
19.0
 40
20.0
 40
20.0
 40
20.0
 40
21.0
 40
21.0
 40
21.0
 40
22.0
 40
22.0
 40
22.0
 40
23.0
 40
23.0
 40
23.0
 40
24.0
 40
24.0
 40
24.0
 40
25.0
 40
25.0
 40
25.0
 40
26.0
 40
26.0
 40
26.0
 40
27.0
 40
27.0
 40
27.0
 40
28.0
 40
28.0
 40
28.0
 40
29.0
 40
29.0
 40
29.0
 40
30.0
 40
30.0
 40
30.0
 40
31.0
 40
31.0
 40
31.0
 40
32.0
 40
32.0
 40
32.0
 40
33.0
 40
33.0
 40
33.0
 40
34.0
 40
34.0
 40
34.0
 40
35.0
 40
35.0
 40
35.0
 40
36.0
 40
36.0
 40
36.0
 40
37.0
 40
37.0
 40
37.0
 40
38.0
 40
38.0
 40
38.0
 40
39.0
 40
39.0
 40
39.0
 40
40.0
 40
40.0
 40
40.0
 40
41.0
 40
41.0
 40
41.0
 40
42.0
 40
42.0
 40
42.0
 40
43.0
 40
43.0
 40
43.0
 40
44.0
 40
44.0
 40
44.0
 40
45.0
 40
45.0
 40
45.0
 40
46.0
 40
46.0
 40
46.0
 40
47.0
 40
47.0
 40
47.0
 40
48.0
 40
48.0
 40
48.0
 40
49.0
 40
49.0
 40
49.0
 40
50.0
 40
50.0
 40
50.0
 40
51.0
 40
51.0
 40
51.0
 40
52.0
 40
52.0
 40
52.0
 40
53.0
 40
53.0
 40
53.0
 40
54.0
 40
54.0
 40
54.0
 40
55.0
 40
55.0
 40
55.0
 40
56.0
 40
56.0
 40
56.0
 40
57.0
 40
57.0
 40
57.0
 40
58.0
 40
58.0
 40
58.0
 40
59.0
 40
59.0
 40
59.0
 40
60.0
 40
60.0
 40
60.0
 40
61.0
 40
61.0
 40
61.0
 40
62.0
 40
62.0
 40
62.0
 40
63.0
 40
63.0
 40
63.0
 40
64.0
 40
64.0
 40
64.0
 40
64.0
 10
104.5360826019042
 20
-148.7063408373894
 30
0.0
 10
104.5247137868028
 20
-148.7359686585625
 30
0.0
 10
104.499909099309
 20
-148.7824774476134
 30
0.0
 10
104.4885402842077
 20
-148.8100382114954
 30
0.0
 10
104.4885402842077
 20
-148.8100382114954
 30
0.0
 10
104.4229112152137
 20
-148.9621391771692
 30
0.0
 10
104.4229112152137
 20
-148.9621391771692
 30
0.0
 10
104.4117146548867
 20
-148.98763288376
 30
0.0
 10
104.3596937130594
 20
-149.0999429965792
 30
0.0
 10
104.3460855858926
 20
-149.1230251363304
 30
0.0
 10
104.3438462738272
 20
-149.1292263082038
 30
0.0
 10
104.3393676496964
 20
-149.1378390469169
 30
0.0
 10
104.337128337631
 20
-149.1440402187904
 30
0.0
 10
104.337128337631
 20
-149.1440402187904
 30
0.0
 10
104.1131971310897
 20
-149.091330257866
 30
0.0
 10
104.1131971310897
 20
-149.091330257866
 30
0.0
 10
104.1969129513813
 20
-148.9814317118866
 30
0.0
 10
104.2623697656011
 20
-148.845867204542
 30
0.0
 10
104.2963039561308
 20
-148.7359686585625
 30
0.0
 10
104.2963039561308
 20
-148.7359686585625
 30
0.0
 10
103.7990044228349
 20
-148.7359686585625
 30
0.0
 10
103.7990044228349
 20
-148.7359686585625
 30
0.0
 10
103.713049290478
 20
-148.9008164775317
 30
0.0
 10
103.6407022852877
 20
-148.9793646545954
 30
0.0
 10
103.6045287826926
 20
-149.0193277622243
 30
0.0
 10
103.6045287826926
 20
-149.0193277622243
 30
0.0
 10
103.4734428994788
 20
-148.9538709480046
 30
0.0
 10
103.4734428994788
 20
-148.9538709480046
 30
0.0
 10
103.4734428994788
 20
-148.9538709480046
 30
0.0
 10
103.4734428994788
 20
-149.1250921936215
 30
0.0
 10
103.4734428994788
 20
-149.1250921936215
 30
0.0
 10
103.4734428994788
 20
-149.2329236823098
 30
0.0
 10
103.4756822115443
 20
-149.2818440382003
 30
0.0
 10
103.4870510266456
 20
-149.3876084695975
 30
0.0
 10
103.4100531425502
 20
-149.3855414123064
 30
0.0
 10
103.3874877671218
 20
-149.3855414123064
 30
0.0
 10
103.1682074394857
 20
-149.3855414123064
 30
0.0
 10
103.1682074394857
 20
-149.3855414123064
 30
0.0
 10
103.1094685614622
 20
-149.3855414123064
 30
0.0
 10
103.1094685614622
 20
-149.3855414123064
 30
0.0
 10
103.1094685614622
 20
-149.3855414123064
 30
0.0
 10
103.1094685614622
 20
-149.5209336648767
 30
0.0
 10
103.1094685614622
 20
-149.5209336648767
 30
0.0
 10
103.1094685614622
 20
-149.5209336648767
 30
0.0
 10
103.1862941907833
 20
-149.5209336648767
 30
0.0
 10
103.1862941907833
 20
-149.5209336648767
 30
0.0
 10
103.2564018839081
 20
-149.5209336648767
 30
0.0
 10
103.4122924546156
 20
-149.5164550407459
 30
0.0
 10
103.5254638413061
 20
-149.5081868115813
 30
0.0
 10
103.5254638413061
 20
-149.5081868115813
 30
0.0
 10
103.5254638413061
 20
-149.6856092290717
 30
0.0
 10
103.5254638413061
 20
-149.6856092290717
 30
0.0
 10
103.4214219576516
 20
-149.6794080571982
 30
0.0
 10
103.2519232597773
 20
-149.6752739426159
 30
0.0
 10
103.1862941907833
 20
-149.6752739426159
 30
0.0
 10
103.1862941907833
 20
-149.6752739426159
 30
0.0
 10
103.1094685614622
 20
-149.6752739426159
 30
0.0
 10
103.1094685614622
 20
-149.6752739426159
 30
0.0
 10
103.1117078735276
 20
-149.7641574061353
 30
0.0
 10
103.1161864976584
 20
-150.0032470328117
 30
0.0
 10
103.1184258097239
 20
-150.0773165857445
 30
0.0
 10
103.1184258097239
 20
-150.0773165857445
 30
0.0
 10
102.9036241062185
 20
-150.0773165857445
 30
0.0
 10
102.9036241062185
 20
-150.0773165857445
 30
0.0
 10
102.9172322333852
 20
-149.8633761561105
 30
0.0
 10
102.9172322333852
 20
-149.8337483349374
 30
0.0
 10
102.9217108575161
 20
-149.6752739426159
 30
0.0
 10
102.9217108575161
 20
-149.6752739426159
 30
0.0
 10
102.8471245402604
 20
-149.6752739426159
 30
0.0
 10
102.8471245402604
 20
-149.6752739426159
 30
0.0
 10
102.7861463501715
 20
-149.6752739426159
 30
0.0
 10
102.6233655884934
 20
-149.6794080571982
 30
0.0
 10
102.5057155776722
 20
-149.6856092290717
 30
0.0
 10
102.5057155776722
 20
-149.6856092290717
 30
0.0
 10
102.5057155776722
 20
-149.5081868115813
 30
0.0
 10
102.5057155776722
 20
-149.5081868115813
 30
0.0
 10
102.6188869643626
 20
-149.5164550407459
 30
0.0
 10
102.7725382230048
 20
-149.5209336648767
 30
0.0
 10
102.8471245402604
 20
-149.5209336648767
 30
0.0
 10
102.8471245402604
 20
-149.5209336648767
 30
0.0
 10
102.9263617364212
 20
-149.5209336648767
 30
0.0
 10
102.9263617364212
 20
-149.5209336648767
 30
0.0
 10
102.9263617364212
 20
-149.5209336648767
 30
0.0
 10
102.9263617364212
 20
-149.3855414123064
 30
0.0
 10
102.9263617364212
 20
-149.3855414123064
 30
0.0
 10
102.9263617364212
 20
-149.3855414123064
 30
0.0
 10
102.8788194187247
 20
-149.3855414123064
 30
0.0
 10
102.8788194187247
 20
-149.3855414123064
 30
0.0
 10
102.7973429104986
 20
-149.3855414123064
 30
0.0
 10
102.5916707100291
 20
-149.3876084695975
 30
0.0
 10
102.555497207434
 20
-149.3876084695975
 30
0.0
 10
102.5622151436303
 20
-149.3156059739558
 30
0.0
 10
102.5713446466662
 20
-149.2353352491495
 30
0.0
 10
102.5713446466662
 20
-149.1147569071658
 30
0.0
 10
102.5713446466662
 20
-149.1147569071658
 30
0.0
 10
102.5713446466662
 20
-148.9411240947092
 30
0.0
 10
102.5713446466662
 20
-148.9411240947092
 30
0.0
 10
102.5713446466662
 20
-148.8691215990674
 30
0.0
 10
102.5622151436303
 20
-148.7485432570837
 30
0.0
 10
102.555497207434
 20
-148.6682725322773
 30
0.0
 10
102.6392130277256
 20
-148.6724066468597
 30
0.0
 10
102.6798651544515
 20
-148.6746459589251
 30
0.0
 10
102.8154296617961
 20
-148.6746459589251
 30
0.0
 10
102.8154296617961
 20
-148.6746459589251
 30
0.0
 10
102.9263617364212
 20
-148.6746459589251
 30
0.0
 10
102.9263617364212
 20
-148.6746459589251
 30
0.0
 10
102.9263617364212
 20
-148.6746459589251
 30
0.0
 10
102.9263617364212
 20
-148.5285739103505
 30
0.0
 10
102.9263617364212
 20
-148.5285739103505
 30
0.0
 10
102.9263617364212
 20
-148.5285739103505
 30
0.0
 10
102.8426459161296
 20
-148.5285739103505
 30
0.0
 10
102.8426459161296
 20
-148.5285739103505
 30
0.0
 10
102.7839070381061
 20
-148.5285739103505
 30
0.0
 10
102.6008002130651
 20
-148.532880279707
 30
0.0
 10
102.5103664565772
 20
-148.5392537063547
 30
0.0
 10
102.5103664565772
 20
-148.5392537063547
 30
0.0
 10
102.5103664565772
 20
-148.3614867793159
 30
0.0
 10
102.5103664565772
 20
-148.3614867793159
 30
0.0
 10
102.5983886462254
 20
-148.3678602059636
 30
0.0
 10
102.7725382230048
 20
-148.3719943205459
 30
0.0
 10
102.8426459161296
 20
-148.3719943205459
 30
0.0
 10
102.8426459161296
 20
-148.3719943205459
 30
0.0
 10
102.9263617364212
 20
-148.3719943205459
 30
0.0
 10
102.9263617364212
 20
-148.3719943205459
 30
0.0
 10
102.9263617364212
 20
-148.3382323847904
 30
0.0
 10
102.9217108575161
 20
-148.183719852277
 30
0.0
 10
102.9217108575161
 20
-148.1520249738127
 30
0.0
 10
102.9217108575161
 20
-148.1520249738127
 30
0.0
 10
103.1320339368906
 20
-148.1689059416904
 30
0.0
 10
103.1320339368906
 20
-148.1689059416904
 30
0.0
 10
103.1501206881881
 20
-148.1711452537558
 30
0.0
 10
103.1726860636165
 20
-148.173212311047
 30
0.0
 10
103.1726860636165
 20
-148.1943996482812
 30
0.0
 10
103.1726860636165
 20
-148.2176540428067
 30
0.0
 10
103.1501206881881
 20
-148.2260945267455
 30
0.0
 10
103.1206651217893
 20
-148.238841380041
 30
0.0
 10
103.1206651217893
 20
-148.259856462501
 30
0.0
 10
103.1184258097239
 20
-148.3551133526681
 30
0.0
 10
103.1184258097239
 20
-148.3719943205459
 30
0.0
 10
103.1184258097239
 20
-148.3719943205459
 30
0.0
 10
103.1818155666524
 20
-148.3719943205459
 30
0.0
 10
103.1818155666524
 20
-148.3719943205459
 30
0.0
 10
103.2541625718427
 20
-148.3719943205459
 30
0.0
 10
103.4078138304848
 20
-148.3678602059636
 30
0.0
 10
103.520812962401
 20
-148.3614867793159
 30
0.0
 10
103.520812962401
 20
-148.3614867793159
 30
0.0
 10
103.520812962401
 20
-148.5392537063547
 30
0.0
 10
103.520812962401
 20
-148.5392537063547
 30
0.0
 10
103.4169433335207
 20
-148.532880279707
 30
0.0
 10
103.2495116929376
 20
-148.5285739103505
 30
0.0
 10
103.1818155666524
 20
-148.5285739103505
 30
0.0
 10
103.1818155666524
 20
-148.5285739103505
 30
0.0
 10
103.1094685614622
 20
-148.5285739103505
 30
0.0
 10
103.1094685614622
 20
-148.5285739103505
 30
0.0
 10
103.1094685614622
 20
-148.5285739103505
 30
0.0
 10
103.1094685614622
 20
-148.6746459589251
 30
0.0
 10
103.1094685614622
 20
-148.6746459589251
 30
0.0
 10
103.1094685614622
 20
-148.6746459589251
 30
0.0
 10
103.1840548787178
 20
-148.6746459589251
 30
0.0
 10
103.1840548787178
 20
-148.6746459589251
 30
0.0
 10
103.3445963283305
 20
-148.6746459589251
 30
0.0
 10
103.4214219576516
 20
-148.6703395895685
 30
0.0
 10
103.4870510266456
 20
-148.6682725322773
 30
0.0
 10
103.4779215236097
 20
-148.7633571676703
 30
0.0
 10
103.4756822115443
 20
-148.8417330899597
 30
0.0
 10
103.4734428994788
 20
-148.8798013950717
 30
0.0
 10
103.6384629732223
 20
-148.6682725322773
 30
0.0
 10
103.7514621051385
 20
-148.4207424216621
 30
0.0
 10
103.7695488564361
 20
-148.1583984004604
 30
0.0
 10
103.7695488564361
 20
-148.1583984004604
 30
0.0
 10
104.0001979991735
 20
-148.2092135588678
 30
0.0
 10
104.0001979991735
 20
-148.2092135588678
 30
0.0
 10
104.0160454384057
 20
-148.2133476734501
 30
0.0
 10
104.0318928776378
 20
-148.2197211000978
 30
0.0
 10
104.0318928776378
 20
-148.2366020679755
 30
0.0
 10
104.0318928776378
 20
-148.2536552906275
 30
0.0
 10
104.0272419987328
 20
-148.2557223479187
 30
0.0
 10
103.9729817448401
 20
-148.276909685153
 30
0.0
 10
103.9548949935425
 20
-148.353046295377
 30
0.0
 10
103.9278509939833
 20
-148.4439968161876
 30
0.0
 10
103.875830052156
 20
-148.570948584819
 30
0.0
 10
103.875830052156
 20
-148.570948584819
 30
0.0
 10
104.2375650781073
 20
-148.570948584819
 30
0.0
 10
104.2375650781073
 20
-148.570948584819
 30
0.0
 10
104.2782172048332
 20
-148.570948584819
 30
0.0
 10
104.4161932790174
 20
-148.5666422154625
 30
0.0
 10
104.4682142208447
 20
-148.5602687888148
 30
0.0
 10
104.4682142208447
 20
-148.5602687888148
 30
0.0
 10
104.5676052255942
 20
-148.6302042271653
 30
0.0
 10
104.5676052255942
 20
-148.6302042271653
 30
0.0
 10
104.5586479773325
 20
-148.6512193096254
 30
0.0
 10
104.551757786362
 20
-148.6703395895685
 30
0.0
 10
104.5360826019042
 20
-148.7063408373894
 30
0.0
  0
HATCH
  5
9F
330
95
100
AcDbEntity
  8
レイヤー 1
 62
   250
420
  2299925
440
 33554687
100
AcDbHatch
 10
0.0
 20
0.0
 30
0.0
210
0.0
220
0.0
230
1.0
  2
SOLID
 70
     1
 71
     1
 91
        6
 92
        1
 93
        1
 72
     4
 94
        3
 73
     0
 74
     0
 95
       41
 96
       37
 40
0.0
 40
0.0
 40
0.0
 40
0.0
 40
1.0
 40
1.0
 40
1.0
 40
2.0
 40
2.0
 40
2.0
 40
3.0
 40
3.0
 40
3.0
 40
4.0
 40
4.0
 40
4.0
 40
5.0
 40
5.0
 40
5.0
 40
6.0
 40
6.0
 40
6.0
 40
7.0
 40
7.0
 40
7.0
 40
8.0
 40
8.0
 40
8.0
 40
9.0
 40
9.0
 40
9.0
 40
10.0
 40
10.0
 40
10.0
 40
11.0
 40
11.0
 40
11.0
 40
12.0
 40
12.0
 40
12.0
 40
12.0
 10
104.4456488454164
 20
-150.062502675158
 10
104.1877834483454
 20
-149.9271104225877
 10
103.9979586871081
 20
-149.6308322108562
 10
103.9548949935425
 20
-149.5016411301593
 10
103.8260484223942
 20
-149.7662244634265
 10
103.652071100389
 20
-149.9439913904654
 10
103.4575954602467
 20
-150.0580240510271
 10
103.4575954602467
 20
-150.0580240510271
 10
103.2472723808722
 20
-149.9205647411657
 10
103.2472723808722
 20
-149.9205647411657
 10
103.3218586981278
 20
-149.8950710345748
 10
103.4779215236097
 20
-149.8337483349374
 10
103.6090074068234
 20
-149.6794080571982
 10
103.7425048568769
 20
-149.5230007221678
 10
103.8374172374955
 20
-149.2901122673649
 10
103.8374172374955
 20
-149.0300075582286
 10
103.8374172374955
 20
-148.9283772414137
 10
103.8238091103288
 20
-148.8565470005463
 10
103.8126125500017
 20
-148.8100382114954
 10
103.8126125500017
 20
-148.8100382114954
 10
104.0318928776378
 20
-148.8310532939554
 10
104.0318928776378
 20
-148.8310532939554
 10
104.0544582530662
 20
-148.8332926060208
 10
104.0770236284946
 20
-148.835359663312
 10
104.0770236284946
 20
-148.8565470005463
 10
104.0770236284946
 20
-148.8756672804894
 10
104.0658270681676
 20
-148.883935509654
 10
104.0296535655724
 20
-148.9052951016625
 10
104.0205240625365
 20
-149.1061441684526
 10
104.0815022526254
 20
-149.3493679097112
 10
104.1471313216195
 20
-149.469946251695
 10
104.2442830143035
 20
-149.6456461214427
 10
104.4523667816126
 20
-149.8254801057728
 10
104.5970607919931
 20
-149.8826686908279
 10
104.5970607919931
 20
-149.8826686908279
 10
104.4456488454164
 20
-150.062502675158
 10
104.4456488454164
 20
-150.062502675158
 97
        0
 97
        1
330
99
 92
        1
 93
        1
 72
     4
 94
        3
 73
     0
 74
     0
 95
       17
 96
       13
 40
0.0
 40
0.0
 40
0.0
 40
0.0
 40
1.0
 40
1.0
 40
1.0
 40
2.0
 40
2.0
 40
2.0
 40
3.0
 40
3.0
 40
3.0
 40
4.0
 40
4.0
 40
4.0
 40
4.0
 10
103.2812065714019
 20
-149.1040771111615
 10
103.2812065714019
 20
-149.1040771111615
 10
103.1094685614622
 20
-149.1040771111615
 10
103.1094685614622
 20
-149.1040771111615
 10
103.1094685614622
 20
-149.1040771111615
 10
103.1094685614622
 20
-149.2329236823098
 10
103.1094685614622
 20
-149.2329236823098
 10
103.1094685614622
 20
-149.2329236823098
 10
103.2812065714019
 20
-149.2329236823098
 10
103.2812065714019
 20
-149.2329236823098
 10
103.2812065714019
 20
-149.2329236823098
 10
103.2812065714019
 20
-149.1040771111615
 10
103.2812065714019
 20
-149.1040771111615
 97
        0
 97
        1
330
9A
 92
        1
 93
        1
 72
     4
 94
        3
 73
     0
 74
     0
 95
       17
 96
       13
 40
0.0
 40
0.0
 40
0.0
 40
0.0
 40
1.0
 40
1.0
 40
1.0
 40
2.0
 40
2.0
 40
2.0
 40
3.0
 40
3.0
 40
3.0
 40
4.0
 40
4.0
 40
4.0
 40
4.0
 10
103.2812065714019
 20
-148.8310532939554
 10
103.2812065714019
 20
-148.8310532939554
 10
103.1094685614622
 20
-148.8310532939554
 10
103.1094685614622
 20
-148.8310532939554
 10
103.1094685614622
 20
-148.8310532939554
 10
103.1094685614622
 20
-148.960072119878
 10
103.1094685614622
 20
-148.960072119878
 10
103.1094685614622
 20
-148.960072119878
 10
103.2812065714019
 20
-148.960072119878
 10
103.2812065714019
 20
-148.960072119878
 10
103.2812065714019
 20
-148.960072119878
 10
103.2812065714019
 20
-148.8310532939554
 10
103.2812065714019
 20
-148.8310532939554
 97
        0
 97
        1
330
9B
 92
        1
 93
        1
 72
     4
 94
        3
 73
     0
 74
     0
 95
       17
 96
       13
 40
0.0
 40
0.0
 40
0.0
 40
0.0
 40
1.0
 40
1.0
 40
1.0
 40
2.0
 40
2.0
 40
2.0
 40
3.0
 40
3.0
 40
3.0
 40
4.0
 40
4.0
 40
4.0
 40
4.0
 10
102.9263617364212
 20
-149.1040771111615
 10
102.9263617364212
 20
-149.1040771111615
 10
102.7566907837726
 20
-149.1040771111615
 10
102.7566907837726
 20
-149.1040771111615
 10
102.7566907837726
 20
-149.1040771111615
 10
102.7566907837726
 20
-149.2329236823098
 10
102.7566907837726
 20
-149.2329236823098
 10
102.7566907837726
 20
-149.2329236823098
 10
102.9263617364212
 20
-149.2329236823098
 10
102.9263617364212
 20
-149.2329236823098
 10
102.9263617364212
 20
-149.2329236823098
 10
102.9263617364212
 20
-149.1040771111615
 10
102.9263617364212
 20
-149.1040771111615
 97
        0
 97
        1
330
9C
 92
        1
 93
        1
 72
     4
 94
        3
 73
     0
 74
     0
 95
       17
 96
       13
 40
0.0
 40
0.0
 40
0.0
 40
0.0
 40
1.0
 40
1.0
 40
1.0
 40
2.0
 40
2.0
 40
2.0
 40
3.0
 40
3.0
 40
3.0
 40
4.0
 40
4.0
 40
4.0
 40
4.0
 10
102.9263617364212
 20
-148.8310532939554
 10
102.9263617364212
 20
-148.8310532939554
 10
102.7566907837726
 20
-148.8310532939554
 10
102.7566907837726
 20
-148.8310532939554
 10
102.7566907837726
 20
-148.8310532939554
 10
102.7566907837726
 20
-148.960072119878
 10
102.7566907837726
 20
-148.960072119878
 10
102.7566907837726
 20
-148.960072119878
 10
102.9263617364212
 20
-148.960072119878
 10
102.9263617364212
 20
-148.960072119878
 10
102.9263617364212
 20
-148.960072119878
 10
102.9263617364212
 20
-148.8310532939554
 10
102.9263617364212
 20
-148.8310532939554
 97
        0
 97
        1
330
9D
 92
        1
 93
        1
 72
     4
 94
        3
 73
     0
 74
     0
 95
      197
 96
      193
 40
0.0
 40
0.0
 40
0.0
 40
0.0
 40
1.0
 40
1.0
 40
1.0
 40
2.0
 40
2.0
 40
2.0
 40
3.0
 40
3.0
 40
3.0
 40
4.0
 40
4.0
 40
4.0
 40
5.0
 40
5.0
 40
5.0
 40
6.0
 40
6.0
 40
6.0
 40
7.0
 40
7.0
 40
7.0
 40
8.0
 40
8.0
 40
8.0
 40
9.0
 40
9.0
 40
9.0
 40
10.0
 40
10.0
 40
10.0
 40
11.0
 40
11.0
 40
11.0
 40
12.0
 40
12.0
 40
12.0
 40
13.0
 40
13.0
 40
13.0
 40
14.0
 40
14.0
 40
14.0
 40
15.0
 40
15.0
 40
15.0
 40
16.0
 40
16.0
 40
16.0
 40
17.0
 40
17.0
 40
17.0
 40
18.0
 40
18.0
 40
18.0
 40
19.0
 40
19.0
 40
19.0
 40
20.0
 40
20.0
 40
20.0
 40
21.0
 40
21.0
 40
21.0
 40
22.0
 40
22.0
 40
22.0
 40
23.0
 40
23.0
 40
23.0
 40
24.0
 40
24.0
 40
24.0
 40
25.0
 40
25.0
 40
25.0
 40
26.0
 40
26.0
 40
26.0
 40
27.0
 40
27.0
 40
27.0
 40
28.0
 40
28.0
 40
28.0
 40
29.0
 40
29.0
 40
29.0
 40
30.0
 40
30.0
 40
30.0
 40
31.0
 40
31.0
 40
31.0
 40
32.0
 40
32.0
 40
32.0
 40
33.0
 40
33.0
 40
33.0
 40
34.0
 40
34.0
 40
34.0
 40
35.0
 40
35.0
 40
35.0
 40
36.0
 40
36.0
 40
36.0
 40
37.0
 40
37.0
 40
37.0
 40
38.0
 40
38.0
 40
38.0
 40
39.0
 40
39.0
 40
39.0
 40
40.0
 40
40.0
 40
40.0
 40
41.0
 40
41.0
 40
41.0
 40
42.0
 40
42.0
 40
42.0
 40
43.0
 40
43.0
 40
43.0
 40
44.0
 40
44.0
 40
44.0
 40
45.0
 40
45.0
 40
45.0
 40
46.0
 40
46.0
 40
46.0
 40
47.0
 40
47.0
 40
47.0
 40
48.0
 40
48.0
 40
48.0
 40
49.0
 40
49.0
 40
49.0
 40
50.0
 40
50.0
 40
50.0
 40
51.0
 40
51.0
 40
51.0
 40
52.0
 40
52.0
 40
52.0
 40
53.0
 40
53.0
 40
53.0
 40
54.0
 40
54.0
 40
54.0
 40
55.0
 40
55.0
 40
55.0
 40
56.0
 40
56.0
 40
56.0
 40
57.0
 40
57.0
 40
57.0
 40
58.0
 40
58.0
 40
58.0
 40
59.0
 40
59.0
 40
59.0
 40
60.0
 40
60.0
 40
60.0
 40
61.0
 40
61.0
 40
61.0
 40
62.0
 40
62.0
 40
62.0
 40
63.0
 40
63.0
 40
63.0
 40
64.0
 40
64.0
 40
64.0
 40
64.0
 10
104.5360826019042
 20
-148.7063408373894
 10
104.5247137868028
 20
-148.7359686585625
 10
104.499909099309
 20
-148.7824774476134
 10
104.4885402842077
 20
-148.8100382114954
 10
104.4885402842077
 20
-148.8100382114954
 10
104.4229112152137
 20
-148.9621391771692
 10
104.4229112152137
 20
-148.9621391771692
 10
104.4117146548867
 20
-148.98763288376
 10
104.3596937130594
 20
-149.0999429965792
 10
104.3460855858926
 20
-149.1230251363304
 10
104.3438462738272
 20
-149.1292263082038
 10
104.3393676496964
 20
-149.1378390469169
 10
104.337128337631
 20
-149.1440402187904
 10
104.337128337631
 20
-149.1440402187904
 10
104.1131971310897
 20
-149.091330257866
 10
104.1131971310897
 20
-149.091330257866
 10
104.1969129513813
 20
-148.9814317118866
 10
104.2623697656011
 20
-148.845867204542
 10
104.2963039561308
 20
-148.7359686585625
 10
104.2963039561308
 20
-148.7359686585625
 10
103.7990044228349
 20
-148.7359686585625
 10
103.7990044228349
 20
-148.7359686585625
 10
103.713049290478
 20
-148.9008164775317
 10
103.6407022852877
 20
-148.9793646545954
 10
103.6045287826926
 20
-149.0193277622243
 10
103.6045287826926
 20
-149.0193277622243
 10
103.4734428994788
 20
-148.9538709480046
 10
103.4734428994788
 20
-148.9538709480046
 10
103.4734428994788
 20
-148.9538709480046
 10
103.4734428994788
 20
-149.1250921936215
 10
103.4734428994788
 20
-149.1250921936215
 10
103.4734428994788
 20
-149.2329236823098
 10
103.4756822115443
 20
-149.2818440382003
 10
103.4870510266456
 20
-149.3876084695975
 10
103.4100531425502
 20
-149.3855414123064
 10
103.3874877671218
 20
-149.3855414123064
 10
103.1682074394857
 20
-149.3855414123064
 10
103.1682074394857
 20
-149.3855414123064
 10
103.1094685614622
 20
-149.3855414123064
 10
103.1094685614622
 20
-149.3855414123064
 10
103.1094685614622
 20
-149.3855414123064
 10
103.1094685614622
 20
-149.5209336648767
 10
103.1094685614622
 20
-149.5209336648767
 10
103.1094685614622
 20
-149.5209336648767
 10
103.1862941907833
 20
-149.5209336648767
 10
103.1862941907833
 20
-149.5209336648767
 10
103.2564018839081
 20
-149.5209336648767
 10
103.4122924546156
 20
-149.5164550407459
 10
103.5254638413061
 20
-149.5081868115813
 10
103.5254638413061
 20
-149.5081868115813
 10
103.5254638413061
 20
-149.6856092290717
 10
103.5254638413061
 20
-149.6856092290717
 10
103.4214219576516
 20
-149.6794080571982
 10
103.2519232597773
 20
-149.6752739426159
 10
103.1862941907833
 20
-149.6752739426159
 10
103.1862941907833
 20
-149.6752739426159
 10
103.1094685614622
 20
-149.6752739426159
 10
103.1094685614622
 20
-149.6752739426159
 10
103.1117078735276
 20
-149.7641574061353
 10
103.1161864976584
 20
-150.0032470328117
 10
103.1184258097239
 20
-150.0773165857445
 10
103.1184258097239
 20
-150.0773165857445
 10
102.9036241062185
 20
-150.0773165857445
 10
102.9036241062185
 20
-150.0773165857445
 10
102.9172322333852
 20
-149.8633761561105
 10
102.9172322333852
 20
-149.8337483349374
 10
102.9217108575161
 20
-149.6752739426159
 10
102.9217108575161
 20
-149.6752739426159
 10
102.8471245402604
 20
-149.6752739426159
 10
102.8471245402604
 20
-149.6752739426159
 10
102.7861463501715
 20
-149.6752739426159
 10
102.6233655884934
 20
-149.6794080571982
 10
102.5057155776722
 20
-149.6856092290717
 10
102.5057155776722
 20
-149.6856092290717
 10
102.5057155776722
 20
-149.5081868115813
 10
102.5057155776722
 20
-149.5081868115813
 10
102.6188869643626
 20
-149.5164550407459
 10
102.7725382230048
 20
-149.5209336648767
 10
102.8471245402604
 20
-149.5209336648767
 10
102.8471245402604
 20
-149.5209336648767
 10
102.9263617364212
 20
-149.5209336648767
 10
102.9263617364212
 20
-149.5209336648767
 10
102.9263617364212
 20
-149.5209336648767
 10
102.9263617364212
 20
-149.3855414123064
 10
102.9263617364212
 20
-149.3855414123064
 10
102.9263617364212
 20
-149.3855414123064
 10
102.8788194187247
 20
-149.3855414123064
 10
102.8788194187247
 20
-149.3855414123064
 10
102.7973429104986
 20
-149.3855414123064
 10
102.5916707100291
 20
-149.3876084695975
 10
102.555497207434
 20
-149.3876084695975
 10
102.5622151436303
 20
-149.3156059739558
 10
102.5713446466662
 20
-149.2353352491495
 10
102.5713446466662
 20
-149.1147569071658
 10
102.5713446466662
 20
-149.1147569071658
 10
102.5713446466662
 20
-148.9411240947092
 10
102.5713446466662
 20
-148.9411240947092
 10
102.5713446466662
 20
-148.8691215990674
 10
102.5622151436303
 20
-148.7485432570837
 10
102.555497207434
 20
-148.6682725322773
 10
102.6392130277256
 20
-148.6724066468597
 10
102.6798651544515
 20
-148.6746459589251
 10
102.8154296617961
 20
-148.6746459589251
 10
102.8154296617961
 20
-148.6746459589251
 10
102.9263617364212
 20
-148.6746459589251
 10
102.9263617364212
 20
-148.6746459589251
 10
102.9263617364212
 20
-148.6746459589251
 10
102.9263617364212
 20
-148.5285739103505
 10
102.9263617364212
 20
-148.5285739103505
 10
102.9263617364212
 20
-148.5285739103505
 10
102.8426459161296
 20
-148.5285739103505
 10
102.8426459161296
 20
-148.5285739103505
 10
102.7839070381061
 20
-148.5285739103505
 10
102.6008002130651
 20
-148.532880279707
 10
102.5103664565772
 20
-148.5392537063547
 10
102.5103664565772
 20
-148.5392537063547
 10
102.5103664565772
 20
-148.3614867793159
 10
102.5103664565772
 20
-148.3614867793159
 10
102.5983886462254
 20
-148.3678602059636
 10
102.7725382230048
 20
-148.3719943205459
 10
102.8426459161296
 20
-148.3719943205459
 10
102.8426459161296
 20
-148.3719943205459
 10
102.9263617364212
 20
-148.3719943205459
 10
102.9263617364212
 20
-148.3719943205459
 10
102.9263617364212
 20
-148.3382323847904
 10
102.9217108575161
 20
-148.183719852277
 10
102.9217108575161
 20
-148.1520249738127
 10
102.9217108575161
 20
-148.1520249738127
 10
103.1320339368906
 20
-148.1689059416904
 10
103.1320339368906
 20
-148.1689059416904
 10
103.1501206881881
 20
-148.1711452537558
 10
103.1726860636165
 20
-148.173212311047
 10
103.1726860636165
 20
-148.1943996482812
 10
103.1726860636165
 20
-148.2176540428067
 10
103.1501206881881
 20
-148.2260945267455
 10
103.1206651217893
 20
-148.238841380041
 10
103.1206651217893
 20
-148.259856462501
 10
103.1184258097239
 20
-148.3551133526681
 10
103.1184258097239
 20
-148.3719943205459
 10
103.1184258097239
 20
-148.3719943205459
 10
103.1818155666524
 20
-148.3719943205459
 10
103.1818155666524
 20
-148.3719943205459
 10
103.2541625718427
 20
-148.3719943205459
 10
103.4078138304848
 20
-148.3678602059636
 10
103.520812962401
 20
-148.3614867793159
 10
103.520812962401
 20
-148.3614867793159
 10
103.520812962401
 20
-148.5392537063547
 10
103.520812962401
 20
-148.5392537063547
 10
103.4169433335207
 20
-148.532880279707
 10
103.2495116929376
 20
-148.5285739103505
 10
103.1818155666524
 20
-148.5285739103505
 10
103.1818155666524
 20
-148.5285739103505
 10
103.1094685614622
 20
-148.5285739103505
 10
103.1094685614622
 20
-148.5285739103505
 10
103.1094685614622
 20
-148.5285739103505
 10
103.1094685614622
 20
-148.6746459589251
 10
103.1094685614622
 20
-148.6746459589251
 10
103.1094685614622
 20
-148.6746459589251
 10
103.1840548787178
 20
-148.6746459589251
 10
103.1840548787178
 20
-148.6746459589251
 10
103.3445963283305
 20
-148.6746459589251
 10
103.4214219576516
 20
-148.6703395895685
 10
103.4870510266456
 20
-148.6682725322773
 10
103.4779215236097
 20
-148.7633571676703
 10
103.4756822115443
 20
-148.8417330899597
 10
103.4734428994788
 20
-148.8798013950717
 10
103.6384629732223
 20
-148.6682725322773
 10
103.7514621051385
 20
-148.4207424216621
 10
103.7695488564361
 20
-148.1583984004604
 10
103.7695488564361
 20
-148.1583984004604
 10
104.0001979991735
 20
-148.2092135588678
 10
104.0001979991735
 20
-148.2092135588678
 10
104.0160454384057
 20
-148.2133476734501
 10
104.0318928776378
 20
-148.2197211000978
 10
104.0318928776378
 20
-148.2366020679755
 10
104.0318928776378
 20
-148.2536552906275
 10
104.0272419987328
 20
-148.2557223479187
 10
103.9729817448401
 20
-148.276909685153
 10
103.9548949935425
 20
-148.353046295377
 10
103.9278509939833
 20
-148.4439968161876
 10
103.875830052156
 20
-148.570948584819
 10
103.875830052156
 20
-148.570948584819
 10
104.2375650781073
 20
-148.570948584819
 10
104.2375650781073
 20
-148.570948584819
 10
104.2782172048332
 20
-148.570948584819
 10
104.4161932790174
 20
-148.5666422154625
 10
104.4682142208447
 20
-148.5602687888148
 10
104.4682142208447
 20
-148.5602687888148
 10
104.5676052255942
 20
-148.6302042271653
 10
104.5676052255942
 20
-148.6302042271653
 10
104.5586479773325
 20
-148.6512193096254
 10
104.551757786362
 20
-148.6703395895685
 10
104.5360826019042
 20
-148.7063408373894
 97
        0
 97
        1
330
9E
 75
     2
 76
     1
 98
        1
 10
0.0
 20
0.0
450
        0
451
        0
460
0.0
461
0.0
452
        0
462
0.0
453
        0
470

  0
SPLINE
  5
A0
330
95
100
AcDbEntity
  8
レイヤー 1
100
AcDbSpline
210
0.0
220
0.0
230
1.0
 70
     9
 71
     3
 72
    74
 73
    70
 74
     0
 42
0.0000000001
 43
0.0000000001
 40
0.0
 40
0.0
 40
0.0
 40
0.0
 40
1.0
 40
1.0
 40
1.0
 40
2.0
 40
2.0
 40
2.0
 40
3.0
 40
3.0
 40
3.0
 40
4.0
 40
4.0
 40
4.0
 40
5.0
 40
5.0
 40
5.0
 40
6.0
 40
6.0
 40
6.0
 40
7.0
 40
7.0
 40
7.0
 40
8.0
 40
8.0
 40
8.0
 40
9.0
 40
9.0
 40
9.0
 40
10.0
 40
10.0
 40
10.0
 40
11.0
 40
11.0
 40
11.0
 40
12.0
 40
12.0
 40
12.0
 40
13.0
 40
13.0
 40
13.0
 40
14.0
 40
14.0
 40
14.0
 40
15.0
 40
15.0
 40
15.0
 40
16.0
 40
16.0
 40
16.0
 40
17.0
 40
17.0
 40
17.0
 40
18.0
 40
18.0
 40
18.0
 40
19.0
 40
19.0
 40
19.0
 40
20.0
 40
20.0
 40
20.0
 40
21.0
 40
21.0
 40
21.0
 40
22.0
 40
22.0
 40
22.0
 40
23.0
 40
23.0
 40
23.0
 40
23.0
 10
106.6308729117103
 20
-148.6090168899311
 30
0.0
 10
106.6308729117103
 20
-148.6090168899311
 30
0.0
 10
106.4589626469963
 20
-148.6090168899311
 30
0.0
 10
106.4589626469963
 20
-148.6090168899311
 30
0.0
 10
106.4589626469963
 20
-148.6090168899311
 30
0.0
 10
106.4589626469963
 20
-148.7232218052671
 30
0.0
 10
106.4589626469963
 20
-148.7232218052671
 30
0.0
 10
106.4589626469963
 20
-148.7633571676703
 30
0.0
 10
106.4658528379669
 20
-148.8374267206031
 30
0.0
 10
106.4703314620977
 20
-148.862920427194
 30
0.0
 10
106.4703314620977
 20
-148.862920427194
 30
0.0
 10
106.2443331982653
 20
-148.862920427194
 30
0.0
 10
106.2443331982653
 20
-148.862920427194
 30
0.0
 10
106.2557020133666
 20
-148.7972913582
 30
0.0
 10
106.2577690706578
 20
-148.7380357158537
 30
0.0
 10
106.2577690706578
 20
-148.7359686585625
 30
0.0
 10
106.2577690706578
 20
-148.7359686585625
 30
0.0
 10
106.2577690706578
 20
-148.6131510045133
 30
0.0
 10
106.2577690706578
 20
-148.6131510045133
 30
0.0
 10
106.2577690706578
 20
-148.6131510045133
 30
0.0
 10
106.0655327425808
 20
-148.6131510045133
 30
0.0
 10
106.0655327425808
 20
-148.6131510045133
 30
0.0
 10
106.0452066792178
 20
-148.6724066468597
 30
0.0
 10
105.9955973042302
 20
-148.8184786954342
 30
0.0
 10
105.8736409240524
 20
-148.9008164775317
 30
0.0
 10
105.8736409240524
 20
-148.9008164775317
 30
0.0
 10
105.7062092834693
 20
-148.7952243009088
 30
0.0
 10
105.7062092834693
 20
-148.7952243009088
 30
0.0
 10
105.78544647963
 20
-148.7485432570837
 30
0.0
 10
105.9098144266475
 20
-148.6746459589251
 30
0.0
 10
105.9098144266475
 20
-148.353046295377
 30
0.0
 10
105.9098144266475
 20
-148.297924767613
 30
0.0
 10
105.9049912929682
 20
-148.2536552906275
 30
0.0
 10
105.902924235677
 20
-148.2155869855155
 30
0.0
 10
105.9842284891289
 20
-148.2240274694544
 30
0.0
 10
106.0634656852897
 20
-148.2302286413278
 30
0.0
 10
106.1313340663491
 20
-148.2302286413278
 30
0.0
 10
106.3211588275864
 20
-148.2302286413278
 30
0.0
 10
106.5337212190263
 20
-148.1711452537558
 30
0.0
 10
106.599178033246
 20
-148.1415174325826
 30
0.0
 10
106.599178033246
 20
-148.1415174325826
 30
0.0
 10
106.7349147953649
 20
-148.276909685153
 30
0.0
 10
106.7349147953649
 20
-148.276909685153
 30
0.0
 10
106.7393934194957
 20
-148.2810437997353
 30
0.0
 10
106.7418049863354
 20
-148.2894842836741
 30
0.0
 10
106.7418049863354
 20
-148.2958577103218
 30
0.0
 10
106.7418049863354
 20
-148.3170450475561
 30
0.0
 10
106.7259575471032
 20
-148.3234184742038
 30
0.0
 10
106.7076985410314
 20
-148.3234184742038
 30
0.0
 10
106.6853054203773
 20
-148.3234184742038
 30
0.0
 10
106.6694579811451
 20
-148.314977990265
 30
0.0
 10
106.6491319177822
 20
-148.3042981942607
 30
0.0
 10
106.4634412711272
 20
-148.3614867793159
 30
0.0
 10
106.2305528163243
 20
-148.3868082311325
 30
0.0
 10
106.0882703727835
 20
-148.3890475431979
 30
0.0
 10
106.0882703727835
 20
-148.3890475431979
 30
0.0
 10
106.0837917486527
 20
-148.4715575800696
 30
0.0
 10
106.0837917486527
 20
-148.4715575800696
 30
0.0
 10
106.0837917486527
 20
-148.4715575800696
 30
0.0
 10
106.3752468267048
 20
-148.4715575800696
 30
0.0
 10
106.3752468267048
 20
-148.4715575800696
 30
0.0
 10
106.4365695263422
 20
-148.4715575800696
 30
0.0
 10
106.716655789293
 20
-148.4524373001265
 30
0.0
 10
106.7641981069895
 20
-148.4460638734788
 30
0.0
 10
106.7641981069895
 20
-148.4460638734788
 30
0.0
 10
106.7641981069895
 20
-148.6153903165788
 30
0.0
 10
106.7641981069895
 20
-148.6153903165788
 30
0.0
 10
106.7280246043944
 20
-148.6110839472222
 30
0.0
 10
106.7145887320019
 20
-148.6090168899311
 30
0.0
 10
106.6308729117103
 20
-148.6090168899311
 30
0.0
  0
SPLINE
  5
A1
330
95
100
AcDbEntity
  8
レイヤー 1
100
AcDbSpline
210
0.0
220
0.0
230
1.0
 70
    11
 71
     3
 72
    17
 73
    13
 74
     0
 42
0.0000000001
 43
0.0000000001
 40
0.0
 40
0.0
 40
0.0
 40
0.0
 40
1.0
 40
1.0
 40
1.0
 40
2.0
 40
2.0
 40
2.0
 40
3.0
 40
3.0
 40
3.0
 40
4.0
 40
4.0
 40
4.0
 40
4.0
 10
106.2918755159617
 20
-149.552628543341
 30
0.0
 10
106.2918755159617
 20
-149.552628543341
 30
0.0
 10
105.3172580031846
 20
-149.552628543341
 30
0.0
 10
105.3172580031846
 20
-149.552628543341
 30
0.0
 10
105.3172580031846
 20
-149.552628543341
 30
0.0
 10
105.3172580031846
 20
-149.6604600320293
 30
0.0
 10
105.3172580031846
 20
-149.6604600320293
 30
0.0
 10
105.3172580031846
 20
-149.6604600320293
 30
0.0
 10
106.2918755159617
 20
-149.6604600320293
 30
0.0
 10
106.2918755159617
 20
-149.6604600320293
 30
0.0
 10
106.2918755159617
 20
-149.6604600320293
 30
0.0
 10
106.2918755159617
 20
-149.552628543341
 30
0.0
 10
106.2918755159617
 20
-149.552628543341
 30
0.0
  0
SPLINE
  5
A2
330
95
100
AcDbEntity
  8
レイヤー 1
100
AcDbSpline
210
0.0
220
0.0
230
1.0
 70
    11
 71
     3
 72
    17
 73
    13
 74
     0
 42
0.0000000001
 43
0.0000000001
 40
0.0
 40
0.0
 40
0.0
 40
0.0
 40
1.0
 40
1.0
 40
1.0
 40
2.0
 40
2.0
 40
2.0
 40
3.0
 40
3.0
 40
3.0
 40
4.0
 40
4.0
 40
4.0
 40
4.0
 10
106.2918755159617
 20
-149.3069932352427
 30
0.0
 10
106.2918755159617
 20
-149.3069932352427
 30
0.0
 10
105.3172580031846
 20
-149.3069932352427
 30
0.0
 10
105.3172580031846
 20
-149.3069932352427
 30
0.0
 10
105.3172580031846
 20
-149.3069932352427
 30
0.0
 10
105.3172580031846
 20
-149.4172362907707
 30
0.0
 10
105.3172580031846
 20
-149.4172362907707
 30
0.0
 10
105.3172580031846
 20
-149.4172362907707
 30
0.0
 10
106.2918755159617
 20
-149.4172362907707
 30
0.0
 10
106.2918755159617
 20
-149.4172362907707
 30
0.0
 10
106.2918755159617
 20
-149.4172362907707
 30
0.0
 10
106.2918755159617
 20
-149.3069932352427
 30
0.0
 10
106.2918755159617
 20
-149.3069932352427
 30
0.0
  0
SPLINE
  5
A3
330
95
100
AcDbEntity
  8
レイヤー 1
100
AcDbSpline
210
0.0
220
0.0
230
1.0
 70
    11
 71
     3
 72
    17
 73
    13
 74
     0
 42
0.0000000001
 43
0.0000000001
 40
0.0
 40
0.0
 40
0.0
 40
0.0
 40
1.0
 40
1.0
 40
1.0
 40
2.0
 40
2.0
 40
2.0
 40
3.0
 40
3.0
 40
3.0
 40
4.0
 40
4.0
 40
4.0
 40
4.0
 10
106.2918755159617
 20
-149.0617024366929
 30
0.0
 10
106.2918755159617
 20
-149.0617024366929
 30
0.0
 10
105.3172580031846
 20
-149.0617024366929
 30
0.0
 10
105.3172580031846
 20
-149.0617024366929
 30
0.0
 10
105.3172580031846
 20
-149.0617024366929
 30
0.0
 10
105.3172580031846
 20
-149.1736680399635
 30
0.0
 10
105.3172580031846
 20
-149.1736680399635
 30
0.0
 10
105.3172580031846
 20
-149.1736680399635
 30
0.0
 10
106.2918755159617
 20
-149.1736680399635
 30
0.0
 10
106.2918755159617
 20
-149.1736680399635
 30
0.0
 10
106.2918755159617
 20
-149.1736680399635
 30
0.0
 10
106.2918755159617
 20
-149.0617024366929
 30
0.0
 10
106.2918755159617
 20
-149.0617024366929
 30
0.0
  0
SPLINE
  5
A4
330
95
100
AcDbEntity
  8
レイヤー 1
100
AcDbSpline
210
0.0
220
0.0
230
1.0
 70
     9
 71
     3
 72
    74
 73
    70
 74
     0
 42
0.0000000001
 43
0.0000000001
 40
0.0
 40
0.0
 40
0.0
 40
0.0
 40
1.0
 40
1.0
 40
1.0
 40
2.0
 40
2.0
 40
2.0
 40
3.0
 40
3.0
 40
3.0
 40
4.0
 40
4.0
 40
4.0
 40
5.0
 40
5.0
 40
5.0
 40
6.0
 40
6.0
 40
6.0
 40
7.0
 40
7.0
 40
7.0
 40
8.0
 40
8.0
 40
8.0
 40
9.0
 40
9.0
 40
9.0
 40
10.0
 40
10.0
 40
10.0
 40
11.0
 40
11.0
 40
11.0
 40
12.0
 40
12.0
 40
12.0
 40
13.0
 40
13.0
 40
13.0
 40
14.0
 40
14.0
 40
14.0
 40
15.0
 40
15.0
 40
15.0
 40
16.0
 40
16.0
 40
16.0
 40
17.0
 40
17.0
 40
17.0
 40
18.0
 40
18.0
 40
18.0
 40
19.0
 40
19.0
 40
19.0
 40
20.0
 40
20.0
 40
20.0
 40
21.0
 40
21.0
 40
21.0
 40
22.0
 40
22.0
 40
22.0
 40
23.0
 40
23.0
 40
23.0
 40
23.0
 10
106.6174370393178
 20
-150.0962646109134
 30
0.0
 10
106.3890272086458
 20
-150.0855848149091
 30
0.0
 10
106.1740532503662
 20
-149.9987684086808
 30
0.0
 10
105.9866400559686
 20
-149.8781900666971
 30
0.0
 10
105.9866400559686
 20
-149.8781900666971
 30
0.0
 10
106.0906819396231
 20
-149.7917181700174
 30
0.0
 10
106.0906819396231
 20
-149.7917181700174
 30
0.0
 10
106.0906819396231
 20
-149.7917181700174
 30
0.0
 10
105.5005370829998
 20
-149.7917181700174
 30
0.0
 10
105.5005370829998
 20
-149.7917181700174
 30
0.0
 10
105.5005370829998
 20
-149.7917181700174
 30
0.0
 10
105.5863199605826
 20
-149.8551079269459
 30
0.0
 10
105.5863199605826
 20
-149.8551079269459
 30
0.0
 10
105.5932101515531
 20
-149.8592420415282
 30
0.0
 10
105.6045789666544
 20
-149.8699218375325
 30
0.0
 10
105.6045789666544
 20
-149.8847357481191
 30
0.0
 10
105.6045789666544
 20
-149.924698855748
 30
0.0
 10
105.5253417704936
 20
-149.9184976838745
 30
0.0
 10
105.5094943312615
 20
-149.9164306265834
 30
0.0
 10
105.2629977492919
 20
-150.055956993736
 30
0.0
 10
105.1093464906497
 20
-150.0876518722003
 30
0.0
 10
104.9985866707989
 20
-150.104532840078
 30
0.0
 10
104.9985866707989
 20
-150.104532840078
 30
0.0
 10
104.8606105966147
 20
-149.9271104225877
 30
0.0
 10
104.8606105966147
 20
-149.9271104225877
 30
0.0
 10
105.1251939298819
 20
-149.8950710345748
 30
0.0
 10
105.2337144376672
 20
-149.8485622455239
 30
0.0
 10
105.3286268182859
 20
-149.7958522845996
 30
0.0
 10
105.2495618768994
 20
-149.7979193418908
 30
0.0
 10
105.1274332419473
 20
-149.7999863991819
 30
0.0
 10
105.0934990514176
 20
-149.8020534564731
 30
0.0
 10
105.1093464906497
 20
-149.7131699929536
 30
0.0
 10
105.1115858027152
 20
-149.5843234218053
 30
0.0
 10
105.1115858027152
 20
-149.5102538688724
 30
0.0
 10
105.1115858027152
 20
-149.5102538688724
 30
0.0
 10
105.1115858027152
 20
-149.2098415425586
 30
0.0
 10
105.1115858027152
 20
-149.2098415425586
 30
0.0
 10
105.1115858027152
 20
-149.1102782830349
 30
0.0
 10
105.1048678665189
 20
-149.0110595330597
 30
0.0
 10
105.0934990514176
 20
-148.9135633308271
 30
0.0
 10
105.2020195592029
 20
-148.9201090122491
 30
0.0
 10
105.4485161411726
 20
-148.9263101841226
 30
0.0
 10
105.5639268399285
 20
-148.9263101841226
 30
0.0
 10
105.5639268399285
 20
-148.9263101841226
 30
0.0
 10
106.0159233675932
 20
-148.9263101841226
 30
0.0
 10
106.0159233675932
 20
-148.9263101841226
 30
0.0
 10
106.1427028814504
 20
-148.9263101841226
 30
0.0
 10
106.1878336323072
 20
-148.9263101841226
 30
0.0
 10
106.2760280767296
 20
-148.9221760695403
 30
0.0
 10
106.4341579595025
 20
-148.9156303881183
 30
0.0
 10
106.4524169655744
 20
-148.9156303881183
 30
0.0
 10
106.502026340562
 20
-148.9135633308271
 30
0.0
 10
106.4930690923003
 20
-148.994178565182
 30
0.0
 10
106.4885904681695
 20
-149.1526529575035
 30
0.0
 10
106.4885904681695
 20
-149.2353352491495
 30
0.0
 10
106.4885904681695
 20
-149.2353352491495
 30
0.0
 10
106.4885904681695
 20
-149.5209336648767
 30
0.0
 10
106.4885904681695
 20
-149.5209336648767
 30
0.0
 10
106.4885904681695
 20
-149.5925916509699
 30
0.0
 10
106.4906575254606
 20
-149.7238497889579
 30
0.0
 10
106.502026340562
 20
-149.8020534564731
 30
0.0
 10
106.4252007112409
 20
-149.7979193418908
 30
0.0
 10
106.2939425732529
 20
-149.7958522845996
 30
0.0
 10
106.2102267529613
 20
-149.7937852273085
 30
0.0
 10
106.3280490185569
 20
-149.8613090988194
 30
0.0
 10
106.4906575254606
 20
-149.9122965120011
 30
0.0
 10
106.716655789293
 20
-149.9164306265834
 30
0.0
 10
106.716655789293
 20
-149.9164306265834
 30
0.0
 10
106.6174370393178
 20
-150.0962646109134
 30
0.0
 10
106.6174370393178
 20
-150.0962646109134
 30
0.0
  0
SPLINE
  5
A5
330
95
100
AcDbEntity
  8
レイヤー 1
100
AcDbSpline
210
0.0
220
0.0
230
1.0
 70
    11
 71
     3
 72
    71
 73
    67
 74
     0
 42
0.0000000001
 43
0.0000000001
 40
0.0
 40
0.0
 40
0.0
 40
0.0
 40
1.0
 40
1.0
 40
1.0
 40
2.0
 40
2.0
 40
2.0
 40
3.0
 40
3.0
 40
3.0
 40
4.0
 40
4.0
 40
4.0
 40
5.0
 40
5.0
 40
5.0
 40
6.0
 40
6.0
 40
6.0
 40
7.0
 40
7.0
 40
7.0
 40
8.0
 40
8.0
 40
8.0
 40
9.0
 40
9.0
 40
9.0
 40
10.0
 40
10.0
 40
10.0
 40
11.0
 40
11.0
 40
11.0
 40
12.0
 40
12.0
 40
12.0
 40
13.0
 40
13.0
 40
13.0
 40
14.0
 40
14.0
 40
14.0
 40
15.0
 40
15.0
 40
15.0
 40
16.0
 40
16.0
 40
16.0
 40
17.0
 40
17.0
 40
17.0
 40
18.0
 40
18.0
 40
18.0
 40
19.0
 40
19.0
 40
19.0
 40
20.0
 40
20.0
 40
20.0
 40
21.0
 40
21.0
 40
21.0
 40
22.0
 40
22.0
 40
22.0
 40
22.0
 10
105.7220567227014
 20
-148.3297919008515
 30
0.0
 10
105.7062092834693
 20
-148.3297919008515
 30
0.0
 10
105.6927734110768
 20
-148.325485531495
 30
0.0
 10
105.6655571567433
 20
-148.3170450475561
 30
0.0
 10
105.5139729553923
 20
-148.363553836607
 30
0.0
 10
105.3286268182859
 20
-148.3804348044847
 30
0.0
 10
105.1794541837746
 20
-148.3847411738413
 30
0.0
 10
105.1794541837746
 20
-148.3847411738413
 30
0.0
 10
105.1772148717091
 20
-148.4736246373607
 30
0.0
 10
105.1772148717091
 20
-148.4736246373607
 30
0.0
 10
105.1772148717091
 20
-148.4736246373607
 30
0.0
 10
105.4552340773688
 20
-148.4736246373607
 30
0.0
 10
105.4552340773688
 20
-148.4736246373607
 30
0.0
 10
105.5119058981012
 20
-148.4736246373607
 30
0.0
 10
105.7062092834693
 20
-148.4651841534219
 30
0.0
 10
105.7537516011657
 20
-148.4588107267742
 30
0.0
 10
105.7537516011657
 20
-148.4588107267742
 30
0.0
 10
105.7537516011657
 20
-148.6195244311611
 30
0.0
 10
105.7537516011657
 20
-148.6195244311611
 30
0.0
 10
105.6948404683679
 20
-148.6131510045133
 30
0.0
 10
105.5615152730888
 20
-148.6110839472222
 30
0.0
 10
105.5208631463628
 20
-148.6131510045133
 30
0.0
 10
105.5208631463628
 20
-148.6131510045133
 30
0.0
 10
105.5208631463628
 20
-148.7232218052671
 30
0.0
 10
105.5208631463628
 20
-148.7232218052671
 30
0.0
 10
105.5208631463628
 20
-148.769730594318
 30
0.0
 10
105.522930203654
 20
-148.8332926060208
 30
0.0
 10
105.5298203946245
 20
-148.8713609111328
 30
0.0
 10
105.5298203946245
 20
-148.8713609111328
 30
0.0
 10
105.3241481941551
 20
-148.8713609111328
 30
0.0
 10
105.3241481941551
 20
-148.8713609111328
 30
0.0
 10
105.3308661303513
 20
-148.8310532939554
 30
0.0
 10
105.3377563213218
 20
-148.7485432570837
 30
0.0
 10
105.3377563213218
 20
-148.7337293464971
 30
0.0
 10
105.3377563213218
 20
-148.7337293464971
 30
0.0
 10
105.3377563213218
 20
-148.6131510045133
 30
0.0
 10
105.3377563213218
 20
-148.6131510045133
 30
0.0
 10
105.3377563213218
 20
-148.6131510045133
 30
0.0
 10
105.161367432477
 20
-148.6131510045133
 30
0.0
 10
105.161367432477
 20
-148.6131510045133
 30
0.0
 10
105.116064426846
 20
-148.8332926060208
 30
0.0
 10
105.0573255488224
 20
-148.9135633308271
 30
0.0
 10
104.9443264169062
 20
-149.0131265903509
 30
0.0
 10
104.9443264169062
 20
-149.0131265903509
 30
0.0
 10
104.7656982159961
 20
-148.8987494202406
 30
0.0
 10
104.7656982159961
 20
-148.8987494202406
 30
0.0
 10
104.8335665970555
 20
-148.8501735738986
 30
0.0
 10
104.9941080466681
 20
-148.7380357158537
 30
0.0
 10
104.9941080466681
 20
-148.3890475431979
 30
0.0
 10
104.9941080466681
 20
-148.3065375063261
 30
0.0
 10
104.9849785436322
 20
-148.259856462501
 30
0.0
 10
104.9760212953706
 20
-148.211280616159
 30
0.0
 10
105.1319118660781
 20
-148.2260945267455
 30
0.0
 10
105.1477593053103
 20
-148.2260945267455
 30
0.0
 10
105.1861721199708
 20
-148.2260945267455
 30
0.0
 10
105.3015828187267
 20
-148.2260945267455
 30
0.0
 10
105.4529947653034
 20
-148.2092135588678
 30
0.0
 10
105.6249050300174
 20
-148.1477186044561
 30
0.0
 10
105.6249050300174
 20
-148.1477186044561
 30
0.0
 10
105.7468614101952
 20
-148.2789767424441
 30
0.0
 10
105.7468614101952
 20
-148.2789767424441
 30
0.0
 10
105.7537516011657
 20
-148.2853501690918
 30
0.0
 10
105.7582302252965
 20
-148.2937906530307
 30
0.0
 10
105.7582302252965
 20
-148.3022311369696
 30
0.0
 10
105.7582302252965
 20
-148.325485531495
 30
0.0
 10
105.7379041619336
 20
-148.3297919008515
 30
0.0
 10
105.7220567227014
 20
-148.3297919008515
 30
0.0
  0
HATCH
  5
A6
330
95
100
AcDbEntity
  8
レイヤー 1
 62
   250
420
  2299925
440
 33554687
100
AcDbHatch
 10
0.0
 20
0.0
 30
0.0
210
0.0
220
0.0
230
1.0
  2
SOLID
 70
     1
 71
     1
 91
        6
 92
        1
 93
        1
 72
     4
 94
        3
 73
     0
 74
     0
 95
       74
 96
       70
 40
0.0
 40
0.0
 40
0.0
 40
0.0
 40
1.0
 40
1.0
 40
1.0
 40
2.0
 40
2.0
 40
2.0
 40
3.0
 40
3.0
 40
3.0
 40
4.0
 40
4.0
 40
4.0
 40
5.0
 40
5.0
 40
5.0
 40
6.0
 40
6.0
 40
6.0
 40
7.0
 40
7.0
 40
7.0
 40
8.0
 40
8.0
 40
8.0
 40
9.0
 40
9.0
 40
9.0
 40
10.0
 40
10.0
 40
10.0
 40
11.0
 40
11.0
 40
11.0
 40
12.0
 40
12.0
 40
12.0
 40
13.0
 40
13.0
 40
13.0
 40
14.0
 40
14.0
 40
14.0
 40
15.0
 40
15.0
 40
15.0
 40
16.0
 40
16.0
 40
16.0
 40
17.0
 40
17.0
 40
17.0
 40
18.0
 40
18.0
 40
18.0
 40
19.0
 40
19.0
 40
19.0
 40
20.0
 40
20.0
 40
20.0
 40
21.0
 40
21.0
 40
21.0
 40
22.0
 40
22.0
 40
22.0
 40
23.0
 40
23.0
 40
23.0
 40
23.0
 10
106.6308729117103
 20
-148.6090168899311
 10
106.6308729117103
 20
-148.6090168899311
 10
106.4589626469963
 20
-148.6090168899311
 10
106.4589626469963
 20
-148.6090168899311
 10
106.4589626469963
 20
-148.6090168899311
 10
106.4589626469963
 20
-148.7232218052671
 10
106.4589626469963
 20
-148.7232218052671
 10
106.4589626469963
 20
-148.7633571676703
 10
106.4658528379669
 20
-148.8374267206031
 10
106.4703314620977
 20
-148.862920427194
 10
106.4703314620977
 20
-148.862920427194
 10
106.2443331982653
 20
-148.862920427194
 10
106.2443331982653
 20
-148.862920427194
 10
106.2557020133666
 20
-148.7972913582
 10
106.2577690706578
 20
-148.7380357158537
 10
106.2577690706578
 20
-148.7359686585625
 10
106.2577690706578
 20
-148.7359686585625
 10
106.2577690706578
 20
-148.6131510045133
 10
106.2577690706578
 20
-148.6131510045133
 10
106.2577690706578
 20
-148.6131510045133
 10
106.0655327425808
 20
-148.6131510045133
 10
106.0655327425808
 20
-148.6131510045133
 10
106.0452066792178
 20
-148.6724066468597
 10
105.9955973042302
 20
-148.8184786954342
 10
105.8736409240524
 20
-148.9008164775317
 10
105.8736409240524
 20
-148.9008164775317
 10
105.7062092834693
 20
-148.7952243009088
 10
105.7062092834693
 20
-148.7952243009088
 10
105.78544647963
 20
-148.7485432570837
 10
105.9098144266475
 20
-148.6746459589251
 10
105.9098144266475
 20
-148.353046295377
 10
105.9098144266475
 20
-148.297924767613
 10
105.9049912929682
 20
-148.2536552906275
 10
105.902924235677
 20
-148.2155869855155
 10
105.9842284891289
 20
-148.2240274694544
 10
106.0634656852897
 20
-148.2302286413278
 10
106.1313340663491
 20
-148.2302286413278
 10
106.3211588275864
 20
-148.2302286413278
 10
106.5337212190263
 20
-148.1711452537558
 10
106.599178033246
 20
-148.1415174325826
 10
106.599178033246
 20
-148.1415174325826
 10
106.7349147953649
 20
-148.276909685153
 10
106.7349147953649
 20
-148.276909685153
 10
106.7393934194957
 20
-148.2810437997353
 10
106.7418049863354
 20
-148.2894842836741
 10
106.7418049863354
 20
-148.2958577103218
 10
106.7418049863354
 20
-148.3170450475561
 10
106.7259575471032
 20
-148.3234184742038
 10
106.7076985410314
 20
-148.3234184742038
 10
106.6853054203773
 20
-148.3234184742038
 10
106.6694579811451
 20
-148.314977990265
 10
106.6491319177822
 20
-148.3042981942607
 10
106.4634412711272
 20
-148.3614867793159
 10
106.2305528163243
 20
-148.3868082311325
 10
106.0882703727835
 20
-148.3890475431979
 10
106.0882703727835
 20
-148.3890475431979
 10
106.0837917486527
 20
-148.4715575800696
 10
106.0837917486527
 20
-148.4715575800696
 10
106.0837917486527
 20
-148.4715575800696
 10
106.3752468267048
 20
-148.4715575800696
 10
106.3752468267048
 20
-148.4715575800696
 10
106.4365695263422
 20
-148.4715575800696
 10
106.716655789293
 20
-148.4524373001265
 10
106.7641981069895
 20
-148.4460638734788
 10
106.7641981069895
 20
-148.4460638734788
 10
106.7641981069895
 20
-148.6153903165788
 10
106.7641981069895
 20
-148.6153903165788
 10
106.7280246043944
 20
-148.6110839472222
 10
106.7145887320019
 20
-148.6090168899311
 10
106.6308729117103
 20
-148.6090168899311
 97
        0
 97
        1
330
A0
 92
        1
 93
        1
 72
     4
 94
        3
 73
     0
 74
     0
 95
       17
 96
       13
 40
0.0
 40
0.0
 40
0.0
 40
0.0
 40
1.0
 40
1.0
 40
1.0
 40
2.0
 40
2.0
 40
2.0
 40
3.0
 40
3.0
 40
3.0
 40
4.0
 40
4.0
 40
4.0
 40
4.0
 10
106.2918755159617
 20
-149.552628543341
 10
106.2918755159617
 20
-149.552628543341
 10
105.3172580031846
 20
-149.552628543341
 10
105.3172580031846
 20
-149.552628543341
 10
105.3172580031846
 20
-149.552628543341
 10
105.3172580031846
 20
-149.6604600320293
 10
105.3172580031846
 20
-149.6604600320293
 10
105.3172580031846
 20
-149.6604600320293
 10
106.2918755159617
 20
-149.6604600320293
 10
106.2918755159617
 20
-149.6604600320293
 10
106.2918755159617
 20
-149.6604600320293
 10
106.2918755159617
 20
-149.552628543341
 10
106.2918755159617
 20
-149.552628543341
 97
        0
 97
        1
330
A1
 92
        1
 93
        1
 72
     4
 94
        3
 73
     0
 74
     0
 95
       17
 96
       13
 40
0.0
 40
0.0
 40
0.0
 40
0.0
 40
1.0
 40
1.0
 40
1.0
 40
2.0
 40
2.0
 40
2.0
 40
3.0
 40
3.0
 40
3.0
 40
4.0
 40
4.0
 40
4.0
 40
4.0
 10
106.2918755159617
 20
-149.3069932352427
 10
106.2918755159617
 20
-149.3069932352427
 10
105.3172580031846
 20
-149.3069932352427
 10
105.3172580031846
 20
-149.3069932352427
 10
105.3172580031846
 20
-149.3069932352427
 10
105.3172580031846
 20
-149.4172362907707
 10
105.3172580031846
 20
-149.4172362907707
 10
105.3172580031846
 20
-149.4172362907707
 10
106.2918755159617
 20
-149.4172362907707
 10
106.2918755159617
 20
-149.4172362907707
 10
106.2918755159617
 20
-149.4172362907707
 10
106.2918755159617
 20
-149.3069932352427
 10
106.2918755159617
 20
-149.3069932352427
 97
        0
 97
        1
330
A2
 92
        1
 93
        1
 72
     4
 94
        3
 73
     0
 74
     0
 95
       17
 96
       13
 40
0.0
 40
0.0
 40
0.0
 40
0.0
 40
1.0
 40
1.0
 40
1.0
 40
2.0
 40
2.0
 40
2.0
 40
3.0
 40
3.0
 40
3.0
 40
4.0
 40
4.0
 40
4.0
 40
4.0
 10
106.2918755159617
 20
-149.0617024366929
 10
106.2918755159617
 20
-149.0617024366929
 10
105.3172580031846
 20
-149.0617024366929
 10
105.3172580031846
 20
-149.0617024366929
 10
105.3172580031846
 20
-149.0617024366929
 10
105.3172580031846
 20
-149.1736680399635
 10
105.3172580031846
 20
-149.1736680399635
 10
105.3172580031846
 20
-149.1736680399635
 10
106.2918755159617
 20
-149.1736680399635
 10
106.2918755159617
 20
-149.1736680399635
 10
106.2918755159617
 20
-149.1736680399635
 10
106.2918755159617
 20
-149.0617024366929
 10
106.2918755159617
 20
-149.0617024366929
 97
        0
 97
        1
330
A3
 92
        1
 93
        1
 72
     4
 94
        3
 73
     0
 74
     0
 95
       74
 96
       70
 40
0.0
 40
0.0
 40
0.0
 40
0.0
 40
1.0
 40
1.0
 40
1.0
 40
2.0
 40
2.0
 40
2.0
 40
3.0
 40
3.0
 40
3.0
 40
4.0
 40
4.0
 40
4.0
 40
5.0
 40
5.0
 40
5.0
 40
6.0
 40
6.0
 40
6.0
 40
7.0
 40
7.0
 40
7.0
 40
8.0
 40
8.0
 40
8.0
 40
9.0
 40
9.0
 40
9.0
 40
10.0
 40
10.0
 40
10.0
 40
11.0
 40
11.0
 40
11.0
 40
12.0
 40
12.0
 40
12.0
 40
13.0
 40
13.0
 40
13.0
 40
14.0
 40
14.0
 40
14.0
 40
15.0
 40
15.0
 40
15.0
 40
16.0
 40
16.0
 40
16.0
 40
17.0
 40
17.0
 40
17.0
 40
18.0
 40
18.0
 40
18.0
 40
19.0
 40
19.0
 40
19.0
 40
20.0
 40
20.0
 40
20.0
 40
21.0
 40
21.0
 40
21.0
 40
22.0
 40
22.0
 40
22.0
 40
23.0
 40
23.0
 40
23.0
 40
23.0
 10
106.6174370393178
 20
-150.0962646109134
 10
106.3890272086458
 20
-150.0855848149091
 10
106.1740532503662
 20
-149.9987684086808
 10
105.9866400559686
 20
-149.8781900666971
 10
105.9866400559686
 20
-149.8781900666971
 10
106.0906819396231
 20
-149.7917181700174
 10
106.0906819396231
 20
-149.7917181700174
 10
106.0906819396231
 20
-149.7917181700174
 10
105.5005370829998
 20
-149.7917181700174
 10
105.5005370829998
 20
-149.7917181700174
 10
105.5005370829998
 20
-149.7917181700174
 10
105.5863199605826
 20
-149.8551079269459
 10
105.5863199605826
 20
-149.8551079269459
 10
105.5932101515531
 20
-149.8592420415282
 10
105.6045789666544
 20
-149.8699218375325
 10
105.6045789666544
 20
-149.8847357481191
 10
105.6045789666544
 20
-149.924698855748
 10
105.5253417704936
 20
-149.9184976838745
 10
105.5094943312615
 20
-149.9164306265834
 10
105.2629977492919
 20
-150.055956993736
 10
105.1093464906497
 20
-150.0876518722003
 10
104.9985866707989
 20
-150.104532840078
 10
104.9985866707989
 20
-150.104532840078
 10
104.8606105966147
 20
-149.9271104225877
 10
104.8606105966147
 20
-149.9271104225877
 10
105.1251939298819
 20
-149.8950710345748
 10
105.2337144376672
 20
-149.8485622455239
 10
105.3286268182859
 20
-149.7958522845996
 10
105.2495618768994
 20
-149.7979193418908
 10
105.1274332419473
 20
-149.7999863991819
 10
105.0934990514176
 20
-149.8020534564731
 10
105.1093464906497
 20
-149.7131699929536
 10
105.1115858027152
 20
-149.5843234218053
 10
105.1115858027152
 20
-149.5102538688724
 10
105.1115858027152
 20
-149.5102538688724
 10
105.1115858027152
 20
-149.2098415425586
 10
105.1115858027152
 20
-149.2098415425586
 10
105.1115858027152
 20
-149.1102782830349
 10
105.1048678665189
 20
-149.0110595330597
 10
105.0934990514176
 20
-148.9135633308271
 10
105.2020195592029
 20
-148.9201090122491
 10
105.4485161411726
 20
-148.9263101841226
 10
105.5639268399285
 20
-148.9263101841226
 10
105.5639268399285
 20
-148.9263101841226
 10
106.0159233675932
 20
-148.9263101841226
 10
106.0159233675932
 20
-148.9263101841226
 10
106.1427028814504
 20
-148.9263101841226
 10
106.1878336323072
 20
-148.9263101841226
 10
106.2760280767296
 20
-148.9221760695403
 10
106.4341579595025
 20
-148.9156303881183
 10
106.4524169655744
 20
-148.9156303881183
 10
106.502026340562
 20
-148.9135633308271
 10
106.4930690923003
 20
-148.994178565182
 10
106.4885904681695
 20
-149.1526529575035
 10
106.4885904681695
 20
-149.2353352491495
 10
106.4885904681695
 20
-149.2353352491495
 10
106.4885904681695
 20
-149.5209336648767
 10
106.4885904681695
 20
-149.5209336648767
 10
106.4885904681695
 20
-149.5925916509699
 10
106.4906575254606
 20
-149.7238497889579
 10
106.502026340562
 20
-149.8020534564731
 10
106.4252007112409
 20
-149.7979193418908
 10
106.2939425732529
 20
-149.7958522845996
 10
106.2102267529613
 20
-149.7937852273085
 10
106.3280490185569
 20
-149.8613090988194
 10
106.4906575254606
 20
-149.9122965120011
 10
106.716655789293
 20
-149.9164306265834
 10
106.716655789293
 20
-149.9164306265834
 10
106.6174370393178
 20
-150.0962646109134
 10
106.6174370393178
 20
-150.0962646109134
 97
        0
 97
        1
330
A4
 92
        1
 93
        1
 72
     4
 94
        3
 73
     0
 74
     0
 95
       71
 96
       67
 40
0.0
 40
0.0
 40
0.0
 40
0.0
 40
1.0
 40
1.0
 40
1.0
 40
2.0
 40
2.0
 40
2.0
 40
3.0
 40
3.0
 40
3.0
 40
4.0
 40
4.0
 40
4.0
 40
5.0
 40
5.0
 40
5.0
 40
6.0
 40
6.0
 40
6.0
 40
7.0
 40
7.0
 40
7.0
 40
8.0
 40
8.0
 40
8.0
 40
9.0
 40
9.0
 40
9.0
 40
10.0
 40
10.0
 40
10.0
 40
11.0
 40
11.0
 40
11.0
 40
12.0
 40
12.0
 40
12.0
 40
13.0
 40
13.0
 40
13.0
 40
14.0
 40
14.0
 40
14.0
 40
15.0
 40
15.0
 40
15.0
 40
16.0
 40
16.0
 40
16.0
 40
17.0
 40
17.0
 40
17.0
 40
18.0
 40
18.0
 40
18.0
 40
19.0
 40
19.0
 40
19.0
 40
20.0
 40
20.0
 40
20.0
 40
21.0
 40
21.0
 40
21.0
 40
22.0
 40
22.0
 40
22.0
 40
22.0
 10
105.7220567227014
 20
-148.3297919008515
 10
105.7062092834693
 20
-148.3297919008515
 10
105.6927734110768
 20
-148.325485531495
 10
105.6655571567433
 20
-148.3170450475561
 10
105.5139729553923
 20
-148.363553836607
 10
105.3286268182859
 20
-148.3804348044847
 10
105.1794541837746
 20
-148.3847411738413
 10
105.1794541837746
 20
-148.3847411738413
 10
105.1772148717091
 20
-148.4736246373607
 10
105.1772148717091
 20
-148.4736246373607
 10
105.1772148717091
 20
-148.4736246373607
 10
105.4552340773688
 20
-148.4736246373607
 10
105.4552340773688
 20
-148.4736246373607
 10
105.5119058981012
 20
-148.4736246373607
 10
105.7062092834693
 20
-148.4651841534219
 10
105.7537516011657
 20
-148.4588107267742
 10
105.7537516011657
 20
-148.4588107267742
 10
105.7537516011657
 20
-148.6195244311611
 10
105.7537516011657
 20
-148.6195244311611
 10
105.6948404683679
 20
-148.6131510045133
 10
105.5615152730888
 20
-148.6110839472222
 10
105.5208631463628
 20
-148.6131510045133
 10
105.5208631463628
 20
-148.6131510045133
 10
105.5208631463628
 20
-148.7232218052671
 10
105.5208631463628
 20
-148.7232218052671
 10
105.5208631463628
 20
-148.769730594318
 10
105.522930203654
 20
-148.8332926060208
 10
105.5298203946245
 20
-148.8713609111328
 10
105.5298203946245
 20
-148.8713609111328
 10
105.3241481941551
 20
-148.8713609111328
 10
105.3241481941551
 20
-148.8713609111328
 10
105.3308661303513
 20
-148.8310532939554
 10
105.3377563213218
 20
-148.7485432570837
 10
105.3377563213218
 20
-148.7337293464971
 10
105.3377563213218
 20
-148.7337293464971
 10
105.3377563213218
 20
-148.6131510045133
 10
105.3377563213218
 20
-148.6131510045133
 10
105.3377563213218
 20
-148.6131510045133
 10
105.161367432477
 20
-148.6131510045133
 10
105.161367432477
 20
-148.6131510045133
 10
105.116064426846
 20
-148.8332926060208
 10
105.0573255488224
 20
-148.9135633308271
 10
104.9443264169062
 20
-149.0131265903509
 10
104.9443264169062
 20
-149.0131265903509
 10
104.7656982159961
 20
-148.8987494202406
 10
104.7656982159961
 20
-148.8987494202406
 10
104.8335665970555
 20
-148.8501735738986
 10
104.9941080466681
 20
-148.7380357158537
 10
104.9941080466681
 20
-148.3890475431979
 10
104.9941080466681
 20
-148.3065375063261
 10
104.9849785436322
 20
-148.259856462501
 10
104.9760212953706
 20
-148.211280616159
 10
105.1319118660781
 20
-148.2260945267455
 10
105.1477593053103
 20
-148.2260945267455
 10
105.1861721199708
 20
-148.2260945267455
 10
105.3015828187267
 20
-148.2260945267455
 10
105.4529947653034
 20
-148.2092135588678
 10
105.6249050300174
 20
-148.1477186044561
 10
105.6249050300174
 20
-148.1477186044561
 10
105.7468614101952
 20
-148.2789767424441
 10
105.7468614101952
 20
-148.2789767424441
 10
105.7537516011657
 20
-148.2853501690918
 10
105.7582302252965
 20
-148.2937906530307
 10
105.7582302252965
 20
-148.3022311369696
 10
105.7582302252965
 20
-148.325485531495
 10
105.7379041619336
 20
-148.3297919008515
 10
105.7220567227014
 20
-148.3297919008515
 97
        0
 97
        1
330
A5
 75
     2
 76
     1
 98
        1
 10
0.0
 20
0.0
450
        0
451
        0
460
0.0
461
0.0
452
        0
462
0.0
453
        0
470

  0
ENDBLK
  5
98
330
95
100
AcDbEntity
  8
0
100
AcDbBlockEnd
  0
BLOCK
  5
A9
330
A7
100
AcDbEntity
  8
0
100
AcDbBlockBegin
  2
Block_3
 70
     0
 10
0.0
 20
0.0
 30
0.0
  3
Block_3
  1

  0
LINE
  5
AB
330
A7
100
AcDbEntity
  8
レイヤー 1
 62
   250
420
  2299925
370
     9
100
AcDbLine
 10
97.10217150280762
 20
-136.7759652233702
 30
0.0
 11
75.10196247015842
 21
-136.7759652233702
 31
0.0
  0
LINE
  5
AC
330
A7
100
AcDbEntity
  8
レイヤー 1
 62
   250
420
  2299925
370
     9
100
AcDbLine
 10
97.10217150280762
 20
-138.2360119152265
 30
0.0
 11
97.10217150280762
 21
-135.7758808668785
 31
0.0
  0
LINE
  5
AD
330
A7
100
AcDbEntity
  8
レイヤー 1
 62
   250
420
  2299925
370
     9
100
AcDbLine
 10
75.10196247015842
 20
-138.2360119152265
 30
0.0
 11
75.10196247015842
 21
-135.7758808668785
 31
0.0
  0
INSERT
  5
AF
330
A7
100
AcDbEntity
  8
レイヤー 1
100
AcDbBlockReference
  2
Block_4
 10
0.0
 20
0.0
 30
0.0
  0
SPLINE
  5
BA
330
A7
100
AcDbEntity
  8
レイヤー 1
 62
   250
420
  2299925
370
     9
100
AcDbSpline
210
0.0
220
0.0
230
1.0
 70
     9
 71
     3
 72
    17
 73
    13
 74
     0
 42
0.0000000001
 43
0.0000000001
 40
0.0
 40
0.0
 40
0.0
 40
0.0
 40
1.0
 40
1.0
 40
1.0
 40
2.0
 40
2.0
 40
2.0
 40
3.0
 40
3.0
 40
3.0
 40
4.0
 40
4.0
 40
4.0
 40
4.0
 10
75.13780469237167
 20
-136.7759652233702
 30
0.0
 10
75.13780469237167
 20
-136.7956202853076
 30
0.0
 10
75.12196497015345
 20
-136.8111425071335
 30
0.0
 10
75.10196247015842
 20
-136.8111425071335
 30
0.0
 10
75.08266552571827
 20
-136.8111425071335
 30
0.0
 10
75.06682580350037
 20
-136.7956202853076
 30
0.0
 10
75.06682580350037
 20
-136.7759652233702
 30
0.0
 10
75.06682580350037
 20
-136.7563561196423
 30
0.0
 10
75.08266552571827
 20
-136.7408338978158
 30
0.0
 10
75.10196247015842
 20
-136.7408338978158
 30
0.0
 10
75.12196497015345
 20
-136.7408338978158
 30
0.0
 10
75.13780469237167
 20
-136.7563561196423
 30
0.0
 10
75.13780469237167
 20
-136.7759652233702
 30
0.0
  0
ENDBLK
  5
AA
330
A7
100
AcDbEntity
  8
0
100
AcDbBlockEnd
  0
BLOCK
  5
B0
330
AE
100
AcDbEntity
  8
0
100
AcDbBlockBegin
  2
Block_4
 70
     0
 10
0.0
 20
0.0
 30
0.0
  3
Block_4
  1

  0
INSERT
  5
B3
330
AE
100
AcDbEntity
  8
レイヤー 1
100
AcDbBlockReference
  2
Block_5
 10
0.0
 20
0.0
 30
0.0
  0
ENDBLK
  5
B1
330
AE
100
AcDbEntity
  8
0
100
AcDbBlockEnd
  0
BLOCK
  5
B4
330
B2
100
AcDbEntity
  8
0
100
AcDbBlockBegin
  2
Block_5
 70
     0
 10
0.0
 20
0.0
 30
0.0
  3
Block_5
  1

  0
SPLINE
  5
B6
330
B2
100
AcDbEntity
  8
レイヤー 1
100
AcDbSpline
210
0.0
220
0.0
230
1.0
 70
     9
 71
     3
 72
    44
 73
    40
 74
     0
 42
0.0000000001
 43
0.0000000001
 40
0.0
 40
0.0
 40
0.0
 40
0.0
 40
1.0
 40
1.0
 40
1.0
 40
2.0
 40
2.0
 40
2.0
 40
3.0
 40
3.0
 40
3.0
 40
4.0
 40
4.0
 40
4.0
 40
5.0
 40
5.0
 40
5.0
 40
6.0
 40
6.0
 40
6.0
 40
7.0
 40
7.0
 40
7.0
 40
8.0
 40
8.0
 40
8.0
 40
9.0
 40
9.0
 40
9.0
 40
10.0
 40
10.0
 40
10.0
 40
11.0
 40
11.0
 40
11.0
 40
12.0
 40
12.0
 40
12.0
 40
13.0
 40
13.0
 40
13.0
 40
13.0
 10
85.57255450334645
 20
-135.8213392130064
 30
0.0
 10
85.33966604854356
 20
-135.9799858601022
 30
0.0
 10
85.24027504379409
 20
-136.0540554130351
 30
0.0
 10
85.18825410196683
 20
-136.1978881495443
 30
0.0
 10
85.18825410196683
 20
-136.1978881495443
 30
0.0
 10
86.02024466165465
 20
-136.1978881495443
 30
0.0
 10
86.02024466165465
 20
-136.1978881495443
 30
0.0
 10
86.02024466165465
 20
-136.1978881495443
 30
0.0
 10
86.02024466165465
 20
-136.4030435856909
 30
0.0
 10
86.02024466165465
 20
-136.4030435856909
 30
0.0
 10
86.02024466165465
 20
-136.4030435856909
 30
0.0
 10
84.92143145663423
 20
-136.4030435856909
 30
0.0
 10
84.92143145663423
 20
-136.4030435856909
 30
0.0
 10
84.95536564716394
 20
-136.0456149290962
 30
0.0
 10
85.02547334028877
 20
-135.9672390068068
 30
0.0
 10
85.43681774122759
 20
-135.6690659925584
 30
0.0
 10
85.7105305775307
 20
-135.4701117282852
 30
0.0
 10
85.78046601588127
 20
-135.4024156020001
 30
0.0
 10
85.78046601588127
 20
-135.2649562921386
 30
0.0
 10
85.78046601588127
 20
-135.146445007446
 30
0.0
 10
85.70364038656022
 20
-135.0153591242323
 30
0.0
 10
85.49348956195997
 20
-135.0153591242323
 30
0.0
 10
85.21529810152605
 20
-135.0153591242323
 30
0.0
 10
85.2063408532644
 20
-135.2458360121955
 30
0.0
 10
85.20168997435929
 20
-135.3622802395969
 30
0.0
 10
85.20168997435929
 20
-135.3622802395969
 30
0.0
 10
84.96208358336017
 20
-135.3622802395969
 30
0.0
 10
84.96208358336017
 20
-135.3622802395969
 30
0.0
 10
84.97121308639609
 20
-135.2353284709654
 30
0.0
 10
84.98240964672316
 20
-135.1231906129206
 30
0.0
 10
85.06836477908015
 20
-135.004679328228
 30
0.0
 10
85.18601478990142
 20
-134.8439656238411
 30
0.0
 10
85.38496905417458
 20
-134.8100314333114
 30
0.0
 10
85.50916474641786
 20
-134.8100314333114
 30
0.0
 10
85.80544295814934
 20
-134.8100314333114
 30
0.0
 10
86.02696259785089
 20
-134.9941717869979
 30
0.0
 10
86.02696259785089
 20
-135.2670233494298
 30
0.0
 10
86.02696259785089
 20
-135.4956054348761
 30
0.0
 10
85.90259465083338
 20
-135.5949964396255
 30
0.0
 10
85.57255450334645
 20
-135.8213392130064
 30
0.0
  0
HATCH
  5
B7
330
B2
100
AcDbEntity
  8
レイヤー 1
 62
   250
420
  2299925
440
 33554687
100
AcDbHatch
 10
0.0
 20
0.0
 30
0.0
210
0.0
220
0.0
230
1.0
  2
SOLID
 70
     1
 71
     1
 91
        1
 92
        1
 93
        1
 72
     4
 94
        3
 73
     0
 74
     0
 95
       44
 96
       40
 40
0.0
 40
0.0
 40
0.0
 40
0.0
 40
1.0
 40
1.0
 40
1.0
 40
2.0
 40
2.0
 40
2.0
 40
3.0
 40
3.0
 40
3.0
 40
4.0
 40
4.0
 40
4.0
 40
5.0
 40
5.0
 40
5.0
 40
6.0
 40
6.0
 40
6.0
 40
7.0
 40
7.0
 40
7.0
 40
8.0
 40
8.0
 40
8.0
 40
9.0
 40
9.0
 40
9.0
 40
10.0
 40
10.0
 40
10.0
 40
11.0
 40
11.0
 40
11.0
 40
12.0
 40
12.0
 40
12.0
 40
13.0
 40
13.0
 40
13.0
 40
13.0
 10
85.57255450334645
 20
-135.8213392130064
 10
85.33966604854356
 20
-135.9799858601022
 10
85.24027504379409
 20
-136.0540554130351
 10
85.18825410196683
 20
-136.1978881495443
 10
85.18825410196683
 20
-136.1978881495443
 10
86.02024466165465
 20
-136.1978881495443
 10
86.02024466165465
 20
-136.1978881495443
 10
86.02024466165465
 20
-136.1978881495443
 10
86.02024466165465
 20
-136.4030435856909
 10
86.02024466165465
 20
-136.4030435856909
 10
86.02024466165465
 20
-136.4030435856909
 10
84.92143145663423
 20
-136.4030435856909
 10
84.92143145663423
 20
-136.4030435856909
 10
84.95536564716394
 20
-136.0456149290962
 10
85.02547334028877
 20
-135.9672390068068
 10
85.43681774122759
 20
-135.6690659925584
 10
85.7105305775307
 20
-135.4701117282852
 10
85.78046601588127
 20
-135.4024156020001
 10
85.78046601588127
 20
-135.2649562921386
 10
85.78046601588127
 20
-135.146445007446
 10
85.70364038656022
 20
-135.0153591242323
 10
85.49348956195997
 20
-135.0153591242323
 10
85.21529810152605
 20
-135.0153591242323
 10
85.2063408532644
 20
-135.2458360121955
 10
85.20168997435929
 20
-135.3622802395969
 10
85.20168997435929
 20
-135.3622802395969
 10
84.96208358336017
 20
-135.3622802395969
 10
84.96208358336017
 20
-135.3622802395969
 10
84.97121308639609
 20
-135.2353284709654
 10
84.98240964672316
 20
-135.1231906129206
 10
85.06836477908015
 20
-135.004679328228
 10
85.18601478990142
 20
-134.8439656238411
 10
85.38496905417458
 20
-134.8100314333114
 10
85.50916474641786
 20
-134.8100314333114
 10
85.80544295814934
 20
-134.8100314333114
 10
86.02696259785089
 20
-134.9941717869979
 10
86.02696259785089
 20
-135.2670233494298
 10
86.02696259785089
 20
-135.4956054348761
 10
85.90259465083338
 20
-135.5949964396255
 10
85.57255450334645
 20
-135.8213392130064
 97
        0
 97
        1
330
B6
 75
     2
 76
     1
 98
        1
 10
0.0
 20
0.0
450
        0
451
        0
460
0.0
461
0.0
452
        0
462
0.0
453
        0
470

  0
SPLINE
  5
B8
330
B2
100
AcDbEntity
  8
レイヤー 1
100
AcDbSpline
210
0.0
220
0.0
230
1.0
 70
     9
 71
     3
 72
    44
 73
    40
 74
     0
 42
0.0000000001
 43
0.0000000001
 40
0.0
 40
0.0
 40
0.0
 40
0.0
 40
1.0
 40
1.0
 40
1.0
 40
2.0
 40
2.0
 40
2.0
 40
3.0
 40
3.0
 40
3.0
 40
4.0
 40
4.0
 40
4.0
 40
5.0
 40
5.0
 40
5.0
 40
6.0
 40
6.0
 40
6.0
 40
7.0
 40
7.0
 40
7.0
 40
8.0
 40
8.0
 40
8.0
 40
9.0
 40
9.0
 40
9.0
 40
10.0
 40
10.0
 40
10.0
 40
11.0
 40
11.0
 40
11.0
 40
12.0
 40
12.0
 40
12.0
 40
13.0
 40
13.0
 40
13.0
 40
13.0
 10
86.83035886501116
 20
-135.8213392130064
 30
0.0
 10
86.59747041020827
 20
-135.9799858601022
 30
0.0
 10
86.49790715068455
 20
-136.0540554130351
 30
0.0
 10
86.44605846363154
 20
-136.1978881495443
 30
0.0
 10
86.44605846363154
 20
-136.1978881495443
 30
0.0
 10
87.27804902331937
 20
-136.1978881495443
 30
0.0
 10
87.27804902331937
 20
-136.1978881495443
 30
0.0
 10
87.27804902331937
 20
-136.1978881495443
 30
0.0
 10
87.27804902331937
 20
-136.4030435856909
 30
0.0
 10
87.27804902331937
 20
-136.4030435856909
 30
0.0
 10
87.27804902331937
 20
-136.4030435856909
 30
0.0
 10
86.17923581829895
 20
-136.4030435856909
 30
0.0
 10
86.17923581829895
 20
-136.4030435856909
 30
0.0
 10
86.21317000882866
 20
-136.0456149290962
 30
0.0
 10
86.28310544717923
 20
-135.9672390068068
 30
0.0
 10
86.69462210289232
 20
-135.6690659925584
 30
0.0
 10
86.96816268442116
 20
-135.4701117282852
 30
0.0
 10
87.03827037754599
 20
-135.4024156020001
 30
0.0
 10
87.03827037754599
 20
-135.2649562921386
 30
0.0
 10
87.03827037754599
 20
-135.146445007446
 30
0.0
 10
86.96144474822492
 20
-135.0153591242323
 30
0.0
 10
86.75112166885041
 20
-135.0153591242323
 30
0.0
 10
86.47310246319076
 20
-135.0153591242323
 30
0.0
 10
86.46397296015484
 20
-135.2458360121955
 30
0.0
 10
86.45949433602401
 20
-135.3622802395969
 30
0.0
 10
86.45949433602401
 20
-135.3622802395969
 30
0.0
 10
86.2198879450249
 20
-135.3622802395969
 30
0.0
 10
86.2198879450249
 20
-135.3622802395969
 30
0.0
 10
86.2290174480608
 20
-135.2353284709654
 30
0.0
 10
86.24021400838786
 20
-135.1231906129206
 30
0.0
 10
86.32616914074485
 20
-135.004679328228
 30
0.0
 10
86.44364689679187
 20
-134.8439656238411
 30
0.0
 10
86.64260116106504
 20
-134.8100314333114
 30
0.0
 10
86.76696910808257
 20
-134.8100314333114
 30
0.0
 10
87.06324731981405
 20
-134.8100314333114
 30
0.0
 10
87.28476695951561
 20
-134.9941717869979
 30
0.0
 10
87.28476695951561
 20
-135.2670233494298
 30
0.0
 10
87.28476695951561
 20
-135.4956054348761
 30
0.0
 10
87.16039901249811
 20
-135.5949964396255
 30
0.0
 10
86.83035886501116
 20
-135.8213392130064
 30
0.0
  0
HATCH
  5
B9
330
B2
100
AcDbEntity
  8
レイヤー 1
 62
   250
420
  2299925
440
 33554687
100
AcDbHatch
 10
0.0
 20
0.0
 30
0.0
210
0.0
220
0.0
230
1.0
  2
SOLID
 70
     1
 71
     1
 91
        1
 92
        1
 93
        1
 72
     4
 94
        3
 73
     0
 74
     0
 95
       44
 96
       40
 40
0.0
 40
0.0
 40
0.0
 40
0.0
 40
1.0
 40
1.0
 40
1.0
 40
2.0
 40
2.0
 40
2.0
 40
3.0
 40
3.0
 40
3.0
 40
4.0
 40
4.0
 40
4.0
 40
5.0
 40
5.0
 40
5.0
 40
6.0
 40
6.0
 40
6.0
 40
7.0
 40
7.0
 40
7.0
 40
8.0
 40
8.0
 40
8.0
 40
9.0
 40
9.0
 40
9.0
 40
10.0
 40
10.0
 40
10.0
 40
11.0
 40
11.0
 40
11.0
 40
12.0
 40
12.0
 40
12.0
 40
13.0
 40
13.0
 40
13.0
 40
13.0
 10
86.83035886501116
 20
-135.8213392130064
 10
86.59747041020827
 20
-135.9799858601022
 10
86.49790715068455
 20
-136.0540554130351
 10
86.44605846363154
 20
-136.1978881495443
 10
86.44605846363154
 20
-136.1978881495443
 10
87.27804902331937
 20
-136.1978881495443
 10
87.27804902331937
 20
-136.1978881495443
 10
87.27804902331937
 20
-136.1978881495443
 10
87.27804902331937
 20
-136.4030435856909
 10
87.27804902331937
 20
-136.4030435856909
 10
87.27804902331937
 20
-136.4030435856909
 10
86.17923581829895
 20
-136.4030435856909
 10
86.17923581829895
 20
-136.4030435856909
 10
86.21317000882866
 20
-136.0456149290962
 10
86.28310544717923
 20
-135.9672390068068
 10
86.69462210289232
 20
-135.6690659925584
 10
86.96816268442116
 20
-135.4701117282852
 10
87.03827037754599
 20
-135.4024156020001
 10
87.03827037754599
 20
-135.2649562921386
 10
87.03827037754599
 20
-135.146445007446
 10
86.96144474822492
 20
-135.0153591242323
 10
86.75112166885041
 20
-135.0153591242323
 10
86.47310246319076
 20
-135.0153591242323
 10
86.46397296015484
 20
-135.2458360121955
 10
86.45949433602401
 20
-135.3622802395969
 10
86.45949433602401
 20
-135.3622802395969
 10
86.2198879450249
 20
-135.3622802395969
 10
86.2198879450249
 20
-135.3622802395969
 10
86.2290174480608
 20
-135.2353284709654
 10
86.24021400838786
 20
-135.1231906129206
 10
86.32616914074485
 20
-135.004679328228
 10
86.44364689679187
 20
-134.8439656238411
 10
86.64260116106504
 20
-134.8100314333114
 10
86.76696910808257
 20
-134.8100314333114
 10
87.06324731981405
 20
-134.8100314333114
 10
87.28476695951561
 20
-134.9941717869979
 10
87.28476695951561
 20
-135.2670233494298
 10
87.28476695951561
 20
-135.4956054348761
 10
87.16039901249811
 20
-135.5949964396255
 10
86.83035886501116
 20
-135.8213392130064
 97
        0
 97
        1
330
B8
 75
     2
 76
     1
 98
        1
 10
0.0
 20
0.0
450
        0
451
        0
460
0.0
461
0.0
452
        0
462
0.0
453
        0
470

  0
ENDBLK
  5
B5
330
B2
100
AcDbEntity
  8
0
100
AcDbBlockEnd
  0
BLOCK
  5
BD
330
BB
100
AcDbEntity
  8
0
100
AcDbBlockBegin
  2
Block_6
 70
     0
 10
0.0
 20
0.0
 30
0.0
  3
Block_6
  1

  0
LINE
  5
BF
330
BB
100
AcDbEntity
  8
レイヤー 1
 62
   250
420
  2299925
370
     9
100
AcDbLine
 10
97.10217150280762
 20
-136.7759652233702
 30
0.0
 11
107.1026098587863
 21
-136.7759652233702
 31
0.0
  0
LINE
  5
C0
330
BB
100
AcDbEntity
  8
レイヤー 1
 62
   250
420
  2299925
370
     9
100
AcDbLine
 10
107.1026098587863
 20
-138.2360119152265
 30
0.0
 11
107.1026098587863
 21
-135.7758808668785
 31
0.0
  0
INSERT
  5
C2
330
BB
100
AcDbEntity
  8
レイヤー 1
100
AcDbBlockReference
  2
Block_7
 10
0.0
 20
0.0
 30
0.0
  0
SPLINE
  5
CE
330
BB
100
AcDbEntity
  8
レイヤー 1
 62
   250
420
  2299925
370
     9
100
AcDbSpline
210
0.0
220
0.0
230
1.0
 70
     9
 71
     3
 72
    17
 73
    13
 74
     0
 42
0.0000000001
 43
0.0000000001
 40
0.0
 40
0.0
 40
0.0
 40
0.0
 40
1.0
 40
1.0
 40
1.0
 40
2.0
 40
2.0
 40
2.0
 40
3.0
 40
3.0
 40
3.0
 40
4.0
 40
4.0
 40
4.0
 40
4.0
 10
107.1377465245565
 20
-136.7759652233702
 30
0.0
 10
107.1377465245565
 20
-136.7956202853076
 30
0.0
 10
107.1219080177089
 20
-136.8111425071335
 30
0.0
 10
107.1026098587863
 20
-136.8111425071335
 30
0.0
 10
107.0826073592966
 20
-136.8111425071335
 30
0.0
 10
107.0667676374785
 20
-136.7956202853076
 30
0.0
 10
107.0667676374785
 20
-136.7759652233702
 30
0.0
 10
107.0667676374785
 20
-136.7563561196423
 30
0.0
 10
107.0826073592966
 20
-136.7408338978158
 30
0.0
 10
107.1026098587863
 20
-136.7408338978158
 30
0.0
 10
107.1219080177089
 20
-136.7408338978158
 30
0.0
 10
107.1377465245565
 20
-136.7563561196423
 30
0.0
 10
107.1377465245565
 20
-136.7759652233702
 30
0.0
  0
ENDBLK
  5
BE
330
BB
100
AcDbEntity
  8
0
100
AcDbBlockEnd
  0
BLOCK
  5
C3
330
C1
100
AcDbEntity
  8
0
100
AcDbBlockBegin
  2
Block_7
 70
     0
 10
0.0
 20
0.0
 30
0.0
  3
Block_7
  1

  0
INSERT
  5
C6
330
C1
100
AcDbEntity
  8
レイヤー 1
100
AcDbBlockReference
  2
Block_8
 10
0.0
 20
0.0
 30
0.0
  0
ENDBLK
  5
C4
330
C1
100
AcDbEntity
  8
0
100
AcDbBlockEnd
  0
BLOCK
  5
C7
330
C5
100
AcDbEntity
  8
0
100
AcDbBlockBegin
  2
Block_8
 70
     0
 10
0.0
 20
0.0
 30
0.0
  3
Block_8
  1

  0
SPLINE
  5
C9
330
C5
100
AcDbEntity
  8
レイヤー 1
100
AcDbSpline
210
0.0
220
0.0
230
1.0
 70
    11
 71
     3
 72
    26
 73
    22
 74
     0
 42
0.0000000001
 43
0.0000000001
 40
0.0
 40
0.0
 40
0.0
 40
0.0
 40
1.0
 40
1.0
 40
1.0
 40
2.0
 40
2.0
 40
2.0
 40
3.0
 40
3.0
 40
3.0
 40
4.0
 40
4.0
 40
4.0
 40
5.0
 40
5.0
 40
5.0
 40
6.0
 40
6.0
 40
6.0
 40
7.0
 40
7.0
 40
7.0
 40
7.0
 10
101.420855009367
 20
-136.4030435856909
 30
0.0
 10
101.420855009367
 20
-136.4030435856909
 30
0.0
 10
101.420855009367
 20
-135.298718227894
 30
0.0
 10
101.420855009367
 20
-135.298718227894
 30
0.0
 10
101.420855009367
 20
-135.298718227894
 30
0.0
 10
101.0680772316774
 20
-135.298718227894
 30
0.0
 10
101.0680772316774
 20
-135.298718227894
 30
0.0
 10
101.0680772316774
 20
-135.298718227894
 30
0.0
 10
101.0680772316774
 20
-135.1507513768026
 30
0.0
 10
101.0680772316774
 20
-135.1507513768026
 30
0.0
 10
101.4230943214324
 20
-135.135937466216
 30
0.0
 10
101.47270369642
 20
-134.9729844497637
 30
0.0
 10
101.5043985748843
 20
-134.8587795344276
 30
0.0
 10
101.5043985748843
 20
-134.8587795344276
 30
0.0
 10
101.6604614003661
 20
-134.8587795344276
 30
0.0
 10
101.6604614003661
 20
-134.8587795344276
 30
0.0
 10
101.6604614003661
 20
-134.8587795344276
 30
0.0
 10
101.6604614003661
 20
-136.4030435856909
 30
0.0
 10
101.6604614003661
 20
-136.4030435856909
 30
0.0
 10
101.6604614003661
 20
-136.4030435856909
 30
0.0
 10
101.420855009367
 20
-136.4030435856909
 30
0.0
 10
101.420855009367
 20
-136.4030435856909
 30
0.0
  0
HATCH
  5
CA
330
C5
100
AcDbEntity
  8
レイヤー 1
 62
   250
420
  2299925
440
 33554687
100
AcDbHatch
 10
0.0
 20
0.0
 30
0.0
210
0.0
220
0.0
230
1.0
  2
SOLID
 70
     1
 71
     1
 91
        1
 92
        1
 93
        1
 72
     4
 94
        3
 73
     0
 74
     0
 95
       26
 96
       22
 40
0.0
 40
0.0
 40
0.0
 40
0.0
 40
1.0
 40
1.0
 40
1.0
 40
2.0
 40
2.0
 40
2.0
 40
3.0
 40
3.0
 40
3.0
 40
4.0
 40
4.0
 40
4.0
 40
5.0
 40
5.0
 40
5.0
 40
6.0
 40
6.0
 40
6.0
 40
7.0
 40
7.0
 40
7.0
 40
7.0
 10
101.420855009367
 20
-136.4030435856909
 10
101.420855009367
 20
-136.4030435856909
 10
101.420855009367
 20
-135.298718227894
 10
101.420855009367
 20
-135.298718227894
 10
101.420855009367
 20
-135.298718227894
 10
101.0680772316774
 20
-135.298718227894
 10
101.0680772316774
 20
-135.298718227894
 10
101.0680772316774
 20
-135.298718227894
 10
101.0680772316774
 20
-135.1507513768026
 10
101.0680772316774
 20
-135.1507513768026
 10
101.4230943214324
 20
-135.135937466216
 10
101.47270369642
 20
-134.9729844497637
 10
101.5043985748843
 20
-134.8587795344276
 10
101.5043985748843
 20
-134.8587795344276
 10
101.6604614003661
 20
-134.8587795344276
 10
101.6604614003661
 20
-134.8587795344276
 10
101.6604614003661
 20
-134.8587795344276
 10
101.6604614003661
 20
-136.4030435856909
 10
101.6604614003661
 20
-136.4030435856909
 10
101.6604614003661
 20
-136.4030435856909
 10
101.420855009367
 20
-136.4030435856909
 10
101.420855009367
 20
-136.4030435856909
 97
        0
 97
        1
330
C9
 75
     2
 76
     1
 98
        1
 10
0.0
 20
0.0
450
        0
451
        0
460
0.0
461
0.0
452
        0
462
0.0
453
        0
470

  0
SPLINE
  5
CB
330
C5
100
AcDbEntity
  8
レイヤー 1
100
AcDbSpline
210
0.0
220
0.0
230
1.0
 70
     9
 71
     3
 72
    17
 73
    13
 74
     0
 42
0.0000000001
 43
0.0000000001
 40
0.0
 40
0.0
 40
0.0
 40
0.0
 40
1.0
 40
1.0
 40
1.0
 40
2.0
 40
2.0
 40
2.0
 40
3.0
 40
3.0
 40
3.0
 40
4.0
 40
4.0
 40
4.0
 40
4.0
 10
102.7305080580847
 20
-135.0026122709368
 30
0.0
 10
102.4636854127521
 20
-135.0026122709368
 30
0.0
 10
102.4140760377645
 20
-135.2861436293729
 30
0.0
 10
102.4140760377645
 20
-135.6309976874464
 30
0.0
 10
102.4140760377645
 20
-135.9503580389291
 30
0.0
 10
102.4524888524251
 20
-136.2592108491817
 30
0.0
 10
102.7305080580847
 20
-136.2592108491817
 30
0.0
 10
102.9950913913519
 20
-136.2592108491817
 30
0.0
 10
103.0471123331792
 20
-135.977918802811
 30
0.0
 10
103.0471123331792
 20
-135.6309976874464
 30
0.0
 10
103.0471123331792
 20
-135.3114650811895
 30
0.0
 10
103.006287951679
 20
-135.0026122709368
 30
0.0
 10
102.7305080580847
 20
-135.0026122709368
 30
0.0
  0
SPLINE
  5
CC
330
C5
100
AcDbEntity
  8
レイヤー 1
100
AcDbSpline
210
0.0
220
0.0
230
1.0
 70
     9
 71
     3
 72
    29
 73
    25
 74
     0
 42
0.0000000001
 43
0.0000000001
 40
0.0
 40
0.0
 40
0.0
 40
0.0
 40
1.0
 40
1.0
 40
1.0
 40
2.0
 40
2.0
 40
2.0
 40
3.0
 40
3.0
 40
3.0
 40
4.0
 40
4.0
 40
4.0
 40
5.0
 40
5.0
 40
5.0
 40
6.0
 40
6.0
 40
6.0
 40
7.0
 40
7.0
 40
7.0
 40
8.0
 40
8.0
 40
8.0
 40
8.0
 10
103.1556328409646
 20
-136.2254489134262
 30
0.0
 10
103.0402221422087
 20
-136.4347384641552
 30
0.0
 10
102.8548760051022
 20
-136.4538587440983
 30
0.0
 10
102.7305080580847
 20
-136.4538587440983
 30
0.0
 10
102.558770048145
 20
-136.4538587440983
 30
0.0
 10
102.407185846794
 20
-136.4073499550474
 30
0.0
 10
102.3055555299791
 20
-136.2254489134262
 30
0.0
 10
102.1947957101284
 20
-136.0308010185096
 30
0.0
 10
102.1742973919911
 20
-135.7937784491245
 30
0.0
 10
102.1742973919911
 20
-135.6309976874464
 30
0.0
 10
102.1742973919911
 20
-135.486992696163
 30
0.0
 10
102.1925563980629
 20
-135.2353284709654
 30
0.0
 10
102.3055555299791
 20
-135.0363742066923
 30
0.0
 10
102.4207939739607
 20
-134.8334580826111
 30
0.0
 10
102.5927042386747
 20
-134.8100314333114
 30
0.0
 10
102.7305080580847
 20
-134.8100314333114
 30
0.0
 10
102.9001790107333
 20
-134.8100314333114
 30
0.0
 10
103.0538302693754
 20
-134.8544731650711
 30
0.0
 10
103.1556328409646
 20
-135.0363742066923
 30
0.0
 10
103.2619140366845
 20
-135.2289550443177
 30
0.0
 10
103.2867187241783
 20
-135.4573648749898
 30
0.0
 10
103.2867187241783
 20
-135.6309976874464
 30
0.0
 10
103.2867187241783
 20
-135.8022189330633
 30
0.0
 10
103.2641533487499
 20
-136.0328680758008
 30
0.0
 10
103.1556328409646
 20
-136.2254489134262
 30
0.0
  0
HATCH
  5
CD
330
C5
100
AcDbEntity
  8
レイヤー 1
 62
   250
420
  2299925
440
 33554687
100
AcDbHatch
 10
0.0
 20
0.0
 30
0.0
210
0.0
220
0.0
230
1.0
  2
SOLID
 70
     1
 71
     1
 91
        2
 92
        1
 93
        1
 72
     4
 94
        3
 73
     0
 74
     0
 95
       17
 96
       13
 40
0.0
 40
0.0
 40
0.0
 40
0.0
 40
1.0
 40
1.0
 40
1.0
 40
2.0
 40
2.0
 40
2.0
 40
3.0
 40
3.0
 40
3.0
 40
4.0
 40
4.0
 40
4.0
 40
4.0
 10
102.7305080580847
 20
-135.0026122709368
 10
102.4636854127521
 20
-135.0026122709368
 10
102.4140760377645
 20
-135.2861436293729
 10
102.4140760377645
 20
-135.6309976874464
 10
102.4140760377645
 20
-135.9503580389291
 10
102.4524888524251
 20
-136.2592108491817
 10
102.7305080580847
 20
-136.2592108491817
 10
102.9950913913519
 20
-136.2592108491817
 10
103.0471123331792
 20
-135.977918802811
 10
103.0471123331792
 20
-135.6309976874464
 10
103.0471123331792
 20
-135.3114650811895
 10
103.006287951679
 20
-135.0026122709368
 10
102.7305080580847
 20
-135.0026122709368
 97
        0
 97
        1
330
CB
 92
        1
 93
        1
 72
     4
 94
        3
 73
     0
 74
     0
 95
       29
 96
       25
 40
0.0
 40
0.0
 40
0.0
 40
0.0
 40
1.0
 40
1.0
 40
1.0
 40
2.0
 40
2.0
 40
2.0
 40
3.0
 40
3.0
 40
3.0
 40
4.0
 40
4.0
 40
4.0
 40
5.0
 40
5.0
 40
5.0
 40
6.0
 40
6.0
 40
6.0
 40
7.0
 40
7.0
 40
7.0
 40
8.0
 40
8.0
 40
8.0
 40
8.0
 10
103.1556328409646
 20
-136.2254489134262
 10
103.0402221422087
 20
-136.4347384641552
 10
102.8548760051022
 20
-136.4538587440983
 10
102.7305080580847
 20
-136.4538587440983
 10
102.558770048145
 20
-136.4538587440983
 10
102.407185846794
 20
-136.4073499550474
 10
102.3055555299791
 20
-136.2254489134262
 10
102.1947957101284
 20
-136.0308010185096
 10
102.1742973919911
 20
-135.7937784491245
 10
102.1742973919911
 20
-135.6309976874464
 10
102.1742973919911
 20
-135.486992696163
 10
102.1925563980629
 20
-135.2353284709654
 10
102.3055555299791
 20
-135.0363742066923
 10
102.4207939739607
 20
-134.8334580826111
 10
102.5927042386747
 20
-134.8100314333114
 10
102.7305080580847
 20
-134.8100314333114
 10
102.9001790107333
 20
-134.8100314333114
 10
103.0538302693754
 20
-134.8544731650711
 10
103.1556328409646
 20
-135.0363742066923
 10
103.2619140366845
 20
-135.2289550443177
 10
103.2867187241783
 20
-135.4573648749898
 10
103.2867187241783
 20
-135.6309976874464
 10
103.2867187241783
 20
-135.8022189330633
 10
103.2641533487499
 20
-136.0328680758008
 10
103.1556328409646
 20
-136.2254489134262
 97
        0
 97
        1
330
CC
 75
     2
 76
     1
 98
        1
 10
0.0
 20
0.0
450
        0
451
        0
460
0.0
461
0.0
452
        0
462
0.0
453
        0
470

  0
ENDBLK
  5
C8
330
C5
100
AcDbEntity
  8
0
100
AcDbBlockEnd
  0
BLOCK
  5
D1
330
CF
100
AcDbEntity
  8
0
100
AcDbBlockBegin
  2
Block_9
 70
     0
 10
0.0
 20
0.0
 30
0.0
  3
Block_9
  1

  0
LINE
  5
D3
330
CF
100
AcDbEntity
  8
レイヤー 1
 62
   250
420
  2299925
370
     9
100
AcDbLine
 10
107.1026098587863
 20
-136.7759652233702
 30
0.0
 11
129.102290130861
 21
-136.7759652233702
 31
0.0
  0
LINE
  5
D4
330
CF
100
AcDbEntity
  8
レイヤー 1
 62
   250
420
  2299925
370
     9
100
AcDbLine
 10
129.102290130861
 20
-138.2360119152265
 30
0.0
 11
129.102290130861
 21
-135.7758808668785
 31
0.0
  0
INSERT
  5
D6
330
CF
100
AcDbEntity
  8
レイヤー 1
100
AcDbBlockReference
  2
Block_10
 10
0.0
 20
0.0
 30
0.0
  0
SPLINE
  5
E1
330
CF
100
AcDbEntity
  8
レイヤー 1
 62
   250
420
  2299925
370
     9
100
AcDbSpline
210
0.0
220
0.0
230
1.0
 70
     9
 71
     3
 72
    17
 73
    13
 74
     0
 42
0.0000000001
 43
0.0000000001
 40
0.0
 40
0.0
 40
0.0
 40
0.0
 40
1.0
 40
1.0
 40
1.0
 40
2.0
 40
2.0
 40
2.0
 40
3.0
 40
3.0
 40
3.0
 40
4.0
 40
4.0
 40
4.0
 40
4.0
 10
129.1374267966312
 20
-136.7759652233702
 30
0.0
 10
129.1374267966312
 20
-136.7956202853076
 30
0.0
 10
129.1215870748131
 20
-136.8111425071335
 30
0.0
 10
129.102290130861
 20
-136.8111425071335
 30
0.0
 10
129.0829931869089
 20
-136.8111425071335
 30
0.0
 10
129.0671552344449
 20
-136.7956202853076
 30
0.0
 10
129.0671552344449
 20
-136.7759652233702
 30
0.0
 10
129.0671552344449
 20
-136.7563561196423
 30
0.0
 10
129.0829931869089
 20
-136.7408338978158
 30
0.0
 10
129.102290130861
 20
-136.7408338978158
 30
0.0
 10
129.1215870748131
 20
-136.7408338978158
 30
0.0
 10
129.1374267966312
 20
-136.7563561196423
 30
0.0
 10
129.1374267966312
 20
-136.7759652233702
 30
0.0
  0
ENDBLK
  5
D2
330
CF
100
AcDbEntity
  8
0
100
AcDbBlockEnd
  0
BLOCK
  5
D7
330
D5
100
AcDbEntity
  8
0
100
AcDbBlockBegin
  2
Block_10
 70
     0
 10
0.0
 20
0.0
 30
0.0
  3
Block_10
  1

  0
INSERT
  5
DA
330
D5
100
AcDbEntity
  8
レイヤー 1
100
AcDbBlockReference
  2
Block_11
 10
0.0
 20
0.0
 30
0.0
  0
ENDBLK
  5
D8
330
D5
100
AcDbEntity
  8
0
100
AcDbBlockEnd
  0
BLOCK
  5
DB
330
D9
100
AcDbEntity
  8
0
100
AcDbBlockBegin
  2
Block_11
 70
     0
 10
0.0
 20
0.0
 30
0.0
  3
Block_11
  1

  0
SPLINE
  5
DD
330
D9
100
AcDbEntity
  8
レイヤー 1
100
AcDbSpline
210
0.0
220
0.0
230
1.0
 70
     9
 71
     3
 72
    44
 73
    40
 74
     0
 42
0.0000000001
 43
0.0000000001
 40
0.0
 40
0.0
 40
0.0
 40
0.0
 40
1.0
 40
1.0
 40
1.0
 40
2.0
 40
2.0
 40
2.0
 40
3.0
 40
3.0
 40
3.0
 40
4.0
 40
4.0
 40
4.0
 40
5.0
 40
5.0
 40
5.0
 40
6.0
 40
6.0
 40
6.0
 40
7.0
 40
7.0
 40
7.0
 40
8.0
 40
8.0
 40
8.0
 40
9.0
 40
9.0
 40
9.0
 40
10.0
 40
10.0
 40
10.0
 40
11.0
 40
11.0
 40
11.0
 40
12.0
 40
12.0
 40
12.0
 40
13.0
 40
13.0
 40
13.0
 40
13.0
 10
117.5718071537668
 20
-135.8213392130064
 30
0.0
 10
117.3389186989639
 20
-135.9799858601022
 30
0.0
 10
117.2393554394401
 20
-136.0540554130351
 30
0.0
 10
117.1873344976129
 20
-136.1978881495443
 30
0.0
 10
117.1873344976129
 20
-136.1978881495443
 30
0.0
 10
118.0193250573007
 20
-136.1978881495443
 30
0.0
 10
118.0193250573007
 20
-136.1978881495443
 30
0.0
 10
118.0193250573007
 20
-136.1978881495443
 30
0.0
 10
118.0193250573007
 20
-136.4030435856909
 30
0.0
 10
118.0193250573007
 20
-136.4030435856909
 30
0.0
 10
118.0193250573007
 20
-136.4030435856909
 30
0.0
 10
116.9206841070545
 20
-136.4030435856909
 30
0.0
 10
116.9206841070545
 20
-136.4030435856909
 30
0.0
 10
116.95444604281
 20
-136.0456149290962
 30
0.0
 10
117.0247259907091
 20
-135.9672390068068
 30
0.0
 10
117.4360703916479
 20
-135.6690659925584
 30
0.0
 10
117.7096109731767
 20
-135.4701117282852
 30
0.0
 10
117.7795464115273
 20
-135.4024156020001
 30
0.0
 10
117.7795464115273
 20
-135.2649562921386
 30
0.0
 10
117.7795464115273
 20
-135.146445007446
 30
0.0
 10
117.7027207822062
 20
-135.0153591242323
 30
0.0
 10
117.492569957606
 20
-135.0153591242323
 30
0.0
 10
117.2145507519463
 20
-135.0153591242323
 30
0.0
 10
117.2055935036847
 20
-135.2458360121955
 30
0.0
 10
117.2007703700054
 20
-135.3622802395969
 30
0.0
 10
117.2007703700054
 20
-135.3622802395969
 30
0.0
 10
116.9613362337805
 20
-135.3622802395969
 30
0.0
 10
116.9613362337805
 20
-135.3622802395969
 30
0.0
 10
116.9702934820421
 20
-135.2353284709654
 30
0.0
 10
116.9816622971435
 20
-135.1231906129206
 30
0.0
 10
117.0674451747262
 20
-135.004679328228
 30
0.0
 10
117.1852674403217
 20
-134.8439656238411
 30
0.0
 10
117.3840494498206
 20
-134.8100314333114
 30
0.0
 10
117.5084173968382
 20
-134.8100314333114
 30
0.0
 10
117.8046956085696
 20
-134.8100314333114
 30
0.0
 10
118.0262152482712
 20
-134.9941717869979
 30
0.0
 10
118.0262152482712
 20
-135.2670233494298
 30
0.0
 10
118.0262152482712
 20
-135.4956054348761
 30
0.0
 10
117.9018473012537
 20
-135.5949964396255
 30
0.0
 10
117.5718071537668
 20
-135.8213392130064
 30
0.0
  0
HATCH
  5
DE
330
D9
100
AcDbEntity
  8
レイヤー 1
 62
   250
420
  2299925
440
 33554687
100
AcDbHatch
 10
0.0
 20
0.0
 30
0.0
210
0.0
220
0.0
230
1.0
  2
SOLID
 70
     1
 71
     1
 91
        1
 92
        1
 93
        1
 72
     4
 94
        3
 73
     0
 74
     0
 95
       44
 96
       40
 40
0.0
 40
0.0
 40
0.0
 40
0.0
 40
1.0
 40
1.0
 40
1.0
 40
2.0
 40
2.0
 40
2.0
 40
3.0
 40
3.0
 40
3.0
 40
4.0
 40
4.0
 40
4.0
 40
5.0
 40
5.0
 40
5.0
 40
6.0
 40
6.0
 40
6.0
 40
7.0
 40
7.0
 40
7.0
 40
8.0
 40
8.0
 40
8.0
 40
9.0
 40
9.0
 40
9.0
 40
10.0
 40
10.0
 40
10.0
 40
11.0
 40
11.0
 40
11.0
 40
12.0
 40
12.0
 40
12.0
 40
13.0
 40
13.0
 40
13.0
 40
13.0
 10
117.5718071537668
 20
-135.8213392130064
 10
117.3389186989639
 20
-135.9799858601022
 10
117.2393554394401
 20
-136.0540554130351
 10
117.1873344976129
 20
-136.1978881495443
 10
117.1873344976129
 20
-136.1978881495443
 10
118.0193250573007
 20
-136.1978881495443
 10
118.0193250573007
 20
-136.1978881495443
 10
118.0193250573007
 20
-136.1978881495443
 10
118.0193250573007
 20
-136.4030435856909
 10
118.0193250573007
 20
-136.4030435856909
 10
118.0193250573007
 20
-136.4030435856909
 10
116.9206841070545
 20
-136.4030435856909
 10
116.9206841070545
 20
-136.4030435856909
 10
116.95444604281
 20
-136.0456149290962
 10
117.0247259907091
 20
-135.9672390068068
 10
117.4360703916479
 20
-135.6690659925584
 10
117.7096109731767
 20
-135.4701117282852
 10
117.7795464115273
 20
-135.4024156020001
 10
117.7795464115273
 20
-135.2649562921386
 10
117.7795464115273
 20
-135.146445007446
 10
117.7027207822062
 20
-135.0153591242323
 10
117.492569957606
 20
-135.0153591242323
 10
117.2145507519463
 20
-135.0153591242323
 10
117.2055935036847
 20
-135.2458360121955
 10
117.2007703700054
 20
-135.3622802395969
 10
117.2007703700054
 20
-135.3622802395969
 10
116.9613362337805
 20
-135.3622802395969
 10
116.9613362337805
 20
-135.3622802395969
 10
116.9702934820421
 20
-135.2353284709654
 10
116.9816622971435
 20
-135.1231906129206
 10
117.0674451747262
 20
-135.004679328228
 10
117.1852674403217
 20
-134.8439656238411
 10
117.3840494498206
 20
-134.8100314333114
 10
117.5084173968382
 20
-134.8100314333114
 10
117.8046956085696
 20
-134.8100314333114
 10
118.0262152482712
 20
-134.9941717869979
 10
118.0262152482712
 20
-135.2670233494298
 10
118.0262152482712
 20
-135.4956054348761
 10
117.9018473012537
 20
-135.5949964396255
 10
117.5718071537668
 20
-135.8213392130064
 97
        0
 97
        1
330
DD
 75
     2
 76
     1
 98
        1
 10
0.0
 20
0.0
450
        0
451
        0
460
0.0
461
0.0
452
        0
462
0.0
453
        0
470

  0
SPLINE
  5
DF
330
D9
100
AcDbEntity
  8
レイヤー 1
100
AcDbSpline
210
0.0
220
0.0
230
1.0
 70
     9
 71
     3
 72
    44
 73
    40
 74
     0
 42
0.0000000001
 43
0.0000000001
 40
0.0
 40
0.0
 40
0.0
 40
0.0
 40
1.0
 40
1.0
 40
1.0
 40
2.0
 40
2.0
 40
2.0
 40
3.0
 40
3.0
 40
3.0
 40
4.0
 40
4.0
 40
4.0
 40
5.0
 40
5.0
 40
5.0
 40
6.0
 40
6.0
 40
6.0
 40
7.0
 40
7.0
 40
7.0
 40
8.0
 40
8.0
 40
8.0
 40
9.0
 40
9.0
 40
9.0
 40
10.0
 40
10.0
 40
10.0
 40
11.0
 40
11.0
 40
11.0
 40
12.0
 40
12.0
 40
12.0
 40
13.0
 40
13.0
 40
13.0
 40
13.0
 10
118.8296115154315
 20
-135.8213392130064
 30
0.0
 10
118.5967230606286
 20
-135.9799858601022
 30
0.0
 10
118.4971598011049
 20
-136.0540554130351
 30
0.0
 10
118.4451388592776
 20
-136.1978881495443
 30
0.0
 10
118.4451388592776
 20
-136.1978881495443
 30
0.0
 10
119.2771294189654
 20
-136.1978881495443
 30
0.0
 10
119.2771294189654
 20
-136.1978881495443
 30
0.0
 10
119.2771294189654
 20
-136.1978881495443
 30
0.0
 10
119.2771294189654
 20
-136.4030435856909
 30
0.0
 10
119.2771294189654
 20
-136.4030435856909
 30
0.0
 10
119.2771294189654
 20
-136.4030435856909
 30
0.0
 10
118.1784884687193
 20
-136.4030435856909
 30
0.0
 10
118.1784884687193
 20
-136.4030435856909
 30
0.0
 10
118.2122504044747
 20
-136.0456149290962
 30
0.0
 10
118.2825303523738
 20
-135.9672390068068
 30
0.0
 10
118.6938747533126
 20
-135.6690659925584
 30
0.0
 10
118.9674153348415
 20
-135.4701117282852
 30
0.0
 10
119.037350773192
 20
-135.4024156020001
 30
0.0
 10
119.037350773192
 20
-135.2649562921386
 30
0.0
 10
119.037350773192
 20
-135.146445007446
 30
0.0
 10
118.960525143871
 20
-135.0153591242323
 30
0.0
 10
118.7503743192707
 20
-135.0153591242323
 30
0.0
 10
118.4723551136111
 20
-135.0153591242323
 30
0.0
 10
118.4630533558009
 20
-135.2458360121955
 30
0.0
 10
118.4585747316701
 20
-135.3622802395969
 30
0.0
 10
118.4585747316701
 20
-135.3622802395969
 30
0.0
 10
118.2191405954452
 20
-135.3622802395969
 30
0.0
 10
118.2191405954452
 20
-135.3622802395969
 30
0.0
 10
118.2280978437068
 20
-135.2353284709654
 30
0.0
 10
118.2394666588082
 20
-135.1231906129206
 30
0.0
 10
118.3252495363909
 20
-135.004679328228
 30
0.0
 10
118.4427272924379
 20
-134.8439656238411
 30
0.0
 10
118.6418538114853
 20
-134.8100314333114
 30
0.0
 10
118.7662217585029
 20
-134.8100314333114
 30
0.0
 10
119.0624999702344
 20
-134.8100314333114
 30
0.0
 10
119.2840196099359
 20
-134.9941717869979
 30
0.0
 10
119.2840196099359
 20
-135.2670233494298
 30
0.0
 10
119.2840196099359
 20
-135.4956054348761
 30
0.0
 10
119.1596516629184
 20
-135.5949964396255
 30
0.0
 10
118.8296115154315
 20
-135.8213392130064
 30
0.0
  0
HATCH
  5
E0
330
D9
100
AcDbEntity
  8
レイヤー 1
 62
   250
420
  2299925
440
 33554687
100
AcDbHatch
 10
0.0
 20
0.0
 30
0.0
210
0.0
220
0.0
230
1.0
  2
SOLID
 70
     1
 71
     1
 91
        1
 92
        1
 93
        1
 72
     4
 94
        3
 73
     0
 74
     0
 95
       44
 96
       40
 40
0.0
 40
0.0
 40
0.0
 40
0.0
 40
1.0
 40
1.0
 40
1.0
 40
2.0
 40
2.0
 40
2.0
 40
3.0
 40
3.0
 40
3.0
 40
4.0
 40
4.0
 40
4.0
 40
5.0
 40
5.0
 40
5.0
 40
6.0
 40
6.0
 40
6.0
 40
7.0
 40
7.0
 40
7.0
 40
8.0
 40
8.0
 40
8.0
 40
9.0
 40
9.0
 40
9.0
 40
10.0
 40
10.0
 40
10.0
 40
11.0
 40
11.0
 40
11.0
 40
12.0
 40
12.0
 40
12.0
 40
13.0
 40
13.0
 40
13.0
 40
13.0
 10
118.8296115154315
 20
-135.8213392130064
 10
118.5967230606286
 20
-135.9799858601022
 10
118.4971598011049
 20
-136.0540554130351
 10
118.4451388592776
 20
-136.1978881495443
 10
118.4451388592776
 20
-136.1978881495443
 10
119.2771294189654
 20
-136.1978881495443
 10
119.2771294189654
 20
-136.1978881495443
 10
119.2771294189654
 20
-136.1978881495443
 10
119.2771294189654
 20
-136.4030435856909
 10
119.2771294189654
 20
-136.4030435856909
 10
119.2771294189654
 20
-136.4030435856909
 10
118.1784884687193
 20
-136.4030435856909
 10
118.1784884687193
 20
-136.4030435856909
 10
118.2122504044747
 20
-136.0456149290962
 10
118.2825303523738
 20
-135.9672390068068
 10
118.6938747533126
 20
-135.6690659925584
 10
118.9674153348415
 20
-135.4701117282852
 10
119.037350773192
 20
-135.4024156020001
 10
119.037350773192
 20
-135.2649562921386
 10
119.037350773192
 20
-135.146445007446
 10
118.960525143871
 20
-135.0153591242323
 10
118.7503743192707
 20
-135.0153591242323
 10
118.4723551136111
 20
-135.0153591242323
 10
118.4630533558009
 20
-135.2458360121955
 10
118.4585747316701
 20
-135.3622802395969
 10
118.4585747316701
 20
-135.3622802395969
 10
118.2191405954452
 20
-135.3622802395969
 10
118.2191405954452
 20
-135.3622802395969
 10
118.2280978437068
 20
-135.2353284709654
 10
118.2394666588082
 20
-135.1231906129206
 10
118.3252495363909
 20
-135.004679328228
 10
118.4427272924379
 20
-134.8439656238411
 10
118.6418538114853
 20
-134.8100314333114
 10
118.7662217585029
 20
-134.8100314333114
 10
119.0624999702344
 20
-134.8100314333114
 10
119.2840196099359
 20
-134.9941717869979
 10
119.2840196099359
 20
-135.2670233494298
 10
119.2840196099359
 20
-135.4956054348761
 10
119.1596516629184
 20
-135.5949964396255
 10
118.8296115154315
 20
-135.8213392130064
 97
        0
 97
        1
330
DF
 75
     2
 76
     1
 98
        1
 10
0.0
 20
0.0
450
        0
451
        0
460
0.0
461
0.0
452
        0
462
0.0
453
        0
470

  0
ENDBLK
  5
DC
330
D9
100
AcDbEntity
  8
0
100
AcDbBlockEnd
  0
BLOCK
  5
E4
330
E2
100
AcDbEntity
  8
0
100
AcDbBlockBegin
  2
Block_12
 70
     0
 10
0.0
 20
0.0
 30
0.0
  3
Block_12
  1

  0
LINE
  5
E6
330
E2
100
AcDbEntity
  8
レイヤー 1
 62
   250
420
  2299925
370
     9
100
AcDbLine
 10
100.3522778087794
 20
-158.7760036134298
 30
0.0
 11
90.68740246626191
 21
-158.7760036134298
 31
0.0
  0
LINE
  5
E7
330
E2
100
AcDbEntity
  8
レイヤー 1
 62
   250
420
  2299925
370
     9
100
AcDbLine
 10
100.3522778087794
 20
-158.7760036134298
 30
0.0
 11
103.8525035528142
 21
-158.7760036134298
 31
0.0
  0
LINE
  5
E8
330
E2
100
AcDbEntity
  8
レイヤー 1
 62
   250
420
  2299925
370
     9
100
AcDbLine
 10
100.3522778087794
 20
-157.3159975395666
 30
0.0
 11
100.3522778087794
 21
-159.7761285879145
 31
0.0
  0
LINE
  5
E9
330
E2
100
AcDbEntity
  8
レイヤー 1
 62
   250
420
  2299925
370
     9
100
AcDbLine
 10
103.8525035528142
 20
-157.3159975395666
 30
0.0
 11
103.8525035528142
 21
-159.7761285879145
 31
0.0
  0
INSERT
  5
EB
330
E2
100
AcDbEntity
  8
レイヤー 1
100
AcDbBlockReference
  2
Block_13
 10
0.0
 20
0.0
 30
0.0
  0
SPLINE
  5
F8
330
E2
100
AcDbEntity
  8
レイヤー 1
 62
   250
420
  2299925
370
     9
100
AcDbSpline
210
0.0
220
0.0
230
1.0
 70
     9
 71
     3
 72
    17
 73
    13
 74
     0
 42
0.0000000001
 43
0.0000000001
 40
0.0
 40
0.0
 40
0.0
 40
0.0
 40
1.0
 40
1.0
 40
1.0
 40
2.0
 40
2.0
 40
2.0
 40
3.0
 40
3.0
 40
3.0
 40
4.0
 40
4.0
 40
4.0
 40
4.0
 10
103.8876413518509
 20
-158.7760036134298
 30
0.0
 10
103.8876413518509
 20
-158.7952957734207
 30
0.0
 10
103.8718004967666
 20
-158.8111707734167
 30
0.0
 10
103.8525035528142
 20
-158.8111707734167
 30
0.0
 10
103.8325010533248
 20
-158.8111707734167
 30
0.0
 10
103.8166613315067
 20
-158.7952957734207
 30
0.0
 10
103.8166613315067
 20
-158.7760036134298
 30
0.0
 10
103.8166613315067
 20
-158.7563891694858
 30
0.0
 10
103.8325010533248
 20
-158.7405494476677
 30
0.0
 10
103.8525035528142
 20
-158.7405494476677
 30
0.0
 10
103.8718004967666
 20
-158.7405494476677
 30
0.0
 10
103.8876413518509
 20
-158.7563891694858
 30
0.0
 10
103.8876413518509
 20
-158.7760036134298
 30
0.0
  0
ENDBLK
  5
E5
330
E2
100
AcDbEntity
  8
0
100
AcDbBlockEnd
  0
BLOCK
  5
EC
330
EA
100
AcDbEntity
  8
0
100
AcDbBlockBegin
  2
Block_13
 70
     0
 10
0.0
 20
0.0
 30
0.0
  3
Block_13
  1

  0
INSERT
  5
EF
330
EA
100
AcDbEntity
  8
レイヤー 1
100
AcDbBlockReference
  2
Block_14
 10
0.0
 20
0.0
 30
0.0
  0
ENDBLK
  5
ED
330
EA
100
AcDbEntity
  8
0
100
AcDbBlockEnd
  0
BLOCK
  5
F0
330
EE
100
AcDbEntity
  8
0
100
AcDbBlockBegin
  2
Block_14
 70
     0
 10
0.0
 20
0.0
 30
0.0
  3
Block_14
  1

  0
SPLINE
  5
F2
330
EE
100
AcDbEntity
  8
レイヤー 1
100
AcDbSpline
210
0.0
220
0.0
230
1.0
 70
     9
 71
     3
 72
    62
 73
    58
 74
     0
 42
0.0000000001
 43
0.0000000001
 40
0.0
 40
0.0
 40
0.0
 40
0.0
 40
1.0
 40
1.0
 40
1.0
 40
2.0
 40
2.0
 40
2.0
 40
3.0
 40
3.0
 40
3.0
 40
4.0
 40
4.0
 40
4.0
 40
5.0
 40
5.0
 40
5.0
 40
6.0
 40
6.0
 40
6.0
 40
7.0
 40
7.0
 40
7.0
 40
8.0
 40
8.0
 40
8.0
 40
9.0
 40
9.0
 40
9.0
 40
10.0
 40
10.0
 40
10.0
 40
11.0
 40
11.0
 40
11.0
 40
12.0
 40
12.0
 40
12.0
 40
13.0
 40
13.0
 40
13.0
 40
14.0
 40
14.0
 40
14.0
 40
15.0
 40
15.0
 40
15.0
 40
16.0
 40
16.0
 40
16.0
 40
17.0
 40
17.0
 40
17.0
 40
18.0
 40
18.0
 40
18.0
 40
19.0
 40
19.0
 40
19.0
 40
19.0
 10
101.1864162615957
 20
-158.4540662581295
 30
0.0
 10
101.0846136900066
 20
-158.4540662581295
 30
0.0
 10
100.8517252352037
 20
-158.4330511756695
 30
0.0
 10
100.7184000399246
 20
-158.2466715099175
 30
0.0
 10
100.6393350985381
 20
-158.1347059066469
 30
0.0
 10
100.634684219633
 20
-158.0351426471231
 30
0.0
 10
100.6302055955021
 20
-157.9507378077345
 30
0.0
 10
100.6302055955021
 20
-157.9507378077345
 30
0.0
 10
100.8653333623705
 20
-157.9507378077345
 30
0.0
 10
100.8653333623705
 20
-157.9507378077345
 30
0.0
 10
100.8675726744359
 20
-158.0244628511189
 30
0.0
 10
100.8789414895372
 20
-158.2594183632129
 30
0.0
 10
101.1819376374649
 20
-158.2594183632129
 30
0.0
 10
101.3288709599108
 20
-158.2594183632129
 30
0.0
 10
101.4916517215889
 20
-158.1894829248623
 30
0.0
 10
101.4916517215889
 20
-157.9610730941903
 30
0.0
 10
101.4916517215889
 20
-157.8446288667888
 30
0.0
 10
101.4508273400887
 20
-157.7960530204468
 30
0.0
 10
101.4170654043332
 20
-157.7643581419825
 30
0.0
 10
101.3378282081725
 20
-157.6902885890496
 30
0.0
 10
101.213460261155
 20
-157.6775417357542
 30
0.0
 10
101.1547213831314
 20
-157.6775417357542
 30
0.0
 10
101.1343953197685
 20
-157.6775417357542
 30
0.0
 10
101.0959825051079
 20
-157.6799533025939
 30
0.0
 10
101.066526938709
 20
-157.6840874171762
 30
0.0
 10
101.066526938709
 20
-157.6840874171762
 30
0.0
 10
101.066526938709
 20
-157.4894395222596
 30
0.0
 10
101.066526938709
 20
-157.4894395222596
 30
0.0
 10
101.107179065435
 20
-157.495640694133
 30
0.0
 10
101.152482071066
 20
-157.4977077514242
 30
0.0
 10
101.1592000072623
 20
-157.4977077514242
 30
0.0
 10
101.2293077003871
 20
-157.4977077514242
 30
0.0
 10
101.441870091827
 20
-157.4766926689641
 30
0.0
 10
101.441870091827
 20
-157.2396700995789
 30
0.0
 10
101.441870091827
 20
-157.0619031725401
 30
0.0
 10
101.3016547055773
 20
-157.0071261543246
 30
0.0
 10
101.1841769495303
 20
-157.0071261543246
 30
0.0
 10
100.9015068649656
 20
-157.0071261543246
 30
0.0
 10
100.8925496167039
 20
-157.2396700995789
 30
0.0
 10
100.8878987377988
 20
-157.3116725952207
 30
0.0
 10
100.8878987377988
 20
-157.3116725952207
 30
0.0
 10
100.6708577222281
 20
-157.3116725952207
 30
0.0
 10
100.6708577222281
 20
-157.3116725952207
 30
0.0
 10
100.679987225264
 20
-157.1869601386546
 30
0.0
 10
100.7092705368886
 20
-156.8104112021168
 30
0.0
 10
101.1976128219228
 20
-156.8104112021168
 30
0.0
 10
101.4373914676962
 20
-156.8104112021168
 30
0.0
 10
101.6950846099929
 20
-156.937190715974
 30
0.0
 10
101.6950846099929
 20
-157.2334689277055
 30
0.0
 10
101.6950846099929
 20
-157.419504083909
 30
0.0
 10
101.5932820384037
 20
-157.502186375555
 30
0.0
 10
101.4870008426838
 20
-157.5635090751924
 30
0.0
 10
101.5526299116778
 20
-157.5910698390744
 30
0.0
 10
101.7471055518201
 20
-157.6713405638808
 30
0.0
 10
101.7471055518201
 20
-157.9483262408948
 30
0.0
 10
101.7471055518201
 20
-158.2869791270949
 30
0.0
 10
101.482522218553
 20
-158.4540662581295
 30
0.0
 10
101.1864162615957
 20
-158.4540662581295
 30
0.0
  0
HATCH
  5
F3
330
EE
100
AcDbEntity
  8
レイヤー 1
 62
   250
420
  2299925
440
 33554687
100
AcDbHatch
 10
0.0
 20
0.0
 30
0.0
210
0.0
220
0.0
230
1.0
  2
SOLID
 70
     1
 71
     1
 91
        1
 92
        1
 93
        1
 72
     4
 94
        3
 73
     0
 74
     0
 95
       62
 96
       58
 40
0.0
 40
0.0
 40
0.0
 40
0.0
 40
1.0
 40
1.0
 40
1.0
 40
2.0
 40
2.0
 40
2.0
 40
3.0
 40
3.0
 40
3.0
 40
4.0
 40
4.0
 40
4.0
 40
5.0
 40
5.0
 40
5.0
 40
6.0
 40
6.0
 40
6.0
 40
7.0
 40
7.0
 40
7.0
 40
8.0
 40
8.0
 40
8.0
 40
9.0
 40
9.0
 40
9.0
 40
10.0
 40
10.0
 40
10.0
 40
11.0
 40
11.0
 40
11.0
 40
12.0
 40
12.0
 40
12.0
 40
13.0
 40
13.0
 40
13.0
 40
14.0
 40
14.0
 40
14.0
 40
15.0
 40
15.0
 40
15.0
 40
16.0
 40
16.0
 40
16.0
 40
17.0
 40
17.0
 40
17.0
 40
18.0
 40
18.0
 40
18.0
 40
19.0
 40
19.0
 40
19.0
 40
19.0
 10
101.1864162615957
 20
-158.4540662581295
 10
101.0846136900066
 20
-158.4540662581295
 10
100.8517252352037
 20
-158.4330511756695
 10
100.7184000399246
 20
-158.2466715099175
 10
100.6393350985381
 20
-158.1347059066469
 10
100.634684219633
 20
-158.0351426471231
 10
100.6302055955021
 20
-157.9507378077345
 10
100.6302055955021
 20
-157.9507378077345
 10
100.8653333623705
 20
-157.9507378077345
 10
100.8653333623705
 20
-157.9507378077345
 10
100.8675726744359
 20
-158.0244628511189
 10
100.8789414895372
 20
-158.2594183632129
 10
101.1819376374649
 20
-158.2594183632129
 10
101.3288709599108
 20
-158.2594183632129
 10
101.4916517215889
 20
-158.1894829248623
 10
101.4916517215889
 20
-157.9610730941903
 10
101.4916517215889
 20
-157.8446288667888
 10
101.4508273400887
 20
-157.7960530204468
 10
101.4170654043332
 20
-157.7643581419825
 10
101.3378282081725
 20
-157.6902885890496
 10
101.213460261155
 20
-157.6775417357542
 10
101.1547213831314
 20
-157.6775417357542
 10
101.1343953197685
 20
-157.6775417357542
 10
101.0959825051079
 20
-157.6799533025939
 10
101.066526938709
 20
-157.6840874171762
 10
101.066526938709
 20
-157.6840874171762
 10
101.066526938709
 20
-157.4894395222596
 10
101.066526938709
 20
-157.4894395222596
 10
101.107179065435
 20
-157.495640694133
 10
101.152482071066
 20
-157.4977077514242
 10
101.1592000072623
 20
-157.4977077514242
 10
101.2293077003871
 20
-157.4977077514242
 10
101.441870091827
 20
-157.4766926689641
 10
101.441870091827
 20
-157.2396700995789
 10
101.441870091827
 20
-157.0619031725401
 10
101.3016547055773
 20
-157.0071261543246
 10
101.1841769495303
 20
-157.0071261543246
 10
100.9015068649656
 20
-157.0071261543246
 10
100.8925496167039
 20
-157.2396700995789
 10
100.8878987377988
 20
-157.3116725952207
 10
100.8878987377988
 20
-157.3116725952207
 10
100.6708577222281
 20
-157.3116725952207
 10
100.6708577222281
 20
-157.3116725952207
 10
100.679987225264
 20
-157.1869601386546
 10
100.7092705368886
 20
-156.8104112021168
 10
101.1976128219228
 20
-156.8104112021168
 10
101.4373914676962
 20
-156.8104112021168
 10
101.6950846099929
 20
-156.937190715974
 10
101.6950846099929
 20
-157.2334689277055
 10
101.6950846099929
 20
-157.419504083909
 10
101.5932820384037
 20
-157.502186375555
 10
101.4870008426838
 20
-157.5635090751924
 10
101.5526299116778
 20
-157.5910698390744
 10
101.7471055518201
 20
-157.6713405638808
 10
101.7471055518201
 20
-157.9483262408948
 10
101.7471055518201
 20
-158.2869791270949
 10
101.482522218553
 20
-158.4540662581295
 10
101.1864162615957
 20
-158.4540662581295
 97
        0
 97
        1
330
F2
 75
     2
 76
     1
 98
        1
 10
0.0
 20
0.0
450
        0
451
        0
460
0.0
461
0.0
452
        0
462
0.0
453
        0
470

  0
SPLINE
  5
F4
330
EE
100
AcDbEntity
  8
レイヤー 1
100
AcDbSpline
210
0.0
220
0.0
230
1.0
 70
    11
 71
     3
 72
    17
 73
    13
 74
     0
 42
0.0000000001
 43
0.0000000001
 40
0.0
 40
0.0
 40
0.0
 40
0.0
 40
1.0
 40
1.0
 40
1.0
 40
2.0
 40
2.0
 40
2.0
 40
3.0
 40
3.0
 40
3.0
 40
4.0
 40
4.0
 40
4.0
 40
4.0
 10
101.9829223377855
 20
-158.4034233544963
 30
0.0
 10
101.9829223377855
 20
-158.4034233544963
 30
0.0
 10
101.9829223377855
 20
-158.1515868745246
 30
0.0
 10
101.9829223377855
 20
-158.1515868745246
 30
0.0
 10
101.9829223377855
 20
-158.1515868745246
 30
0.0
 10
102.2519842951835
 20
-158.1515868745246
 30
0.0
 10
102.2519842951835
 20
-158.1515868745246
 30
0.0
 10
102.2519842951835
 20
-158.1515868745246
 30
0.0
 10
102.2519842951835
 20
-158.4034233544963
 30
0.0
 10
102.2519842951835
 20
-158.4034233544963
 30
0.0
 10
102.2519842951835
 20
-158.4034233544963
 30
0.0
 10
101.9829223377855
 20
-158.4034233544963
 30
0.0
 10
101.9829223377855
 20
-158.4034233544963
 30
0.0
  0
HATCH
  5
F5
330
EE
100
AcDbEntity
  8
レイヤー 1
 62
   250
420
  2299925
440
 33554687
100
AcDbHatch
 10
0.0
 20
0.0
 30
0.0
210
0.0
220
0.0
230
1.0
  2
SOLID
 70
     1
 71
     1
 91
        1
 92
        1
 93
        1
 72
     4
 94
        3
 73
     0
 74
     0
 95
       17
 96
       13
 40
0.0
 40
0.0
 40
0.0
 40
0.0
 40
1.0
 40
1.0
 40
1.0
 40
2.0
 40
2.0
 40
2.0
 40
3.0
 40
3.0
 40
3.0
 40
4.0
 40
4.0
 40
4.0
 40
4.0
 10
101.9829223377855
 20
-158.4034233544963
 10
101.9829223377855
 20
-158.4034233544963
 10
101.9829223377855
 20
-158.1515868745246
 10
101.9829223377855
 20
-158.1515868745246
 10
101.9829223377855
 20
-158.1515868745246
 10
102.2519842951835
 20
-158.1515868745246
 10
102.2519842951835
 20
-158.1515868745246
 10
102.2519842951835
 20
-158.1515868745246
 10
102.2519842951835
 20
-158.4034233544963
 10
102.2519842951835
 20
-158.4034233544963
 10
102.2519842951835
 20
-158.4034233544963
 10
101.9829223377855
 20
-158.4034233544963
 10
101.9829223377855
 20
-158.4034233544963
 97
        0
 97
        1
330
F4
 75
     2
 76
     1
 98
        1
 10
0.0
 20
0.0
450
        0
451
        0
460
0.0
461
0.0
452
        0
462
0.0
453
        0
470

  0
SPLINE
  5
F6
330
EE
100
AcDbEntity
  8
レイヤー 1
100
AcDbSpline
210
0.0
220
0.0
230
1.0
 70
     9
 71
     3
 72
    53
 73
    49
 74
     0
 42
0.0000000001
 43
0.0000000001
 40
0.0
 40
0.0
 40
0.0
 40
0.0
 40
1.0
 40
1.0
 40
1.0
 40
2.0
 40
2.0
 40
2.0
 40
3.0
 40
3.0
 40
3.0
 40
4.0
 40
4.0
 40
4.0
 40
5.0
 40
5.0
 40
5.0
 40
6.0
 40
6.0
 40
6.0
 40
7.0
 40
7.0
 40
7.0
 40
8.0
 40
8.0
 40
8.0
 40
9.0
 40
9.0
 40
9.0
 40
10.0
 40
10.0
 40
10.0
 40
11.0
 40
11.0
 40
11.0
 40
12.0
 40
12.0
 40
12.0
 40
13.0
 40
13.0
 40
13.0
 40
14.0
 40
14.0
 40
14.0
 40
15.0
 40
15.0
 40
15.0
 40
16.0
 40
16.0
 40
16.0
 40
16.0
 10
103.0186902954259
 20
-158.4540662581295
 30
0.0
 10
102.9351467299085
 20
-158.4540662581295
 30
0.0
 10
102.8266262221232
 20
-158.4371852902518
 30
0.0
 10
102.7181057143378
 20
-158.3737955333232
 30
0.0
 10
102.5325873224571
 20
-158.2635524777952
 30
0.0
 10
102.5100219470287
 20
-158.1326388493557
 30
0.0
 10
102.4896958836657
 20
-158.0244628511189
 30
0.0
 10
102.4896958836657
 20
-158.0244628511189
 30
0.0
 10
102.7270629625995
 20
-158.0244628511189
 30
0.0
 10
102.7270629625995
 20
-158.0244628511189
 30
0.0
 10
102.785801840623
 20
-158.2235893701663
 30
0.0
 10
102.9215386027418
 20
-158.2532171913394
 30
0.0
 10
103.0209296074913
 20
-158.2532171913394
 30
0.0
 10
103.1702744967769
 20
-158.2532171913394
 30
0.0
 10
103.3330552584549
 20
-158.1536539318157
 30
0.0
 10
103.3330552584549
 20
-157.9211099865614
 30
0.0
 10
103.3330552584549
 20
-157.6651393920073
 30
0.0
 10
103.140818930378
 20
-157.5952039536567
 30
0.0
 10
103.0119723592296
 20
-157.5952039536567
 30
0.0
 10
102.9780381686999
 20
-157.5952039536567
 30
0.0
 10
102.8266262221232
 20
-157.5952039536567
 30
0.0
 10
102.7315415867303
 20
-157.7240505248051
 30
0.0
 10
102.7315415867303
 20
-157.7240505248051
 30
0.0
 10
102.5439561375584
 20
-157.7051024996362
 30
0.0
 10
102.5439561375584
 20
-157.7051024996362
 30
0.0
 10
102.5439561375584
 20
-157.7051024996362
 30
0.0
 10
102.6728027087068
 20
-156.8589870484588
 30
0.0
 10
102.6728027087068
 20
-156.8589870484588
 30
0.0
 10
102.6728027087068
 20
-156.8589870484588
 30
0.0
 10
103.5047932683946
 20
-156.8589870484588
 30
0.0
 10
103.5047932683946
 20
-156.8589870484588
 30
0.0
 10
103.5047932683946
 20
-156.8589870484588
 30
0.0
 10
103.5047932683946
 20
-157.0536349433755
 30
0.0
 10
103.5047932683946
 20
-157.0536349433755
 30
0.0
 10
103.5047932683946
 20
-157.0536349433755
 30
0.0
 10
102.8469522854862
 20
-157.0536349433755
 30
0.0
 10
102.8469522854862
 20
-157.0536349433755
 30
0.0
 10
102.8469522854862
 20
-157.0536349433755
 30
0.0
 10
102.7768445923613
 20
-157.4766926689641
 30
0.0
 10
102.7768445923613
 20
-157.4766926689641
 30
0.0
 10
102.8423014065811
 20
-157.4429307332087
 30
0.0
 10
102.9304958510035
 20
-157.4026231160313
 30
0.0
 10
103.0571031100864
 20
-157.4026231160313
 30
0.0
 10
103.3284043795498
 20
-157.4026231160313
 30
0.0
 10
103.5816188977157
 20
-157.5886582722348
 30
0.0
 10
103.5816188977157
 20
-157.901817451844
 30
0.0
 10
103.5816188977157
 20
-158.2191107460355
 30
0.0
 10
103.3420125067166
 20
-158.4540662581295
 30
0.0
 10
103.0186902954259
 20
-158.4540662581295
 30
0.0
  0
HATCH
  5
F7
330
EE
100
AcDbEntity
  8
レイヤー 1
 62
   250
420
  2299925
440
 33554687
100
AcDbHatch
 10
0.0
 20
0.0
 30
0.0
210
0.0
220
0.0
230
1.0
  2
SOLID
 70
     1
 71
     1
 91
        1
 92
        1
 93
        1
 72
     4
 94
        3
 73
     0
 74
     0
 95
       53
 96
       49
 40
0.0
 40
0.0
 40
0.0
 40
0.0
 40
1.0
 40
1.0
 40
1.0
 40
2.0
 40
2.0
 40
2.0
 40
3.0
 40
3.0
 40
3.0
 40
4.0
 40
4.0
 40
4.0
 40
5.0
 40
5.0
 40
5.0
 40
6.0
 40
6.0
 40
6.0
 40
7.0
 40
7.0
 40
7.0
 40
8.0
 40
8.0
 40
8.0
 40
9.0
 40
9.0
 40
9.0
 40
10.0
 40
10.0
 40
10.0
 40
11.0
 40
11.0
 40
11.0
 40
12.0
 40
12.0
 40
12.0
 40
13.0
 40
13.0
 40
13.0
 40
14.0
 40
14.0
 40
14.0
 40
15.0
 40
15.0
 40
15.0
 40
16.0
 40
16.0
 40
16.0
 40
16.0
 10
103.0186902954259
 20
-158.4540662581295
 10
102.9351467299085
 20
-158.4540662581295
 10
102.8266262221232
 20
-158.4371852902518
 10
102.7181057143378
 20
-158.3737955333232
 10
102.5325873224571
 20
-158.2635524777952
 10
102.5100219470287
 20
-158.1326388493557
 10
102.4896958836657
 20
-158.0244628511189
 10
102.4896958836657
 20
-158.0244628511189
 10
102.7270629625995
 20
-158.0244628511189
 10
102.7270629625995
 20
-158.0244628511189
 10
102.785801840623
 20
-158.2235893701663
 10
102.9215386027418
 20
-158.2532171913394
 10
103.0209296074913
 20
-158.2532171913394
 10
103.1702744967769
 20
-158.2532171913394
 10
103.3330552584549
 20
-158.1536539318157
 10
103.3330552584549
 20
-157.9211099865614
 10
103.3330552584549
 20
-157.6651393920073
 10
103.140818930378
 20
-157.5952039536567
 10
103.0119723592296
 20
-157.5952039536567
 10
102.9780381686999
 20
-157.5952039536567
 10
102.8266262221232
 20
-157.5952039536567
 10
102.7315415867303
 20
-157.7240505248051
 10
102.7315415867303
 20
-157.7240505248051
 10
102.5439561375584
 20
-157.7051024996362
 10
102.5439561375584
 20
-157.7051024996362
 10
102.5439561375584
 20
-157.7051024996362
 10
102.6728027087068
 20
-156.8589870484588
 10
102.6728027087068
 20
-156.8589870484588
 10
102.6728027087068
 20
-156.8589870484588
 10
103.5047932683946
 20
-156.8589870484588
 10
103.5047932683946
 20
-156.8589870484588
 10
103.5047932683946
 20
-156.8589870484588
 10
103.5047932683946
 20
-157.0536349433755
 10
103.5047932683946
 20
-157.0536349433755
 10
103.5047932683946
 20
-157.0536349433755
 10
102.8469522854862
 20
-157.0536349433755
 10
102.8469522854862
 20
-157.0536349433755
 10
102.8469522854862
 20
-157.0536349433755
 10
102.7768445923613
 20
-157.4766926689641
 10
102.7768445923613
 20
-157.4766926689641
 10
102.8423014065811
 20
-157.4429307332087
 10
102.9304958510035
 20
-157.4026231160313
 10
103.0571031100864
 20
-157.4026231160313
 10
103.3284043795498
 20
-157.4026231160313
 10
103.5816188977157
 20
-157.5886582722348
 10
103.5816188977157
 20
-157.901817451844
 10
103.5816188977157
 20
-158.2191107460355
 10
103.3420125067166
 20
-158.4540662581295
 10
103.0186902954259
 20
-158.4540662581295
 97
        0
 97
        1
330
F6
 75
     2
 76
     1
 98
        1
 10
0.0
 20
0.0
450
        0
451
        0
460
0.0
461
0.0
452
        0
462
0.0
453
        0
470

  0
ENDBLK
  5
F1
330
EE
100
AcDbEntity
  8
0
100
AcDbBlockEnd
  0
BLOCK
  5
FB
330
F9
100
AcDbEntity
  8
0
100
AcDbBlockBegin
  2
Block_15
 70
     0
 10
0.0
 20
0.0
 30
0.0
  3
Block_15
  1

  0
LINE
  5
FD
330
F9
100
AcDbEntity
  8
レイヤー 1
 62
   250
420
  2299925
370
     9
100
AcDbLine
 10
96.10239930609171
 20
-162.7761154558223
 30
0.0
 11
108.1023820555022
 21
-162.7761154558223
 31
0.0
  0
LINE
  5
FE
330
F9
100
AcDbEntity
  8
レイヤー 1
 62
   250
420
  2299925
370
     9
100
AcDbLine
 10
96.10239930609171
 20
-156.3158725650819
 30
0.0
 11
96.10239930609171
 21
-163.7758876525389
 31
0.0
  0
LINE
  5
FF
330
F9
100
AcDbEntity
  8
レイヤー 1
 62
   250
420
  2299925
370
     9
100
AcDbLine
 10
108.1023820555022
 20
-156.3158725650819
 30
0.0
 11
108.1023820555022
 21
-163.7758876525389
 31
0.0
  0
INSERT
  5
101
330
F9
100
AcDbEntity
  8
レイヤー 1
100
AcDbBlockReference
  2
Block_16
 10
0.0
 20
0.0
 30
0.0
  0
SPLINE
  5
10C
330
F9
100
AcDbEntity
  8
レイヤー 1
 62
   250
420
  2299925
370
     9
100
AcDbSpline
210
0.0
220
0.0
230
1.0
 70
     9
 71
     3
 72
    17
 73
    13
 74
     0
 42
0.0000000001
 43
0.0000000001
 40
0.0
 40
0.0
 40
0.0
 40
0.0
 40
1.0
 40
1.0
 40
1.0
 40
2.0
 40
2.0
 40
2.0
 40
3.0
 40
3.0
 40
3.0
 40
4.0
 40
4.0
 40
4.0
 40
4.0
 10
108.1375187212724
 20
-162.7761154558223
 30
0.0
 10
108.1375187212724
 20
-162.7954123997751
 30
0.0
 10
108.1216802396808
 20
-162.8112521215932
 30
0.0
 10
108.1023820555022
 20
-162.8112521215932
 30
0.0
 10
108.08308511155
 20
-162.8112521215932
 30
0.0
 10
108.0672453897319
 20
-162.7954123997751
 30
0.0
 10
108.0672453897319
 20
-162.7761154558223
 30
0.0
 10
108.0672453897319
 20
-162.7565010118789
 30
0.0
 10
108.08308511155
 20
-162.7406260122839
 30
0.0
 10
108.1023820555022
 20
-162.7406260122839
 30
0.0
 10
108.1216802396808
 20
-162.7406260122839
 30
0.0
 10
108.1375187212724
 20
-162.7565010118789
 30
0.0
 10
108.1375187212724
 20
-162.7761154558223
 30
0.0
  0
ENDBLK
  5
FC
330
F9
100
AcDbEntity
  8
0
100
AcDbBlockEnd
  0
BLOCK
  5
102
330
100
100
AcDbEntity
  8
0
100
AcDbBlockBegin
  2
Block_16
 70
     0
 10
0.0
 20
0.0
 30
0.0
  3
Block_16
  1

  0
INSERT
  5
105
330
100
100
AcDbEntity
  8
レイヤー 1
100
AcDbBlockReference
  2
Block_17
 10
0.0
 20
0.0
 30
0.0
  0
ENDBLK
  5
103
330
100
100
AcDbEntity
  8
0
100
AcDbBlockEnd
  0
BLOCK
  5
106
330
104
100
AcDbEntity
  8
0
100
AcDbBlockBegin
  2
Block_17
 70
     0
 10
0.0
 20
0.0
 30
0.0
  3
Block_17
  1

  0
SPLINE
  5
108
330
104
100
AcDbEntity
  8
レイヤー 1
100
AcDbSpline
210
0.0
220
0.0
230
1.0
 70
    11
 71
     3
 72
    26
 73
    22
 74
     0
 42
0.0000000001
 43
0.0000000001
 40
0.0
 40
0.0
 40
0.0
 40
0.0
 40
1.0
 40
1.0
 40
1.0
 40
2.0
 40
2.0
 40
2.0
 40
3.0
 40
3.0
 40
3.0
 40
4.0
 40
4.0
 40
4.0
 40
5.0
 40
5.0
 40
5.0
 40
6.0
 40
6.0
 40
6.0
 40
7.0
 40
7.0
 40
7.0
 40
7.0
 10
101.420855009367
 20
-162.4031792128714
 30
0.0
 10
101.420855009367
 20
-162.4031792128714
 30
0.0
 10
101.420855009367
 20
-161.2986816003003
 30
0.0
 10
101.420855009367
 20
-161.2986816003003
 30
0.0
 10
101.420855009367
 20
-161.2986816003003
 30
0.0
 10
101.0680772316774
 20
-161.2986816003003
 30
0.0
 10
101.0680772316774
 20
-161.2986816003003
 30
0.0
 10
101.0680772316774
 20
-161.2986816003003
 30
0.0
 10
101.0680772316774
 20
-161.1505424944346
 30
0.0
 10
101.0680772316774
 20
-161.1505424944346
 30
0.0
 10
101.4230943214324
 20
-161.135728583848
 30
0.0
 10
101.47270369642
 20
-160.9731200769442
 30
0.0
 10
101.5043985748843
 20
-160.8587429068339
 30
0.0
 10
101.5043985748843
 20
-160.8587429068339
 30
0.0
 10
101.6604614003661
 20
-160.8587429068339
 30
0.0
 10
101.6604614003661
 20
-160.8587429068339
 30
0.0
 10
101.6604614003661
 20
-160.8587429068339
 30
0.0
 10
101.6604614003661
 20
-162.4031792128714
 30
0.0
 10
101.6604614003661
 20
-162.4031792128714
 30
0.0
 10
101.6604614003661
 20
-162.4031792128714
 30
0.0
 10
101.420855009367
 20
-162.4031792128714
 30
0.0
 10
101.420855009367
 20
-162.4031792128714
 30
0.0
  0
HATCH
  5
109
330
104
100
AcDbEntity
  8
レイヤー 1
 62
   250
420
  2299925
440
 33554687
100
AcDbHatch
 10
0.0
 20
0.0
 30
0.0
210
0.0
220
0.0
230
1.0
  2
SOLID
 70
     1
 71
     1
 91
        1
 92
        1
 93
        1
 72
     4
 94
        3
 73
     0
 74
     0
 95
       26
 96
       22
 40
0.0
 40
0.0
 40
0.0
 40
0.0
 40
1.0
 40
1.0
 40
1.0
 40
2.0
 40
2.0
 40
2.0
 40
3.0
 40
3.0
 40
3.0
 40
4.0
 40
4.0
 40
4.0
 40
5.0
 40
5.0
 40
5.0
 40
6.0
 40
6.0
 40
6.0
 40
7.0
 40
7.0
 40
7.0
 40
7.0
 10
101.420855009367
 20
-162.4031792128714
 10
101.420855009367
 20
-162.4031792128714
 10
101.420855009367
 20
-161.2986816003003
 10
101.420855009367
 20
-161.2986816003003
 10
101.420855009367
 20
-161.2986816003003
 10
101.0680772316774
 20
-161.2986816003003
 10
101.0680772316774
 20
-161.2986816003003
 10
101.0680772316774
 20
-161.2986816003003
 10
101.0680772316774
 20
-161.1505424944346
 10
101.0680772316774
 20
-161.1505424944346
 10
101.4230943214324
 20
-161.135728583848
 10
101.47270369642
 20
-160.9731200769442
 10
101.5043985748843
 20
-160.8587429068339
 10
101.5043985748843
 20
-160.8587429068339
 10
101.6604614003661
 20
-160.8587429068339
 10
101.6604614003661
 20
-160.8587429068339
 10
101.6604614003661
 20
-160.8587429068339
 10
101.6604614003661
 20
-162.4031792128714
 10
101.6604614003661
 20
-162.4031792128714
 10
101.6604614003661
 20
-162.4031792128714
 10
101.420855009367
 20
-162.4031792128714
 10
101.420855009367
 20
-162.4031792128714
 97
        0
 97
        1
330
108
 75
     2
 76
     1
 98
        1
 10
0.0
 20
0.0
450
        0
451
        0
460
0.0
461
0.0
452
        0
462
0.0
453
        0
470

  0
SPLINE
  5
10A
330
104
100
AcDbEntity
  8
レイヤー 1
100
AcDbSpline
210
0.0
220
0.0
230
1.0
 70
     9
 71
     3
 72
    44
 73
    40
 74
     0
 42
0.0000000001
 43
0.0000000001
 40
0.0
 40
0.0
 40
0.0
 40
0.0
 40
1.0
 40
1.0
 40
1.0
 40
2.0
 40
2.0
 40
2.0
 40
3.0
 40
3.0
 40
3.0
 40
4.0
 40
4.0
 40
4.0
 40
5.0
 40
5.0
 40
5.0
 40
6.0
 40
6.0
 40
6.0
 40
7.0
 40
7.0
 40
7.0
 40
8.0
 40
8.0
 40
8.0
 40
9.0
 40
9.0
 40
9.0
 40
10.0
 40
10.0
 40
10.0
 40
11.0
 40
11.0
 40
11.0
 40
12.0
 40
12.0
 40
12.0
 40
13.0
 40
13.0
 40
13.0
 40
13.0
 10
102.8300713176084
 20
-161.8213025854127
 30
0.0
 10
102.5971828628055
 20
-161.9797769777342
 30
0.0
 10
102.4976196032818
 20
-162.0538465306671
 30
0.0
 10
102.4457709162288
 20
-162.1978515219505
 30
0.0
 10
102.4457709162288
 20
-162.1978515219505
 30
0.0
 10
103.2777614759166
 20
-162.1978515219505
 30
0.0
 10
103.2777614759166
 20
-162.1978515219505
 30
0.0
 10
103.2777614759166
 20
-162.1978515219505
 30
0.0
 10
103.2777614759166
 20
-162.4031792128714
 30
0.0
 10
103.2777614759166
 20
-162.4031792128714
 30
0.0
 10
103.2777614759166
 20
-162.4031792128714
 30
0.0
 10
102.1789482708962
 20
-162.4031792128714
 30
0.0
 10
102.1789482708962
 20
-162.4031792128714
 30
0.0
 10
102.2128824614259
 20
-162.0455783015025
 30
0.0
 10
102.2828178997765
 20
-161.9673746339873
 30
0.0
 10
102.6943345554896
 20
-161.6690293649647
 30
0.0
 10
102.9678751370184
 20
-161.4702473554658
 30
0.0
 10
103.0379828301433
 20
-161.4023789744063
 30
0.0
 10
103.0379828301433
 20
-161.2649196645449
 30
0.0
 10
103.0379828301433
 20
-161.1464083798523
 30
0.0
 10
102.9611572008222
 20
-161.0151502418642
 30
0.0
 10
102.7508341214477
 20
-161.0151502418642
 30
0.0
 10
102.472814915788
 20
-161.0151502418642
 30
0.0
 10
102.4636854127521
 20
-161.245971639376
 30
0.0
 10
102.4592067886213
 20
-161.3620713572289
 30
0.0
 10
102.4592067886213
 20
-161.3620713572289
 30
0.0
 10
102.2196003976222
 20
-161.3620713572289
 30
0.0
 10
102.2196003976222
 20
-161.3620713572289
 30
0.0
 10
102.2287299006581
 20
-161.2352918433717
 30
0.0
 10
102.2399264609851
 20
-161.1233262401011
 30
0.0
 10
102.3258815933421
 20
-161.0048149554085
 30
0.0
 10
102.4433593493891
 20
-160.8439289962474
 30
0.0
 10
102.6423136136623
 20
-160.8101670604919
 30
0.0
 10
102.7666815606798
 20
-160.8101670604919
 30
0.0
 10
103.0629597724113
 20
-160.8101670604919
 30
0.0
 10
103.2844794121129
 20
-160.9941351594042
 30
0.0
 10
103.2844794121129
 20
-161.266986721836
 30
0.0
 10
103.2844794121129
 20
-161.4953965525081
 30
0.0
 10
103.1601114650954
 20
-161.5949598120318
 30
0.0
 10
102.8300713176084
 20
-161.8213025854127
 30
0.0
  0
HATCH
  5
10B
330
104
100
AcDbEntity
  8
レイヤー 1
 62
   250
420
  2299925
440
 33554687
100
AcDbHatch
 10
0.0
 20
0.0
 30
0.0
210
0.0
220
0.0
230
1.0
  2
SOLID
 70
     1
 71
     1
 91
        1
 92
        1
 93
        1
 72
     4
 94
        3
 73
     0
 74
     0
 95
       44
 96
       40
 40
0.0
 40
0.0
 40
0.0
 40
0.0
 40
1.0
 40
1.0
 40
1.0
 40
2.0
 40
2.0
 40
2.0
 40
3.0
 40
3.0
 40
3.0
 40
4.0
 40
4.0
 40
4.0
 40
5.0
 40
5.0
 40
5.0
 40
6.0
 40
6.0
 40
6.0
 40
7.0
 40
7.0
 40
7.0
 40
8.0
 40
8.0
 40
8.0
 40
9.0
 40
9.0
 40
9.0
 40
10.0
 40
10.0
 40
10.0
 40
11.0
 40
11.0
 40
11.0
 40
12.0
 40
12.0
 40
12.0
 40
13.0
 40
13.0
 40
13.0
 40
13.0
 10
102.8300713176084
 20
-161.8213025854127
 10
102.5971828628055
 20
-161.9797769777342
 10
102.4976196032818
 20
-162.0538465306671
 10
102.4457709162288
 20
-162.1978515219505
 10
102.4457709162288
 20
-162.1978515219505
 10
103.2777614759166
 20
-162.1978515219505
 10
103.2777614759166
 20
-162.1978515219505
 10
103.2777614759166
 20
-162.1978515219505
 10
103.2777614759166
 20
-162.4031792128714
 10
103.2777614759166
 20
-162.4031792128714
 10
103.2777614759166
 20
-162.4031792128714
 10
102.1789482708962
 20
-162.4031792128714
 10
102.1789482708962
 20
-162.4031792128714
 10
102.2128824614259
 20
-162.0455783015025
 10
102.2828178997765
 20
-161.9673746339873
 10
102.6943345554896
 20
-161.6690293649647
 10
102.9678751370184
 20
-161.4702473554658
 10
103.0379828301433
 20
-161.4023789744063
 10
103.0379828301433
 20
-161.2649196645449
 10
103.0379828301433
 20
-161.1464083798523
 10
102.9611572008222
 20
-161.0151502418642
 10
102.7508341214477
 20
-161.0151502418642
 10
102.472814915788
 20
-161.0151502418642
 10
102.4636854127521
 20
-161.245971639376
 10
102.4592067886213
 20
-161.3620713572289
 10
102.4592067886213
 20
-161.3620713572289
 10
102.2196003976222
 20
-161.3620713572289
 10
102.2196003976222
 20
-161.3620713572289
 10
102.2287299006581
 20
-161.2352918433717
 10
102.2399264609851
 20
-161.1233262401011
 10
102.3258815933421
 20
-161.0048149554085
 10
102.4433593493891
 20
-160.8439289962474
 10
102.6423136136623
 20
-160.8101670604919
 10
102.7666815606798
 20
-160.8101670604919
 10
103.0629597724113
 20
-160.8101670604919
 10
103.2844794121129
 20
-160.9941351594042
 10
103.2844794121129
 20
-161.266986721836
 10
103.2844794121129
 20
-161.4953965525081
 10
103.1601114650954
 20
-161.5949598120318
 10
102.8300713176084
 20
-161.8213025854127
 97
        0
 97
        1
330
10A
 75
     2
 76
     1
 98
        1
 10
0.0
 20
0.0
450
        0
451
        0
460
0.0
461
0.0
452
        0
462
0.0
453
        0
470

  0
ENDBLK
  5
107
330
104
100
AcDbEntity
  8
0
100
AcDbBlockEnd
  0
BLOCK
  5
10F
330
10D
100
AcDbEntity
  8
0
100
AcDbBlockBegin
  2
Block_18
 70
     0
 10
0.0
 20
0.0
 30
0.0
  3
Block_18
  1

  0
LINE
  5
111
330
10D
100
AcDbEntity
  8
レイヤー 1
 62
   250
420
  2299925
370
     9
100
AcDbLine
 10
108.1023820555022
 20
-162.7761154558223
 30
0.0
 11
117.1023441263253
 21
-162.7761154558223
 31
0.0
  0
LINE
  5
112
330
10D
100
AcDbEntity
  8
レイヤー 1
 62
   250
420
  2299925
370
     9
100
AcDbLine
 10
117.1023441263253
 20
-157.3159975395666
 30
0.0
 11
117.1023441263253
 21
-163.7758876525389
 31
0.0
  0
INSERT
  5
114
330
10D
100
AcDbEntity
  8
レイヤー 1
100
AcDbBlockReference
  2
Block_19
 10
0.0
 20
0.0
 30
0.0
  0
SPLINE
  5
11A
330
10D
100
AcDbEntity
  8
レイヤー 1
 62
   250
420
  2299925
370
     9
100
AcDbSpline
210
0.0
220
0.0
230
1.0
 70
     9
 71
     3
 72
    17
 73
    13
 74
     0
 42
0.0000000001
 43
0.0000000001
 40
0.0
 40
0.0
 40
0.0
 40
0.0
 40
1.0
 40
1.0
 40
1.0
 40
2.0
 40
2.0
 40
2.0
 40
3.0
 40
3.0
 40
3.0
 40
4.0
 40
4.0
 40
4.0
 40
4.0
 10
117.1374793249976
 20
-162.7761154558223
 30
0.0
 10
117.1374793249976
 20
-162.7954123997751
 30
0.0
 10
117.1216396031795
 20
-162.8112521215932
 30
0.0
 10
117.1023441263253
 20
-162.8112521215932
 30
0.0
 10
117.0830457152753
 20
-162.8112521215932
 30
0.0
 10
117.0672059934571
 20
-162.7954123997751
 30
0.0
 10
117.0672059934571
 20
-162.7761154558223
 30
0.0
 10
117.0672059934571
 20
-162.7565010118789
 30
0.0
 10
117.0830457152753
 20
-162.7406260122839
 30
0.0
 10
117.1023441263253
 20
-162.7406260122839
 30
0.0
 10
117.1216396031795
 20
-162.7406260122839
 30
0.0
 10
117.1374793249976
 20
-162.7565010118789
 30
0.0
 10
117.1374793249976
 20
-162.7761154558223
 30
0.0
  0
ENDBLK
  5
110
330
10D
100
AcDbEntity
  8
0
100
AcDbBlockEnd
  0
BLOCK
  5
115
330
113
100
AcDbEntity
  8
0
100
AcDbBlockBegin
  2
Block_19
 70
     0
 10
0.0
 20
0.0
 30
0.0
  3
Block_19
  1

  0
SPLINE
  5
117
330
113
100
AcDbEntity
  8
レイヤー 1
100
AcDbSpline
210
0.0
220
0.0
230
1.0
 70
     9
 71
     3
 72
    17
 73
    13
 74
     0
 42
0.0000000001
 43
0.0000000001
 40
0.0
 40
0.0
 40
0.0
 40
0.0
 40
1.0
 40
1.0
 40
1.0
 40
2.0
 40
2.0
 40
2.0
 40
3.0
 40
3.0
 40
3.0
 40
4.0
 40
4.0
 40
4.0
 40
4.0
 10
112.5988118208086
 20
-161.0024033885688
 30
0.0
 10
112.4720323069514
 20
-161.0024033885688
 30
0.0
 10
112.2846191125538
 20
-161.059591973624
 30
0.0
 10
112.2846191125538
 20
-161.3451903893512
 30
0.0
 10
112.2846191125538
 20
-161.5715331627321
 30
0.0
 10
112.4337917470652
 20
-161.6669623076735
 30
0.0
 10
112.5784857574456
 20
-161.6669623076735
 30
0.0
 10
112.858916529945
 20
-161.6669623076735
 30
0.0
 10
112.8995686566709
 20
-161.4575005021703
 30
0.0
 10
112.8995686566709
 20
-161.3410562747689
 30
0.0
 10
112.8995686566709
 20
-161.1653564050211
 30
0.0
 10
112.7975938303075
 20
-161.0024033885688
 30
0.0
 10
112.5988118208086
 20
-161.0024033885688
 30
0.0
  0
SPLINE
  5
118
330
113
100
AcDbEntity
  8
レイヤー 1
100
AcDbSpline
210
0.0
220
0.0
230
1.0
 70
     9
 71
     3
 72
    32
 73
    28
 74
     0
 42
0.0000000001
 43
0.0000000001
 40
0.0
 40
0.0
 40
0.0
 40
0.0
 40
1.0
 40
1.0
 40
1.0
 40
2.0
 40
2.0
 40
2.0
 40
3.0
 40
3.0
 40
3.0
 40
4.0
 40
4.0
 40
4.0
 40
5.0
 40
5.0
 40
5.0
 40
6.0
 40
6.0
 40
6.0
 40
7.0
 40
7.0
 40
7.0
 40
8.0
 40
8.0
 40
8.0
 40
9.0
 40
9.0
 40
9.0
 40
9.0
 10
112.555748127243
 20
-162.4538221165046
 30
0.0
 10
112.3704019901365
 20
-162.4538221165046
 30
0.0
 10
112.108230223709
 20
-162.383886678154
 30
0.0
 10
112.0675780969831
 20
-162.0517794733759
 30
0.0
 10
112.0675780969831
 20
-162.0517794733759
 30
0.0
 10
112.2956434181066
 20
-162.0517794733759
 30
0.0
 10
112.2956434181066
 20
-162.0517794733759
 30
0.0
 10
112.307012233208
 20
-162.1110351157222
 30
0.0
 10
112.3411186785119
 20
-162.2591742215879
 30
0.0
 10
112.5581596940827
 20
-162.2591742215879
 30
0.0
 10
112.8699408354978
 20
-162.2591742215879
 30
0.0
 10
112.9105929622237
 20
-161.929134074101
 30
0.0
 10
112.9243733441647
 20
-161.7238063831802
 30
0.0
 10
112.8272216514807
 20
-161.804421617535
 30
0.0
 10
112.7548746462904
 20
-161.8616102025901
 30
0.0
 10
112.5602267513738
 20
-161.8616102025901
 30
0.0
 10
112.3679904232969
 20
-161.8616102025901
 30
0.0
 10
112.0448404667804
 20
-161.7558457711929
 30
0.0
 10
112.0448404667804
 20
-161.349669013482
 30
0.0
 10
112.0448404667804
 20
-161.0299641524508
 30
0.0
 10
112.2574028582203
 20
-160.8101670604919
 30
0.0
 10
112.5964002539689
 20
-160.8101670604919
 30
0.0
 10
113.1458929838663
 20
-160.8101670604919
 30
0.0
 10
113.1572617989676
 20
-161.3644829240686
 30
0.0
 10
113.1572617989676
 20
-161.5780788441541
 30
0.0
 10
113.1572617989676
 20
-161.8085557321173
 30
0.0
 10
113.1369357356046
 20
-162.4538221165046
 30
0.0
 10
112.555748127243
 20
-162.4538221165046
 30
0.0
  0
HATCH
  5
119
330
113
100
AcDbEntity
  8
レイヤー 1
 62
   250
420
  2299925
440
 33554687
100
AcDbHatch
 10
0.0
 20
0.0
 30
0.0
210
0.0
220
0.0
230
1.0
  2
SOLID
 70
     1
 71
     1
 91
        2
 92
        1
 93
        1
 72
     4
 94
        3
 73
     0
 74
     0
 95
       17
 96
       13
 40
0.0
 40
0.0
 40
0.0
 40
0.0
 40
1.0
 40
1.0
 40
1.0
 40
2.0
 40
2.0
 40
2.0
 40
3.0
 40
3.0
 40
3.0
 40
4.0
 40
4.0
 40
4.0
 40
4.0
 10
112.5988118208086
 20
-161.0024033885688
 10
112.4720323069514
 20
-161.0024033885688
 10
112.2846191125538
 20
-161.059591973624
 10
112.2846191125538
 20
-161.3451903893512
 10
112.2846191125538
 20
-161.5715331627321
 10
112.4337917470652
 20
-161.6669623076735
 10
112.5784857574456
 20
-161.6669623076735
 10
112.858916529945
 20
-161.6669623076735
 10
112.8995686566709
 20
-161.4575005021703
 10
112.8995686566709
 20
-161.3410562747689
 10
112.8995686566709
 20
-161.1653564050211
 10
112.7975938303075
 20
-161.0024033885688
 10
112.5988118208086
 20
-161.0024033885688
 97
        0
 97
        1
330
117
 92
        1
 93
        1
 72
     4
 94
        3
 73
     0
 74
     0
 95
       32
 96
       28
 40
0.0
 40
0.0
 40
0.0
 40
0.0
 40
1.0
 40
1.0
 40
1.0
 40
2.0
 40
2.0
 40
2.0
 40
3.0
 40
3.0
 40
3.0
 40
4.0
 40
4.0
 40
4.0
 40
5.0
 40
5.0
 40
5.0
 40
6.0
 40
6.0
 40
6.0
 40
7.0
 40
7.0
 40
7.0
 40
8.0
 40
8.0
 40
8.0
 40
9.0
 40
9.0
 40
9.0
 40
9.0
 10
112.555748127243
 20
-162.4538221165046
 10
112.3704019901365
 20
-162.4538221165046
 10
112.108230223709
 20
-162.383886678154
 10
112.0675780969831
 20
-162.0517794733759
 10
112.0675780969831
 20
-162.0517794733759
 10
112.2956434181066
 20
-162.0517794733759
 10
112.2956434181066
 20
-162.0517794733759
 10
112.307012233208
 20
-162.1110351157222
 10
112.3411186785119
 20
-162.2591742215879
 10
112.5581596940827
 20
-162.2591742215879
 10
112.8699408354978
 20
-162.2591742215879
 10
112.9105929622237
 20
-161.929134074101
 10
112.9243733441647
 20
-161.7238063831802
 10
112.8272216514807
 20
-161.804421617535
 10
112.7548746462904
 20
-161.8616102025901
 10
112.5602267513738
 20
-161.8616102025901
 10
112.3679904232969
 20
-161.8616102025901
 10
112.0448404667804
 20
-161.7558457711929
 10
112.0448404667804
 20
-161.349669013482
 10
112.0448404667804
 20
-161.0299641524508
 10
112.2574028582203
 20
-160.8101670604919
 10
112.5964002539689
 20
-160.8101670604919
 10
113.1458929838663
 20
-160.8101670604919
 10
113.1572617989676
 20
-161.3644829240686
 10
113.1572617989676
 20
-161.5780788441541
 10
113.1572617989676
 20
-161.8085557321173
 10
113.1369357356046
 20
-162.4538221165046
 10
112.555748127243
 20
-162.4538221165046
 97
        0
 97
        1
330
118
 75
     2
 76
     1
 98
        1
 10
0.0
 20
0.0
450
        0
451
        0
460
0.0
461
0.0
452
        0
462
0.0
453
        0
470

  0
ENDBLK
  5
116
330
113
100
AcDbEntity
  8
0
100
AcDbBlockEnd
  0
BLOCK
  5
11D
330
11B
100
AcDbEntity
  8
0
100
AcDbBlockBegin
  2
Block_20
 70
     0
 10
0.0
 20
0.0
 30
0.0
  3
Block_20
  1

  0
LINE
  5
11F
330
11B
100
AcDbEntity
  8
レイヤー 1
 62
   250
420
  2299925
370
     9
100
AcDbLine
 10
96.10239930609171
 20
-162.7761154558223
 30
0.0
 11
87.10243941160277
 21
-162.7761154558223
 31
0.0
  0
LINE
  5
120
330
11B
100
AcDbEntity
  8
レイヤー 1
 62
   250
420
  2299925
370
     9
100
AcDbLine
 10
87.10243941160277
 20
-157.3159975395666
 30
0.0
 11
87.10243941160277
 21
-163.7758876525389
 31
0.0
  0
INSERT
  5
122
330
11B
100
AcDbEntity
  8
レイヤー 1
100
AcDbBlockReference
  2
Block_21
 10
0.0
 20
0.0
 30
0.0
  0
SPLINE
  5
128
330
11B
100
AcDbEntity
  8
レイヤー 1
 62
   250
420
  2299925
370
     9
100
AcDbSpline
210
0.0
220
0.0
230
1.0
 70
     9
 71
     3
 72
    17
 73
    13
 74
     0
 42
0.0000000001
 43
0.0000000001
 40
0.0
 40
0.0
 40
0.0
 40
0.0
 40
1.0
 40
1.0
 40
1.0
 40
2.0
 40
2.0
 40
2.0
 40
3.0
 40
3.0
 40
3.0
 40
4.0
 40
4.0
 40
4.0
 40
4.0
 10
87.13757607826048
 20
-162.7761154558223
 30
0.0
 10
87.13757607826048
 20
-162.7954123997751
 30
0.0
 10
87.12173635604226
 20
-162.8112521215932
 30
0.0
 10
87.10243941160277
 20
-162.8112521215932
 30
0.0
 10
87.08247218938558
 20
-162.8112521215932
 30
0.0
 10
87.06663246716702
 20
-162.7954123997751
 30
0.0
 10
87.06663246716702
 20
-162.7761154558223
 30
0.0
 10
87.06663246716702
 20
-162.7565010118789
 30
0.0
 10
87.08247218938558
 20
-162.7406260122839
 30
0.0
 10
87.10243941160277
 20
-162.7406260122839
 30
0.0
 10
87.12173635604226
 20
-162.7406260122839
 30
0.0
 10
87.13757607826048
 20
-162.7565010118789
 30
0.0
 10
87.13757607826048
 20
-162.7761154558223
 30
0.0
  0
ENDBLK
  5
11E
330
11B
100
AcDbEntity
  8
0
100
AcDbBlockEnd
  0
BLOCK
  5
123
330
121
100
AcDbEntity
  8
0
100
AcDbBlockBegin
  2
Block_21
 70
     0
 10
0.0
 20
0.0
 30
0.0
  3
Block_21
  1

  0
SPLINE
  5
125
330
121
100
AcDbEntity
  8
レイヤー 1
100
AcDbSpline
210
0.0
220
0.0
230
1.0
 70
     9
 71
     3
 72
    17
 73
    13
 74
     0
 42
0.0000000001
 43
0.0000000001
 40
0.0
 40
0.0
 40
0.0
 40
0.0
 40
1.0
 40
1.0
 40
1.0
 40
2.0
 40
2.0
 40
2.0
 40
3.0
 40
3.0
 40
3.0
 40
4.0
 40
4.0
 40
4.0
 40
4.0
 10
91.59974905479103
 20
-161.0024033885688
 30
0.0
 10
91.47314179570811
 20
-161.0024033885688
 30
0.0
 10
91.28555634653626
 20
-161.059591973624
 30
0.0
 10
91.28555634653626
 20
-161.3451903893512
 30
0.0
 10
91.28555634653626
 20
-161.5715331627321
 30
0.0
 10
91.43472898104757
 20
-161.6669623076735
 30
0.0
 10
91.57942299142806
 20
-161.6669623076735
 30
0.0
 10
91.85985376392741
 20
-161.6669623076735
 30
0.0
 10
91.90050589065334
 20
-161.4575005021703
 30
0.0
 10
91.90050589065334
 20
-161.3410562747689
 30
0.0
 10
91.90050589065334
 20
-161.1653564050211
 30
0.0
 10
91.79870331906421
 20
-161.0024033885688
 30
0.0
 10
91.59974905479103
 20
-161.0024033885688
 30
0.0
  0
SPLINE
  5
126
330
121
100
AcDbEntity
  8
レイヤー 1
100
AcDbSpline
210
0.0
220
0.0
230
1.0
 70
     9
 71
     3
 72
    32
 73
    28
 74
     0
 42
0.0000000001
 43
0.0000000001
 40
0.0
 40
0.0
 40
0.0
 40
0.0
 40
1.0
 40
1.0
 40
1.0
 40
2.0
 40
2.0
 40
2.0
 40
3.0
 40
3.0
 40
3.0
 40
4.0
 40
4.0
 40
4.0
 40
5.0
 40
5.0
 40
5.0
 40
6.0
 40
6.0
 40
6.0
 40
7.0
 40
7.0
 40
7.0
 40
8.0
 40
8.0
 40
8.0
 40
9.0
 40
9.0
 40
9.0
 40
9.0
 10
91.55685761599967
 20
-162.4538221165046
 30
0.0
 10
91.37151147889325
 20
-162.4538221165046
 30
0.0
 10
91.10916745769145
 20
-162.383886678154
 30
0.0
 10
91.0685153309655
 20
-162.0517794733759
 30
0.0
 10
91.0685153309655
 20
-162.0517794733759
 30
0.0
 10
91.29675290686332
 20
-162.0517794733759
 30
0.0
 10
91.29675290686332
 20
-162.0517794733759
 30
0.0
 10
91.30812172196463
 20
-162.1110351157222
 30
0.0
 10
91.34205591249434
 20
-162.2591742215879
 30
0.0
 10
91.55909692806508
 20
-162.2591742215879
 30
0.0
 10
91.87105032425447
 20
-162.2591742215879
 30
0.0
 10
91.91170245098041
 20
-161.929134074101
 30
0.0
 10
91.92531057814715
 20
-161.7238063831802
 30
0.0
 10
91.8281588854631
 20
-161.804421617535
 30
0.0
 10
91.75581188027285
 20
-161.8616102025901
 30
0.0
 10
91.56133624013049
 20
-161.8616102025901
 30
0.0
 10
91.36909991205355
 20
-161.8616102025901
 30
0.0
 10
91.04594995553712
 20
-161.7558457711929
 30
0.0
 10
91.04594995553712
 20
-161.349669013482
 30
0.0
 10
91.04594995553712
 20
-161.0299641524508
 30
0.0
 10
91.25834009220278
 20
-160.8101670604919
 30
0.0
 10
91.59750974272562
 20
-160.8101670604919
 30
0.0
 10
92.14683021784871
 20
-160.8101670604919
 30
0.0
 10
92.15819903295004
 20
-161.3644829240686
 30
0.0
 10
92.15819903295004
 20
-161.5780788441541
 30
0.0
 10
92.15819903295004
 20
-161.8085557321173
 30
0.0
 10
92.13787296958706
 20
-162.4538221165046
 30
0.0
 10
91.55685761599967
 20
-162.4538221165046
 30
0.0
  0
HATCH
  5
127
330
121
100
AcDbEntity
  8
レイヤー 1
 62
   250
420
  2299925
440
 33554687
100
AcDbHatch
 10
0.0
 20
0.0
 30
0.0
210
0.0
220
0.0
230
1.0
  2
SOLID
 70
     1
 71
     1
 91
        2
 92
        1
 93
        1
 72
     4
 94
        3
 73
     0
 74
     0
 95
       17
 96
       13
 40
0.0
 40
0.0
 40
0.0
 40
0.0
 40
1.0
 40
1.0
 40
1.0
 40
2.0
 40
2.0
 40
2.0
 40
3.0
 40
3.0
 40
3.0
 40
4.0
 40
4.0
 40
4.0
 40
4.0
 10
91.59974905479103
 20
-161.0024033885688
 10
91.47314179570811
 20
-161.0024033885688
 10
91.28555634653626
 20
-161.059591973624
 10
91.28555634653626
 20
-161.3451903893512
 10
91.28555634653626
 20
-161.5715331627321
 10
91.43472898104757
 20
-161.6669623076735
 10
91.57942299142806
 20
-161.6669623076735
 10
91.85985376392741
 20
-161.6669623076735
 10
91.90050589065334
 20
-161.4575005021703
 10
91.90050589065334
 20
-161.3410562747689
 10
91.90050589065334
 20
-161.1653564050211
 10
91.79870331906421
 20
-161.0024033885688
 10
91.59974905479103
 20
-161.0024033885688
 97
        0
 97
        1
330
125
 92
        1
 93
        1
 72
     4
 94
        3
 73
     0
 74
     0
 95
       32
 96
       28
 40
0.0
 40
0.0
 40
0.0
 40
0.0
 40
1.0
 40
1.0
 40
1.0
 40
2.0
 40
2.0
 40
2.0
 40
3.0
 40
3.0
 40
3.0
 40
4.0
 40
4.0
 40
4.0
 40
5.0
 40
5.0
 40
5.0
 40
6.0
 40
6.0
 40
6.0
 40
7.0
 40
7.0
 40
7.0
 40
8.0
 40
8.0
 40
8.0
 40
9.0
 40
9.0
 40
9.0
 40
9.0
 10
91.55685761599967
 20
-162.4538221165046
 10
91.37151147889325
 20
-162.4538221165046
 10
91.10916745769145
 20
-162.383886678154
 10
91.0685153309655
 20
-162.0517794733759
 10
91.0685153309655
 20
-162.0517794733759
 10
91.29675290686332
 20
-162.0517794733759
 10
91.29675290686332
 20
-162.0517794733759
 10
91.30812172196463
 20
-162.1110351157222
 10
91.34205591249434
 20
-162.2591742215879
 10
91.55909692806508
 20
-162.2591742215879
 10
91.87105032425447
 20
-162.2591742215879
 10
91.91170245098041
 20
-161.929134074101
 10
91.92531057814715
 20
-161.7238063831802
 10
91.8281588854631
 20
-161.804421617535
 10
91.75581188027285
 20
-161.8616102025901
 10
91.56133624013049
 20
-161.8616102025901
 10
91.36909991205355
 20
-161.8616102025901
 10
91.04594995553712
 20
-161.7558457711929
 10
91.04594995553712
 20
-161.349669013482
 10
91.04594995553712
 20
-161.0299641524508
 10
91.25834009220278
 20
-160.8101670604919
 10
91.59750974272562
 20
-160.8101670604919
 10
92.14683021784871
 20
-160.8101670604919
 10
92.15819903295004
 20
-161.3644829240686
 10
92.15819903295004
 20
-161.5780788441541
 10
92.15819903295004
 20
-161.8085557321173
 10
92.13787296958706
 20
-162.4538221165046
 10
91.55685761599967
 20
-162.4538221165046
 97
        0
 97
        1
330
126
 75
     2
 76
     1
 98
        1
 10
0.0
 20
0.0
450
        0
451
        0
460
0.0
461
0.0
452
        0
462
0.0
453
        0
470

  0
ENDBLK
  5
124
330
121
100
AcDbEntity
  8
0
100
AcDbBlockEnd
  0
BLOCK
  5
12B
330
129
100
AcDbEntity
  8
0
100
AcDbBlockBegin
  2
Block_22
 70
     0
 10
0.0
 20
0.0
 30
0.0
  3
Block_22
  1

  0
LINE
  5
12D
330
129
100
AcDbEntity
  8
レイヤー 1
 62
   250
420
  2299925
370
     9
100
AcDbLine
 10
133.1020491954853
 20
-151.7759401809052
 30
0.0
 11
133.1020491954853
 21
-154.7759270488137
 31
0.0
  0
LINE
  5
12E
330
129
100
AcDbEntity
  8
レイヤー 1
 62
   250
420
  2299925
370
     9
100
AcDbLine
 10
119.6420603722116
 20
-151.7759401809052
 30
0.0
 11
134.1024916699619
 21
-151.7759401809052
 31
0.0
  0
LINE
  5
12F
330
129
100
AcDbEntity
  8
レイヤー 1
 62
   250
420
  2299925
370
     9
100
AcDbLine
 10
119.6420603722116
 20
-154.7759270488137
 30
0.0
 11
134.1024916699619
 21
-154.7759270488137
 31
0.0
  0
INSERT
  5
131
330
129
100
AcDbEntity
  8
レイヤー 1
100
AcDbBlockReference
  2
Block_23
 10
0.0
 20
0.0
 30
0.0
  0
SPLINE
  5
136
330
129
100
AcDbEntity
  8
レイヤー 1
 62
   250
420
  2299925
370
     9
100
AcDbSpline
210
0.0
220
0.0
230
1.0
 70
     9
 71
     3
 72
    17
 73
    13
 74
     0
 42
0.0000000001
 43
0.0000000001
 40
0.0
 40
0.0
 40
0.0
 40
0.0
 40
1.0
 40
1.0
 40
1.0
 40
2.0
 40
2.0
 40
2.0
 40
3.0
 40
3.0
 40
3.0
 40
4.0
 40
4.0
 40
4.0
 40
4.0
 10
133.1378914167931
 20
-154.7759270488137
 30
0.0
 10
133.1378914167931
 20
-154.7955414927577
 30
0.0
 10
133.1220164171981
 20
-154.8114164923527
 30
0.0
 10
133.1020491954853
 20
-154.8114164923527
 30
0.0
 10
133.0827522515338
 20
-154.8114164923527
 30
0.0
 10
133.066912529715
 20
-154.7955414927577
 30
0.0
 10
133.066912529715
 20
-154.7759270488137
 30
0.0
 10
133.066912529715
 20
-154.7566301048615
 30
0.0
 10
133.0827522515338
 20
-154.7407903830434
 30
0.0
 10
133.1020491954853
 20
-154.7407903830434
 30
0.0
 10
133.1220164171981
 20
-154.7407903830434
 30
0.0
 10
133.1378914167931
 20
-154.7566301048615
 30
0.0
 10
133.1378914167931
 20
-154.7759270488137
 30
0.0
  0
ENDBLK
  5
12C
330
129
100
AcDbEntity
  8
0
100
AcDbBlockEnd
  0
BLOCK
  5
132
330
130
100
AcDbEntity
  8
0
100
AcDbBlockBegin
  2
Block_23
 70
     0
 10
0.0
 20
0.0
 30
0.0
  3
Block_23
  1

  0
SPLINE
  5
134
330
130
100
AcDbEntity
  8
レイヤー 1
100
AcDbSpline
210
0.0
220
0.0
230
1.0
 70
     9
 71
     3
 72
    62
 73
    58
 74
     0
 42
0.0000000001
 43
0.0000000001
 40
0.0
 40
0.0
 40
0.0
 40
0.0
 40
1.0
 40
1.0
 40
1.0
 40
2.0
 40
2.0
 40
2.0
 40
3.0
 40
3.0
 40
3.0
 40
4.0
 40
4.0
 40
4.0
 40
5.0
 40
5.0
 40
5.0
 40
6.0
 40
6.0
 40
6.0
 40
7.0
 40
7.0
 40
7.0
 40
8.0
 40
8.0
 40
8.0
 40
9.0
 40
9.0
 40
9.0
 40
10.0
 40
10.0
 40
10.0
 40
11.0
 40
11.0
 40
11.0
 40
12.0
 40
12.0
 40
12.0
 40
13.0
 40
13.0
 40
13.0
 40
14.0
 40
14.0
 40
14.0
 40
15.0
 40
15.0
 40
15.0
 40
16.0
 40
16.0
 40
16.0
 40
17.0
 40
17.0
 40
17.0
 40
18.0
 40
18.0
 40
18.0
 40
19.0
 40
19.0
 40
19.0
 40
19.0
 10
132.7798366638536
 20
-153.2853895016092
 30
0.0
 10
132.7798366638536
 20
-153.3870198184241
 30
0.0
 10
132.7588215813936
 20
-153.6199082732269
 30
0.0
 10
132.5724419156416
 20
-153.7532334685061
 30
0.0
 10
132.460476312371
 20
-153.8324706646669
 30
0.0
 10
132.3609130528472
 20
-153.8369492887977
 30
0.0
 10
132.2765082134586
 20
-153.8414279129285
 30
0.0
 10
132.2765082134586
 20
-153.8414279129285
 30
0.0
 10
132.2765082134586
 20
-153.606127891286
 30
0.0
 10
132.2765082134586
 20
-153.606127891286
 30
0.0
 10
132.350233256843
 20
-153.6040608339948
 30
0.0
 10
132.585188768937
 20
-153.5926920188935
 30
0.0
 10
132.585188768937
 20
-153.28986812574
 30
0.0
 10
132.585188768937
 20
-153.1427625485198
 30
0.0
 10
132.5152533305864
 20
-152.9801540416161
 30
0.0
 10
132.2868434999144
 20
-152.9801540416161
 30
0.0
 10
132.1703992725129
 20
-152.9801540416161
 30
0.0
 10
132.1218234261709
 20
-153.020806168342
 30
0.0
 10
132.0901285477066
 20
-153.0545681040974
 30
0.0
 10
132.0160589947737
 20
-153.1338053002582
 30
0.0
 10
132.0033121414783
 20
-153.2581732472757
 30
0.0
 10
132.0033121414783
 20
-153.316739870525
 30
0.0
 10
132.0033121414783
 20
-153.3374104434365
 30
0.0
 10
132.005723708318
 20
-153.3756510033227
 30
0.0
 10
132.0098578229003
 20
-153.4049343149474
 30
0.0
 10
132.0098578229003
 20
-153.4049343149474
 30
0.0
 10
131.8152099279837
 20
-153.4049343149474
 30
0.0
 10
131.8152099279837
 20
-153.4049343149474
 30
0.0
 10
131.8214110998571
 20
-153.3642821882214
 30
0.0
 10
131.8234781571483
 20
-153.3191514373647
 30
0.0
 10
131.8234781571483
 20
-153.3122612463941
 30
0.0
 10
131.8234781571483
 20
-153.2423258080436
 30
0.0
 10
131.8024630746883
 20
-153.0297634166037
 30
0.0
 10
131.5654405053031
 20
-153.0297634166037
 30
0.0
 10
131.3876735782642
 20
-153.0297634166037
 30
0.0
 10
131.3328965600487
 20
-153.1699788028533
 30
0.0
 10
131.3328965600487
 20
-153.2874565589003
 30
0.0
 10
131.3328965600487
 20
-153.5699543886908
 30
0.0
 10
131.5654405053031
 20
-153.579256146501
 30
0.0
 10
131.6374430009448
 20
-153.5837347706318
 30
0.0
 10
131.6374430009448
 20
-153.5837347706318
 30
0.0
 10
131.6374430009448
 20
-153.8007757862026
 30
0.0
 10
131.6374430009448
 20
-153.8007757862026
 30
0.0
 10
131.5127305443787
 20
-153.7918185379409
 30
0.0
 10
131.1361816078409
 20
-153.7621907167678
 30
0.0
 10
131.1361816078409
 20
-153.2740206865079
 30
0.0
 10
131.1361816078409
 20
-153.0342420407345
 30
0.0
 10
131.2629611216981
 20
-152.7765488984378
 30
0.0
 10
131.5592393334296
 20
-152.7765488984378
 30
0.0
 10
131.7452744896331
 20
-152.7765488984378
 30
0.0
 10
131.8279567812791
 20
-152.8781792152527
 30
0.0
 10
131.8892794809165
 20
-152.9846326657469
 30
0.0
 10
131.9168402447985
 20
-152.9188313419786
 30
0.0
 10
131.9971109696049
 20
-152.7245279566105
 30
0.0
 10
132.2740966466189
 20
-152.7245279566105
 30
0.0
 10
132.612749532819
 20
-152.7245279566105
 30
0.0
 10
132.7798366638536
 20
-152.9891112898777
 30
0.0
 10
132.7798366638536
 20
-153.2853895016092
 30
0.0
  0
HATCH
  5
135
330
130
100
AcDbEntity
  8
レイヤー 1
 62
   250
420
  2299925
440
 33554687
100
AcDbHatch
 10
0.0
 20
0.0
 30
0.0
210
0.0
220
0.0
230
1.0
  2
SOLID
 70
     1
 71
     1
 91
        1
 92
        1
 93
        1
 72
     4
 94
        3
 73
     0
 74
     0
 95
       62
 96
       58
 40
0.0
 40
0.0
 40
0.0
 40
0.0
 40
1.0
 40
1.0
 40
1.0
 40
2.0
 40
2.0
 40
2.0
 40
3.0
 40
3.0
 40
3.0
 40
4.0
 40
4.0
 40
4.0
 40
5.0
 40
5.0
 40
5.0
 40
6.0
 40
6.0
 40
6.0
 40
7.0
 40
7.0
 40
7.0
 40
8.0
 40
8.0
 40
8.0
 40
9.0
 40
9.0
 40
9.0
 40
10.0
 40
10.0
 40
10.0
 40
11.0
 40
11.0
 40
11.0
 40
12.0
 40
12.0
 40
12.0
 40
13.0
 40
13.0
 40
13.0
 40
14.0
 40
14.0
 40
14.0
 40
15.0
 40
15.0
 40
15.0
 40
16.0
 40
16.0
 40
16.0
 40
17.0
 40
17.0
 40
17.0
 40
18.0
 40
18.0
 40
18.0
 40
19.0
 40
19.0
 40
19.0
 40
19.0
 10
132.7798366638536
 20
-153.2853895016092
 10
132.7798366638536
 20
-153.3870198184241
 10
132.7588215813936
 20
-153.6199082732269
 10
132.5724419156416
 20
-153.7532334685061
 10
132.460476312371
 20
-153.8324706646669
 10
132.3609130528472
 20
-153.8369492887977
 10
132.2765082134586
 20
-153.8414279129285
 10
132.2765082134586
 20
-153.8414279129285
 10
132.2765082134586
 20
-153.606127891286
 10
132.2765082134586
 20
-153.606127891286
 10
132.350233256843
 20
-153.6040608339948
 10
132.585188768937
 20
-153.5926920188935
 10
132.585188768937
 20
-153.28986812574
 10
132.585188768937
 20
-153.1427625485198
 10
132.5152533305864
 20
-152.9801540416161
 10
132.2868434999144
 20
-152.9801540416161
 10
132.1703992725129
 20
-152.9801540416161
 10
132.1218234261709
 20
-153.020806168342
 10
132.0901285477066
 20
-153.0545681040974
 10
132.0160589947737
 20
-153.1338053002582
 10
132.0033121414783
 20
-153.2581732472757
 10
132.0033121414783
 20
-153.316739870525
 10
132.0033121414783
 20
-153.3374104434365
 10
132.005723708318
 20
-153.3756510033227
 10
132.0098578229003
 20
-153.4049343149474
 10
132.0098578229003
 20
-153.4049343149474
 10
131.8152099279837
 20
-153.4049343149474
 10
131.8152099279837
 20
-153.4049343149474
 10
131.8214110998571
 20
-153.3642821882214
 10
131.8234781571483
 20
-153.3191514373647
 10
131.8234781571483
 20
-153.3122612463941
 10
131.8234781571483
 20
-153.2423258080436
 10
131.8024630746883
 20
-153.0297634166037
 10
131.5654405053031
 20
-153.0297634166037
 10
131.3876735782642
 20
-153.0297634166037
 10
131.3328965600487
 20
-153.1699788028533
 10
131.3328965600487
 20
-153.2874565589003
 10
131.3328965600487
 20
-153.5699543886908
 10
131.5654405053031
 20
-153.579256146501
 10
131.6374430009448
 20
-153.5837347706318
 10
131.6374430009448
 20
-153.5837347706318
 10
131.6374430009448
 20
-153.8007757862026
 10
131.6374430009448
 20
-153.8007757862026
 10
131.5127305443787
 20
-153.7918185379409
 10
131.1361816078409
 20
-153.7621907167678
 10
131.1361816078409
 20
-153.2740206865079
 10
131.1361816078409
 20
-153.0342420407345
 10
131.2629611216981
 20
-152.7765488984378
 10
131.5592393334296
 20
-152.7765488984378
 10
131.7452744896331
 20
-152.7765488984378
 10
131.8279567812791
 20
-152.8781792152527
 10
131.8892794809165
 20
-152.9846326657469
 10
131.9168402447985
 20
-152.9188313419786
 10
131.9971109696049
 20
-152.7245279566105
 10
132.2740966466189
 20
-152.7245279566105
 10
132.612749532819
 20
-152.7245279566105
 10
132.7798366638536
 20
-152.9891112898777
 10
132.7798366638536
 20
-153.2853895016092
 97
        0
 97
        1
330
134
 75
     2
 76
     1
 98
        1
 10
0.0
 20
0.0
450
        0
451
        0
460
0.0
461
0.0
452
        0
462
0.0
453
        0
470

  0
ENDBLK
  5
133
330
130
100
AcDbEntity
  8
0
100
AcDbBlockEnd
  0
BLOCK
  5
139
330
137
100
AcDbEntity
  8
0
100
AcDbBlockBegin
  2
Block_24
 70
     0
 10
0.0
 20
0.0
 30
0.0
  3
Block_24
  1

  0
LINE
  5
13B
330
137
100
AcDbEntity
  8
レイヤー 1
 62
   250
420
  2299925
370
     9
100
AcDbLine
 10
133.1020491954853
 20
-140.7760824059795
 30
0.0
 11
133.1020491954853
 21
-137.0057700021681
 31
0.0
  0
LINE
  5
13C
330
137
100
AcDbEntity
  8
レイヤー 1
 62
   250
420
  2299925
370
     9
100
AcDbLine
 10
133.1020491954853
 20
-141.7758546026953
 30
0.0
 11
133.1020491954853
 21
-140.7760824059795
 31
0.0
  0
LINE
  5
13D
330
137
100
AcDbEntity
  8
レイヤー 1
 62
   250
420
  2299925
370
     9
100
AcDbLine
 10
131.6420078438452
 20
-140.7760824059795
 30
0.0
 11
134.1024916699619
 21
-140.7760824059795
 31
0.0
  0
INSERT
  5
13F
330
137
100
AcDbEntity
  8
レイヤー 1
100
AcDbBlockReference
  2
Block_25
 10
0.0
 20
0.0
 30
0.0
  0
SPLINE
  5
144
330
137
100
AcDbEntity
  8
レイヤー 1
 62
   250
420
  2299925
370
     9
100
AcDbSpline
210
0.0
220
0.0
230
1.0
 70
     9
 71
     3
 72
    17
 73
    13
 74
     0
 42
0.0000000001
 43
0.0000000001
 40
0.0
 40
0.0
 40
0.0
 40
0.0
 40
1.0
 40
1.0
 40
1.0
 40
2.0
 40
2.0
 40
2.0
 40
3.0
 40
3.0
 40
3.0
 40
4.0
 40
4.0
 40
4.0
 40
4.0
 10
133.1378914167931
 20
-140.7760824059795
 30
0.0
 10
133.1378914167931
 20
-140.7953793499316
 30
0.0
 10
133.1220164171981
 20
-140.8112190717497
 30
0.0
 10
133.1020491954853
 20
-140.8112190717497
 30
0.0
 10
133.0827522515338
 20
-140.8112190717497
 30
0.0
 10
133.066912529715
 20
-140.7953793499316
 30
0.0
 10
133.066912529715
 20
-140.7760824059795
 30
0.0
 10
133.066912529715
 20
-140.7564326842585
 30
0.0
 10
133.0827522515338
 20
-140.7405929624404
 30
0.0
 10
133.1020491954853
 20
-140.7405929624404
 30
0.0
 10
133.1220164171981
 20
-140.7405929624404
 30
0.0
 10
133.1378914167931
 20
-140.7564326842585
 30
0.0
 10
133.1378914167931
 20
-140.7760824059795
 30
0.0
  0
ENDBLK
  5
13A
330
137
100
AcDbEntity
  8
0
100
AcDbBlockEnd
  0
BLOCK
  5
140
330
13E
100
AcDbEntity
  8
0
100
AcDbBlockBegin
  2
Block_25
 70
     0
 10
0.0
 20
0.0
 30
0.0
  3
Block_25
  1

  0
SPLINE
  5
142
330
13E
100
AcDbEntity
  8
レイヤー 1
100
AcDbSpline
210
0.0
220
0.0
230
1.0
 70
    11
 71
     3
 72
    26
 73
    22
 74
     0
 42
0.0000000001
 43
0.0000000001
 40
0.0
 40
0.0
 40
0.0
 40
0.0
 40
1.0
 40
1.0
 40
1.0
 40
2.0
 40
2.0
 40
2.0
 40
3.0
 40
3.0
 40
3.0
 40
4.0
 40
4.0
 40
4.0
 40
5.0
 40
5.0
 40
5.0
 40
6.0
 40
6.0
 40
6.0
 40
7.0
 40
7.0
 40
7.0
 40
7.0
 10
132.7285047411234
 20
-137.8282795879387
 30
0.0
 10
132.7285047411234
 20
-137.8282795879387
 30
0.0
 10
131.6240071285523
 20
-137.8282795879387
 30
0.0
 10
131.6240071285523
 20
-137.8282795879387
 30
0.0
 10
131.6240071285523
 20
-137.8282795879387
 30
0.0
 10
131.6240071285523
 20
-138.1808851108541
 30
0.0
 10
131.6240071285523
 20
-138.1808851108541
 30
0.0
 10
131.6240071285523
 20
-138.1808851108541
 30
0.0
 10
131.4758680226866
 20
-138.1808851108541
 30
0.0
 10
131.4758680226866
 20
-138.1808851108541
 30
0.0
 10
131.4610541121
 20
-137.8258680210991
 30
0.0
 10
131.2984456051962
 20
-137.7762586461115
 30
0.0
 10
131.1840684350859
 20
-137.7445637676472
 30
0.0
 10
131.1840684350859
 20
-137.7445637676472
 30
0.0
 10
131.1840684350859
 20
-137.5885009421654
 30
0.0
 10
131.1840684350859
 20
-137.5885009421654
 30
0.0
 10
131.1840684350859
 20
-137.5885009421654
 30
0.0
 10
132.7285047411234
 20
-137.5885009421654
 30
0.0
 10
132.7285047411234
 20
-137.5885009421654
 30
0.0
 10
132.7285047411234
 20
-137.5885009421654
 30
0.0
 10
132.7285047411234
 20
-137.8282795879387
 30
0.0
 10
132.7285047411234
 20
-137.8282795879387
 30
0.0
  0
HATCH
  5
143
330
13E
100
AcDbEntity
  8
レイヤー 1
 62
   250
420
  2299925
440
 33554687
100
AcDbHatch
 10
0.0
 20
0.0
 30
0.0
210
0.0
220
0.0
230
1.0
  2
SOLID
 70
     1
 71
     1
 91
        1
 92
        1
 93
        1
 72
     4
 94
        3
 73
     0
 74
     0
 95
       26
 96
       22
 40
0.0
 40
0.0
 40
0.0
 40
0.0
 40
1.0
 40
1.0
 40
1.0
 40
2.0
 40
2.0
 40
2.0
 40
3.0
 40
3.0
 40
3.0
 40
4.0
 40
4.0
 40
4.0
 40
5.0
 40
5.0
 40
5.0
 40
6.0
 40
6.0
 40
6.0
 40
7.0
 40
7.0
 40
7.0
 40
7.0
 10
132.7285047411234
 20
-137.8282795879387
 10
132.7285047411234
 20
-137.8282795879387
 10
131.6240071285523
 20
-137.8282795879387
 10
131.6240071285523
 20
-137.8282795879387
 10
131.6240071285523
 20
-137.8282795879387
 10
131.6240071285523
 20
-138.1808851108541
 10
131.6240071285523
 20
-138.1808851108541
 10
131.6240071285523
 20
-138.1808851108541
 10
131.4758680226866
 20
-138.1808851108541
 10
131.4758680226866
 20
-138.1808851108541
 10
131.4610541121
 20
-137.8258680210991
 10
131.2984456051962
 20
-137.7762586461115
 10
131.1840684350859
 20
-137.7445637676472
 10
131.1840684350859
 20
-137.7445637676472
 10
131.1840684350859
 20
-137.5885009421654
 10
131.1840684350859
 20
-137.5885009421654
 10
131.1840684350859
 20
-137.5885009421654
 10
132.7285047411234
 20
-137.5885009421654
 10
132.7285047411234
 20
-137.5885009421654
 10
132.7285047411234
 20
-137.5885009421654
 10
132.7285047411234
 20
-137.8282795879387
 10
132.7285047411234
 20
-137.8282795879387
 97
        0
 97
        1
330
142
 75
     2
 76
     1
 98
        1
 10
0.0
 20
0.0
450
        0
451
        0
460
0.0
461
0.0
452
        0
462
0.0
453
        0
470

  0
ENDBLK
  5
141
330
13E
100
AcDbEntity
  8
0
100
AcDbBlockEnd
  0
BLOCK
  5
147
330
145
100
AcDbEntity
  8
0
100
AcDbBlockBegin
  2
Block_26
 70
     0
 10
0.0
 20
0.0
 30
0.0
  3
Block_26
  1

  0
LINE
  5
149
330
145
100
AcDbEntity
  8
レイヤー 1
 62
   250
420
  2299925
370
     9
100
AcDbLine
 10
133.1020491954853
 20
-141.7758546026953
 30
0.0
 11
133.1020491954853
 21
-151.7759401809052
 31
0.0
  0
LINE
  5
14A
330
145
100
AcDbEntity
  8
レイヤー 1
 62
   250
420
  2299925
370
     9
100
AcDbLine
 10
131.6420078438452
 20
-141.7758546026953
 30
0.0
 11
134.1024916699619
 21
-141.7758546026953
 31
0.0
  0
INSERT
  5
14C
330
145
100
AcDbEntity
  8
レイヤー 1
100
AcDbBlockReference
  2
Block_27
 10
0.0
 20
0.0
 30
0.0
  0
SPLINE
  5
158
330
145
100
AcDbEntity
  8
レイヤー 1
 62
   250
420
  2299925
370
     9
100
AcDbSpline
210
0.0
220
0.0
230
1.0
 70
     9
 71
     3
 72
    17
 73
    13
 74
     0
 42
0.0000000001
 43
0.0000000001
 40
0.0
 40
0.0
 40
0.0
 40
0.0
 40
1.0
 40
1.0
 40
1.0
 40
2.0
 40
2.0
 40
2.0
 40
3.0
 40
3.0
 40
3.0
 40
4.0
 40
4.0
 40
4.0
 40
4.0
 10
133.1378914167931
 20
-151.7759401809052
 30
0.0
 10
133.1378914167931
 20
-151.7955546248493
 30
0.0
 10
133.1220164171981
 20
-151.8114296244443
 30
0.0
 10
133.1020491954853
 20
-151.8114296244443
 30
0.0
 10
133.0827522515338
 20
-151.8114296244443
 30
0.0
 10
133.066912529715
 20
-151.7955546248493
 30
0.0
 10
133.066912529715
 20
-151.7759401809052
 30
0.0
 10
133.066912529715
 20
-151.7566432369531
 30
0.0
 10
133.0827522515338
 20
-151.7407985529623
 30
0.0
 10
133.1020491954853
 20
-151.7407985529623
 30
0.0
 10
133.1220164171981
 20
-151.7407985529623
 30
0.0
 10
133.1378914167931
 20
-151.7566432369531
 30
0.0
 10
133.1378914167931
 20
-151.7759401809052
 30
0.0
  0
ENDBLK
  5
148
330
145
100
AcDbEntity
  8
0
100
AcDbBlockEnd
  0
BLOCK
  5
14D
330
14B
100
AcDbEntity
  8
0
100
AcDbBlockBegin
  2
Block_27
 70
     0
 10
0.0
 20
0.0
 30
0.0
  3
Block_27
  1

  0
INSERT
  5
150
330
14B
100
AcDbEntity
  8
レイヤー 1
100
AcDbBlockReference
  2
Block_28
 10
0.0
 20
0.0
 30
0.0
  0
ENDBLK
  5
14E
330
14B
100
AcDbEntity
  8
0
100
AcDbBlockEnd
  0
BLOCK
  5
151
330
14F
100
AcDbEntity
  8
0
100
AcDbBlockBegin
  2
Block_28
 70
     0
 10
0.0
 20
0.0
 30
0.0
  3
Block_28
  1

  0
SPLINE
  5
153
330
14F
100
AcDbEntity
  8
レイヤー 1
100
AcDbSpline
210
0.0
220
0.0
230
1.0
 70
    11
 71
     3
 72
    26
 73
    22
 74
     0
 42
0.0000000001
 43
0.0000000001
 40
0.0
 40
0.0
 40
0.0
 40
0.0
 40
1.0
 40
1.0
 40
1.0
 40
2.0
 40
2.0
 40
2.0
 40
3.0
 40
3.0
 40
3.0
 40
4.0
 40
4.0
 40
4.0
 40
5.0
 40
5.0
 40
5.0
 40
6.0
 40
6.0
 40
6.0
 40
7.0
 40
7.0
 40
7.0
 40
7.0
 10
132.7285047411234
 20
-147.4573214692121
 30
0.0
 10
132.7285047411234
 20
-147.4573214692121
 30
0.0
 10
131.6240071285523
 20
-147.4573214692121
 30
0.0
 10
131.6240071285523
 20
-147.4573214692121
 30
0.0
 10
131.6240071285523
 20
-147.4573214692121
 30
0.0
 10
131.6240071285523
 20
-147.8099269921274
 30
0.0
 10
131.6240071285523
 20
-147.8099269921274
 30
0.0
 10
131.6240071285523
 20
-147.8099269921274
 30
0.0
 10
131.4758680226866
 20
-147.8099269921274
 30
0.0
 10
131.4758680226866
 20
-147.8099269921274
 30
0.0
 10
131.4610541121
 20
-147.4550821571466
 30
0.0
 10
131.2984456051962
 20
-147.4053005273848
 30
0.0
 10
131.1840684350859
 20
-147.3736056489205
 30
0.0
 10
131.1840684350859
 20
-147.3736056489205
 30
0.0
 10
131.1840684350859
 20
-147.2177150782129
 30
0.0
 10
131.1840684350859
 20
-147.2177150782129
 30
0.0
 10
131.1840684350859
 20
-147.2177150782129
 30
0.0
 10
132.7285047411234
 20
-147.2177150782129
 30
0.0
 10
132.7285047411234
 20
-147.2177150782129
 30
0.0
 10
132.7285047411234
 20
-147.2177150782129
 30
0.0
 10
132.7285047411234
 20
-147.4573214692121
 30
0.0
 10
132.7285047411234
 20
-147.4573214692121
 30
0.0
  0
HATCH
  5
154
330
14F
100
AcDbEntity
  8
レイヤー 1
 62
   250
420
  2299925
440
 33554687
100
AcDbHatch
 10
0.0
 20
0.0
 30
0.0
210
0.0
220
0.0
230
1.0
  2
SOLID
 70
     1
 71
     1
 91
        1
 92
        1
 93
        1
 72
     4
 94
        3
 73
     0
 74
     0
 95
       26
 96
       22
 40
0.0
 40
0.0
 40
0.0
 40
0.0
 40
1.0
 40
1.0
 40
1.0
 40
2.0
 40
2.0
 40
2.0
 40
3.0
 40
3.0
 40
3.0
 40
4.0
 40
4.0
 40
4.0
 40
5.0
 40
5.0
 40
5.0
 40
6.0
 40
6.0
 40
6.0
 40
7.0
 40
7.0
 40
7.0
 40
7.0
 10
132.7285047411234
 20
-147.4573214692121
 10
132.7285047411234
 20
-147.4573214692121
 10
131.6240071285523
 20
-147.4573214692121
 10
131.6240071285523
 20
-147.4573214692121
 10
131.6240071285523
 20
-147.4573214692121
 10
131.6240071285523
 20
-147.8099269921274
 10
131.6240071285523
 20
-147.8099269921274
 10
131.6240071285523
 20
-147.8099269921274
 10
131.4758680226866
 20
-147.8099269921274
 10
131.4758680226866
 20
-147.8099269921274
 10
131.4610541121
 20
-147.4550821571466
 10
131.2984456051962
 20
-147.4053005273848
 10
131.1840684350859
 20
-147.3736056489205
 10
131.1840684350859
 20
-147.3736056489205
 10
131.1840684350859
 20
-147.2177150782129
 10
131.1840684350859
 20
-147.2177150782129
 10
131.1840684350859
 20
-147.2177150782129
 10
132.7285047411234
 20
-147.2177150782129
 10
132.7285047411234
 20
-147.2177150782129
 10
132.7285047411234
 20
-147.2177150782129
 10
132.7285047411234
 20
-147.4573214692121
 10
132.7285047411234
 20
-147.4573214692121
 97
        0
 97
        1
330
153
 75
     2
 76
     1
 98
        1
 10
0.0
 20
0.0
450
        0
451
        0
460
0.0
461
0.0
452
        0
462
0.0
453
        0
470

  0
SPLINE
  5
155
330
14F
100
AcDbEntity
  8
レイヤー 1
100
AcDbSpline
210
0.0
220
0.0
230
1.0
 70
     9
 71
     3
 72
    17
 73
    13
 74
     0
 42
0.0000000001
 43
0.0000000001
 40
0.0
 40
0.0
 40
0.0
 40
0.0
 40
1.0
 40
1.0
 40
1.0
 40
2.0
 40
2.0
 40
2.0
 40
3.0
 40
3.0
 40
3.0
 40
4.0
 40
4.0
 40
4.0
 40
4.0
 10
131.3277289168208
 20
-146.14749616572
 30
0.0
 10
131.3277289168208
 20
-146.4143188110527
 30
0.0
 10
131.6112602752569
 20
-146.4641004408145
 30
0.0
 10
131.9561143333304
 20
-146.4641004408145
 30
0.0
 10
132.2758191943616
 20
-146.4641004408145
 30
0.0
 10
132.58449974984
 20
-146.425687626154
 30
0.0
 10
132.58449974984
 20
-146.14749616572
 30
0.0
 10
132.58449974984
 20
-145.8830850872271
 30
0.0
 10
132.3030354486951
 20
-145.8310641453999
 30
0.0
 10
131.9561143333304
 20
-145.8310641453999
 30
0.0
 10
131.6367539818477
 20
-145.8310641453999
 30
0.0
 10
131.3277289168208
 20
-145.8717162721258
 30
0.0
 10
131.3277289168208
 20
-146.14749616572
 30
0.0
  0
SPLINE
  5
156
330
14F
100
AcDbEntity
  8
レイヤー 1
100
AcDbSpline
210
0.0
220
0.0
230
1.0
 70
     9
 71
     3
 72
    29
 73
    25
 74
     0
 42
0.0000000001
 43
0.0000000001
 40
0.0
 40
0.0
 40
0.0
 40
0.0
 40
1.0
 40
1.0
 40
1.0
 40
2.0
 40
2.0
 40
2.0
 40
3.0
 40
3.0
 40
3.0
 40
4.0
 40
4.0
 40
4.0
 40
5.0
 40
5.0
 40
5.0
 40
6.0
 40
6.0
 40
6.0
 40
7.0
 40
7.0
 40
7.0
 40
8.0
 40
8.0
 40
8.0
 40
8.0
 10
132.5507378140845
 20
-145.7225436376145
 30
0.0
 10
132.7601996195877
 20
-145.8377820815961
 30
0.0
 10
132.7791476447566
 20
-146.0231282187026
 30
0.0
 10
132.7791476447566
 20
-146.14749616572
 30
0.0
 10
132.7791476447566
 20
-146.319406430434
 30
0.0
 10
132.7326388557057
 20
-146.4708183770107
 30
0.0
 10
132.5507378140845
 20
-146.5726209485999
 30
0.0
 10
132.3560899191679
 20
-146.6833807684507
 30
0.0
 10
132.1190673497827
 20
-146.7037068318136
 30
0.0
 10
131.9561143333304
 20
-146.7037068318136
 30
0.0
 10
131.8124538515955
 20
-146.7037068318136
 30
0.0
 10
131.5606173716237
 20
-146.6856200805161
 30
0.0
 10
131.3618353621248
 20
-146.5726209485999
 30
0.0
 10
131.1585747284951
 20
-146.457210249844
 30
0.0
 10
131.1354925887439
 20
-146.2854722399043
 30
0.0
 10
131.1354925887439
 20
-146.14749616572
 30
0.0
 10
131.1354925887439
 20
-145.9779974678458
 30
0.0
 10
131.1799343205036
 20
-145.8241739544293
 30
0.0
 10
131.3618353621248
 20
-145.7225436376145
 30
0.0
 10
131.5544161997503
 20
-145.6162624418945
 30
0.0
 10
131.7828260304223
 20
-145.5914577544007
 30
0.0
 10
131.9561143333304
 20
-145.5914577544007
 30
0.0
 10
132.1276800884958
 20
-145.5914577544007
 30
0.0
 10
132.358156976459
 20
-145.6140231298291
 30
0.0
 10
132.5507378140845
 20
-145.7225436376145
 30
0.0
  0
HATCH
  5
157
330
14F
100
AcDbEntity
  8
レイヤー 1
 62
   250
420
  2299925
440
 33554687
100
AcDbHatch
 10
0.0
 20
0.0
 30
0.0
210
0.0
220
0.0
230
1.0
  2
SOLID
 70
     1
 71
     1
 91
        2
 92
        1
 93
        1
 72
     4
 94
        3
 73
     0
 74
     0
 95
       17
 96
       13
 40
0.0
 40
0.0
 40
0.0
 40
0.0
 40
1.0
 40
1.0
 40
1.0
 40
2.0
 40
2.0
 40
2.0
 40
3.0
 40
3.0
 40
3.0
 40
4.0
 40
4.0
 40
4.0
 40
4.0
 10
131.3277289168208
 20
-146.14749616572
 10
131.3277289168208
 20
-146.4143188110527
 10
131.6112602752569
 20
-146.4641004408145
 10
131.9561143333304
 20
-146.4641004408145
 10
132.2758191943616
 20
-146.4641004408145
 10
132.58449974984
 20
-146.425687626154
 10
132.58449974984
 20
-146.14749616572
 10
132.58449974984
 20
-145.8830850872271
 10
132.3030354486951
 20
-145.8310641453999
 10
131.9561143333304
 20
-145.8310641453999
 10
131.6367539818477
 20
-145.8310641453999
 10
131.3277289168208
 20
-145.8717162721258
 10
131.3277289168208
 20
-146.14749616572
 97
        0
 97
        1
330
155
 92
        1
 93
        1
 72
     4
 94
        3
 73
     0
 74
     0
 95
       29
 96
       25
 40
0.0
 40
0.0
 40
0.0
 40
0.0
 40
1.0
 40
1.0
 40
1.0
 40
2.0
 40
2.0
 40
2.0
 40
3.0
 40
3.0
 40
3.0
 40
4.0
 40
4.0
 40
4.0
 40
5.0
 40
5.0
 40
5.0
 40
6.0
 40
6.0
 40
6.0
 40
7.0
 40
7.0
 40
7.0
 40
8.0
 40
8.0
 40
8.0
 40
8.0
 10
132.5507378140845
 20
-145.7225436376145
 10
132.7601996195877
 20
-145.8377820815961
 10
132.7791476447566
 20
-146.0231282187026
 10
132.7791476447566
 20
-146.14749616572
 10
132.7791476447566
 20
-146.319406430434
 10
132.7326388557057
 20
-146.4708183770107
 10
132.5507378140845
 20
-146.5726209485999
 10
132.3560899191679
 20
-146.6833807684507
 10
132.1190673497827
 20
-146.7037068318136
 10
131.9561143333304
 20
-146.7037068318136
 10
131.8124538515955
 20
-146.7037068318136
 10
131.5606173716237
 20
-146.6856200805161
 10
131.3618353621248
 20
-146.5726209485999
 10
131.1585747284951
 20
-146.457210249844
 10
131.1354925887439
 20
-146.2854722399043
 10
131.1354925887439
 20
-146.14749616572
 10
131.1354925887439
 20
-145.9779974678458
 10
131.1799343205036
 20
-145.8241739544293
 10
131.3618353621248
 20
-145.7225436376145
 10
131.5544161997503
 20
-145.6162624418945
 10
131.7828260304223
 20
-145.5914577544007
 10
131.9561143333304
 20
-145.5914577544007
 10
132.1276800884958
 20
-145.5914577544007
 10
132.358156976459
 20
-145.6140231298291
 10
132.5507378140845
 20
-145.7225436376145
 97
        0
 97
        1
330
156
 75
     2
 76
     1
 98
        1
 10
0.0
 20
0.0
450
        0
451
        0
460
0.0
461
0.0
452
        0
462
0.0
453
        0
470

  0
ENDBLK
  5
152
330
14F
100
AcDbEntity
  8
0
100
AcDbBlockEnd
  0
ENDSEC
  0
SECTION
  2
ENTITIES
  0
INSERT
  5
7A
330
70
100
AcDbEntity
  8
レイヤー 1
100
AcDbBlockReference
  2
Block_0
 10
0.0
 20
0.0
 30
0.0
  0
ENDSEC
  0
SECTION
  2
OBJECTS
  0
DICTIONARY
  5
C
330
0
100
AcDbDictionary
281
     1
  3
ACAD_COLOR
350
63
  3
ACAD_DETAILVIEWSTYLE
350
6A
  3
ACAD_GROUP
350
D
  3
ACAD_LAYOUT
350
62
  3
ACAD_MATERIAL
350
10
  3
ACAD_MLEADERSTYLE
350
66
  3
ACAD_MLINESTYLE
350
5F
  3
ACAD_PLOTSETTINGS
350
61
  3
ACAD_PLOTSTYLENAME
350
E
  3
ACAD_SCALELIST
350
42
  3
ACAD_SECTIONVIEWSTYLE
350
68
  3
ACAD_TABLESTYLE
350
64
  3
ACAD_VISUALSTYLE
350
29
  3
ACDB_RECOMPOSE_DATA
350
163
  3
AcDbVariableDictionary
350
15B
  0
DICTIONARY
  5
63
102
{ACAD_REACTORS
330
C
102
}
330
C
100
AcDbDictionary
281
     1
  0
DICTIONARY
  5
6A
102
{ACAD_REACTORS
330
C
102
}
330
C
100
AcDbDictionary
281
     1
  3
Imperial24
350
6B
  0
DICTIONARY
  5
D
102
{ACAD_REACTORS
330
C
102
}
330
C
100
AcDbDictionary
281
     1
  0
DICTIONARY
  5
62
102
{ACAD_REACTORS
330
C
102
}
330
C
100
AcDbDictionary
281
     1
  3
Layout1
350
6F
  3
Layout2
350
77
  3
Model
350
73
  0
DICTIONARY
  5
10
102
{ACAD_REACTORS
330
C
102
}
330
C
100
AcDbDictionary
281
     1
  3
ByBlock
350
19
  3
ByLayer
350
11
  3
Global
350
21
  0
DICTIONARY
  5
66
102
{ACAD_REACTORS
330
C
102
}
330
C
100
AcDbDictionary
281
     1
  3
Standard
350
67
  0
DICTIONARY
  5
5F
102
{ACAD_REACTORS
330
C
102
}
330
C
100
AcDbDictionary
281
     1
  3
Standard
350
60
  0
DICTIONARY
  5
61
102
{ACAD_REACTORS
330
C
102
}
330
C
100
AcDbDictionary
281
     1
  0
ACDBDICTIONARYWDFLT
  5
E
102
{ACAD_REACTORS
330
C
102
}
330
C
100
AcDbDictionary
281
     1
  3
Normal
350
F
100
AcDbDictionaryWithDefault
340
F
  0
DICTIONARY
  5
42
102
{ACAD_REACTORS
330
C
102
}
330
C
100
AcDbDictionary
281
     1
  3
A0
350
43
  3
A1
350
44
  3
A2
350
45
  3
A3
350
46
  3
A4
350
47
  3
A5
350
48
  3
A6
350
49
  3
A7
350
4A
  3
A8
350
4B
  3
A9
350
4C
  3
B0
350
4D
  3
B1
350
4E
  3
B2
350
4F
  3
B3
350
50
  3
B4
350
51
  3
B5
350
52
  3
B6
350
53
  0
DICTIONARY
  5
68
102
{ACAD_REACTORS
330
C
102
}
330
C
100
AcDbDictionary
281
     1
  3
Imperial24
350
69
  0
DICTIONARY
  5
64
102
{ACAD_REACTORS
330
C
102
}
330
C
100
AcDbDictionary
281
     1
  3
Standard
350
65
  0
DICTIONARY
  5
29
102
{ACAD_REACTORS
330
C
102
}
330
C
100
AcDbDictionary
281
     1
  3
2dWireframe
350
2F
  3
Basic
350
2E
  3
Brighten
350
35
  3
ColorChange
350
39
  3
Conceptual
350
32
  3
Dim
350
34
  3
EdgeColorOff
350
41
  3
Facepattern
350
38
  3
Flat
350
2A
  3
FlatWithEdges
350
2B
  3
Gouraud
350
2C
  3
GouraudWithEdges
350
2D
  3
Hidden
350
31
  3
JitterOff
350
3F
  3
Linepattern
350
37
  3
OverhangOff
350
40
  3
Realistic
350
33
  3
Shaded
350
3E
  3
Shaded with edges
350
3D
  3
Shades of Gray
350
3A
  3
Sketchy
350
3B
  3
Thicken
350
36
  3
Wireframe
350
30
  3
X-Ray
350
3C
  0
XRECORD
  5
163
102
{ACAD_REACTORS
330
C
102
}
330
C
100
AcDbXrecord
280
     1
 90
        1
330
65
  0
DICTIONARY
  5
15B
102
{ACAD_REACTORS
330
C
102
}
330
C
100
AcDbDictionary
281
     1
  3
CANNOSCALE
350
160
  3
CMLEADERSTYLE
350
15D
  3
CTABLESTYLE
350
15C
  3
CVIEWDETAILSTYLE
350
15E
  3
CVIEWSECTIONSTYLE
350
15F
  0
ACDBDETAILVIEWSTYLE
  5
6B
102
{ACAD_XDICTIONARY
360
198
102
}
102
{ACAD_REACTORS
330
6A
102
}
330
6A
100
AcDbModelDocViewStyle
 70
     0
  3
Imperial24
290
     0
100
AcDbDetailViewStyle
 70
     0
 71
     0
 90
        3
 71
     1
340
55
 62
   256
 40
0.24
340
0
 62
   256
 40
0.24
300

 40
0.36
280
     3
 71
     2
340
5D
 90
       25
 62
   256
 71
     3
340
55
 62
   256
 40
0.24
 90
        1
 40
0.75
 90
        1
300
%<\AcVar ViewType \f "%tc1">% %<\AcVar ViewDetailId>%\PSCALE %<\AcVar ViewScale \f "%sn">%
 71
     4
340
5D
 90
       25
 62
   256
340
5D
 90
       25
 62
   256
280
     0
  0
LAYOUT
  5
6F
102
{ACAD_REACTORS
330
62
102
}
330
62
100
AcDbPlotSettings
  1

  2

  4

  6

 40
0.0
 41
0.0
 42
0.0
 43
0.0
 44
0.0
 45
0.0
 46
0.0
 47
0.0
 48
0.0
 49
0.0
140
0.0
141
0.0
142
1.0
143
1.0
 70
   688
 72
     0
 73
     0
 74
     5
  7

 75
    16
147
1.0
 76
     0
 77
     2
 78
   300
148
0.0
149
0.0
100
AcDbLayout
  1
Layout1
 70
     1
 71
     1
 10
0.0
 20
0.0
 11
12.0
 21
9.0
 12
0.0
 22
0.0
 32
0.0
 14
0.0
 24
0.0
 34
0.0
 15
0.0
 25
0.0
 35
0.0
146
0.0
 13
0.0
 23
0.0
 33
0.0
 16
1.0
 26
0.0
 36
0.0
 17
0.0
 27
1.0
 37
0.0
 76
     0
330
6C
  0
LAYOUT
  5
77
102
{ACAD_REACTORS
330
62
102
}
330
62
100
AcDbPlotSettings
  1

  2

  4

  6

 40
0.0
 41
0.0
 42
0.0
 43
0.0
 44
0.0
 45
0.0
 46
0.0
 47
0.0
 48
0.0
 49
0.0
140
0.0
141
0.0
142
1.0
143
1.0
 70
   688
 72
     0
 73
     0
 74
     5
  7

 75
    16
147
1.0
 76
     0
 77
     2
 78
   300
148
0.0
149
0.0
100
AcDbLayout
  1
Layout2
 70
     1
 71
     2
 10
0.0
 20
0.0
 11
12.0
 21
9.0
 12
0.0
 22
0.0
 32
0.0
 14
0.0
 24
0.0
 34
0.0
 15
0.0
 25
0.0
 35
0.0
146
0.0
 13
0.0
 23
0.0
 33
0.0
 16
1.0
 26
0.0
 36
0.0
 17
0.0
 27
1.0
 37
0.0
 76
     0
330
74
  0
LAYOUT
  5
73
102
{ACAD_REACTORS
330
62
102
}
330
62
100
AcDbPlotSettings
  1

  2

  4

  6

 40
0.0
 41
0.0
 42
0.0
 43
0.0
 44
0.0
 45
0.0
 46
0.0
 47
0.0
 48
0.0
 49
0.0
140
0.0
141
0.0
142
1.0
143
1.0
 70
  1712
 72
     0
 73
     0
 74
     0
  7

 75
     0
147
1.0
 76
     0
 77
     2
 78
   300
148
0.0
149
0.0
100
AcDbLayout
  1
Model
 70
     1
 71
     0
 10
0.0
 20
0.0
 11
12.0
 21
9.0
 12
0.0
 22
0.0
 32
0.0
 14
0.0
 24
0.0
 34
0.0
 15
0.0
 25
0.0
 35
0.0
146
0.0
 13
0.0
 23
0.0
 33
0.0
 16
1.0
 26
0.0
 36
0.0
 17
0.0
 27
1.0
 37
0.0
 76
     0
330
70
  0
MATERIAL
  5
19
102
{ACAD_XDICTIONARY
360
1A
102
}
102
{ACAD_REACTORS
330
10
102
}
330
10
100
AcDbMaterial
  1
ByBlock
 72
     0
 43
0.0208333333333333
 43
0.0
 43
0.0
 43
0.0
 43
0.0
 43
0.0208333333333333
 43
0.0
 43
0.0
 43
0.0
 43
0.0
 43
1.0
 43
0.0
 43
0.0
 43
0.0
 43
0.0
 43
1.0
 77
     0
 47
0.0208333333333333
 47
0.0
 47
0.0
 47
0.0
 47
0.0
 47
0.0208333333333333
 47
0.0
 47
0.0
 47
0.0
 47
0.0
 47
1.0
 47
0.0
 47
0.0
 47
0.0
 47
0.0
 47
1.0
171
     0
 49
0.0208333333333333
 49
0.0
 49
0.0
 49
0.0
 49
0.0
 49
0.0208333333333333
 49
0.0
 49
0.0
 49
0.0
 49
0.0
 49
1.0
 49
0.0
 49
0.0
 49
0.0
 49
0.0
 49
1.0
175
     0
142
0.0208333333333333
142
0.0
142
0.0
142
0.0
142
0.0
142
0.0208333333333333
142
0.0
142
0.0
142
0.0
142
0.0
142
1.0
142
0.0
142
0.0
142
0.0
142
0.0
142
1.0
179
     0
144
0.0208333333333333
144
0.0
144
0.0
144
0.0
144
0.0
144
0.0208333333333333
144
0.0
144
0.0
144
0.0
144
0.0
144
1.0
144
0.0
144
0.0
144
0.0
144
0.0
144
1.0
147
0.0208333333333333
147
0.0
147
0.0
147
0.0
147
0.0
147
0.0208333333333333
147
0.0
147
0.0
147
0.0
147
0.0
147
1.0
147
0.0
147
0.0
147
0.0
147
0.0
147
1.0
  0
MATERIAL
  5
11
102
{ACAD_XDICTIONARY
360
12
102
}
102
{ACAD_REACTORS
330
10
102
}
330
10
100
AcDbMaterial
  1
ByLayer
 72
     0
 43
0.0208333333333333
 43
0.0
 43
0.0
 43
0.0
 43
0.0
 43
0.0208333333333333
 43
0.0
 43
0.0
 43
0.0
 43
0.0
 43
1.0
 43
0.0
 43
0.0
 43
0.0
 43
0.0
 43
1.0
 77
     0
 47
0.0208333333333333
 47
0.0
 47
0.0
 47
0.0
 47
0.0
 47
0.0208333333333333
 47
0.0
 47
0.0
 47
0.0
 47
0.0
 47
1.0
 47
0.0
 47
0.0
 47
0.0
 47
0.0
 47
1.0
171
     0
 49
0.0208333333333333
 49
0.0
 49
0.0
 49
0.0
 49
0.0
 49
0.0208333333333333
 49
0.0
 49
0.0
 49
0.0
 49
0.0
 49
1.0
 49
0.0
 49
0.0
 49
0.0
 49
0.0
 49
1.0
175
     0
142
0.0208333333333333
142
0.0
142
0.0
142
0.0
142
0.0
142
0.0208333333333333
142
0.0
142
0.0
142
0.0
142
0.0
142
1.0
142
0.0
142
0.0
142
0.0
142
0.0
142
1.0
179
     0
144
0.0208333333333333
144
0.0
144
0.0
144
0.0
144
0.0
144
0.0208333333333333
144
0.0
144
0.0
144
0.0
144
0.0
144
1.0
144
0.0
144
0.0
144
0.0
144
0.0
144
1.0
147
0.0208333333333333
147
0.0
147
0.0
147
0.0
147
0.0
147
0.0208333333333333
147
0.0
147
0.0
147
0.0
147
0.0
147
1.0
147
0.0
147
0.0
147
0.0
147
0.0
147
1.0
  0
MATERIAL
  5
21
102
{ACAD_XDICTIONARY
360
22
102
}
102
{ACAD_REACTORS
330
10
102
}
330
10
100
AcDbMaterial
  1
Global
 72
     0
 43
0.0208333333333333
 43
0.0
 43
0.0
 43
0.0
 43
0.0
 43
0.0208333333333333
 43
0.0
 43
0.0
 43
0.0
 43
0.0
 43
1.0
 43
0.0
 43
0.0
 43
0.0
 43
0.0
 43
1.0
 77
     0
 47
0.0208333333333333
 47
0.0
 47
0.0
 47
0.0
 47
0.0
 47
0.0208333333333333
 47
0.0
 47
0.0
 47
0.0
 47
0.0
 47
1.0
 47
0.0
 47
0.0
 47
0.0
 47
0.0
 47
1.0
171
     0
 49
0.0208333333333333
 49
0.0
 49
0.0
 49
0.0
 49
0.0
 49
0.0208333333333333
 49
0.0
 49
0.0
 49
0.0
 49
0.0
 49
1.0
 49
0.0
 49
0.0
 49
0.0
 49
0.0
 49
1.0
175
     0
142
0.0208333333333333
142
0.0
142
0.0
142
0.0
142
0.0
142
0.0208333333333333
142
0.0
142
0.0
142
0.0
142
0.0
142
1.0
142
0.0
142
0.0
142
0.0
142
0.0
142
1.0
179
     0
144
0.0208333333333333
144
0.0
144
0.0
144
0.0
144
0.0
144
0.0208333333333333
144
0.0
144
0.0
144
0.0
144
0.0
144
1.0
144
0.0
144
0.0
144
0.0
144
0.0
144
1.0
147
0.0208333333333333
147
0.0
147
0.0
147
0.0
147
0.0
147
0.0208333333333333
147
0.0
147
0.0
147
0.0
147
0.0
147
1.0
147
0.0
147
0.0
147
0.0
147
0.0
147
1.0
  0
MLEADERSTYLE
  5
67
102
{ACAD_XDICTIONARY
360
194
102
}
102
{ACAD_REACTORS
330
66
102
}
330
66
100
AcDbMLeaderStyle
179
     2
170
     2
171
     1
172
     0
 90
        2
 40
0.0
 41
0.0
173
     1
 91
-1056964608
340
5B
 92
       -2
290
     1
 42
0.09
291
     1
 43
0.36
  3
Standard
 44
0.18
300

342
55
174
     1
178
     6
175
     1
176
     0
 93
-1056964608
 45
0.18
292
     0
297
     0
 46
0.18
 94
-1056964608
 47
1.0
 49
1.0
140
1.0
293
     1
141
0.0
294
     1
177
     0
142
1.0
295
     0
296
     0
143
0.125
271
     0
272
     9
273
     9
  0
MLINESTYLE
  5
60
102
{ACAD_REACTORS
330
5F
102
}
330
5F
100
AcDbMlineStyle
  2
STANDARD
 70
     0
  3

 62
   256
 51
90.0
 52
90.0
 71
     2
 49
0.5
 62
   256
  6
BYLAYER
 49
-0.5
 62
   256
  6
BYLAYER
  0
ACDBPLACEHOLDER
  5
F
102
{ACAD_REACTORS
330
E
102
}
330
E
  0
SCALE
  5
43
102
{ACAD_REACTORS
330
42
102
}
330
42
100
AcDbScale
 70
     0
300
1:1
140
1.0
141
1.0
290
     1
  0
SCALE
  5
44
102
{ACAD_REACTORS
330
42
102
}
330
42
100
AcDbScale
 70
     0
300
1/128" = 1'-0"
140
0.0078125
141
12.0
290
     0
  0
SCALE
  5
45
102
{ACAD_REACTORS
330
42
102
}
330
42
100
AcDbScale
 70
     0
300
1/64" = 1'-0"
140
0.015625
141
12.0
290
     0
  0
SCALE
  5
46
102
{ACAD_REACTORS
330
42
102
}
330
42
100
AcDbScale
 70
     0
300
1/32" = 1'-0"
140
0.03125
141
12.0
290
     0
  0
SCALE
  5
47
102
{ACAD_REACTORS
330
42
102
}
330
42
100
AcDbScale
 70
     0
300
1/16" = 1'-0"
140
0.0625
141
12.0
290
     0
  0
SCALE
  5
48
102
{ACAD_REACTORS
330
42
102
}
330
42
100
AcDbScale
 70
     0
300
3/32" = 1'-0"
140
0.09375
141
12.0
290
     0
  0
SCALE
  5
49
102
{ACAD_REACTORS
330
42
102
}
330
42
100
AcDbScale
 70
     0
300
1/8" = 1'-0"
140
0.125
141
12.0
290
     0
  0
SCALE
  5
4A
102
{ACAD_REACTORS
330
42
102
}
330
42
100
AcDbScale
 70
     0
300
3/16" = 1'-0"
140
0.1875
141
12.0
290
     0
  0
SCALE
  5
4B
102
{ACAD_REACTORS
330
42
102
}
330
42
100
AcDbScale
 70
     0
300
1/4" = 1'-0"
140
0.25
141
12.0
290
     0
  0
SCALE
  5
4C
102
{ACAD_REACTORS
330
42
102
}
330
42
100
AcDbScale
 70
     0
300
3/8" = 1'-0"
140
0.375
141
12.0
290
     0
  0
SCALE
  5
4D
102
{ACAD_REACTORS
330
42
102
}
330
42
100
AcDbScale
 70
     0
300
1/2" = 1'-0"
140
0.5
141
12.0
290
     0
  0
SCALE
  5
4E
102
{ACAD_REACTORS
330
42
102
}
330
42
100
AcDbScale
 70
     0
300
3/4" = 1'-0"
140
0.75
141
12.0
290
     0
  0
SCALE
  5
4F
102
{ACAD_REACTORS
330
42
102
}
330
42
100
AcDbScale
 70
     0
300
1" = 1'-0"
140
1.0
141
12.0
290
     0
  0
SCALE
  5
50
102
{ACAD_REACTORS
330
42
102
}
330
42
100
AcDbScale
 70
     0
300
1-1/2" = 1'-0"
140
1.5
141
12.0
290
     0
  0
SCALE
  5
51
102
{ACAD_REACTORS
330
42
102
}
330
42
100
AcDbScale
 70
     0
300
3" = 1'-0"
140
3.0
141
12.0
290
     0
  0
SCALE
  5
52
102
{ACAD_REACTORS
330
42
102
}
330
42
100
AcDbScale
 70
     0
300
6" = 1'-0"
140
6.0
141
12.0
290
     0
  0
SCALE
  5
53
102
{ACAD_REACTORS
330
42
102
}
330
42
100
AcDbScale
 70
     0
300
1'-0" = 1'-0"
140
12.0
141
12.0
290
     0
  0
ACDBSECTIONVIEWSTYLE
  5
69
102
{ACAD_XDICTIONARY
360
196
102
}
102
{ACAD_REACTORS
330
68
102
}
330
68
100
AcDbModelDocViewStyle
 70
     0
  3
Imperial24
290
     0
100
AcDbSectionViewStyle
 70
     0
 71
     0
 90
       78
 71
     1
340
55
 62
   256
 40
0.24
340
0
340
0
 62
   256
 40
0.24
300
I, O, Q, S, X, Z
 40
0.48
 90
        3
 40
0.18
 90
        1
 71
     2
340
5D
 90
       25
 62
   256
340
5D
 90
       50
 62
   256
 40
0.24
 40
0.0
 40
0.24
 71
     3
340
55
 62
   256
 40
0.24
 90
        1
 40
0.75
 90
        1
300
%<\AcVar ViewType \f "%tc1">% %<\AcVar ViewSectionStartId>%-%<\AcVar ViewSectionEndId>%\PSCALE %<\AcVar ViewScale \f "%sn">%
 71
     4
 62
   256
 62
   257
300
ANSI31
 40
1.0
 90
        0
290
     0
290
     0
 90
        6
 40
0.0
 40
1.570796326794896
 40
0.2617993877991494
 40
1.308996938995747
 40
-0.2617993877991494
 40
1.832595714594046
  0
TABLESTYLE
  5
65
102
{ACAD_XDICTIONARY
360
161
102
}
102
{ACAD_REACTORS
330
64
102
}
330
64
100
AcDbTableStyle
280
     0
  3
Standard
 70
     0
 71
     0
 40
0.06
 41
0.06
280
     0
281
     0
  7
Standard
140
0.18
170
     2
 62
     0
 63
     7
283
     0
 90
      512
 91
        0
  1

274
    -2
284
     1
 64
     0
275
    -2
285
     1
 65
     0
276
    -2
286
     1
 66
     0
277
    -2
287
     1
 67
     0
278
    -2
288
     1
 68
     0
279
    -2
289
     1
 69
     0
  7
Standard
140
0.25
170
     5
 62
     0
 63
     7
283
     0
 90
      512
 91
        0
  1

274
    -2
284
     1
 64
     0
275
    -2
285
     1
 65
     0
276
    -2
286
     1
 66
     0
277
    -2
287
     1
 67
     0
278
    -2
288
     1
 68
     0
279
    -2
289
     1
 69
     0
  7
Standard
140
0.18
170
     5
 62
     0
 63
     7
283
     0
 90
      512
 91
        0
  1

274
    -2
284
     1
 64
     0
275
    -2
285
     1
 65
     0
276
    -2
286
     1
 66
     0
277
    -2
287
     1
 67
     0
278
    -2
288
     1
 68
     0
279
    -2
289
     1
 69
     0
  0
VISUALSTYLE
  5
2F
102
{ACAD_XDICTIONARY
360
16E
102
}
102
{ACAD_REACTORS
330
29
102
}
330
29
100
AcDbVisualStyle
  2
2dWireframe
 70
     4
177
     2
291
     0
 71
     0
176
     1
 72
     2
176
     1
 73
     0
176
     1
 90
        0
176
     1
 40
0.6
176
     1
 41
30.0
176
     1
 63
     7
421
 16777215
176
     1
 74
     1
176
     1
 91
        4
176
     1
 64
     7
176
     1
 65
   257
176
     1
 75
     1
176
     1
175
     1
176
     1
 42
1.0
176
     1
 92
        0
176
     1
 66
   257
176
     1
 43
1.0
176
     1
 76
     1
176
     1
 77
     6
176
     1
 78
     2
176
     1
 67
     7
176
     1
 79
     5
176
     1
170
     0
176
     1
171
     0
176
     1
290
     0
176
     1
 93
        1
176
     1
 44
0.0
176
     1
173
     0
176
     1
1001
ACAD
1000
AcDbSavedByObjectVersion
1070
     0
  0
VISUALSTYLE
  5
2E
102
{ACAD_XDICTIONARY
360
16C
102
}
102
{ACAD_REACTORS
330
29
102
}
330
29
100
AcDbVisualStyle
  2
Basic
 70
     7
177
     2
291
     1
 71
     1
176
     1
 72
     0
176
     1
 73
     1
176
     1
 90
        0
176
     1
 40
0.6
176
     1
 41
30.0
176
     1
 63
     7
421
 16777215
176
     1
 74
     0
176
     1
 91
        4
176
     1
 64
     7
176
     1
 65
   257
176
     1
 75
     1
176
     1
175
     1
176
     1
 42
1.0
176
     1
 92
        8
176
     1
 66
     7
176
     1
 43
1.0
176
     1
 76
     1
176
     1
 77
     6
176
     1
 78
     2
176
     1
 67
     7
176
     1
 79
     5
176
     1
170
     0
176
     1
171
     0
176
     1
290
     0
176
     1
 93
        1
176
     1
 44
0.0
176
     1
173
     0
176
     1
1001
ACAD
1000
AcDbSavedByObjectVersion
1070
     0
  0
VISUALSTYLE
  5
35
102
{ACAD_XDICTIONARY
360
17A
102
}
102
{ACAD_REACTORS
330
29
102
}
330
29
100
AcDbVisualStyle
  2
Brighten
 70
    12
177
     2
291
     1
 71
     2
176
     1
 72
     2
176
     1
 73
     0
176
     1
 90
        0
176
     1
 40
0.6
176
     1
 41
30.0
176
     1
 63
     7
421
 16777215
176
     1
 74
     1
176
     1
 91
        4
176
     1
 64
     7
176
     1
 65
   257
176
     1
 75
     1
176
     1
175
     1
176
     1
 42
1.0
176
     1
 92
        8
176
     1
 66
     7
176
     1
 43
1.0
176
     1
 76
     1
176
     1
 77
     6
176
     1
 78
     2
176
     1
 67
     7
176
     1
 79
     5
176
     1
170
     0
176
     1
171
     0
176
     1
290
     0
176
     1
 93
        1
176
     1
 44
50.0
176
     1
173
     0
176
     1
1001
ACAD
1000
AcDbSavedByObjectVersion
1070
     0
  0
VISUALSTYLE
  5
39
102
{ACAD_XDICTIONARY
360
182
102
}
102
{ACAD_REACTORS
330
29
102
}
330
29
100
AcDbVisualStyle
  2
ColorChange
 70
    16
177
     2
291
     1
 71
     2
176
     1
 72
     2
176
     1
 73
     3
176
     1
 90
        0
176
     1
 40
0.6
176
     1
 41
30.0
176
     1
 63
     8
421
  8421504
176
     1
 74
     1
176
     1
 91
        4
176
     1
 64
     7
176
     1
 65
   257
176
     1
 75
     1
176
     1
175
     1
176
     1
 42
1.0
176
     1
 92
        8
176
     1
 66
     8
424
  8421504
176
     1
 43
1.0
176
     1
 76
     1
176
     1
 77
     6
176
     1
 78
     2
176
     1
 67
     7
176
     1
 79
     5
176
     1
170
     0
176
     1
171
     0
176
     1
290
     0
176
     1
 93
        1
176
     1
 44
0.0
176
     1
173
     0
176
     1
1001
ACAD
1000
AcDbSavedByObjectVersion
1070
     0
  0
VISUALSTYLE
  5
32
102
{ACAD_XDICTIONARY
360
174
102
}
102
{ACAD_REACTORS
330
29
102
}
330
29
100
AcDbVisualStyle
  2
Conceptual
 70
     9
177
     2
291
     0
 71
     3
176
     1
 72
     2
176
     1
 73
     0
176
     1
 90
        0
176
     1
 40
0.6
176
     1
 41
30.0
176
     1
 63
     7
421
 16777215
176
     1
 74
     2
176
     1
 91
        2
176
     1
 64
     7
176
     1
 65
   257
176
     1
 75
     1
176
     1
175
     1
176
     1
 42
179.0
176
     1
 92
        8
176
     1
 66
     7
176
     1
 43
1.0
176
     1
 76
     1
176
     1
 77
     6
176
     1
 78
     2
176
     1
 67
     7
176
     1
 79
     3
176
     1
170
     0
176
     1
171
     0
176
     1
290
     0
176
     1
 93
        1
176
     1
 44
0.0
176
     1
173
     0
176
     1
1001
ACAD
1000
AcDbSavedByObjectVersion
1070
     0
  0
VISUALSTYLE
  5
34
102
{ACAD_XDICTIONARY
360
178
102
}
102
{ACAD_REACTORS
330
29
102
}
330
29
100
AcDbVisualStyle
  2
Dim
 70
    11
177
     2
291
     1
 71
     2
176
     1
 72
     2
176
     1
 73
     0
176
     1
 90
        0
176
     1
 40
0.6
176
     1
 41
30.0
176
     1
 63
     7
421
 16777215
176
     1
 74
     1
176
     1
 91
        4
176
     1
 64
     7
176
     1
 65
   257
176
     1
 75
     1
176
     1
175
     1
176
     1
 42
1.0
176
     1
 92
        8
176
     1
 66
     7
176
     1
 43
1.0
176
     1
 76
     1
176
     1
 77
     6
176
     1
 78
     2
176
     1
 67
     7
176
     1
 79
     5
176
     1
170
     0
176
     1
171
     0
176
     1
290
     0
176
     1
 93
        1
176
     1
 44
-50.0
176
     1
173
     0
176
     1
1001
ACAD
1000
AcDbSavedByObjectVersion
1070
     0
  0
VISUALSTYLE
  5
41
102
{ACAD_XDICTIONARY
360
192
102
}
102
{ACAD_REACTORS
330
29
102
}
330
29
100
AcDbVisualStyle
  2
EdgeColorOff
 70
    22
177
     2
291
     1
 71
     2
176
     0
 72
     2
176
     0
 73
     0
176
     0
 90
        0
176
     0
 40
0.6
176
     0
 41
30.0
176
     0
 63
     7
421
 16777215
176
     0
 74
     1
176
     0
 91
        4
176
     0
 64
     7
176
     0
 65
   257
176
     0
 75
     1
176
     0
175
     1
176
     0
 42
1.0
176
     0
 92
        8
176
     2
 66
     7
176
     0
 43
1.0
176
     0
 76
     1
176
     0
 77
     6
176
     0
 78
     2
176
     0
 67
     7
176
     0
 79
     5
176
     0
170
     0
176
     0
171
     0
176
     0
290
     0
176
     0
 93
        1
176
     0
 44
0.0
176
     0
173
     0
176
     0
1001
ACAD
1000
AcDbSavedByObjectVersion
1070
     0
  0
VISUALSTYLE
  5
38
102
{ACAD_XDICTIONARY
360
180
102
}
102
{ACAD_REACTORS
330
29
102
}
330
29
100
AcDbVisualStyle
  2
Facepattern
 70
    15
177
     2
291
     1
 71
     2
176
     1
 72
     2
176
     1
 73
     0
176
     1
 90
        0
176
     1
 40
0.6
176
     1
 41
30.0
176
     1
 63
     7
421
 16777215
176
     1
 74
     1
176
     1
 91
        4
176
     1
 64
     7
176
     1
 65
   257
176
     1
 75
     1
176
     1
175
     1
176
     1
 42
1.0
176
     1
 92
        8
176
     1
 66
     7
176
     1
 43
1.0
176
     1
 76
     1
176
     1
 77
     6
176
     1
 78
     2
176
     1
 67
     7
176
     1
 79
     5
176
     1
170
     0
176
     1
171
     0
176
     1
290
     0
176
     1
 93
        1
176
     1
 44
0.0
176
     1
173
     0
176
     1
1001
ACAD
1000
AcDbSavedByObjectVersion
1070
     0
  0
VISUALSTYLE
  5
2A
102
{ACAD_XDICTIONARY
360
164
102
}
102
{ACAD_REACTORS
330
29
102
}
330
29
100
AcDbVisualStyle
  2
Flat
 70
     0
177
     2
291
     1
 71
     2
176
     1
 72
     1
176
     1
 73
     1
176
     1
 90
        2
176
     1
 40
0.6
176
     1
 41
30.0
176
     1
 63
     7
421
 16777215
176
     1
 74
     0
176
     1
 91
        0
176
     1
 64
     7
176
     1
 65
   257
176
     1
 75
     1
176
     1
175
     1
176
     1
 42
1.0
176
     1
 92
        8
176
     1
 66
     7
176
     1
 43
1.0
176
     1
 76
     1
176
     1
 77
     6
176
     1
 78
     2
176
     1
 67
     7
176
     1
 79
     5
176
     1
170
     0
176
     1
171
     0
176
     1
290
     0
176
     1
 93
       13
176
     1
 44
0.0
176
     1
173
     0
176
     1
1001
ACAD
1000
AcDbSavedByObjectVersion
1070
     0
  0
VISUALSTYLE
  5
2B
102
{ACAD_XDICTIONARY
360
166
102
}
102
{ACAD_REACTORS
330
29
102
}
330
29
100
AcDbVisualStyle
  2
FlatWithEdges
 70
     1
177
     2
291
     1
 71
     2
176
     1
 72
     1
176
     1
 73
     1
176
     1
 90
        2
176
     1
 40
0.6
176
     1
 41
30.0
176
     1
 63
     7
421
 16777215
176
     1
 74
     1
176
     1
 91
        0
176
     1
 64
     7
176
     1
 65
   257
176
     1
 75
     1
176
     1
175
     1
176
     1
 42
1.0
176
     1
 92
        0
176
     1
 66
   257
176
     1
 43
1.0
176
     1
 76
     1
176
     1
 77
     6
176
     1
 78
     2
176
     1
 67
     7
176
     1
 79
     5
176
     1
170
     0
176
     1
171
     0
176
     1
290
     0
176
     1
 93
       13
176
     1
 44
0.0
176
     1
173
     0
176
     1
1001
ACAD
1000
AcDbSavedByObjectVersion
1070
     0
  0
VISUALSTYLE
  5
2C
102
{ACAD_XDICTIONARY
360
168
102
}
102
{ACAD_REACTORS
330
29
102
}
330
29
100
AcDbVisualStyle
  2
Gouraud
 70
     2
177
     2
291
     1
 71
     2
176
     1
 72
     2
176
     1
 73
     1
176
     1
 90
        2
176
     1
 40
0.6
176
     1
 41
30.0
176
     1
 63
     7
421
 16777215
176
     1
 74
     0
176
     1
 91
        0
176
     1
 64
     7
176
     1
 65
   257
176
     1
 75
     1
176
     1
175
     1
176
     1
 42
1.0
176
     1
 92
        0
176
     1
 66
     7
176
     1
 43
1.0
176
     1
 76
     1
176
     1
 77
     6
176
     1
 78
     2
176
     1
 67
     7
176
     1
 79
     5
176
     1
170
     0
176
     1
171
     0
176
     1
290
     0
176
     1
 93
       13
176
     1
 44
0.0
176
     1
173
     0
176
     1
1001
ACAD
1000
AcDbSavedByObjectVersion
1070
     0
  0
VISUALSTYLE
  5
2D
102
{ACAD_XDICTIONARY
360
16A
102
}
102
{ACAD_REACTORS
330
29
102
}
330
29
100
AcDbVisualStyle
  2
GouraudWithEdges
 70
     3
177
     2
291
     1
 71
     2
176
     1
 72
     2
176
     1
 73
     1
176
     1
 90
        2
176
     1
 40
0.6
176
     1
 41
30.0
176
     1
 63
     7
421
 16777215
176
     1
 74
     1
176
     1
 91
        0
176
     1
 64
     7
176
     1
 65
   257
176
     1
 75
     1
176
     1
175
     1
176
     1
 42
1.0
176
     1
 92
        0
176
     1
 66
   257
176
     1
 43
1.0
176
     1
 76
     1
176
     1
 77
     6
176
     1
 78
     2
176
     1
 67
     7
176
     1
 79
     5
176
     1
170
     0
176
     1
171
     0
176
     1
290
     0
176
     1
 93
       13
176
     1
 44
0.0
176
     1
173
     0
176
     1
1001
ACAD
1000
AcDbSavedByObjectVersion
1070
     0
  0
VISUALSTYLE
  5
31
102
{ACAD_XDICTIONARY
360
172
102
}
102
{ACAD_REACTORS
330
29
102
}
330
29
100
AcDbVisualStyle
  2
Hidden
 70
     6
177
     2
291
     0
 71
     1
176
     1
 72
     2
176
     1
 73
     2
176
     1
 90
        0
176
     1
 40
0.6
176
     1
 41
30.0
176
     1
 63
     7
421
 16777215
176
     1
 74
     2
176
     1
 91
        2
176
     1
 64
     7
176
     1
 65
   257
176
     1
 75
     2
176
     1
175
     1
176
     1
 42
40.0
176
     1
 92
        0
176
     1
 66
   257
176
     1
 43
1.0
176
     1
 76
     1
176
     1
 77
     6
176
     1
 78
     2
176
     1
 67
     7
176
     1
 79
     3
176
     1
170
     0
176
     1
171
     0
176
     1
290
     0
176
     1
 93
        1
176
     1
 44
0.0
176
     1
173
     0
176
     1
1001
ACAD
1000
AcDbSavedByObjectVersion
1070
     0
  0
VISUALSTYLE
  5
3F
102
{ACAD_XDICTIONARY
360
18E
102
}
102
{ACAD_REACTORS
330
29
102
}
330
29
100
AcDbVisualStyle
  2
JitterOff
 70
    20
177
     2
291
     1
 71
     2
176
     0
 72
     2
176
     0
 73
     0
176
     0
 90
        0
176
     0
 40
0.6
176
     0
 41
30.0
176
     0
 63
     7
421
 16777215
176
     0
 74
     1
176
     0
 91
        4
176
     0
 64
     7
176
     0
 65
   257
176
     0
 75
     1
176
     0
175
     1
176
     0
 42
1.0
176
     0
 92
       10
176
     2
 66
     7
176
     0
 43
1.0
176
     0
 76
     1
176
     0
 77
     6
176
     0
 78
     2
176
     0
 67
     7
176
     0
 79
     5
176
     0
170
     0
176
     0
171
     0
176
     0
290
     0
176
     0
 93
        1
176
     0
 44
0.0
176
     0
173
     0
176
     0
1001
ACAD
1000
AcDbSavedByObjectVersion
1070
     0
  0
VISUALSTYLE
  5
37
102
{ACAD_XDICTIONARY
360
17E
102
}
102
{ACAD_REACTORS
330
29
102
}
330
29
100
AcDbVisualStyle
  2
Linepattern
 70
    14
177
     2
291
     1
 71
     2
176
     1
 72
     2
176
     1
 73
     0
176
     1
 90
        0
176
     1
 40
0.6
176
     1
 41
30.0
176
     1
 63
     7
421
 16777215
176
     1
 74
     1
176
     1
 91
        4
176
     1
 64
     7
176
     1
 65
   257
176
     1
 75
     7
176
     1
175
     7
176
     1
 42
1.0
176
     1
 92
        8
176
     1
 66
     7
176
     1
 43
1.0
176
     1
 76
     1
176
     1
 77
     6
176
     1
 78
     2
176
     1
 67
     7
176
     1
 79
     5
176
     1
170
     0
176
     1
171
     0
176
     1
290
     0
176
     1
 93
        1
176
     1
 44
0.0
176
     1
173
     0
176
     1
1001
ACAD
1000
AcDbSavedByObjectVersion
1070
     0
  0
VISUALSTYLE
  5
40
102
{ACAD_XDICTIONARY
360
190
102
}
102
{ACAD_REACTORS
330
29
102
}
330
29
100
AcDbVisualStyle
  2
OverhangOff
 70
    21
177
     2
291
     1
 71
     2
176
     0
 72
     2
176
     0
 73
     0
176
     0
 90
        0
176
     0
 40
0.6
176
     0
 41
30.0
176
     0
 63
     7
421
 16777215
176
     0
 74
     1
176
     0
 91
        4
176
     0
 64
     7
176
     0
 65
   257
176
     0
 75
     1
176
     0
175
     1
176
     0
 42
1.0
176
     0
 92
        9
176
     2
 66
     7
176
     0
 43
1.0
176
     0
 76
     1
176
     0
 77
     6
176
     0
 78
     2
176
     0
 67
     7
176
     0
 79
     5
176
     0
170
     0
176
     0
171
     0
176
     0
290
     0
176
     0
 93
        1
176
     0
 44
0.0
176
     0
173
     0
176
     0
1001
ACAD
1000
AcDbSavedByObjectVersion
1070
     0
  0
VISUALSTYLE
  5
33
102
{ACAD_XDICTIONARY
360
176
102
}
102
{ACAD_REACTORS
330
29
102
}
330
29
100
AcDbVisualStyle
  2
Realistic
 70
     8
177
     2
291
     0
 71
     2
176
     1
 72
     3
176
     1
 73
     0
176
     1
 90
        2
176
     1
 40
0.6
176
     1
 41
30.0
176
     1
 63
     7
421
 16777215
176
     1
 74
     0
176
     1
 91
        0
176
     1
 64
     7
176
     1
 65
   257
176
     1
 75
     1
176
     1
175
     1
176
     1
 42
1.0
176
     1
 92
        8
176
     1
 66
   257
176
     1
 43
1.0
176
     1
 76
     1
176
     1
 77
     6
176
     1
 78
     2
176
     1
 67
     7
176
     1
 79
     3
176
     1
170
     0
176
     1
171
     0
176
     1
290
     0
176
     1
 93
       13
176
     1
 44
0.0
176
     1
173
     0
176
     1
1001
ACAD
1000
AcDbSavedByObjectVersion
1070
     0
  0
VISUALSTYLE
  5
3E
102
{ACAD_XDICTIONARY
360
18C
102
}
102
{ACAD_REACTORS
330
29
102
}
330
29
100
AcDbVisualStyle
  2
Shaded
 70
    27
177
     2
291
     0
 71
     2
176
     1
 72
     2
176
     1
 73
     1
176
     1
 90
        2
176
     1
 40
0.6
176
     1
 41
30.0
176
     1
 63
     7
421
 16777215
176
     1
 74
     0
176
     1
 91
        4
176
     1
 64
     7
176
     1
 65
   257
176
     1
 75
     1
176
     1
175
     1
176
     1
 42
1.0
176
     1
 92
        8
176
     1
 66
   257
176
     1
 43
1.0
176
     1
 76
     1
176
     1
 77
     6
176
     1
 78
     2
176
     1
 67
     8
425
  7895160
176
     1
 79
     3
176
     1
170
     0
176
     1
171
     0
176
     1
290
     0
176
     1
 93
        5
176
     1
 44
0.0
176
     1
173
     0
176
     1
1001
ACAD
1000
AcDbSavedByObjectVersion
1070
     0
  0
VISUALSTYLE
  5
3D
102
{ACAD_XDICTIONARY
360
18A
102
}
102
{ACAD_REACTORS
330
29
102
}
330
29
100
AcDbVisualStyle
  2
Shaded with edges
 70
    26
177
     2
291
     0
 71
     2
176
     1
 72
     2
176
     1
 73
     1
176
     1
 90
        2
176
     1
 40
0.6
176
     1
 41
30.0
176
     1
 63
     7
421
 16777215
176
     1
 74
     1
176
     1
 91
        2
176
     1
 64
     7
176
     1
 65
   257
176
     1
 75
     2
176
     1
175
     1
176
     1
 42
1.0
176
     1
 92
        8
176
     1
 66
   257
176
     1
 43
1.0
176
     1
 76
     1
176
     1
 77
     6
176
     1
 78
     2
176
     1
 67
     7
176
     1
 79
     3
176
     1
170
     0
176
     1
171
     0
176
     1
290
     0
176
     1
 93
        5
176
     1
 44
0.0
176
     1
173
     0
176
     1
1001
ACAD
1000
AcDbSavedByObjectVersion
1070
     0
  0
VISUALSTYLE
  5
3A
102
{ACAD_XDICTIONARY
360
184
102
}
102
{ACAD_REACTORS
330
29
102
}
330
29
100
AcDbVisualStyle
  2
Shades of Gray
 70
    23
177
     2
291
     0
 71
     2
176
     1
 72
     2
176
     1
 73
     3
176
     1
 90
        0
176
     1
 40
0.6
176
     1
 41
30.0
176
     1
 63
     7
421
 16777215
176
     1
 74
     2
176
     1
 91
        2
176
     1
 64
     7
176
     1
 65
     7
176
     1
 75
     1
176
     1
175
     1
176
     1
 42
40.0
176
     1
 92
        8
176
     1
 66
     7
176
     1
 43
1.0
176
     1
 76
     1
176
     1
 77
     6
176
     1
 78
     2
176
     1
 67
     7
176
     1
 79
     3
176
     1
170
     0
176
     1
171
     0
176
     1
290
     0
176
     1
 93
        1
176
     1
 44
0.0
176
     1
173
     0
176
     1
1001
ACAD
1000
AcDbSavedByObjectVersion
1070
     0
  0
VISUALSTYLE
  5
3B
102
{ACAD_XDICTIONARY
360
186
102
}
102
{ACAD_REACTORS
330
29
102
}
330
29
100
AcDbVisualStyle
  2
Sketchy
 70
    24
177
     2
291
     0
 71
     1
176
     1
 72
     2
176
     1
 73
     2
176
     1
 90
        0
176
     1
 40
0.6
176
     1
 41
30.0
176
     1
 63
     7
421
 16777215
176
     1
 74
     2
176
     1
 91
        2
176
     1
 64
     7
176
     1
 65
     7
176
     1
 75
     1
176
     1
175
     1
176
     1
 42
40.0
176
     1
 92
       11
176
     1
 66
     7
176
     1
 43
1.0
176
     1
 76
     1
176
     1
 77
     6
176
     1
 78
     2
176
     1
 67
     7
176
     1
 79
     6
176
     1
170
     0
176
     1
171
     0
176
     1
290
     0
176
     1
 93
        1
176
     1
 44
0.0
176
     1
173
     0
176
     1
1001
ACAD
1000
AcDbSavedByObjectVersion
1070
     0
  0
VISUALSTYLE
  5
36
102
{ACAD_XDICTIONARY
360
17C
102
}
102
{ACAD_REACTORS
330
29
102
}
330
29
100
AcDbVisualStyle
  2
Thicken
 70
    13
177
     2
291
     1
 71
     2
176
     1
 72
     2
176
     1
 73
     0
176
     1
 90
        0
176
     1
 40
0.6
176
     1
 41
30.0
176
     1
 63
     7
421
 16777215
176
     1
 74
     1
176
     1
 91
        4
176
     1
 64
     7
176
     1
 65
   257
176
     1
 75
     1
176
     1
175
     1
176
     1
 42
1.0
176
     1
 92
       12
176
     1
 66
     7
176
     1
 43
1.0
176
     1
 76
     1
176
     1
 77
     6
176
     1
 78
     2
176
     1
 67
     7
176
     1
 79
     5
176
     1
170
     0
176
     1
171
     0
176
     1
290
     0
176
     1
 93
        1
176
     1
 44
0.0
176
     1
173
     0
176
     1
1001
ACAD
1000
AcDbSavedByObjectVersion
1070
     0
  0
VISUALSTYLE
  5
30
102
{ACAD_XDICTIONARY
360
170
102
}
102
{ACAD_REACTORS
330
29
102
}
330
29
100
AcDbVisualStyle
  2
Wireframe
 70
     5
177
     2
291
     0
 71
     0
176
     1
 72
     2
176
     1
 73
     0
176
     1
 90
        0
176
     1
 40
0.6
176
     1
 41
30.0
176
     1
 63
     7
421
 16777215
176
     1
 74
     1
176
     1
 91
        4
176
     1
 64
     7
176
     1
 65
   257
176
     1
 75
     1
176
     1
175
     1
176
     1
 42
1.0
176
     1
 92
        0
176
     1
 66
   257
176
     1
 43
1.0
176
     1
 76
     1
176
     1
 77
     6
176
     1
 78
     2
176
     1
 67
     7
176
     1
 79
     3
176
     1
170
     0
176
     1
171
     0
176
     1
290
     0
176
     1
 93
        1
176
     1
 44
0.0
176
     1
173
     0
176
     1
1001
ACAD
1000
AcDbSavedByObjectVersion
1070
     0
  0
VISUALSTYLE
  5
3C
102
{ACAD_XDICTIONARY
360
188
102
}
102
{ACAD_REACTORS
330
29
102
}
330
29
100
AcDbVisualStyle
  2
X-Ray
 70
    25
177
     2
291
     0
 71
     2
176
     1
 72
     2
176
     1
 73
     1
176
     1
 90
        1
176
     1
 40
0.5
176
     1
 41
30.0
176
     1
 63
     7
421
 16777215
176
     1
 74
     1
176
     1
 91
        0
176
     1
 64
     7
176
     1
 65
   257
176
     1
 75
     1
176
     1
175
     1
176
     1
 42
1.0
176
     1
 92
        8
176
     1
 66
     7
176
     1
 43
1.0
176
     1
 76
     1
176
     1
 77
     6
176
     1
 78
     2
176
     1
 67
     7
176
     1
 79
     3
176
     1
170
     0
176
     1
171
     0
176
     1
290
     0
176
     1
 93
       13
176
     1
 44
0.0
176
     1
173
     0
176
     1
1001
ACAD
1000
AcDbSavedByObjectVersion
1070
     0
  0
DICTIONARYVAR
  5
160
102
{ACAD_REACTORS
330
15B
102
}
330
15B
100
DictionaryVariables
280
     0
  1
1:1
  0
DICTIONARYVAR
  5
15D
102
{ACAD_REACTORS
330
15B
102
}
330
15B
100
DictionaryVariables
280
     0
  1
STANDARD
  0
DICTIONARYVAR
  5
15C
102
{ACAD_REACTORS
330
15B
102
}
330
15B
100
DictionaryVariables
280
     0
  1
STANDARD
  0
DICTIONARYVAR
  5
15E
102
{ACAD_REACTORS
330
15B
102
}
330
15B
100
DictionaryVariables
280
     0
  1
Imperial24
  0
DICTIONARYVAR
  5
15F
102
{ACAD_REACTORS
330
15B
102
}
330
15B
100
DictionaryVariables
280
     0
  1
Imperial24
  0
DICTIONARY
  5
198
330
6B
100
AcDbDictionary
280
     1
281
     1
  3
ACAD_XREC_ROUNDTRIP
360
199
  0
DICTIONARY
  5
1A
330
19
100
AcDbDictionary
280
     1
281
     1
  3
BUMPTILE
360
1C
  3
DIFFUSETILE
360
1B
  3
OPACITYTILE
360
1F
  3
REFLECTIONTILE
360
1E
  3
REFRACTIONTILE
360
20
  3
SPECULARTILE
360
1D
  0
DICTIONARY
  5
12
330
11
100
AcDbDictionary
280
     1
281
     1
  3
BUMPTILE
360
14
  3
DIFFUSETILE
360
13
  3
OPACITYTILE
360
17
  3
REFLECTIONTILE
360
16
  3
REFRACTIONTILE
360
18
  3
SPECULARTILE
360
15
  0
DICTIONARY
  5
22
330
21
100
AcDbDictionary
280
     1
281
     1
  3
BUMPTILE
360
24
  3
DIFFUSETILE
360
23
  3
OPACITYTILE
360
27
  3
REFLECTIONTILE
360
26
  3
REFRACTIONTILE
360
28
  3
SPECULARTILE
360
25
  0
DICTIONARY
  5
194
330
67
100
AcDbDictionary
280
     1
281
     1
  3
ACAD_XREC_ROUNDTRIP
360
195
  0
DICTIONARY
  5
196
330
69
100
AcDbDictionary
280
     1
281
     1
  3
ACAD_XREC_ROUNDTRIP
360
197
  0
DICTIONARY
  5
161
330
65
100
AcDbDictionary
280
     1
281
     1
  3
ACAD_ROUNDTRIP_2008_TABLESTYLE_CELLSTYLEMAP
360
162
  0
DICTIONARY
  5
16E
330
2F
100
AcDbDictionary
280
     1
281
     1
  3
ACAD_XREC_ROUNDTRIP
360
16F
  0
DICTIONARY
  5
16C
330
2E
100
AcDbDictionary
280
     1
281
     1
  3
ACAD_XREC_ROUNDTRIP
360
16D
  0
DICTIONARY
  5
17A
330
35
100
AcDbDictionary
280
     1
281
     1
  3
ACAD_XREC_ROUNDTRIP
360
17B
  0
DICTIONARY
  5
182
330
39
100
AcDbDictionary
280
     1
281
     1
  3
ACAD_XREC_ROUNDTRIP
360
183
  0
DICTIONARY
  5
174
330
32
100
AcDbDictionary
280
     1
281
     1
  3
ACAD_XREC_ROUNDTRIP
360
175
  0
DICTIONARY
  5
178
330
34
100
AcDbDictionary
280
     1
281
     1
  3
ACAD_XREC_ROUNDTRIP
360
179
  0
DICTIONARY
  5
192
330
41
100
AcDbDictionary
280
     1
281
     1
  3
ACAD_XREC_ROUNDTRIP
360
193
  0
DICTIONARY
  5
180
330
38
100
AcDbDictionary
280
     1
281
     1
  3
ACAD_XREC_ROUNDTRIP
360
181
  0
DICTIONARY
  5
164
330
2A
100
AcDbDictionary
280
     1
281
     1
  3
ACAD_XREC_ROUNDTRIP
360
165
  0
DICTIONARY
  5
166
330
2B
100
AcDbDictionary
280
     1
281
     1
  3
ACAD_XREC_ROUNDTRIP
360
167
  0
DICTIONARY
  5
168
330
2C
100
AcDbDictionary
280
     1
281
     1
  3
ACAD_XREC_ROUNDTRIP
360
169
  0
DICTIONARY
  5
16A
330
2D
100
AcDbDictionary
280
     1
281
     1
  3
ACAD_XREC_ROUNDTRIP
360
16B
  0
DICTIONARY
  5
172
330
31
100
AcDbDictionary
280
     1
281
     1
  3
ACAD_XREC_ROUNDTRIP
360
173
  0
DICTIONARY
  5
18E
330
3F
100
AcDbDictionary
280
     1
281
     1
  3
ACAD_XREC_ROUNDTRIP
360
18F
  0
DICTIONARY
  5
17E
330
37
100
AcDbDictionary
280
     1
281
     1
  3
ACAD_XREC_ROUNDTRIP
360
17F
  0
DICTIONARY
  5
190
330
40
100
AcDbDictionary
280
     1
281
     1
  3
ACAD_XREC_ROUNDTRIP
360
191
  0
DICTIONARY
  5
176
330
33
100
AcDbDictionary
280
     1
281
     1
  3
ACAD_XREC_ROUNDTRIP
360
177
  0
DICTIONARY
  5
18C
330
3E
100
AcDbDictionary
280
     1
281
     1
  3
ACAD_XREC_ROUNDTRIP
360
18D
  0
DICTIONARY
  5
18A
330
3D
100
AcDbDictionary
280
     1
281
     1
  3
ACAD_XREC_ROUNDTRIP
360
18B
  0
DICTIONARY
  5
184
330
3A
100
AcDbDictionary
280
     1
281
     1
  3
ACAD_XREC_ROUNDTRIP
360
185
  0
DICTIONARY
  5
186
330
3B
100
AcDbDictionary
280
     1
281
     1
  3
ACAD_XREC_ROUNDTRIP
360
187
  0
DICTIONARY
  5
17C
330
36
100
AcDbDictionary
280
     1
281
     1
  3
ACAD_XREC_ROUNDTRIP
360
17D
  0
DICTIONARY
  5
170
330
30
100
AcDbDictionary
280
     1
281
     1
  3
ACAD_XREC_ROUNDTRIP
360
171
  0
DICTIONARY
  5
188
330
3C
100
AcDbDictionary
280
     1
281
     1
  3
ACAD_XREC_ROUNDTRIP
360
189
  0
XRECORD
  5
199
102
{ACAD_REACTORS
330
198
102
}
330
198
100
AcDbXrecord
280
     1
102
DISPLAYNAME
  1
Imperial24
102
FLAGS
 90
        0
  0
XRECORD
  5
1C
102
{ACAD_REACTORS
330
1A
102
}
330
1A
100
AcDbXrecord
280
     1
270
     1
271
     1
  0
XRECORD
  5
1B
102
{ACAD_REACTORS
330
1A
102
}
330
1A
100
AcDbXrecord
280
     1
270
     1
271
     1
  0
XRECORD
  5
1F
102
{ACAD_REACTORS
330
1A
102
}
330
1A
100
AcDbXrecord
280
     1
270
     1
271
     1
  0
XRECORD
  5
1E
102
{ACAD_REACTORS
330
1A
102
}
330
1A
100
AcDbXrecord
280
     1
270
     1
271
     1
  0
XRECORD
  5
20
102
{ACAD_REACTORS
330
1A
102
}
330
1A
100
AcDbXrecord
280
     1
270
     1
271
     1
  0
XRECORD
  5
1D
102
{ACAD_REACTORS
330
1A
102
}
330
1A
100
AcDbXrecord
280
     1
270
     1
271
     1
  0
XRECORD
  5
14
102
{ACAD_REACTORS
330
12
102
}
330
12
100
AcDbXrecord
280
     1
270
     1
271
     1
  0
XRECORD
  5
13
102
{ACAD_REACTORS
330
12
102
}
330
12
100
AcDbXrecord
280
     1
270
     1
271
     1
  0
XRECORD
  5
17
102
{ACAD_REACTORS
330
12
102
}
330
12
100
AcDbXrecord
280
     1
270
     1
271
     1
  0
XRECORD
  5
16
102
{ACAD_REACTORS
330
12
102
}
330
12
100
AcDbXrecord
280
     1
270
     1
271
     1
  0
XRECORD
  5
18
102
{ACAD_REACTORS
330
12
102
}
330
12
100
AcDbXrecord
280
     1
270
     1
271
     1
  0
XRECORD
  5
15
102
{ACAD_REACTORS
330
12
102
}
330
12
100
AcDbXrecord
280
     1
270
     1
271
     1
  0
XRECORD
  5
24
102
{ACAD_REACTORS
330
22
102
}
330
22
100
AcDbXrecord
280
     1
270
     1
271
     1
  0
XRECORD
  5
23
102
{ACAD_REACTORS
330
22
102
}
330
22
100
AcDbXrecord
280
     1
270
     1
271
     1
  0
XRECORD
  5
27
102
{ACAD_REACTORS
330
22
102
}
330
22
100
AcDbXrecord
280
     1
270
     1
271
     1
  0
XRECORD
  5
26
102
{ACAD_REACTORS
330
22
102
}
330
22
100
AcDbXrecord
280
     1
270
     1
271
     1
  0
XRECORD
  5
28
102
{ACAD_REACTORS
330
22
102
}
330
22
100
AcDbXrecord
280
     1
270
     1
271
     1
  0
XRECORD
  5
25
102
{ACAD_REACTORS
330
22
102
}
330
22
100
AcDbXrecord
280
     1
270
     1
271
     1
  0
XRECORD
  5
195
102
{ACAD_REACTORS
330
194
102
}
330
194
100
AcDbXrecord
280
     1
102
ACAD_ROUNDTRIP_2012_MLEADER_STYLE
298
     1
  0
XRECORD
  5
197
102
{ACAD_REACTORS
330
196
102
}
330
196
100
AcDbXrecord
280
     1
102
DISPLAYNAME
  1
Imperial24
102
FLAGS
 90
        0
  0
CELLSTYLEMAP
  5
162
102
{ACAD_REACTORS
330
161
102
}
330
161
100
AcDbCellStyleMap
 90
        3
300
CELLSTYLE
  1
TABLEFORMAT_BEGIN
 90
        5
170
     1
 91
        0
 92
    32768
 62
   257
 93
        1
300
CONTENTFORMAT
  1
CONTENTFORMAT_BEGIN
 90
        0
 91
        0
 92
      512
 93
        0
300

 40
0.0
140
1.0
 94
        5
 62
     0
340
55
144
0.25
309
CONTENTFORMAT_END
171
     0
 94
        0
309
TABLEFORMAT_END
  1
CELLSTYLE_BEGIN
 90
        1
 91
        1
300
_TITLE
309
CELLSTYLE_END
300
CELLSTYLE
  1
TABLEFORMAT_BEGIN
 90
        5
170
     1
 91
        0
 92
        0
 62
   257
 93
        1
300
CONTENTFORMAT
  1
CONTENTFORMAT_BEGIN
 90
        0
 91
        0
 92
      512
 93
        0
300

 40
0.0
140
1.0
 94
        5
 62
     0
340
55
144
0.18
309
CONTENTFORMAT_END
171
     0
 94
        0
309
TABLEFORMAT_END
  1
CELLSTYLE_BEGIN
 90
        2
 91
        1
300
_HEADER
309
CELLSTYLE_END
300
CELLSTYLE
  1
TABLEFORMAT_BEGIN
 90
        5
170
     1
 91
        0
 92
        0
 62
   257
 93
        1
300
CONTENTFORMAT
  1
CONTENTFORMAT_BEGIN
 90
        0
 91
        0
 92
      512
 93
        0
300

 40
0.0
140
1.0
 94
        2
 62
     0
340
55
144
0.18
309
CONTENTFORMAT_END
171
     0
 94
        0
309
TABLEFORMAT_END
  1
CELLSTYLE_BEGIN
 90
        3
 91
        2
300
_DATA
309
CELLSTYLE_END
  0
XRECORD
  5
16F
102
{ACAD_REACTORS
330
16E
102
}
330
16E
100
AcDbXrecord
280
     1
102
RTVSPost2010Prop28
280
     1
102
RTVSPost2010PropOp28
 70
     1
102
RTVSPost2010Prop29
280
     1
102
RTVSPost2010PropOp29
 70
     1
102
RTVSPost2010Prop30
280
     0
102
RTVSPost2010PropOp30
 70
     1
102
RTVSPost2010Prop31
280
     0
102
RTVSPost2010PropOp31
 70
     1
102
RTVSPost2010Prop32
280
     0
102
RTVSPost2010PropOp32
 70
     1
102
RTVSPost2010Prop33
280
     0
102
RTVSPost2010PropOp33
 70
     1
102
RTVSPost2010Prop34
280
     0
102
RTVSPost2010PropOp34
 70
     1
102
RTVSPost2010Prop35
280
     0
102
RTVSPost2010PropOp35
 70
     1
102
RTVSPost2010Prop36
280
     0
102
RTVSPost2010PropOp36
 70
     1
102
RTVSPost2010Prop37
 90
       50
102
RTVSPost2010PropOp37
 70
     1
102
RTVSPost2010Prop38
140
0.0
102
RTVSPost2010PropOp38
 70
     1
102
RTVSPost2010Prop39
140
1.0
102
RTVSPost2010PropOp39
 70
     1
102
RTVSPost2010Prop40
 90
        0
102
RTVSPost2010PropOp40
 70
     1
102
RTVSPost2010Prop41ColorIndex
 90
       18
102
RTVSPost2010Prop41ColorRGB
 90
        0
102
RTVSPost2010PropOp41
 70
     1
102
RTVSPost2010Prop42
 90
       50
102
RTVSPost2010PropOp42
 70
     1
102
RTVSPost2010Prop43
 90
        3
102
RTVSPost2010PropOp43
 70
     1
102
RTVSPost2010Prop44ColorIndex
 90
        5
102
RTVSPost2010Prop44ColorRGB
 90
      255
102
RTVSPost2010PropOp44
 70
     1
102
RTVSPost2010Prop45
280
     0
102
RTVSPost2010PropOp45
 70
     1
102
RTVSPost2010Prop46
 90
       50
102
RTVSPost2010PropOp46
 70
     1
102
RTVSPost2010Prop47
 90
       50
102
RTVSPost2010PropOp47
 70
     1
102
RTVSPost2010Prop48
 90
       50
102
RTVSPost2010PropOp48
 70
     1
102
RTVSPost2010Prop49
280
     0
102
RTVSPost2010PropOp49
 70
     1
102
RTVSPost2010Prop50
 90
       50
102
RTVSPost2010PropOp50
 70
     1
102
RTVSPost2010Prop51ColorIndex
 90
      256
102
RTVSPost2010Prop51ColorRGB
 90
-16777216
102
RTVSPost2010PropOp51
 70
     0
102
RTVSPost2010Prop52
140
1.0
102
RTVSPost2010PropOp52
 70
     0
102
RTVSPost2010Prop53
 90
        2
102
RTVSPost2010PropOp53
 70
     1
102
RTVSPost2010Prop54
  1
strokes_ogs.tif
102
RTVSPost2010PropOp54
 70
     1
102
RTVSPost2010Prop55
280
     0
102
RTVSPost2010PropOp55
 70
     1
102
RTVSPost2010Prop56
140
1.0
102
RTVSPost2010PropOp56
 70
     1
102
RTVSPost2010Prop57
140
1.0
102
RTVSPost2010PropOp57
 70
     1
  0
XRECORD
  5
16D
102
{ACAD_REACTORS
330
16C
102
}
330
16C
100
AcDbXrecord
280
     1
102
RTVSPost2010Prop28
280
     0
102
RTVSPost2010PropOp28
 70
     1
102
RTVSPost2010Prop29
280
     1
102
RTVSPost2010PropOp29
 70
     1
102
RTVSPost2010Prop30
280
     1
102
RTVSPost2010PropOp30
 70
     1
102
RTVSPost2010Prop31
280
     0
102
RTVSPost2010PropOp31
 70
     1
102
RTVSPost2010Prop32
280
     0
102
RTVSPost2010PropOp32
 70
     1
102
RTVSPost2010Prop33
280
     0
102
RTVSPost2010PropOp33
 70
     1
102
RTVSPost2010Prop34
280
     0
102
RTVSPost2010PropOp34
 70
     1
102
RTVSPost2010Prop35
280
     0
102
RTVSPost2010PropOp35
 70
     1
102
RTVSPost2010Prop36
280
     0
102
RTVSPost2010PropOp36
 70
     1
102
RTVSPost2010Prop37
 90
       50
102
RTVSPost2010PropOp37
 70
     1
102
RTVSPost2010Prop38
140
0.0
102
RTVSPost2010PropOp38
 70
     1
102
RTVSPost2010Prop39
140
1.0
102
RTVSPost2010PropOp39
 70
     1
102
RTVSPost2010Prop40
 90
        0
102
RTVSPost2010PropOp40
 70
     1
102
RTVSPost2010Prop41ColorIndex
 90
       18
102
RTVSPost2010Prop41ColorRGB
 90
        0
102
RTVSPost2010PropOp41
 70
     1
102
RTVSPost2010Prop42
 90
       50
102
RTVSPost2010PropOp42
 70
     1
102
RTVSPost2010Prop43
 90
        3
102
RTVSPost2010PropOp43
 70
     1
102
RTVSPost2010Prop44ColorIndex
 90
        5
102
RTVSPost2010Prop44ColorRGB
 90
      255
102
RTVSPost2010PropOp44
 70
     1
102
RTVSPost2010Prop45
280
     0
102
RTVSPost2010PropOp45
 70
     1
102
RTVSPost2010Prop46
 90
       50
102
RTVSPost2010PropOp46
 70
     1
102
RTVSPost2010Prop47
 90
       50
102
RTVSPost2010PropOp47
 70
     1
102
RTVSPost2010Prop48
 90
       50
102
RTVSPost2010PropOp48
 70
     1
102
RTVSPost2010Prop49
280
     0
102
RTVSPost2010PropOp49
 70
     1
102
RTVSPost2010Prop50
 90
       50
102
RTVSPost2010PropOp50
 70
     1
102
RTVSPost2010Prop51ColorIndex
 90
      256
102
RTVSPost2010Prop51ColorRGB
 90
-16777216
102
RTVSPost2010PropOp51
 70
     0
102
RTVSPost2010Prop52
140
1.0
102
RTVSPost2010PropOp52
 70
     0
102
RTVSPost2010Prop53
 90
        2
102
RTVSPost2010PropOp53
 70
     1
102
RTVSPost2010Prop54
  1
strokes_ogs.tif
102
RTVSPost2010PropOp54
 70
     1
102
RTVSPost2010Prop55
280
     0
102
RTVSPost2010PropOp55
 70
     1
102
RTVSPost2010Prop56
140
1.0
102
RTVSPost2010PropOp56
 70
     1
102
RTVSPost2010Prop57
140
1.0
102
RTVSPost2010PropOp57
 70
     1
  0
XRECORD
  5
17B
102
{ACAD_REACTORS
330
17A
102
}
330
17A
100
AcDbXrecord
280
     1
102
RTVSPost2010Prop28
280
     0
102
RTVSPost2010PropOp28
 70
     1
102
RTVSPost2010Prop29
280
     1
102
RTVSPost2010PropOp29
 70
     1
102
RTVSPost2010Prop30
280
     1
102
RTVSPost2010PropOp30
 70
     1
102
RTVSPost2010Prop31
280
     0
102
RTVSPost2010PropOp31
 70
     1
102
RTVSPost2010Prop32
280
     0
102
RTVSPost2010PropOp32
 70
     1
102
RTVSPost2010Prop33
280
     0
102
RTVSPost2010PropOp33
 70
     1
102
RTVSPost2010Prop34
280
     0
102
RTVSPost2010PropOp34
 70
     1
102
RTVSPost2010Prop35
280
     0
102
RTVSPost2010PropOp35
 70
     1
102
RTVSPost2010Prop36
280
     0
102
RTVSPost2010PropOp36
 70
     1
102
RTVSPost2010Prop37
 90
       50
102
RTVSPost2010PropOp37
 70
     1
102
RTVSPost2010Prop38
140
0.0
102
RTVSPost2010PropOp38
 70
     1
102
RTVSPost2010Prop39
140
1.0
102
RTVSPost2010PropOp39
 70
     1
102
RTVSPost2010Prop40
 90
        0
102
RTVSPost2010PropOp40
 70
     1
102
RTVSPost2010Prop41ColorIndex
 90
       18
102
RTVSPost2010Prop41ColorRGB
 90
        0
102
RTVSPost2010PropOp41
 70
     1
102
RTVSPost2010Prop42
 90
       50
102
RTVSPost2010PropOp42
 70
     1
102
RTVSPost2010Prop43
 90
        3
102
RTVSPost2010PropOp43
 70
     1
102
RTVSPost2010Prop44ColorIndex
 90
        5
102
RTVSPost2010Prop44ColorRGB
 90
      255
102
RTVSPost2010PropOp44
 70
     1
102
RTVSPost2010Prop45
280
     0
102
RTVSPost2010PropOp45
 70
     1
102
RTVSPost2010Prop46
 90
       50
102
RTVSPost2010PropOp46
 70
     1
102
RTVSPost2010Prop47
 90
       50
102
RTVSPost2010PropOp47
 70
     1
102
RTVSPost2010Prop48
 90
       50
102
RTVSPost2010PropOp48
 70
     1
102
RTVSPost2010Prop49
280
     0
102
RTVSPost2010PropOp49
 70
     1
102
RTVSPost2010Prop50
 90
       50
102
RTVSPost2010PropOp50
 70
     1
102
RTVSPost2010Prop51ColorIndex
 90
      256
102
RTVSPost2010Prop51ColorRGB
 90
-16777216
102
RTVSPost2010PropOp51
 70
     0
102
RTVSPost2010Prop52
140
1.0
102
RTVSPost2010PropOp52
 70
     0
102
RTVSPost2010Prop53
 90
        2
102
RTVSPost2010PropOp53
 70
     1
102
RTVSPost2010Prop54
  1
strokes_ogs.tif
102
RTVSPost2010PropOp54
 70
     1
102
RTVSPost2010Prop55
280
     0
102
RTVSPost2010PropOp55
 70
     1
102
RTVSPost2010Prop56
140
1.0
102
RTVSPost2010PropOp56
 70
     1
102
RTVSPost2010Prop57
140
1.0
102
RTVSPost2010PropOp57
 70
     1
  0
XRECORD
  5
183
102
{ACAD_REACTORS
330
182
102
}
330
182
100
AcDbXrecord
280
     1
102
RTVSPost2010Prop28
280
     0
102
RTVSPost2010PropOp28
 70
     1
102
RTVSPost2010Prop29
280
     1
102
RTVSPost2010PropOp29
 70
     1
102
RTVSPost2010Prop30
280
     1
102
RTVSPost2010PropOp30
 70
     1
102
RTVSPost2010Prop31
280
     0
102
RTVSPost2010PropOp31
 70
     1
102
RTVSPost2010Prop32
280
     0
102
RTVSPost2010PropOp32
 70
     1
102
RTVSPost2010Prop33
280
     0
102
RTVSPost2010PropOp33
 70
     1
102
RTVSPost2010Prop34
280
     0
102
RTVSPost2010PropOp34
 70
     1
102
RTVSPost2010Prop35
280
     0
102
RTVSPost2010PropOp35
 70
     1
102
RTVSPost2010Prop36
280
     0
102
RTVSPost2010PropOp36
 70
     1
102
RTVSPost2010Prop37
 90
       50
102
RTVSPost2010PropOp37
 70
     1
102
RTVSPost2010Prop38
140
0.0
102
RTVSPost2010PropOp38
 70
     1
102
RTVSPost2010Prop39
140
1.0
102
RTVSPost2010PropOp39
 70
     1
102
RTVSPost2010Prop40
 90
        0
102
RTVSPost2010PropOp40
 70
     1
102
RTVSPost2010Prop41ColorIndex
 90
       18
102
RTVSPost2010Prop41ColorRGB
 90
        0
102
RTVSPost2010PropOp41
 70
     1
102
RTVSPost2010Prop42
 90
       50
102
RTVSPost2010PropOp42
 70
     1
102
RTVSPost2010Prop43
 90
        3
102
RTVSPost2010PropOp43
 70
     1
102
RTVSPost2010Prop44ColorIndex
 90
        5
102
RTVSPost2010Prop44ColorRGB
 90
      255
102
RTVSPost2010PropOp44
 70
     1
102
RTVSPost2010Prop45
280
     0
102
RTVSPost2010PropOp45
 70
     1
102
RTVSPost2010Prop46
 90
       50
102
RTVSPost2010PropOp46
 70
     1
102
RTVSPost2010Prop47
 90
       50
102
RTVSPost2010PropOp47
 70
     1
102
RTVSPost2010Prop48
 90
       50
102
RTVSPost2010PropOp48
 70
     1
102
RTVSPost2010Prop49
280
     0
102
RTVSPost2010PropOp49
 70
     1
102
RTVSPost2010Prop50
 90
       50
102
RTVSPost2010PropOp50
 70
     1
102
RTVSPost2010Prop51ColorIndex
 90
      256
102
RTVSPost2010Prop51ColorRGB
 90
-16777216
102
RTVSPost2010PropOp51
 70
     0
102
RTVSPost2010Prop52
140
1.0
102
RTVSPost2010PropOp52
 70
     0
102
RTVSPost2010Prop53
 90
        2
102
RTVSPost2010PropOp53
 70
     1
102
RTVSPost2010Prop54
  1
strokes_ogs.tif
102
RTVSPost2010PropOp54
 70
     1
102
RTVSPost2010Prop55
280
     0
102
RTVSPost2010PropOp55
 70
     1
102
RTVSPost2010Prop56
140
1.0
102
RTVSPost2010PropOp56
 70
     1
102
RTVSPost2010Prop57
140
1.0
102
RTVSPost2010PropOp57
 70
     1
  0
XRECORD
  5
175
102
{ACAD_REACTORS
330
174
102
}
330
174
100
AcDbXrecord
280
     1
102
RTVSPost2010Prop28
280
     0
102
RTVSPost2010PropOp28
 70
     1
102
RTVSPost2010Prop29
280
     1
102
RTVSPost2010PropOp29
 70
     1
102
RTVSPost2010Prop30
280
     1
102
RTVSPost2010PropOp30
 70
     1
102
RTVSPost2010Prop31
280
     0
102
RTVSPost2010PropOp31
 70
     1
102
RTVSPost2010Prop32
280
     0
102
RTVSPost2010PropOp32
 70
     1
102
RTVSPost2010Prop33
280
     0
102
RTVSPost2010PropOp33
 70
     1
102
RTVSPost2010Prop34
280
     0
102
RTVSPost2010PropOp34
 70
     1
102
RTVSPost2010Prop35
280
     0
102
RTVSPost2010PropOp35
 70
     1
102
RTVSPost2010Prop36
280
     0
102
RTVSPost2010PropOp36
 70
     1
102
RTVSPost2010Prop37
 90
       50
102
RTVSPost2010PropOp37
 70
     1
102
RTVSPost2010Prop38
140
0.0
102
RTVSPost2010PropOp38
 70
     1
102
RTVSPost2010Prop39
140
1.0
102
RTVSPost2010PropOp39
 70
     1
102
RTVSPost2010Prop40
 90
        0
102
RTVSPost2010PropOp40
 70
     1
102
RTVSPost2010Prop41ColorIndex
 90
       18
102
RTVSPost2010Prop41ColorRGB
 90
        0
102
RTVSPost2010PropOp41
 70
     1
102
RTVSPost2010Prop42
 90
       50
102
RTVSPost2010PropOp42
 70
     1
102
RTVSPost2010Prop43
 90
        3
102
RTVSPost2010PropOp43
 70
     1
102
RTVSPost2010Prop44ColorIndex
 90
        5
102
RTVSPost2010Prop44ColorRGB
 90
      255
102
RTVSPost2010PropOp44
 70
     1
102
RTVSPost2010Prop45
280
     0
102
RTVSPost2010PropOp45
 70
     1
102
RTVSPost2010Prop46
 90
       50
102
RTVSPost2010PropOp46
 70
     1
102
RTVSPost2010Prop47
 90
       50
102
RTVSPost2010PropOp47
 70
     1
102
RTVSPost2010Prop48
 90
       50
102
RTVSPost2010PropOp48
 70
     1
102
RTVSPost2010Prop49
280
     0
102
RTVSPost2010PropOp49
 70
     1
102
RTVSPost2010Prop50
 90
       50
102
RTVSPost2010PropOp50
 70
     1
102
RTVSPost2010Prop51ColorIndex
 90
      256
102
RTVSPost2010Prop51ColorRGB
 90
-16777216
102
RTVSPost2010PropOp51
 70
     0
102
RTVSPost2010Prop52
140
1.0
102
RTVSPost2010PropOp52
 70
     0
102
RTVSPost2010Prop53
 90
        2
102
RTVSPost2010PropOp53
 70
     1
102
RTVSPost2010Prop54
  1
strokes_ogs.tif
102
RTVSPost2010PropOp54
 70
     1
102
RTVSPost2010Prop55
280
     0
102
RTVSPost2010PropOp55
 70
     1
102
RTVSPost2010Prop56
140
1.0
102
RTVSPost2010PropOp56
 70
     1
102
RTVSPost2010Prop57
140
1.0
102
RTVSPost2010PropOp57
 70
     1
  0
XRECORD
  5
179
102
{ACAD_REACTORS
330
178
102
}
330
178
100
AcDbXrecord
280
     1
102
RTVSPost2010Prop28
280
     0
102
RTVSPost2010PropOp28
 70
     1
102
RTVSPost2010Prop29
280
     1
102
RTVSPost2010PropOp29
 70
     1
102
RTVSPost2010Prop30
280
     1
102
RTVSPost2010PropOp30
 70
     1
102
RTVSPost2010Prop31
280
     0
102
RTVSPost2010PropOp31
 70
     1
102
RTVSPost2010Prop32
280
     0
102
RTVSPost2010PropOp32
 70
     1
102
RTVSPost2010Prop33
280
     0
102
RTVSPost2010PropOp33
 70
     1
102
RTVSPost2010Prop34
280
     0
102
RTVSPost2010PropOp34
 70
     1
102
RTVSPost2010Prop35
280
     0
102
RTVSPost2010PropOp35
 70
     1
102
RTVSPost2010Prop36
280
     0
102
RTVSPost2010PropOp36
 70
     1
102
RTVSPost2010Prop37
 90
       50
102
RTVSPost2010PropOp37
 70
     1
102
RTVSPost2010Prop38
140
0.0
102
RTVSPost2010PropOp38
 70
     1
102
RTVSPost2010Prop39
140
1.0
102
RTVSPost2010PropOp39
 70
     1
102
RTVSPost2010Prop40
 90
        0
102
RTVSPost2010PropOp40
 70
     1
102
RTVSPost2010Prop41ColorIndex
 90
       18
102
RTVSPost2010Prop41ColorRGB
 90
        0
102
RTVSPost2010PropOp41
 70
     1
102
RTVSPost2010Prop42
 90
       50
102
RTVSPost2010PropOp42
 70
     1
102
RTVSPost2010Prop43
 90
        3
102
RTVSPost2010PropOp43
 70
     1
102
RTVSPost2010Prop44ColorIndex
 90
        5
102
RTVSPost2010Prop44ColorRGB
 90
      255
102
RTVSPost2010PropOp44
 70
     1
102
RTVSPost2010Prop45
280
     0
102
RTVSPost2010PropOp45
 70
     1
102
RTVSPost2010Prop46
 90
       50
102
RTVSPost2010PropOp46
 70
     1
102
RTVSPost2010Prop47
 90
       50
102
RTVSPost2010PropOp47
 70
     1
102
RTVSPost2010Prop48
 90
       50
102
RTVSPost2010PropOp48
 70
     1
102
RTVSPost2010Prop49
280
     0
102
RTVSPost2010PropOp49
 70
     1
102
RTVSPost2010Prop50
 90
       50
102
RTVSPost2010PropOp50
 70
     1
102
RTVSPost2010Prop51ColorIndex
 90
      256
102
RTVSPost2010Prop51ColorRGB
 90
-16777216
102
RTVSPost2010PropOp51
 70
     0
102
RTVSPost2010Prop52
140
1.0
102
RTVSPost2010PropOp52
 70
     0
102
RTVSPost2010Prop53
 90
        2
102
RTVSPost2010PropOp53
 70
     1
102
RTVSPost2010Prop54
  1
strokes_ogs.tif
102
RTVSPost2010PropOp54
 70
     1
102
RTVSPost2010Prop55
280
     0
102
RTVSPost2010PropOp55
 70
     1
102
RTVSPost2010Prop56
140
1.0
102
RTVSPost2010PropOp56
 70
     1
102
RTVSPost2010Prop57
140
1.0
102
RTVSPost2010PropOp57
 70
     1
  0
XRECORD
  5
193
102
{ACAD_REACTORS
330
192
102
}
330
192
100
AcDbXrecord
280
     1
102
RTVSPost2010Prop28
280
     0
102
RTVSPost2010PropOp28
 70
     0
102
RTVSPost2010Prop29
280
     1
102
RTVSPost2010PropOp29
 70
     0
102
RTVSPost2010Prop30
280
     1
102
RTVSPost2010PropOp30
 70
     0
102
RTVSPost2010Prop31
280
     0
102
RTVSPost2010PropOp31
 70
     0
102
RTVSPost2010Prop32
280
     0
102
RTVSPost2010PropOp32
 70
     0
102
RTVSPost2010Prop33
280
     0
102
RTVSPost2010PropOp33
 70
     0
102
RTVSPost2010Prop34
280
     0
102
RTVSPost2010PropOp34
 70
     0
102
RTVSPost2010Prop35
280
     0
102
RTVSPost2010PropOp35
 70
     0
102
RTVSPost2010Prop36
280
     0
102
RTVSPost2010PropOp36
 70
     0
102
RTVSPost2010Prop37
 90
       50
102
RTVSPost2010PropOp37
 70
     0
102
RTVSPost2010Prop38
140
0.0
102
RTVSPost2010PropOp38
 70
     0
102
RTVSPost2010Prop39
140
1.0
102
RTVSPost2010PropOp39
 70
     0
102
RTVSPost2010Prop40
 90
        0
102
RTVSPost2010PropOp40
 70
     0
102
RTVSPost2010Prop41ColorIndex
 90
       18
102
RTVSPost2010Prop41ColorRGB
 90
        0
102
RTVSPost2010PropOp41
 70
     0
102
RTVSPost2010Prop42
 90
       50
102
RTVSPost2010PropOp42
 70
     0
102
RTVSPost2010Prop43
 90
        3
102
RTVSPost2010PropOp43
 70
     0
102
RTVSPost2010Prop44ColorIndex
 90
        5
102
RTVSPost2010Prop44ColorRGB
 90
      255
102
RTVSPost2010PropOp44
 70
     0
102
RTVSPost2010Prop45
280
     0
102
RTVSPost2010PropOp45
 70
     0
102
RTVSPost2010Prop46
 90
       50
102
RTVSPost2010PropOp46
 70
     0
102
RTVSPost2010Prop47
 90
       50
102
RTVSPost2010PropOp47
 70
     0
102
RTVSPost2010Prop48
 90
       50
102
RTVSPost2010PropOp48
 70
     0
102
RTVSPost2010Prop49
280
     0
102
RTVSPost2010PropOp49
 70
     0
102
RTVSPost2010Prop50
 90
       50
102
RTVSPost2010PropOp50
 70
     0
102
RTVSPost2010Prop51ColorIndex
 90
      256
102
RTVSPost2010Prop51ColorRGB
 90
-16777216
102
RTVSPost2010PropOp51
 70
     0
102
RTVSPost2010Prop52
140
1.0
102
RTVSPost2010PropOp52
 70
     0
102
RTVSPost2010Prop53
 90
        2
102
RTVSPost2010PropOp53
 70
     0
102
RTVSPost2010Prop54
  1
strokes_ogs.tif
102
RTVSPost2010PropOp54
 70
     0
102
RTVSPost2010Prop55
280
     0
102
RTVSPost2010PropOp55
 70
     0
102
RTVSPost2010Prop56
140
1.0
102
RTVSPost2010PropOp56
 70
     0
102
RTVSPost2010Prop57
140
1.0
102
RTVSPost2010PropOp57
 70
     0
  0
XRECORD
  5
181
102
{ACAD_REACTORS
330
180
102
}
330
180
100
AcDbXrecord
280
     1
102
RTVSPost2010Prop28
280
     0
102
RTVSPost2010PropOp28
 70
     1
102
RTVSPost2010Prop29
280
     1
102
RTVSPost2010PropOp29
 70
     1
102
RTVSPost2010Prop30
280
     1
102
RTVSPost2010PropOp30
 70
     1
102
RTVSPost2010Prop31
280
     0
102
RTVSPost2010PropOp31
 70
     1
102
RTVSPost2010Prop32
280
     0
102
RTVSPost2010PropOp32
 70
     1
102
RTVSPost2010Prop33
280
     0
102
RTVSPost2010PropOp33
 70
     1
102
RTVSPost2010Prop34
280
     0
102
RTVSPost2010PropOp34
 70
     1
102
RTVSPost2010Prop35
280
     0
102
RTVSPost2010PropOp35
 70
     1
102
RTVSPost2010Prop36
280
     0
102
RTVSPost2010PropOp36
 70
     1
102
RTVSPost2010Prop37
 90
       50
102
RTVSPost2010PropOp37
 70
     1
102
RTVSPost2010Prop38
140
0.0
102
RTVSPost2010PropOp38
 70
     1
102
RTVSPost2010Prop39
140
1.0
102
RTVSPost2010PropOp39
 70
     1
102
RTVSPost2010Prop40
 90
        0
102
RTVSPost2010PropOp40
 70
     1
102
RTVSPost2010Prop41ColorIndex
 90
       18
102
RTVSPost2010Prop41ColorRGB
 90
        0
102
RTVSPost2010PropOp41
 70
     1
102
RTVSPost2010Prop42
 90
       50
102
RTVSPost2010PropOp42
 70
     1
102
RTVSPost2010Prop43
 90
        3
102
RTVSPost2010PropOp43
 70
     1
102
RTVSPost2010Prop44ColorIndex
 90
        5
102
RTVSPost2010Prop44ColorRGB
 90
      255
102
RTVSPost2010PropOp44
 70
     1
102
RTVSPost2010Prop45
280
     0
102
RTVSPost2010PropOp45
 70
     1
102
RTVSPost2010Prop46
 90
       50
102
RTVSPost2010PropOp46
 70
     1
102
RTVSPost2010Prop47
 90
       50
102
RTVSPost2010PropOp47
 70
     1
102
RTVSPost2010Prop48
 90
       50
102
RTVSPost2010PropOp48
 70
     1
102
RTVSPost2010Prop49
280
     0
102
RTVSPost2010PropOp49
 70
     1
102
RTVSPost2010Prop50
 90
       50
102
RTVSPost2010PropOp50
 70
     1
102
RTVSPost2010Prop51ColorIndex
 90
      256
102
RTVSPost2010Prop51ColorRGB
 90
-16777216
102
RTVSPost2010PropOp51
 70
     0
102
RTVSPost2010Prop52
140
1.0
102
RTVSPost2010PropOp52
 70
     0
102
RTVSPost2010Prop53
 90
        2
102
RTVSPost2010PropOp53
 70
     1
102
RTVSPost2010Prop54
  1
strokes_ogs.tif
102
RTVSPost2010PropOp54
 70
     1
102
RTVSPost2010Prop55
280
     0
102
RTVSPost2010PropOp55
 70
     1
102
RTVSPost2010Prop56
140
1.0
102
RTVSPost2010PropOp56
 70
     1
102
RTVSPost2010Prop57
140
1.0
102
RTVSPost2010PropOp57
 70
     1
  0
XRECORD
  5
165
102
{ACAD_REACTORS
330
164
102
}
330
164
100
AcDbXrecord
280
     1
102
RTVSPost2010Prop28
280
     0
102
RTVSPost2010PropOp28
 70
     1
102
RTVSPost2010Prop29
280
     1
102
RTVSPost2010PropOp29
 70
     1
102
RTVSPost2010Prop30
280
     1
102
RTVSPost2010PropOp30
 70
     1
102
RTVSPost2010Prop31
280
     0
102
RTVSPost2010PropOp31
 70
     1
102
RTVSPost2010Prop32
280
     0
102
RTVSPost2010PropOp32
 70
     1
102
RTVSPost2010Prop33
280
     0
102
RTVSPost2010PropOp33
 70
     1
102
RTVSPost2010Prop34
280
     0
102
RTVSPost2010PropOp34
 70
     1
102
RTVSPost2010Prop35
280
     0
102
RTVSPost2010PropOp35
 70
     1
102
RTVSPost2010Prop36
280
     0
102
RTVSPost2010PropOp36
 70
     1
102
RTVSPost2010Prop37
 90
       50
102
RTVSPost2010PropOp37
 70
     1
102
RTVSPost2010Prop38
140
0.0
102
RTVSPost2010PropOp38
 70
     1
102
RTVSPost2010Prop39
140
1.0
102
RTVSPost2010PropOp39
 70
     1
102
RTVSPost2010Prop40
 90
        0
102
RTVSPost2010PropOp40
 70
     1
102
RTVSPost2010Prop41ColorIndex
 90
       18
102
RTVSPost2010Prop41ColorRGB
 90
        0
102
RTVSPost2010PropOp41
 70
     1
102
RTVSPost2010Prop42
 90
       50
102
RTVSPost2010PropOp42
 70
     1
102
RTVSPost2010Prop43
 90
        3
102
RTVSPost2010PropOp43
 70
     1
102
RTVSPost2010Prop44ColorIndex
 90
        5
102
RTVSPost2010Prop44ColorRGB
 90
      255
102
RTVSPost2010PropOp44
 70
     1
102
RTVSPost2010Prop45
280
     0
102
RTVSPost2010PropOp45
 70
     1
102
RTVSPost2010Prop46
 90
       50
102
RTVSPost2010PropOp46
 70
     1
102
RTVSPost2010Prop47
 90
       50
102
RTVSPost2010PropOp47
 70
     1
102
RTVSPost2010Prop48
 90
       50
102
RTVSPost2010PropOp48
 70
     1
102
RTVSPost2010Prop49
280
     0
102
RTVSPost2010PropOp49
 70
     1
102
RTVSPost2010Prop50
 90
       50
102
RTVSPost2010PropOp50
 70
     1
102
RTVSPost2010Prop51ColorIndex
 90
      256
102
RTVSPost2010Prop51ColorRGB
 90
-16777216
102
RTVSPost2010PropOp51
 70
     0
102
RTVSPost2010Prop52
140
1.0
102
RTVSPost2010PropOp52
 70
     0
102
RTVSPost2010Prop53
 90
        2
102
RTVSPost2010PropOp53
 70
     1
102
RTVSPost2010Prop54
  1
strokes_ogs.tif
102
RTVSPost2010PropOp54
 70
     1
102
RTVSPost2010Prop55
280
     0
102
RTVSPost2010PropOp55
 70
     1
102
RTVSPost2010Prop56
140
1.0
102
RTVSPost2010PropOp56
 70
     1
102
RTVSPost2010Prop57
140
1.0
102
RTVSPost2010PropOp57
 70
     1
  0
XRECORD
  5
167
102
{ACAD_REACTORS
330
166
102
}
330
166
100
AcDbXrecord
280
     1
102
RTVSPost2010Prop28
280
     0
102
RTVSPost2010PropOp28
 70
     1
102
RTVSPost2010Prop29
280
     1
102
RTVSPost2010PropOp29
 70
     1
102
RTVSPost2010Prop30
280
     1
102
RTVSPost2010PropOp30
 70
     1
102
RTVSPost2010Prop31
280
     0
102
RTVSPost2010PropOp31
 70
     1
102
RTVSPost2010Prop32
280
     0
102
RTVSPost2010PropOp32
 70
     1
102
RTVSPost2010Prop33
280
     0
102
RTVSPost2010PropOp33
 70
     1
102
RTVSPost2010Prop34
280
     0
102
RTVSPost2010PropOp34
 70
     1
102
RTVSPost2010Prop35
280
     0
102
RTVSPost2010PropOp35
 70
     1
102
RTVSPost2010Prop36
280
     0
102
RTVSPost2010PropOp36
 70
     1
102
RTVSPost2010Prop37
 90
       50
102
RTVSPost2010PropOp37
 70
     1
102
RTVSPost2010Prop38
140
0.0
102
RTVSPost2010PropOp38
 70
     1
102
RTVSPost2010Prop39
140
1.0
102
RTVSPost2010PropOp39
 70
     1
102
RTVSPost2010Prop40
 90
        0
102
RTVSPost2010PropOp40
 70
     1
102
RTVSPost2010Prop41ColorIndex
 90
       18
102
RTVSPost2010Prop41ColorRGB
 90
        0
102
RTVSPost2010PropOp41
 70
     1
102
RTVSPost2010Prop42
 90
       50
102
RTVSPost2010PropOp42
 70
     1
102
RTVSPost2010Prop43
 90
        3
102
RTVSPost2010PropOp43
 70
     1
102
RTVSPost2010Prop44ColorIndex
 90
        5
102
RTVSPost2010Prop44ColorRGB
 90
      255
102
RTVSPost2010PropOp44
 70
     1
102
RTVSPost2010Prop45
280
     0
102
RTVSPost2010PropOp45
 70
     1
102
RTVSPost2010Prop46
 90
       50
102
RTVSPost2010PropOp46
 70
     1
102
RTVSPost2010Prop47
 90
       50
102
RTVSPost2010PropOp47
 70
     1
102
RTVSPost2010Prop48
 90
       50
102
RTVSPost2010PropOp48
 70
     1
102
RTVSPost2010Prop49
280
     0
102
RTVSPost2010PropOp49
 70
     1
102
RTVSPost2010Prop50
 90
       50
102
RTVSPost2010PropOp50
 70
     1
102
RTVSPost2010Prop51ColorIndex
 90
      256
102
RTVSPost2010Prop51ColorRGB
 90
-16777216
102
RTVSPost2010PropOp51
 70
     0
102
RTVSPost2010Prop52
140
1.0
102
RTVSPost2010PropOp52
 70
     0
102
RTVSPost2010Prop53
 90
        2
102
RTVSPost2010PropOp53
 70
     1
102
RTVSPost2010Prop54
  1
strokes_ogs.tif
102
RTVSPost2010PropOp54
 70
     1
102
RTVSPost2010Prop55
280
     0
102
RTVSPost2010PropOp55
 70
     1
102
RTVSPost2010Prop56
140
1.0
102
RTVSPost2010PropOp56
 70
     1
102
RTVSPost2010Prop57
140
1.0
102
RTVSPost2010PropOp57
 70
     1
  0
XRECORD
  5
169
102
{ACAD_REACTORS
330
168
102
}
330
168
100
AcDbXrecord
280
     1
102
RTVSPost2010Prop28
280
     0
102
RTVSPost2010PropOp28
 70
     1
102
RTVSPost2010Prop29
280
     1
102
RTVSPost2010PropOp29
 70
     1
102
RTVSPost2010Prop30
280
     1
102
RTVSPost2010PropOp30
 70
     1
102
RTVSPost2010Prop31
280
     0
102
RTVSPost2010PropOp31
 70
     1
102
RTVSPost2010Prop32
280
     0
102
RTVSPost2010PropOp32
 70
     1
102
RTVSPost2010Prop33
280
     0
102
RTVSPost2010PropOp33
 70
     1
102
RTVSPost2010Prop34
280
     0
102
RTVSPost2010PropOp34
 70
     1
102
RTVSPost2010Prop35
280
     0
102
RTVSPost2010PropOp35
 70
     1
102
RTVSPost2010Prop36
280
     0
102
RTVSPost2010PropOp36
 70
     1
102
RTVSPost2010Prop37
 90
       50
102
RTVSPost2010PropOp37
 70
     1
102
RTVSPost2010Prop38
140
0.0
102
RTVSPost2010PropOp38
 70
     1
102
RTVSPost2010Prop39
140
1.0
102
RTVSPost2010PropOp39
 70
     1
102
RTVSPost2010Prop40
 90
        0
102
RTVSPost2010PropOp40
 70
     1
102
RTVSPost2010Prop41ColorIndex
 90
       18
102
RTVSPost2010Prop41ColorRGB
 90
        0
102
RTVSPost2010PropOp41
 70
     1
102
RTVSPost2010Prop42
 90
       50
102
RTVSPost2010PropOp42
 70
     1
102
RTVSPost2010Prop43
 90
        3
102
RTVSPost2010PropOp43
 70
     1
102
RTVSPost2010Prop44ColorIndex
 90
        5
102
RTVSPost2010Prop44ColorRGB
 90
      255
102
RTVSPost2010PropOp44
 70
     1
102
RTVSPost2010Prop45
280
     0
102
RTVSPost2010PropOp45
 70
     1
102
RTVSPost2010Prop46
 90
       50
102
RTVSPost2010PropOp46
 70
     1
102
RTVSPost2010Prop47
 90
       50
102
RTVSPost2010PropOp47
 70
     1
102
RTVSPost2010Prop48
 90
       50
102
RTVSPost2010PropOp48
 70
     1
102
RTVSPost2010Prop49
280
     0
102
RTVSPost2010PropOp49
 70
     1
102
RTVSPost2010Prop50
 90
       50
102
RTVSPost2010PropOp50
 70
     1
102
RTVSPost2010Prop51ColorIndex
 90
      256
102
RTVSPost2010Prop51ColorRGB
 90
-16777216
102
RTVSPost2010PropOp51
 70
     0
102
RTVSPost2010Prop52
140
1.0
102
RTVSPost2010PropOp52
 70
     0
102
RTVSPost2010Prop53
 90
        2
102
RTVSPost2010PropOp53
 70
     1
102
RTVSPost2010Prop54
  1
strokes_ogs.tif
102
RTVSPost2010PropOp54
 70
     1
102
RTVSPost2010Prop55
280
     0
102
RTVSPost2010PropOp55
 70
     1
102
RTVSPost2010Prop56
140
1.0
102
RTVSPost2010PropOp56
 70
     1
102
RTVSPost2010Prop57
140
1.0
102
RTVSPost2010PropOp57
 70
     1
  0
XRECORD
  5
16B
102
{ACAD_REACTORS
330
16A
102
}
330
16A
100
AcDbXrecord
280
     1
102
RTVSPost2010Prop28
280
     0
102
RTVSPost2010PropOp28
 70
     1
102
RTVSPost2010Prop29
280
     1
102
RTVSPost2010PropOp29
 70
     1
102
RTVSPost2010Prop30
280
     1
102
RTVSPost2010PropOp30
 70
     1
102
RTVSPost2010Prop31
280
     0
102
RTVSPost2010PropOp31
 70
     1
102
RTVSPost2010Prop32
280
     0
102
RTVSPost2010PropOp32
 70
     1
102
RTVSPost2010Prop33
280
     0
102
RTVSPost2010PropOp33
 70
     1
102
RTVSPost2010Prop34
280
     0
102
RTVSPost2010PropOp34
 70
     1
102
RTVSPost2010Prop35
280
     0
102
RTVSPost2010PropOp35
 70
     1
102
RTVSPost2010Prop36
280
     0
102
RTVSPost2010PropOp36
 70
     1
102
RTVSPost2010Prop37
 90
       50
102
RTVSPost2010PropOp37
 70
     1
102
RTVSPost2010Prop38
140
0.0
102
RTVSPost2010PropOp38
 70
     1
102
RTVSPost2010Prop39
140
1.0
102
RTVSPost2010PropOp39
 70
     1
102
RTVSPost2010Prop40
 90
        0
102
RTVSPost2010PropOp40
 70
     1
102
RTVSPost2010Prop41ColorIndex
 90
       18
102
RTVSPost2010Prop41ColorRGB
 90
        0
102
RTVSPost2010PropOp41
 70
     1
102
RTVSPost2010Prop42
 90
       50
102
RTVSPost2010PropOp42
 70
     1
102
RTVSPost2010Prop43
 90
        3
102
RTVSPost2010PropOp43
 70
     1
102
RTVSPost2010Prop44ColorIndex
 90
        5
102
RTVSPost2010Prop44ColorRGB
 90
      255
102
RTVSPost2010PropOp44
 70
     1
102
RTVSPost2010Prop45
280
     0
102
RTVSPost2010PropOp45
 70
     1
102
RTVSPost2010Prop46
 90
       50
102
RTVSPost2010PropOp46
 70
     1
102
RTVSPost2010Prop47
 90
       50
102
RTVSPost2010PropOp47
 70
     1
102
RTVSPost2010Prop48
 90
       50
102
RTVSPost2010PropOp48
 70
     1
102
RTVSPost2010Prop49
280
     0
102
RTVSPost2010PropOp49
 70
     1
102
RTVSPost2010Prop50
 90
       50
102
RTVSPost2010PropOp50
 70
     1
102
RTVSPost2010Prop51ColorIndex
 90
      256
102
RTVSPost2010Prop51ColorRGB
 90
-16777216
102
RTVSPost2010PropOp51
 70
     0
102
RTVSPost2010Prop52
140
1.0
102
RTVSPost2010PropOp52
 70
     0
102
RTVSPost2010Prop53
 90
        2
102
RTVSPost2010PropOp53
 70
     1
102
RTVSPost2010Prop54
  1
strokes_ogs.tif
102
RTVSPost2010PropOp54
 70
     1
102
RTVSPost2010Prop55
280
     0
102
RTVSPost2010PropOp55
 70
     1
102
RTVSPost2010Prop56
140
1.0
102
RTVSPost2010PropOp56
 70
     1
102
RTVSPost2010Prop57
140
1.0
102
RTVSPost2010PropOp57
 70
     1
  0
XRECORD
  5
173
102
{ACAD_REACTORS
330
172
102
}
330
172
100
AcDbXrecord
280
     1
102
RTVSPost2010Prop28
280
     0
102
RTVSPost2010PropOp28
 70
     1
102
RTVSPost2010Prop29
280
     1
102
RTVSPost2010PropOp29
 70
     1
102
RTVSPost2010Prop30
280
     1
102
RTVSPost2010PropOp30
 70
     1
102
RTVSPost2010Prop31
280
     0
102
RTVSPost2010PropOp31
 70
     1
102
RTVSPost2010Prop32
280
     0
102
RTVSPost2010PropOp32
 70
     1
102
RTVSPost2010Prop33
280
     0
102
RTVSPost2010PropOp33
 70
     1
102
RTVSPost2010Prop34
280
     0
102
RTVSPost2010PropOp34
 70
     1
102
RTVSPost2010Prop35
280
     0
102
RTVSPost2010PropOp35
 70
     1
102
RTVSPost2010Prop36
280
     0
102
RTVSPost2010PropOp36
 70
     1
102
RTVSPost2010Prop37
 90
       50
102
RTVSPost2010PropOp37
 70
     1
102
RTVSPost2010Prop38
140
0.0
102
RTVSPost2010PropOp38
 70
     1
102
RTVSPost2010Prop39
140
1.0
102
RTVSPost2010PropOp39
 70
     1
102
RTVSPost2010Prop40
 90
        0
102
RTVSPost2010PropOp40
 70
     1
102
RTVSPost2010Prop41ColorIndex
 90
       18
102
RTVSPost2010Prop41ColorRGB
 90
        0
102
RTVSPost2010PropOp41
 70
     1
102
RTVSPost2010Prop42
 90
       50
102
RTVSPost2010PropOp42
 70
     1
102
RTVSPost2010Prop43
 90
        3
102
RTVSPost2010PropOp43
 70
     1
102
RTVSPost2010Prop44ColorIndex
 90
        5
102
RTVSPost2010Prop44ColorRGB
 90
      255
102
RTVSPost2010PropOp44
 70
     1
102
RTVSPost2010Prop45
280
     0
102
RTVSPost2010PropOp45
 70
     1
102
RTVSPost2010Prop46
 90
       50
102
RTVSPost2010PropOp46
 70
     1
102
RTVSPost2010Prop47
 90
       50
102
RTVSPost2010PropOp47
 70
     1
102
RTVSPost2010Prop48
 90
       50
102
RTVSPost2010PropOp48
 70
     1
102
RTVSPost2010Prop49
280
     0
102
RTVSPost2010PropOp49
 70
     1
102
RTVSPost2010Prop50
 90
       50
102
RTVSPost2010PropOp50
 70
     1
102
RTVSPost2010Prop51ColorIndex
 90
      256
102
RTVSPost2010Prop51ColorRGB
 90
-16777216
102
RTVSPost2010PropOp51
 70
     0
102
RTVSPost2010Prop52
140
1.0
102
RTVSPost2010PropOp52
 70
     0
102
RTVSPost2010Prop53
 90
        2
102
RTVSPost2010PropOp53
 70
     1
102
RTVSPost2010Prop54
  1
strokes_ogs.tif
102
RTVSPost2010PropOp54
 70
     1
102
RTVSPost2010Prop55
280
     0
102
RTVSPost2010PropOp55
 70
     1
102
RTVSPost2010Prop56
140
1.0
102
RTVSPost2010PropOp56
 70
     1
102
RTVSPost2010Prop57
140
1.0
102
RTVSPost2010PropOp57
 70
     1
  0
XRECORD
  5
18F
102
{ACAD_REACTORS
330
18E
102
}
330
18E
100
AcDbXrecord
280
     1
102
RTVSPost2010Prop28
280
     0
102
RTVSPost2010PropOp28
 70
     0
102
RTVSPost2010Prop29
280
     1
102
RTVSPost2010PropOp29
 70
     0
102
RTVSPost2010Prop30
280
     1
102
RTVSPost2010PropOp30
 70
     0
102
RTVSPost2010Prop31
280
     0
102
RTVSPost2010PropOp31
 70
     0
102
RTVSPost2010Prop32
280
     0
102
RTVSPost2010PropOp32
 70
     0
102
RTVSPost2010Prop33
280
     0
102
RTVSPost2010PropOp33
 70
     0
102
RTVSPost2010Prop34
280
     0
102
RTVSPost2010PropOp34
 70
     0
102
RTVSPost2010Prop35
280
     0
102
RTVSPost2010PropOp35
 70
     0
102
RTVSPost2010Prop36
280
     0
102
RTVSPost2010PropOp36
 70
     0
102
RTVSPost2010Prop37
 90
       50
102
RTVSPost2010PropOp37
 70
     0
102
RTVSPost2010Prop38
140
0.0
102
RTVSPost2010PropOp38
 70
     0
102
RTVSPost2010Prop39
140
1.0
102
RTVSPost2010PropOp39
 70
     0
102
RTVSPost2010Prop40
 90
        0
102
RTVSPost2010PropOp40
 70
     0
102
RTVSPost2010Prop41ColorIndex
 90
       18
102
RTVSPost2010Prop41ColorRGB
 90
        0
102
RTVSPost2010PropOp41
 70
     0
102
RTVSPost2010Prop42
 90
       50
102
RTVSPost2010PropOp42
 70
     0
102
RTVSPost2010Prop43
 90
        3
102
RTVSPost2010PropOp43
 70
     0
102
RTVSPost2010Prop44ColorIndex
 90
        5
102
RTVSPost2010Prop44ColorRGB
 90
      255
102
RTVSPost2010PropOp44
 70
     0
102
RTVSPost2010Prop45
280
     0
102
RTVSPost2010PropOp45
 70
     0
102
RTVSPost2010Prop46
 90
       50
102
RTVSPost2010PropOp46
 70
     0
102
RTVSPost2010Prop47
 90
       50
102
RTVSPost2010PropOp47
 70
     0
102
RTVSPost2010Prop48
 90
       50
102
RTVSPost2010PropOp48
 70
     0
102
RTVSPost2010Prop49
280
     0
102
RTVSPost2010PropOp49
 70
     0
102
RTVSPost2010Prop50
 90
       50
102
RTVSPost2010PropOp50
 70
     0
102
RTVSPost2010Prop51ColorIndex
 90
      256
102
RTVSPost2010Prop51ColorRGB
 90
-16777216
102
RTVSPost2010PropOp51
 70
     0
102
RTVSPost2010Prop52
140
1.0
102
RTVSPost2010PropOp52
 70
     0
102
RTVSPost2010Prop53
 90
        2
102
RTVSPost2010PropOp53
 70
     0
102
RTVSPost2010Prop54
  1
strokes_ogs.tif
102
RTVSPost2010PropOp54
 70
     0
102
RTVSPost2010Prop55
280
     0
102
RTVSPost2010PropOp55
 70
     0
102
RTVSPost2010Prop56
140
1.0
102
RTVSPost2010PropOp56
 70
     0
102
RTVSPost2010Prop57
140
1.0
102
RTVSPost2010PropOp57
 70
     0
  0
XRECORD
  5
17F
102
{ACAD_REACTORS
330
17E
102
}
330
17E
100
AcDbXrecord
280
     1
102
RTVSPost2010Prop28
280
     0
102
RTVSPost2010PropOp28
 70
     1
102
RTVSPost2010Prop29
280
     1
102
RTVSPost2010PropOp29
 70
     1
102
RTVSPost2010Prop30
280
     1
102
RTVSPost2010PropOp30
 70
     1
102
RTVSPost2010Prop31
280
     0
102
RTVSPost2010PropOp31
 70
     1
102
RTVSPost2010Prop32
280
     0
102
RTVSPost2010PropOp32
 70
     1
102
RTVSPost2010Prop33
280
     0
102
RTVSPost2010PropOp33
 70
     1
102
RTVSPost2010Prop34
280
     0
102
RTVSPost2010PropOp34
 70
     1
102
RTVSPost2010Prop35
280
     0
102
RTVSPost2010PropOp35
 70
     1
102
RTVSPost2010Prop36
280
     0
102
RTVSPost2010PropOp36
 70
     1
102
RTVSPost2010Prop37
 90
       50
102
RTVSPost2010PropOp37
 70
     1
102
RTVSPost2010Prop38
140
0.0
102
RTVSPost2010PropOp38
 70
     1
102
RTVSPost2010Prop39
140
1.0
102
RTVSPost2010PropOp39
 70
     1
102
RTVSPost2010Prop40
 90
        0
102
RTVSPost2010PropOp40
 70
     1
102
RTVSPost2010Prop41ColorIndex
 90
       18
102
RTVSPost2010Prop41ColorRGB
 90
        0
102
RTVSPost2010PropOp41
 70
     1
102
RTVSPost2010Prop42
 90
       50
102
RTVSPost2010PropOp42
 70
     1
102
RTVSPost2010Prop43
 90
        3
102
RTVSPost2010PropOp43
 70
     1
102
RTVSPost2010Prop44ColorIndex
 90
        5
102
RTVSPost2010Prop44ColorRGB
 90
      255
102
RTVSPost2010PropOp44
 70
     1
102
RTVSPost2010Prop45
280
     0
102
RTVSPost2010PropOp45
 70
     1
102
RTVSPost2010Prop46
 90
       50
102
RTVSPost2010PropOp46
 70
     1
102
RTVSPost2010Prop47
 90
       50
102
RTVSPost2010PropOp47
 70
     1
102
RTVSPost2010Prop48
 90
       50
102
RTVSPost2010PropOp48
 70
     1
102
RTVSPost2010Prop49
280
     0
102
RTVSPost2010PropOp49
 70
     1
102
RTVSPost2010Prop50
 90
       50
102
RTVSPost2010PropOp50
 70
     1
102
RTVSPost2010Prop51ColorIndex
 90
      256
102
RTVSPost2010Prop51ColorRGB
 90
-16777216
102
RTVSPost2010PropOp51
 70
     0
102
RTVSPost2010Prop52
140
1.0
102
RTVSPost2010PropOp52
 70
     0
102
RTVSPost2010Prop53
 90
        2
102
RTVSPost2010PropOp53
 70
     1
102
RTVSPost2010Prop54
  1
strokes_ogs.tif
102
RTVSPost2010PropOp54
 70
     1
102
RTVSPost2010Prop55
280
     0
102
RTVSPost2010PropOp55
 70
     1
102
RTVSPost2010Prop56
140
1.0
102
RTVSPost2010PropOp56
 70
     1
102
RTVSPost2010Prop57
140
1.0
102
RTVSPost2010PropOp57
 70
     1
  0
XRECORD
  5
191
102
{ACAD_REACTORS
330
190
102
}
330
190
100
AcDbXrecord
280
     1
102
RTVSPost2010Prop28
280
     0
102
RTVSPost2010PropOp28
 70
     0
102
RTVSPost2010Prop29
280
     1
102
RTVSPost2010PropOp29
 70
     0
102
RTVSPost2010Prop30
280
     1
102
RTVSPost2010PropOp30
 70
     0
102
RTVSPost2010Prop31
280
     0
102
RTVSPost2010PropOp31
 70
     0
102
RTVSPost2010Prop32
280
     0
102
RTVSPost2010PropOp32
 70
     0
102
RTVSPost2010Prop33
280
     0
102
RTVSPost2010PropOp33
 70
     0
102
RTVSPost2010Prop34
280
     0
102
RTVSPost2010PropOp34
 70
     0
102
RTVSPost2010Prop35
280
     0
102
RTVSPost2010PropOp35
 70
     0
102
RTVSPost2010Prop36
280
     0
102
RTVSPost2010PropOp36
 70
     0
102
RTVSPost2010Prop37
 90
       50
102
RTVSPost2010PropOp37
 70
     0
102
RTVSPost2010Prop38
140
0.0
102
RTVSPost2010PropOp38
 70
     0
102
RTVSPost2010Prop39
140
1.0
102
RTVSPost2010PropOp39
 70
     0
102
RTVSPost2010Prop40
 90
        0
102
RTVSPost2010PropOp40
 70
     0
102
RTVSPost2010Prop41ColorIndex
 90
       18
102
RTVSPost2010Prop41ColorRGB
 90
        0
102
RTVSPost2010PropOp41
 70
     0
102
RTVSPost2010Prop42
 90
       50
102
RTVSPost2010PropOp42
 70
     0
102
RTVSPost2010Prop43
 90
        3
102
RTVSPost2010PropOp43
 70
     0
102
RTVSPost2010Prop44ColorIndex
 90
        5
102
RTVSPost2010Prop44ColorRGB
 90
      255
102
RTVSPost2010PropOp44
 70
     0
102
RTVSPost2010Prop45
280
     0
102
RTVSPost2010PropOp45
 70
     0
102
RTVSPost2010Prop46
 90
       50
102
RTVSPost2010PropOp46
 70
     0
102
RTVSPost2010Prop47
 90
       50
102
RTVSPost2010PropOp47
 70
     0
102
RTVSPost2010Prop48
 90
       50
102
RTVSPost2010PropOp48
 70
     0
102
RTVSPost2010Prop49
280
     0
102
RTVSPost2010PropOp49
 70
     0
102
RTVSPost2010Prop50
 90
       50
102
RTVSPost2010PropOp50
 70
     0
102
RTVSPost2010Prop51ColorIndex
 90
      256
102
RTVSPost2010Prop51ColorRGB
 90
-16777216
102
RTVSPost2010PropOp51
 70
     0
102
RTVSPost2010Prop52
140
1.0
102
RTVSPost2010PropOp52
 70
     0
102
RTVSPost2010Prop53
 90
        2
102
RTVSPost2010PropOp53
 70
     0
102
RTVSPost2010Prop54
  1
strokes_ogs.tif
102
RTVSPost2010PropOp54
 70
     0
102
RTVSPost2010Prop55
280
     0
102
RTVSPost2010PropOp55
 70
     0
102
RTVSPost2010Prop56
140
1.0
102
RTVSPost2010PropOp56
 70
     0
102
RTVSPost2010Prop57
140
1.0
102
RTVSPost2010PropOp57
 70
     0
  0
XRECORD
  5
177
102
{ACAD_REACTORS
330
176
102
}
330
176
100
AcDbXrecord
280
     1
102
RTVSPost2010Prop28
280
     0
102
RTVSPost2010PropOp28
 70
     1
102
RTVSPost2010Prop29
280
     1
102
RTVSPost2010PropOp29
 70
     1
102
RTVSPost2010Prop30
280
     1
102
RTVSPost2010PropOp30
 70
     1
102
RTVSPost2010Prop31
280
     0
102
RTVSPost2010PropOp31
 70
     1
102
RTVSPost2010Prop32
280
     0
102
RTVSPost2010PropOp32
 70
     1
102
RTVSPost2010Prop33
280
     0
102
RTVSPost2010PropOp33
 70
     1
102
RTVSPost2010Prop34
280
     0
102
RTVSPost2010PropOp34
 70
     1
102
RTVSPost2010Prop35
280
     0
102
RTVSPost2010PropOp35
 70
     1
102
RTVSPost2010Prop36
280
     0
102
RTVSPost2010PropOp36
 70
     1
102
RTVSPost2010Prop37
 90
       50
102
RTVSPost2010PropOp37
 70
     1
102
RTVSPost2010Prop38
140
0.0
102
RTVSPost2010PropOp38
 70
     1
102
RTVSPost2010Prop39
140
1.0
102
RTVSPost2010PropOp39
 70
     1
102
RTVSPost2010Prop40
 90
        0
102
RTVSPost2010PropOp40
 70
     1
102
RTVSPost2010Prop41ColorIndex
 90
       18
102
RTVSPost2010Prop41ColorRGB
 90
        0
102
RTVSPost2010PropOp41
 70
     1
102
RTVSPost2010Prop42
 90
       50
102
RTVSPost2010PropOp42
 70
     1
102
RTVSPost2010Prop43
 90
        3
102
RTVSPost2010PropOp43
 70
     1
102
RTVSPost2010Prop44ColorIndex
 90
        5
102
RTVSPost2010Prop44ColorRGB
 90
      255
102
RTVSPost2010PropOp44
 70
     1
102
RTVSPost2010Prop45
280
     0
102
RTVSPost2010PropOp45
 70
     1
102
RTVSPost2010Prop46
 90
       50
102
RTVSPost2010PropOp46
 70
     1
102
RTVSPost2010Prop47
 90
       50
102
RTVSPost2010PropOp47
 70
     1
102
RTVSPost2010Prop48
 90
       50
102
RTVSPost2010PropOp48
 70
     1
102
RTVSPost2010Prop49
280
     0
102
RTVSPost2010PropOp49
 70
     1
102
RTVSPost2010Prop50
 90
       50
102
RTVSPost2010PropOp50
 70
     1
102
RTVSPost2010Prop51ColorIndex
 90
      256
102
RTVSPost2010Prop51ColorRGB
 90
-16777216
102
RTVSPost2010PropOp51
 70
     0
102
RTVSPost2010Prop52
140
1.0
102
RTVSPost2010PropOp52
 70
     0
102
RTVSPost2010Prop53
 90
        2
102
RTVSPost2010PropOp53
 70
     1
102
RTVSPost2010Prop54
  1
strokes_ogs.tif
102
RTVSPost2010PropOp54
 70
     1
102
RTVSPost2010Prop55
280
     0
102
RTVSPost2010PropOp55
 70
     1
102
RTVSPost2010Prop56
140
1.0
102
RTVSPost2010PropOp56
 70
     1
102
RTVSPost2010Prop57
140
1.0
102
RTVSPost2010PropOp57
 70
     1
  0
XRECORD
  5
18D
102
{ACAD_REACTORS
330
18C
102
}
330
18C
100
AcDbXrecord
280
     1
102
RTVSPost2010Prop28
280
     0
102
RTVSPost2010PropOp28
 70
     1
102
RTVSPost2010Prop29
280
     1
102
RTVSPost2010PropOp29
 70
     1
102
RTVSPost2010Prop30
280
     1
102
RTVSPost2010PropOp30
 70
     1
102
RTVSPost2010Prop31
280
     0
102
RTVSPost2010PropOp31
 70
     1
102
RTVSPost2010Prop32
280
     0
102
RTVSPost2010PropOp32
 70
     1
102
RTVSPost2010Prop33
280
     0
102
RTVSPost2010PropOp33
 70
     1
102
RTVSPost2010Prop34
280
     0
102
RTVSPost2010PropOp34
 70
     1
102
RTVSPost2010Prop35
280
     0
102
RTVSPost2010PropOp35
 70
     1
102
RTVSPost2010Prop36
280
     0
102
RTVSPost2010PropOp36
 70
     1
102
RTVSPost2010Prop37
 90
       50
102
RTVSPost2010PropOp37
 70
     1
102
RTVSPost2010Prop38
140
0.0
102
RTVSPost2010PropOp38
 70
     1
102
RTVSPost2010Prop39
140
1.0
102
RTVSPost2010PropOp39
 70
     1
102
RTVSPost2010Prop40
 90
        0
102
RTVSPost2010PropOp40
 70
     1
102
RTVSPost2010Prop41ColorIndex
 90
       18
102
RTVSPost2010Prop41ColorRGB
 90
        0
102
RTVSPost2010PropOp41
 70
     1
102
RTVSPost2010Prop42
 90
       50
102
RTVSPost2010PropOp42
 70
     1
102
RTVSPost2010Prop43
 90
        3
102
RTVSPost2010PropOp43
 70
     1
102
RTVSPost2010Prop44ColorIndex
 90
        5
102
RTVSPost2010Prop44ColorRGB
 90
      255
102
RTVSPost2010PropOp44
 70
     1
102
RTVSPost2010Prop45
280
     0
102
RTVSPost2010PropOp45
 70
     1
102
RTVSPost2010Prop46
 90
       50
102
RTVSPost2010PropOp46
 70
     1
102
RTVSPost2010Prop47
 90
       50
102
RTVSPost2010PropOp47
 70
     1
102
RTVSPost2010Prop48
 90
       50
102
RTVSPost2010PropOp48
 70
     1
102
RTVSPost2010Prop49
280
     0
102
RTVSPost2010PropOp49
 70
     1
102
RTVSPost2010Prop50
 90
       50
102
RTVSPost2010PropOp50
 70
     1
102
RTVSPost2010Prop51ColorIndex
 90
      256
102
RTVSPost2010Prop51ColorRGB
 90
-16777216
102
RTVSPost2010PropOp51
 70
     0
102
RTVSPost2010Prop52
140
1.0
102
RTVSPost2010PropOp52
 70
     0
102
RTVSPost2010Prop53
 90
        2
102
RTVSPost2010PropOp53
 70
     1
102
RTVSPost2010Prop54
  1
strokes_ogs.tif
102
RTVSPost2010PropOp54
 70
     1
102
RTVSPost2010Prop55
280
     0
102
RTVSPost2010PropOp55
 70
     1
102
RTVSPost2010Prop56
140
1.0
102
RTVSPost2010PropOp56
 70
     1
102
RTVSPost2010Prop57
140
1.0
102
RTVSPost2010PropOp57
 70
     1
  0
XRECORD
  5
18B
102
{ACAD_REACTORS
330
18A
102
}
330
18A
100
AcDbXrecord
280
     1
102
RTVSPost2010Prop28
280
     0
102
RTVSPost2010PropOp28
 70
     1
102
RTVSPost2010Prop29
280
     1
102
RTVSPost2010PropOp29
 70
     1
102
RTVSPost2010Prop30
280
     1
102
RTVSPost2010PropOp30
 70
     1
102
RTVSPost2010Prop31
280
     0
102
RTVSPost2010PropOp31
 70
     1
102
RTVSPost2010Prop32
280
     0
102
RTVSPost2010PropOp32
 70
     1
102
RTVSPost2010Prop33
280
     0
102
RTVSPost2010PropOp33
 70
     1
102
RTVSPost2010Prop34
280
     0
102
RTVSPost2010PropOp34
 70
     1
102
RTVSPost2010Prop35
280
     0
102
RTVSPost2010PropOp35
 70
     1
102
RTVSPost2010Prop36
280
     0
102
RTVSPost2010PropOp36
 70
     1
102
RTVSPost2010Prop37
 90
       50
102
RTVSPost2010PropOp37
 70
     1
102
RTVSPost2010Prop38
140
0.0
102
RTVSPost2010PropOp38
 70
     1
102
RTVSPost2010Prop39
140
1.0
102
RTVSPost2010PropOp39
 70
     1
102
RTVSPost2010Prop40
 90
        0
102
RTVSPost2010PropOp40
 70
     1
102
RTVSPost2010Prop41ColorIndex
 90
       18
102
RTVSPost2010Prop41ColorRGB
 90
        0
102
RTVSPost2010PropOp41
 70
     1
102
RTVSPost2010Prop42
 90
       50
102
RTVSPost2010PropOp42
 70
     1
102
RTVSPost2010Prop43
 90
        3
102
RTVSPost2010PropOp43
 70
     1
102
RTVSPost2010Prop44ColorIndex
 90
        5
102
RTVSPost2010Prop44ColorRGB
 90
      255
102
RTVSPost2010PropOp44
 70
     1
102
RTVSPost2010Prop45
280
     0
102
RTVSPost2010PropOp45
 70
     1
102
RTVSPost2010Prop46
 90
       50
102
RTVSPost2010PropOp46
 70
     1
102
RTVSPost2010Prop47
 90
       50
102
RTVSPost2010PropOp47
 70
     1
102
RTVSPost2010Prop48
 90
       50
102
RTVSPost2010PropOp48
 70
     1
102
RTVSPost2010Prop49
280
     0
102
RTVSPost2010PropOp49
 70
     1
102
RTVSPost2010Prop50
 90
       50
102
RTVSPost2010PropOp50
 70
     1
102
RTVSPost2010Prop51ColorIndex
 90
      256
102
RTVSPost2010Prop51ColorRGB
 90
-16777216
102
RTVSPost2010PropOp51
 70
     0
102
RTVSPost2010Prop52
140
1.0
102
RTVSPost2010PropOp52
 70
     0
102
RTVSPost2010Prop53
 90
        2
102
RTVSPost2010PropOp53
 70
     1
102
RTVSPost2010Prop54
  1
strokes_ogs.tif
102
RTVSPost2010PropOp54
 70
     1
102
RTVSPost2010Prop55
280
     0
102
RTVSPost2010PropOp55
 70
     1
102
RTVSPost2010Prop56
140
1.0
102
RTVSPost2010PropOp56
 70
     1
102
RTVSPost2010Prop57
140
1.0
102
RTVSPost2010PropOp57
 70
     1
  0
XRECORD
  5
185
102
{ACAD_REACTORS
330
184
102
}
330
184
100
AcDbXrecord
280
     1
102
RTVSPost2010Prop28
280
     0
102
RTVSPost2010PropOp28
 70
     1
102
RTVSPost2010Prop29
280
     1
102
RTVSPost2010PropOp29
 70
     1
102
RTVSPost2010Prop30
280
     1
102
RTVSPost2010PropOp30
 70
     1
102
RTVSPost2010Prop31
280
     0
102
RTVSPost2010PropOp31
 70
     1
102
RTVSPost2010Prop32
280
     0
102
RTVSPost2010PropOp32
 70
     1
102
RTVSPost2010Prop33
280
     0
102
RTVSPost2010PropOp33
 70
     1
102
RTVSPost2010Prop34
280
     0
102
RTVSPost2010PropOp34
 70
     1
102
RTVSPost2010Prop35
280
     0
102
RTVSPost2010PropOp35
 70
     1
102
RTVSPost2010Prop36
280
     0
102
RTVSPost2010PropOp36
 70
     1
102
RTVSPost2010Prop37
 90
       50
102
RTVSPost2010PropOp37
 70
     1
102
RTVSPost2010Prop38
140
0.0
102
RTVSPost2010PropOp38
 70
     1
102
RTVSPost2010Prop39
140
1.0
102
RTVSPost2010PropOp39
 70
     1
102
RTVSPost2010Prop40
 90
        0
102
RTVSPost2010PropOp40
 70
     1
102
RTVSPost2010Prop41ColorIndex
 90
       18
102
RTVSPost2010Prop41ColorRGB
 90
        0
102
RTVSPost2010PropOp41
 70
     1
102
RTVSPost2010Prop42
 90
       50
102
RTVSPost2010PropOp42
 70
     1
102
RTVSPost2010Prop43
 90
        3
102
RTVSPost2010PropOp43
 70
     1
102
RTVSPost2010Prop44ColorIndex
 90
        5
102
RTVSPost2010Prop44ColorRGB
 90
      255
102
RTVSPost2010PropOp44
 70
     1
102
RTVSPost2010Prop45
280
     0
102
RTVSPost2010PropOp45
 70
     1
102
RTVSPost2010Prop46
 90
       50
102
RTVSPost2010PropOp46
 70
     1
102
RTVSPost2010Prop47
 90
       50
102
RTVSPost2010PropOp47
 70
     1
102
RTVSPost2010Prop48
 90
       50
102
RTVSPost2010PropOp48
 70
     1
102
RTVSPost2010Prop49
280
     0
102
RTVSPost2010PropOp49
 70
     1
102
RTVSPost2010Prop50
 90
       50
102
RTVSPost2010PropOp50
 70
     1
102
RTVSPost2010Prop51ColorIndex
 90
      256
102
RTVSPost2010Prop51ColorRGB
 90
-16777216
102
RTVSPost2010PropOp51
 70
     0
102
RTVSPost2010Prop52
140
1.0
102
RTVSPost2010PropOp52
 70
     0
102
RTVSPost2010Prop53
 90
        2
102
RTVSPost2010PropOp53
 70
     1
102
RTVSPost2010Prop54
  1
strokes_ogs.tif
102
RTVSPost2010PropOp54
 70
     1
102
RTVSPost2010Prop55
280
     0
102
RTVSPost2010PropOp55
 70
     1
102
RTVSPost2010Prop56
140
1.0
102
RTVSPost2010PropOp56
 70
     1
102
RTVSPost2010Prop57
140
1.0
102
RTVSPost2010PropOp57
 70
     1
  0
XRECORD
  5
187
102
{ACAD_REACTORS
330
186
102
}
330
186
100
AcDbXrecord
280
     1
102
RTVSPost2010Prop28
280
     0
102
RTVSPost2010PropOp28
 70
     1
102
RTVSPost2010Prop29
280
     1
102
RTVSPost2010PropOp29
 70
     1
102
RTVSPost2010Prop30
280
     1
102
RTVSPost2010PropOp30
 70
     1
102
RTVSPost2010Prop31
280
     0
102
RTVSPost2010PropOp31
 70
     1
102
RTVSPost2010Prop32
280
     0
102
RTVSPost2010PropOp32
 70
     1
102
RTVSPost2010Prop33
280
     0
102
RTVSPost2010PropOp33
 70
     1
102
RTVSPost2010Prop34
280
     0
102
RTVSPost2010PropOp34
 70
     1
102
RTVSPost2010Prop35
280
     0
102
RTVSPost2010PropOp35
 70
     1
102
RTVSPost2010Prop36
280
     0
102
RTVSPost2010PropOp36
 70
     1
102
RTVSPost2010Prop37
 90
       50
102
RTVSPost2010PropOp37
 70
     1
102
RTVSPost2010Prop38
140
0.0
102
RTVSPost2010PropOp38
 70
     1
102
RTVSPost2010Prop39
140
1.0
102
RTVSPost2010PropOp39
 70
     1
102
RTVSPost2010Prop40
 90
        0
102
RTVSPost2010PropOp40
 70
     1
102
RTVSPost2010Prop41ColorIndex
 90
       18
102
RTVSPost2010Prop41ColorRGB
 90
        0
102
RTVSPost2010PropOp41
 70
     1
102
RTVSPost2010Prop42
 90
       50
102
RTVSPost2010PropOp42
 70
     1
102
RTVSPost2010Prop43
 90
        3
102
RTVSPost2010PropOp43
 70
     1
102
RTVSPost2010Prop44ColorIndex
 90
        5
102
RTVSPost2010Prop44ColorRGB
 90
      255
102
RTVSPost2010PropOp44
 70
     1
102
RTVSPost2010Prop45
280
     0
102
RTVSPost2010PropOp45
 70
     1
102
RTVSPost2010Prop46
 90
       50
102
RTVSPost2010PropOp46
 70
     1
102
RTVSPost2010Prop47
 90
       50
102
RTVSPost2010PropOp47
 70
     1
102
RTVSPost2010Prop48
 90
       50
102
RTVSPost2010PropOp48
 70
     1
102
RTVSPost2010Prop49
280
     0
102
RTVSPost2010PropOp49
 70
     1
102
RTVSPost2010Prop50
 90
       50
102
RTVSPost2010PropOp50
 70
     1
102
RTVSPost2010Prop51ColorIndex
 90
      256
102
RTVSPost2010Prop51ColorRGB
 90
-16777216
102
RTVSPost2010PropOp51
 70
     0
102
RTVSPost2010Prop52
140
1.0
102
RTVSPost2010PropOp52
 70
     0
102
RTVSPost2010Prop53
 90
        2
102
RTVSPost2010PropOp53
 70
     1
102
RTVSPost2010Prop54
  1
strokes_ogs.tif
102
RTVSPost2010PropOp54
 70
     1
102
RTVSPost2010Prop55
280
     0
102
RTVSPost2010PropOp55
 70
     1
102
RTVSPost2010Prop56
140
1.0
102
RTVSPost2010PropOp56
 70
     1
102
RTVSPost2010Prop57
140
1.0
102
RTVSPost2010PropOp57
 70
     1
  0
XRECORD
  5
17D
102
{ACAD_REACTORS
330
17C
102
}
330
17C
100
AcDbXrecord
280
     1
102
RTVSPost2010Prop28
280
     0
102
RTVSPost2010PropOp28
 70
     1
102
RTVSPost2010Prop29
280
     1
102
RTVSPost2010PropOp29
 70
     1
102
RTVSPost2010Prop30
280
     1
102
RTVSPost2010PropOp30
 70
     1
102
RTVSPost2010Prop31
280
     0
102
RTVSPost2010PropOp31
 70
     1
102
RTVSPost2010Prop32
280
     0
102
RTVSPost2010PropOp32
 70
     1
102
RTVSPost2010Prop33
280
     0
102
RTVSPost2010PropOp33
 70
     1
102
RTVSPost2010Prop34
280
     0
102
RTVSPost2010PropOp34
 70
     1
102
RTVSPost2010Prop35
280
     0
102
RTVSPost2010PropOp35
 70
     1
102
RTVSPost2010Prop36
280
     0
102
RTVSPost2010PropOp36
 70
     1
102
RTVSPost2010Prop37
 90
       50
102
RTVSPost2010PropOp37
 70
     1
102
RTVSPost2010Prop38
140
0.0
102
RTVSPost2010PropOp38
 70
     1
102
RTVSPost2010Prop39
140
1.0
102
RTVSPost2010PropOp39
 70
     1
102
RTVSPost2010Prop40
 90
        0
102
RTVSPost2010PropOp40
 70
     1
102
RTVSPost2010Prop41ColorIndex
 90
       18
102
RTVSPost2010Prop41ColorRGB
 90
        0
102
RTVSPost2010PropOp41
 70
     1
102
RTVSPost2010Prop42
 90
       50
102
RTVSPost2010PropOp42
 70
     1
102
RTVSPost2010Prop43
 90
        3
102
RTVSPost2010PropOp43
 70
     1
102
RTVSPost2010Prop44ColorIndex
 90
        5
102
RTVSPost2010Prop44ColorRGB
 90
      255
102
RTVSPost2010PropOp44
 70
     1
102
RTVSPost2010Prop45
280
     0
102
RTVSPost2010PropOp45
 70
     1
102
RTVSPost2010Prop46
 90
       50
102
RTVSPost2010PropOp46
 70
     1
102
RTVSPost2010Prop47
 90
       50
102
RTVSPost2010PropOp47
 70
     1
102
RTVSPost2010Prop48
 90
       50
102
RTVSPost2010PropOp48
 70
     1
102
RTVSPost2010Prop49
280
     0
102
RTVSPost2010PropOp49
 70
     1
102
RTVSPost2010Prop50
 90
       50
102
RTVSPost2010PropOp50
 70
     1
102
RTVSPost2010Prop51ColorIndex
 90
      256
102
RTVSPost2010Prop51ColorRGB
 90
-16777216
102
RTVSPost2010PropOp51
 70
     0
102
RTVSPost2010Prop52
140
1.0
102
RTVSPost2010PropOp52
 70
     0
102
RTVSPost2010Prop53
 90
        2
102
RTVSPost2010PropOp53
 70
     1
102
RTVSPost2010Prop54
  1
strokes_ogs.tif
102
RTVSPost2010PropOp54
 70
     1
102
RTVSPost2010Prop55
280
     0
102
RTVSPost2010PropOp55
 70
     1
102
RTVSPost2010Prop56
140
1.0
102
RTVSPost2010PropOp56
 70
     1
102
RTVSPost2010Prop57
140
1.0
102
RTVSPost2010PropOp57
 70
     1
  0
XRECORD
  5
171
102
{ACAD_REACTORS
330
170
102
}
330
170
100
AcDbXrecord
280
     1
102
RTVSPost2010Prop28
280
     0
102
RTVSPost2010PropOp28
 70
     1
102
RTVSPost2010Prop29
280
     1
102
RTVSPost2010PropOp29
 70
     1
102
RTVSPost2010Prop30
280
     1
102
RTVSPost2010PropOp30
 70
     1
102
RTVSPost2010Prop31
280
     0
102
RTVSPost2010PropOp31
 70
     1
102
RTVSPost2010Prop32
280
     0
102
RTVSPost2010PropOp32
 70
     1
102
RTVSPost2010Prop33
280
     0
102
RTVSPost2010PropOp33
 70
     1
102
RTVSPost2010Prop34
280
     0
102
RTVSPost2010PropOp34
 70
     1
102
RTVSPost2010Prop35
280
     0
102
RTVSPost2010PropOp35
 70
     1
102
RTVSPost2010Prop36
280
     0
102
RTVSPost2010PropOp36
 70
     1
102
RTVSPost2010Prop37
 90
       50
102
RTVSPost2010PropOp37
 70
     1
102
RTVSPost2010Prop38
140
0.0
102
RTVSPost2010PropOp38
 70
     1
102
RTVSPost2010Prop39
140
1.0
102
RTVSPost2010PropOp39
 70
     1
102
RTVSPost2010Prop40
 90
        0
102
RTVSPost2010PropOp40
 70
     1
102
RTVSPost2010Prop41ColorIndex
 90
       18
102
RTVSPost2010Prop41ColorRGB
 90
        0
102
RTVSPost2010PropOp41
 70
     1
102
RTVSPost2010Prop42
 90
       50
102
RTVSPost2010PropOp42
 70
     1
102
RTVSPost2010Prop43
 90
        3
102
RTVSPost2010PropOp43
 70
     1
102
RTVSPost2010Prop44ColorIndex
 90
        5
102
RTVSPost2010Prop44ColorRGB
 90
      255
102
RTVSPost2010PropOp44
 70
     1
102
RTVSPost2010Prop45
280
     0
102
RTVSPost2010PropOp45
 70
     1
102
RTVSPost2010Prop46
 90
       50
102
RTVSPost2010PropOp46
 70
     1
102
RTVSPost2010Prop47
 90
       50
102
RTVSPost2010PropOp47
 70
     1
102
RTVSPost2010Prop48
 90
       50
102
RTVSPost2010PropOp48
 70
     1
102
RTVSPost2010Prop49
280
     0
102
RTVSPost2010PropOp49
 70
     1
102
RTVSPost2010Prop50
 90
       50
102
RTVSPost2010PropOp50
 70
     1
102
RTVSPost2010Prop51ColorIndex
 90
      256
102
RTVSPost2010Prop51ColorRGB
 90
-16777216
102
RTVSPost2010PropOp51
 70
     0
102
RTVSPost2010Prop52
140
1.0
102
RTVSPost2010PropOp52
 70
     0
102
RTVSPost2010Prop53
 90
        2
102
RTVSPost2010PropOp53
 70
     1
102
RTVSPost2010Prop54
  1
strokes_ogs.tif
102
RTVSPost2010PropOp54
 70
     1
102
RTVSPost2010Prop55
280
     0
102
RTVSPost2010PropOp55
 70
     1
102
RTVSPost2010Prop56
140
1.0
102
RTVSPost2010PropOp56
 70
     1
102
RTVSPost2010Prop57
140
1.0
102
RTVSPost2010PropOp57
 70
     1
  0
XRECORD
  5
189
102
{ACAD_REACTORS
330
188
102
}
330
188
100
AcDbXrecord
280
     1
102
RTVSPost2010Prop28
280
     0
102
RTVSPost2010PropOp28
 70
     1
102
RTVSPost2010Prop29
280
     1
102
RTVSPost2010PropOp29
 70
     1
102
RTVSPost2010Prop30
280
     1
102
RTVSPost2010PropOp30
 70
     1
102
RTVSPost2010Prop31
280
     0
102
RTVSPost2010PropOp31
 70
     1
102
RTVSPost2010Prop32
280
     0
102
RTVSPost2010PropOp32
 70
     1
102
RTVSPost2010Prop33
280
     0
102
RTVSPost2010PropOp33
 70
     1
102
RTVSPost2010Prop34
280
     0
102
RTVSPost2010PropOp34
 70
     1
102
RTVSPost2010Prop35
280
     0
102
RTVSPost2010PropOp35
 70
     1
102
RTVSPost2010Prop36
280
     0
102
RTVSPost2010PropOp36
 70
     1
102
RTVSPost2010Prop37
 90
       50
102
RTVSPost2010PropOp37
 70
     1
102
RTVSPost2010Prop38
140
0.0
102
RTVSPost2010PropOp38
 70
     1
102
RTVSPost2010Prop39
140
1.0
102
RTVSPost2010PropOp39
 70
     1
102
RTVSPost2010Prop40
 90
        0
102
RTVSPost2010PropOp40
 70
     1
102
RTVSPost2010Prop41ColorIndex
 90
       18
102
RTVSPost2010Prop41ColorRGB
 90
        0
102
RTVSPost2010PropOp41
 70
     1
102
RTVSPost2010Prop42
 90
       50
102
RTVSPost2010PropOp42
 70
     1
102
RTVSPost2010Prop43
 90
        3
102
RTVSPost2010PropOp43
 70
     1
102
RTVSPost2010Prop44ColorIndex
 90
        5
102
RTVSPost2010Prop44ColorRGB
 90
      255
102
RTVSPost2010PropOp44
 70
     1
102
RTVSPost2010Prop45
280
     0
102
RTVSPost2010PropOp45
 70
     1
102
RTVSPost2010Prop46
 90
       50
102
RTVSPost2010PropOp46
 70
     1
102
RTVSPost2010Prop47
 90
       50
102
RTVSPost2010PropOp47
 70
     1
102
RTVSPost2010Prop48
 90
       50
102
RTVSPost2010PropOp48
 70
     1
102
RTVSPost2010Prop49
280
     0
102
RTVSPost2010PropOp49
 70
     1
102
RTVSPost2010Prop50
 90
       50
102
RTVSPost2010PropOp50
 70
     1
102
RTVSPost2010Prop51ColorIndex
 90
      256
102
RTVSPost2010Prop51ColorRGB
 90
-16777216
102
RTVSPost2010PropOp51
 70
     0
102
RTVSPost2010Prop52
140
1.0
102
RTVSPost2010PropOp52
 70
     0
102
RTVSPost2010Prop53
 90
        2
102
RTVSPost2010PropOp53
 70
     1
102
RTVSPost2010Prop54
  1
strokes_ogs.tif
102
RTVSPost2010PropOp54
 70
     1
102
RTVSPost2010Prop55
280
     0
102
RTVSPost2010PropOp55
 70
     1
102
RTVSPost2010Prop56
140
1.0
102
RTVSPost2010PropOp56
 70
     1
102
RTVSPost2010Prop57
140
1.0
102
RTVSPost2010PropOp57
 70
     1
  0
ENDSEC
  0
EOF
