  0
SECTION
  2
HEADER
  9
$ACADVER
  1
AC1024
  9
$ACADMAINTVER
 70
     6
  9
$DWGCODEPAGE
  3
UNDEFINED
  9
$INSBASE
 10
0.0
 20
0.0
 30
0.0
  9
$EXTMIN
 10
1.000000000000000E+20
 20
1.000000000000000E+20
 30
1.000000000000000E+20
  9
$EXTMAX
 10
-1.000000000000000E+20
 20
-1.000000000000000E+20
 30
-1.000000000000000E+20
  9
$LIMMIN
 10
0.0
 20
0.0
  9
$LIMMAX
 10
12.0
 20
9.0
  9
$ORTHOMODE
 70
     0
  9
$REGENMODE
 70
     1
  9
$FILLMODE
 70
     1
  9
$QTEXTMODE
 70
     0
  9
$MIRRTEXT
 70
     1
  9
$LTSCALE
 40
1.0
  9
$ATTMODE
 70
     1
  9
$TEXTSIZE
 40
0.2
  9
$TRACEWID
 40
0.05
  9
$TEXTSTYLE
  7
Standard
  9
$CLAYER
  8
0
  9
$CELTYPE
  6
ByLayer
  9
$CECOLOR
 62
   256
  9
$CELTSCALE
 40
1.0
  9
$DISPSILH
 70
     0
  9
$DIMSCALE
 40
1.0
  9
$DIMASZ
 40
0.18
  9
$DIMEXO
 40
0.0625
  9
$DIMDLI
 40
0.38
  9
$DIMRND
 40
0.0
  9
$DIMDLE
 40
0.0
  9
$DIMEXE
 40
0.18
  9
$DIMTP
 40
0.0
  9
$DIMTM
 40
0.0
  9
$DIMTXT
 40
0.18
  9
$DIMCEN
 40
0.09
  9
$DIMTSZ
 40
0.0
  9
$DIMTOL
 70
     0
  9
$DIMLIM
 70
     0
  9
$DIMTIH
 70
     1
  9
$DIMTOH
 70
     1
  9
$DIMSE1
 70
     0
  9
$DIMSE2
 70
     0
  9
$DIMTAD
 70
     0
  9
$DIMZIN
 70
     0
  9
$DIMBLK
  1

  9
$DIMASO
 70
     1
  9
$DIMSHO
 70
     1
  9
$DIMPOST
  1

  9
$DIMAPOST
  1

  9
$DIMALT
 70
     0
  9
$DIMALTD
 70
     2
  9
$DIMALTF
 40
25.4
  9
$DIMLFAC
 40
1.0
  9
$DIMTOFL
 70
     0
  9
$DIMTVP
 40
0.0
  9
$DIMTIX
 70
     0
  9
$DIMSOXD
 70
     0
  9
$DIMSAH
 70
     0
  9
$DIMBLK1
  1

  9
$DIMBLK2
  1

  9
$DIMSTYLE
  2
Standard
  9
$DIMCLRD
 70
     0
  9
$DIMCLRE
 70
     0
  9
$DIMCLRT
 70
     0
  9
$DIMTFAC
 40
1.0
  9
$DIMGAP
 40
0.09
  9
$DIMJUST
 70
     0
  9
$DIMSD1
 70
     0
  9
$DIMSD2
 70
     0
  9
$DIMTOLJ
 70
     1
  9
$DIMTZIN
 70
     0
  9
$DIMALTZ
 70
     0
  9
$DIMALTTZ
 70
     0
  9
$DIMUPT
 70
     0
  9
$DIMDEC
 70
     4
  9
$DIMTDEC
 70
     4
  9
$DIMALTU
 70
     2
  9
$DIMALTTD
 70
     2
  9
$DIMTXSTY
  7
Standard
  9
$DIMAUNIT
 70
     0
  9
$DIMADEC
 70
     0
  9
$DIMALTRND
 40
0.0
  9
$DIMAZIN
 70
     0
  9
$DIMDSEP
 70
    46
  9
$DIMATFIT
 70
     3
  9
$DIMFRAC
 70
     0
  9
$DIMLDRBLK
  1

  9
$DIMLUNIT
 70
     2
  9
$DIMLWD
 70
    -2
  9
$DIMLWE
 70
    -2
  9
$DIMTMOVE
 70
     0
  9
$DIMFXL
 40
1.0
  9
$DIMFXLON
 70
     0
  9
$DIMJOGANG
 40
0.7853981633974483
  9
$DIMTFILL
 70
     0
  9
$DIMTFILLCLR
 70
     0
  9
$DIMARCSYM
 70
     0
  9
$DIMLTYPE
  6

  9
$DIMLTEX1
  6

  9
$DIMLTEX2
  6

  9
$DIMTXTDIRECTION
 70
     0
  9
$LUNITS
 70
     2
  9
$LUPREC
 70
     4
  9
$SKETCHINC
 40
0.1
  9
$FILLETRAD
 40
0.5
  9
$AUNITS
 70
     0
  9
$AUPREC
 70
     0
  9
$MENU
  1
.
  9
$ELEVATION
 40
0.0
  9
$PELEVATION
 40
0.0
  9
$THICKNESS
 40
0.0
  9
$LIMCHECK
 70
     0
  9
$CHAMFERA
 40
0.5
  9
$CHAMFERB
 40
0.5
  9
$CHAMFERC
 40
1.0
  9
$CHAMFERD
 40
0.0
  9
$SKPOLY
 70
     0
  9
$TDCREATE
 40
2457917.585868044
  9
$TDUCREATE
 40
2457917.210868055
  9
$TDUPDATE
 40
2457917.585868044
  9
$TDUUPDATE
 40
2457917.210868055
  9
$TDINDWG
 40
0.0000000116
  9
$TDUSRTIMER
 40
0.0000000116
  9
$USRTIMER
 70
     1
  9
$ANGBASE
 50
0.0
  9
$ANGDIR
 70
     0
  9
$PDMODE
 70
     0
  9
$PDSIZE
 40
0.0
  9
$PLINEWID
 40
0.0
  9
$SPLFRAME
 70
     0
  9
$SPLINETYPE
 70
     6
  9
$SPLINESEGS
 70
     8
  9
$HANDSEED
  5
157
  9
$SURFTAB1
 70
     6
  9
$SURFTAB2
 70
     6
  9
$SURFTYPE
 70
     6
  9
$SURFU
 70
     6
  9
$SURFV
 70
     6
  9
$UCSBASE
  2

  9
$UCSNAME
  2

  9
$UCSORG
 10
0.0
 20
0.0
 30
0.0
  9
$UCSXDIR
 10
1.0
 20
0.0
 30
0.0
  9
$UCSYDIR
 10
0.0
 20
1.0
 30
0.0
  9
$UCSORTHOREF
  2

  9
$UCSORTHOVIEW
 70
     0
  9
$UCSORGTOP
 10
0.0
 20
0.0
 30
0.0
  9
$UCSORGBOTTOM
 10
0.0
 20
0.0
 30
0.0
  9
$UCSORGLEFT
 10
0.0
 20
0.0
 30
0.0
  9
$UCSORGRIGHT
 10
0.0
 20
0.0
 30
0.0
  9
$UCSORGFRONT
 10
0.0
 20
0.0
 30
0.0
  9
$UCSORGBACK
 10
0.0
 20
0.0
 30
0.0
  9
$PUCSBASE
  2

  9
$PUCSNAME
  2

  9
$PUCSORG
 10
0.0
 20
0.0
 30
0.0
  9
$PUCSXDIR
 10
1.0
 20
0.0
 30
0.0
  9
$PUCSYDIR
 10
0.0
 20
1.0
 30
0.0
  9
$PUCSORTHOREF
  2

  9
$PUCSORTHOVIEW
 70
     0
  9
$PUCSORGTOP
 10
0.0
 20
0.0
 30
0.0
  9
$PUCSORGBOTTOM
 10
0.0
 20
0.0
 30
0.0
  9
$PUCSORGLEFT
 10
0.0
 20
0.0
 30
0.0
  9
$PUCSORGRIGHT
 10
0.0
 20
0.0
 30
0.0
  9
$PUCSORGFRONT
 10
0.0
 20
0.0
 30
0.0
  9
$PUCSORGBACK
 10
0.0
 20
0.0
 30
0.0
  9
$USERI1
 70
     0
  9
$USERI2
 70
     0
  9
$USERI3
 70
     0
  9
$USERI4
 70
     0
  9
$USERI5
 70
     0
  9
$USERR1
 40
0.0
  9
$USERR2
 40
0.0
  9
$USERR3
 40
0.0
  9
$USERR4
 40
0.0
  9
$USERR5
 40
0.0
  9
$WORLDVIEW
 70
     1
  9
$SHADEDGE
 70
     3
  9
$SHADEDIF
 70
    70
  9
$TILEMODE
 70
     1
  9
$MAXACTVP
 70
    64
  9
$PINSBASE
 10
0.0
 20
0.0
 30
0.0
  9
$PLIMCHECK
 70
     0
  9
$PEXTMIN
 10
1.000000000000000E+20
 20
1.000000000000000E+20
 30
1.000000000000000E+20
  9
$PEXTMAX
 10
-1.000000000000000E+20
 20
-1.000000000000000E+20
 30
-1.000000000000000E+20
  9
$PLIMMIN
 10
0.0
 20
0.0
  9
$PLIMMAX
 10
12.0
 20
9.0
  9
$UNITMODE
 70
     0
  9
$VISRETAIN
 70
     1
  9
$PLINEGEN
 70
     0
  9
$PSLTSCALE
 70
     1
  9
$TREEDEPTH
 70
  3020
  9
$CMLSTYLE
  2
Standard
  9
$CMLJUST
 70
     0
  9
$CMLSCALE
 40
1.0
  9
$PROXYGRAPHICS
 70
     1
  9
$MEASUREMENT
 70
     0
  9
$CELWEIGHT
370
    -1
  9
$ENDCAPS
280
     0
  9
$JOINSTYLE
280
     0
  9
$LWDISPLAY
290
     1
  9
$INSUNITS
 70
     1
  9
$HYPERLINKBASE
  1

  9
$STYLESHEET
  1

  9
$XEDIT
290
     1
  9
$CEPSNTYPE
380
     0
  9
$PSTYLEMODE
290
     1
  9
$FINGERPRINTGUID
  2
{64146FF5-0197-39C5-E393-6593AC1BDB9A}
  9
$VERSIONGUID
  2
{FAEB1C32-E019-11D5-929B-00C0DF256EC4}
  9
$EXTNAMES
290
     1
  9
$PSVPSCALE
 40
0.0
  9
$OLESTARTUP
290
     0
  9
$SORTENTS
280
   127
  9
$INDEXCTL
280
     0
  9
$HIDETEXT
280
     1
  9
$XCLIPFRAME
280
     2
  9
$HALOGAP
280
     0
  9
$OBSCOLOR
 70
   257
  9
$OBSLTYPE
280
     0
  9
$INTERSECTIONDISPLAY
280
     0
  9
$INTERSECTIONCOLOR
 70
   257
  9
$DIMASSOC
280
     2
  9
$PROJECTNAME
  1

  9
$CAMERADISPLAY
290
     0
  9
$LENSLENGTH
 40
50.0
  9
$CAMERAHEIGHT
 40
0.0
  9
$STEPSPERSEC
 40
2.0
  9
$STEPSIZE
 40
6.0
  9
$3DDWFPREC
 40
2.0
  9
$PSOLWIDTH
 40
0.25
  9
$PSOLHEIGHT
 40
4.0
  9
$LOFTANG1
 40
1.570796326794897
  9
$LOFTANG2
 40
1.570796326794897
  9
$LOFTMAG1
 40
0.0
  9
$LOFTMAG2
 40
0.0
  9
$LOFTPARAM
 70
     7
  9
$LOFTNORMALS
280
     1
  9
$LATITUDE
 40
37.795
  9
$LONGITUDE
 40
-122.394
  9
$NORTHDIRECTION
 40
0.0
  9
$TIMEZONE
 70
 -8000
  9
$LIGHTGLYPHDISPLAY
280
     1
  9
$TILEMODELIGHTSYNCH
280
     1
  9
$CMATERIAL
347
3C
  9
$SOLIDHIST
280
     1
  9
$SHOWHIST
280
     1
  9
$DWFFRAME
280
     2
  9
$DGNFRAME
280
     2
  9
$REALWORLDSCALE
290
     1
  9
$INTERFERECOLOR
 62
   256
  9
$CSHADOW
280
     0
  9
$SHADOWPLANELOCATION
 40
0.0
  0
ENDSEC
  0
SECTION
  2
CLASSES
  0
CLASS
  1
ACDBDICTIONARYWDFLT
  2
AcDbDictionaryWithDefault
  3
ObjectDBX Classes
 90
        0
 91
        4
280
     0
281
     0
  0
CLASS
  1
VISUALSTYLE
  2
AcDbVisualStyle
  3
ObjectDBX Classes
 90
     4095
 91
        4
280
     0
281
     0
  0
CLASS
  1
MATERIAL
  2
AcDbMaterial
  3
ObjectDBX Classes
 90
     1153
 91
        4
280
     0
281
     0
  0
CLASS
  1
SUN
  2
AcDbSun
  3
SCENEOE
 90
     1024
 91
        4
280
     0
281
     0
  0
ENDSEC
  0
SECTION
  2
TABLES
  0
TABLE
  2
VPORT
  5
8
330
0
100
AcDbSymbolTable
 70
     1
  0
VPORT
  5
29
330
8
100
AcDbSymbolTableRecord
100
AcDbViewportTableRecord
  2
*Active
 70
     0
 10
0.0
 20
0.0
 11
1.0
 21
1.0
 12
0.0
 22
0.0
 13
0.0
 23
0.0
 14
0.5
 24
0.5
 15
0.5
 25
0.5
 16
0.0
 26
0.0
 36
1.0
 17
91.00082462281999
 27
-128.4993055234307
 37
0.0
 40
256.9986110468615
 41
0.7081814508812795
 42
50.0
 43
0.0
 44
0.0
 50
0.0
 51
0.0
 71
     0
 72
   100
 73
     1
 74
     3
 75
     0
 76
     0
 77
     0
 78
     0
281
     0
 65
     1
110
0.0
120
0.0
130
0.0
111
1.0
121
0.0
131
0.0
112
0.0
122
1.0
132
0.0
 79
     0
146
0.0
 60
     3
 61
     5
292
     1
282
     1
141
0.0
142
0.0
 63
   250
361
3F
  0
ENDTAB
  0
TABLE
  2
LTYPE
  5
5
330
0
100
AcDbSymbolTable
 70
     3
  0
LTYPE
  5
14
330
5
100
AcDbSymbolTableRecord
100
AcDbLinetypeTableRecord
  2
ByBlock
 70
     0
  3

 72
    65
 73
     0
 40
0.0
  0
LTYPE
  5
15
330
5
100
AcDbSymbolTableRecord
100
AcDbLinetypeTableRecord
  2
ByLayer
 70
     0
  3

 72
    65
 73
     0
 40
0.0
  0
LTYPE
  5
16
330
5
100
AcDbSymbolTableRecord
100
AcDbLinetypeTableRecord
  2
Continuous
 70
     0
  3
Solid line
 72
    65
 73
     0
 40
0.0
  0
LTYPE
  5
48
330
5
100
AcDbSymbolTableRecord
100
AcDbLinetypeTableRecord
  2
AI-Linetype-1
 70
     0
  3
Adobe Illustrator Linetype No. 1
 72
    65
 73
     2
 40
1.411111110758333
 49
0.7055555553791667
 74
     0
 49
-0.7055555553791667
 74
     0
  0
LTYPE
  5
109
330
5
100
AcDbSymbolTableRecord
100
AcDbLinetypeTableRecord
  2
AI-Linetype-2
 70
     0
  3
Adobe Illustrator Linetype No. 2
 72
    65
 73
     2
 40
1.411111110758333
 49
0.7055555553791667
 74
     0
 49
-0.7055555553791667
 74
     0
  0
ENDTAB
  0
TABLE
  2
LAYER
  5
2
330
0
100
AcDbSymbolTable
 70
     2
  0
LAYER
  5
10
330
2
100
AcDbSymbolTableRecord
100
AcDbLayerTableRecord
  2
0
 70
     0
 62
     7
  6
Continuous
370
    -3
390
F
347
3E
  0
LAYER
  5
40
330
2
100
AcDbSymbolTableRecord
100
AcDbLayerTableRecord
  2
_U+30EC_U+30A4_U+30E4_U+30FC 1
 70
     0
 62
     7
  6
Continuous
370
    -3
390
F
347
3E
  0
ENDTAB
  0
TABLE
  2
STYLE
  5
3
330
0
100
AcDbSymbolTable
 70
     1
  0
STYLE
  5
11
330
3
100
AcDbSymbolTableRecord
100
AcDbTextStyleTableRecord
  2
Standard
 70
     0
 40
0.0
 41
1.0
 50
0.0
 71
     0
 42
0.2
  3
txt
  4

  0
ENDTAB
  0
TABLE
  2
VIEW
  5
6
330
0
100
AcDbSymbolTable
 70
     0
  0
ENDTAB
  0
TABLE
  2
UCS
  5
7
330
0
100
AcDbSymbolTable
 70
     0
  0
ENDTAB
  0
TABLE
  2
APPID
  5
9
330
0
100
AcDbSymbolTable
 70
     1
  0
APPID
  5
12
330
9
100
AcDbSymbolTableRecord
100
AcDbRegAppTableRecord
  2
ACAD
 70
     0
  0
ENDTAB
  0
TABLE
  2
DIMSTYLE
  5
A
330
0
100
AcDbSymbolTable
 70
     1
100
AcDbDimStyleTable
  0
DIMSTYLE
105
27
330
A
100
AcDbSymbolTableRecord
100
AcDbDimStyleTableRecord
  2
Standard
 70
     0
178
     0
340
11
  0
ENDTAB
  0
TABLE
  2
BLOCK_RECORD
  5
1
330
0
100
AcDbSymbolTable
 70
     9
  0
BLOCK_RECORD
  5
1F
330
1
100
AcDbSymbolTableRecord
100
AcDbBlockTableRecord
  2
*Model_Space
340
22
 70
     0
280
     1
281
     0
  0
BLOCK_RECORD
  5
1B
330
1
100
AcDbSymbolTableRecord
100
AcDbBlockTableRecord
  2
*Paper_Space
340
1E
 70
     0
280
     1
281
     0
  0
BLOCK_RECORD
  5
23
330
1
100
AcDbSymbolTableRecord
100
AcDbBlockTableRecord
  2
*Paper_Space0
340
26
 70
     0
280
     1
281
     0
  0
BLOCK_RECORD
  5
41
330
1
100
AcDbSymbolTableRecord
100
AcDbBlockTableRecord
  2
block 2
340
0
102
{BLKREFS
331
42
102
}
 70
     0
280
     1
281
     0
  0
BLOCK_RECORD
  5
4A
330
1
100
AcDbSymbolTableRecord
100
AcDbBlockTableRecord
  2
block 3
340
0
102
{BLKREFS
331
4B
102
}
 70
     0
280
     1
281
     0
  0
BLOCK_RECORD
  5
82
330
1
100
AcDbSymbolTableRecord
100
AcDbBlockTableRecord
  2
block 4
340
0
102
{BLKREFS
331
83
102
}
 70
     0
280
     1
281
     0
  0
BLOCK_RECORD
  5
E8
330
1
100
AcDbSymbolTableRecord
100
AcDbBlockTableRecord
  2
block 5
340
0
102
{BLKREFS
331
E9
102
}
 70
     0
280
     1
281
     0
  0
BLOCK_RECORD
  5
FD
330
1
100
AcDbSymbolTableRecord
100
AcDbBlockTableRecord
  2
block 6
340
0
102
{BLKREFS
331
FE
102
}
 70
     0
280
     1
281
     0
  0
BLOCK_RECORD
  5
110
330
1
100
AcDbSymbolTableRecord
100
AcDbBlockTableRecord
  2
block 7
340
0
102
{BLKREFS
331
111
102
}
 70
     0
280
     1
281
     0
  0
BLOCK_RECORD
  5
121
330
1
100
AcDbSymbolTableRecord
100
AcDbBlockTableRecord
  2
block 8
340
0
102
{BLKREFS
331
122
102
}
 70
     0
280
     1
281
     0
  0
BLOCK_RECORD
  5
12D
330
1
100
AcDbSymbolTableRecord
100
AcDbBlockTableRecord
  2
block 9
340
0
102
{BLKREFS
331
12E
102
}
 70
     0
280
     1
281
     0
  0
ENDTAB
  0
ENDSEC
  0
SECTION
  2
BLOCKS
  0
BLOCK
  5
20
330
1F
100
AcDbEntity
  8
0
100
AcDbBlockBegin
  2
*Model_Space
 70
     0
 10
0.0
 20
0.0
 30
0.0
  3
*Model_Space
  1

  0
ENDBLK
  5
21
330
1F
100
AcDbEntity
  8
0
100
AcDbBlockEnd
  0
BLOCK
  5
1C
330
1B
100
AcDbEntity
 67
     1
  8
0
100
AcDbBlockBegin
  2
*Paper_Space
 70
     0
 10
0.0
 20
0.0
 30
0.0
  3
*Paper_Space
  1

  0
ENDBLK
  5
1D
330
1B
100
AcDbEntity
 67
     1
  8
0
100
AcDbBlockEnd
  0
BLOCK
  5
24
330
23
100
AcDbEntity
  8
0
100
AcDbBlockBegin
  2
*Paper_Space0
 70
     0
 10
0.0
 20
0.0
 30
0.0
  3
*Paper_Space0
  1

  0
ENDBLK
  5
25
330
23
100
AcDbEntity
  8
0
100
AcDbBlockEnd
  0
BLOCK
  5
43
330
41
100
AcDbEntity
  8
0
100
AcDbBlockBegin
  2
block 2
 70
     0
 10
0.0
 20
0.0
 30
0.0
  3
block 2
  1

  0
POLYLINE
  5
45
330
41
100
AcDbEntity
  8
_U+30EC_U+30A4_U+30E4_U+30FC 1
  6
AI-Linetype-1
 62
   154
420
    23468
370
    25
100
AcDb2dPolyline
 66
     1
 10
0.0
 20
0.0
 30
0.0
  0
VERTEX
  5
46
330
45
100
AcDbEntity
  8
_U+30EC_U+30A4_U+30E4_U+30FC 1
  6
AI-Linetype-1
 62
   154
420
    23468
370
    25
100
AcDbVertex
100
AcDb2dVertex
 10
138.8084211809244
 20
-140.4544857982195
 30
0.0
  0
VERTEX
  5
47
330
45
100
AcDbEntity
  8
_U+30EC_U+30A4_U+30E4_U+30FC 1
  6
AI-Linetype-1
 62
   154
420
    23468
370
    25
100
AcDbVertex
100
AcDb2dVertex
 10
124.4782001576299
 20
-136.024090799327
 30
0.0
  0
SEQEND
  5
49
330
45
100
AcDbEntity
  8
_U+30EC_U+30A4_U+30E4_U+30FC 1
  6
AI-Linetype-1
 62
   154
420
    23468
370
    25
  0
INSERT
  5
4B
330
41
100
AcDbEntity
  8
_U+30EC_U+30A4_U+30E4_U+30FC 1
100
AcDbBlockReference
  2
block 3
 10
0.0
 20
0.0
 30
0.0
  0
POLYLINE
  5
106
330
41
100
AcDbEntity
  8
_U+30EC_U+30A4_U+30E4_U+30FC 1
  6
AI-Linetype-2
 62
   154
420
    23468
370
    25
100
AcDb2dPolyline
 66
     1
 10
0.0
 20
0.0
 30
0.0
  0
VERTEX
  5
107
330
106
100
AcDbEntity
  8
_U+30EC_U+30A4_U+30E4_U+30FC 1
  6
AI-Linetype-2
 62
   154
420
    23468
370
    25
100
AcDbVertex
100
AcDb2dVertex
 10
57.77751963708378
 20
-136.1660132992921
 30
0.0
  0
VERTEX
  5
108
330
106
100
AcDbEntity
  8
_U+30EC_U+30A4_U+30E4_U+30FC 1
  6
AI-Linetype-2
 62
   154
420
    23468
370
    25
100
AcDbVertex
100
AcDb2dVertex
 10
43.44694583602051
 20
-140.596408298184
 30
0.0
  0
SEQEND
  5
10A
330
106
100
AcDbEntity
  8
_U+30EC_U+30A4_U+30E4_U+30FC 1
  6
AI-Linetype-2
 62
   154
420
    23468
370
    25
  0
POLYLINE
  5
10B
330
41
100
AcDbEntity
  8
_U+30EC_U+30A4_U+30E4_U+30FC 1
 62
   179
420
  2234388
370
     9
100
AcDb2dPolyline
 66
     1
 10
0.0
 20
0.0
 30
0.0
  0
VERTEX
  5
10C
330
10B
100
AcDbEntity
  8
_U+30EC_U+30A4_U+30E4_U+30FC 1
 62
   179
420
  2234388
370
     9
100
AcDbVertex
100
AcDb2dVertex
 10
55.68463024603339
 20
-137.4021113545385
 30
0.0
  0
VERTEX
  5
10D
330
10B
100
AcDbEntity
  8
_U+30EC_U+30A4_U+30E4_U+30FC 1
 62
   179
420
  2234388
370
     9
100
AcDbVertex
100
AcDb2dVertex
 10
60.8035062265511
 20
-141.3398521868873
 30
0.0
  0
VERTEX
  5
10E
330
10B
100
AcDbEntity
  8
_U+30EC_U+30A4_U+30E4_U+30FC 1
 62
   179
420
  2234388
370
     9
100
AcDbVertex
100
AcDb2dVertex
 10
85.83453531017857
 20
-141.3398521868873
 30
0.0
  0
SEQEND
  5
10F
330
10B
100
AcDbEntity
  8
_U+30EC_U+30A4_U+30E4_U+30FC 1
 62
   179
420
  2234388
370
     9
  0
INSERT
  5
111
330
41
100
AcDbEntity
  8
_U+30EC_U+30A4_U+30E4_U+30FC 1
100
AcDbBlockReference
  2
block 7
 10
0.0
 20
0.0
 30
0.0
  0
POLYLINE
  5
11C
330
41
100
AcDbEntity
  8
_U+30EC_U+30A4_U+30E4_U+30FC 1
 62
   179
420
  2234388
370
     9
100
AcDb2dPolyline
 66
     1
 10
0.0
 20
0.0
 30
0.0
  0
VERTEX
  5
11D
330
11C
100
AcDbEntity
  8
_U+30EC_U+30A4_U+30E4_U+30FC 1
 62
   179
420
  2234388
370
     9
100
AcDbVertex
100
AcDb2dVertex
 10
125.5868042960137
 20
-137.0596699657353
 30
0.0
  0
VERTEX
  5
11E
330
11C
100
AcDbEntity
  8
_U+30EC_U+30A4_U+30E4_U+30FC 1
 62
   179
420
  2234388
370
     9
100
AcDbVertex
100
AcDb2dVertex
 10
121.0076077461721
 20
-141.3398521868873
 30
0.0
  0
VERTEX
  5
11F
330
11C
100
AcDbEntity
  8
_U+30EC_U+30A4_U+30E4_U+30FC 1
 62
   179
420
  2234388
370
     9
100
AcDbVertex
100
AcDb2dVertex
 10
97.80417917147417
 20
-141.3398521868873
 30
0.0
  0
SEQEND
  5
120
330
11C
100
AcDbEntity
  8
_U+30EC_U+30A4_U+30E4_U+30FC 1
 62
   179
420
  2234388
370
     9
  0
INSERT
  5
122
330
41
100
AcDbEntity
  8
_U+30EC_U+30A4_U+30E4_U+30FC 1
100
AcDbBlockReference
  2
block 8
 10
0.0
 20
0.0
 30
0.0
  0
INSERT
  5
12E
330
41
100
AcDbEntity
  8
_U+30EC_U+30A4_U+30E4_U+30FC 1
100
AcDbBlockReference
  2
block 9
 10
0.0
 20
0.0
 30
0.0
  0
ENDBLK
  5
44
330
41
100
AcDbEntity
  8
0
100
AcDbBlockEnd
  0
BLOCK
  5
4C
330
4A
100
AcDbEntity
  8
0
100
AcDbBlockBegin
  2
block 3
 70
     0
 10
0.0
 20
0.0
 30
0.0
  3
block 3
  1

  0
POLYLINE
  5
4E
330
4A
100
AcDbEntity
  8
_U+30EC_U+30A4_U+30E4_U+30FC 1
 62
   179
420
  2234388
370
     9
100
AcDb2dPolyline
 66
     1
 10
0.0
 20
0.0
 30
0.0
  0
VERTEX
  5
4F
330
4E
100
AcDbEntity
  8
_U+30EC_U+30A4_U+30E4_U+30FC 1
 62
   179
420
  2234388
370
     9
100
AcDbVertex
100
AcDb2dVertex
 10
91.10468239794814
 20
-118.0048721927212
 30
0.0
  0
VERTEX
  5
50
330
4E
100
AcDbEntity
  8
_U+30EC_U+30A4_U+30E4_U+30FC 1
 62
   179
420
  2234388
370
     9
100
AcDbVertex
100
AcDb2dVertex
 10
91.10468239794814
 20
-122.6061174693484
 30
0.0
  0
SEQEND
  5
51
330
4E
100
AcDbEntity
  8
_U+30EC_U+30A4_U+30E4_U+30FC 1
 62
   179
420
  2234388
370
     9
  0
POLYLINE
  5
52
330
4A
100
AcDbEntity
  8
_U+30EC_U+30A4_U+30E4_U+30FC 1
 62
   179
420
  2234388
370
     9
100
AcDb2dPolyline
 66
     1
 10
0.0
 20
0.0
 30
0.0
  0
VERTEX
  5
53
330
52
100
AcDbEntity
  8
_U+30EC_U+30A4_U+30E4_U+30FC 1
 62
   179
420
  2234388
370
     9
100
AcDbVertex
100
AcDb2dVertex
 10
90.84630796009537
 20
-121.640106080701
 30
0.0
  0
VERTEX
  5
54
330
52
100
AcDbEntity
  8
_U+30EC_U+30A4_U+30E4_U+30FC 1
 62
   179
420
  2234388
370
     9
100
AcDbVertex
100
AcDb2dVertex
 10
91.10468239794814
 20
-122.6061174693484
 30
0.0
  0
SEQEND
  5
55
330
52
100
AcDbEntity
  8
_U+30EC_U+30A4_U+30E4_U+30FC 1
 62
   179
420
  2234388
370
     9
  0
POLYLINE
  5
56
330
4A
100
AcDbEntity
  8
_U+30EC_U+30A4_U+30E4_U+30FC 1
 62
   179
420
  2234388
370
     9
100
AcDb2dPolyline
 66
     1
 10
0.0
 20
0.0
 30
0.0
  0
VERTEX
  5
57
330
56
100
AcDbEntity
  8
_U+30EC_U+30A4_U+30E4_U+30FC 1
 62
   179
420
  2234388
370
     9
100
AcDbVertex
100
AcDb2dVertex
 10
91.36376239133845
 20
-121.640106080701
 30
0.0
  0
VERTEX
  5
58
330
56
100
AcDbEntity
  8
_U+30EC_U+30A4_U+30E4_U+30FC 1
 62
   179
420
  2234388
370
     9
100
AcDbVertex
100
AcDb2dVertex
 10
91.10468239794814
 20
-122.6061174693484
 30
0.0
  0
SEQEND
  5
59
330
56
100
AcDbEntity
  8
_U+30EC_U+30A4_U+30E4_U+30FC 1
 62
   179
420
  2234388
370
     9
  0
POLYLINE
  5
5A
330
4A
100
AcDbEntity
  8
_U+30EC_U+30A4_U+30E4_U+30FC 1
 62
   179
420
  2234388
370
    25
100
AcDb2dPolyline
 66
     1
 10
0.0
 20
0.0
 30
0.0
  0
VERTEX
  5
5B
330
5A
100
AcDbEntity
  8
_U+30EC_U+30A4_U+30E4_U+30FC 1
 62
   179
420
  2234388
370
    25
100
AcDbVertex
100
AcDb2dVertex
 10
92.49804875128929
 20
-124.4210180244504
 30
0.0
  0
VERTEX
  5
5C
330
5A
100
AcDbEntity
  8
_U+30EC_U+30A4_U+30E4_U+30FC 1
 62
   179
420
  2234388
370
    25
100
AcDbVertex
100
AcDb2dVertex
 10
139.1157258953066
 20
-139.5077713540117
 30
0.0
  0
SEQEND
  5
5D
330
5A
100
AcDbEntity
  8
_U+30EC_U+30A4_U+30E4_U+30FC 1
 62
   179
420
  2234388
370
    25
  0
POLYLINE
  5
5E
330
4A
100
AcDbEntity
  8
_U+30EC_U+30A4_U+30E4_U+30FC 1
 62
   179
420
  2234388
370
    25
100
AcDb2dPolyline
 66
     1
 10
0.0
 20
0.0
 30
0.0
  0
VERTEX
  5
5F
330
5E
100
AcDbEntity
  8
_U+30EC_U+30A4_U+30E4_U+30FC 1
 62
   179
420
  2234388
370
    25
100
AcDbVertex
100
AcDb2dVertex
 10
139.1157258953066
 20
-139.5077713540117
 30
0.0
  0
VERTEX
  5
60
330
5E
100
AcDbEntity
  8
_U+30EC_U+30A4_U+30E4_U+30FC 1
 62
   179
420
  2234388
370
    25
100
AcDbVertex
100
AcDb2dVertex
 10
138.9916892318044
 20
-139.888101076139
 30
0.0
  0
SEQEND
  5
61
330
5E
100
AcDbEntity
  8
_U+30EC_U+30A4_U+30E4_U+30FC 1
 62
   179
420
  2234388
370
    25
  0
POLYLINE
  5
62
330
4A
100
AcDbEntity
  8
_U+30EC_U+30A4_U+30E4_U+30FC 1
 62
   179
420
  2234388
370
    25
100
AcDb2dPolyline
 66
     1
 10
0.0
 20
0.0
 30
0.0
  0
VERTEX
  5
63
330
62
100
AcDbEntity
  8
_U+30EC_U+30A4_U+30E4_U+30FC 1
 62
   179
420
  2234388
370
    25
100
AcDbVertex
100
AcDb2dVertex
 10
91.9544182096029
 20
-125.6164408019291
 30
0.0
  0
VERTEX
  5
64
330
62
100
AcDbEntity
  8
_U+30EC_U+30A4_U+30E4_U+30FC 1
 62
   179
420
  2234388
370
    25
100
AcDbVertex
100
AcDb2dVertex
 10
138.9916892318044
 20
-139.888101076139
 30
0.0
  0
SEQEND
  5
65
330
62
100
AcDbEntity
  8
_U+30EC_U+30A4_U+30E4_U+30FC 1
 62
   179
420
  2234388
370
    25
  0
POLYLINE
  5
66
330
4A
100
AcDbEntity
  8
_U+30EC_U+30A4_U+30E4_U+30FC 1
 62
   179
420
  2234388
370
    25
100
AcDb2dPolyline
 66
     1
 10
0.0
 20
0.0
 30
0.0
  0
VERTEX
  5
67
330
66
100
AcDbEntity
  8
_U+30EC_U+30A4_U+30E4_U+30FC 1
 62
   179
420
  2234388
370
    25
100
AcDbVertex
100
AcDb2dVertex
 10
89.71974743328077
 20
-124.4182310800065
 30
0.0
  0
VERTEX
  5
68
330
66
100
AcDbEntity
  8
_U+30EC_U+30A4_U+30E4_U+30FC 1
 62
   179
420
  2234388
370
    25
100
AcDbVertex
100
AcDb2dVertex
 10
43.09332140059778
 20
-139.5077713540117
 30
0.0
  0
SEQEND
  5
69
330
66
100
AcDbEntity
  8
_U+30EC_U+30A4_U+30E4_U+30FC 1
 62
   179
420
  2234388
370
    25
  0
POLYLINE
  5
6A
330
4A
100
AcDbEntity
  8
_U+30EC_U+30A4_U+30E4_U+30FC 1
 62
   179
420
  2234388
370
    25
100
AcDb2dPolyline
 66
     1
 10
0.0
 20
0.0
 30
0.0
  0
VERTEX
  5
6B
330
6A
100
AcDbEntity
  8
_U+30EC_U+30A4_U+30E4_U+30FC 1
 62
   179
420
  2234388
370
    25
100
AcDbVertex
100
AcDb2dVertex
 10
43.09332140059778
 20
-139.5077713540117
 30
0.0
  0
VERTEX
  5
6C
330
6A
100
AcDbEntity
  8
_U+30EC_U+30A4_U+30E4_U+30FC 1
 62
   179
420
  2234388
370
    25
100
AcDbVertex
100
AcDb2dVertex
 10
43.21700528633123
 20
-139.888101076139
 30
0.0
  0
SEQEND
  5
6D
330
6A
100
AcDbEntity
  8
_U+30EC_U+30A4_U+30E4_U+30FC 1
 62
   179
420
  2234388
370
    25
  0
POLYLINE
  5
6E
330
4A
100
AcDbEntity
  8
_U+30EC_U+30A4_U+30E4_U+30FC 1
 62
   179
420
  2234388
370
    25
100
AcDb2dPolyline
 66
     1
 10
0.0
 20
0.0
 30
0.0
  0
VERTEX
  5
6F
330
6E
100
AcDbEntity
  8
_U+30EC_U+30A4_U+30E4_U+30FC 1
 62
   179
420
  2234388
370
    25
100
AcDbVertex
100
AcDb2dVertex
 10
90.25512297517776
 20
-125.6164408019291
 30
0.0
  0
VERTEX
  5
70
330
6E
100
AcDbEntity
  8
_U+30EC_U+30A4_U+30E4_U+30FC 1
 62
   179
420
  2234388
370
    25
100
AcDbVertex
100
AcDb2dVertex
 10
43.21700528633123
 20
-139.888101076139
 30
0.0
  0
SEQEND
  5
71
330
6E
100
AcDbEntity
  8
_U+30EC_U+30A4_U+30E4_U+30FC 1
 62
   179
420
  2234388
370
    25
  0
POLYLINE
  5
72
330
4A
100
AcDbEntity
  8
_U+30EC_U+30A4_U+30E4_U+30FC 1
 62
   179
420
  2234388
370
    25
100
AcDb2dPolyline
 66
     1
 10
0.0
 20
0.0
 30
0.0
  0
VERTEX
  5
73
330
72
100
AcDbEntity
  8
_U+30EC_U+30A4_U+30E4_U+30FC 1
 62
   179
420
  2234388
370
    25
100
AcDbVertex
100
AcDb2dVertex
 10
94.37218064792064
 20
-125.1451649687136
 30
0.0
  0
VERTEX
  5
74
330
72
100
AcDbEntity
  8
_U+30EC_U+30A4_U+30E4_U+30FC 1
 62
   179
420
  2234388
370
    25
100
AcDbVertex
100
AcDb2dVertex
 10
94.03457232320042
 20
-126.1726655240125
 30
0.0
  0
SEQEND
  5
75
330
72
100
AcDbEntity
  8
_U+30EC_U+30A4_U+30E4_U+30FC 1
 62
   179
420
  2234388
370
    25
  0
POLYLINE
  5
76
330
4A
100
AcDbEntity
  8
_U+30EC_U+30A4_U+30E4_U+30FC 1
 62
   179
420
  2234388
370
    25
100
AcDb2dPolyline
 66
     1
 10
0.0
 20
0.0
 30
0.0
  0
VERTEX
  5
77
330
76
100
AcDbEntity
  8
_U+30EC_U+30A4_U+30E4_U+30FC 1
 62
   179
420
  2234388
370
    25
100
AcDbVertex
100
AcDb2dVertex
 10
87.82804720376429
 20
-125.0721399687321
 30
0.0
  0
VERTEX
  5
78
330
76
100
AcDbEntity
  8
_U+30EC_U+30A4_U+30E4_U+30FC 1
 62
   179
420
  2234388
370
    25
100
AcDbVertex
100
AcDb2dVertex
 10
88.1656908062614
 20
-126.1430321906866
 30
0.0
  0
SEQEND
  5
79
330
76
100
AcDbEntity
  8
_U+30EC_U+30A4_U+30E4_U+30FC 1
 62
   179
420
  2234388
370
    25
  0
SPLINE
  5
7A
330
4A
100
AcDbEntity
  8
_U+30EC_U+30A4_U+30E4_U+30FC 1
 62
   179
420
  2234388
370
    25
100
AcDbSpline
210
0.0
220
0.0
230
1.0
 70
     8
 71
     3
 72
     8
 73
     4
 74
     0
 42
0.0000000001
 43
0.0000000001
 12
1.0
 22
0.0
 32
0.0
 13
1.0
 23
0.0
 33
0.0
 40
0.0
 40
0.0
 40
0.0
 40
0.0
 40
1.0
 40
1.0
 40
1.0
 40
1.0
 10
91.9544182096029
 20
-125.6164408019291
 30
0.0
 10
91.39974572375378
 20
-125.4524696908591
 30
0.0
 10
90.80979546102688
 20
-125.4524696908591
 30
0.0
 10
90.25512297517776
 20
-125.6164408019291
 30
0.0
  0
SPLINE
  5
7B
330
4A
100
AcDbEntity
  8
_U+30EC_U+30A4_U+30E4_U+30FC 1
 62
   179
420
  2234388
370
    25
100
AcDbSpline
210
0.0
220
0.0
230
1.0
 70
     8
 71
     3
 72
     8
 73
     4
 74
     0
 42
0.0000000001
 43
0.0000000001
 12
1.0
 22
0.0
 32
0.0
 13
1.0
 23
0.0
 33
0.0
 40
0.0
 40
0.0
 40
0.0
 40
0.0
 40
1.0
 40
1.0
 40
1.0
 40
1.0
 10
92.48979375149989
 20
-124.4182310800065
 30
0.0
 10
91.58993053265807
 20
-124.1254255245242
 30
0.0
 10
90.61961296587884
 20
-124.1254255245242
 30
0.0
 10
89.71974743328077
 20
-124.4182310800065
 30
0.0
  0
SPLINE
  5
7C
330
4A
100
AcDbEntity
  8
_U+30EC_U+30A4_U+30E4_U+30FC 1
 62
   179
420
  2234388
370
     9
100
AcDbSpline
210
0.0
220
0.0
230
1.0
 70
    11
 71
     3
 72
    17
 73
    13
 74
     0
 42
0.0000000001
 43
0.0000000001
 12
1.0
 22
0.0
 32
0.0
 13
1.0
 23
0.0
 33
0.0
 40
0.0
 40
0.0
 40
0.0
 40
0.0
 40
1.0
 40
1.0
 40
1.0
 40
2.0
 40
2.0
 40
2.0
 40
3.0
 40
3.0
 40
3.0
 40
4.0
 40
4.0
 40
4.0
 40
4.0
 10
140.4654889164268
 20
-135.7092013549616
 30
0.0
 10
140.4654889164268
 20
-135.6540974660867
 30
0.0
 10
140.4207249648947
 20
-135.6092946883199
 30
0.0
 10
140.3649119745483
 20
-135.6092946883199
 30
0.0
 10
140.3097728092884
 20
-135.6092946883199
 30
0.0
 10
140.2653228104224
 20
-135.6540974660867
 30
0.0
 10
140.2653228104224
 20
-135.7092013549616
 30
0.0
 10
140.2653228104224
 20
-135.7643405216147
 30
0.0
 10
140.3097728092884
 20
-135.8091080216032
 30
0.0
 10
140.3649119745483
 20
-135.8091080216032
 30
0.0
 10
140.4207249648947
 20
-135.8091080216032
 30
0.0
 10
140.4654889164268
 20
-135.7643405216147
 30
0.0
 10
140.4654889164268
 20
-135.7092013549616
 30
0.0
  0
HATCH
  5
7D
330
4A
100
AcDbEntity
  8
_U+30EC_U+30A4_U+30E4_U+30FC 1
 62
   179
420
  2234388
100
AcDbHatch
 10
0.0
 20
0.0
 30
0.0
210
0.0
220
0.0
230
1.0
  2
SOLID
 70
     1
 71
     0
 91
        1
 92
        1
 93
        1
 72
     4
 94
        3
 73
     0
 74
     1
 95
       17
 96
       13
 40
0.0
 40
0.0
 40
0.0
 40
0.0
 40
1.0
 40
1.0
 40
1.0
 40
2.0
 40
2.0
 40
2.0
 40
3.0
 40
3.0
 40
3.0
 40
4.0
 40
4.0
 40
4.0
 40
4.0
 10
140.4654889164268
 20
-135.7092013549616
 10
140.4654889164268
 20
-135.6540974660867
 10
140.4207249648947
 20
-135.6092946883199
 10
140.3649119745483
 20
-135.6092946883199
 10
140.3097728092884
 20
-135.6092946883199
 10
140.2653228104224
 20
-135.6540974660867
 10
140.2653228104224
 20
-135.7092013549616
 10
140.2653228104224
 20
-135.7643405216147
 10
140.3097728092884
 20
-135.8091080216032
 10
140.3649119745483
 20
-135.8091080216032
 10
140.4207249648947
 20
-135.8091080216032
 10
140.4654889164268
 20
-135.7643405216147
 10
140.4654889164268
 20
-135.7092013549616
 97
        0
 97
        0
 75
     2
 76
     1
 98
        0
  0
SPLINE
  5
7E
330
4A
100
AcDbEntity
  8
_U+30EC_U+30A4_U+30E4_U+30FC 1
 62
   179
420
  2234388
370
     9
100
AcDbSpline
210
0.0
220
0.0
230
1.0
 70
    11
 71
     3
 72
    17
 73
    13
 74
     0
 42
0.0000000001
 43
0.0000000001
 12
1.0
 22
0.0
 32
0.0
 13
1.0
 23
0.0
 33
0.0
 40
0.0
 40
0.0
 40
0.0
 40
0.0
 40
1.0
 40
1.0
 40
1.0
 40
2.0
 40
2.0
 40
2.0
 40
3.0
 40
3.0
 40
3.0
 40
4.0
 40
4.0
 40
4.0
 40
4.0
 10
89.50271854992874
 20
-120.2331577477195
 30
0.0
 10
89.50271854992874
 20
-120.1780185810665
 30
0.0
 10
89.45791577329399
 20
-120.1332510810779
 30
0.0
 10
89.40210633027336
 20
-120.1332510810779
 30
0.0
 10
89.34700244279028
 20
-120.1332510810779
 30
0.0
 10
89.30219966615553
 20
-120.1780185810665
 30
0.0
 10
89.30219966615553
 20
-120.2331577477195
 30
0.0
 10
89.30219966615553
 20
-120.2882616365945
 30
0.0
 10
89.34700244279028
 20
-120.3330644143612
 30
0.0
 10
89.40210633027336
 20
-120.3330644143612
 30
0.0
 10
89.45791577329399
 20
-120.3330644143612
 30
0.0
 10
89.50271854992874
 20
-120.2882616365945
 30
0.0
 10
89.50271854992874
 20
-120.2331577477195
 30
0.0
  0
SPLINE
  5
7F
330
4A
100
AcDbEntity
  8
_U+30EC_U+30A4_U+30E4_U+30FC 1
 62
   179
420
  2234388
370
     9
100
AcDbSpline
210
0.0
220
0.0
230
1.0
 70
    11
 71
     3
 72
    17
 73
    13
 74
     0
 42
0.0000000001
 43
0.0000000001
 12
1.0
 22
0.0
 32
0.0
 13
1.0
 23
0.0
 33
0.0
 40
0.0
 40
0.0
 40
0.0
 40
0.0
 40
1.0
 40
1.0
 40
1.0
 40
2.0
 40
2.0
 40
2.0
 40
3.0
 40
3.0
 40
3.0
 40
4.0
 40
4.0
 40
4.0
 40
4.0
 10
92.90734151862515
 20
-120.2331577477195
 30
0.0
 10
92.90734151862515
 20
-120.1780185810665
 30
0.0
 10
92.86253874199038
 20
-120.1332510810779
 30
0.0
 10
92.8074348545073
 20
-120.1332510810779
 30
0.0
 10
92.75229568924735
 20
-120.1332510810779
 30
0.0
 10
92.70753053237856
 20
-120.1780185810665
 30
0.0
 10
92.70753053237856
 20
-120.2331577477195
 30
0.0
 10
92.70753053237856
 20
-120.2882616365945
 30
0.0
 10
92.75229568924735
 20
-120.3330644143612
 30
0.0
 10
92.8074348545073
 20
-120.3330644143612
 30
0.0
 10
92.86253874199038
 20
-120.3330644143612
 30
0.0
 10
92.90734151862515
 20
-120.2882616365945
 30
0.0
 10
92.90734151862515
 20
-120.2331577477195
 30
0.0
  0
SPLINE
  5
80
330
4A
100
AcDbEntity
  8
_U+30EC_U+30A4_U+30E4_U+30FC 1
 62
   179
420
  2234388
370
     9
100
AcDbSpline
210
0.0
220
0.0
230
1.0
 70
    11
 71
     3
 72
    17
 73
    13
 74
     0
 42
0.0000000001
 43
0.0000000001
 12
1.0
 22
0.0
 32
0.0
 13
1.0
 23
0.0
 33
0.0
 40
0.0
 40
0.0
 40
0.0
 40
0.0
 40
1.0
 40
1.0
 40
1.0
 40
2.0
 40
2.0
 40
2.0
 40
3.0
 40
3.0
 40
3.0
 40
4.0
 40
4.0
 40
4.0
 40
4.0
 10
41.94266615217566
 20
-135.7002407994081
 30
0.0
 10
41.94266615217566
 20
-135.6451369105332
 30
0.0
 10
41.8978633755409
 20
-135.6003341327665
 30
0.0
 10
41.84275948805783
 20
-135.6003341327665
 30
0.0
 10
41.78762032279788
 20
-135.6003341327665
 30
0.0
 10
41.74285282393999
 20
-135.6451369105332
 30
0.0
 10
41.74285282393999
 20
-135.7002407994081
 30
0.0
 10
41.74285282393999
 20
-135.7553799660612
 30
0.0
 10
41.78762032279788
 20
-135.8001474660498
 30
0.0
 10
41.84275948805783
 20
-135.8001474660498
 30
0.0
 10
41.8978633755409
 20
-135.8001474660498
 30
0.0
 10
41.94266615217566
 20
-135.7553799660612
 30
0.0
 10
41.94266615217566
 20
-135.7002407994081
 30
0.0
  0
HATCH
  5
81
330
4A
100
AcDbEntity
  8
_U+30EC_U+30A4_U+30E4_U+30FC 1
 62
   179
420
  2234388
100
AcDbHatch
 10
0.0
 20
0.0
 30
0.0
210
0.0
220
0.0
230
1.0
  2
SOLID
 70
     1
 71
     0
 91
        1
 92
        1
 93
        1
 72
     4
 94
        3
 73
     0
 74
     1
 95
       17
 96
       13
 40
0.0
 40
0.0
 40
0.0
 40
0.0
 40
1.0
 40
1.0
 40
1.0
 40
2.0
 40
2.0
 40
2.0
 40
3.0
 40
3.0
 40
3.0
 40
4.0
 40
4.0
 40
4.0
 40
4.0
 10
41.94266615217566
 20
-135.7002407994081
 10
41.94266615217566
 20
-135.6451369105332
 10
41.8978633755409
 20
-135.6003341327665
 10
41.84275948805783
 20
-135.6003341327665
 10
41.78762032279788
 20
-135.6003341327665
 10
41.74285282393999
 20
-135.6451369105332
 10
41.74285282393999
 20
-135.7002407994081
 10
41.74285282393999
 20
-135.7553799660612
 10
41.78762032279788
 20
-135.8001474660498
 10
41.84275948805783
 20
-135.8001474660498
 10
41.8978633755409
 20
-135.8001474660498
 10
41.94266615217566
 20
-135.7553799660612
 10
41.94266615217566
 20
-135.7002407994081
 97
        0
 97
        0
 75
     2
 76
     1
 98
        0
  0
INSERT
  5
83
330
4A
100
AcDbEntity
  8
_U+30EC_U+30A4_U+30E4_U+30FC 1
100
AcDbBlockReference
  2
block 4
 10
0.0
 20
0.0
 30
0.0
  0
POLYLINE
  5
DC
330
4A
100
AcDbEntity
  8
_U+30EC_U+30A4_U+30E4_U+30FC 1
 62
   179
420
  2234388
370
     9
100
AcDb2dPolyline
 66
     1
 10
0.0
 20
0.0
 30
0.0
  0
VERTEX
  5
DD
330
DC
100
AcDbEntity
  8
_U+30EC_U+30A4_U+30E4_U+30FC 1
 62
   179
420
  2234388
370
     9
100
AcDbVertex
100
AcDb2dVertex
 10
92.8074348545073
 20
-120.2331577477195
 30
0.0
  0
VERTEX
  5
DE
330
DC
100
AcDbEntity
  8
_U+30EC_U+30A4_U+30E4_U+30FC 1
 62
   179
420
  2234388
370
     9
100
AcDbVertex
100
AcDb2dVertex
 10
140.3514711415579
 20
-135.7036980216294
 30
0.0
  0
SEQEND
  5
DF
330
DC
100
AcDbEntity
  8
_U+30EC_U+30A4_U+30E4_U+30FC 1
 62
   179
420
  2234388
370
     9
  0
POLYLINE
  5
E0
330
4A
100
AcDbEntity
  8
_U+30EC_U+30A4_U+30E4_U+30FC 1
 62
   179
420
  2234388
370
     9
100
AcDb2dPolyline
 66
     1
 10
0.0
 20
0.0
 30
0.0
  0
VERTEX
  5
E1
330
E0
100
AcDbEntity
  8
_U+30EC_U+30A4_U+30E4_U+30FC 1
 62
   179
420
  2234388
370
     9
100
AcDbVertex
100
AcDb2dVertex
 10
91.89102404455356
 20
-123.0477952470159
 30
0.0
  0
VERTEX
  5
E2
330
E0
100
AcDbEntity
  8
_U+30EC_U+30A4_U+30E4_U+30FC 1
 62
   179
420
  2234388
370
     9
100
AcDbVertex
100
AcDb2dVertex
 10
93.11678567994844
 20
-119.2822805257348
 30
0.0
  0
SEQEND
  5
E3
330
E0
100
AcDbEntity
  8
_U+30EC_U+30A4_U+30E4_U+30FC 1
 62
   179
420
  2234388
370
     9
  0
POLYLINE
  5
E4
330
4A
100
AcDbEntity
  8
_U+30EC_U+30A4_U+30E4_U+30FC 1
 62
   179
420
  2234388
370
     9
100
AcDb2dPolyline
 66
     1
 10
0.0
 20
0.0
 30
0.0
  0
VERTEX
  5
E5
330
E4
100
AcDbEntity
  8
_U+30EC_U+30A4_U+30E4_U+30FC 1
 62
   179
420
  2234388
370
     9
100
AcDbVertex
100
AcDb2dVertex
 10
139.9005153197294
 20
-137.0920549657273
 30
0.0
  0
VERTEX
  5
E6
330
E4
100
AcDbEntity
  8
_U+30EC_U+30A4_U+30E4_U+30FC 1
 62
   179
420
  2234388
370
     9
100
AcDbVertex
100
AcDb2dVertex
 10
140.6615275225366
 20
-134.7528560774229
 30
0.0
  0
SEQEND
  5
E7
330
E4
100
AcDbEntity
  8
_U+30EC_U+30A4_U+30E4_U+30FC 1
 62
   179
420
  2234388
370
     9
  0
INSERT
  5
E9
330
4A
100
AcDbEntity
  8
_U+30EC_U+30A4_U+30E4_U+30FC 1
100
AcDbBlockReference
  2
block 5
 10
0.0
 20
0.0
 30
0.0
  0
POLYLINE
  5
F1
330
4A
100
AcDbEntity
  8
_U+30EC_U+30A4_U+30E4_U+30FC 1
 62
   179
420
  2234388
370
     9
100
AcDb2dPolyline
 66
     1
 10
0.0
 20
0.0
 30
0.0
  0
VERTEX
  5
F2
330
F1
100
AcDbEntity
  8
_U+30EC_U+30A4_U+30E4_U+30FC 1
 62
   179
420
  2234388
370
     9
100
AcDbVertex
100
AcDb2dVertex
 10
41.8573997654621
 20
-135.7036980216294
 30
0.0
  0
VERTEX
  5
F3
330
F1
100
AcDbEntity
  8
_U+30EC_U+30A4_U+30E4_U+30FC 1
 62
   179
420
  2234388
370
     9
100
AcDbVertex
100
AcDb2dVertex
 10
89.40210633027336
 20
-120.2331577477195
 30
0.0
  0
SEQEND
  5
F4
330
F1
100
AcDbEntity
  8
_U+30EC_U+30A4_U+30E4_U+30FC 1
 62
   179
420
  2234388
370
     9
  0
POLYLINE
  5
F5
330
4A
100
AcDbEntity
  8
_U+30EC_U+30A4_U+30E4_U+30FC 1
 62
   179
420
  2234388
370
     9
100
AcDb2dPolyline
 66
     1
 10
0.0
 20
0.0
 30
0.0
  0
VERTEX
  5
F6
330
F5
100
AcDbEntity
  8
_U+30EC_U+30A4_U+30E4_U+30FC 1
 62
   179
420
  2234388
370
     9
100
AcDbVertex
100
AcDb2dVertex
 10
42.30853197617498
 20
-137.0920549657273
 30
0.0
  0
VERTEX
  5
F7
330
F5
100
AcDbEntity
  8
_U+30EC_U+30A4_U+30E4_U+30FC 1
 62
   179
420
  2234388
370
     9
100
AcDbVertex
100
AcDb2dVertex
 10
41.54716699559902
 20
-134.7528560774229
 30
0.0
  0
SEQEND
  5
F8
330
F5
100
AcDbEntity
  8
_U+30EC_U+30A4_U+30E4_U+30FC 1
 62
   179
420
  2234388
370
     9
  0
POLYLINE
  5
F9
330
4A
100
AcDbEntity
  8
_U+30EC_U+30A4_U+30E4_U+30FC 1
 62
   179
420
  2234388
370
     9
100
AcDb2dPolyline
 66
     1
 10
0.0
 20
0.0
 30
0.0
  0
VERTEX
  5
FA
330
F9
100
AcDbEntity
  8
_U+30EC_U+30A4_U+30E4_U+30FC 1
 62
   179
420
  2234388
370
     9
100
AcDbVertex
100
AcDb2dVertex
 10
90.31851942186472
 20
-123.0477952470159
 30
0.0
  0
VERTEX
  5
FB
330
F9
100
AcDbEntity
  8
_U+30EC_U+30A4_U+30E4_U+30FC 1
 62
   179
420
  2234388
370
     9
100
AcDbVertex
100
AcDb2dVertex
 10
89.09275550483223
 20
-119.2822805257348
 30
0.0
  0
SEQEND
  5
FC
330
F9
100
AcDbEntity
  8
_U+30EC_U+30A4_U+30E4_U+30FC 1
 62
   179
420
  2234388
370
     9
  0
INSERT
  5
FE
330
4A
100
AcDbEntity
  8
_U+30EC_U+30A4_U+30E4_U+30FC 1
100
AcDbBlockReference
  2
block 6
 10
0.0
 20
0.0
 30
0.0
  0
ENDBLK
  5
4D
330
4A
100
AcDbEntity
  8
0
100
AcDbBlockEnd
  0
BLOCK
  5
84
330
82
100
AcDbEntity
  8
0
100
AcDbBlockBegin
  2
block 4
 70
     0
 10
0.0
 20
0.0
 30
0.0
  3
block 4
  1

  0
SPLINE
  5
86
330
82
100
AcDbEntity
  8
_U+30EC_U+30A4_U+30E4_U+30FC 1
370
     0
100
AcDbSpline
210
0.0
220
0.0
230
1.0
 70
    11
 71
     3
 72
   197
 73
   193
 74
     0
 42
0.0000000001
 43
0.0000000001
 12
1.0
 22
0.0
 32
0.0
 13
1.0
 23
0.0
 33
0.0
 40
0.0
 40
0.0
 40
0.0
 40
0.0
 40
1.0
 40
1.0
 40
1.0
 40
2.0
 40
2.0
 40
2.0
 40
3.0
 40
3.0
 40
3.0
 40
4.0
 40
4.0
 40
4.0
 40
5.0
 40
5.0
 40
5.0
 40
6.0
 40
6.0
 40
6.0
 40
7.0
 40
7.0
 40
7.0
 40
8.0
 40
8.0
 40
8.0
 40
9.0
 40
9.0
 40
9.0
 40
10.0
 40
10.0
 40
10.0
 40
11.0
 40
11.0
 40
11.0
 40
12.0
 40
12.0
 40
12.0
 40
13.0
 40
13.0
 40
13.0
 40
14.0
 40
14.0
 40
14.0
 40
15.0
 40
15.0
 40
15.0
 40
16.0
 40
16.0
 40
16.0
 40
17.0
 40
17.0
 40
17.0
 40
18.0
 40
18.0
 40
18.0
 40
19.0
 40
19.0
 40
19.0
 40
20.0
 40
20.0
 40
20.0
 40
21.0
 40
21.0
 40
21.0
 40
22.0
 40
22.0
 40
22.0
 40
23.0
 40
23.0
 40
23.0
 40
24.0
 40
24.0
 40
24.0
 40
25.0
 40
25.0
 40
25.0
 40
26.0
 40
26.0
 40
26.0
 40
27.0
 40
27.0
 40
27.0
 40
28.0
 40
28.0
 40
28.0
 40
29.0
 40
29.0
 40
29.0
 40
30.0
 40
30.0
 40
30.0
 40
31.0
 40
31.0
 40
31.0
 40
32.0
 40
32.0
 40
32.0
 40
33.0
 40
33.0
 40
33.0
 40
34.0
 40
34.0
 40
34.0
 40
35.0
 40
35.0
 40
35.0
 40
36.0
 40
36.0
 40
36.0
 40
37.0
 40
37.0
 40
37.0
 40
38.0
 40
38.0
 40
38.0
 40
39.0
 40
39.0
 40
39.0
 40
40.0
 40
40.0
 40
40.0
 40
41.0
 40
41.0
 40
41.0
 40
42.0
 40
42.0
 40
42.0
 40
43.0
 40
43.0
 40
43.0
 40
44.0
 40
44.0
 40
44.0
 40
45.0
 40
45.0
 40
45.0
 40
46.0
 40
46.0
 40
46.0
 40
47.0
 40
47.0
 40
47.0
 40
48.0
 40
48.0
 40
48.0
 40
49.0
 40
49.0
 40
49.0
 40
50.0
 40
50.0
 40
50.0
 40
51.0
 40
51.0
 40
51.0
 40
52.0
 40
52.0
 40
52.0
 40
53.0
 40
53.0
 40
53.0
 40
54.0
 40
54.0
 40
54.0
 40
55.0
 40
55.0
 40
55.0
 40
56.0
 40
56.0
 40
56.0
 40
57.0
 40
57.0
 40
57.0
 40
58.0
 40
58.0
 40
58.0
 40
59.0
 40
59.0
 40
59.0
 40
60.0
 40
60.0
 40
60.0
 40
61.0
 40
61.0
 40
61.0
 40
62.0
 40
62.0
 40
62.0
 40
63.0
 40
63.0
 40
63.0
 40
64.0
 40
64.0
 40
64.0
 40
64.0
 10
89.72217201532987
 20
-115.2672105289089
 30
0.0
 10
89.7114922193256
 20
-115.2966660953078
 30
0.0
 10
89.6880655700259
 20
-115.3433471391329
 30
0.0
 10
89.67773028357016
 20
-115.3707356482407
 30
0.0
 10
89.67773028357016
 20
-115.3707356482407
 30
0.0
 10
89.61640758393271
 20
-115.523181123463
 30
0.0
 10
89.61640758393271
 20
-115.523181123463
 30
0.0
 10
89.60572778792843
 20
-115.5485025752795
 30
0.0
 10
89.55715194158641
 20
-115.6606404333244
 30
0.0
 10
89.54440508829099
 20
-115.6838948278499
 30
0.0
 10
89.54233803099983
 20
-115.6902682544976
 30
0.0
 10
89.53785940686902
 20
-115.6987087384364
 30
0.0
 10
89.53579234957786
 20
-115.7050821650841
 30
0.0
 10
89.53579234957786
 20
-115.7050821650841
 30
0.0
 10
89.32633054407466
 20
-115.6521999493856
 30
0.0
 10
89.32633054407466
 20
-115.6521999493856
 30
0.0
 10
89.40487872113837
 20
-115.5421291486318
 30
0.0
 10
89.46620142077582
 20
-115.4067368960615
 30
0.0
 10
89.49789629924011
 20
-115.2966660953078
 30
0.0
 10
89.49789629924011
 20
-115.2966660953078
 30
0.0
 10
89.03246389918286
 20
-115.2966660953078
 30
0.0
 10
89.03246389918286
 20
-115.2966660953078
 30
0.0
 10
88.95184866482802
 20
-115.4616861690512
 30
0.0
 10
88.88432479331712
 20
-115.5400620913407
 30
0.0
 10
88.85056285756167
 20
-115.5801974537438
 30
0.0
 10
88.85056285756167
 20
-115.5801974537438
 30
0.0
 10
88.72791745828677
 20
-115.5145683847498
 30
0.0
 10
88.72791745828677
 20
-115.5145683847498
 30
0.0
 10
88.72791745828677
 20
-115.5145683847498
 30
0.0
 10
88.72791745828677
 20
-115.685961885141
 30
0.0
 10
88.72791745828677
 20
-115.685961885141
 30
0.0
 10
88.72791745828677
 20
-115.7939656286036
 30
0.0
 10
88.72998451557793
 20
-115.8425414749456
 30
0.0
 10
88.74031980203367
 20
-115.9483059063428
 30
0.0
 10
88.66866181594048
 20
-115.9462388490516
 30
0.0
 10
88.64730222393193
 20
-115.9462388490516
 30
0.0
 10
88.44231904255956
 20
-115.9462388490516
 30
0.0
 10
88.44231904255956
 20
-115.9462388490516
 30
0.0
 10
88.38719751479556
 20
-115.9462388490516
 30
0.0
 10
88.38719751479556
 20
-115.9462388490516
 30
0.0
 10
88.38719751479556
 20
-115.9462388490516
 30
0.0
 10
88.38719751479556
 20
-116.081631101622
 30
0.0
 10
88.38719751479556
 20
-116.081631101622
 30
0.0
 10
88.38719751479556
 20
-116.081631101622
 30
0.0
 10
88.45920001043729
 20
-116.081631101622
 30
0.0
 10
88.45920001043729
 20
-116.081631101622
 30
0.0
 10
88.52465682465703
 20
-116.081631101622
 30
0.0
 10
88.67072887323162
 20
-116.0773247322654
 30
0.0
 10
88.7764933046288
 20
-116.0688842483265
 30
0.0
 10
88.7764933046288
 20
-116.0688842483265
 30
0.0
 10
88.7764933046288
 20
-116.2466511753654
 30
0.0
 10
88.7764933046288
 20
-116.2466511753654
 30
0.0
 10
88.67899710239622
 20
-116.2402777487177
 30
0.0
 10
88.52052271007473
 20
-116.2359713793611
 30
0.0
 10
88.45920001043729
 20
-116.2359713793611
 30
0.0
 10
88.45920001043729
 20
-116.2359713793611
 30
0.0
 10
88.38719751479556
 20
-116.2359713793611
 30
0.0
 10
88.38719751479556
 20
-116.2359713793611
 30
0.0
 10
88.38926457208672
 20
-116.3248548428806
 30
0.0
 10
88.39339868666902
 20
-116.5639444695569
 30
0.0
 10
88.39546574396016
 20
-116.6380140224898
 30
0.0
 10
88.39546574396016
 20
-116.6380140224898
 30
0.0
 10
88.1946166771701
 20
-116.6380140224898
 30
0.0
 10
88.1946166771701
 20
-116.6380140224898
 30
0.0
 10
88.20736353046553
 20
-116.4242458476301
 30
0.0
 10
88.20736353046553
 20
-116.3946180264569
 30
0.0
 10
88.21149764504783
 20
-116.2359713793611
 30
0.0
 10
88.21149764504783
 20
-116.2359713793611
 30
0.0
 10
88.14190671624577
 20
-116.2359713793611
 30
0.0
 10
88.14190671624577
 20
-116.2359713793611
 30
0.0
 10
88.08471813119063
 20
-116.2359713793611
 30
0.0
 10
87.93244491074259
 20
-116.2402777487177
 30
0.0
 10
87.82220185521459
 20
-116.2466511753654
 30
0.0
 10
87.82220185521459
 20
-116.2466511753654
 30
0.0
 10
87.82220185521459
 20
-116.0688842483265
 30
0.0
 10
87.82220185521459
 20
-116.0688842483265
 30
0.0
 10
87.92796628661176
 20
-116.0773247322654
 30
0.0
 10
88.0719712778952
 20
-116.081631101622
 30
0.0
 10
88.14190671624577
 20
-116.081631101622
 30
0.0
 10
88.14190671624577
 20
-116.081631101622
 30
0.0
 10
88.21563175963013
 20
-116.081631101622
 30
0.0
 10
88.21563175963013
 20
-116.081631101622
 30
0.0
 10
88.21563175963013
 20
-116.081631101622
 30
0.0
 10
88.21563175963013
 20
-115.9462388490516
 30
0.0
 10
88.21563175963013
 20
-115.9462388490516
 30
0.0
 10
88.21563175963013
 20
-115.9462388490516
 30
0.0
 10
88.17153453741892
 20
-115.9462388490516
 30
0.0
 10
88.17153453741892
 20
-115.9462388490516
 30
0.0
 10
88.09505341764638
 20
-115.9462388490516
 30
0.0
 10
87.90281708956944
 20
-115.9483059063428
 30
0.0
 10
87.86871064426546
 20
-115.9483059063428
 30
0.0
 10
87.87525632568745
 20
-115.8764756654753
 30
0.0
 10
87.88352455485204
 20
-115.7960326858947
 30
0.0
 10
87.88352455485204
 20
-115.675454343911
 30
0.0
 10
87.88352455485204
 20
-115.675454343911
 30
0.0
 10
87.88352455485204
 20
-115.5019937862287
 30
0.0
 10
87.88352455485204
 20
-115.5019937862287
 30
0.0
 10
87.88352455485204
 20
-115.429991290587
 30
0.0
 10
87.87525632568745
 20
-115.3094129486032
 30
0.0
 10
87.86871064426546
 20
-115.2291422237969
 30
0.0
 10
87.94725882132916
 20
-115.2332763383792
 30
0.0
 10
87.98515487166691
 20
-115.2353433956703
 30
0.0
 10
88.11227889507263
 20
-115.2353433956703
 30
0.0
 10
88.11227889507263
 20
-115.2353433956703
 30
0.0
 10
88.21563175963013
 20
-115.2353433956703
 30
0.0
 10
88.21563175963013
 20
-115.2353433956703
 30
0.0
 10
88.21563175963013
 20
-115.2353433956703
 30
0.0
 10
88.21563175963013
 20
-115.08944360187
 30
0.0
 10
88.21563175963013
 20
-115.08944360187
 30
0.0
 10
88.21563175963013
 20
-115.08944360187
 30
0.0
 10
88.13742809211496
 20
-115.08944360187
 30
0.0
 10
88.13742809211496
 20
-115.08944360187
 30
0.0
 10
88.08265107389948
 20
-115.08944360187
 30
0.0
 10
87.91108531873404
 20
-115.0937499712266
 30
0.0
 10
87.82668047934541
 20
-115.0999511431
 30
0.0
 10
87.82668047934541
 20
-115.0999511431
 30
0.0
 10
87.82668047934541
 20
-114.9223564708354
 30
0.0
 10
87.82668047934541
 20
-114.9223564708354
 30
0.0
 10
87.9090182614429
 20
-114.9287298974831
 30
0.0
 10
88.0719712778952
 20
-114.9328640120654
 30
0.0
 10
88.13742809211496
 20
-114.9328640120654
 30
0.0
 10
88.13742809211496
 20
-114.9328640120654
 30
0.0
 10
88.21563175963013
 20
-114.9328640120654
 30
0.0
 10
88.21563175963013
 20
-114.9328640120654
 30
0.0
 10
88.21563175963013
 20
-114.89910207631
 30
0.0
 10
88.21149764504783
 20
-114.7445895437965
 30
0.0
 10
88.21149764504783
 20
-114.7128946653322
 30
0.0
 10
88.21149764504783
 20
-114.7128946653322
 30
0.0
 10
88.40821259725558
 20
-114.7297756332099
 30
0.0
 10
88.40821259725558
 20
-114.7297756332099
 30
0.0
 10
88.42509356513331
 20
-114.7318426905011
 30
0.0
 10
88.44645315714186
 20
-114.7340820025665
 30
0.0
 10
88.44645315714186
 20
-114.7550970850265
 30
0.0
 10
88.44645315714186
 20
-114.7785237343262
 30
0.0
 10
88.42509356513331
 20
-114.7869642182651
 30
0.0
 10
88.39787731079984
 20
-114.7995388167862
 30
0.0
 10
88.39787731079984
 20
-114.8207261540205
 30
0.0
 10
88.39546574396016
 20
-114.9159830441877
 30
0.0
 10
88.39546574396016
 20
-114.9328640120654
 30
0.0
 10
88.39546574396016
 20
-114.9328640120654
 30
0.0
 10
88.45472138630646
 20
-114.9328640120654
 30
0.0
 10
88.45472138630646
 20
-114.9328640120654
 30
0.0
 10
88.52258976736589
 20
-114.9328640120654
 30
0.0
 10
88.6662502491008
 20
-114.9287298974831
 30
0.0
 10
88.77201468049797
 20
-114.9223564708354
 30
0.0
 10
88.77201468049797
 20
-114.9223564708354
 30
0.0
 10
88.77201468049797
 20
-115.0999511431
 30
0.0
 10
88.77201468049797
 20
-115.0999511431
 30
0.0
 10
88.67486298781392
 20
-115.0937499712266
 30
0.0
 10
88.51845565278359
 20
-115.08944360187
 30
0.0
 10
88.45472138630646
 20
-115.08944360187
 30
0.0
 10
88.45472138630646
 20
-115.08944360187
 30
0.0
 10
88.38719751479556
 20
-115.08944360187
 30
0.0
 10
88.38719751479556
 20
-115.08944360187
 30
0.0
 10
88.38719751479556
 20
-115.08944360187
 30
0.0
 10
88.38719751479556
 20
-115.2353433956703
 30
0.0
 10
88.38719751479556
 20
-115.2353433956703
 30
0.0
 10
88.38719751479556
 20
-115.2353433956703
 30
0.0
 10
88.45713295314614
 20
-115.2353433956703
 30
0.0
 10
88.45713295314614
 20
-115.2353433956703
 30
0.0
 10
88.60699460675451
 20
-115.2353433956703
 30
0.0
 10
88.67899710239622
 20
-115.231209281088
 30
0.0
 10
88.74031980203367
 20
-115.2291422237969
 30
0.0
 10
88.73205157286907
 20
-115.3242268591898
 30
0.0
 10
88.72998451557793
 20
-115.4026027814792
 30
0.0
 10
88.72791745828677
 20
-115.4406710865912
 30
0.0
 10
88.88225773602596
 20
-115.2291422237969
 30
0.0
 10
88.98802216742314
 20
-114.9816121131817
 30
0.0
 10
89.00490313530086
 20
-114.7192680919799
 30
0.0
 10
89.00490313530086
 20
-114.7192680919799
 30
0.0
 10
89.2205661126775
 20
-114.7699109956131
 30
0.0
 10
89.2205661126775
 20
-114.7699109956131
 30
0.0
 10
89.23538002326407
 20
-114.7742173649696
 30
0.0
 10
89.25019393385065
 20
-114.7805907916174
 30
0.0
 10
89.25019393385065
 20
-114.7974717594951
 30
0.0
 10
89.25019393385065
 20
-114.8143527273728
 30
0.0
 10
89.24605981926835
 20
-114.8165920394382
 30
0.0
 10
89.19541691563518
 20
-114.8376071218982
 30
0.0
 10
89.17819143820893
 20
-114.9139159868965
 30
0.0
 10
89.1530422411666
 20
-115.0048665077071
 30
0.0
 10
89.10446639482458
 20
-115.1318182763386
 30
0.0
 10
89.10446639482458
 20
-115.1318182763386
 30
0.0
 10
89.44277477147611
 20
-115.1318182763386
 30
0.0
 10
89.44277477147611
 20
-115.1318182763386
 30
0.0
 10
89.48101533136239
 20
-115.1318182763386
 30
0.0
 10
89.60986190251073
 20
-115.127511906982
 30
0.0
 10
89.65843774885276
 20
-115.1211384803343
 30
0.0
 10
89.65843774885276
 20
-115.1211384803343
 30
0.0
 10
89.75179983650303
 20
-115.1909016639106
 30
0.0
 10
89.75179983650303
 20
-115.1909016639106
 30
0.0
 10
89.7431870977899
 20
-115.2120890011449
 30
0.0
 10
89.73698592591646
 20
-115.231209281088
 30
0.0
 10
89.72217201532987
 20
-115.2672105289089
 30
0.0
  0
POLYLINE
  5
87
330
82
100
AcDbEntity
  8
_U+30EC_U+30A4_U+30E4_U+30FC 1
370
     0
100
AcDb2dPolyline
 66
     1
 10
0.0
 20
0.0
 30
0.0
  0
VERTEX
  5
88
330
87
100
AcDbEntity
  8
_U+30EC_U+30A4_U+30E4_U+30FC 1
370
     0
100
AcDbVertex
100
AcDb2dVertex
 10
88.21563175963013
 20
-115.3919229854749
 30
0.0
  0
VERTEX
  5
89
330
87
100
AcDbEntity
  8
_U+30EC_U+30A4_U+30E4_U+30FC 1
370
     0
100
AcDbVertex
100
AcDb2dVertex
 10
88.05715736730863
 20
-115.3919229854749
 30
0.0
  0
VERTEX
  5
8A
330
87
100
AcDbEntity
  8
_U+30EC_U+30A4_U+30E4_U+30FC 1
370
     0
100
AcDbVertex
100
AcDb2dVertex
 10
88.05715736730863
 20
-115.5209418113975
 30
0.0
  0
VERTEX
  5
8B
330
87
100
AcDbEntity
  8
_U+30EC_U+30A4_U+30E4_U+30FC 1
370
     0
100
AcDbVertex
100
AcDb2dVertex
 10
88.21563175963013
 20
-115.5209418113975
 30
0.0
  0
VERTEX
  5
8C
330
87
100
AcDbEntity
  8
_U+30EC_U+30A4_U+30E4_U+30FC 1
370
     0
100
AcDbVertex
100
AcDb2dVertex
 10
88.21563175963013
 20
-115.3919229854749
 30
0.0
  0
SEQEND
  5
8D
330
87
100
AcDbEntity
  8
_U+30EC_U+30A4_U+30E4_U+30FC 1
370
     0
  0
POLYLINE
  5
8E
330
82
100
AcDbEntity
  8
_U+30EC_U+30A4_U+30E4_U+30FC 1
370
     0
100
AcDb2dPolyline
 66
     1
 10
0.0
 20
0.0
 30
0.0
  0
VERTEX
  5
8F
330
8E
100
AcDbEntity
  8
_U+30EC_U+30A4_U+30E4_U+30FC 1
370
     0
100
AcDbVertex
100
AcDb2dVertex
 10
88.21563175963013
 20
-115.6647745479067
 30
0.0
  0
VERTEX
  5
90
330
8E
100
AcDbEntity
  8
_U+30EC_U+30A4_U+30E4_U+30FC 1
370
     0
100
AcDbVertex
100
AcDb2dVertex
 10
88.05715736730863
 20
-115.6647745479067
 30
0.0
  0
VERTEX
  5
91
330
8E
100
AcDbEntity
  8
_U+30EC_U+30A4_U+30E4_U+30FC 1
370
     0
100
AcDbVertex
100
AcDb2dVertex
 10
88.05715736730863
 20
-115.7939656286036
 30
0.0
  0
VERTEX
  5
92
330
8E
100
AcDbEntity
  8
_U+30EC_U+30A4_U+30E4_U+30FC 1
370
     0
100
AcDbVertex
100
AcDb2dVertex
 10
88.21563175963013
 20
-115.7939656286036
 30
0.0
  0
VERTEX
  5
93
330
8E
100
AcDbEntity
  8
_U+30EC_U+30A4_U+30E4_U+30FC 1
370
     0
100
AcDbVertex
100
AcDb2dVertex
 10
88.21563175963013
 20
-115.6647745479067
 30
0.0
  0
SEQEND
  5
94
330
8E
100
AcDbEntity
  8
_U+30EC_U+30A4_U+30E4_U+30FC 1
370
     0
  0
POLYLINE
  5
95
330
82
100
AcDbEntity
  8
_U+30EC_U+30A4_U+30E4_U+30FC 1
370
     0
100
AcDb2dPolyline
 66
     1
 10
0.0
 20
0.0
 30
0.0
  0
VERTEX
  5
96
330
95
100
AcDbEntity
  8
_U+30EC_U+30A4_U+30E4_U+30FC 1
370
     0
100
AcDbVertex
100
AcDb2dVertex
 10
88.54808347395674
 20
-115.3919229854749
 30
0.0
  0
VERTEX
  5
97
330
95
100
AcDbEntity
  8
_U+30EC_U+30A4_U+30E4_U+30FC 1
370
     0
100
AcDbVertex
100
AcDb2dVertex
 10
88.38719751479556
 20
-115.3919229854749
 30
0.0
  0
VERTEX
  5
98
330
95
100
AcDbEntity
  8
_U+30EC_U+30A4_U+30E4_U+30FC 1
370
     0
100
AcDbVertex
100
AcDb2dVertex
 10
88.38719751479556
 20
-115.5209418113975
 30
0.0
  0
VERTEX
  5
99
330
95
100
AcDbEntity
  8
_U+30EC_U+30A4_U+30E4_U+30FC 1
370
     0
100
AcDbVertex
100
AcDb2dVertex
 10
88.54808347395674
 20
-115.5209418113975
 30
0.0
  0
VERTEX
  5
9A
330
95
100
AcDbEntity
  8
_U+30EC_U+30A4_U+30E4_U+30FC 1
370
     0
100
AcDbVertex
100
AcDb2dVertex
 10
88.54808347395674
 20
-115.3919229854749
 30
0.0
  0
SEQEND
  5
9B
330
95
100
AcDbEntity
  8
_U+30EC_U+30A4_U+30E4_U+30FC 1
370
     0
  0
POLYLINE
  5
9C
330
82
100
AcDbEntity
  8
_U+30EC_U+30A4_U+30E4_U+30FC 1
370
     0
100
AcDb2dPolyline
 66
     1
 10
0.0
 20
0.0
 30
0.0
  0
VERTEX
  5
9D
330
9C
100
AcDbEntity
  8
_U+30EC_U+30A4_U+30E4_U+30FC 1
370
     0
100
AcDbVertex
100
AcDb2dVertex
 10
88.54808347395674
 20
-115.6647745479067
 30
0.0
  0
VERTEX
  5
9E
330
9C
100
AcDbEntity
  8
_U+30EC_U+30A4_U+30E4_U+30FC 1
370
     0
100
AcDbVertex
100
AcDb2dVertex
 10
88.38719751479556
 20
-115.6647745479067
 30
0.0
  0
VERTEX
  5
9F
330
9C
100
AcDbEntity
  8
_U+30EC_U+30A4_U+30E4_U+30FC 1
370
     0
100
AcDbVertex
100
AcDb2dVertex
 10
88.38719751479556
 20
-115.7939656286036
 30
0.0
  0
VERTEX
  5
A0
330
9C
100
AcDbEntity
  8
_U+30EC_U+30A4_U+30E4_U+30FC 1
370
     0
100
AcDbVertex
100
AcDb2dVertex
 10
88.54808347395674
 20
-115.7939656286036
 30
0.0
  0
VERTEX
  5
A1
330
9C
100
AcDbEntity
  8
_U+30EC_U+30A4_U+30E4_U+30FC 1
370
     0
100
AcDbVertex
100
AcDb2dVertex
 10
88.54808347395674
 20
-115.6647745479067
 30
0.0
  0
SEQEND
  5
A2
330
9C
100
AcDbEntity
  8
_U+30EC_U+30A4_U+30E4_U+30FC 1
370
     0
  0
SPLINE
  5
A3
330
82
100
AcDbEntity
  8
_U+30EC_U+30A4_U+30E4_U+30FC 1
370
     0
100
AcDbSpline
210
0.0
220
0.0
230
1.0
 70
    11
 71
     3
 72
    41
 73
    37
 74
     0
 42
0.0000000001
 43
0.0000000001
 12
1.0
 22
0.0
 32
0.0
 13
1.0
 23
0.0
 33
0.0
 40
0.0
 40
0.0
 40
0.0
 40
0.0
 40
1.0
 40
1.0
 40
1.0
 40
2.0
 40
2.0
 40
2.0
 40
3.0
 40
3.0
 40
3.0
 40
4.0
 40
4.0
 40
4.0
 40
5.0
 40
5.0
 40
5.0
 40
6.0
 40
6.0
 40
6.0
 40
7.0
 40
7.0
 40
7.0
 40
8.0
 40
8.0
 40
8.0
 40
9.0
 40
9.0
 40
9.0
 40
10.0
 40
10.0
 40
10.0
 40
11.0
 40
11.0
 40
11.0
 40
12.0
 40
12.0
 40
12.0
 40
12.0
 10
89.63742266639274
 20
-116.6232001119032
 30
0.0
 10
89.39626598242525
 20
-116.4878078593329
 30
0.0
 10
89.21849905538635
 20
-116.1915296476014
 30
0.0
 10
89.17819143820893
 20
-116.0625108216788
 30
0.0
 10
89.05761309622518
 20
-116.3269219001717
 30
0.0
 10
88.89500458932139
 20
-116.5046888272106
 30
0.0
 10
88.7131035477002
 20
-116.6188937425467
 30
0.0
 10
88.7131035477002
 20
-116.6188937425467
 30
0.0
 10
88.5160440859439
 20
-116.4814344326852
 30
0.0
 10
88.5160440859439
 20
-116.4814344326852
 30
0.0
 10
88.58597952429449
 20
-116.4561129808686
 30
0.0
 10
88.73205157286907
 20
-116.3946180264569
 30
0.0
 10
88.85469697214397
 20
-116.2402777487177
 30
0.0
 10
88.97940942871001
 20
-116.0836981589131
 30
0.0
 10
89.06829289222946
 20
-115.8509819588845
 30
0.0
 10
89.06829289222946
 20
-115.5908772497481
 30
0.0
 10
89.06829289222946
 20
-115.4892469329333
 30
0.0
 10
89.05554603893404
 20
-115.4174166920658
 30
0.0
 10
89.04521075247828
 20
-115.3707356482407
 30
0.0
 10
89.04521075247828
 20
-115.3707356482407
 30
0.0
 10
89.25019393385065
 20
-115.3919229854749
 30
0.0
 10
89.25019393385065
 20
-115.3919229854749
 30
0.0
 10
89.2715535258592
 20
-115.3939900427661
 30
0.0
 10
89.29256860831923
 20
-115.3962293548315
 30
0.0
 10
89.29256860831923
 20
-115.4174166920658
 30
0.0
 10
89.29256860831923
 20
-115.4363647172347
 30
0.0
 10
89.28188881231495
 20
-115.4448052011735
 30
0.0
 10
89.2481268765595
 20
-115.4659925384078
 30
0.0
 10
89.2398586473949
 20
-115.6670138599721
 30
0.0
 10
89.29670272290153
 20
-115.9102376012308
 30
0.0
 10
89.35802542253897
 20
-116.0308159432145
 30
0.0
 10
89.44897594334957
 20
-116.206343558188
 30
0.0
 10
89.64362383826618
 20
-116.386177542518
 30
0.0
 10
89.7790160908365
 20
-116.4433661275732
 30
0.0
 10
89.7790160908365
 20
-116.4433661275732
 30
0.0
 10
89.63742266639274
 20
-116.6232001119032
 30
0.0
 10
89.63742266639274
 20
-116.6232001119032
 30
0.0
  0
HATCH
  5
A4
330
82
100
AcDbEntity
  8
_U+30EC_U+30A4_U+30E4_U+30FC 1
 62
   179
420
  2234388
100
AcDbHatch
 10
0.0
 20
0.0
 30
0.0
210
0.0
220
0.0
230
1.0
  2
SOLID
 70
     1
 71
     0
 91
        6
 92
        1
 93
        1
 72
     4
 94
        3
 73
     0
 74
     1
 95
      197
 96
      193
 40
0.0
 40
0.0
 40
0.0
 40
0.0
 40
1.0
 40
1.0
 40
1.0
 40
2.0
 40
2.0
 40
2.0
 40
3.0
 40
3.0
 40
3.0
 40
4.0
 40
4.0
 40
4.0
 40
5.0
 40
5.0
 40
5.0
 40
6.0
 40
6.0
 40
6.0
 40
7.0
 40
7.0
 40
7.0
 40
8.0
 40
8.0
 40
8.0
 40
9.0
 40
9.0
 40
9.0
 40
10.0
 40
10.0
 40
10.0
 40
11.0
 40
11.0
 40
11.0
 40
12.0
 40
12.0
 40
12.0
 40
13.0
 40
13.0
 40
13.0
 40
14.0
 40
14.0
 40
14.0
 40
15.0
 40
15.0
 40
15.0
 40
16.0
 40
16.0
 40
16.0
 40
17.0
 40
17.0
 40
17.0
 40
18.0
 40
18.0
 40
18.0
 40
19.0
 40
19.0
 40
19.0
 40
20.0
 40
20.0
 40
20.0
 40
21.0
 40
21.0
 40
21.0
 40
22.0
 40
22.0
 40
22.0
 40
23.0
 40
23.0
 40
23.0
 40
24.0
 40
24.0
 40
24.0
 40
25.0
 40
25.0
 40
25.0
 40
26.0
 40
26.0
 40
26.0
 40
27.0
 40
27.0
 40
27.0
 40
28.0
 40
28.0
 40
28.0
 40
29.0
 40
29.0
 40
29.0
 40
30.0
 40
30.0
 40
30.0
 40
31.0
 40
31.0
 40
31.0
 40
32.0
 40
32.0
 40
32.0
 40
33.0
 40
33.0
 40
33.0
 40
34.0
 40
34.0
 40
34.0
 40
35.0
 40
35.0
 40
35.0
 40
36.0
 40
36.0
 40
36.0
 40
37.0
 40
37.0
 40
37.0
 40
38.0
 40
38.0
 40
38.0
 40
39.0
 40
39.0
 40
39.0
 40
40.0
 40
40.0
 40
40.0
 40
41.0
 40
41.0
 40
41.0
 40
42.0
 40
42.0
 40
42.0
 40
43.0
 40
43.0
 40
43.0
 40
44.0
 40
44.0
 40
44.0
 40
45.0
 40
45.0
 40
45.0
 40
46.0
 40
46.0
 40
46.0
 40
47.0
 40
47.0
 40
47.0
 40
48.0
 40
48.0
 40
48.0
 40
49.0
 40
49.0
 40
49.0
 40
50.0
 40
50.0
 40
50.0
 40
51.0
 40
51.0
 40
51.0
 40
52.0
 40
52.0
 40
52.0
 40
53.0
 40
53.0
 40
53.0
 40
54.0
 40
54.0
 40
54.0
 40
55.0
 40
55.0
 40
55.0
 40
56.0
 40
56.0
 40
56.0
 40
57.0
 40
57.0
 40
57.0
 40
58.0
 40
58.0
 40
58.0
 40
59.0
 40
59.0
 40
59.0
 40
60.0
 40
60.0
 40
60.0
 40
61.0
 40
61.0
 40
61.0
 40
62.0
 40
62.0
 40
62.0
 40
63.0
 40
63.0
 40
63.0
 40
64.0
 40
64.0
 40
64.0
 40
64.0
 10
89.72217201532987
 20
-115.2672105289089
 10
89.7114922193256
 20
-115.2966660953078
 10
89.6880655700259
 20
-115.3433471391329
 10
89.67773028357016
 20
-115.3707356482407
 10
89.67773028357016
 20
-115.3707356482407
 10
89.61640758393271
 20
-115.523181123463
 10
89.61640758393271
 20
-115.523181123463
 10
89.60572778792843
 20
-115.5485025752795
 10
89.55715194158641
 20
-115.6606404333244
 10
89.54440508829099
 20
-115.6838948278499
 10
89.54233803099983
 20
-115.6902682544976
 10
89.53785940686902
 20
-115.6987087384364
 10
89.53579234957786
 20
-115.7050821650841
 10
89.53579234957786
 20
-115.7050821650841
 10
89.32633054407466
 20
-115.6521999493856
 10
89.32633054407466
 20
-115.6521999493856
 10
89.40487872113837
 20
-115.5421291486318
 10
89.46620142077582
 20
-115.4067368960615
 10
89.49789629924011
 20
-115.2966660953078
 10
89.49789629924011
 20
-115.2966660953078
 10
89.03246389918286
 20
-115.2966660953078
 10
89.03246389918286
 20
-115.2966660953078
 10
88.95184866482802
 20
-115.4616861690512
 10
88.88432479331712
 20
-115.5400620913407
 10
88.85056285756167
 20
-115.5801974537438
 10
88.85056285756167
 20
-115.5801974537438
 10
88.72791745828677
 20
-115.5145683847498
 10
88.72791745828677
 20
-115.5145683847498
 10
88.72791745828677
 20
-115.5145683847498
 10
88.72791745828677
 20
-115.685961885141
 10
88.72791745828677
 20
-115.685961885141
 10
88.72791745828677
 20
-115.7939656286036
 10
88.72998451557793
 20
-115.8425414749456
 10
88.74031980203367
 20
-115.9483059063428
 10
88.66866181594048
 20
-115.9462388490516
 10
88.64730222393193
 20
-115.9462388490516
 10
88.44231904255956
 20
-115.9462388490516
 10
88.44231904255956
 20
-115.9462388490516
 10
88.38719751479556
 20
-115.9462388490516
 10
88.38719751479556
 20
-115.9462388490516
 10
88.38719751479556
 20
-115.9462388490516
 10
88.38719751479556
 20
-116.081631101622
 10
88.38719751479556
 20
-116.081631101622
 10
88.38719751479556
 20
-116.081631101622
 10
88.45920001043729
 20
-116.081631101622
 10
88.45920001043729
 20
-116.081631101622
 10
88.52465682465703
 20
-116.081631101622
 10
88.67072887323162
 20
-116.0773247322654
 10
88.7764933046288
 20
-116.0688842483265
 10
88.7764933046288
 20
-116.0688842483265
 10
88.7764933046288
 20
-116.2466511753654
 10
88.7764933046288
 20
-116.2466511753654
 10
88.67899710239622
 20
-116.2402777487177
 10
88.52052271007473
 20
-116.2359713793611
 10
88.45920001043729
 20
-116.2359713793611
 10
88.45920001043729
 20
-116.2359713793611
 10
88.38719751479556
 20
-116.2359713793611
 10
88.38719751479556
 20
-116.2359713793611
 10
88.38926457208672
 20
-116.3248548428806
 10
88.39339868666902
 20
-116.5639444695569
 10
88.39546574396016
 20
-116.6380140224898
 10
88.39546574396016
 20
-116.6380140224898
 10
88.1946166771701
 20
-116.6380140224898
 10
88.1946166771701
 20
-116.6380140224898
 10
88.20736353046553
 20
-116.4242458476301
 10
88.20736353046553
 20
-116.3946180264569
 10
88.21149764504783
 20
-116.2359713793611
 10
88.21149764504783
 20
-116.2359713793611
 10
88.14190671624577
 20
-116.2359713793611
 10
88.14190671624577
 20
-116.2359713793611
 10
88.08471813119063
 20
-116.2359713793611
 10
87.93244491074259
 20
-116.2402777487177
 10
87.82220185521459
 20
-116.2466511753654
 10
87.82220185521459
 20
-116.2466511753654
 10
87.82220185521459
 20
-116.0688842483265
 10
87.82220185521459
 20
-116.0688842483265
 10
87.92796628661176
 20
-116.0773247322654
 10
88.0719712778952
 20
-116.081631101622
 10
88.14190671624577
 20
-116.081631101622
 10
88.14190671624577
 20
-116.081631101622
 10
88.21563175963013
 20
-116.081631101622
 10
88.21563175963013
 20
-116.081631101622
 10
88.21563175963013
 20
-116.081631101622
 10
88.21563175963013
 20
-115.9462388490516
 10
88.21563175963013
 20
-115.9462388490516
 10
88.21563175963013
 20
-115.9462388490516
 10
88.17153453741892
 20
-115.9462388490516
 10
88.17153453741892
 20
-115.9462388490516
 10
88.09505341764638
 20
-115.9462388490516
 10
87.90281708956944
 20
-115.9483059063428
 10
87.86871064426546
 20
-115.9483059063428
 10
87.87525632568745
 20
-115.8764756654753
 10
87.88352455485204
 20
-115.7960326858947
 10
87.88352455485204
 20
-115.675454343911
 10
87.88352455485204
 20
-115.675454343911
 10
87.88352455485204
 20
-115.5019937862287
 10
87.88352455485204
 20
-115.5019937862287
 10
87.88352455485204
 20
-115.429991290587
 10
87.87525632568745
 20
-115.3094129486032
 10
87.86871064426546
 20
-115.2291422237969
 10
87.94725882132916
 20
-115.2332763383792
 10
87.98515487166691
 20
-115.2353433956703
 10
88.11227889507263
 20
-115.2353433956703
 10
88.11227889507263
 20
-115.2353433956703
 10
88.21563175963013
 20
-115.2353433956703
 10
88.21563175963013
 20
-115.2353433956703
 10
88.21563175963013
 20
-115.2353433956703
 10
88.21563175963013
 20
-115.08944360187
 10
88.21563175963013
 20
-115.08944360187
 10
88.21563175963013
 20
-115.08944360187
 10
88.13742809211496
 20
-115.08944360187
 10
88.13742809211496
 20
-115.08944360187
 10
88.08265107389948
 20
-115.08944360187
 10
87.91108531873404
 20
-115.0937499712266
 10
87.82668047934541
 20
-115.0999511431
 10
87.82668047934541
 20
-115.0999511431
 10
87.82668047934541
 20
-114.9223564708354
 10
87.82668047934541
 20
-114.9223564708354
 10
87.9090182614429
 20
-114.9287298974831
 10
88.0719712778952
 20
-114.9328640120654
 10
88.13742809211496
 20
-114.9328640120654
 10
88.13742809211496
 20
-114.9328640120654
 10
88.21563175963013
 20
-114.9328640120654
 10
88.21563175963013
 20
-114.9328640120654
 10
88.21563175963013
 20
-114.89910207631
 10
88.21149764504783
 20
-114.7445895437965
 10
88.21149764504783
 20
-114.7128946653322
 10
88.21149764504783
 20
-114.7128946653322
 10
88.40821259725558
 20
-114.7297756332099
 10
88.40821259725558
 20
-114.7297756332099
 10
88.42509356513331
 20
-114.7318426905011
 10
88.44645315714186
 20
-114.7340820025665
 10
88.44645315714186
 20
-114.7550970850265
 10
88.44645315714186
 20
-114.7785237343262
 10
88.42509356513331
 20
-114.7869642182651
 10
88.39787731079984
 20
-114.7995388167862
 10
88.39787731079984
 20
-114.8207261540205
 10
88.39546574396016
 20
-114.9159830441877
 10
88.39546574396016
 20
-114.9328640120654
 10
88.39546574396016
 20
-114.9328640120654
 10
88.45472138630646
 20
-114.9328640120654
 10
88.45472138630646
 20
-114.9328640120654
 10
88.52258976736589
 20
-114.9328640120654
 10
88.6662502491008
 20
-114.9287298974831
 10
88.77201468049797
 20
-114.9223564708354
 10
88.77201468049797
 20
-114.9223564708354
 10
88.77201468049797
 20
-115.0999511431
 10
88.77201468049797
 20
-115.0999511431
 10
88.67486298781392
 20
-115.0937499712266
 10
88.51845565278359
 20
-115.08944360187
 10
88.45472138630646
 20
-115.08944360187
 10
88.45472138630646
 20
-115.08944360187
 10
88.38719751479556
 20
-115.08944360187
 10
88.38719751479556
 20
-115.08944360187
 10
88.38719751479556
 20
-115.08944360187
 10
88.38719751479556
 20
-115.2353433956703
 10
88.38719751479556
 20
-115.2353433956703
 10
88.38719751479556
 20
-115.2353433956703
 10
88.45713295314614
 20
-115.2353433956703
 10
88.45713295314614
 20
-115.2353433956703
 10
88.60699460675451
 20
-115.2353433956703
 10
88.67899710239622
 20
-115.231209281088
 10
88.74031980203367
 20
-115.2291422237969
 10
88.73205157286907
 20
-115.3242268591898
 10
88.72998451557793
 20
-115.4026027814792
 10
88.72791745828677
 20
-115.4406710865912
 10
88.88225773602596
 20
-115.2291422237969
 10
88.98802216742314
 20
-114.9816121131817
 10
89.00490313530086
 20
-114.7192680919799
 10
89.00490313530086
 20
-114.7192680919799
 10
89.2205661126775
 20
-114.7699109956131
 10
89.2205661126775
 20
-114.7699109956131
 10
89.23538002326407
 20
-114.7742173649696
 10
89.25019393385065
 20
-114.7805907916174
 10
89.25019393385065
 20
-114.7974717594951
 10
89.25019393385065
 20
-114.8143527273728
 10
89.24605981926835
 20
-114.8165920394382
 10
89.19541691563518
 20
-114.8376071218982
 10
89.17819143820893
 20
-114.9139159868965
 10
89.1530422411666
 20
-115.0048665077071
 10
89.10446639482458
 20
-115.1318182763386
 10
89.10446639482458
 20
-115.1318182763386
 10
89.44277477147611
 20
-115.1318182763386
 10
89.44277477147611
 20
-115.1318182763386
 10
89.48101533136239
 20
-115.1318182763386
 10
89.60986190251073
 20
-115.127511906982
 10
89.65843774885276
 20
-115.1211384803343
 10
89.65843774885276
 20
-115.1211384803343
 10
89.75179983650303
 20
-115.1909016639106
 10
89.75179983650303
 20
-115.1909016639106
 10
89.7431870977899
 20
-115.2120890011449
 10
89.73698592591646
 20
-115.231209281088
 10
89.72217201532987
 20
-115.2672105289089
 97
        0
 97
        0
 92
        1
 93
        4
 72
     1
 10
88.21563175963013
 20
-115.3919229854749
 11
88.05715736730863
 21
-115.3919229854749
 72
     1
 10
88.05715736730863
 20
-115.3919229854749
 11
88.05715736730863
 21
-115.5209418113975
 72
     1
 10
88.05715736730863
 20
-115.5209418113975
 11
88.21563175963013
 21
-115.5209418113975
 72
     1
 10
88.21563175963013
 20
-115.5209418113975
 11
88.21563175963013
 21
-115.3919229854749
 97
        0
 92
        1
 93
        4
 72
     1
 10
88.21563175963013
 20
-115.6647745479067
 11
88.05715736730863
 21
-115.6647745479067
 72
     1
 10
88.05715736730863
 20
-115.6647745479067
 11
88.05715736730863
 21
-115.7939656286036
 72
     1
 10
88.05715736730863
 20
-115.7939656286036
 11
88.21563175963013
 21
-115.7939656286036
 72
     1
 10
88.21563175963013
 20
-115.7939656286036
 11
88.21563175963013
 21
-115.6647745479067
 97
        0
 92
        1
 93
        4
 72
     1
 10
88.54808347395674
 20
-115.3919229854749
 11
88.38719751479556
 21
-115.3919229854749
 72
     1
 10
88.38719751479556
 20
-115.3919229854749
 11
88.38719751479556
 21
-115.5209418113975
 72
     1
 10
88.38719751479556
 20
-115.5209418113975
 11
88.54808347395674
 21
-115.5209418113975
 72
     1
 10
88.54808347395674
 20
-115.5209418113975
 11
88.54808347395674
 21
-115.3919229854749
 97
        0
 92
        1
 93
        4
 72
     1
 10
88.54808347395674
 20
-115.6647745479067
 11
88.38719751479556
 21
-115.6647745479067
 72
     1
 10
88.38719751479556
 20
-115.6647745479067
 11
88.38719751479556
 21
-115.7939656286036
 72
     1
 10
88.38719751479556
 20
-115.7939656286036
 11
88.54808347395674
 21
-115.7939656286036
 72
     1
 10
88.54808347395674
 20
-115.7939656286036
 11
88.54808347395674
 21
-115.6647745479067
 97
        0
 92
        1
 93
        1
 72
     4
 94
        3
 73
     0
 74
     1
 95
       41
 96
       37
 40
0.0
 40
0.0
 40
0.0
 40
0.0
 40
1.0
 40
1.0
 40
1.0
 40
2.0
 40
2.0
 40
2.0
 40
3.0
 40
3.0
 40
3.0
 40
4.0
 40
4.0
 40
4.0
 40
5.0
 40
5.0
 40
5.0
 40
6.0
 40
6.0
 40
6.0
 40
7.0
 40
7.0
 40
7.0
 40
8.0
 40
8.0
 40
8.0
 40
9.0
 40
9.0
 40
9.0
 40
10.0
 40
10.0
 40
10.0
 40
11.0
 40
11.0
 40
11.0
 40
12.0
 40
12.0
 40
12.0
 40
12.0
 10
89.63742266639274
 20
-116.6232001119032
 10
89.39626598242525
 20
-116.4878078593329
 10
89.21849905538635
 20
-116.1915296476014
 10
89.17819143820893
 20
-116.0625108216788
 10
89.05761309622518
 20
-116.3269219001717
 10
88.89500458932139
 20
-116.5046888272106
 10
88.7131035477002
 20
-116.6188937425467
 10
88.7131035477002
 20
-116.6188937425467
 10
88.5160440859439
 20
-116.4814344326852
 10
88.5160440859439
 20
-116.4814344326852
 10
88.58597952429449
 20
-116.4561129808686
 10
88.73205157286907
 20
-116.3946180264569
 10
88.85469697214397
 20
-116.2402777487177
 10
88.97940942871001
 20
-116.0836981589131
 10
89.06829289222946
 20
-115.8509819588845
 10
89.06829289222946
 20
-115.5908772497481
 10
89.06829289222946
 20
-115.4892469329333
 10
89.05554603893404
 20
-115.4174166920658
 10
89.04521075247828
 20
-115.3707356482407
 10
89.04521075247828
 20
-115.3707356482407
 10
89.25019393385065
 20
-115.3919229854749
 10
89.25019393385065
 20
-115.3919229854749
 10
89.2715535258592
 20
-115.3939900427661
 10
89.29256860831923
 20
-115.3962293548315
 10
89.29256860831923
 20
-115.4174166920658
 10
89.29256860831923
 20
-115.4363647172347
 10
89.28188881231495
 20
-115.4448052011735
 10
89.2481268765595
 20
-115.4659925384078
 10
89.2398586473949
 20
-115.6670138599721
 10
89.29670272290153
 20
-115.9102376012308
 10
89.35802542253897
 20
-116.0308159432145
 10
89.44897594334957
 20
-116.206343558188
 10
89.64362383826618
 20
-116.386177542518
 10
89.7790160908365
 20
-116.4433661275732
 10
89.7790160908365
 20
-116.4433661275732
 10
89.63742266639274
 20
-116.6232001119032
 10
89.63742266639274
 20
-116.6232001119032
 97
        0
 97
        0
 75
     2
 76
     1
 98
        0
  0
SPLINE
  5
A5
330
82
100
AcDbEntity
  8
_U+30EC_U+30A4_U+30E4_U+30FC 1
370
     0
100
AcDbSpline
210
0.0
220
0.0
230
1.0
 70
    11
 71
     3
 72
    71
 73
    67
 74
     0
 42
0.0000000001
 43
0.0000000001
 12
1.0
 22
0.0
 32
0.0
 13
1.0
 23
0.0
 33
0.0
 40
0.0
 40
0.0
 40
0.0
 40
0.0
 40
1.0
 40
1.0
 40
1.0
 40
2.0
 40
2.0
 40
2.0
 40
3.0
 40
3.0
 40
3.0
 40
4.0
 40
4.0
 40
4.0
 40
5.0
 40
5.0
 40
5.0
 40
6.0
 40
6.0
 40
6.0
 40
7.0
 40
7.0
 40
7.0
 40
8.0
 40
8.0
 40
8.0
 40
9.0
 40
9.0
 40
9.0
 40
10.0
 40
10.0
 40
10.0
 40
11.0
 40
11.0
 40
11.0
 40
12.0
 40
12.0
 40
12.0
 40
13.0
 40
13.0
 40
13.0
 40
14.0
 40
14.0
 40
14.0
 40
15.0
 40
15.0
 40
15.0
 40
16.0
 40
16.0
 40
16.0
 40
17.0
 40
17.0
 40
17.0
 40
18.0
 40
18.0
 40
18.0
 40
19.0
 40
19.0
 40
19.0
 40
20.0
 40
20.0
 40
20.0
 40
21.0
 40
21.0
 40
21.0
 40
22.0
 40
22.0
 40
22.0
 40
22.0
 10
90.83183727112885
 20
-114.8904893375968
 30
0.0
 10
90.81702336054228
 20
-114.8904893375968
 30
0.0
 10
90.80427650724685
 20
-114.8863552230145
 30
0.0
 10
90.778782800656
 20
-114.8779147390757
 30
0.0
 10
90.63718937621223
 20
-114.9244235281265
 30
0.0
 10
90.46355656375565
 20
-114.9413044960043
 30
0.0
 10
90.32403019660302
 20
-114.9456108653608
 30
0.0
 10
90.32403019660302
 20
-114.9456108653608
 30
0.0
 10
90.32196313931188
 20
-115.0344943288803
 30
0.0
 10
90.32196313931188
 20
-115.0344943288803
 30
0.0
 10
90.32196313931188
 20
-115.0344943288803
 30
0.0
 10
90.58206784844823
 20
-115.0344943288803
 30
0.0
 10
90.58206784844823
 20
-115.0344943288803
 30
0.0
 10
90.63512231892109
 20
-115.0344943288803
 30
0.0
 10
90.81702336054228
 20
-115.0258815901671
 30
0.0
 10
90.861465092302
 20
-115.0196804182937
 30
0.0
 10
90.861465092302
 20
-115.0196804182937
 30
0.0
 10
90.861465092302
 20
-115.1803941226806
 30
0.0
 10
90.861465092302
 20
-115.1803941226806
 30
0.0
 10
90.806343564538
 20
-115.1740206960329
 30
0.0
 10
90.68163110797195
 20
-115.1719536387417
 30
0.0
 10
90.64339054808569
 20
-115.1740206960329
 30
0.0
 10
90.64339054808569
 20
-115.1740206960329
 30
0.0
 10
90.64339054808569
 20
-115.2840914967866
 30
0.0
 10
90.64339054808569
 20
-115.2840914967866
 30
0.0
 10
90.64339054808569
 20
-115.3306002858375
 30
0.0
 10
90.64545760537683
 20
-115.3939900427661
 30
0.0
 10
90.6520032867988
 20
-115.4320583478781
 30
0.0
 10
90.6520032867988
 20
-115.4320583478781
 30
0.0
 10
90.45942244917335
 20
-115.4320583478781
 30
0.0
 10
90.45942244917335
 20
-115.4320583478781
 30
0.0
 10
90.46562362104679
 20
-115.3919229854749
 30
0.0
 10
90.47216930246877
 20
-115.3094129486032
 30
0.0
 10
90.47216930246877
 20
-115.2945990380166
 30
0.0
 10
90.47216930246877
 20
-115.2945990380166
 30
0.0
 10
90.47216930246877
 20
-115.1740206960329
 30
0.0
 10
90.47216930246877
 20
-115.1740206960329
 30
0.0
 10
90.47216930246877
 20
-115.1740206960329
 30
0.0
 10
90.3071492287253
 20
-115.1740206960329
 30
0.0
 10
90.3071492287253
 20
-115.1740206960329
 30
0.0
 10
90.26477455425673
 20
-115.3939900427661
 30
0.0
 10
90.20965302649273
 20
-115.4744330223467
 30
0.0
 10
90.10388859509555
 20
-115.5738240270961
 30
0.0
 10
90.10388859509555
 20
-115.5738240270961
 30
0.0
 10
89.93680146406095
 20
-115.4596191117601
 30
0.0
 10
89.93680146406095
 20
-115.4596191117601
 30
0.0
 10
90.00019122098954
 20
-115.4110432654181
 30
0.0
 10
90.15039738414643
 20
-115.2989054073732
 30
0.0
 10
90.15039738414643
 20
-114.9497449799431
 30
0.0
 10
90.15039738414643
 20
-114.8672349430714
 30
0.0
 10
90.14212915498183
 20
-114.8207261540205
 30
0.0
 10
90.1335164162687
 20
-114.7721503076785
 30
0.0
 10
90.2795884648433
 20
-114.7869642182651
 30
0.0
 10
90.29440237542988
 20
-114.7869642182651
 30
0.0
 10
90.33023136847648
 20
-114.7869642182651
 30
0.0
 10
90.43840736671332
 20
-114.7869642182651
 30
0.0
 10
90.58000079115709
 20
-114.7699109956131
 30
0.0
 10
90.74088675031825
 20
-114.7085882959756
 30
0.0
 10
90.74088675031825
 20
-114.7085882959756
 30
0.0
 10
90.85491941088003
 20
-114.8398464339637
 30
0.0
 10
90.85491941088003
 20
-114.8398464339637
 30
0.0
 10
90.861465092302
 20
-114.8462198606114
 30
0.0
 10
90.8655992068843
 20
-114.8546603445502
 30
0.0
 10
90.8655992068843
 20
-114.8631008284891
 30
0.0
 10
90.8655992068843
 20
-114.8863552230145
 30
0.0
 10
90.84665118171543
 20
-114.8904893375968
 30
0.0
 10
90.83183727112885
 20
-114.8904893375968
 30
0.0
  0
SPLINE
  5
A6
330
82
100
AcDbEntity
  8
_U+30EC_U+30A4_U+30E4_U+30FC 1
370
     0
100
AcDbSpline
210
0.0
220
0.0
230
1.0
 70
    11
 71
     3
 72
    74
 73
    70
 74
     0
 42
0.0000000001
 43
0.0000000001
 12
1.0
 22
0.0
 32
0.0
 13
1.0
 23
0.0
 33
0.0
 40
0.0
 40
0.0
 40
0.0
 40
0.0
 40
1.0
 40
1.0
 40
1.0
 40
2.0
 40
2.0
 40
2.0
 40
3.0
 40
3.0
 40
3.0
 40
4.0
 40
4.0
 40
4.0
 40
5.0
 40
5.0
 40
5.0
 40
6.0
 40
6.0
 40
6.0
 40
7.0
 40
7.0
 40
7.0
 40
8.0
 40
8.0
 40
8.0
 40
9.0
 40
9.0
 40
9.0
 40
10.0
 40
10.0
 40
10.0
 40
11.0
 40
11.0
 40
11.0
 40
12.0
 40
12.0
 40
12.0
 40
13.0
 40
13.0
 40
13.0
 40
14.0
 40
14.0
 40
14.0
 40
15.0
 40
15.0
 40
15.0
 40
16.0
 40
16.0
 40
16.0
 40
17.0
 40
17.0
 40
17.0
 40
18.0
 40
18.0
 40
18.0
 40
19.0
 40
19.0
 40
19.0
 40
20.0
 40
20.0
 40
20.0
 40
21.0
 40
21.0
 40
21.0
 40
22.0
 40
22.0
 40
22.0
 40
23.0
 40
23.0
 40
23.0
 40
23.0
 10
91.66916772881882
 20
-116.6569620476587
 30
0.0
 10
91.45557180873334
 20
-116.6464545064287
 30
0.0
 10
91.25489499671752
 20
-116.5596381002004
 30
0.0
 10
91.0791951269698
 20
-116.4390597582166
 30
0.0
 10
91.0791951269698
 20
-116.4390597582166
 30
0.0
 10
91.17669132920236
 20
-116.3524156067626
 30
0.0
 10
91.17669132920236
 20
-116.3524156067626
 30
0.0
 10
91.17669132920236
 20
-116.3524156067626
 30
0.0
 10
90.62444252291681
 20
-116.3524156067626
 30
0.0
 10
90.62444252291681
 20
-116.3524156067626
 30
0.0
 10
90.62444252291681
 20
-116.3524156067626
 30
0.0
 10
90.70471324772313
 20
-116.4158053636912
 30
0.0
 10
90.70471324772313
 20
-116.4158053636912
 30
0.0
 10
90.7112589291451
 20
-116.4201117330478
 30
0.0
 10
90.72159421560086
 20
-116.4306192742778
 30
0.0
 10
90.72159421560086
 20
-116.4454331848643
 30
0.0
 10
90.72159421560086
 20
-116.4857408020418
 30
0.0
 10
90.64752466266799
 20
-116.479367375394
 30
0.0
 10
90.63271075208141
 20
-116.4771280633286
 30
0.0
 10
90.4022338641182
 20
-116.6168266852555
 30
0.0
 10
90.25857338238328
 20
-116.6485215637198
 30
0.0
 10
90.15487600827726
 20
-116.6654025315976
 30
0.0
 10
90.15487600827726
 20
-116.6654025315976
 30
0.0
 10
90.02568492758039
 20
-116.4878078593329
 30
0.0
 10
90.02568492758039
 20
-116.4878078593329
 30
0.0
 10
90.27338729296986
 20
-116.4561129808686
 30
0.0
 10
90.3746731002362
 20
-116.4094319370435
 30
0.0
 10
90.46355656375565
 20
-116.3565497213449
 30
0.0
 10
90.38948701082278
 20
-116.3587890334103
 30
0.0
 10
90.275454350261
 20
-116.3608560907015
 30
0.0
 10
90.24375947179671
 20
-116.3629231479926
 30
0.0
 10
90.25857338238328
 20
-116.2740396844732
 30
0.0
 10
90.26064043967443
 20
-116.1450208585506
 30
0.0
 10
90.26064043967443
 20
-116.0709513056177
 30
0.0
 10
90.26064043967443
 20
-116.0709513056177
 30
0.0
 10
90.26064043967443
 20
-115.7707112340782
 30
0.0
 10
90.26064043967443
 20
-115.7707112340782
 30
0.0
 10
90.26064043967443
 20
-115.6711479745544
 30
0.0
 10
90.25409475825245
 20
-115.571756969805
 30
0.0
 10
90.24375947179671
 20
-115.4744330223467
 30
0.0
 10
90.34504527906304
 20
-115.4808064489944
 30
0.0
 10
90.57586667657479
 20
-115.4871798756421
 30
0.0
 10
90.68369816526311
 20
-115.4871798756421
 30
0.0
 10
90.68369816526311
 20
-115.4871798756421
 30
0.0
 10
91.10675589085179
 20
-115.4871798756421
 30
0.0
 10
91.10675589085179
 20
-115.4871798756421
 30
0.0
 10
91.22526717554439
 20
-115.4871798756421
 30
0.0
 10
91.26764185001295
 20
-115.4871798756421
 30
0.0
 10
91.34997963211043
 20
-115.4828735062855
 30
0.0
 10
91.4979464832019
 20
-115.4765000796378
 30
0.0
 10
91.51482745107963
 20
-115.4765000796378
 30
0.0
 10
91.5613362401305
 20
-115.4744330223467
 30
0.0
 10
91.5530680109659
 20
-115.5548760019273
 30
0.0
 10
91.54858938683508
 20
-115.713522649023
 30
0.0
 10
91.54858938683508
 20
-115.7960326858947
 30
0.0
 10
91.54858938683508
 20
-115.7960326858947
 30
0.0
 10
91.54858938683508
 20
-116.081631101622
 30
0.0
 10
91.54858938683508
 20
-116.081631101622
 30
0.0
 10
91.54858938683508
 20
-116.1534613424894
 30
0.0
 10
91.55065644412623
 20
-116.2847194804774
 30
0.0
 10
91.5613362401305
 20
-116.3629231479926
 30
0.0
 10
91.48933374448877
 20
-116.3587890334103
 30
0.0
 10
91.36686059998814
 20
-116.3565497213449
 30
0.0
 10
91.28865693247297
 20
-116.3544826640537
 30
0.0
 10
91.39838322367818
 20
-116.4221787903389
 30
0.0
 10
91.55065644412623
 20
-116.4729939487463
 30
0.0
 10
91.7625298164691
 20
-116.4771280633286
 30
0.0
 10
91.7625298164691
 20
-116.4771280633286
 30
0.0
 10
91.66916772881882
 20
-116.6569620476587
 30
0.0
 10
91.66916772881882
 20
-116.6569620476587
 30
0.0
  0
POLYLINE
  5
A7
330
82
100
AcDbEntity
  8
_U+30EC_U+30A4_U+30E4_U+30FC 1
370
     0
100
AcDb2dPolyline
 66
     1
 10
0.0
 20
0.0
 30
0.0
  0
VERTEX
  5
A8
330
A7
100
AcDbEntity
  8
_U+30EC_U+30A4_U+30E4_U+30FC 1
370
     0
100
AcDbVertex
100
AcDb2dVertex
 10
91.364793542697
 20
-115.6225721282124
 30
0.0
  0
VERTEX
  5
A9
330
A7
100
AcDbEntity
  8
_U+30EC_U+30A4_U+30E4_U+30FC 1
370
     0
100
AcDbVertex
100
AcDb2dVertex
 10
90.45287676775136
 20
-115.6225721282124
 30
0.0
  0
VERTEX
  5
AA
330
A7
100
AcDbEntity
  8
_U+30EC_U+30A4_U+30E4_U+30FC 1
370
     0
100
AcDbVertex
100
AcDb2dVertex
 10
90.45287676775136
 20
-115.7347099862573
 30
0.0
  0
VERTEX
  5
AB
330
A7
100
AcDbEntity
  8
_U+30EC_U+30A4_U+30E4_U+30FC 1
370
     0
100
AcDbVertex
100
AcDb2dVertex
 10
91.364793542697
 20
-115.7347099862573
 30
0.0
  0
VERTEX
  5
AC
330
A7
100
AcDbEntity
  8
_U+30EC_U+30A4_U+30E4_U+30FC 1
370
     0
100
AcDbVertex
100
AcDb2dVertex
 10
91.364793542697
 20
-115.6225721282124
 30
0.0
  0
SEQEND
  5
AD
330
A7
100
AcDbEntity
  8
_U+30EC_U+30A4_U+30E4_U+30FC 1
370
     0
  0
POLYLINE
  5
AE
330
82
100
AcDbEntity
  8
_U+30EC_U+30A4_U+30E4_U+30FC 1
370
     0
100
AcDb2dPolyline
 66
     1
 10
0.0
 20
0.0
 30
0.0
  0
VERTEX
  5
AF
330
AE
100
AcDbEntity
  8
_U+30EC_U+30A4_U+30E4_U+30FC 1
370
     0
100
AcDbVertex
100
AcDb2dVertex
 10
91.364793542697
 20
-115.8678629267622
 30
0.0
  0
VERTEX
  5
B0
330
AE
100
AcDbEntity
  8
_U+30EC_U+30A4_U+30E4_U+30FC 1
370
     0
100
AcDbVertex
100
AcDb2dVertex
 10
90.45287676775136
 20
-115.8678629267622
 30
0.0
  0
VERTEX
  5
B1
330
AE
100
AcDbEntity
  8
_U+30EC_U+30A4_U+30E4_U+30FC 1
370
     0
100
AcDbVertex
100
AcDb2dVertex
 10
90.45287676775136
 20
-115.9779337275159
 30
0.0
  0
VERTEX
  5
B2
330
AE
100
AcDbEntity
  8
_U+30EC_U+30A4_U+30E4_U+30FC 1
370
     0
100
AcDbVertex
100
AcDb2dVertex
 10
91.364793542697
 20
-115.9779337275159
 30
0.0
  0
VERTEX
  5
B3
330
AE
100
AcDbEntity
  8
_U+30EC_U+30A4_U+30E4_U+30FC 1
370
     0
100
AcDbVertex
100
AcDb2dVertex
 10
91.364793542697
 20
-115.8678629267622
 30
0.0
  0
SEQEND
  5
B4
330
AE
100
AcDbEntity
  8
_U+30EC_U+30A4_U+30E4_U+30FC 1
370
     0
  0
POLYLINE
  5
B5
330
82
100
AcDbEntity
  8
_U+30EC_U+30A4_U+30E4_U+30FC 1
370
     0
100
AcDb2dPolyline
 66
     1
 10
0.0
 20
0.0
 30
0.0
  0
VERTEX
  5
B6
330
B5
100
AcDbEntity
  8
_U+30EC_U+30A4_U+30E4_U+30FC 1
370
     0
100
AcDbVertex
100
AcDb2dVertex
 10
91.364793542697
 20
-116.1133259800863
 30
0.0
  0
VERTEX
  5
B7
330
B5
100
AcDbEntity
  8
_U+30EC_U+30A4_U+30E4_U+30FC 1
370
     0
100
AcDbVertex
100
AcDb2dVertex
 10
90.45287676775136
 20
-116.1133259800863
 30
0.0
  0
VERTEX
  5
B8
330
B5
100
AcDbEntity
  8
_U+30EC_U+30A4_U+30E4_U+30FC 1
370
     0
100
AcDbVertex
100
AcDb2dVertex
 10
90.45287676775136
 20
-116.2211574687746
 30
0.0
  0
VERTEX
  5
B9
330
B5
100
AcDbEntity
  8
_U+30EC_U+30A4_U+30E4_U+30FC 1
370
     0
100
AcDbVertex
100
AcDb2dVertex
 10
91.364793542697
 20
-116.2211574687746
 30
0.0
  0
VERTEX
  5
BA
330
B5
100
AcDbEntity
  8
_U+30EC_U+30A4_U+30E4_U+30FC 1
370
     0
100
AcDbVertex
100
AcDb2dVertex
 10
91.364793542697
 20
-116.1133259800863
 30
0.0
  0
SEQEND
  5
BB
330
B5
100
AcDbEntity
  8
_U+30EC_U+30A4_U+30E4_U+30FC 1
370
     0
  0
SPLINE
  5
BC
330
82
100
AcDbEntity
  8
_U+30EC_U+30A4_U+30E4_U+30FC 1
370
     0
100
AcDbSpline
210
0.0
220
0.0
230
1.0
 70
    11
 71
     3
 72
    74
 73
    70
 74
     0
 42
0.0000000001
 43
0.0000000001
 12
1.0
 22
0.0
 32
0.0
 13
1.0
 23
0.0
 33
0.0
 40
0.0
 40
0.0
 40
0.0
 40
0.0
 40
1.0
 40
1.0
 40
1.0
 40
2.0
 40
2.0
 40
2.0
 40
3.0
 40
3.0
 40
3.0
 40
4.0
 40
4.0
 40
4.0
 40
5.0
 40
5.0
 40
5.0
 40
6.0
 40
6.0
 40
6.0
 40
7.0
 40
7.0
 40
7.0
 40
8.0
 40
8.0
 40
8.0
 40
9.0
 40
9.0
 40
9.0
 40
10.0
 40
10.0
 40
10.0
 40
11.0
 40
11.0
 40
11.0
 40
12.0
 40
12.0
 40
12.0
 40
13.0
 40
13.0
 40
13.0
 40
14.0
 40
14.0
 40
14.0
 40
15.0
 40
15.0
 40
15.0
 40
16.0
 40
16.0
 40
16.0
 40
17.0
 40
17.0
 40
17.0
 40
18.0
 40
18.0
 40
18.0
 40
19.0
 40
19.0
 40
19.0
 40
20.0
 40
20.0
 40
20.0
 40
21.0
 40
21.0
 40
21.0
 40
22.0
 40
22.0
 40
22.0
 40
23.0
 40
23.0
 40
23.0
 40
23.0
 10
91.68191458211425
 20
-115.1698865814506
 30
0.0
 10
91.68191458211425
 20
-115.1698865814506
 30
0.0
 10
91.52137313250161
 20
-115.1698865814506
 30
0.0
 10
91.52137313250161
 20
-115.1698865814506
 30
0.0
 10
91.52137313250161
 20
-115.1698865814506
 30
0.0
 10
91.52137313250161
 20
-115.2840914967866
 30
0.0
 10
91.52137313250161
 20
-115.2840914967866
 30
0.0
 10
91.52137313250161
 20
-115.3242268591898
 30
0.0
 10
91.52757430437505
 20
-115.3982964121226
 30
0.0
 10
91.53170841895735
 20
-115.4236178639392
 30
0.0
 10
91.53170841895735
 20
-115.4236178639392
 30
0.0
 10
91.32035181093728
 20
-115.4236178639392
 30
0.0
 10
91.32035181093728
 20
-115.4236178639392
 30
0.0
 10
91.33103160694155
 20
-115.3581610497195
 30
0.0
 10
91.33309866423271
 20
-115.2989054073732
 30
0.0
 10
91.33309866423271
 20
-115.2966660953078
 30
0.0
 10
91.33309866423271
 20
-115.2966660953078
 30
0.0
 10
91.33309866423271
 20
-115.1740206960329
 30
0.0
 10
91.33309866423271
 20
-115.1740206960329
 30
0.0
 10
91.33309866423271
 20
-115.1740206960329
 30
0.0
 10
91.15326467990266
 20
-115.1740206960329
 30
0.0
 10
91.15326467990266
 20
-115.1740206960329
 30
0.0
 10
91.13431665473378
 20
-115.2332763383792
 30
0.0
 10
91.08780786568292
 20
-115.3791761321795
 30
0.0
 10
90.97343069557262
 20
-115.4616861690512
 30
0.0
 10
90.97343069557262
 20
-115.4616861690512
 30
0.0
 10
90.81702336054228
 20
-115.3559217376541
 30
0.0
 10
90.81702336054228
 20
-115.3559217376541
 30
0.0
 10
90.89109291347515
 20
-115.3094129486032
 30
0.0
 10
91.00719263132807
 20
-115.2353433956703
 30
0.0
 10
91.00719263132807
 20
-114.9139159868965
 30
0.0
 10
91.00719263132807
 20
-114.8587944591325
 30
0.0
 10
91.00305851674577
 20
-114.8143527273728
 30
0.0
 10
91.00099145945461
 20
-114.7762844222608
 30
0.0
 10
91.07712806967864
 20
-114.7847249061997
 30
0.0
 10
91.1511976226115
 20
-114.7910983328474
 30
0.0
 10
91.2145873795401
 20
-114.7910983328474
 30
0.0
 10
91.39218205180474
 20
-114.7910983328474
 30
0.0
 10
91.59096406130365
 20
-114.7318426905011
 30
0.0
 10
91.6522867609411
 20
-114.7022148693279
 30
0.0
 10
91.6522867609411
 20
-114.7022148693279
 30
0.0
 10
91.77941078434682
 20
-114.8376071218982
 30
0.0
 10
91.77941078434682
 20
-114.8376071218982
 30
0.0
 10
91.78354489892912
 20
-114.8419134912548
 30
0.0
 10
91.78561195622027
 20
-114.8503539751937
 30
0.0
 10
91.78561195622027
 20
-114.8567274018414
 30
0.0
 10
91.78561195622027
 20
-114.8779147390757
 30
0.0
 10
91.7707980456337
 20
-114.8842881657234
 30
0.0
 10
91.75391707775597
 20
-114.8842881657234
 30
0.0
 10
91.73290199529595
 20
-114.8842881657234
 30
0.0
 10
91.71808808470936
 20
-114.8758476817845
 30
0.0
 10
91.69879554999197
 20
-114.8651678857802
 30
0.0
 10
91.52550724708391
 20
-114.9223564708354
 30
0.0
 10
91.30760495764186
 20
-114.947677922652
 30
0.0
 10
91.17427976236269
 20
-114.9497449799431
 30
0.0
 10
91.17427976236269
 20
-114.9497449799431
 30
0.0
 10
91.17014564778039
 20
-115.0322550168149
 30
0.0
 10
91.17014564778039
 20
-115.0322550168149
 30
0.0
 10
91.17014564778039
 20
-115.0322550168149
 30
0.0
 10
91.44282495543791
 20
-115.0322550168149
 30
0.0
 10
91.44282495543791
 20
-115.0322550168149
 30
0.0
 10
91.50001354049306
 20
-115.0322550168149
 30
0.0
 10
91.7625298164691
 20
-115.013306991646
 30
0.0
 10
91.80662703868029
 20
-115.0069335649983
 30
0.0
 10
91.80662703868029
 20
-115.0069335649983
 30
0.0
 10
91.80662703868029
 20
-115.176087753324
 30
0.0
 10
91.80662703868029
 20
-115.176087753324
 30
0.0
 10
91.77286510292484
 20
-115.1719536387417
 30
0.0
 10
91.76011824962941
 20
-115.1698865814506
 30
0.0
 10
91.68191458211425
 20
-115.1698865814506
 30
0.0
  0
HATCH
  5
BD
330
82
100
AcDbEntity
  8
_U+30EC_U+30A4_U+30E4_U+30FC 1
 62
   179
420
  2234388
100
AcDbHatch
 10
0.0
 20
0.0
 30
0.0
210
0.0
220
0.0
230
1.0
  2
SOLID
 70
     1
 71
     0
 91
        6
 92
        1
 93
        1
 72
     4
 94
        3
 73
     0
 74
     1
 95
       71
 96
       67
 40
0.0
 40
0.0
 40
0.0
 40
0.0
 40
1.0
 40
1.0
 40
1.0
 40
2.0
 40
2.0
 40
2.0
 40
3.0
 40
3.0
 40
3.0
 40
4.0
 40
4.0
 40
4.0
 40
5.0
 40
5.0
 40
5.0
 40
6.0
 40
6.0
 40
6.0
 40
7.0
 40
7.0
 40
7.0
 40
8.0
 40
8.0
 40
8.0
 40
9.0
 40
9.0
 40
9.0
 40
10.0
 40
10.0
 40
10.0
 40
11.0
 40
11.0
 40
11.0
 40
12.0
 40
12.0
 40
12.0
 40
13.0
 40
13.0
 40
13.0
 40
14.0
 40
14.0
 40
14.0
 40
15.0
 40
15.0
 40
15.0
 40
16.0
 40
16.0
 40
16.0
 40
17.0
 40
17.0
 40
17.0
 40
18.0
 40
18.0
 40
18.0
 40
19.0
 40
19.0
 40
19.0
 40
20.0
 40
20.0
 40
20.0
 40
21.0
 40
21.0
 40
21.0
 40
22.0
 40
22.0
 40
22.0
 40
22.0
 10
90.83183727112885
 20
-114.8904893375968
 10
90.81702336054228
 20
-114.8904893375968
 10
90.80427650724685
 20
-114.8863552230145
 10
90.778782800656
 20
-114.8779147390757
 10
90.63718937621223
 20
-114.9244235281265
 10
90.46355656375565
 20
-114.9413044960043
 10
90.32403019660302
 20
-114.9456108653608
 10
90.32403019660302
 20
-114.9456108653608
 10
90.32196313931188
 20
-115.0344943288803
 10
90.32196313931188
 20
-115.0344943288803
 10
90.32196313931188
 20
-115.0344943288803
 10
90.58206784844823
 20
-115.0344943288803
 10
90.58206784844823
 20
-115.0344943288803
 10
90.63512231892109
 20
-115.0344943288803
 10
90.81702336054228
 20
-115.0258815901671
 10
90.861465092302
 20
-115.0196804182937
 10
90.861465092302
 20
-115.0196804182937
 10
90.861465092302
 20
-115.1803941226806
 10
90.861465092302
 20
-115.1803941226806
 10
90.806343564538
 20
-115.1740206960329
 10
90.68163110797195
 20
-115.1719536387417
 10
90.64339054808569
 20
-115.1740206960329
 10
90.64339054808569
 20
-115.1740206960329
 10
90.64339054808569
 20
-115.2840914967866
 10
90.64339054808569
 20
-115.2840914967866
 10
90.64339054808569
 20
-115.3306002858375
 10
90.64545760537683
 20
-115.3939900427661
 10
90.6520032867988
 20
-115.4320583478781
 10
90.6520032867988
 20
-115.4320583478781
 10
90.45942244917335
 20
-115.4320583478781
 10
90.45942244917335
 20
-115.4320583478781
 10
90.46562362104679
 20
-115.3919229854749
 10
90.47216930246877
 20
-115.3094129486032
 10
90.47216930246877
 20
-115.2945990380166
 10
90.47216930246877
 20
-115.2945990380166
 10
90.47216930246877
 20
-115.1740206960329
 10
90.47216930246877
 20
-115.1740206960329
 10
90.47216930246877
 20
-115.1740206960329
 10
90.3071492287253
 20
-115.1740206960329
 10
90.3071492287253
 20
-115.1740206960329
 10
90.26477455425673
 20
-115.3939900427661
 10
90.20965302649273
 20
-115.4744330223467
 10
90.10388859509555
 20
-115.5738240270961
 10
90.10388859509555
 20
-115.5738240270961
 10
89.93680146406095
 20
-115.4596191117601
 10
89.93680146406095
 20
-115.4596191117601
 10
90.00019122098954
 20
-115.4110432654181
 10
90.15039738414643
 20
-115.2989054073732
 10
90.15039738414643
 20
-114.9497449799431
 10
90.15039738414643
 20
-114.8672349430714
 10
90.14212915498183
 20
-114.8207261540205
 10
90.1335164162687
 20
-114.7721503076785
 10
90.2795884648433
 20
-114.7869642182651
 10
90.29440237542988
 20
-114.7869642182651
 10
90.33023136847648
 20
-114.7869642182651
 10
90.43840736671332
 20
-114.7869642182651
 10
90.58000079115709
 20
-114.7699109956131
 10
90.74088675031825
 20
-114.7085882959756
 10
90.74088675031825
 20
-114.7085882959756
 10
90.85491941088003
 20
-114.8398464339637
 10
90.85491941088003
 20
-114.8398464339637
 10
90.861465092302
 20
-114.8462198606114
 10
90.8655992068843
 20
-114.8546603445502
 10
90.8655992068843
 20
-114.8631008284891
 10
90.8655992068843
 20
-114.8863552230145
 10
90.84665118171543
 20
-114.8904893375968
 10
90.83183727112885
 20
-114.8904893375968
 97
        0
 97
        0
 92
        1
 93
        1
 72
     4
 94
        3
 73
     0
 74
     1
 95
       74
 96
       70
 40
0.0
 40
0.0
 40
0.0
 40
0.0
 40
1.0
 40
1.0
 40
1.0
 40
2.0
 40
2.0
 40
2.0
 40
3.0
 40
3.0
 40
3.0
 40
4.0
 40
4.0
 40
4.0
 40
5.0
 40
5.0
 40
5.0
 40
6.0
 40
6.0
 40
6.0
 40
7.0
 40
7.0
 40
7.0
 40
8.0
 40
8.0
 40
8.0
 40
9.0
 40
9.0
 40
9.0
 40
10.0
 40
10.0
 40
10.0
 40
11.0
 40
11.0
 40
11.0
 40
12.0
 40
12.0
 40
12.0
 40
13.0
 40
13.0
 40
13.0
 40
14.0
 40
14.0
 40
14.0
 40
15.0
 40
15.0
 40
15.0
 40
16.0
 40
16.0
 40
16.0
 40
17.0
 40
17.0
 40
17.0
 40
18.0
 40
18.0
 40
18.0
 40
19.0
 40
19.0
 40
19.0
 40
20.0
 40
20.0
 40
20.0
 40
21.0
 40
21.0
 40
21.0
 40
22.0
 40
22.0
 40
22.0
 40
23.0
 40
23.0
 40
23.0
 40
23.0
 10
91.66916772881882
 20
-116.6569620476587
 10
91.45557180873334
 20
-116.6464545064287
 10
91.25489499671752
 20
-116.5596381002004
 10
91.0791951269698
 20
-116.4390597582166
 10
91.0791951269698
 20
-116.4390597582166
 10
91.17669132920236
 20
-116.3524156067626
 10
91.17669132920236
 20
-116.3524156067626
 10
91.17669132920236
 20
-116.3524156067626
 10
90.62444252291681
 20
-116.3524156067626
 10
90.62444252291681
 20
-116.3524156067626
 10
90.62444252291681
 20
-116.3524156067626
 10
90.70471324772313
 20
-116.4158053636912
 10
90.70471324772313
 20
-116.4158053636912
 10
90.7112589291451
 20
-116.4201117330478
 10
90.72159421560086
 20
-116.4306192742778
 10
90.72159421560086
 20
-116.4454331848643
 10
90.72159421560086
 20
-116.4857408020418
 10
90.64752466266799
 20
-116.479367375394
 10
90.63271075208141
 20
-116.4771280633286
 10
90.4022338641182
 20
-116.6168266852555
 10
90.25857338238328
 20
-116.6485215637198
 10
90.15487600827726
 20
-116.6654025315976
 10
90.15487600827726
 20
-116.6654025315976
 10
90.02568492758039
 20
-116.4878078593329
 10
90.02568492758039
 20
-116.4878078593329
 10
90.27338729296986
 20
-116.4561129808686
 10
90.3746731002362
 20
-116.4094319370435
 10
90.46355656375565
 20
-116.3565497213449
 10
90.38948701082278
 20
-116.3587890334103
 10
90.275454350261
 20
-116.3608560907015
 10
90.24375947179671
 20
-116.3629231479926
 10
90.25857338238328
 20
-116.2740396844732
 10
90.26064043967443
 20
-116.1450208585506
 10
90.26064043967443
 20
-116.0709513056177
 10
90.26064043967443
 20
-116.0709513056177
 10
90.26064043967443
 20
-115.7707112340782
 10
90.26064043967443
 20
-115.7707112340782
 10
90.26064043967443
 20
-115.6711479745544
 10
90.25409475825245
 20
-115.571756969805
 10
90.24375947179671
 20
-115.4744330223467
 10
90.34504527906304
 20
-115.4808064489944
 10
90.57586667657479
 20
-115.4871798756421
 10
90.68369816526311
 20
-115.4871798756421
 10
90.68369816526311
 20
-115.4871798756421
 10
91.10675589085179
 20
-115.4871798756421
 10
91.10675589085179
 20
-115.4871798756421
 10
91.22526717554439
 20
-115.4871798756421
 10
91.26764185001295
 20
-115.4871798756421
 10
91.34997963211043
 20
-115.4828735062855
 10
91.4979464832019
 20
-115.4765000796378
 10
91.51482745107963
 20
-115.4765000796378
 10
91.5613362401305
 20
-115.4744330223467
 10
91.5530680109659
 20
-115.5548760019273
 10
91.54858938683508
 20
-115.713522649023
 10
91.54858938683508
 20
-115.7960326858947
 10
91.54858938683508
 20
-115.7960326858947
 10
91.54858938683508
 20
-116.081631101622
 10
91.54858938683508
 20
-116.081631101622
 10
91.54858938683508
 20
-116.1534613424894
 10
91.55065644412623
 20
-116.2847194804774
 10
91.5613362401305
 20
-116.3629231479926
 10
91.48933374448877
 20
-116.3587890334103
 10
91.36686059998814
 20
-116.3565497213449
 10
91.28865693247297
 20
-116.3544826640537
 10
91.39838322367818
 20
-116.4221787903389
 10
91.55065644412623
 20
-116.4729939487463
 10
91.7625298164691
 20
-116.4771280633286
 10
91.7625298164691
 20
-116.4771280633286
 10
91.66916772881882
 20
-116.6569620476587
 10
91.66916772881882
 20
-116.6569620476587
 97
        0
 97
        0
 92
        1
 93
        4
 72
     1
 10
91.364793542697
 20
-115.6225721282124
 11
90.45287676775136
 21
-115.6225721282124
 72
     1
 10
90.45287676775136
 20
-115.6225721282124
 11
90.45287676775136
 21
-115.7347099862573
 72
     1
 10
90.45287676775136
 20
-115.7347099862573
 11
91.364793542697
 21
-115.7347099862573
 72
     1
 10
91.364793542697
 20
-115.7347099862573
 11
91.364793542697
 21
-115.6225721282124
 97
        0
 92
        1
 93
        4
 72
     1
 10
91.364793542697
 20
-115.8678629267622
 11
90.45287676775136
 21
-115.8678629267622
 72
     1
 10
90.45287676775136
 20
-115.8678629267622
 11
90.45287676775136
 21
-115.9779337275159
 72
     1
 10
90.45287676775136
 20
-115.9779337275159
 11
91.364793542697
 21
-115.9779337275159
 72
     1
 10
91.364793542697
 20
-115.9779337275159
 11
91.364793542697
 21
-115.8678629267622
 97
        0
 92
        1
 93
        4
 72
     1
 10
91.364793542697
 20
-116.1133259800863
 11
90.45287676775136
 21
-116.1133259800863
 72
     1
 10
90.45287676775136
 20
-116.1133259800863
 11
90.45287676775136
 21
-116.2211574687746
 72
     1
 10
90.45287676775136
 20
-116.2211574687746
 11
91.364793542697
 21
-116.2211574687746
 72
     1
 10
91.364793542697
 20
-116.2211574687746
 11
91.364793542697
 21
-116.1133259800863
 97
        0
 92
        1
 93
        1
 72
     4
 94
        3
 73
     0
 74
     1
 95
       74
 96
       70
 40
0.0
 40
0.0
 40
0.0
 40
0.0
 40
1.0
 40
1.0
 40
1.0
 40
2.0
 40
2.0
 40
2.0
 40
3.0
 40
3.0
 40
3.0
 40
4.0
 40
4.0
 40
4.0
 40
5.0
 40
5.0
 40
5.0
 40
6.0
 40
6.0
 40
6.0
 40
7.0
 40
7.0
 40
7.0
 40
8.0
 40
8.0
 40
8.0
 40
9.0
 40
9.0
 40
9.0
 40
10.0
 40
10.0
 40
10.0
 40
11.0
 40
11.0
 40
11.0
 40
12.0
 40
12.0
 40
12.0
 40
13.0
 40
13.0
 40
13.0
 40
14.0
 40
14.0
 40
14.0
 40
15.0
 40
15.0
 40
15.0
 40
16.0
 40
16.0
 40
16.0
 40
17.0
 40
17.0
 40
17.0
 40
18.0
 40
18.0
 40
18.0
 40
19.0
 40
19.0
 40
19.0
 40
20.0
 40
20.0
 40
20.0
 40
21.0
 40
21.0
 40
21.0
 40
22.0
 40
22.0
 40
22.0
 40
23.0
 40
23.0
 40
23.0
 40
23.0
 10
91.68191458211425
 20
-115.1698865814506
 10
91.68191458211425
 20
-115.1698865814506
 10
91.52137313250161
 20
-115.1698865814506
 10
91.52137313250161
 20
-115.1698865814506
 10
91.52137313250161
 20
-115.1698865814506
 10
91.52137313250161
 20
-115.2840914967866
 10
91.52137313250161
 20
-115.2840914967866
 10
91.52137313250161
 20
-115.3242268591898
 10
91.52757430437505
 20
-115.3982964121226
 10
91.53170841895735
 20
-115.4236178639392
 10
91.53170841895735
 20
-115.4236178639392
 10
91.32035181093728
 20
-115.4236178639392
 10
91.32035181093728
 20
-115.4236178639392
 10
91.33103160694155
 20
-115.3581610497195
 10
91.33309866423271
 20
-115.2989054073732
 10
91.33309866423271
 20
-115.2966660953078
 10
91.33309866423271
 20
-115.2966660953078
 10
91.33309866423271
 20
-115.1740206960329
 10
91.33309866423271
 20
-115.1740206960329
 10
91.33309866423271
 20
-115.1740206960329
 10
91.15326467990266
 20
-115.1740206960329
 10
91.15326467990266
 20
-115.1740206960329
 10
91.13431665473378
 20
-115.2332763383792
 10
91.08780786568292
 20
-115.3791761321795
 10
90.97343069557262
 20
-115.4616861690512
 10
90.97343069557262
 20
-115.4616861690512
 10
90.81702336054228
 20
-115.3559217376541
 10
90.81702336054228
 20
-115.3559217376541
 10
90.89109291347515
 20
-115.3094129486032
 10
91.00719263132807
 20
-115.2353433956703
 10
91.00719263132807
 20
-114.9139159868965
 10
91.00719263132807
 20
-114.8587944591325
 10
91.00305851674577
 20
-114.8143527273728
 10
91.00099145945461
 20
-114.7762844222608
 10
91.07712806967864
 20
-114.7847249061997
 10
91.1511976226115
 20
-114.7910983328474
 10
91.2145873795401
 20
-114.7910983328474
 10
91.39218205180474
 20
-114.7910983328474
 10
91.59096406130365
 20
-114.7318426905011
 10
91.6522867609411
 20
-114.7022148693279
 10
91.6522867609411
 20
-114.7022148693279
 10
91.77941078434682
 20
-114.8376071218982
 10
91.77941078434682
 20
-114.8376071218982
 10
91.78354489892912
 20
-114.8419134912548
 10
91.78561195622027
 20
-114.8503539751937
 10
91.78561195622027
 20
-114.8567274018414
 10
91.78561195622027
 20
-114.8779147390757
 10
91.7707980456337
 20
-114.8842881657234
 10
91.75391707775597
 20
-114.8842881657234
 10
91.73290199529595
 20
-114.8842881657234
 10
91.71808808470936
 20
-114.8758476817845
 10
91.69879554999197
 20
-114.8651678857802
 10
91.52550724708391
 20
-114.9223564708354
 10
91.30760495764186
 20
-114.947677922652
 10
91.17427976236269
 20
-114.9497449799431
 10
91.17427976236269
 20
-114.9497449799431
 10
91.17014564778039
 20
-115.0322550168149
 10
91.17014564778039
 20
-115.0322550168149
 10
91.17014564778039
 20
-115.0322550168149
 10
91.44282495543791
 20
-115.0322550168149
 10
91.44282495543791
 20
-115.0322550168149
 10
91.50001354049306
 20
-115.0322550168149
 10
91.7625298164691
 20
-115.013306991646
 10
91.80662703868029
 20
-115.0069335649983
 10
91.80662703868029
 20
-115.0069335649983
 10
91.80662703868029
 20
-115.176087753324
 10
91.80662703868029
 20
-115.176087753324
 10
91.77286510292484
 20
-115.1719536387417
 10
91.76011824962941
 20
-115.1698865814506
 10
91.68191458211425
 20
-115.1698865814506
 97
        0
 97
        0
 75
     2
 76
     1
 98
        0
  0
SPLINE
  5
BE
330
82
100
AcDbEntity
  8
_U+30EC_U+30A4_U+30E4_U+30FC 1
370
     0
100
AcDbSpline
210
0.0
220
0.0
230
1.0
 70
    11
 71
     3
 72
    53
 73
    49
 74
     0
 42
0.0000000001
 43
0.0000000001
 12
1.0
 22
0.0
 32
0.0
 13
1.0
 23
0.0
 33
0.0
 40
0.0
 40
0.0
 40
0.0
 40
0.0
 40
1.0
 40
1.0
 40
1.0
 40
2.0
 40
2.0
 40
2.0
 40
3.0
 40
3.0
 40
3.0
 40
4.0
 40
4.0
 40
4.0
 40
5.0
 40
5.0
 40
5.0
 40
6.0
 40
6.0
 40
6.0
 40
7.0
 40
7.0
 40
7.0
 40
8.0
 40
8.0
 40
8.0
 40
9.0
 40
9.0
 40
9.0
 40
10.0
 40
10.0
 40
10.0
 40
11.0
 40
11.0
 40
11.0
 40
12.0
 40
12.0
 40
12.0
 40
13.0
 40
13.0
 40
13.0
 40
14.0
 40
14.0
 40
14.0
 40
15.0
 40
15.0
 40
15.0
 40
16.0
 40
16.0
 40
16.0
 40
16.0
 10
93.13540036734115
 20
-116.5322495910926
 30
0.0
 10
92.94523109655536
 20
-116.5322495910926
 30
0.0
 10
92.88597545420906
 20
-116.4073648797523
 30
0.0
 10
92.88597545420906
 20
-116.2592257738866
 30
0.0
 10
92.88597545420906
 20
-116.2592257738866
 30
0.0
 10
92.88597545420906
 20
-115.5653835431573
 30
0.0
 10
92.88597545420906
 20
-115.5653835431573
 30
0.0
 10
92.88597545420906
 20
-115.5653835431573
 30
0.0
 10
92.70407441258787
 20
-115.5653835431573
 30
0.0
 10
92.70407441258787
 20
-115.5653835431573
 30
0.0
 10
92.70407441258787
 20
-115.5653835431573
 30
0.0
 10
92.70407441258787
 20
-115.3729749603061
 30
0.0
 10
92.70407441258787
 20
-115.3729749603061
 30
0.0
 10
92.70407441258787
 20
-115.3729749603061
 30
0.0
 10
92.88597545420906
 20
-115.3729749603061
 30
0.0
 10
92.88597545420906
 20
-115.3729749603061
 30
0.0
 10
92.88597545420906
 20
-115.3729749603061
 30
0.0
 10
92.88597545420906
 20
-115.0577487234057
 30
0.0
 10
92.88597545420906
 20
-115.0577487234057
 30
0.0
 10
92.88597545420906
 20
-115.0577487234057
 30
0.0
 10
93.10370548887686
 20
-115.0577487234057
 30
0.0
 10
93.10370548887686
 20
-115.0577487234057
 30
0.0
 10
93.10370548887686
 20
-115.0577487234057
 30
0.0
 10
93.10370548887686
 20
-115.3729749603061
 30
0.0
 10
93.10370548887686
 20
-115.3729749603061
 30
0.0
 10
93.10370548887686
 20
-115.3729749603061
 30
0.0
 10
93.29421926921117
 20
-115.3729749603061
 30
0.0
 10
93.29421926921117
 20
-115.3729749603061
 30
0.0
 10
93.29421926921117
 20
-115.3729749603061
 30
0.0
 10
93.29421926921117
 20
-115.5653835431573
 30
0.0
 10
93.29421926921117
 20
-115.5653835431573
 30
0.0
 10
93.29421926921117
 20
-115.5653835431573
 30
0.0
 10
93.10370548887686
 20
-115.5653835431573
 30
0.0
 10
93.10370548887686
 20
-115.5653835431573
 30
0.0
 10
93.10370548887686
 20
-115.5653835431573
 30
0.0
 10
93.10370548887686
 20
-116.23390432207
 30
0.0
 10
93.10370548887686
 20
-116.23390432207
 30
0.0
 10
93.10370548887686
 20
-116.3184814162329
 30
0.0
 10
93.1567599593497
 20
-116.3417358107583
 30
0.0
 10
93.2284179454429
 20
-116.3417358107583
 30
0.0
 10
93.23909774144717
 20
-116.3417358107583
 30
0.0
 10
93.26252439074688
 20
-116.3417358107583
 30
0.0
 10
93.29421926921117
 20
-116.337601696176
 30
0.0
 10
93.29421926921117
 20
-116.337601696176
 30
0.0
 10
93.29421926921117
 20
-116.5089951965672
 30
0.0
 10
93.29421926921117
 20
-116.5089951965672
 30
0.0
 10
93.26045733345572
 20
-116.5215697950884
 30
0.0
 10
93.18638778052285
 20
-116.5322495910926
 30
0.0
 10
93.13540036734115
 20
-116.5322495910926
 30
0.0
  0
HATCH
  5
BF
330
82
100
AcDbEntity
  8
_U+30EC_U+30A4_U+30E4_U+30FC 1
 62
   179
420
  2234388
100
AcDbHatch
 10
0.0
 20
0.0
 30
0.0
210
0.0
220
0.0
230
1.0
  2
SOLID
 70
     1
 71
     0
 91
        1
 92
        1
 93
        1
 72
     4
 94
        3
 73
     0
 74
     1
 95
       53
 96
       49
 40
0.0
 40
0.0
 40
0.0
 40
0.0
 40
1.0
 40
1.0
 40
1.0
 40
2.0
 40
2.0
 40
2.0
 40
3.0
 40
3.0
 40
3.0
 40
4.0
 40
4.0
 40
4.0
 40
5.0
 40
5.0
 40
5.0
 40
6.0
 40
6.0
 40
6.0
 40
7.0
 40
7.0
 40
7.0
 40
8.0
 40
8.0
 40
8.0
 40
9.0
 40
9.0
 40
9.0
 40
10.0
 40
10.0
 40
10.0
 40
11.0
 40
11.0
 40
11.0
 40
12.0
 40
12.0
 40
12.0
 40
13.0
 40
13.0
 40
13.0
 40
14.0
 40
14.0
 40
14.0
 40
15.0
 40
15.0
 40
15.0
 40
16.0
 40
16.0
 40
16.0
 40
16.0
 10
93.13540036734115
 20
-116.5322495910926
 10
92.94523109655536
 20
-116.5322495910926
 10
92.88597545420906
 20
-116.4073648797523
 10
92.88597545420906
 20
-116.2592257738866
 10
92.88597545420906
 20
-116.2592257738866
 10
92.88597545420906
 20
-115.5653835431573
 10
92.88597545420906
 20
-115.5653835431573
 10
92.88597545420906
 20
-115.5653835431573
 10
92.70407441258787
 20
-115.5653835431573
 10
92.70407441258787
 20
-115.5653835431573
 10
92.70407441258787
 20
-115.5653835431573
 10
92.70407441258787
 20
-115.3729749603061
 10
92.70407441258787
 20
-115.3729749603061
 10
92.70407441258787
 20
-115.3729749603061
 10
92.88597545420906
 20
-115.3729749603061
 10
92.88597545420906
 20
-115.3729749603061
 10
92.88597545420906
 20
-115.3729749603061
 10
92.88597545420906
 20
-115.0577487234057
 10
92.88597545420906
 20
-115.0577487234057
 10
92.88597545420906
 20
-115.0577487234057
 10
93.10370548887686
 20
-115.0577487234057
 10
93.10370548887686
 20
-115.0577487234057
 10
93.10370548887686
 20
-115.0577487234057
 10
93.10370548887686
 20
-115.3729749603061
 10
93.10370548887686
 20
-115.3729749603061
 10
93.10370548887686
 20
-115.3729749603061
 10
93.29421926921117
 20
-115.3729749603061
 10
93.29421926921117
 20
-115.3729749603061
 10
93.29421926921117
 20
-115.3729749603061
 10
93.29421926921117
 20
-115.5653835431573
 10
93.29421926921117
 20
-115.5653835431573
 10
93.29421926921117
 20
-115.5653835431573
 10
93.10370548887686
 20
-115.5653835431573
 10
93.10370548887686
 20
-115.5653835431573
 10
93.10370548887686
 20
-115.5653835431573
 10
93.10370548887686
 20
-116.23390432207
 10
93.10370548887686
 20
-116.23390432207
 10
93.10370548887686
 20
-116.3184814162329
 10
93.1567599593497
 20
-116.3417358107583
 10
93.2284179454429
 20
-116.3417358107583
 10
93.23909774144717
 20
-116.3417358107583
 10
93.26252439074688
 20
-116.3417358107583
 10
93.29421926921117
 20
-116.337601696176
 10
93.29421926921117
 20
-116.337601696176
 10
93.29421926921117
 20
-116.5089951965672
 10
93.29421926921117
 20
-116.5089951965672
 10
93.26045733345572
 20
-116.5215697950884
 10
93.18638778052285
 20
-116.5322495910926
 10
93.13540036734115
 20
-116.5322495910926
 97
        0
 97
        0
 75
     2
 76
     1
 98
        0
  0
POLYLINE
  5
C0
330
82
100
AcDbEntity
  8
_U+30EC_U+30A4_U+30E4_U+30FC 1
370
     0
100
AcDb2dPolyline
 66
     1
 10
0.0
 20
0.0
 30
0.0
  0
VERTEX
  5
C1
330
C0
100
AcDbEntity
  8
_U+30EC_U+30A4_U+30E4_U+30FC 1
370
     0
100
AcDbVertex
100
AcDb2dVertex
 10
93.50678166065109
 20
-115.5950113643304
 30
0.0
  0
VERTEX
  5
C2
330
C0
100
AcDbEntity
  8
_U+30EC_U+30A4_U+30E4_U+30FC 1
370
     0
100
AcDbVertex
100
AcDb2dVertex
 10
93.50678166065109
 20
-115.3898559281838
 30
0.0
  0
VERTEX
  5
C3
330
C0
100
AcDbEntity
  8
_U+30EC_U+30A4_U+30E4_U+30FC 1
370
     0
100
AcDbVertex
100
AcDb2dVertex
 10
94.68500431660654
 20
-115.3898559281838
 30
0.0
  0
VERTEX
  5
C4
330
C0
100
AcDbEntity
  8
_U+30EC_U+30A4_U+30E4_U+30FC 1
370
     0
100
AcDbVertex
100
AcDb2dVertex
 10
94.68500431660654
 20
-115.5950113643304
 30
0.0
  0
VERTEX
  5
C5
330
C0
100
AcDbEntity
  8
_U+30EC_U+30A4_U+30E4_U+30FC 1
370
     0
100
AcDbVertex
100
AcDb2dVertex
 10
93.50678166065109
 20
-115.5950113643304
 30
0.0
  0
SEQEND
  5
C6
330
C0
100
AcDbEntity
  8
_U+30EC_U+30A4_U+30E4_U+30FC 1
370
     0
  0
POLYLINE
  5
C7
330
82
100
AcDbEntity
  8
_U+30EC_U+30A4_U+30E4_U+30FC 1
370
     0
100
AcDb2dPolyline
 66
     1
 10
0.0
 20
0.0
 30
0.0
  0
VERTEX
  5
C8
330
C7
100
AcDbEntity
  8
_U+30EC_U+30A4_U+30E4_U+30FC 1
370
     0
100
AcDbVertex
100
AcDb2dVertex
 10
93.50678166065109
 20
-116.0287488859234
 30
0.0
  0
VERTEX
  5
C9
330
C7
100
AcDbEntity
  8
_U+30EC_U+30A4_U+30E4_U+30FC 1
370
     0
100
AcDbVertex
100
AcDb2dVertex
 10
93.50678166065109
 20
-115.8235934497768
 30
0.0
  0
VERTEX
  5
CA
330
C7
100
AcDbEntity
  8
_U+30EC_U+30A4_U+30E4_U+30FC 1
370
     0
100
AcDbVertex
100
AcDb2dVertex
 10
94.68500431660654
 20
-115.8235934497768
 30
0.0
  0
VERTEX
  5
CB
330
C7
100
AcDbEntity
  8
_U+30EC_U+30A4_U+30E4_U+30FC 1
370
     0
100
AcDbVertex
100
AcDb2dVertex
 10
94.68500431660654
 20
-116.0287488859234
 30
0.0
  0
VERTEX
  5
CC
330
C7
100
AcDbEntity
  8
_U+30EC_U+30A4_U+30E4_U+30FC 1
370
     0
100
AcDbVertex
100
AcDb2dVertex
 10
93.50678166065109
 20
-116.0287488859234
 30
0.0
  0
SEQEND
  5
CD
330
C7
100
AcDbEntity
  8
_U+30EC_U+30A4_U+30E4_U+30FC 1
370
     0
  0
HATCH
  5
CE
330
82
100
AcDbEntity
  8
_U+30EC_U+30A4_U+30E4_U+30FC 1
 62
   179
420
  2234388
100
AcDbHatch
 10
0.0
 20
0.0
 30
0.0
210
0.0
220
0.0
230
1.0
  2
SOLID
 70
     1
 71
     0
 91
        2
 92
        1
 93
        4
 72
     1
 10
93.50678166065109
 20
-115.5950113643304
 11
93.50678166065109
 21
-115.3898559281838
 72
     1
 10
93.50678166065109
 20
-115.3898559281838
 11
94.68500431660654
 21
-115.3898559281838
 72
     1
 10
94.68500431660654
 20
-115.3898559281838
 11
94.68500431660654
 21
-115.5950113643304
 72
     1
 10
94.68500431660654
 20
-115.5950113643304
 11
93.50678166065109
 21
-115.5950113643304
 97
        0
 92
        1
 93
        4
 72
     1
 10
93.50678166065109
 20
-116.0287488859234
 11
93.50678166065109
 21
-115.8235934497768
 72
     1
 10
93.50678166065109
 20
-115.8235934497768
 11
94.68500431660654
 21
-115.8235934497768
 72
     1
 10
94.68500431660654
 20
-115.8235934497768
 11
94.68500431660654
 21
-116.0287488859234
 72
     1
 10
94.68500431660654
 20
-116.0287488859234
 11
93.50678166065109
 21
-116.0287488859234
 97
        0
 75
     2
 76
     1
 98
        0
  0
SPLINE
  5
CF
330
82
100
AcDbEntity
  8
_U+30EC_U+30A4_U+30E4_U+30FC 1
370
     0
100
AcDbSpline
210
0.0
220
0.0
230
1.0
 70
    11
 71
     3
 72
    26
 73
    22
 74
     0
 42
0.0000000001
 43
0.0000000001
 12
1.0
 22
0.0
 32
0.0
 13
1.0
 23
0.0
 33
0.0
 40
0.0
 40
0.0
 40
0.0
 40
0.0
 40
1.0
 40
1.0
 40
1.0
 40
2.0
 40
2.0
 40
2.0
 40
3.0
 40
3.0
 40
3.0
 40
4.0
 40
4.0
 40
4.0
 40
5.0
 40
5.0
 40
5.0
 40
6.0
 40
6.0
 40
6.0
 40
7.0
 40
7.0
 40
7.0
 40
7.0
 10
95.32200247182922
 20
-116.4814344326852
 30
0.0
 10
95.32200247182922
 20
-116.4814344326852
 30
0.0
 10
95.32200247182922
 20
-115.3771090748884
 30
0.0
 10
95.32200247182922
 20
-115.3771090748884
 30
0.0
 10
95.32200247182922
 20
-115.3771090748884
 30
0.0
 10
94.9919623243423
 20
-115.3771090748884
 30
0.0
 10
94.9919623243423
 20
-115.3771090748884
 30
0.0
 10
94.9919623243423
 20
-115.3771090748884
 30
0.0
 10
94.9919623243423
 20
-115.2291422237969
 30
0.0
 10
94.9919623243423
 20
-115.2291422237969
 30
0.0
 10
95.32406952912038
 20
-115.2143283132103
 30
0.0
 10
95.37057831817125
 20
-115.051375296758
 30
0.0
 10
95.40020613934439
 20
-114.937170381422
 30
0.0
 10
95.40020613934439
 20
-114.937170381422
 30
0.0
 10
95.54627818791899
 20
-114.937170381422
 30
0.0
 10
95.54627818791899
 20
-114.937170381422
 30
0.0
 10
95.54627818791899
 20
-114.937170381422
 30
0.0
 10
95.54627818791899
 20
-116.4814344326852
 30
0.0
 10
95.54627818791899
 20
-116.4814344326852
 30
0.0
 10
95.54627818791899
 20
-116.4814344326852
 30
0.0
 10
95.32200247182922
 20
-116.4814344326852
 30
0.0
 10
95.32200247182922
 20
-116.4814344326852
 30
0.0
  0
HATCH
  5
D0
330
82
100
AcDbEntity
  8
_U+30EC_U+30A4_U+30E4_U+30FC 1
 62
   179
420
  2234388
100
AcDbHatch
 10
0.0
 20
0.0
 30
0.0
210
0.0
220
0.0
230
1.0
  2
SOLID
 70
     1
 71
     0
 91
        1
 92
        1
 93
        1
 72
     4
 94
        3
 73
     0
 74
     1
 95
       26
 96
       22
 40
0.0
 40
0.0
 40
0.0
 40
0.0
 40
1.0
 40
1.0
 40
1.0
 40
2.0
 40
2.0
 40
2.0
 40
3.0
 40
3.0
 40
3.0
 40
4.0
 40
4.0
 40
4.0
 40
5.0
 40
5.0
 40
5.0
 40
6.0
 40
6.0
 40
6.0
 40
7.0
 40
7.0
 40
7.0
 40
7.0
 10
95.32200247182922
 20
-116.4814344326852
 10
95.32200247182922
 20
-116.4814344326852
 10
95.32200247182922
 20
-115.3771090748884
 10
95.32200247182922
 20
-115.3771090748884
 10
95.32200247182922
 20
-115.3771090748884
 10
94.9919623243423
 20
-115.3771090748884
 10
94.9919623243423
 20
-115.3771090748884
 10
94.9919623243423
 20
-115.3771090748884
 10
94.9919623243423
 20
-115.2291422237969
 10
94.9919623243423
 20
-115.2291422237969
 10
95.32406952912038
 20
-115.2143283132103
 10
95.37057831817125
 20
-115.051375296758
 10
95.40020613934439
 20
-114.937170381422
 10
95.40020613934439
 20
-114.937170381422
 10
95.54627818791899
 20
-114.937170381422
 10
95.54627818791899
 20
-114.937170381422
 10
95.54627818791899
 20
-114.937170381422
 10
95.54627818791899
 20
-116.4814344326852
 10
95.54627818791899
 20
-116.4814344326852
 10
95.54627818791899
 20
-116.4814344326852
 10
95.32200247182922
 20
-116.4814344326852
 10
95.32200247182922
 20
-116.4814344326852
 97
        0
 97
        0
 75
     2
 76
     1
 98
        0
  0
POLYLINE
  5
D1
330
82
100
AcDbEntity
  8
_U+30EC_U+30A4_U+30E4_U+30FC 1
370
     0
100
AcDb2dPolyline
 66
     1
 10
0.0
 20
0.0
 30
0.0
  0
VERTEX
  5
D2
330
D1
100
AcDbEntity
  8
_U+30EC_U+30A4_U+30E4_U+30FC 1
370
     0
100
AcDbVertex
100
AcDb2dVertex
 10
95.9889729577736
 20
-116.4814344326852
 30
0.0
  0
VERTEX
  5
D3
330
D1
100
AcDbEntity
  8
_U+30EC_U+30A4_U+30E4_U+30FC 1
370
     0
100
AcDbVertex
100
AcDb2dVertex
 10
95.9889729577736
 20
-116.2297702074877
 30
0.0
  0
VERTEX
  5
D4
330
D1
100
AcDbEntity
  8
_U+30EC_U+30A4_U+30E4_U+30FC 1
370
     0
100
AcDbVertex
100
AcDb2dVertex
 10
96.24080943774536
 20
-116.2297702074877
 30
0.0
  0
VERTEX
  5
D5
330
D1
100
AcDbEntity
  8
_U+30EC_U+30A4_U+30E4_U+30FC 1
370
     0
100
AcDbVertex
100
AcDb2dVertex
 10
96.24080943774536
 20
-116.4814344326852
 30
0.0
  0
VERTEX
  5
D6
330
D1
100
AcDbEntity
  8
_U+30EC_U+30A4_U+30E4_U+30FC 1
370
     0
100
AcDbVertex
100
AcDb2dVertex
 10
95.9889729577736
 20
-116.4814344326852
 30
0.0
  0
SEQEND
  5
D7
330
D1
100
AcDbEntity
  8
_U+30EC_U+30A4_U+30E4_U+30FC 1
370
     0
  0
HATCH
  5
D8
330
82
100
AcDbEntity
  8
_U+30EC_U+30A4_U+30E4_U+30FC 1
 62
   179
420
  2234388
100
AcDbHatch
 10
0.0
 20
0.0
 30
0.0
210
0.0
220
0.0
230
1.0
  2
SOLID
 70
     1
 71
     0
 91
        1
 92
        1
 93
        4
 72
     1
 10
95.9889729577736
 20
-116.4814344326852
 11
95.9889729577736
 21
-116.2297702074877
 72
     1
 10
95.9889729577736
 20
-116.2297702074877
 11
96.24080943774536
 21
-116.2297702074877
 72
     1
 10
96.24080943774536
 20
-116.2297702074877
 11
96.24080943774536
 21
-116.4814344326852
 72
     1
 10
96.24080943774536
 20
-116.4814344326852
 11
95.9889729577736
 21
-116.4814344326852
 97
        0
 75
     2
 76
     1
 98
        0
  0
SPLINE
  5
D9
330
82
100
AcDbEntity
  8
_U+30EC_U+30A4_U+30E4_U+30FC 1
370
     0
100
AcDbSpline
210
0.0
220
0.0
230
1.0
 70
    11
 71
     3
 72
    29
 73
    25
 74
     0
 42
0.0000000001
 43
0.0000000001
 12
1.0
 22
0.0
 32
0.0
 13
1.0
 23
0.0
 33
0.0
 40
0.0
 40
0.0
 40
0.0
 40
0.0
 40
1.0
 40
1.0
 40
1.0
 40
2.0
 40
2.0
 40
2.0
 40
3.0
 40
3.0
 40
3.0
 40
4.0
 40
4.0
 40
4.0
 40
5.0
 40
5.0
 40
5.0
 40
6.0
 40
6.0
 40
6.0
 40
7.0
 40
7.0
 40
7.0
 40
8.0
 40
8.0
 40
8.0
 40
8.0
 10
97.53237573516552
 20
-116.3036675056463
 30
0.0
 10
97.42419973692867
 20
-116.5131293111495
 30
0.0
 10
97.25091143402061
 20
-116.5322495910926
 30
0.0
 10
97.13446720661916
 20
-116.5322495910926
 30
0.0
 10
96.973581247458
 20
-116.5322495910926
 30
0.0
 10
96.83198782301423
 20
-116.4857408020418
 30
0.0
 10
96.73690318762134
 20
-116.3036675056463
 30
0.0
 10
96.63320581351532
 20
-116.1090196107297
 30
0.0
 10
96.61391327879791
 20
-115.8721692961188
 30
0.0
 10
96.61391327879791
 20
-115.7092162796664
 30
0.0
 10
96.61391327879791
 20
-115.5653835431573
 30
0.0
 10
96.63113875622416
 20
-115.3137193179598
 30
0.0
 10
96.73690318762134
 20
-115.1147650536866
 30
0.0
 10
96.84473467630966
 20
-114.9116766748311
 30
0.0
 10
97.00562063547082
 20
-114.8884222803057
 30
0.0
 10
97.13446720661916
 20
-114.8884222803057
 30
0.0
 10
97.29328610848918
 20
-114.8884222803057
 30
0.0
 10
97.4369465902241
 20
-114.9328640120654
 30
0.0
 10
97.53237573516552
 20
-115.1147650536866
 30
0.0
 10
97.63159448514072
 20
-115.3073458913121
 30
0.0
 10
97.65502113444042
 20
-115.5357557219841
 30
0.0
 10
97.65502113444042
 20
-115.7092162796664
 30
0.0
 10
97.65502113444042
 20
-115.8806097800576
 30
0.0
 10
97.63366154243187
 20
-116.1112589227951
 30
0.0
 10
97.53237573516552
 20
-116.3036675056463
 30
0.0
  0
SPLINE
  5
DA
330
82
100
AcDbEntity
  8
_U+30EC_U+30A4_U+30E4_U+30FC 1
370
     0
100
AcDbSpline
210
0.0
220
0.0
230
1.0
 70
    11
 71
     3
 72
    17
 73
    13
 74
     0
 42
0.0000000001
 43
0.0000000001
 12
1.0
 22
0.0
 32
0.0
 13
1.0
 23
0.0
 33
0.0
 40
0.0
 40
0.0
 40
0.0
 40
0.0
 40
1.0
 40
1.0
 40
1.0
 40
2.0
 40
2.0
 40
2.0
 40
3.0
 40
3.0
 40
3.0
 40
4.0
 40
4.0
 40
4.0
 40
4.0
 10
97.13446720661916
 20
-115.0810031179311
 30
0.0
 10
96.88469778393855
 20
-115.0810031179311
 30
0.0
 10
96.83818899488767
 20
-115.3645344763672
 30
0.0
 10
96.83818899488767
 20
-115.7092162796664
 30
0.0
 10
96.83818899488767
 20
-116.0287488859234
 30
0.0
 10
96.8743624974828
 20
-116.337601696176
 30
0.0
 10
97.13446720661916
 20
-116.337601696176
 30
0.0
 10
97.38216957200864
 20
-116.337601696176
 30
0.0
 10
97.43074541835065
 20
-116.0561373950311
 30
0.0
 10
97.43074541835065
 20
-115.7092162796664
 30
0.0
 10
97.43074541835065
 20
-115.3898559281838
 30
0.0
 10
97.39250485846438
 20
-115.0810031179311
 30
0.0
 10
97.13446720661916
 20
-115.0810031179311
 30
0.0
  0
HATCH
  5
DB
330
82
100
AcDbEntity
  8
_U+30EC_U+30A4_U+30E4_U+30FC 1
 62
   179
420
  2234388
100
AcDbHatch
 10
0.0
 20
0.0
 30
0.0
210
0.0
220
0.0
230
1.0
  2
SOLID
 70
     1
 71
     0
 91
        2
 92
        1
 93
        1
 72
     4
 94
        3
 73
     0
 74
     1
 95
       29
 96
       25
 40
0.0
 40
0.0
 40
0.0
 40
0.0
 40
1.0
 40
1.0
 40
1.0
 40
2.0
 40
2.0
 40
2.0
 40
3.0
 40
3.0
 40
3.0
 40
4.0
 40
4.0
 40
4.0
 40
5.0
 40
5.0
 40
5.0
 40
6.0
 40
6.0
 40
6.0
 40
7.0
 40
7.0
 40
7.0
 40
8.0
 40
8.0
 40
8.0
 40
8.0
 10
97.53237573516552
 20
-116.3036675056463
 10
97.42419973692867
 20
-116.5131293111495
 10
97.25091143402061
 20
-116.5322495910926
 10
97.13446720661916
 20
-116.5322495910926
 10
96.973581247458
 20
-116.5322495910926
 10
96.83198782301423
 20
-116.4857408020418
 10
96.73690318762134
 20
-116.3036675056463
 10
96.63320581351532
 20
-116.1090196107297
 10
96.61391327879791
 20
-115.8721692961188
 10
96.61391327879791
 20
-115.7092162796664
 10
96.61391327879791
 20
-115.5653835431573
 10
96.63113875622416
 20
-115.3137193179598
 10
96.73690318762134
 20
-115.1147650536866
 10
96.84473467630966
 20
-114.9116766748311
 10
97.00562063547082
 20
-114.8884222803057
 10
97.13446720661916
 20
-114.8884222803057
 10
97.29328610848918
 20
-114.8884222803057
 10
97.4369465902241
 20
-114.9328640120654
 10
97.53237573516552
 20
-115.1147650536866
 10
97.63159448514072
 20
-115.3073458913121
 10
97.65502113444042
 20
-115.5357557219841
 10
97.65502113444042
 20
-115.7092162796664
 10
97.65502113444042
 20
-115.8806097800576
 10
97.63366154243187
 20
-116.1112589227951
 10
97.53237573516552
 20
-116.3036675056463
 97
        0
 97
        0
 92
        1
 93
        1
 72
     4
 94
        3
 73
     0
 74
     1
 95
       17
 96
       13
 40
0.0
 40
0.0
 40
0.0
 40
0.0
 40
1.0
 40
1.0
 40
1.0
 40
2.0
 40
2.0
 40
2.0
 40
3.0
 40
3.0
 40
3.0
 40
4.0
 40
4.0
 40
4.0
 40
4.0
 10
97.13446720661916
 20
-115.0810031179311
 10
96.88469778393855
 20
-115.0810031179311
 10
96.83818899488767
 20
-115.3645344763672
 10
96.83818899488767
 20
-115.7092162796664
 10
96.83818899488767
 20
-116.0287488859234
 10
96.8743624974828
 20
-116.337601696176
 10
97.13446720661916
 20
-116.337601696176
 10
97.38216957200864
 20
-116.337601696176
 10
97.43074541835065
 20
-116.0561373950311
 10
97.43074541835065
 20
-115.7092162796664
 10
97.43074541835065
 20
-115.3898559281838
 10
97.39250485846438
 20
-115.0810031179311
 10
97.13446720661916
 20
-115.0810031179311
 97
        0
 97
        0
 75
     2
 76
     1
 98
        0
  0
ENDBLK
  5
85
330
82
100
AcDbEntity
  8
0
100
AcDbBlockEnd
  0
BLOCK
  5
EA
330
E8
100
AcDbEntity
  8
0
100
AcDbBlockBegin
  2
block 5
 70
     0
 10
0.0
 20
0.0
 30
0.0
  3
block 5
  1

  0
SPLINE
  5
EC
330
E8
100
AcDbEntity
  8
_U+30EC_U+30A4_U+30E4_U+30FC 1
370
     0
100
AcDbSpline
210
0.0
220
0.0
230
1.0
 70
    11
 71
     3
 72
    53
 73
    49
 74
     0
 42
0.0000000001
 43
0.0000000001
 12
1.0
 22
0.0
 32
0.0
 13
1.0
 23
0.0
 33
0.0
 40
0.0
 40
0.0
 40
0.0
 40
0.0
 40
1.0
 40
1.0
 40
1.0
 40
2.0
 40
2.0
 40
2.0
 40
3.0
 40
3.0
 40
3.0
 40
4.0
 40
4.0
 40
4.0
 40
5.0
 40
5.0
 40
5.0
 40
6.0
 40
6.0
 40
6.0
 40
7.0
 40
7.0
 40
7.0
 40
8.0
 40
8.0
 40
8.0
 40
9.0
 40
9.0
 40
9.0
 40
10.0
 40
10.0
 40
10.0
 40
11.0
 40
11.0
 40
11.0
 40
12.0
 40
12.0
 40
12.0
 40
13.0
 40
13.0
 40
13.0
 40
14.0
 40
14.0
 40
14.0
 40
15.0
 40
15.0
 40
15.0
 40
16.0
 40
16.0
 40
16.0
 40
16.0
 10
115.1626518809316
 20
-126.86219614884
 30
0.0
 10
115.0882378184502
 20
-126.8380804804433
 30
0.0
 10
114.996942788091
 20
-126.7905381627468
 30
0.0
 10
114.9197726492215
 20
-126.6988986228392
 30
0.0
 10
114.7892035303305
 20
-126.5404242305177
 30
0.0
 10
114.8095295936935
 20
-126.4091660925297
 30
0.0
 10
114.82434350428
 20
-126.3009900942928
 30
0.0
 10
114.82434350428
 20
-126.3009900942928
 30
0.0
 10
115.0358723670744
 20
-126.3695474944493
 30
0.0
 10
115.0358723670744
 20
-126.3695474944493
 30
0.0
 10
115.0265706092642
 20
-126.5755642044672
 30
0.0
 10
115.1381917029863
 20
-126.6430880759781
 30
0.0
 10
115.2267306569572
 20
-126.6716823685057
 30
0.0
 10
115.3593668331393
 20
-126.7147460620713
 30
0.0
 10
115.5350667028871
 20
-126.6672037443749
 30
0.0
 10
115.6067246889803
 20
-126.4460286142218
 30
0.0
 10
115.685961885141
 20
-126.2028048729632
 30
0.0
 10
115.5364447410812
 20
-126.0808484927853
 30
0.0
 10
115.4217230614224
 20
-126.0436414615447
 30
0.0
 10
115.3914062211522
 20
-126.0336506846374
 30
0.0
 10
115.2570474972274
 20
-125.9898979719748
 30
0.0
 10
115.1326795502099
 20
-126.0849826073676
 30
0.0
 10
115.1326795502099
 20
-126.0849826073676
 30
0.0
 10
114.9714490815002
 20
-126.0126356021774
 30
0.0
 10
114.9714490815002
 20
-126.0126356021774
 30
0.0
 10
114.9714490815002
 20
-126.0126356021774
 30
0.0
 10
115.3476535084895
 20
-125.2450683280637
 30
0.0
 10
115.3476535084895
 20
-125.2450683280637
 30
0.0
 10
115.3476535084895
 20
-125.2450683280637
 30
0.0
 10
116.0880045282697
 20
-125.4858805024827
 30
0.0
 10
116.0880045282697
 20
-125.4858805024827
 30
0.0
 10
116.0880045282697
 20
-125.4858805024827
 30
0.0
 10
116.0277153572778
 20
-125.6708821300406
 30
0.0
 10
116.0277153572778
 20
-125.6708821300406
 30
0.0
 10
116.0277153572778
 20
-125.6708821300406
 30
0.0
 10
115.4423936343339
 20
-125.4807128592548
 30
0.0
 10
115.4423936343339
 20
-125.4807128592548
 30
0.0
 10
115.4423936343339
 20
-125.4807128592548
 30
0.0
 10
115.2494682871599
 20
-125.862773948569
 30
0.0
 10
115.2494682871599
 20
-125.862773948569
 30
0.0
 10
115.3180256873163
 20
-125.8493380761766
 30
0.0
 10
115.4089762081269
 20
-125.8369357324297
 30
0.0
 10
115.5216308304946
 20
-125.8734537445733
 30
0.0
 10
115.7631320240106
 20
-125.952001921637
 30
0.0
 10
115.9309081741423
 20
-126.2021158538661
 30
0.0
 10
115.8341009910068
 20
-126.4997721037917
 30
0.0
 10
115.7362602792257
 20
-126.8019069778481
 30
0.0
 10
115.4503173539499
 20
-126.9559027460388
 30
0.0
 10
115.1626518809316
 20
-126.86219614884
 30
0.0
  0
HATCH
  5
ED
330
E8
100
AcDbEntity
  8
_U+30EC_U+30A4_U+30E4_U+30FC 1
 62
   179
420
  2234388
100
AcDbHatch
 10
0.0
 20
0.0
 30
0.0
210
0.0
220
0.0
230
1.0
  2
SOLID
 70
     1
 71
     0
 91
        1
 92
        1
 93
        1
 72
     4
 94
        3
 73
     0
 74
     1
 95
       53
 96
       49
 40
0.0
 40
0.0
 40
0.0
 40
0.0
 40
1.0
 40
1.0
 40
1.0
 40
2.0
 40
2.0
 40
2.0
 40
3.0
 40
3.0
 40
3.0
 40
4.0
 40
4.0
 40
4.0
 40
5.0
 40
5.0
 40
5.0
 40
6.0
 40
6.0
 40
6.0
 40
7.0
 40
7.0
 40
7.0
 40
8.0
 40
8.0
 40
8.0
 40
9.0
 40
9.0
 40
9.0
 40
10.0
 40
10.0
 40
10.0
 40
11.0
 40
11.0
 40
11.0
 40
12.0
 40
12.0
 40
12.0
 40
13.0
 40
13.0
 40
13.0
 40
14.0
 40
14.0
 40
14.0
 40
15.0
 40
15.0
 40
15.0
 40
16.0
 40
16.0
 40
16.0
 40
16.0
 10
115.1626518809316
 20
-126.86219614884
 10
115.0882378184502
 20
-126.8380804804433
 10
114.996942788091
 20
-126.7905381627468
 10
114.9197726492215
 20
-126.6988986228392
 10
114.7892035303305
 20
-126.5404242305177
 10
114.8095295936935
 20
-126.4091660925297
 10
114.82434350428
 20
-126.3009900942928
 10
114.82434350428
 20
-126.3009900942928
 10
115.0358723670744
 20
-126.3695474944493
 10
115.0358723670744
 20
-126.3695474944493
 10
115.0265706092642
 20
-126.5755642044672
 10
115.1381917029863
 20
-126.6430880759781
 10
115.2267306569572
 20
-126.6716823685057
 10
115.3593668331393
 20
-126.7147460620713
 10
115.5350667028871
 20
-126.6672037443749
 10
115.6067246889803
 20
-126.4460286142218
 10
115.685961885141
 20
-126.2028048729632
 10
115.5364447410812
 20
-126.0808484927853
 10
115.4217230614224
 20
-126.0436414615447
 10
115.3914062211522
 20
-126.0336506846374
 10
115.2570474972274
 20
-125.9898979719748
 10
115.1326795502099
 20
-126.0849826073676
 10
115.1326795502099
 20
-126.0849826073676
 10
114.9714490815002
 20
-126.0126356021774
 10
114.9714490815002
 20
-126.0126356021774
 10
114.9714490815002
 20
-126.0126356021774
 10
115.3476535084895
 20
-125.2450683280637
 10
115.3476535084895
 20
-125.2450683280637
 10
115.3476535084895
 20
-125.2450683280637
 10
116.0880045282697
 20
-125.4858805024827
 10
116.0880045282697
 20
-125.4858805024827
 10
116.0880045282697
 20
-125.4858805024827
 10
116.0277153572778
 20
-125.6708821300406
 10
116.0277153572778
 20
-125.6708821300406
 10
116.0277153572778
 20
-125.6708821300406
 10
115.4423936343339
 20
-125.4807128592548
 10
115.4423936343339
 20
-125.4807128592548
 10
115.4423936343339
 20
-125.4807128592548
 10
115.2494682871599
 20
-125.862773948569
 10
115.2494682871599
 20
-125.862773948569
 10
115.3180256873163
 20
-125.8493380761766
 10
115.4089762081269
 20
-125.8369357324297
 10
115.5216308304946
 20
-125.8734537445733
 10
115.7631320240106
 20
-125.952001921637
 10
115.9309081741423
 20
-126.2021158538661
 10
115.8341009910068
 20
-126.4997721037917
 10
115.7362602792257
 20
-126.8019069778481
 10
115.4503173539499
 20
-126.9559027460388
 10
115.1626518809316
 20
-126.86219614884
 97
        0
 97
        0
 75
     2
 76
     1
 98
        0
  0
SPLINE
  5
EE
330
E8
100
AcDbEntity
  8
_U+30EC_U+30A4_U+30E4_U+30FC 1
370
     0
100
AcDbSpline
210
0.0
220
0.0
230
1.0
 70
    11
 71
     3
 72
    29
 73
    25
 74
     0
 42
0.0000000001
 43
0.0000000001
 12
1.0
 22
0.0
 32
0.0
 13
1.0
 23
0.0
 33
0.0
 40
0.0
 40
0.0
 40
0.0
 40
0.0
 40
1.0
 40
1.0
 40
1.0
 40
2.0
 40
2.0
 40
2.0
 40
3.0
 40
3.0
 40
3.0
 40
4.0
 40
4.0
 40
4.0
 40
5.0
 40
5.0
 40
5.0
 40
6.0
 40
6.0
 40
6.0
 40
7.0
 40
7.0
 40
7.0
 40
8.0
 40
8.0
 40
8.0
 40
8.0
 10
116.7491183518891
 20
-127.1374592781115
 30
0.0
 10
116.5813422017575
 20
-127.303168370952
 30
0.0
 10
116.4108099752376
 20
-127.2680283970024
 30
0.0
 10
116.2998779006125
 20
-127.2318548944073
 30
0.0
 10
116.1469156610674
 20
-127.1822455194197
 30
0.0
 10
116.0266818286322
 20
-127.0940510749973
 30
0.0
 10
115.9925753833282
 20
-126.8914794604646
 30
0.0
 10
115.9539903138935
 20
-126.6744384448939
 30
0.0
 10
116.0091118416574
 20
-126.4432725378336
 30
0.0
 10
116.0594102357421
 20
-126.2882432409974
 30
0.0
 10
116.1038519675018
 20
-126.151472950233
 30
0.0
 10
116.1979030742491
 20
-125.9175509667845
 30
0.0
 10
116.3598225620559
 20
-125.7607991222056
 30
0.0
 10
116.5251871453479
 20
-125.60094669169
 30
0.0
 10
116.6850395758635
 20
-125.6288519651206
 30
0.0
 10
116.8076849751384
 20
-125.6684705632009
 30
0.0
 10
116.9585801573923
 20
-125.71773542864
 30
0.0
 10
117.0819145757642
 20
-125.8042073253198
 30
0.0
 10
117.1163655306167
 20
-126.0067789398525
 30
0.0
 10
117.1511609950178
 20
-126.2207193694865
 30
0.0
 10
117.1029296582243
 20
-126.4449950855763
 30
0.0
 10
117.0491861686544
 20
-126.6100151593197
 30
0.0
 10
116.9964762077301
 20
-126.772968175772
 30
0.0
 10
116.9048366678224
 20
-126.9858750767605
 30
0.0
 10
116.7491183518891
 20
-127.1374592781115
 30
0.0
  0
SPLINE
  5
EF
330
E8
100
AcDbEntity
  8
_U+30EC_U+30A4_U+30E4_U+30FC 1
370
     0
100
AcDbSpline
210
0.0
220
0.0
230
1.0
 70
    11
 71
     3
 72
    17
 73
    13
 74
     0
 42
0.0000000001
 43
0.0000000001
 12
1.0
 22
0.0
 32
0.0
 13
1.0
 23
0.0
 33
0.0
 40
0.0
 40
0.0
 40
0.0
 40
0.0
 40
1.0
 40
1.0
 40
1.0
 40
2.0
 40
2.0
 40
2.0
 40
3.0
 40
3.0
 40
3.0
 40
4.0
 40
4.0
 40
4.0
 40
4.0
 10
116.7484293327921
 20
-125.8514051334677
 30
0.0
 10
116.5114067634069
 20
-125.7745795041466
 30
0.0
 10
116.3791150967733
 20
-126.0295165700551
 30
0.0
 10
116.2723171367305
 20
-126.3574896602509
 30
0.0
 10
116.1737874058524
 20
-126.6613470820499
 30
0.0
 10
116.1128092157635
 20
-126.9662380324946
 30
0.0
 10
116.3601670716044
 20
-127.0468532668494
 30
0.0
 10
116.5958116027955
 20
-127.1233343866219
 30
0.0
 10
116.7287922885261
 20
-126.8704643780046
 30
0.0
 10
116.8359347581174
 20
-126.5407687400662
 30
0.0
 10
116.9348089985441
 20
-126.2369113182672
 30
0.0
 10
116.9937201313419
 20
-125.9313313487255
 30
0.0
 10
116.7484293327921
 20
-125.8514051334677
 30
0.0
  0
HATCH
  5
F0
330
E8
100
AcDbEntity
  8
_U+30EC_U+30A4_U+30E4_U+30FC 1
 62
   179
420
  2234388
100
AcDbHatch
 10
0.0
 20
0.0
 30
0.0
210
0.0
220
0.0
230
1.0
  2
SOLID
 70
     1
 71
     0
 91
        2
 92
        1
 93
        1
 72
     4
 94
        3
 73
     0
 74
     1
 95
       29
 96
       25
 40
0.0
 40
0.0
 40
0.0
 40
0.0
 40
1.0
 40
1.0
 40
1.0
 40
2.0
 40
2.0
 40
2.0
 40
3.0
 40
3.0
 40
3.0
 40
4.0
 40
4.0
 40
4.0
 40
5.0
 40
5.0
 40
5.0
 40
6.0
 40
6.0
 40
6.0
 40
7.0
 40
7.0
 40
7.0
 40
8.0
 40
8.0
 40
8.0
 40
8.0
 10
116.7491183518891
 20
-127.1374592781115
 10
116.5813422017575
 20
-127.303168370952
 10
116.4108099752376
 20
-127.2680283970024
 10
116.2998779006125
 20
-127.2318548944073
 10
116.1469156610674
 20
-127.1822455194197
 10
116.0266818286322
 20
-127.0940510749973
 10
115.9925753833282
 20
-126.8914794604646
 10
115.9539903138935
 20
-126.6744384448939
 10
116.0091118416574
 20
-126.4432725378336
 10
116.0594102357421
 20
-126.2882432409974
 10
116.1038519675018
 20
-126.151472950233
 10
116.1979030742491
 20
-125.9175509667845
 10
116.3598225620559
 20
-125.7607991222056
 10
116.5251871453479
 20
-125.60094669169
 10
116.6850395758635
 20
-125.6288519651206
 10
116.8076849751384
 20
-125.6684705632009
 10
116.9585801573923
 20
-125.71773542864
 10
117.0819145757642
 20
-125.8042073253198
 10
117.1163655306167
 20
-126.0067789398525
 10
117.1511609950178
 20
-126.2207193694865
 10
117.1029296582243
 20
-126.4449950855763
 10
117.0491861686544
 20
-126.6100151593197
 10
116.9964762077301
 20
-126.772968175772
 10
116.9048366678224
 20
-126.9858750767605
 10
116.7491183518891
 20
-127.1374592781115
 97
        0
 97
        0
 92
        1
 93
        1
 72
     4
 94
        3
 73
     0
 74
     1
 95
       17
 96
       13
 40
0.0
 40
0.0
 40
0.0
 40
0.0
 40
1.0
 40
1.0
 40
1.0
 40
2.0
 40
2.0
 40
2.0
 40
3.0
 40
3.0
 40
3.0
 40
4.0
 40
4.0
 40
4.0
 40
4.0
 10
116.7484293327921
 20
-125.8514051334677
 10
116.5114067634069
 20
-125.7745795041466
 10
116.3791150967733
 20
-126.0295165700551
 10
116.2723171367305
 20
-126.3574896602509
 10
116.1737874058524
 20
-126.6613470820499
 10
116.1128092157635
 20
-126.9662380324946
 10
116.3601670716044
 20
-127.0468532668494
 10
116.5958116027955
 20
-127.1233343866219
 10
116.7287922885261
 20
-126.8704643780046
 10
116.8359347581174
 20
-126.5407687400662
 10
116.9348089985441
 20
-126.2369113182672
 10
116.9937201313419
 20
-125.9313313487255
 10
116.7484293327921
 20
-125.8514051334677
 97
        0
 97
        0
 75
     2
 76
     1
 98
        0
  0
ENDBLK
  5
EB
330
E8
100
AcDbEntity
  8
0
100
AcDbBlockEnd
  0
BLOCK
  5
FF
330
FD
100
AcDbEntity
  8
0
100
AcDbBlockBegin
  2
block 6
 70
     0
 10
0.0
 20
0.0
 30
0.0
  3
block 6
  1

  0
SPLINE
  5
101
330
FD
100
AcDbEntity
  8
_U+30EC_U+30A4_U+30E4_U+30FC 1
370
     0
100
AcDbSpline
210
0.0
220
0.0
230
1.0
 70
    11
 71
     3
 72
    53
 73
    49
 74
     0
 42
0.0000000001
 43
0.0000000001
 12
1.0
 22
0.0
 32
0.0
 13
1.0
 23
0.0
 33
0.0
 40
0.0
 40
0.0
 40
0.0
 40
0.0
 40
1.0
 40
1.0
 40
1.0
 40
2.0
 40
2.0
 40
2.0
 40
3.0
 40
3.0
 40
3.0
 40
4.0
 40
4.0
 40
4.0
 40
5.0
 40
5.0
 40
5.0
 40
6.0
 40
6.0
 40
6.0
 40
7.0
 40
7.0
 40
7.0
 40
8.0
 40
8.0
 40
8.0
 40
9.0
 40
9.0
 40
9.0
 40
10.0
 40
10.0
 40
10.0
 40
11.0
 40
11.0
 40
11.0
 40
12.0
 40
12.0
 40
12.0
 40
13.0
 40
13.0
 40
13.0
 40
14.0
 40
14.0
 40
14.0
 40
15.0
 40
15.0
 40
15.0
 40
16.0
 40
16.0
 40
16.0
 40
16.0
 10
65.61890596232791
 20
-127.1784559143859
 30
0.0
 10
65.54449189984652
 20
-127.2025715827827
 30
0.0
 10
65.44268932825739
 20
-127.2180745124663
 30
0.0
 10
65.3264173556302
 20
-127.1891357103902
 30
0.0
 10
65.12746309135703
 20
-127.1381482972085
 30
0.0
 10
65.06682941081662
 20
-127.0199815220645
 30
0.0
 10
65.01549748808641
 20
-126.9231743389289
 30
0.0
 10
65.01549748808641
 20
-126.9231743389289
 30
0.0
 10
65.22668184133222
 20
-126.8546169387725
 30
0.0
 10
65.22668184133222
 20
-126.8546169387725
 30
0.0
 10
65.34036999234547
 20
-127.026871713035
 30
0.0
 10
65.47025009213938
 20
-127.0155028979336
 30
0.0
 10
65.5587890461103
 20
-126.9865640958575
 30
0.0
 10
65.69142522229242
 20
-126.9435004022919
 30
0.0
 10
65.80580239240273
 20
-126.8019069778481
 30
0.0
 10
65.73397215153526
 20
-126.5807318476951
 30
0.0
 10
65.65490721014878
 20
-126.3371635968879
 30
0.0
 10
65.46215411774905
 20
-126.3264838008837
 30
0.0
 10
65.34743243809022
 20
-126.3636908321244
 30
0.0
 10
65.31728785259429
 20
-126.3733370994831
 30
0.0
 10
65.18241236434676
 20
-126.4174343216943
 30
0.0
 10
65.13797063258704
 20
-126.5676404848512
 30
0.0
 10
65.13797063258704
 20
-126.5676404848512
 30
0.0
 10
64.96519909400176
 20
-126.6038139874463
 30
0.0
 10
64.96519909400176
 20
-126.6038139874463
 30
0.0
 10
64.96519909400176
 20
-126.6038139874463
 30
0.0
 10
64.81809351678159
 20
-125.7614881413027
 30
0.0
 10
64.81809351678159
 20
-125.7614881413027
 30
0.0
 10
64.81809351678159
 20
-125.7614881413027
 30
0.0
 10
65.55844453656178
 20
-125.5206759668837
 30
0.0
 10
65.55844453656178
 20
-125.5206759668837
 30
0.0
 10
65.55844453656178
 20
-125.5206759668837
 30
0.0
 10
65.61873370755366
 20
-125.7060221039902
 30
0.0
 10
65.61873370755366
 20
-125.7060221039902
 30
0.0
 10
65.61873370755366
 20
-125.7060221039902
 30
0.0
 10
65.03323972983544
 20
-125.8965358843245
 30
0.0
 10
65.03323972983544
 20
-125.8965358843245
 30
0.0
 10
65.03323972983544
 20
-125.8965358843245
 30
0.0
 10
65.10162487521765
 20
-126.3189045908161
 30
0.0
 10
65.10162487521765
 20
-126.3189045908161
 30
0.0
 10
65.14951170246262
 20
-126.2679171776344
 30
0.0
 10
65.21565753577943
 20
-126.2038384016088
 30
0.0
 10
65.32813990337283
 20
-126.1673203894651
 30
0.0
 10
65.56964109688884
 20
-126.0887722124014
 30
0.0
 10
65.85265569100211
 20
-126.1931586056045
 30
0.0
 10
65.94946287413764
 20
-126.4908148555301
 30
0.0
 10
66.047475840693
 20
-126.792605220038
 30
0.0
 10
65.90657143534628
 20
-127.0850938267357
 30
0.0
 10
65.61890596232791
 20
-127.1784559143859
 30
0.0
  0
HATCH
  5
102
330
FD
100
AcDbEntity
  8
_U+30EC_U+30A4_U+30E4_U+30FC 1
 62
   179
420
  2234388
100
AcDbHatch
 10
0.0
 20
0.0
 30
0.0
210
0.0
220
0.0
230
1.0
  2
SOLID
 70
     1
 71
     0
 91
        1
 92
        1
 93
        1
 72
     4
 94
        3
 73
     0
 74
     1
 95
       53
 96
       49
 40
0.0
 40
0.0
 40
0.0
 40
0.0
 40
1.0
 40
1.0
 40
1.0
 40
2.0
 40
2.0
 40
2.0
 40
3.0
 40
3.0
 40
3.0
 40
4.0
 40
4.0
 40
4.0
 40
5.0
 40
5.0
 40
5.0
 40
6.0
 40
6.0
 40
6.0
 40
7.0
 40
7.0
 40
7.0
 40
8.0
 40
8.0
 40
8.0
 40
9.0
 40
9.0
 40
9.0
 40
10.0
 40
10.0
 40
10.0
 40
11.0
 40
11.0
 40
11.0
 40
12.0
 40
12.0
 40
12.0
 40
13.0
 40
13.0
 40
13.0
 40
14.0
 40
14.0
 40
14.0
 40
15.0
 40
15.0
 40
15.0
 40
16.0
 40
16.0
 40
16.0
 40
16.0
 10
65.61890596232791
 20
-127.1784559143859
 10
65.54449189984652
 20
-127.2025715827827
 10
65.44268932825739
 20
-127.2180745124663
 10
65.3264173556302
 20
-127.1891357103902
 10
65.12746309135703
 20
-127.1381482972085
 10
65.06682941081662
 20
-127.0199815220645
 10
65.01549748808641
 20
-126.9231743389289
 10
65.01549748808641
 20
-126.9231743389289
 10
65.22668184133222
 20
-126.8546169387725
 10
65.22668184133222
 20
-126.8546169387725
 10
65.34036999234547
 20
-127.026871713035
 10
65.47025009213938
 20
-127.0155028979336
 10
65.5587890461103
 20
-126.9865640958575
 10
65.69142522229242
 20
-126.9435004022919
 10
65.80580239240273
 20
-126.8019069778481
 10
65.73397215153526
 20
-126.5807318476951
 10
65.65490721014878
 20
-126.3371635968879
 10
65.46215411774905
 20
-126.3264838008837
 10
65.34743243809022
 20
-126.3636908321244
 10
65.31728785259429
 20
-126.3733370994831
 10
65.18241236434676
 20
-126.4174343216943
 10
65.13797063258704
 20
-126.5676404848512
 10
65.13797063258704
 20
-126.5676404848512
 10
64.96519909400176
 20
-126.6038139874463
 10
64.96519909400176
 20
-126.6038139874463
 10
64.96519909400176
 20
-126.6038139874463
 10
64.81809351678159
 20
-125.7614881413027
 10
64.81809351678159
 20
-125.7614881413027
 10
64.81809351678159
 20
-125.7614881413027
 10
65.55844453656178
 20
-125.5206759668837
 10
65.55844453656178
 20
-125.5206759668837
 10
65.55844453656178
 20
-125.5206759668837
 10
65.61873370755366
 20
-125.7060221039902
 10
65.61873370755366
 20
-125.7060221039902
 10
65.61873370755366
 20
-125.7060221039902
 10
65.03323972983544
 20
-125.8965358843245
 10
65.03323972983544
 20
-125.8965358843245
 10
65.03323972983544
 20
-125.8965358843245
 10
65.10162487521765
 20
-126.3189045908161
 10
65.10162487521765
 20
-126.3189045908161
 10
65.14951170246262
 20
-126.2679171776344
 10
65.21565753577943
 20
-126.2038384016088
 10
65.32813990337283
 20
-126.1673203894651
 10
65.56964109688884
 20
-126.0887722124014
 10
65.85265569100211
 20
-126.1931586056045
 10
65.94946287413764
 20
-126.4908148555301
 10
66.047475840693
 20
-126.792605220038
 10
65.90657143534628
 20
-127.0850938267357
 10
65.61890596232791
 20
-127.1784559143859
 97
        0
 97
        0
 75
     2
 76
     1
 98
        0
  0
SPLINE
  5
103
330
FD
100
AcDbEntity
  8
_U+30EC_U+30A4_U+30E4_U+30FC 1
370
     0
100
AcDbSpline
210
0.0
220
0.0
230
1.0
 70
    11
 71
     3
 72
    29
 73
    25
 74
     0
 42
0.0000000001
 43
0.0000000001
 12
1.0
 22
0.0
 32
0.0
 13
1.0
 23
0.0
 33
0.0
 40
0.0
 40
0.0
 40
0.0
 40
0.0
 40
1.0
 40
1.0
 40
1.0
 40
2.0
 40
2.0
 40
2.0
 40
3.0
 40
3.0
 40
3.0
 40
4.0
 40
4.0
 40
4.0
 40
5.0
 40
5.0
 40
5.0
 40
6.0
 40
6.0
 40
6.0
 40
7.0
 40
7.0
 40
7.0
 40
8.0
 40
8.0
 40
8.0
 40
8.0
 10
67.06377900884169
 20
-126.4687662444245
 30
0.0
 10
67.02605521327821
 20
-126.7013101896788
 30
0.0
 10
66.86689180185967
 20
-126.772968175772
 30
0.0
 10
66.75613198200888
 20
-126.8087971688186
 30
0.0
 10
66.60334199723806
 20
-126.8584065438062
 30
0.0
 10
66.45416936272674
 20
-126.8584065438062
 30
0.0
 10
66.30723604028083
 20
-126.7144015525228
 30
0.0
 10
66.14876164795935
 20
-126.5614393129777
 30
0.0
 10
66.05729436282596
 20
-126.3419867305673
 30
0.0
 10
66.00699596874131
 20
-126.1873019432796
 30
0.0
 10
65.96255423698159
 20
-126.0501871429666
 30
0.0
 10
65.90088702779562
 20
-125.8055853635139
 30
0.0
 10
65.93981660677893
 20
-125.5837212142638
 30
0.0
 10
65.98012422395637
 20
-125.3573784408829
 30
0.0
 10
66.12550725343391
 20
-125.2853759452412
 30
0.0
 10
66.2481526527088
 20
-125.2454128376123
 30
0.0
 10
66.39904783496274
 20
-125.1964924817217
 30
0.0
 10
66.54959850766816
 20
-125.1944254244306
 30
0.0
 10
66.6963595753398
 20
-125.3380859061655
 30
0.0
 10
66.85052759830474
 20
-125.4903591266135
 30
0.0
 10
66.94337292163222
 20
-125.7001654416652
 30
0.0
 10
66.99694415642784
 20
-125.8655300249572
 30
0.0
 10
67.04982637212643
 20
-126.028138531861
 30
0.0
 10
67.10081378530813
 20
-126.2541367956934
 30
0.0
 10
67.06377900884169
 20
-126.4687662444245
 30
0.0
  0
SPLINE
  5
104
330
FD
100
AcDbEntity
  8
_U+30EC_U+30A4_U+30E4_U+30FC 1
370
     0
100
AcDbSpline
210
0.0
220
0.0
230
1.0
 70
    11
 71
     3
 72
    17
 73
    13
 74
     0
 42
0.0000000001
 43
0.0000000001
 12
1.0
 22
0.0
 32
0.0
 13
1.0
 23
0.0
 33
0.0
 40
0.0
 40
0.0
 40
0.0
 40
0.0
 40
1.0
 40
1.0
 40
1.0
 40
2.0
 40
2.0
 40
2.0
 40
3.0
 40
3.0
 40
3.0
 40
4.0
 40
4.0
 40
4.0
 40
4.0
 10
66.30775280460362
 20
-125.4286919174276
 30
0.0
 10
66.07038572566991
 20
-125.5058620562971
 30
0.0
 10
66.11379392878405
 20
-125.7900824338303
 30
0.0
 10
66.22041963405253
 20
-126.118055524026
 30
0.0
 10
66.31912161970494
 20
-126.4215684362766
 30
0.0
 10
66.44865720995034
 20
-126.7044107756156
 30
0.0
 10
66.69601506579127
 20
-126.6237955412607
 30
0.0
 10
66.93131508743384
 20
-126.5473144214882
 30
0.0
 10
66.89100747025641
 20
-126.2648165916977
 30
0.0
 10
66.78369274589089
 20
-125.9351209537593
 30
0.0
 10
66.68499076023848
 20
-125.6309190224117
 30
0.0
 10
66.55321585792767
 20
-125.3491102117183
 30
0.0
 10
66.30775280460362
 20
-125.4286919174276
 30
0.0
  0
HATCH
  5
105
330
FD
100
AcDbEntity
  8
_U+30EC_U+30A4_U+30E4_U+30FC 1
 62
   179
420
  2234388
100
AcDbHatch
 10
0.0
 20
0.0
 30
0.0
210
0.0
220
0.0
230
1.0
  2
SOLID
 70
     1
 71
     0
 91
        2
 92
        1
 93
        1
 72
     4
 94
        3
 73
     0
 74
     1
 95
       29
 96
       25
 40
0.0
 40
0.0
 40
0.0
 40
0.0
 40
1.0
 40
1.0
 40
1.0
 40
2.0
 40
2.0
 40
2.0
 40
3.0
 40
3.0
 40
3.0
 40
4.0
 40
4.0
 40
4.0
 40
5.0
 40
5.0
 40
5.0
 40
6.0
 40
6.0
 40
6.0
 40
7.0
 40
7.0
 40
7.0
 40
8.0
 40
8.0
 40
8.0
 40
8.0
 10
67.06377900884169
 20
-126.4687662444245
 10
67.02605521327821
 20
-126.7013101896788
 10
66.86689180185967
 20
-126.772968175772
 10
66.75613198200888
 20
-126.8087971688186
 10
66.60334199723806
 20
-126.8584065438062
 10
66.45416936272674
 20
-126.8584065438062
 10
66.30723604028083
 20
-126.7144015525228
 10
66.14876164795935
 20
-126.5614393129777
 10
66.05729436282596
 20
-126.3419867305673
 10
66.00699596874131
 20
-126.1873019432796
 10
65.96255423698159
 20
-126.0501871429666
 10
65.90088702779562
 20
-125.8055853635139
 10
65.93981660677893
 20
-125.5837212142638
 10
65.98012422395637
 20
-125.3573784408829
 10
66.12550725343391
 20
-125.2853759452412
 10
66.2481526527088
 20
-125.2454128376123
 10
66.39904783496274
 20
-125.1964924817217
 10
66.54959850766816
 20
-125.1944254244306
 10
66.6963595753398
 20
-125.3380859061655
 10
66.85052759830474
 20
-125.4903591266135
 10
66.94337292163222
 20
-125.7001654416652
 10
66.99694415642784
 20
-125.8655300249572
 10
67.04982637212643
 20
-126.028138531861
 10
67.10081378530813
 20
-126.2541367956934
 10
67.06377900884169
 20
-126.4687662444245
 97
        0
 97
        0
 92
        1
 93
        1
 72
     4
 94
        3
 73
     0
 74
     1
 95
       17
 96
       13
 40
0.0
 40
0.0
 40
0.0
 40
0.0
 40
1.0
 40
1.0
 40
1.0
 40
2.0
 40
2.0
 40
2.0
 40
3.0
 40
3.0
 40
3.0
 40
4.0
 40
4.0
 40
4.0
 40
4.0
 10
66.30775280460362
 20
-125.4286919174276
 10
66.07038572566991
 20
-125.5058620562971
 10
66.11379392878405
 20
-125.7900824338303
 10
66.22041963405253
 20
-126.118055524026
 10
66.31912161970494
 20
-126.4215684362766
 10
66.44865720995034
 20
-126.7044107756156
 10
66.69601506579127
 20
-126.6237955412607
 10
66.93131508743384
 20
-126.5473144214882
 10
66.89100747025641
 20
-126.2648165916977
 10
66.78369274589089
 20
-125.9351209537593
 10
66.68499076023848
 20
-125.6309190224117
 10
66.55321585792767
 20
-125.3491102117183
 10
66.30775280460362
 20
-125.4286919174276
 97
        0
 97
        0
 75
     2
 76
     1
 98
        0
  0
ENDBLK
  5
100
330
FD
100
AcDbEntity
  8
0
100
AcDbBlockEnd
  0
BLOCK
  5
112
330
110
100
AcDbEntity
  8
0
100
AcDbBlockBegin
  2
block 7
 70
     0
 10
0.0
 20
0.0
 30
0.0
  3
block 7
  1

  0
POLYLINE
  5
114
330
110
100
AcDbEntity
  8
_U+30EC_U+30A4_U+30E4_U+30FC 1
 62
   179
420
  2234388
370
     9
100
AcDb2dPolyline
 66
     1
 10
0.0
 20
0.0
 30
0.0
  0
VERTEX
  5
115
330
114
100
AcDbEntity
  8
_U+30EC_U+30A4_U+30E4_U+30FC 1
 62
   179
420
  2234388
370
     9
100
AcDbVertex
100
AcDb2dVertex
 10
55.68463024603339
 20
-137.4021113545385
 30
0.0
  0
VERTEX
  5
116
330
114
100
AcDbEntity
  8
_U+30EC_U+30A4_U+30E4_U+30FC 1
 62
   179
420
  2234388
370
     9
100
AcDbVertex
100
AcDb2dVertex
 10
56.60792022247831
 20
-137.7866038544421
 30
0.0
  0
SEQEND
  5
117
330
114
100
AcDbEntity
  8
_U+30EC_U+30A4_U+30E4_U+30FC 1
 62
   179
420
  2234388
370
     9
  0
POLYLINE
  5
118
330
110
100
AcDbEntity
  8
_U+30EC_U+30A4_U+30E4_U+30FC 1
 62
   179
420
  2234388
370
     9
100
AcDb2dPolyline
 66
     1
 10
0.0
 20
0.0
 30
0.0
  0
VERTEX
  5
119
330
118
100
AcDbEntity
  8
_U+30EC_U+30A4_U+30E4_U+30FC 1
 62
   179
420
  2234388
370
     9
100
AcDbVertex
100
AcDb2dVertex
 10
55.68463024603339
 20
-137.4021113545385
 30
0.0
  0
VERTEX
  5
11A
330
118
100
AcDbEntity
  8
_U+30EC_U+30A4_U+30E4_U+30FC 1
 62
   179
420
  2234388
370
     9
100
AcDbVertex
100
AcDb2dVertex
 10
56.2920077305379
 20
-138.1965669098956
 30
0.0
  0
SEQEND
  5
11B
330
118
100
AcDbEntity
  8
_U+30EC_U+30A4_U+30E4_U+30FC 1
 62
   179
420
  2234388
370
     9
  0
ENDBLK
  5
113
330
110
100
AcDbEntity
  8
0
100
AcDbBlockEnd
  0
BLOCK
  5
123
330
121
100
AcDbEntity
  8
0
100
AcDbBlockBegin
  2
block 8
 70
     0
 10
0.0
 20
0.0
 30
0.0
  3
block 8
  1

  0
POLYLINE
  5
125
330
121
100
AcDbEntity
  8
_U+30EC_U+30A4_U+30E4_U+30FC 1
 62
   179
420
  2234388
370
     9
100
AcDb2dPolyline
 66
     1
 10
0.0
 20
0.0
 30
0.0
  0
VERTEX
  5
126
330
125
100
AcDbEntity
  8
_U+30EC_U+30A4_U+30E4_U+30FC 1
 62
   179
420
  2234388
370
     9
100
AcDbVertex
100
AcDb2dVertex
 10
125.5868042960137
 20
-137.0596699657353
 30
0.0
  0
VERTEX
  5
127
330
125
100
AcDbEntity
  8
_U+30EC_U+30A4_U+30E4_U+30FC 1
 62
   179
420
  2234388
370
     9
100
AcDbVertex
100
AcDb2dVertex
 10
124.7041895963089
 20
-137.5302755211728
 30
0.0
  0
SEQEND
  5
128
330
125
100
AcDbEntity
  8
_U+30EC_U+30A4_U+30E4_U+30FC 1
 62
   179
420
  2234388
370
     9
  0
POLYLINE
  5
129
330
121
100
AcDbEntity
  8
_U+30EC_U+30A4_U+30E4_U+30FC 1
 62
   179
420
  2234388
370
     9
100
AcDb2dPolyline
 66
     1
 10
0.0
 20
0.0
 30
0.0
  0
VERTEX
  5
12A
330
129
100
AcDbEntity
  8
_U+30EC_U+30A4_U+30E4_U+30FC 1
 62
   179
420
  2234388
370
     9
100
AcDbVertex
100
AcDb2dVertex
 10
125.5868042960137
 20
-137.0596699657353
 30
0.0
  0
VERTEX
  5
12B
330
129
100
AcDbEntity
  8
_U+30EC_U+30A4_U+30E4_U+30FC 1
 62
   179
420
  2234388
370
     9
100
AcDbVertex
100
AcDb2dVertex
 10
125.0583431983847
 20
-137.9085591321893
 30
0.0
  0
SEQEND
  5
12C
330
129
100
AcDbEntity
  8
_U+30EC_U+30A4_U+30E4_U+30FC 1
 62
   179
420
  2234388
370
     9
  0
ENDBLK
  5
124
330
121
100
AcDbEntity
  8
0
100
AcDbBlockEnd
  0
BLOCK
  5
12F
330
12D
100
AcDbEntity
  8
0
100
AcDbBlockBegin
  2
block 9
 70
     0
 10
0.0
 20
0.0
 30
0.0
  3
block 9
  1

  0
SPLINE
  5
131
330
12D
100
AcDbEntity
  8
_U+30EC_U+30A4_U+30E4_U+30FC 1
370
     0
100
AcDbSpline
210
0.0
220
0.0
230
1.0
 70
    11
 71
     3
 72
   242
 73
   238
 74
     0
 42
0.0000000001
 43
0.0000000001
 12
1.0
 22
0.0
 32
0.0
 13
1.0
 23
0.0
 33
0.0
 40
0.0
 40
0.0
 40
0.0
 40
0.0
 40
1.0
 40
1.0
 40
1.0
 40
2.0
 40
2.0
 40
2.0
 40
3.0
 40
3.0
 40
3.0
 40
4.0
 40
4.0
 40
4.0
 40
5.0
 40
5.0
 40
5.0
 40
6.0
 40
6.0
 40
6.0
 40
7.0
 40
7.0
 40
7.0
 40
8.0
 40
8.0
 40
8.0
 40
9.0
 40
9.0
 40
9.0
 40
10.0
 40
10.0
 40
10.0
 40
11.0
 40
11.0
 40
11.0
 40
12.0
 40
12.0
 40
12.0
 40
13.0
 40
13.0
 40
13.0
 40
14.0
 40
14.0
 40
14.0
 40
15.0
 40
15.0
 40
15.0
 40
16.0
 40
16.0
 40
16.0
 40
17.0
 40
17.0
 40
17.0
 40
18.0
 40
18.0
 40
18.0
 40
19.0
 40
19.0
 40
19.0
 40
20.0
 40
20.0
 40
20.0
 40
21.0
 40
21.0
 40
21.0
 40
22.0
 40
22.0
 40
22.0
 40
23.0
 40
23.0
 40
23.0
 40
24.0
 40
24.0
 40
24.0
 40
25.0
 40
25.0
 40
25.0
 40
26.0
 40
26.0
 40
26.0
 40
27.0
 40
27.0
 40
27.0
 40
28.0
 40
28.0
 40
28.0
 40
29.0
 40
29.0
 40
29.0
 40
30.0
 40
30.0
 40
30.0
 40
31.0
 40
31.0
 40
31.0
 40
32.0
 40
32.0
 40
32.0
 40
33.0
 40
33.0
 40
33.0
 40
34.0
 40
34.0
 40
34.0
 40
35.0
 40
35.0
 40
35.0
 40
36.0
 40
36.0
 40
36.0
 40
37.0
 40
37.0
 40
37.0
 40
38.0
 40
38.0
 40
38.0
 40
39.0
 40
39.0
 40
39.0
 40
40.0
 40
40.0
 40
40.0
 40
41.0
 40
41.0
 40
41.0
 40
42.0
 40
42.0
 40
42.0
 40
43.0
 40
43.0
 40
43.0
 40
44.0
 40
44.0
 40
44.0
 40
45.0
 40
45.0
 40
45.0
 40
46.0
 40
46.0
 40
46.0
 40
47.0
 40
47.0
 40
47.0
 40
48.0
 40
48.0
 40
48.0
 40
49.0
 40
49.0
 40
49.0
 40
50.0
 40
50.0
 40
50.0
 40
51.0
 40
51.0
 40
51.0
 40
52.0
 40
52.0
 40
52.0
 40
53.0
 40
53.0
 40
53.0
 40
54.0
 40
54.0
 40
54.0
 40
55.0
 40
55.0
 40
55.0
 40
56.0
 40
56.0
 40
56.0
 40
57.0
 40
57.0
 40
57.0
 40
58.0
 40
58.0
 40
58.0
 40
59.0
 40
59.0
 40
59.0
 40
60.0
 40
60.0
 40
60.0
 40
61.0
 40
61.0
 40
61.0
 40
62.0
 40
62.0
 40
62.0
 40
63.0
 40
63.0
 40
63.0
 40
64.0
 40
64.0
 40
64.0
 40
65.0
 40
65.0
 40
65.0
 40
66.0
 40
66.0
 40
66.0
 40
67.0
 40
67.0
 40
67.0
 40
68.0
 40
68.0
 40
68.0
 40
69.0
 40
69.0
 40
69.0
 40
70.0
 40
70.0
 40
70.0
 40
71.0
 40
71.0
 40
71.0
 40
72.0
 40
72.0
 40
72.0
 40
73.0
 40
73.0
 40
73.0
 40
74.0
 40
74.0
 40
74.0
 40
75.0
 40
75.0
 40
75.0
 40
76.0
 40
76.0
 40
76.0
 40
77.0
 40
77.0
 40
77.0
 40
78.0
 40
78.0
 40
78.0
 40
79.0
 40
79.0
 40
79.0
 40
79.0
 10
88.63713919225044
 20
-140.9808864664909
 30
0.0
 10
88.63713919225044
 20
-140.9808864664909
 30
0.0
 10
88.38323565498753
 20
-140.9808864664909
 30
0.0
 10
88.38323565498753
 20
-140.9808864664909
 30
0.0
 10
88.38323565498753
 20
-140.9808864664909
 30
0.0
 10
88.10607772319918
 20
-140.9808864664909
 30
0.0
 10
88.10607772319918
 20
-140.9808864664909
 30
0.0
 10
88.10607772319918
 20
-140.9808864664909
 30
0.0
 10
88.23302949183064
 20
-141.0229166314109
 30
0.0
 10
88.23302949183064
 20
-141.0229166314109
 30
0.0
 10
88.24353703306065
 20
-141.0273952555418
 30
0.0
 10
88.25628388635607
 20
-141.0335964274152
 30
0.0
 10
88.25628388635607
 20
-141.0463432807106
 30
0.0
 10
88.25628388635607
 20
-141.0673583631707
 30
0.0
 10
88.22458900789178
 20
-141.0739040445926
 30
0.0
 10
88.20340167065748
 20
-141.078038159175
 30
0.0
 10
88.19289412942747
 20
-141.1014648084746
 30
0.0
 10
88.16326630825432
 20
-141.1669216226944
 30
0.0
 10
88.14414602831118
 20
-141.2113633544541
 30
0.0
 10
88.14414602831118
 20
-141.2113633544541
 30
0.0
 10
88.41493053345182
 20
-141.2113633544541
 30
0.0
 10
88.41493053345182
 20
-141.2113633544541
 30
0.0
 10
88.50588105426242
 20
-141.2113633544541
 30
0.0
 10
88.70259600647019
 20
-141.2072292398718
 30
0.0
 10
88.84436168568821
 20
-141.1986165011587
 30
0.0
 10
88.84436168568821
 20
-141.1986165011587
 30
0.0
 10
88.84436168568821
 20
-141.3763834281976
 30
0.0
 10
88.84436168568821
 20
-141.3763834281976
 30
0.0
 10
88.76185164881649
 20
-141.3722493136153
 30
0.0
 10
88.7406643115822
 20
-141.3722493136153
 30
0.0
 10
88.56100258202642
 20
-141.3677706894844
 30
0.0
 10
88.52913544878786
 20
-141.5224554767722
 30
0.0
 10
88.48469371702814
 20
-141.6027262015785
 30
0.0
 10
88.44025198526842
 20
-141.6726616399291
 30
0.0
 10
88.56100258202642
 20
-141.7319172822754
 30
0.0
 10
88.6667670134236
 20
-141.7994411537863
 30
0.0
 10
88.77029213275534
 20
-141.8821234454323
 30
0.0
 10
88.77029213275534
 20
-141.8821234454323
 30
0.0
 10
88.65195310283701
 20
-142.0492105764669
 30
0.0
 10
88.65195310283701
 20
-142.0492105764669
 30
0.0
 10
88.62852645353732
 20
-142.0299180417495
 30
0.0
 10
88.61595185501615
 20
-142.0216498125849
 30
0.0
 10
88.50381399697127
 20
-141.9369004636477
 30
0.0
 10
88.45506589585499
 20
-141.89900441331
 30
0.0
 10
88.39598250828296
 20
-141.8628309107148
 30
0.0
 10
88.31553952870237
 20
-141.8183891789551
 30
0.0
 10
88.10401066590804
 20
-142.0047688447071
 30
0.0
 10
87.89868297498714
 20
-142.0278509844583
 30
0.0
 10
87.60895044467763
 20
-142.0574788056315
 30
0.0
 10
87.60895044467763
 20
-142.0574788056315
 30
0.0
 10
87.50525307057161
 20
-141.8776448213014
 30
0.0
 10
87.50525307057161
 20
-141.8776448213014
 30
0.0
 10
87.82254636476311
 20
-141.8735107067191
 30
0.0
 10
87.99824623451086
 20
-141.8480170001283
 30
0.0
 10
88.1505194549589
 20
-141.7381184541488
 30
0.0
 10
88.03200817026631
 20
-141.6874755505156
 30
0.0
 10
87.94312470674686
 20
-141.6599147866336
 30
0.0
 10
87.90729571370026
 20
-141.6471679333382
 30
0.0
 10
87.88817543375713
 20
-141.6747286972202
 30
0.0
 10
87.87336152317056
 20
-141.6936767223891
 30
0.0
 10
87.84580075928855
 20
-141.7274386581445
 30
0.0
 10
87.84580075928855
 20
-141.7274386581445
 30
0.0
 10
87.6490858070808
 20
-141.6451008760471
 30
0.0
 10
87.6490858070808
 20
-141.6451008760471
 30
0.0
 10
87.73159584395252
 20
-141.5644856416922
 30
0.0
 10
87.79291854358996
 20
-141.4694010062993
 30
0.0
 10
87.85010712864512
 20
-141.3677706894844
 30
0.0
 10
87.65976560308506
 20
-141.3722493136153
 30
0.0
 10
87.63857826585078
 20
-141.3722493136153
 30
0.0
 10
87.55606822897904
 20
-141.3763834281976
 30
0.0
 10
87.55606822897904
 20
-141.3763834281976
 30
0.0
 10
87.55606822897904
 20
-141.1986165011587
 30
0.0
 10
87.55606822897904
 20
-141.1986165011587
 30
0.0
 10
87.69559459613166
 20
-141.2051621825807
 30
0.0
 10
87.90505640163485
 20
-141.209296297163
 30
0.0
 10
87.9305501082257
 20
-141.209296297163
 30
0.0
 10
87.94743107610343
 20
-141.1755343614075
 30
0.0
 10
88.00238034909316
 20
-141.0549560194238
 30
0.0
 10
88.0215006290363
 20
-140.9808864664909
 30
0.0
 10
88.00238034909316
 20
-140.9808864664909
 30
0.0
 10
87.82478567682853
 20
-140.9870876383644
 30
0.0
 10
87.63013778191191
 20
-140.9998344916598
 30
0.0
 10
87.63013778191191
 20
-140.9998344916598
 30
0.0
 10
87.63013778191191
 20
-141.1331596869389
 30
0.0
 10
87.63013778191191
 20
-141.1331596869389
 30
0.0
 10
87.58138968079562
 20
-141.1586533935298
 30
0.0
 10
87.52213403844934
 20
-141.1903482719941
 30
0.0
 10
87.38898109794442
 20
-141.2558050862138
 30
0.0
 10
87.38898109794442
 20
-141.2558050862138
 30
0.0
 10
87.38898109794442
 20
-141.4018771347884
 30
0.0
 10
87.38898109794442
 20
-141.4018771347884
 30
0.0
 10
87.38898109794442
 20
-141.4018771347884
 30
0.0
 10
87.38898109794442
 20
-141.8693765921368
 30
0.0
 10
87.38898109794442
 20
-141.8693765921368
 30
0.0
 10
87.38898109794442
 20
-141.996156105994
 30
0.0
 10
87.35297985012356
 20
-142.0554117483403
 30
0.0
 10
87.06944849168751
 20
-142.0471435191757
 30
0.0
 10
87.06944849168751
 20
-142.0471435191757
 30
0.0
 10
86.96575111758148
 20
-141.8397487709637
 30
0.0
 10
86.96575111758148
 20
-141.8397487709637
 30
0.0
 10
87.02931312928435
 20
-141.8524956242591
 30
0.0
 10
87.07788897562637
 20
-141.8566297388414
 30
0.0
 10
87.11819659280378
 20
-141.8566297388414
 30
0.0
 10
87.19433320302781
 20
-141.8566297388414
 30
0.0
 10
87.20484074425782
 20
-141.8332030895417
 30
0.0
 10
87.20484074425782
 20
-141.767746275322
 30
0.0
 10
87.20484074425782
 20
-141.767746275322
 30
0.0
 10
87.20484074425782
 20
-141.3381428683113
 30
0.0
 10
87.20484074425782
 20
-141.3381428683113
 30
0.0
 10
87.10751679679952
 20
-141.3784504854887
 30
0.0
 10
87.09063582892179
 20
-141.3849961669107
 30
0.0
 10
87.04412703987092
 20
-141.4039441920796
 30
0.0
 10
87.03982067051436
 20
-141.4249592745396
 30
0.0
 10
87.03568655593206
 20
-141.4545870957128
 30
0.0
 10
87.01656627598892
 20
-141.4545870957128
 30
0.0
 10
87.00812579205005
 20
-141.4545870957128
 30
0.0
 10
86.99761825082004
 20
-141.4504529811304
 30
0.0
 10
86.99124482417233
 20
-141.4270263318307
 30
0.0
 10
86.99124482417233
 20
-141.4270263318307
 30
0.0
 10
86.93836260847375
 20
-141.2347900037538
 30
0.0
 10
86.93836260847375
 20
-141.2347900037538
 30
0.0
 10
87.08426240227408
 20
-141.1879367051544
 30
0.0
 10
87.14989147126809
 20
-141.1648545654032
 30
0.0
 10
87.20484074425782
 20
-141.1438394829432
 30
0.0
 10
87.20484074425782
 20
-141.1438394829432
 30
0.0
 10
87.20484074425782
 20
-140.7311170438103
 30
0.0
 10
87.20484074425782
 20
-140.7311170438103
 30
0.0
 10
87.20484074425782
 20
-140.7311170438103
 30
0.0
 10
87.15195852855923
 20
-140.7311170438103
 30
0.0
 10
87.15195852855923
 20
-140.7311170438103
 30
0.0
 10
87.15195852855923
 20
-140.7311170438103
 30
0.0
 10
87.07375486104407
 20
-140.7311170438103
 30
0.0
 10
87.07375486104407
 20
-140.7311170438103
 30
0.0
 10
87.00605873475891
 20
-140.7311170438103
 30
0.0
 10
86.99761825082004
 20
-140.7311170438103
 30
0.0
 10
86.96161700299918
 20
-140.7376627252323
 30
0.0
 10
86.96161700299918
 20
-140.7376627252323
 30
0.0
 10
86.96161700299918
 20
-140.5430148303157
 30
0.0
 10
86.96161700299918
 20
-140.5430148303157
 30
0.0
 10
86.98917776688118
 20
-140.5492160021891
 30
0.0
 10
86.99761825082004
 20
-140.5492160021891
 30
0.0
 10
87.06738143439635
 20
-140.5492160021891
 30
0.0
 10
87.06738143439635
 20
-140.5492160021891
 30
0.0
 10
87.20070662967552
 20
-140.5492160021891
 30
0.0
 10
87.20070662967552
 20
-140.5492160021891
 30
0.0
 10
87.20070662967552
 20
-140.4792805638385
 30
0.0
 10
87.20070662967552
 20
-140.396942781741
 30
0.0
 10
87.19846731761011
 20
-140.3928086671588
 30
0.0
 10
87.19002683367125
 20
-140.2129746828287
 30
0.0
 10
87.19002683367125
 20
-140.1936821481113
 30
0.0
 10
87.1879597763801
 20
-140.1471733590604
 30
0.0
 10
87.1879597763801
 20
-140.1471733590604
 30
0.0
 10
87.403795008531
 20
-140.1557860977736
 30
0.0
 10
87.403795008531
 20
-140.1557860977736
 30
0.0
 10
87.41430254976102
 20
-140.1557860977736
 30
0.0
 10
87.4354898869953
 20
-140.1578531550647
 30
0.0
 10
87.4354898869953
 20
-140.1747341229424
 30
0.0
 10
87.4354898869953
 20
-140.1936821481113
 30
0.0
 10
87.42067597640873
 20
-140.2043619441156
 30
0.0
 10
87.39535452459214
 20
-140.2233099692845
 30
0.0
 10
87.39535452459214
 20
-140.2742973824662
 30
0.0
 10
87.38898109794442
 20
-140.5027072131382
 30
0.0
 10
87.39104815523558
 20
-140.5492160021891
 30
0.0
 10
87.52006698115818
 20
-140.5492160021891
 30
0.0
 10
87.5328138344536
 20
-140.5492160021891
 30
0.0
 10
87.63013778191191
 20
-140.540603263476
 30
0.0
 10
87.63013778191191
 20
-140.540603263476
 30
0.0
 10
87.63013778191191
 20
-140.7352511583926
 30
0.0
 10
87.63013778191191
 20
-140.7352511583926
 30
0.0
 10
87.5920694767999
 20
-140.7331841011014
 30
0.0
 10
87.52437335051475
 20
-140.7290499865191
 30
0.0
 10
87.38898109794442
 20
-140.7311170438103
 30
0.0
 10
87.38898109794442
 20
-140.7311170438103
 30
0.0
 10
87.38898109794442
 20
-141.0697699300104
 30
0.0
 10
87.38898109794442
 20
-141.0697699300104
 30
0.0
 10
87.44393037093415
 20
-141.0463432807106
 30
0.0
 10
87.50955943992817
 20
-141.0187825168287
 30
0.0
 10
87.55813528627019
 20
-140.9957003770775
 30
0.0
 10
87.55813528627019
 20
-140.9957003770775
 30
0.0
 10
87.55813528627019
 20
-140.8179334500386
 30
0.0
 10
87.55813528627019
 20
-140.8179334500386
 30
0.0
 10
87.67234020160622
 20
-140.830680303334
 30
0.0
 10
87.79085148629882
 20
-140.830680303334
 30
0.0
 10
87.90729571370026
 20
-140.830680303334
 30
0.0
 10
87.88404131917483
 20
-140.7352511583926
 30
0.0
 10
87.85648055529283
 20
-140.6529133762951
 30
0.0
 10
87.79291854358996
 20
-140.5195881810159
 30
0.0
 10
87.74864906660451
 20
-140.5216552383071
 30
0.0
 10
87.66613902973278
 20
-140.5257893528894
 30
0.0
 10
87.6278984698465
 20
-140.5282009197291
 30
0.0
 10
87.6278984698465
 20
-140.5282009197291
 30
0.0
 10
87.6278984698465
 20
-140.348366935399
 30
0.0
 10
87.6278984698465
 20
-140.348366935399
 30
0.0
 10
87.75278318118681
 20
-140.3566351645636
 30
0.0
 10
87.92624373886913
 20
-140.3607692791459
 30
0.0
 10
88.00875377574087
 20
-140.3607692791459
 30
0.0
 10
88.00875377574087
 20
-140.3607692791459
 30
0.0
 10
88.09126381261261
 20
-140.3607692791459
 30
0.0
 10
88.09126381261261
 20
-140.3607692791459
 30
0.0
 10
88.09126381261261
 20
-140.1981607722421
 30
0.0
 10
88.09126381261261
 20
-140.1874809762379
 30
0.0
 10
88.08919675532145
 20
-140.1323594484739
 30
0.0
 10
88.08919675532145
 20
-140.1323594484739
 30
0.0
 10
88.31347247141122
 20
-140.1578531550647
 30
0.0
 10
88.31347247141122
 20
-140.1578531550647
 30
0.0
 10
88.31760658599352
 20
-140.1578531550647
 30
0.0
 10
88.33879392322781
 20
-140.1599202123559
 30
0.0
 10
88.33879392322781
 20
-140.1768011802336
 30
0.0
 10
88.33879392322781
 20
-140.1916150908202
 30
0.0
 10
88.3282863819978
 20
-140.2002278295333
 30
0.0
 10
88.30072561811579
 20
-140.2150417401199
 30
0.0
 10
88.29435219146808
 20
-140.2804985543396
 30
0.0
 10
88.29228513417694
 20
-140.3018581463482
 30
0.0
 10
88.29228513417694
 20
-140.3607692791459
 30
0.0
 10
88.29228513417694
 20
-140.3607692791459
 30
0.0
 10
88.38736976956983
 20
-140.3607692791459
 30
0.0
 10
88.38736976956983
 20
-140.3607692791459
 30
0.0
 10
88.46987980644157
 20
-140.3607692791459
 30
0.0
 10
88.64334036412389
 20
-140.3566351645636
 30
0.0
 10
88.7682250754642
 20
-140.348366935399
 30
0.0
 10
88.7682250754642
 20
-140.348366935399
 30
0.0
 10
88.7682250754642
 20
-140.5282009197291
 30
0.0
 10
88.7682250754642
 20
-140.5282009197291
 30
0.0
 10
88.73859725429105
 20
-140.5257893528894
 30
0.0
 10
88.62008596959845
 20
-140.5216552383071
 30
0.0
 10
88.5799506071953
 20
-140.5195881810159
 30
0.0
 10
88.56513669660872
 20
-140.5702310846491
 30
0.0
 10
88.53137476085327
 20
-140.6825411974683
 30
0.0
 10
88.46574569185927
 20
-140.8220675646209
 30
0.0
 10
88.50794811155357
 20
-140.8220675646209
 30
0.0
 10
88.78510604334193
 20
-140.803119539452
 30
0.0
 10
88.84642874297937
 20
-140.8010524821609
 30
0.0
 10
88.84642874297937
 20
-140.8010524821609
 30
0.0
 10
88.84642874297937
 20
-140.9850205810732
 30
0.0
 10
88.84642874297937
 20
-140.9850205810732
 30
0.0
 10
88.81697317658049
 20
-140.9850205810732
 30
0.0
 10
88.7999199539285
 20
-140.9808864664909
 30
0.0
 10
88.63713919225044
 20
-140.9808864664909
 30
0.0
  0
SPLINE
  5
132
330
12D
100
AcDbEntity
  8
_U+30EC_U+30A4_U+30E4_U+30FC 1
370
     0
100
AcDbSpline
210
0.0
220
0.0
230
1.0
 70
    11
 71
     3
 72
    20
 73
    16
 74
     0
 42
0.0000000001
 43
0.0000000001
 12
1.0
 22
0.0
 32
0.0
 13
1.0
 23
0.0
 33
0.0
 40
0.0
 40
0.0
 40
0.0
 40
0.0
 40
1.0
 40
1.0
 40
1.0
 40
2.0
 40
2.0
 40
2.0
 40
3.0
 40
3.0
 40
3.0
 40
4.0
 40
4.0
 40
4.0
 40
5.0
 40
5.0
 40
5.0
 40
5.0
 10
88.00875377574087
 20
-140.5154540664336
 30
0.0
 10
88.00875377574087
 20
-140.5154540664336
 30
0.0
 10
87.97705889727658
 20
-140.5154540664336
 30
0.0
 10
87.97705889727658
 20
-140.5154540664336
 30
0.0
 10
88.02356768632744
 20
-140.6146728164088
 30
0.0
 10
88.05526256479175
 20
-140.6952880507637
 30
0.0
 10
88.08919675532145
 20
-140.8220675646209
 30
0.0
 10
88.08919675532145
 20
-140.8220675646209
 30
0.0
 10
88.29641924875924
 20
-140.8220675646209
 30
0.0
 10
88.29641924875924
 20
-140.8220675646209
 30
0.0
 10
88.3282863819978
 20
-140.7290499865191
 30
0.0
 10
88.35154077652324
 20
-140.644300637582
 30
0.0
 10
88.37479517104866
 20
-140.5154540664336
 30
0.0
 10
88.37479517104866
 20
-140.5154540664336
 30
0.0
 10
88.00875377574087
 20
-140.5154540664336
 30
0.0
 10
88.00875377574087
 20
-140.5154540664336
 30
0.0
  0
SPLINE
  5
133
330
12D
100
AcDbEntity
  8
_U+30EC_U+30A4_U+30E4_U+30FC 1
370
     0
100
AcDbSpline
210
0.0
220
0.0
230
1.0
 70
    11
 71
     3
 72
    17
 73
    13
 74
     0
 42
0.0000000001
 43
0.0000000001
 12
1.0
 22
0.0
 32
0.0
 13
1.0
 23
0.0
 33
0.0
 40
0.0
 40
0.0
 40
0.0
 40
0.0
 40
1.0
 40
1.0
 40
1.0
 40
2.0
 40
2.0
 40
2.0
 40
3.0
 40
3.0
 40
3.0
 40
4.0
 40
4.0
 40
4.0
 40
4.0
 10
88.07231578744373
 20
-141.3657036321933
 30
0.0
 10
88.05526256479175
 20
-141.3953314533665
 30
0.0
 10
88.00461966115857
 20
-141.4883490314682
 30
0.0
 10
87.9939398651543
 20
-141.5076415661856
 30
0.0
 10
88.18428139071435
 20
-141.5668972085319
 30
0.0
 10
88.20546872794864
 20
-141.5730983804054
 30
0.0
 10
88.27747122359035
 20
-141.6006591442873
 30
0.0
 10
88.3324204965801
 20
-141.5138427380591
 30
0.0
 10
88.35567489110554
 20
-141.4397731851262
 30
0.0
 10
88.3704888016921
 20
-141.3657036321933
 30
0.0
 10
88.3704888016921
 20
-141.3657036321933
 30
0.0
 10
88.07231578744373
 20
-141.3657036321933
 30
0.0
 10
88.07231578744373
 20
-141.3657036321933
 30
0.0
  0
HATCH
  5
134
330
12D
100
AcDbEntity
  8
_U+30EC_U+30A4_U+30E4_U+30FC 1
 62
   179
420
  2234388
100
AcDbHatch
 10
0.0
 20
0.0
 30
0.0
210
0.0
220
0.0
230
1.0
  2
SOLID
 70
     1
 71
     0
 91
        3
 92
        1
 93
        1
 72
     4
 94
        3
 73
     0
 74
     1
 95
      242
 96
      238
 40
0.0
 40
0.0
 40
0.0
 40
0.0
 40
1.0
 40
1.0
 40
1.0
 40
2.0
 40
2.0
 40
2.0
 40
3.0
 40
3.0
 40
3.0
 40
4.0
 40
4.0
 40
4.0
 40
5.0
 40
5.0
 40
5.0
 40
6.0
 40
6.0
 40
6.0
 40
7.0
 40
7.0
 40
7.0
 40
8.0
 40
8.0
 40
8.0
 40
9.0
 40
9.0
 40
9.0
 40
10.0
 40
10.0
 40
10.0
 40
11.0
 40
11.0
 40
11.0
 40
12.0
 40
12.0
 40
12.0
 40
13.0
 40
13.0
 40
13.0
 40
14.0
 40
14.0
 40
14.0
 40
15.0
 40
15.0
 40
15.0
 40
16.0
 40
16.0
 40
16.0
 40
17.0
 40
17.0
 40
17.0
 40
18.0
 40
18.0
 40
18.0
 40
19.0
 40
19.0
 40
19.0
 40
20.0
 40
20.0
 40
20.0
 40
21.0
 40
21.0
 40
21.0
 40
22.0
 40
22.0
 40
22.0
 40
23.0
 40
23.0
 40
23.0
 40
24.0
 40
24.0
 40
24.0
 40
25.0
 40
25.0
 40
25.0
 40
26.0
 40
26.0
 40
26.0
 40
27.0
 40
27.0
 40
27.0
 40
28.0
 40
28.0
 40
28.0
 40
29.0
 40
29.0
 40
29.0
 40
30.0
 40
30.0
 40
30.0
 40
31.0
 40
31.0
 40
31.0
 40
32.0
 40
32.0
 40
32.0
 40
33.0
 40
33.0
 40
33.0
 40
34.0
 40
34.0
 40
34.0
 40
35.0
 40
35.0
 40
35.0
 40
36.0
 40
36.0
 40
36.0
 40
37.0
 40
37.0
 40
37.0
 40
38.0
 40
38.0
 40
38.0
 40
39.0
 40
39.0
 40
39.0
 40
40.0
 40
40.0
 40
40.0
 40
41.0
 40
41.0
 40
41.0
 40
42.0
 40
42.0
 40
42.0
 40
43.0
 40
43.0
 40
43.0
 40
44.0
 40
44.0
 40
44.0
 40
45.0
 40
45.0
 40
45.0
 40
46.0
 40
46.0
 40
46.0
 40
47.0
 40
47.0
 40
47.0
 40
48.0
 40
48.0
 40
48.0
 40
49.0
 40
49.0
 40
49.0
 40
50.0
 40
50.0
 40
50.0
 40
51.0
 40
51.0
 40
51.0
 40
52.0
 40
52.0
 40
52.0
 40
53.0
 40
53.0
 40
53.0
 40
54.0
 40
54.0
 40
54.0
 40
55.0
 40
55.0
 40
55.0
 40
56.0
 40
56.0
 40
56.0
 40
57.0
 40
57.0
 40
57.0
 40
58.0
 40
58.0
 40
58.0
 40
59.0
 40
59.0
 40
59.0
 40
60.0
 40
60.0
 40
60.0
 40
61.0
 40
61.0
 40
61.0
 40
62.0
 40
62.0
 40
62.0
 40
63.0
 40
63.0
 40
63.0
 40
64.0
 40
64.0
 40
64.0
 40
65.0
 40
65.0
 40
65.0
 40
66.0
 40
66.0
 40
66.0
 40
67.0
 40
67.0
 40
67.0
 40
68.0
 40
68.0
 40
68.0
 40
69.0
 40
69.0
 40
69.0
 40
70.0
 40
70.0
 40
70.0
 40
71.0
 40
71.0
 40
71.0
 40
72.0
 40
72.0
 40
72.0
 40
73.0
 40
73.0
 40
73.0
 40
74.0
 40
74.0
 40
74.0
 40
75.0
 40
75.0
 40
75.0
 40
76.0
 40
76.0
 40
76.0
 40
77.0
 40
77.0
 40
77.0
 40
78.0
 40
78.0
 40
78.0
 40
79.0
 40
79.0
 40
79.0
 40
79.0
 10
88.63713919225044
 20
-140.9808864664909
 10
88.63713919225044
 20
-140.9808864664909
 10
88.38323565498753
 20
-140.9808864664909
 10
88.38323565498753
 20
-140.9808864664909
 10
88.38323565498753
 20
-140.9808864664909
 10
88.10607772319918
 20
-140.9808864664909
 10
88.10607772319918
 20
-140.9808864664909
 10
88.10607772319918
 20
-140.9808864664909
 10
88.23302949183064
 20
-141.0229166314109
 10
88.23302949183064
 20
-141.0229166314109
 10
88.24353703306065
 20
-141.0273952555418
 10
88.25628388635607
 20
-141.0335964274152
 10
88.25628388635607
 20
-141.0463432807106
 10
88.25628388635607
 20
-141.0673583631707
 10
88.22458900789178
 20
-141.0739040445926
 10
88.20340167065748
 20
-141.078038159175
 10
88.19289412942747
 20
-141.1014648084746
 10
88.16326630825432
 20
-141.1669216226944
 10
88.14414602831118
 20
-141.2113633544541
 10
88.14414602831118
 20
-141.2113633544541
 10
88.41493053345182
 20
-141.2113633544541
 10
88.41493053345182
 20
-141.2113633544541
 10
88.50588105426242
 20
-141.2113633544541
 10
88.70259600647019
 20
-141.2072292398718
 10
88.84436168568821
 20
-141.1986165011587
 10
88.84436168568821
 20
-141.1986165011587
 10
88.84436168568821
 20
-141.3763834281976
 10
88.84436168568821
 20
-141.3763834281976
 10
88.76185164881649
 20
-141.3722493136153
 10
88.7406643115822
 20
-141.3722493136153
 10
88.56100258202642
 20
-141.3677706894844
 10
88.52913544878786
 20
-141.5224554767722
 10
88.48469371702814
 20
-141.6027262015785
 10
88.44025198526842
 20
-141.6726616399291
 10
88.56100258202642
 20
-141.7319172822754
 10
88.6667670134236
 20
-141.7994411537863
 10
88.77029213275534
 20
-141.8821234454323
 10
88.77029213275534
 20
-141.8821234454323
 10
88.65195310283701
 20
-142.0492105764669
 10
88.65195310283701
 20
-142.0492105764669
 10
88.62852645353732
 20
-142.0299180417495
 10
88.61595185501615
 20
-142.0216498125849
 10
88.50381399697127
 20
-141.9369004636477
 10
88.45506589585499
 20
-141.89900441331
 10
88.39598250828296
 20
-141.8628309107148
 10
88.31553952870237
 20
-141.8183891789551
 10
88.10401066590804
 20
-142.0047688447071
 10
87.89868297498714
 20
-142.0278509844583
 10
87.60895044467763
 20
-142.0574788056315
 10
87.60895044467763
 20
-142.0574788056315
 10
87.50525307057161
 20
-141.8776448213014
 10
87.50525307057161
 20
-141.8776448213014
 10
87.82254636476311
 20
-141.8735107067191
 10
87.99824623451086
 20
-141.8480170001283
 10
88.1505194549589
 20
-141.7381184541488
 10
88.03200817026631
 20
-141.6874755505156
 10
87.94312470674686
 20
-141.6599147866336
 10
87.90729571370026
 20
-141.6471679333382
 10
87.88817543375713
 20
-141.6747286972202
 10
87.87336152317056
 20
-141.6936767223891
 10
87.84580075928855
 20
-141.7274386581445
 10
87.84580075928855
 20
-141.7274386581445
 10
87.6490858070808
 20
-141.6451008760471
 10
87.6490858070808
 20
-141.6451008760471
 10
87.73159584395252
 20
-141.5644856416922
 10
87.79291854358996
 20
-141.4694010062993
 10
87.85010712864512
 20
-141.3677706894844
 10
87.65976560308506
 20
-141.3722493136153
 10
87.63857826585078
 20
-141.3722493136153
 10
87.55606822897904
 20
-141.3763834281976
 10
87.55606822897904
 20
-141.3763834281976
 10
87.55606822897904
 20
-141.1986165011587
 10
87.55606822897904
 20
-141.1986165011587
 10
87.69559459613166
 20
-141.2051621825807
 10
87.90505640163485
 20
-141.209296297163
 10
87.9305501082257
 20
-141.209296297163
 10
87.94743107610343
 20
-141.1755343614075
 10
88.00238034909316
 20
-141.0549560194238
 10
88.0215006290363
 20
-140.9808864664909
 10
88.00238034909316
 20
-140.9808864664909
 10
87.82478567682853
 20
-140.9870876383644
 10
87.63013778191191
 20
-140.9998344916598
 10
87.63013778191191
 20
-140.9998344916598
 10
87.63013778191191
 20
-141.1331596869389
 10
87.63013778191191
 20
-141.1331596869389
 10
87.58138968079562
 20
-141.1586533935298
 10
87.52213403844934
 20
-141.1903482719941
 10
87.38898109794442
 20
-141.2558050862138
 10
87.38898109794442
 20
-141.2558050862138
 10
87.38898109794442
 20
-141.4018771347884
 10
87.38898109794442
 20
-141.4018771347884
 10
87.38898109794442
 20
-141.4018771347884
 10
87.38898109794442
 20
-141.8693765921368
 10
87.38898109794442
 20
-141.8693765921368
 10
87.38898109794442
 20
-141.996156105994
 10
87.35297985012356
 20
-142.0554117483403
 10
87.06944849168751
 20
-142.0471435191757
 10
87.06944849168751
 20
-142.0471435191757
 10
86.96575111758148
 20
-141.8397487709637
 10
86.96575111758148
 20
-141.8397487709637
 10
87.02931312928435
 20
-141.8524956242591
 10
87.07788897562637
 20
-141.8566297388414
 10
87.11819659280378
 20
-141.8566297388414
 10
87.19433320302781
 20
-141.8566297388414
 10
87.20484074425782
 20
-141.8332030895417
 10
87.20484074425782
 20
-141.767746275322
 10
87.20484074425782
 20
-141.767746275322
 10
87.20484074425782
 20
-141.3381428683113
 10
87.20484074425782
 20
-141.3381428683113
 10
87.10751679679952
 20
-141.3784504854887
 10
87.09063582892179
 20
-141.3849961669107
 10
87.04412703987092
 20
-141.4039441920796
 10
87.03982067051436
 20
-141.4249592745396
 10
87.03568655593206
 20
-141.4545870957128
 10
87.01656627598892
 20
-141.4545870957128
 10
87.00812579205005
 20
-141.4545870957128
 10
86.99761825082004
 20
-141.4504529811304
 10
86.99124482417233
 20
-141.4270263318307
 10
86.99124482417233
 20
-141.4270263318307
 10
86.93836260847375
 20
-141.2347900037538
 10
86.93836260847375
 20
-141.2347900037538
 10
87.08426240227408
 20
-141.1879367051544
 10
87.14989147126809
 20
-141.1648545654032
 10
87.20484074425782
 20
-141.1438394829432
 10
87.20484074425782
 20
-141.1438394829432
 10
87.20484074425782
 20
-140.7311170438103
 10
87.20484074425782
 20
-140.7311170438103
 10
87.20484074425782
 20
-140.7311170438103
 10
87.15195852855923
 20
-140.7311170438103
 10
87.15195852855923
 20
-140.7311170438103
 10
87.15195852855923
 20
-140.7311170438103
 10
87.07375486104407
 20
-140.7311170438103
 10
87.07375486104407
 20
-140.7311170438103
 10
87.00605873475891
 20
-140.7311170438103
 10
86.99761825082004
 20
-140.7311170438103
 10
86.96161700299918
 20
-140.7376627252323
 10
86.96161700299918
 20
-140.7376627252323
 10
86.96161700299918
 20
-140.5430148303157
 10
86.96161700299918
 20
-140.5430148303157
 10
86.98917776688118
 20
-140.5492160021891
 10
86.99761825082004
 20
-140.5492160021891
 10
87.06738143439635
 20
-140.5492160021891
 10
87.06738143439635
 20
-140.5492160021891
 10
87.20070662967552
 20
-140.5492160021891
 10
87.20070662967552
 20
-140.5492160021891
 10
87.20070662967552
 20
-140.4792805638385
 10
87.20070662967552
 20
-140.396942781741
 10
87.19846731761011
 20
-140.3928086671588
 10
87.19002683367125
 20
-140.2129746828287
 10
87.19002683367125
 20
-140.1936821481113
 10
87.1879597763801
 20
-140.1471733590604
 10
87.1879597763801
 20
-140.1471733590604
 10
87.403795008531
 20
-140.1557860977736
 10
87.403795008531
 20
-140.1557860977736
 10
87.41430254976102
 20
-140.1557860977736
 10
87.4354898869953
 20
-140.1578531550647
 10
87.4354898869953
 20
-140.1747341229424
 10
87.4354898869953
 20
-140.1936821481113
 10
87.42067597640873
 20
-140.2043619441156
 10
87.39535452459214
 20
-140.2233099692845
 10
87.39535452459214
 20
-140.2742973824662
 10
87.38898109794442
 20
-140.5027072131382
 10
87.39104815523558
 20
-140.5492160021891
 10
87.52006698115818
 20
-140.5492160021891
 10
87.5328138344536
 20
-140.5492160021891
 10
87.63013778191191
 20
-140.540603263476
 10
87.63013778191191
 20
-140.540603263476
 10
87.63013778191191
 20
-140.7352511583926
 10
87.63013778191191
 20
-140.7352511583926
 10
87.5920694767999
 20
-140.7331841011014
 10
87.52437335051475
 20
-140.7290499865191
 10
87.38898109794442
 20
-140.7311170438103
 10
87.38898109794442
 20
-140.7311170438103
 10
87.38898109794442
 20
-141.0697699300104
 10
87.38898109794442
 20
-141.0697699300104
 10
87.44393037093415
 20
-141.0463432807106
 10
87.50955943992817
 20
-141.0187825168287
 10
87.55813528627019
 20
-140.9957003770775
 10
87.55813528627019
 20
-140.9957003770775
 10
87.55813528627019
 20
-140.8179334500386
 10
87.55813528627019
 20
-140.8179334500386
 10
87.67234020160622
 20
-140.830680303334
 10
87.79085148629882
 20
-140.830680303334
 10
87.90729571370026
 20
-140.830680303334
 10
87.88404131917483
 20
-140.7352511583926
 10
87.85648055529283
 20
-140.6529133762951
 10
87.79291854358996
 20
-140.5195881810159
 10
87.74864906660451
 20
-140.5216552383071
 10
87.66613902973278
 20
-140.5257893528894
 10
87.6278984698465
 20
-140.5282009197291
 10
87.6278984698465
 20
-140.5282009197291
 10
87.6278984698465
 20
-140.348366935399
 10
87.6278984698465
 20
-140.348366935399
 10
87.75278318118681
 20
-140.3566351645636
 10
87.92624373886913
 20
-140.3607692791459
 10
88.00875377574087
 20
-140.3607692791459
 10
88.00875377574087
 20
-140.3607692791459
 10
88.09126381261261
 20
-140.3607692791459
 10
88.09126381261261
 20
-140.3607692791459
 10
88.09126381261261
 20
-140.1981607722421
 10
88.09126381261261
 20
-140.1874809762379
 10
88.08919675532145
 20
-140.1323594484739
 10
88.08919675532145
 20
-140.1323594484739
 10
88.31347247141122
 20
-140.1578531550647
 10
88.31347247141122
 20
-140.1578531550647
 10
88.31760658599352
 20
-140.1578531550647
 10
88.33879392322781
 20
-140.1599202123559
 10
88.33879392322781
 20
-140.1768011802336
 10
88.33879392322781
 20
-140.1916150908202
 10
88.3282863819978
 20
-140.2002278295333
 10
88.30072561811579
 20
-140.2150417401199
 10
88.29435219146808
 20
-140.2804985543396
 10
88.29228513417694
 20
-140.3018581463482
 10
88.29228513417694
 20
-140.3607692791459
 10
88.29228513417694
 20
-140.3607692791459
 10
88.38736976956983
 20
-140.3607692791459
 10
88.38736976956983
 20
-140.3607692791459
 10
88.46987980644157
 20
-140.3607692791459
 10
88.64334036412389
 20
-140.3566351645636
 10
88.7682250754642
 20
-140.348366935399
 10
88.7682250754642
 20
-140.348366935399
 10
88.7682250754642
 20
-140.5282009197291
 10
88.7682250754642
 20
-140.5282009197291
 10
88.73859725429105
 20
-140.5257893528894
 10
88.62008596959845
 20
-140.5216552383071
 10
88.5799506071953
 20
-140.5195881810159
 10
88.56513669660872
 20
-140.5702310846491
 10
88.53137476085327
 20
-140.6825411974683
 10
88.46574569185927
 20
-140.8220675646209
 10
88.50794811155357
 20
-140.8220675646209
 10
88.78510604334193
 20
-140.803119539452
 10
88.84642874297937
 20
-140.8010524821609
 10
88.84642874297937
 20
-140.8010524821609
 10
88.84642874297937
 20
-140.9850205810732
 10
88.84642874297937
 20
-140.9850205810732
 10
88.81697317658049
 20
-140.9850205810732
 10
88.7999199539285
 20
-140.9808864664909
 10
88.63713919225044
 20
-140.9808864664909
 97
        0
 97
        0
 92
        1
 93
        1
 72
     4
 94
        3
 73
     0
 74
     1
 95
       20
 96
       16
 40
0.0
 40
0.0
 40
0.0
 40
0.0
 40
1.0
 40
1.0
 40
1.0
 40
2.0
 40
2.0
 40
2.0
 40
3.0
 40
3.0
 40
3.0
 40
4.0
 40
4.0
 40
4.0
 40
5.0
 40
5.0
 40
5.0
 40
5.0
 10
88.00875377574087
 20
-140.5154540664336
 10
88.00875377574087
 20
-140.5154540664336
 10
87.97705889727658
 20
-140.5154540664336
 10
87.97705889727658
 20
-140.5154540664336
 10
88.02356768632744
 20
-140.6146728164088
 10
88.05526256479175
 20
-140.6952880507637
 10
88.08919675532145
 20
-140.8220675646209
 10
88.08919675532145
 20
-140.8220675646209
 10
88.29641924875924
 20
-140.8220675646209
 10
88.29641924875924
 20
-140.8220675646209
 10
88.3282863819978
 20
-140.7290499865191
 10
88.35154077652324
 20
-140.644300637582
 10
88.37479517104866
 20
-140.5154540664336
 10
88.37479517104866
 20
-140.5154540664336
 10
88.00875377574087
 20
-140.5154540664336
 10
88.00875377574087
 20
-140.5154540664336
 97
        0
 97
        0
 92
        1
 93
        1
 72
     4
 94
        3
 73
     0
 74
     1
 95
       17
 96
       13
 40
0.0
 40
0.0
 40
0.0
 40
0.0
 40
1.0
 40
1.0
 40
1.0
 40
2.0
 40
2.0
 40
2.0
 40
3.0
 40
3.0
 40
3.0
 40
4.0
 40
4.0
 40
4.0
 40
4.0
 10
88.07231578744373
 20
-141.3657036321933
 10
88.05526256479175
 20
-141.3953314533665
 10
88.00461966115857
 20
-141.4883490314682
 10
87.9939398651543
 20
-141.5076415661856
 10
88.18428139071435
 20
-141.5668972085319
 10
88.20546872794864
 20
-141.5730983804054
 10
88.27747122359035
 20
-141.6006591442873
 10
88.3324204965801
 20
-141.5138427380591
 10
88.35567489110554
 20
-141.4397731851262
 10
88.3704888016921
 20
-141.3657036321933
 10
88.3704888016921
 20
-141.3657036321933
 10
88.07231578744373
 20
-141.3657036321933
 10
88.07231578744373
 20
-141.3657036321933
 97
        0
 97
        0
 75
     2
 76
     1
 98
        0
  0
SPLINE
  5
135
330
12D
100
AcDbEntity
  8
_U+30EC_U+30A4_U+30E4_U+30FC 1
370
     0
100
AcDbSpline
210
0.0
220
0.0
230
1.0
 70
    11
 71
     3
 72
   203
 73
   199
 74
     0
 42
0.0000000001
 43
0.0000000001
 12
1.0
 22
0.0
 32
0.0
 13
1.0
 23
0.0
 33
0.0
 40
0.0
 40
0.0
 40
0.0
 40
0.0
 40
1.0
 40
1.0
 40
1.0
 40
2.0
 40
2.0
 40
2.0
 40
3.0
 40
3.0
 40
3.0
 40
4.0
 40
4.0
 40
4.0
 40
5.0
 40
5.0
 40
5.0
 40
6.0
 40
6.0
 40
6.0
 40
7.0
 40
7.0
 40
7.0
 40
8.0
 40
8.0
 40
8.0
 40
9.0
 40
9.0
 40
9.0
 40
10.0
 40
10.0
 40
10.0
 40
11.0
 40
11.0
 40
11.0
 40
12.0
 40
12.0
 40
12.0
 40
13.0
 40
13.0
 40
13.0
 40
14.0
 40
14.0
 40
14.0
 40
15.0
 40
15.0
 40
15.0
 40
16.0
 40
16.0
 40
16.0
 40
17.0
 40
17.0
 40
17.0
 40
18.0
 40
18.0
 40
18.0
 40
19.0
 40
19.0
 40
19.0
 40
20.0
 40
20.0
 40
20.0
 40
21.0
 40
21.0
 40
21.0
 40
22.0
 40
22.0
 40
22.0
 40
23.0
 40
23.0
 40
23.0
 40
24.0
 40
24.0
 40
24.0
 40
25.0
 40
25.0
 40
25.0
 40
26.0
 40
26.0
 40
26.0
 40
27.0
 40
27.0
 40
27.0
 40
28.0
 40
28.0
 40
28.0
 40
29.0
 40
29.0
 40
29.0
 40
30.0
 40
30.0
 40
30.0
 40
31.0
 40
31.0
 40
31.0
 40
32.0
 40
32.0
 40
32.0
 40
33.0
 40
33.0
 40
33.0
 40
34.0
 40
34.0
 40
34.0
 40
35.0
 40
35.0
 40
35.0
 40
36.0
 40
36.0
 40
36.0
 40
37.0
 40
37.0
 40
37.0
 40
38.0
 40
38.0
 40
38.0
 40
39.0
 40
39.0
 40
39.0
 40
40.0
 40
40.0
 40
40.0
 40
41.0
 40
41.0
 40
41.0
 40
42.0
 40
42.0
 40
42.0
 40
43.0
 40
43.0
 40
43.0
 40
44.0
 40
44.0
 40
44.0
 40
45.0
 40
45.0
 40
45.0
 40
46.0
 40
46.0
 40
46.0
 40
47.0
 40
47.0
 40
47.0
 40
48.0
 40
48.0
 40
48.0
 40
49.0
 40
49.0
 40
49.0
 40
50.0
 40
50.0
 40
50.0
 40
51.0
 40
51.0
 40
51.0
 40
52.0
 40
52.0
 40
52.0
 40
53.0
 40
53.0
 40
53.0
 40
54.0
 40
54.0
 40
54.0
 40
55.0
 40
55.0
 40
55.0
 40
56.0
 40
56.0
 40
56.0
 40
57.0
 40
57.0
 40
57.0
 40
58.0
 40
58.0
 40
58.0
 40
59.0
 40
59.0
 40
59.0
 40
60.0
 40
60.0
 40
60.0
 40
61.0
 40
61.0
 40
61.0
 40
62.0
 40
62.0
 40
62.0
 40
63.0
 40
63.0
 40
63.0
 40
64.0
 40
64.0
 40
64.0
 40
65.0
 40
65.0
 40
65.0
 40
66.0
 40
66.0
 40
66.0
 40
66.0
 10
90.32850882073384
 20
-141.0484103380018
 30
0.0
 10
90.32850882073384
 20
-141.0484103380018
 30
0.0
 10
89.77005884257485
 20
-141.0484103380018
 30
0.0
 10
89.77005884257485
 20
-141.0484103380018
 30
0.0
 10
89.75937904657057
 20
-141.0928520697615
 30
0.0
 10
89.75093856263172
 20
-141.1245469482258
 30
0.0
 10
89.73836396411055
 20
-141.1627875081121
 30
0.0
 10
89.76368541592714
 20
-141.1627875081121
 30
0.0
 10
89.77849932651371
 20
-141.1648545654032
 30
0.0
 10
89.78487275316142
 20
-141.1648545654032
 30
0.0
 10
89.78487275316142
 20
-141.1648545654032
 30
0.0
 10
89.97314722143032
 20
-141.1648545654032
 30
0.0
 10
89.97314722143032
 20
-141.1648545654032
 30
0.0
 10
89.97314722143032
 20
-141.1648545654032
 30
0.0
 10
90.34762910067698
 20
-141.1648545654032
 30
0.0
 10
90.34762910067698
 20
-141.1648545654032
 30
0.0
 10
90.39827200431016
 20
-141.1648545654032
 30
0.0
 10
90.68180336274622
 20
-141.1521077121078
 30
0.0
 10
90.71349824121052
 20
-141.1521077121078
 30
0.0
 10
90.71143118391937
 20
-141.1796684759898
 30
0.0
 10
90.70936412662822
 20
-141.1986165011587
 30
0.0
 10
90.70936412662822
 20
-141.2282443223318
 30
0.0
 10
90.7071248145628
 20
-141.2599392007961
 30
0.0
 10
90.7071248145628
 20
-141.3953314533665
 30
0.0
 10
90.7071248145628
 20
-141.4228922172485
 30
0.0
 10
90.7071248145628
 20
-141.4228922172485
 30
0.0
 10
90.7071248145628
 20
-141.6681830157982
 30
0.0
 10
90.7071248145628
 20
-141.6681830157982
 30
0.0
 10
90.7071248145628
 20
-141.712624747558
 30
0.0
 10
90.71143118391937
 20
-141.9093396997657
 30
0.0
 10
90.71573755327593
 20
-142.0619574297623
 30
0.0
 10
90.71573755327593
 20
-142.0619574297623
 30
0.0
 10
90.48922252512075
 20
-142.0619574297623
 30
0.0
 10
90.48922252512075
 20
-142.0619574297623
 30
0.0
 10
90.48922252512075
 20
-142.0619574297623
 30
0.0
 10
90.49146183718616
 20
-142.0278509844583
 30
0.0
 10
90.49146183718616
 20
-142.0278509844583
 30
0.0
 10
90.49146183718616
 20
-142.0278509844583
 30
0.0
 10
89.78900686774372
 20
-142.0278509844583
 30
0.0
 10
89.78900686774372
 20
-142.0278509844583
 30
0.0
 10
89.78900686774372
 20
-142.0278509844583
 30
0.0
 10
89.79124617980914
 20
-142.0619574297623
 30
0.0
 10
89.79124617980914
 20
-142.0619574297623
 30
0.0
 10
89.79124617980914
 20
-142.0619574297623
 30
0.0
 10
89.57334389036708
 20
-142.0619574297623
 30
0.0
 10
89.57334389036708
 20
-142.0619574297623
 30
0.0
 10
89.57747800494938
 20
-142.0068359019983
 30
0.0
 10
89.57747800494938
 20
-141.9940890487029
 30
0.0
 10
89.5838514315971
 20
-141.8797118785926
 30
0.0
 10
89.58591848888824
 20
-141.8524956242591
 30
0.0
 10
89.58815780095365
 20
-141.7191704289799
 30
0.0
 10
89.58815780095365
 20
-141.7002224038111
 30
0.0
 10
89.58815780095365
 20
-141.7002224038111
 30
0.0
 10
89.58815780095365
 20
-141.4969617701813
 30
0.0
 10
89.58815780095365
 20
-141.4969617701813
 30
0.0
 10
89.44845917902678
 20
-141.7467311928619
 30
0.0
 10
89.27930499070101
 20
-141.8776448213014
 30
0.0
 10
89.17354055930385
 20
-141.9434461450697
 30
0.0
 10
89.17354055930385
 20
-141.9434461450697
 30
0.0
 10
88.99990774684726
 20
-141.8035752683685
 30
0.0
 10
88.99990774684726
 20
-141.8035752683685
 30
0.0
 10
89.0887912103667
 20
-141.7529323647354
 30
0.0
 10
89.23262394687588
 20
-141.6661159585071
 30
0.0
 10
89.3702555115116
 20
-141.4714680635905
 30
0.0
 10
89.46120603232221
 20
-141.3446885497333
 30
0.0
 10
89.52666284654195
 20
-141.2006835584498
 30
0.0
 10
89.56059703707166
 20
-141.0484103380018
 30
0.0
 10
89.3321872063996
 20
-141.0504773952929
 30
0.0
 10
89.15235322206955
 20
-141.0570230767149
 30
0.0
 10
89.0570963319024
 20
-141.0590901340061
 30
0.0
 10
89.0570963319024
 20
-141.0590901340061
 30
0.0
 10
89.0570963319024
 20
-140.8813232069672
 30
0.0
 10
89.0570963319024
 20
-140.8813232069672
 30
0.0
 10
89.25381128411016
 20
-140.8878688883892
 30
0.0
 10
89.53734264254622
 20
-140.8920030029714
 30
0.0
 10
89.68754880570312
 20
-140.8920030029714
 30
0.0
 10
89.68754880570312
 20
-140.8920030029714
 30
0.0
 10
89.90114472578861
 20
-140.8920030029714
 30
0.0
 10
89.90114472578861
 20
-140.8920030029714
 30
0.0
 10
89.90114472578861
 20
-140.8920030029714
 30
0.0
 10
89.90114472578861
 20
-140.7841715142831
 30
0.0
 10
89.90114472578861
 20
-140.7841715142831
 30
0.0
 10
89.90114472578861
 20
-140.7841715142831
 30
0.0
 10
89.75524493198827
 20
-140.7841715142831
 30
0.0
 10
89.75524493198827
 20
-140.7841715142831
 30
0.0
 10
89.58591848888824
 20
-140.7841715142831
 30
0.0
 10
89.41676430056248
 20
-140.7883056288654
 30
0.0
 10
89.24967716952786
 20
-140.7945068007389
 30
0.0
 10
89.24967716952786
 20
-140.7945068007389
 30
0.0
 10
89.24967716952786
 20
-140.623285555122
 30
0.0
 10
89.24967716952786
 20
-140.623285555122
 30
0.0
 10
89.40401744726705
 20
-140.6339653511262
 30
0.0
 10
89.59022485824481
 20
-140.6339653511262
 30
0.0
 10
89.75524493198827
 20
-140.6339653511262
 30
0.0
 10
89.75524493198827
 20
-140.6339653511262
 30
0.0
 10
89.90114472578861
 20
-140.6339653511262
 30
0.0
 10
89.90114472578861
 20
-140.6339653511262
 30
0.0
 10
89.90114472578861
 20
-140.6339653511262
 30
0.0
 10
89.90114472578861
 20
-140.5154540664336
 30
0.0
 10
89.90114472578861
 20
-140.5154540664336
 30
0.0
 10
89.90114472578861
 20
-140.5154540664336
 30
0.0
 10
89.77005884257485
 20
-140.5154540664336
 30
0.0
 10
89.77005884257485
 20
-140.5154540664336
 30
0.0
 10
89.72355005352398
 20
-140.5154540664336
 30
0.0
 10
89.5204616746685
 20
-140.5237222955982
 30
0.0
 10
89.47808700019992
 20
-140.5237222955982
 30
0.0
 10
89.27499862134445
 20
-140.5282009197291
 30
0.0
 10
89.19886201112043
 20
-140.5302679770202
 30
0.0
 10
89.12048608883099
 20
-140.5323350343114
 30
0.0
 10
89.12048608883099
 20
-140.5323350343114
 30
0.0
 10
89.12048608883099
 20
-140.348366935399
 30
0.0
 10
89.12048608883099
 20
-140.348366935399
 30
0.0
 10
89.23486325894129
 20
-140.3566351645636
 30
0.0
 10
89.27930499070101
 20
-140.3566351645636
 30
0.0
 10
89.66205509911227
 20
-140.3652479032768
 30
0.0
 10
89.59866534218366
 20
-140.2698187583353
 30
0.0
 10
89.57110457830167
 20
-140.2426025040019
 30
0.0
 10
89.53527558525508
 20
-140.2064290014067
 30
0.0
 10
89.53527558525508
 20
-140.2064290014067
 30
0.0
 10
89.71080320022855
 20
-140.1240912193093
 30
0.0
 10
89.71080320022855
 20
-140.1240912193093
 30
0.0
 10
89.75093856263172
 20
-140.1599202123559
 30
0.0
 10
89.79538029439144
 20
-140.2022948868244
 30
0.0
 10
89.8694498473243
 20
-140.3121934328039
 30
0.0
 10
89.8694498473243
 20
-140.3121934328039
 30
0.0
 10
89.75524493198827
 20
-140.3673149605679
 30
0.0
 10
89.75524493198827
 20
-140.3673149605679
 30
0.0
 10
89.75524493198827
 20
-140.3673149605679
 30
0.0
 10
89.76575247321828
 20
-140.3673149605679
 30
0.0
 10
89.76575247321828
 20
-140.3673149605679
 30
0.0
 10
89.76575247321828
 20
-140.3673149605679
 30
0.0
 10
90.28837345833068
 20
-140.3673149605679
 30
0.0
 10
90.28837345833068
 20
-140.3673149605679
 30
0.0
 10
90.28837345833068
 20
-140.3673149605679
 30
0.0
 10
90.19311656816353
 20
-140.3228732288082
 30
0.0
 10
90.19311656816353
 20
-140.3228732288082
 30
0.0
 10
90.22067733204553
 20
-140.2846326689219
 30
0.0
 10
90.27769366232641
 20
-140.2043619441156
 30
0.0
 10
90.29250757291298
 20
-140.1302923911827
 30
0.0
 10
90.29250757291298
 20
-140.1302923911827
 30
0.0
 10
90.50627574777275
 20
-140.1936821481113
 30
0.0
 10
90.50627574777275
 20
-140.1936821481113
 30
0.0
 10
90.5147162317116
 20
-140.196093714951
 30
0.0
 10
90.53590356894588
 20
-140.2064290014067
 30
0.0
 10
90.53590356894588
 20
-140.2277885934153
 30
0.0
 10
90.53590356894588
 20
-140.265684643753
 30
0.0
 10
90.47027449995188
 20
-140.265684643753
 30
0.0
 10
90.45115422000875
 20
-140.265684643753
 30
0.0
 10
90.44064667877873
 20
-140.2846326689219
 30
0.0
 10
90.4173922842533
 20
-140.3249402860993
 30
0.0
 10
90.38776446308015
 20
-140.3652479032768
 30
0.0
 10
90.78756779414338
 20
-140.3587022218548
 30
0.0
 10
90.81719561531654
 20
-140.3566351645636
 30
0.0
 10
90.89333222554056
 20
-140.3504339926902
 30
0.0
 10
90.89333222554056
 20
-140.3504339926902
 30
0.0
 10
90.89333222554056
 20
-140.5323350343114
 30
0.0
 10
90.89333222554056
 20
-140.5323350343114
 30
0.0
 10
90.87438420037168
 20
-140.5323350343114
 30
0.0
 10
90.84889049378084
 20
-140.5302679770202
 30
0.0
 10
90.62892114704763
 20
-140.5216552383071
 30
0.0
 10
90.5781059886402
 20
-140.5195881810159
 30
0.0
 10
90.358136641907
 20
-140.5154540664336
 30
0.0
 10
90.31369491014728
 20
-140.5154540664336
 30
0.0
 10
90.31369491014728
 20
-140.5154540664336
 30
0.0
 10
90.09785967799637
 20
-140.5154540664336
 30
0.0
 10
90.09785967799637
 20
-140.5154540664336
 30
0.0
 10
90.09785967799637
 20
-140.5154540664336
 30
0.0
 10
90.09785967799637
 20
-140.6339653511262
 30
0.0
 10
90.09785967799637
 20
-140.6339653511262
 30
0.0
 10
90.09785967799637
 20
-140.6339653511262
 30
0.0
 10
90.27149249045297
 20
-140.6339653511262
 30
0.0
 10
90.27149249045297
 20
-140.6339653511262
 30
0.0
 10
90.43427325213102
 20
-140.6339653511262
 30
0.0
 10
90.62461477769108
 20
-140.6339653511262
 30
0.0
 10
90.78119436749567
 20
-140.623285555122
 30
0.0
 10
90.78119436749567
 20
-140.623285555122
 30
0.0
 10
90.78119436749567
 20
-140.7945068007389
 30
0.0
 10
90.78119436749567
 20
-140.7945068007389
 30
0.0
 10
90.57173256199249
 20
-140.7862385715743
 30
0.0
 10
90.37501760978472
 20
-140.7841715142831
 30
0.0
 10
90.27149249045297
 20
-140.7841715142831
 30
0.0
 10
90.27149249045297
 20
-140.7841715142831
 30
0.0
 10
90.09785967799637
 20
-140.7841715142831
 30
0.0
 10
90.09785967799637
 20
-140.7841715142831
 30
0.0
 10
90.09785967799637
 20
-140.7841715142831
 30
0.0
 10
90.09785967799637
 20
-140.8920030029714
 30
0.0
 10
90.09785967799637
 20
-140.8920030029714
 30
0.0
 10
90.09785967799637
 20
-140.8920030029714
 30
0.0
 10
90.32850882073384
 20
-140.8920030029714
 30
0.0
 10
90.32850882073384
 20
-140.8920030029714
 30
0.0
 10
90.46183401601301
 20
-140.8920030029714
 30
0.0
 10
90.74949948903138
 20
-140.8878688883892
 30
0.0
 10
90.95896129453457
 20
-140.8813232069672
 30
0.0
 10
90.95896129453457
 20
-140.8813232069672
 30
0.0
 10
90.95896129453457
 20
-141.0590901340061
 30
0.0
 10
90.95896129453457
 20
-141.0590901340061
 30
0.0
 10
90.7663804569091
 20
-141.0525444525841
 30
0.0
 10
90.45339353207416
 20
-141.0484103380018
 30
0.0
 10
90.32850882073384
 20
-141.0484103380018
 30
0.0
  0
POLYLINE
  5
136
330
12D
100
AcDbEntity
  8
_U+30EC_U+30A4_U+30E4_U+30FC 1
370
     0
100
AcDb2dPolyline
 66
     1
 10
0.0
 20
0.0
 30
0.0
  0
VERTEX
  5
137
330
136
100
AcDbEntity
  8
_U+30EC_U+30A4_U+30E4_U+30FC 1
370
     0
100
AcDbVertex
100
AcDb2dVertex
 10
90.49352889447732
 20
-141.3043809325559
 30
0.0
  0
VERTEX
  5
138
330
136
100
AcDbEntity
  8
_U+30EC_U+30A4_U+30E4_U+30FC 1
370
     0
100
AcDbVertex
100
AcDb2dVertex
 10
89.78693981045258
 20
-141.3043809325559
 30
0.0
  0
VERTEX
  5
139
330
136
100
AcDbEntity
  8
_U+30EC_U+30A4_U+30E4_U+30FC 1
370
     0
100
AcDbVertex
100
AcDb2dVertex
 10
89.78693981045258
 20
-141.4122124212442
 30
0.0
  0
VERTEX
  5
13A
330
136
100
AcDbEntity
  8
_U+30EC_U+30A4_U+30E4_U+30FC 1
370
     0
100
AcDbVertex
100
AcDb2dVertex
 10
90.49352889447732
 20
-141.4122124212442
 30
0.0
  0
VERTEX
  5
13B
330
136
100
AcDbEntity
  8
_U+30EC_U+30A4_U+30E4_U+30FC 1
370
     0
100
AcDbVertex
100
AcDb2dVertex
 10
90.49352889447732
 20
-141.3043809325559
 30
0.0
  0
SEQEND
  5
13C
330
136
100
AcDbEntity
  8
_U+30EC_U+30A4_U+30E4_U+30FC 1
370
     0
  0
POLYLINE
  5
13D
330
12D
100
AcDbEntity
  8
_U+30EC_U+30A4_U+30E4_U+30FC 1
370
     0
100
AcDb2dPolyline
 66
     1
 10
0.0
 20
0.0
 30
0.0
  0
VERTEX
  5
13E
330
13D
100
AcDbEntity
  8
_U+30EC_U+30A4_U+30E4_U+30FC 1
370
     0
100
AcDbVertex
100
AcDb2dVertex
 10
90.49352889447732
 20
-141.5372693873587
 30
0.0
  0
VERTEX
  5
13F
330
13D
100
AcDbEntity
  8
_U+30EC_U+30A4_U+30E4_U+30FC 1
370
     0
100
AcDbVertex
100
AcDb2dVertex
 10
89.78693981045258
 20
-141.5372693873587
 30
0.0
  0
VERTEX
  5
140
330
13D
100
AcDbEntity
  8
_U+30EC_U+30A4_U+30E4_U+30FC 1
370
     0
100
AcDbVertex
100
AcDb2dVertex
 10
89.78693981045258
 20
-141.6513020479205
 30
0.0
  0
VERTEX
  5
141
330
13D
100
AcDbEntity
  8
_U+30EC_U+30A4_U+30E4_U+30FC 1
370
     0
100
AcDbVertex
100
AcDb2dVertex
 10
90.49352889447732
 20
-141.6513020479205
 30
0.0
  0
VERTEX
  5
142
330
13D
100
AcDbEntity
  8
_U+30EC_U+30A4_U+30E4_U+30FC 1
370
     0
100
AcDbVertex
100
AcDb2dVertex
 10
90.49352889447732
 20
-141.5372693873587
 30
0.0
  0
SEQEND
  5
143
330
13D
100
AcDbEntity
  8
_U+30EC_U+30A4_U+30E4_U+30FC 1
370
     0
  0
POLYLINE
  5
144
330
12D
100
AcDbEntity
  8
_U+30EC_U+30A4_U+30E4_U+30FC 1
370
     0
100
AcDb2dPolyline
 66
     1
 10
0.0
 20
0.0
 30
0.0
  0
VERTEX
  5
145
330
144
100
AcDbEntity
  8
_U+30EC_U+30A4_U+30E4_U+30FC 1
370
     0
100
AcDbVertex
100
AcDb2dVertex
 10
90.49352889447732
 20
-141.7804931286174
 30
0.0
  0
VERTEX
  5
146
330
144
100
AcDbEntity
  8
_U+30EC_U+30A4_U+30E4_U+30FC 1
370
     0
100
AcDbVertex
100
AcDb2dVertex
 10
89.78693981045258
 20
-141.7804931286174
 30
0.0
  0
VERTEX
  5
147
330
144
100
AcDbEntity
  8
_U+30EC_U+30A4_U+30E4_U+30FC 1
370
     0
100
AcDbVertex
100
AcDb2dVertex
 10
89.78693981045258
 20
-141.8945257891791
 30
0.0
  0
VERTEX
  5
148
330
144
100
AcDbEntity
  8
_U+30EC_U+30A4_U+30E4_U+30FC 1
370
     0
100
AcDbVertex
100
AcDb2dVertex
 10
90.49352889447732
 20
-141.8945257891791
 30
0.0
  0
VERTEX
  5
149
330
144
100
AcDbEntity
  8
_U+30EC_U+30A4_U+30E4_U+30FC 1
370
     0
100
AcDbVertex
100
AcDb2dVertex
 10
90.49352889447732
 20
-141.7804931286174
 30
0.0
  0
SEQEND
  5
14A
330
144
100
AcDbEntity
  8
_U+30EC_U+30A4_U+30E4_U+30FC 1
370
     0
  0
HATCH
  5
14B
330
12D
100
AcDbEntity
  8
_U+30EC_U+30A4_U+30E4_U+30FC 1
 62
   179
420
  2234388
100
AcDbHatch
 10
0.0
 20
0.0
 30
0.0
210
0.0
220
0.0
230
1.0
  2
SOLID
 70
     1
 71
     0
 91
        4
 92
        1
 93
        1
 72
     4
 94
        3
 73
     0
 74
     1
 95
      203
 96
      199
 40
0.0
 40
0.0
 40
0.0
 40
0.0
 40
1.0
 40
1.0
 40
1.0
 40
2.0
 40
2.0
 40
2.0
 40
3.0
 40
3.0
 40
3.0
 40
4.0
 40
4.0
 40
4.0
 40
5.0
 40
5.0
 40
5.0
 40
6.0
 40
6.0
 40
6.0
 40
7.0
 40
7.0
 40
7.0
 40
8.0
 40
8.0
 40
8.0
 40
9.0
 40
9.0
 40
9.0
 40
10.0
 40
10.0
 40
10.0
 40
11.0
 40
11.0
 40
11.0
 40
12.0
 40
12.0
 40
12.0
 40
13.0
 40
13.0
 40
13.0
 40
14.0
 40
14.0
 40
14.0
 40
15.0
 40
15.0
 40
15.0
 40
16.0
 40
16.0
 40
16.0
 40
17.0
 40
17.0
 40
17.0
 40
18.0
 40
18.0
 40
18.0
 40
19.0
 40
19.0
 40
19.0
 40
20.0
 40
20.0
 40
20.0
 40
21.0
 40
21.0
 40
21.0
 40
22.0
 40
22.0
 40
22.0
 40
23.0
 40
23.0
 40
23.0
 40
24.0
 40
24.0
 40
24.0
 40
25.0
 40
25.0
 40
25.0
 40
26.0
 40
26.0
 40
26.0
 40
27.0
 40
27.0
 40
27.0
 40
28.0
 40
28.0
 40
28.0
 40
29.0
 40
29.0
 40
29.0
 40
30.0
 40
30.0
 40
30.0
 40
31.0
 40
31.0
 40
31.0
 40
32.0
 40
32.0
 40
32.0
 40
33.0
 40
33.0
 40
33.0
 40
34.0
 40
34.0
 40
34.0
 40
35.0
 40
35.0
 40
35.0
 40
36.0
 40
36.0
 40
36.0
 40
37.0
 40
37.0
 40
37.0
 40
38.0
 40
38.0
 40
38.0
 40
39.0
 40
39.0
 40
39.0
 40
40.0
 40
40.0
 40
40.0
 40
41.0
 40
41.0
 40
41.0
 40
42.0
 40
42.0
 40
42.0
 40
43.0
 40
43.0
 40
43.0
 40
44.0
 40
44.0
 40
44.0
 40
45.0
 40
45.0
 40
45.0
 40
46.0
 40
46.0
 40
46.0
 40
47.0
 40
47.0
 40
47.0
 40
48.0
 40
48.0
 40
48.0
 40
49.0
 40
49.0
 40
49.0
 40
50.0
 40
50.0
 40
50.0
 40
51.0
 40
51.0
 40
51.0
 40
52.0
 40
52.0
 40
52.0
 40
53.0
 40
53.0
 40
53.0
 40
54.0
 40
54.0
 40
54.0
 40
55.0
 40
55.0
 40
55.0
 40
56.0
 40
56.0
 40
56.0
 40
57.0
 40
57.0
 40
57.0
 40
58.0
 40
58.0
 40
58.0
 40
59.0
 40
59.0
 40
59.0
 40
60.0
 40
60.0
 40
60.0
 40
61.0
 40
61.0
 40
61.0
 40
62.0
 40
62.0
 40
62.0
 40
63.0
 40
63.0
 40
63.0
 40
64.0
 40
64.0
 40
64.0
 40
65.0
 40
65.0
 40
65.0
 40
66.0
 40
66.0
 40
66.0
 40
66.0
 10
90.32850882073384
 20
-141.0484103380018
 10
90.32850882073384
 20
-141.0484103380018
 10
89.77005884257485
 20
-141.0484103380018
 10
89.77005884257485
 20
-141.0484103380018
 10
89.75937904657057
 20
-141.0928520697615
 10
89.75093856263172
 20
-141.1245469482258
 10
89.73836396411055
 20
-141.1627875081121
 10
89.76368541592714
 20
-141.1627875081121
 10
89.77849932651371
 20
-141.1648545654032
 10
89.78487275316142
 20
-141.1648545654032
 10
89.78487275316142
 20
-141.1648545654032
 10
89.97314722143032
 20
-141.1648545654032
 10
89.97314722143032
 20
-141.1648545654032
 10
89.97314722143032
 20
-141.1648545654032
 10
90.34762910067698
 20
-141.1648545654032
 10
90.34762910067698
 20
-141.1648545654032
 10
90.39827200431016
 20
-141.1648545654032
 10
90.68180336274622
 20
-141.1521077121078
 10
90.71349824121052
 20
-141.1521077121078
 10
90.71143118391937
 20
-141.1796684759898
 10
90.70936412662822
 20
-141.1986165011587
 10
90.70936412662822
 20
-141.2282443223318
 10
90.7071248145628
 20
-141.2599392007961
 10
90.7071248145628
 20
-141.3953314533665
 10
90.7071248145628
 20
-141.4228922172485
 10
90.7071248145628
 20
-141.4228922172485
 10
90.7071248145628
 20
-141.6681830157982
 10
90.7071248145628
 20
-141.6681830157982
 10
90.7071248145628
 20
-141.712624747558
 10
90.71143118391937
 20
-141.9093396997657
 10
90.71573755327593
 20
-142.0619574297623
 10
90.71573755327593
 20
-142.0619574297623
 10
90.48922252512075
 20
-142.0619574297623
 10
90.48922252512075
 20
-142.0619574297623
 10
90.48922252512075
 20
-142.0619574297623
 10
90.49146183718616
 20
-142.0278509844583
 10
90.49146183718616
 20
-142.0278509844583
 10
90.49146183718616
 20
-142.0278509844583
 10
89.78900686774372
 20
-142.0278509844583
 10
89.78900686774372
 20
-142.0278509844583
 10
89.78900686774372
 20
-142.0278509844583
 10
89.79124617980914
 20
-142.0619574297623
 10
89.79124617980914
 20
-142.0619574297623
 10
89.79124617980914
 20
-142.0619574297623
 10
89.57334389036708
 20
-142.0619574297623
 10
89.57334389036708
 20
-142.0619574297623
 10
89.57747800494938
 20
-142.0068359019983
 10
89.57747800494938
 20
-141.9940890487029
 10
89.5838514315971
 20
-141.8797118785926
 10
89.58591848888824
 20
-141.8524956242591
 10
89.58815780095365
 20
-141.7191704289799
 10
89.58815780095365
 20
-141.7002224038111
 10
89.58815780095365
 20
-141.7002224038111
 10
89.58815780095365
 20
-141.4969617701813
 10
89.58815780095365
 20
-141.4969617701813
 10
89.44845917902678
 20
-141.7467311928619
 10
89.27930499070101
 20
-141.8776448213014
 10
89.17354055930385
 20
-141.9434461450697
 10
89.17354055930385
 20
-141.9434461450697
 10
88.99990774684726
 20
-141.8035752683685
 10
88.99990774684726
 20
-141.8035752683685
 10
89.0887912103667
 20
-141.7529323647354
 10
89.23262394687588
 20
-141.6661159585071
 10
89.3702555115116
 20
-141.4714680635905
 10
89.46120603232221
 20
-141.3446885497333
 10
89.52666284654195
 20
-141.2006835584498
 10
89.56059703707166
 20
-141.0484103380018
 10
89.3321872063996
 20
-141.0504773952929
 10
89.15235322206955
 20
-141.0570230767149
 10
89.0570963319024
 20
-141.0590901340061
 10
89.0570963319024
 20
-141.0590901340061
 10
89.0570963319024
 20
-140.8813232069672
 10
89.0570963319024
 20
-140.8813232069672
 10
89.25381128411016
 20
-140.8878688883892
 10
89.53734264254622
 20
-140.8920030029714
 10
89.68754880570312
 20
-140.8920030029714
 10
89.68754880570312
 20
-140.8920030029714
 10
89.90114472578861
 20
-140.8920030029714
 10
89.90114472578861
 20
-140.8920030029714
 10
89.90114472578861
 20
-140.8920030029714
 10
89.90114472578861
 20
-140.7841715142831
 10
89.90114472578861
 20
-140.7841715142831
 10
89.90114472578861
 20
-140.7841715142831
 10
89.75524493198827
 20
-140.7841715142831
 10
89.75524493198827
 20
-140.7841715142831
 10
89.58591848888824
 20
-140.7841715142831
 10
89.41676430056248
 20
-140.7883056288654
 10
89.24967716952786
 20
-140.7945068007389
 10
89.24967716952786
 20
-140.7945068007389
 10
89.24967716952786
 20
-140.623285555122
 10
89.24967716952786
 20
-140.623285555122
 10
89.40401744726705
 20
-140.6339653511262
 10
89.59022485824481
 20
-140.6339653511262
 10
89.75524493198827
 20
-140.6339653511262
 10
89.75524493198827
 20
-140.6339653511262
 10
89.90114472578861
 20
-140.6339653511262
 10
89.90114472578861
 20
-140.6339653511262
 10
89.90114472578861
 20
-140.6339653511262
 10
89.90114472578861
 20
-140.5154540664336
 10
89.90114472578861
 20
-140.5154540664336
 10
89.90114472578861
 20
-140.5154540664336
 10
89.77005884257485
 20
-140.5154540664336
 10
89.77005884257485
 20
-140.5154540664336
 10
89.72355005352398
 20
-140.5154540664336
 10
89.5204616746685
 20
-140.5237222955982
 10
89.47808700019992
 20
-140.5237222955982
 10
89.27499862134445
 20
-140.5282009197291
 10
89.19886201112043
 20
-140.5302679770202
 10
89.12048608883099
 20
-140.5323350343114
 10
89.12048608883099
 20
-140.5323350343114
 10
89.12048608883099
 20
-140.348366935399
 10
89.12048608883099
 20
-140.348366935399
 10
89.23486325894129
 20
-140.3566351645636
 10
89.27930499070101
 20
-140.3566351645636
 10
89.66205509911227
 20
-140.3652479032768
 10
89.59866534218366
 20
-140.2698187583353
 10
89.57110457830167
 20
-140.2426025040019
 10
89.53527558525508
 20
-140.2064290014067
 10
89.53527558525508
 20
-140.2064290014067
 10
89.71080320022855
 20
-140.1240912193093
 10
89.71080320022855
 20
-140.1240912193093
 10
89.75093856263172
 20
-140.1599202123559
 10
89.79538029439144
 20
-140.2022948868244
 10
89.8694498473243
 20
-140.3121934328039
 10
89.8694498473243
 20
-140.3121934328039
 10
89.75524493198827
 20
-140.3673149605679
 10
89.75524493198827
 20
-140.3673149605679
 10
89.75524493198827
 20
-140.3673149605679
 10
89.76575247321828
 20
-140.3673149605679
 10
89.76575247321828
 20
-140.3673149605679
 10
89.76575247321828
 20
-140.3673149605679
 10
90.28837345833068
 20
-140.3673149605679
 10
90.28837345833068
 20
-140.3673149605679
 10
90.28837345833068
 20
-140.3673149605679
 10
90.19311656816353
 20
-140.3228732288082
 10
90.19311656816353
 20
-140.3228732288082
 10
90.22067733204553
 20
-140.2846326689219
 10
90.27769366232641
 20
-140.2043619441156
 10
90.29250757291298
 20
-140.1302923911827
 10
90.29250757291298
 20
-140.1302923911827
 10
90.50627574777275
 20
-140.1936821481113
 10
90.50627574777275
 20
-140.1936821481113
 10
90.5147162317116
 20
-140.196093714951
 10
90.53590356894588
 20
-140.2064290014067
 10
90.53590356894588
 20
-140.2277885934153
 10
90.53590356894588
 20
-140.265684643753
 10
90.47027449995188
 20
-140.265684643753
 10
90.45115422000875
 20
-140.265684643753
 10
90.44064667877873
 20
-140.2846326689219
 10
90.4173922842533
 20
-140.3249402860993
 10
90.38776446308015
 20
-140.3652479032768
 10
90.78756779414338
 20
-140.3587022218548
 10
90.81719561531654
 20
-140.3566351645636
 10
90.89333222554056
 20
-140.3504339926902
 10
90.89333222554056
 20
-140.3504339926902
 10
90.89333222554056
 20
-140.5323350343114
 10
90.89333222554056
 20
-140.5323350343114
 10
90.87438420037168
 20
-140.5323350343114
 10
90.84889049378084
 20
-140.5302679770202
 10
90.62892114704763
 20
-140.5216552383071
 10
90.5781059886402
 20
-140.5195881810159
 10
90.358136641907
 20
-140.5154540664336
 10
90.31369491014728
 20
-140.5154540664336
 10
90.31369491014728
 20
-140.5154540664336
 10
90.09785967799637
 20
-140.5154540664336
 10
90.09785967799637
 20
-140.5154540664336
 10
90.09785967799637
 20
-140.5154540664336
 10
90.09785967799637
 20
-140.6339653511262
 10
90.09785967799637
 20
-140.6339653511262
 10
90.09785967799637
 20
-140.6339653511262
 10
90.27149249045297
 20
-140.6339653511262
 10
90.27149249045297
 20
-140.6339653511262
 10
90.43427325213102
 20
-140.6339653511262
 10
90.62461477769108
 20
-140.6339653511262
 10
90.78119436749567
 20
-140.623285555122
 10
90.78119436749567
 20
-140.623285555122
 10
90.78119436749567
 20
-140.7945068007389
 10
90.78119436749567
 20
-140.7945068007389
 10
90.57173256199249
 20
-140.7862385715743
 10
90.37501760978472
 20
-140.7841715142831
 10
90.27149249045297
 20
-140.7841715142831
 10
90.27149249045297
 20
-140.7841715142831
 10
90.09785967799637
 20
-140.7841715142831
 10
90.09785967799637
 20
-140.7841715142831
 10
90.09785967799637
 20
-140.7841715142831
 10
90.09785967799637
 20
-140.8920030029714
 10
90.09785967799637
 20
-140.8920030029714
 10
90.09785967799637
 20
-140.8920030029714
 10
90.32850882073384
 20
-140.8920030029714
 10
90.32850882073384
 20
-140.8920030029714
 10
90.46183401601301
 20
-140.8920030029714
 10
90.74949948903138
 20
-140.8878688883892
 10
90.95896129453457
 20
-140.8813232069672
 10
90.95896129453457
 20
-140.8813232069672
 10
90.95896129453457
 20
-141.0590901340061
 10
90.95896129453457
 20
-141.0590901340061
 10
90.7663804569091
 20
-141.0525444525841
 10
90.45339353207416
 20
-141.0484103380018
 10
90.32850882073384
 20
-141.0484103380018
 97
        0
 97
        0
 92
        1
 93
        4
 72
     1
 10
90.49352889447732
 20
-141.3043809325559
 11
89.78693981045258
 21
-141.3043809325559
 72
     1
 10
89.78693981045258
 20
-141.3043809325559
 11
89.78693981045258
 21
-141.4122124212442
 72
     1
 10
89.78693981045258
 20
-141.4122124212442
 11
90.49352889447732
 21
-141.4122124212442
 72
     1
 10
90.49352889447732
 20
-141.4122124212442
 11
90.49352889447732
 21
-141.3043809325559
 97
        0
 92
        1
 93
        4
 72
     1
 10
90.49352889447732
 20
-141.5372693873587
 11
89.78693981045258
 21
-141.5372693873587
 72
     1
 10
89.78693981045258
 20
-141.5372693873587
 11
89.78693981045258
 21
-141.6513020479205
 72
     1
 10
89.78693981045258
 20
-141.6513020479205
 11
90.49352889447732
 21
-141.6513020479205
 72
     1
 10
90.49352889447732
 20
-141.6513020479205
 11
90.49352889447732
 21
-141.5372693873587
 97
        0
 92
        1
 93
        4
 72
     1
 10
90.49352889447732
 20
-141.7804931286174
 11
89.78693981045258
 21
-141.7804931286174
 72
     1
 10
89.78693981045258
 20
-141.7804931286174
 11
89.78693981045258
 21
-141.8945257891791
 72
     1
 10
89.78693981045258
 20
-141.8945257891791
 11
90.49352889447732
 21
-141.8945257891791
 72
     1
 10
90.49352889447732
 20
-141.8945257891791
 11
90.49352889447732
 21
-141.7804931286174
 97
        0
 75
     2
 76
     1
 98
        0
  0
SPLINE
  5
14C
330
12D
100
AcDbEntity
  8
_U+30EC_U+30A4_U+30E4_U+30FC 1
370
     0
100
AcDbSpline
210
0.0
220
0.0
230
1.0
 70
    11
 71
     3
 72
    47
 73
    43
 74
     0
 42
0.0000000001
 43
0.0000000001
 12
1.0
 22
0.0
 32
0.0
 13
1.0
 23
0.0
 33
0.0
 40
0.0
 40
0.0
 40
0.0
 40
0.0
 40
1.0
 40
1.0
 40
1.0
 40
2.0
 40
2.0
 40
2.0
 40
3.0
 40
3.0
 40
3.0
 40
4.0
 40
4.0
 40
4.0
 40
5.0
 40
5.0
 40
5.0
 40
6.0
 40
6.0
 40
6.0
 40
7.0
 40
7.0
 40
7.0
 40
8.0
 40
8.0
 40
8.0
 40
9.0
 40
9.0
 40
9.0
 40
10.0
 40
10.0
 40
10.0
 40
11.0
 40
11.0
 40
11.0
 40
12.0
 40
12.0
 40
12.0
 40
13.0
 40
13.0
 40
13.0
 40
14.0
 40
14.0
 40
14.0
 40
14.0
 10
92.30547686494447
 20
-141.0253281982506
 30
0.0
 10
92.30547686494447
 20
-141.0253281982506
 30
0.0
 10
92.2038465481296
 20
-141.0253281982506
 30
0.0
 10
92.2038465481296
 20
-141.0253281982506
 30
0.0
 10
92.2038465481296
 20
-141.1118000949304
 30
0.0
 10
92.18283146566958
 20
-141.5010958847636
 30
0.0
 10
91.98611651346181
 20
-141.7212374862711
 30
0.0
 10
91.83384329301377
 20
-141.8903916745969
 30
0.0
 10
91.62644854480172
 20
-141.9603271129474
 30
0.0
 10
91.54169919586458
 20
-141.9878878768294
 30
0.0
 10
91.54169919586458
 20
-141.9878878768294
 30
0.0
 10
91.34722355572222
 20
-141.8208007457948
 30
0.0
 10
91.34722355572222
 20
-141.8208007457948
 30
0.0
 10
91.44454750318053
 20
-141.8080538924994
 30
0.0
 10
91.62024737292828
 20
-141.7846272431997
 30
0.0
 10
91.80834958642292
 20
-141.596525029705
 30
0.0
 10
91.88241913935579
 20
-141.5245225340633
 30
0.0
 10
91.98611651346181
 20
-141.3849961669107
 30
0.0
 10
91.98611651346181
 20
-141.0253281982506
 30
0.0
 10
91.98611651346181
 20
-141.0253281982506
 30
0.0
 10
91.75563962549859
 20
-141.0253281982506
 30
0.0
 10
91.75563962549859
 20
-141.0253281982506
 30
0.0
 10
91.56925995974657
 20
-141.0253281982506
 30
0.0
 10
91.38322480354309
 20
-141.0294623128329
 30
0.0
 10
91.19701739256533
 20
-141.0442762234195
 30
0.0
 10
91.19701739256533
 20
-141.0442762234195
 30
0.0
 10
91.19701739256533
 20
-140.824134621912
 30
0.0
 10
91.19701739256533
 20
-140.824134621912
 30
0.0
 10
91.38529186083424
 20
-140.8389485324986
 30
0.0
 10
91.67089027656145
 20
-140.8434271566294
 30
0.0
 10
91.75563962549859
 20
-140.8434271566294
 30
0.0
 10
91.75563962549859
 20
-140.8434271566294
 30
0.0
 10
92.30547686494447
 20
-140.8434271566294
 30
0.0
 10
92.30547686494447
 20
-140.8434271566294
 30
0.0
 10
92.32442489011335
 20
-140.8434271566294
 30
0.0
 10
92.64206269385338
 20
-140.8434271566294
 30
0.0
 10
92.87047252452544
 20
-140.824134621912
 30
0.0
 10
92.87047252452544
 20
-140.824134621912
 30
0.0
 10
92.87047252452544
 20
-141.0442762234195
 30
0.0
 10
92.87047252452544
 20
-141.0442762234195
 30
0.0
 10
92.68202580148228
 20
-141.0294623128329
 30
0.0
 10
92.49392358798764
 20
-141.0253281982506
 30
0.0
 10
92.30547686494447
 20
-141.0253281982506
 30
0.0
  0
SPLINE
  5
14D
330
12D
100
AcDbEntity
  8
_U+30EC_U+30A4_U+30E4_U+30FC 1
370
     0
100
AcDbSpline
210
0.0
220
0.0
230
1.0
 70
    11
 71
     3
 72
    29
 73
    25
 74
     0
 42
0.0000000001
 43
0.0000000001
 12
1.0
 22
0.0
 32
0.0
 13
1.0
 23
0.0
 33
0.0
 40
0.0
 40
0.0
 40
0.0
 40
0.0
 40
1.0
 40
1.0
 40
1.0
 40
2.0
 40
2.0
 40
2.0
 40
3.0
 40
3.0
 40
3.0
 40
4.0
 40
4.0
 40
4.0
 40
5.0
 40
5.0
 40
5.0
 40
6.0
 40
6.0
 40
6.0
 40
7.0
 40
7.0
 40
7.0
 40
8.0
 40
8.0
 40
8.0
 40
8.0
 10
92.2038465481296
 20
-140.4961615317162
 30
0.0
 10
92.2038465481296
 20
-140.4961615317162
 30
0.0
 10
91.8507242608915
 20
-140.4961615317162
 30
0.0
 10
91.8507242608915
 20
-140.4961615317162
 30
0.0
 10
91.73841414807235
 20
-140.4961615317162
 30
0.0
 10
91.59888778091972
 20
-140.5027072131382
 30
0.0
 10
91.4910562922314
 20
-140.5154540664336
 30
0.0
 10
91.4910562922314
 20
-140.5154540664336
 30
0.0
 10
91.4910562922314
 20
-140.2804985543396
 30
0.0
 10
91.4910562922314
 20
-140.2804985543396
 30
0.0
 10
91.60956757692401
 20
-140.2953124649262
 30
0.0
 10
91.79353567583634
 20
-140.2994465795085
 30
0.0
 10
91.8507242608915
 20
-140.2994465795085
 30
0.0
 10
91.8507242608915
 20
-140.2994465795085
 30
0.0
 10
92.2038465481296
 20
-140.2994465795085
 30
0.0
 10
92.2038465481296
 20
-140.2994465795085
 30
0.0
 10
92.223139082847
 20
-140.2994465795085
 30
0.0
 10
92.42605520692821
 20
-140.2994465795085
 30
0.0
 10
92.5679931409205
 20
-140.2804985543396
 30
0.0
 10
92.5679931409205
 20
-140.2804985543396
 30
0.0
 10
92.5679931409205
 20
-140.5154540664336
 30
0.0
 10
92.5679931409205
 20
-140.5154540664336
 30
0.0
 10
92.41124129634164
 20
-140.4961615317162
 30
0.0
 10
92.22107202555584
 20
-140.4961615317162
 30
0.0
 10
92.2038465481296
 20
-140.4961615317162
 30
0.0
  0
HATCH
  5
14E
330
12D
100
AcDbEntity
  8
_U+30EC_U+30A4_U+30E4_U+30FC 1
 62
   179
420
  2234388
100
AcDbHatch
 10
0.0
 20
0.0
 30
0.0
210
0.0
220
0.0
230
1.0
  2
SOLID
 70
     1
 71
     0
 91
        2
 92
        1
 93
        1
 72
     4
 94
        3
 73
     0
 74
     1
 95
       47
 96
       43
 40
0.0
 40
0.0
 40
0.0
 40
0.0
 40
1.0
 40
1.0
 40
1.0
 40
2.0
 40
2.0
 40
2.0
 40
3.0
 40
3.0
 40
3.0
 40
4.0
 40
4.0
 40
4.0
 40
5.0
 40
5.0
 40
5.0
 40
6.0
 40
6.0
 40
6.0
 40
7.0
 40
7.0
 40
7.0
 40
8.0
 40
8.0
 40
8.0
 40
9.0
 40
9.0
 40
9.0
 40
10.0
 40
10.0
 40
10.0
 40
11.0
 40
11.0
 40
11.0
 40
12.0
 40
12.0
 40
12.0
 40
13.0
 40
13.0
 40
13.0
 40
14.0
 40
14.0
 40
14.0
 40
14.0
 10
92.30547686494447
 20
-141.0253281982506
 10
92.30547686494447
 20
-141.0253281982506
 10
92.2038465481296
 20
-141.0253281982506
 10
92.2038465481296
 20
-141.0253281982506
 10
92.2038465481296
 20
-141.1118000949304
 10
92.18283146566958
 20
-141.5010958847636
 10
91.98611651346181
 20
-141.7212374862711
 10
91.83384329301377
 20
-141.8903916745969
 10
91.62644854480172
 20
-141.9603271129474
 10
91.54169919586458
 20
-141.9878878768294
 10
91.54169919586458
 20
-141.9878878768294
 10
91.34722355572222
 20
-141.8208007457948
 10
91.34722355572222
 20
-141.8208007457948
 10
91.44454750318053
 20
-141.8080538924994
 10
91.62024737292828
 20
-141.7846272431997
 10
91.80834958642292
 20
-141.596525029705
 10
91.88241913935579
 20
-141.5245225340633
 10
91.98611651346181
 20
-141.3849961669107
 10
91.98611651346181
 20
-141.0253281982506
 10
91.98611651346181
 20
-141.0253281982506
 10
91.75563962549859
 20
-141.0253281982506
 10
91.75563962549859
 20
-141.0253281982506
 10
91.56925995974657
 20
-141.0253281982506
 10
91.38322480354309
 20
-141.0294623128329
 10
91.19701739256533
 20
-141.0442762234195
 10
91.19701739256533
 20
-141.0442762234195
 10
91.19701739256533
 20
-140.824134621912
 10
91.19701739256533
 20
-140.824134621912
 10
91.38529186083424
 20
-140.8389485324986
 10
91.67089027656145
 20
-140.8434271566294
 10
91.75563962549859
 20
-140.8434271566294
 10
91.75563962549859
 20
-140.8434271566294
 10
92.30547686494447
 20
-140.8434271566294
 10
92.30547686494447
 20
-140.8434271566294
 10
92.32442489011335
 20
-140.8434271566294
 10
92.64206269385338
 20
-140.8434271566294
 10
92.87047252452544
 20
-140.824134621912
 10
92.87047252452544
 20
-140.824134621912
 10
92.87047252452544
 20
-141.0442762234195
 10
92.87047252452544
 20
-141.0442762234195
 10
92.68202580148228
 20
-141.0294623128329
 10
92.49392358798764
 20
-141.0253281982506
 10
92.30547686494447
 20
-141.0253281982506
 97
        0
 97
        0
 92
        1
 93
        1
 72
     4
 94
        3
 73
     0
 74
     1
 95
       29
 96
       25
 40
0.0
 40
0.0
 40
0.0
 40
0.0
 40
1.0
 40
1.0
 40
1.0
 40
2.0
 40
2.0
 40
2.0
 40
3.0
 40
3.0
 40
3.0
 40
4.0
 40
4.0
 40
4.0
 40
5.0
 40
5.0
 40
5.0
 40
6.0
 40
6.0
 40
6.0
 40
7.0
 40
7.0
 40
7.0
 40
8.0
 40
8.0
 40
8.0
 40
8.0
 10
92.2038465481296
 20
-140.4961615317162
 10
92.2038465481296
 20
-140.4961615317162
 10
91.8507242608915
 20
-140.4961615317162
 10
91.8507242608915
 20
-140.4961615317162
 10
91.73841414807235
 20
-140.4961615317162
 10
91.59888778091972
 20
-140.5027072131382
 10
91.4910562922314
 20
-140.5154540664336
 10
91.4910562922314
 20
-140.5154540664336
 10
91.4910562922314
 20
-140.2804985543396
 10
91.4910562922314
 20
-140.2804985543396
 10
91.60956757692401
 20
-140.2953124649262
 10
91.79353567583634
 20
-140.2994465795085
 10
91.8507242608915
 20
-140.2994465795085
 10
91.8507242608915
 20
-140.2994465795085
 10
92.2038465481296
 20
-140.2994465795085
 10
92.2038465481296
 20
-140.2994465795085
 10
92.223139082847
 20
-140.2994465795085
 10
92.42605520692821
 20
-140.2994465795085
 10
92.5679931409205
 20
-140.2804985543396
 10
92.5679931409205
 20
-140.2804985543396
 10
92.5679931409205
 20
-140.5154540664336
 10
92.5679931409205
 20
-140.5154540664336
 10
92.41124129634164
 20
-140.4961615317162
 10
92.22107202555584
 20
-140.4961615317162
 10
92.2038465481296
 20
-140.4961615317162
 97
        0
 97
        0
 75
     2
 76
     1
 98
        0
  0
SPLINE
  5
14F
330
12D
100
AcDbEntity
  8
_U+30EC_U+30A4_U+30E4_U+30FC 1
370
     0
100
AcDbSpline
210
0.0
220
0.0
230
1.0
 70
    11
 71
     3
 72
    29
 73
    25
 74
     0
 42
0.0000000001
 43
0.0000000001
 12
1.0
 22
0.0
 32
0.0
 13
1.0
 23
0.0
 33
0.0
 40
0.0
 40
0.0
 40
0.0
 40
0.0
 40
1.0
 40
1.0
 40
1.0
 40
2.0
 40
2.0
 40
2.0
 40
3.0
 40
3.0
 40
3.0
 40
4.0
 40
4.0
 40
4.0
 40
5.0
 40
5.0
 40
5.0
 40
6.0
 40
6.0
 40
6.0
 40
7.0
 40
7.0
 40
7.0
 40
8.0
 40
8.0
 40
8.0
 40
8.0
 10
94.15135902594133
 20
-141.1879367051544
 30
0.0
 10
94.15135902594133
 20
-141.1879367051544
 30
0.0
 10
93.6669786007152
 20
-141.1879367051544
 30
0.0
 10
93.6669786007152
 20
-141.1879367051544
 30
0.0
 10
93.6394178368332
 20
-141.1879367051544
 30
0.0
 10
93.32212454264169
 20
-141.1879367051544
 30
0.0
 10
93.11059567984735
 20
-141.2134304117453
 30
0.0
 10
93.11059567984735
 20
-141.2134304117453
 30
0.0
 10
93.11059567984735
 20
-140.982953523782
 30
0.0
 10
93.11059567984735
 20
-140.982953523782
 30
0.0
 10
93.26907007216884
 20
-141.0060356635332
 30
0.0
 10
93.45958385250316
 20
-141.0084472303729
 30
0.0
 10
93.6669786007152
 20
-141.0084472303729
 30
0.0
 10
93.6669786007152
 20
-141.0084472303729
 30
0.0
 10
94.15135902594133
 20
-141.0084472303729
 30
0.0
 10
94.15135902594133
 20
-141.0084472303729
 30
0.0
 10
94.33739418214482
 20
-141.0084472303729
 30
0.0
 10
94.52377384789683
 20
-141.0060356635332
 30
0.0
 10
94.70774194680918
 20
-140.982953523782
 30
0.0
 10
94.70774194680918
 20
-140.982953523782
 30
0.0
 10
94.70774194680918
 20
-141.2134304117453
 30
0.0
 10
94.70774194680918
 20
-141.2134304117453
 30
0.0
 10
94.52377384789683
 20
-141.1903482719941
 30
0.0
 10
94.27607148250738
 20
-141.1879367051544
 30
0.0
 10
94.15135902594133
 20
-141.1879367051544
 30
0.0
  0
HATCH
  5
150
330
12D
100
AcDbEntity
  8
_U+30EC_U+30A4_U+30E4_U+30FC 1
 62
   179
420
  2234388
100
AcDbHatch
 10
0.0
 20
0.0
 30
0.0
210
0.0
220
0.0
230
1.0
  2
SOLID
 70
     1
 71
     0
 91
        1
 92
        1
 93
        1
 72
     4
 94
        3
 73
     0
 74
     1
 95
       29
 96
       25
 40
0.0
 40
0.0
 40
0.0
 40
0.0
 40
1.0
 40
1.0
 40
1.0
 40
2.0
 40
2.0
 40
2.0
 40
3.0
 40
3.0
 40
3.0
 40
4.0
 40
4.0
 40
4.0
 40
5.0
 40
5.0
 40
5.0
 40
6.0
 40
6.0
 40
6.0
 40
7.0
 40
7.0
 40
7.0
 40
8.0
 40
8.0
 40
8.0
 40
8.0
 10
94.15135902594133
 20
-141.1879367051544
 10
94.15135902594133
 20
-141.1879367051544
 10
93.6669786007152
 20
-141.1879367051544
 10
93.6669786007152
 20
-141.1879367051544
 10
93.6394178368332
 20
-141.1879367051544
 10
93.32212454264169
 20
-141.1879367051544
 10
93.11059567984735
 20
-141.2134304117453
 10
93.11059567984735
 20
-141.2134304117453
 10
93.11059567984735
 20
-140.982953523782
 10
93.11059567984735
 20
-140.982953523782
 10
93.26907007216884
 20
-141.0060356635332
 10
93.45958385250316
 20
-141.0084472303729
 10
93.6669786007152
 20
-141.0084472303729
 10
93.6669786007152
 20
-141.0084472303729
 10
94.15135902594133
 20
-141.0084472303729
 10
94.15135902594133
 20
-141.0084472303729
 10
94.33739418214482
 20
-141.0084472303729
 10
94.52377384789683
 20
-141.0060356635332
 10
94.70774194680918
 20
-140.982953523782
 10
94.70774194680918
 20
-140.982953523782
 10
94.70774194680918
 20
-141.2134304117453
 10
94.70774194680918
 20
-141.2134304117453
 10
94.52377384789683
 20
-141.1903482719941
 10
94.27607148250738
 20
-141.1879367051544
 10
94.15135902594133
 20
-141.1879367051544
 97
        0
 97
        0
 75
     2
 76
     1
 98
        0
  0
SPLINE
  5
151
330
12D
100
AcDbEntity
  8
_U+30EC_U+30A4_U+30E4_U+30FC 1
370
     0
100
AcDbSpline
210
0.0
220
0.0
230
1.0
 70
    11
 71
     3
 72
    44
 73
    40
 74
     0
 42
0.0000000001
 43
0.0000000001
 12
1.0
 22
0.0
 32
0.0
 13
1.0
 23
0.0
 33
0.0
 40
0.0
 40
0.0
 40
0.0
 40
0.0
 40
1.0
 40
1.0
 40
1.0
 40
2.0
 40
2.0
 40
2.0
 40
3.0
 40
3.0
 40
3.0
 40
4.0
 40
4.0
 40
4.0
 40
5.0
 40
5.0
 40
5.0
 40
6.0
 40
6.0
 40
6.0
 40
7.0
 40
7.0
 40
7.0
 40
8.0
 40
8.0
 40
8.0
 40
9.0
 40
9.0
 40
9.0
 40
10.0
 40
10.0
 40
10.0
 40
11.0
 40
11.0
 40
11.0
 40
12.0
 40
12.0
 40
12.0
 40
13.0
 40
13.0
 40
13.0
 40
13.0
 10
96.36311032747173
 20
-140.7500650689792
 30
0.0
 10
96.25080021465259
 20
-141.1183457763524
 30
0.0
 10
96.20015731101941
 20
-141.2768201686739
 30
0.0
 10
96.00344235881164
 20
-141.5265895913545
 30
0.0
 10
95.81947425989931
 20
-141.7570664793177
 30
0.0
 10
95.58245169051412
 20
-141.9434461450697
 30
0.0
 10
95.30305444666035
 20
-142.0364637231714
 30
0.0
 10
95.30305444666035
 20
-142.0364637231714
 30
0.0
 10
95.11081811858341
 20
-141.8566297388414
 30
0.0
 10
95.11081811858341
 20
-141.8566297388414
 30
0.0
 10
95.75160587883988
 20
-141.7043565183934
 30
0.0
 10
96.08164602632681
 20
-141.1479735975255
 30
0.0
 10
96.14503578325541
 20
-140.7080349040591
 30
0.0
 10
96.14503578325541
 20
-140.7080349040591
 30
0.0
 10
95.37919105688437
 20
-140.7080349040591
 30
0.0
 10
95.37919105688437
 20
-140.7080349040591
 30
0.0
 10
95.28617347878263
 20
-140.7080349040591
 30
0.0
 10
95.10220537987028
 20
-140.7121690186414
 30
0.0
 10
94.94579804483995
 20
-140.7311170438103
 30
0.0
 10
94.94579804483995
 20
-140.7311170438103
 30
0.0
 10
94.94579804483995
 20
-140.5109754423028
 30
0.0
 10
94.94579804483995
 20
-140.5109754423028
 30
0.0
 10
95.03226994151971
 20
-140.5323350343114
 30
0.0
 10
95.28410642149147
 20
-140.5323350343114
 30
0.0
 10
95.38366968101519
 20
-140.5323350343114
 30
0.0
 10
95.38366968101519
 20
-140.5323350343114
 30
0.0
 10
95.81499563576848
 20
-140.5323350343114
 30
0.0
 10
95.81499563576848
 20
-140.5323350343114
 30
0.0
 10
95.85737031023704
 20
-140.5323350343114
 30
0.0
 10
96.09232582233109
 20
-140.5302679770202
 30
0.0
 10
96.13022187266884
 20
-140.5237222955982
 30
0.0
 10
96.17259654713742
 20
-140.5175211237248
 30
0.0
 10
96.17466360442856
 20
-140.5154540664336
 30
0.0
 10
96.235986304066
 20
-140.4751464492562
 30
0.0
 10
96.235986304066
 20
-140.4751464492562
 30
0.0
 10
96.42443302710917
 20
-140.6294867269954
 30
0.0
 10
96.42443302710917
 20
-140.6294867269954
 30
0.0
 10
96.39480520593602
 20
-140.6591145481686
 30
0.0
 10
96.37999129534946
 20
-140.6908094266329
 30
0.0
 10
96.36311032747173
 20
-140.7500650689792
 30
0.0
  0
SPLINE
  5
152
330
12D
100
AcDbEntity
  8
_U+30EC_U+30A4_U+30E4_U+30FC 1
370
     0
100
AcDbSpline
210
0.0
220
0.0
230
1.0
 70
    11
 71
     3
 72
    17
 73
    13
 74
     0
 42
0.0000000001
 43
0.0000000001
 12
1.0
 22
0.0
 32
0.0
 13
1.0
 23
0.0
 33
0.0
 40
0.0
 40
0.0
 40
0.0
 40
0.0
 40
1.0
 40
1.0
 40
1.0
 40
2.0
 40
2.0
 40
2.0
 40
3.0
 40
3.0
 40
3.0
 40
4.0
 40
4.0
 40
4.0
 40
4.0
 10
96.57257213297491
 20
-140.5512830594803
 30
0.0
 10
96.4454481095692
 20
-140.5512830594803
 30
0.0
 10
96.34416230230285
 20
-140.4496527426654
 30
0.0
 10
96.34416230230285
 20
-140.3228732288082
 30
0.0
 10
96.34416230230285
 20
-140.196093714951
 30
0.0
 10
96.4454481095692
 20
-140.092396340845
 30
0.0
 10
96.57257213297491
 20
-140.092396340845
 30
0.0
 10
96.69935164683211
 20
-140.092396340845
 30
0.0
 10
96.80304902093813
 20
-140.196093714951
 30
0.0
 10
96.80304902093813
 20
-140.3228732288082
 30
0.0
 10
96.80304902093813
 20
-140.4496527426654
 30
0.0
 10
96.69935164683211
 20
-140.5512830594803
 30
0.0
 10
96.57257213297491
 20
-140.5512830594803
 30
0.0
  0
SPLINE
  5
153
330
12D
100
AcDbEntity
  8
_U+30EC_U+30A4_U+30E4_U+30FC 1
370
     0
100
AcDbSpline
210
0.0
220
0.0
230
1.0
 70
    11
 71
     3
 72
    17
 73
    13
 74
     0
 42
0.0000000001
 43
0.0000000001
 12
1.0
 22
0.0
 32
0.0
 13
1.0
 23
0.0
 33
0.0
 40
0.0
 40
0.0
 40
0.0
 40
0.0
 40
1.0
 40
1.0
 40
1.0
 40
2.0
 40
2.0
 40
2.0
 40
3.0
 40
3.0
 40
3.0
 40
4.0
 40
4.0
 40
4.0
 40
4.0
 10
96.57050507568377
 20
-140.2212429119933
 30
0.0
 10
96.51538354791977
 20
-140.2212429119933
 30
0.0
 10
96.47094181616005
 20
-140.265684643753
 30
0.0
 10
96.47094181616005
 20
-140.320806171517
 30
0.0
 10
96.47094181616005
 20
-140.3779947565722
 30
0.0
 10
96.51538354791977
 20
-140.4265706029142
 30
0.0
 10
96.57463919026607
 20
-140.4265706029142
 30
0.0
 10
96.63389483261237
 20
-140.4265706029142
 30
0.0
 10
96.67385794024126
 20
-140.3755831897325
 30
0.0
 10
96.67385794024126
 20
-140.3228732288082
 30
0.0
 10
96.67385794024126
 20
-140.265684643753
 30
0.0
 10
96.62734915119039
 20
-140.2212429119933
 30
0.0
 10
96.57050507568377
 20
-140.2212429119933
 30
0.0
  0
HATCH
  5
154
330
12D
100
AcDbEntity
  8
_U+30EC_U+30A4_U+30E4_U+30FC 1
 62
   179
420
  2234388
100
AcDbHatch
 10
0.0
 20
0.0
 30
0.0
210
0.0
220
0.0
230
1.0
  2
SOLID
 70
     1
 71
     0
 91
        3
 92
        1
 93
        1
 72
     4
 94
        3
 73
     0
 74
     1
 95
       44
 96
       40
 40
0.0
 40
0.0
 40
0.0
 40
0.0
 40
1.0
 40
1.0
 40
1.0
 40
2.0
 40
2.0
 40
2.0
 40
3.0
 40
3.0
 40
3.0
 40
4.0
 40
4.0
 40
4.0
 40
5.0
 40
5.0
 40
5.0
 40
6.0
 40
6.0
 40
6.0
 40
7.0
 40
7.0
 40
7.0
 40
8.0
 40
8.0
 40
8.0
 40
9.0
 40
9.0
 40
9.0
 40
10.0
 40
10.0
 40
10.0
 40
11.0
 40
11.0
 40
11.0
 40
12.0
 40
12.0
 40
12.0
 40
13.0
 40
13.0
 40
13.0
 40
13.0
 10
96.36311032747173
 20
-140.7500650689792
 10
96.25080021465259
 20
-141.1183457763524
 10
96.20015731101941
 20
-141.2768201686739
 10
96.00344235881164
 20
-141.5265895913545
 10
95.81947425989931
 20
-141.7570664793177
 10
95.58245169051412
 20
-141.9434461450697
 10
95.30305444666035
 20
-142.0364637231714
 10
95.30305444666035
 20
-142.0364637231714
 10
95.11081811858341
 20
-141.8566297388414
 10
95.11081811858341
 20
-141.8566297388414
 10
95.75160587883988
 20
-141.7043565183934
 10
96.08164602632681
 20
-141.1479735975255
 10
96.14503578325541
 20
-140.7080349040591
 10
96.14503578325541
 20
-140.7080349040591
 10
95.37919105688437
 20
-140.7080349040591
 10
95.37919105688437
 20
-140.7080349040591
 10
95.28617347878263
 20
-140.7080349040591
 10
95.10220537987028
 20
-140.7121690186414
 10
94.94579804483995
 20
-140.7311170438103
 10
94.94579804483995
 20
-140.7311170438103
 10
94.94579804483995
 20
-140.5109754423028
 10
94.94579804483995
 20
-140.5109754423028
 10
95.03226994151971
 20
-140.5323350343114
 10
95.28410642149147
 20
-140.5323350343114
 10
95.38366968101519
 20
-140.5323350343114
 10
95.38366968101519
 20
-140.5323350343114
 10
95.81499563576848
 20
-140.5323350343114
 10
95.81499563576848
 20
-140.5323350343114
 10
95.85737031023704
 20
-140.5323350343114
 10
96.09232582233109
 20
-140.5302679770202
 10
96.13022187266884
 20
-140.5237222955982
 10
96.17259654713742
 20
-140.5175211237248
 10
96.17466360442856
 20
-140.5154540664336
 10
96.235986304066
 20
-140.4751464492562
 10
96.235986304066
 20
-140.4751464492562
 10
96.42443302710917
 20
-140.6294867269954
 10
96.42443302710917
 20
-140.6294867269954
 10
96.39480520593602
 20
-140.6591145481686
 10
96.37999129534946
 20
-140.6908094266329
 10
96.36311032747173
 20
-140.7500650689792
 97
        0
 97
        0
 92
        1
 93
        1
 72
     4
 94
        3
 73
     0
 74
     1
 95
       17
 96
       13
 40
0.0
 40
0.0
 40
0.0
 40
0.0
 40
1.0
 40
1.0
 40
1.0
 40
2.0
 40
2.0
 40
2.0
 40
3.0
 40
3.0
 40
3.0
 40
4.0
 40
4.0
 40
4.0
 40
4.0
 10
96.57257213297491
 20
-140.5512830594803
 10
96.4454481095692
 20
-140.5512830594803
 10
96.34416230230285
 20
-140.4496527426654
 10
96.34416230230285
 20
-140.3228732288082
 10
96.34416230230285
 20
-140.196093714951
 10
96.4454481095692
 20
-140.092396340845
 10
96.57257213297491
 20
-140.092396340845
 10
96.69935164683211
 20
-140.092396340845
 10
96.80304902093813
 20
-140.196093714951
 10
96.80304902093813
 20
-140.3228732288082
 10
96.80304902093813
 20
-140.4496527426654
 10
96.69935164683211
 20
-140.5512830594803
 10
96.57257213297491
 20
-140.5512830594803
 97
        0
 97
        0
 92
        1
 93
        1
 72
     4
 94
        3
 73
     0
 74
     1
 95
       17
 96
       13
 40
0.0
 40
0.0
 40
0.0
 40
0.0
 40
1.0
 40
1.0
 40
1.0
 40
2.0
 40
2.0
 40
2.0
 40
3.0
 40
3.0
 40
3.0
 40
4.0
 40
4.0
 40
4.0
 40
4.0
 10
96.57050507568377
 20
-140.2212429119933
 10
96.51538354791977
 20
-140.2212429119933
 10
96.47094181616005
 20
-140.265684643753
 10
96.47094181616005
 20
-140.320806171517
 10
96.47094181616005
 20
-140.3779947565722
 10
96.51538354791977
 20
-140.4265706029142
 10
96.57463919026607
 20
-140.4265706029142
 10
96.63389483261237
 20
-140.4265706029142
 10
96.67385794024126
 20
-140.3755831897325
 10
96.67385794024126
 20
-140.3228732288082
 10
96.67385794024126
 20
-140.265684643753
 10
96.62734915119039
 20
-140.2212429119933
 10
96.57050507568377
 20
-140.2212429119933
 97
        0
 97
        0
 75
     2
 76
     1
 98
        0
  0
ENDBLK
  5
130
330
12D
100
AcDbEntity
  8
0
100
AcDbBlockEnd
  0
ENDSEC
  0
SECTION
  2
ENTITIES
  0
INSERT
  5
42
330
1F
100
AcDbEntity
  8
_U+30EC_U+30A4_U+30E4_U+30FC 1
100
AcDbBlockReference
  2
block 2
 10
0.0
 20
0.0
 30
0.0
  0
ENDSEC
  0
SECTION
  2
OBJECTS
  0
DICTIONARY
  5
C
330
0
100
AcDbDictionary
281
     1
  3
ACAD_GROUP
350
D
  3
ACAD_LAYOUT
350
1A
  3
ACAD_MATERIAL
350
3B
  3
ACAD_MLEADERSTYLE
350
156
  3
ACAD_MLINESTYLE
350
17
  3
ACAD_PLOTSETTINGS
350
19
  3
ACAD_PLOTSTYLENAME
350
E
  3
ACAD_TABLESTYLE
350
155
  3
ACAD_VISUALSTYLE
350
2A
  0
SUN
  5
3F
330
29
100
AcDbSun
 90
        1
290
     0
 63
     7
421
 16777215
 40
1.0
291
     1
 91
  2455826
 92
 54000000
292
     0
 70
     2
 71
   256
280
     1
  0
DICTIONARY
  5
D
102
{ACAD_REACTORS
330
C
102
}
330
C
100
AcDbDictionary
281
     1
  0
DICTIONARY
  5
1A
102
{ACAD_REACTORS
330
C
102
}
330
C
100
AcDbDictionary
281
     1
  3
Layout1
350
1E
  3
Layout2
350
26
  3
Model
350
22
  0
DICTIONARY
  5
3B
102
{ACAD_REACTORS
330
C
102
}
330
C
100
AcDbDictionary
281
     1
  3
ByBlock
350
3D
  3
ByLayer
350
3C
  3
Global
350
3E
  0
DICTIONARY
  5
156
102
{ACAD_REACTORS
330
C
102
}
330
C
100
AcDbDictionary
281
     1
  0
DICTIONARY
  5
17
102
{ACAD_REACTORS
330
C
102
}
330
C
100
AcDbDictionary
281
     1
  3
Standard
350
18
  0
DICTIONARY
  5
19
102
{ACAD_REACTORS
330
C
102
}
330
C
100
AcDbDictionary
281
     1
  0
ACDBDICTIONARYWDFLT
  5
E
102
{ACAD_REACTORS
330
C
102
}
330
C
100
AcDbDictionary
281
     1
  3
Normal
350
F
100
AcDbDictionaryWithDefault
340
F
  0
DICTIONARY
  5
155
102
{ACAD_REACTORS
330
C
102
}
330
C
100
AcDbDictionary
281
     1
  0
DICTIONARY
  5
2A
102
{ACAD_REACTORS
330
C
102
}
330
C
100
AcDbDictionary
281
     1
  3
2dWireframe
350
2F
  3
3D Hidden
350
31
  3
3dWireframe
350
30
  3
Basic
350
32
  3
Brighten
350
36
  3
ColorChange
350
3A
  3
Conceptual
350
34
  3
Dim
350
35
  3
Facepattern
350
39
  3
Flat
350
2B
  3
FlatWithEdges
350
2C
  3
Gouraud
350
2D
  3
GouraudWithEdges
350
2E
  3
Linepattern
350
38
  3
Realistic
350
33
  3
Thicken
350
37
  0
LAYOUT
  5
1E
102
{ACAD_REACTORS
330
1A
102
}
330
1A
100
AcDbPlotSettings
  1

  2
none_device
  4

  6

 40
0.0
 41
0.0
 42
0.0
 43
0.0
 44
0.0
 45
0.0
 46
0.0
 47
0.0
 48
0.0
 49
0.0
140
0.0
141
0.0
142
1.0
143
1.0
 70
   688
 72
     0
 73
     0
 74
     5
  7

 75
    16
 76
     0
 77
     2
 78
   300
147
1.0
148
0.0
149
0.0
100
AcDbLayout
  1
Layout1
 70
     1
 71
     1
 10
0.0
 20
0.0
 11
12.0
 21
9.0
 12
0.0
 22
0.0
 32
0.0
 14
1.000000000000000E+20
 24
1.000000000000000E+20
 34
1.000000000000000E+20
 15
-1.000000000000000E+20
 25
-1.000000000000000E+20
 35
-1.000000000000000E+20
146
0.0
 13
0.0
 23
0.0
 33
0.0
 16
1.0
 26
0.0
 36
0.0
 17
0.0
 27
1.0
 37
0.0
 76
     0
330
1B
  0
LAYOUT
  5
26
102
{ACAD_REACTORS
330
1A
102
}
330
1A
100
AcDbPlotSettings
  1

  2
none_device
  4

  6

 40
0.0
 41
0.0
 42
0.0
 43
0.0
 44
0.0
 45
0.0
 46
0.0
 47
0.0
 48
0.0
 49
0.0
140
0.0
141
0.0
142
1.0
143
1.0
 70
   688
 72
     0
 73
     0
 74
     5
  7

 75
    16
 76
     0
 77
     2
 78
   300
147
1.0
148
0.0
149
0.0
100
AcDbLayout
  1
Layout2
 70
     1
 71
     2
 10
0.0
 20
0.0
 11
0.0
 21
0.0
 12
0.0
 22
0.0
 32
0.0
 14
0.0
 24
0.0
 34
0.0
 15
0.0
 25
0.0
 35
0.0
146
0.0
 13
0.0
 23
0.0
 33
0.0
 16
1.0
 26
0.0
 36
0.0
 17
0.0
 27
1.0
 37
0.0
 76
     0
330
23
  0
LAYOUT
  5
22
102
{ACAD_REACTORS
330
1A
102
}
330
1A
100
AcDbPlotSettings
  1

  2
none_device
  4

  6

 40
0.0
 41
0.0
 42
0.0
 43
0.0
 44
0.0
 45
0.0
 46
0.0
 47
0.0
 48
0.0
 49
0.0
140
0.0
141
0.0
142
1.0
143
1.0
 70
  1712
 72
     0
 73
     0
 74
     0
  7

 75
     0
 76
     0
 77
     2
 78
   300
147
1.0
148
0.0
149
0.0
100
AcDbLayout
  1
Model
 70
     1
 71
     0
 10
0.0
 20
0.0
 11
12.0
 21
9.0
 12
0.0
 22
0.0
 32
0.0
 14
1.000000000000000E+20
 24
1.000000000000000E+20
 34
1.000000000000000E+20
 15
-1.000000000000000E+20
 25
-1.000000000000000E+20
 35
-1.000000000000000E+20
146
0.0
 13
0.0
 23
0.0
 33
0.0
 16
1.0
 26
0.0
 36
0.0
 17
0.0
 27
1.0
 37
0.0
 76
     0
330
1F
331
29
  0
MATERIAL
  5
3D
102
{ACAD_REACTORS
330
3B
102
}
330
3B
100
AcDbMaterial
  1
ByBlock
 72
     1
 94
      127
  0
MATERIAL
  5
3C
102
{ACAD_REACTORS
330
3B
102
}
330
3B
100
AcDbMaterial
  1
ByLayer
 72
     1
 94
      127
  0
MATERIAL
  5
3E
102
{ACAD_REACTORS
330
3B
102
}
330
3B
100
AcDbMaterial
  1
Global
 72
     1
 94
      127
  0
MLINESTYLE
  5
18
102
{ACAD_REACTORS
330
17
102
}
330
17
100
AcDbMlineStyle
  2
Standard
 70
     0
  3

 62
   256
 51
90.0
 52
90.0
 71
     2
 49
0.5
 62
   256
  6
BYLAYER
 49
-0.5
 62
   256
  6
BYLAYER
  0
ACDBPLACEHOLDER
  5
F
102
{ACAD_REACTORS
330
E
102
}
330
E
  0
VISUALSTYLE
  5
2F
102
{ACAD_REACTORS
330
2A
102
}
330
2A
100
AcDbVisualStyle
  2
2dWireframe
 70
     4
177
     2
291
     0
 71
     0
176
     1
 72
     2
176
     1
 73
     0
176
     1
 90
        0
176
     1
 40
-0.6
176
     1
 41
-30.0
176
     1
 62
     5
 63
     7
421
 16777215
176
     1
 74
     1
176
     1
 91
        4
176
     1
 64
     7
176
     1
 65
   257
176
     1
 75
     1
176
     1
175
     1
176
     1
 42
1.0
176
     1
 92
        0
176
     1
 66
   257
176
     1
 43
1.0
176
     1
 76
     1
176
     1
 77
     6
176
     1
 78
     2
176
     1
 67
     7
176
     1
 79
     5
176
     1
170
     0
176
     1
171
     0
176
     1
290
     0
176
     1
 93
        1
176
     1
 44
0.0
176
     1
173
     0
176
     1
  0
VISUALSTYLE
  5
31
102
{ACAD_REACTORS
330
2A
102
}
330
2A
100
AcDbVisualStyle
  2
3D Hidden
 70
     6
177
     2
291
     0
 71
     1
176
     1
 72
     2
176
     1
 73
     2
176
     1
 90
        0
176
     1
 40
-0.6
176
     1
 41
-30.0
176
     1
 62
     5
 63
     7
421
 16777215
176
     1
 74
     2
176
     1
 91
        2
176
     1
 64
     7
176
     1
 65
   257
176
     1
 75
     2
176
     1
175
     1
176
     1
 42
40.0
176
     1
 92
        0
176
     1
 66
   257
176
     1
 43
1.0
176
     1
 76
     1
176
     1
 77
     6
176
     1
 78
     2
176
     1
 67
     7
176
     1
 79
     3
176
     1
170
     0
176
     1
171
     0
176
     1
290
     0
176
     1
 93
        1
176
     1
 44
0.0
176
     1
173
     0
176
     1
  0
VISUALSTYLE
  5
30
102
{ACAD_REACTORS
330
2A
102
}
330
2A
100
AcDbVisualStyle
  2
3dWireframe
 70
     5
177
     2
291
     0
 71
     0
176
     1
 72
     2
176
     1
 73
     0
176
     1
 90
        0
176
     1
 40
-0.6
176
     1
 41
-30.0
176
     1
 62
     5
 63
     7
421
 16777215
176
     1
 74
     1
176
     1
 91
        4
176
     1
 64
     7
176
     1
 65
   257
176
     1
 75
     1
176
     1
175
     1
176
     1
 42
1.0
176
     1
 92
        0
176
     1
 66
   257
176
     1
 43
1.0
176
     1
 76
     1
176
     1
 77
     6
176
     1
 78
     2
176
     1
 67
     7
176
     1
 79
     5
176
     1
170
     0
176
     1
171
     0
176
     1
290
     0
176
     1
 93
        1
176
     1
 44
0.0
176
     1
173
     0
176
     1
  0
VISUALSTYLE
  5
32
102
{ACAD_REACTORS
330
2A
102
}
330
2A
100
AcDbVisualStyle
  2
Basic
 70
     7
177
     2
291
     1
 71
     1
176
     1
 72
     0
176
     1
 73
     1
176
     1
 90
        0
176
     1
 40
-0.6
176
     1
 41
-30.0
176
     1
 62
     5
 63
     7
421
 16777215
176
     1
 74
     0
176
     1
 91
        4
176
     1
 64
     7
176
     1
 65
   257
176
     1
 75
     1
176
     1
175
     1
176
     1
 42
1.0
176
     1
 92
        8
176
     1
 66
     7
176
     1
 43
1.0
176
     1
 76
     1
176
     1
 77
     6
176
     1
 78
     2
176
     1
 67
     7
176
     1
 79
     5
176
     1
170
     0
176
     1
171
     0
176
     1
290
     0
176
     1
 93
        1
176
     1
 44
0.0
176
     1
173
     0
176
     1
  0
VISUALSTYLE
  5
36
102
{ACAD_REACTORS
330
2A
102
}
330
2A
100
AcDbVisualStyle
  2
Brighten
 70
    12
177
     2
291
     1
 71
     2
176
     1
 72
     2
176
     1
 73
     0
176
     1
 90
        0
176
     1
 40
-0.6
176
     1
 41
-30.0
176
     1
 62
     5
 63
     7
421
 16777215
176
     1
 74
     1
176
     1
 91
        4
176
     1
 64
     7
176
     1
 65
   257
176
     1
 75
     1
176
     1
175
     1
176
     1
 42
1.0
176
     1
 92
        8
176
     1
 66
     7
176
     1
 43
1.0
176
     1
 76
     1
176
     1
 77
     6
176
     1
 78
     2
176
     1
 67
     7
176
     1
 79
     5
176
     1
170
     0
176
     1
171
     0
176
     1
290
     0
176
     1
 93
        1
176
     1
 44
50.0
176
     1
173
     0
176
     1
  0
VISUALSTYLE
  5
3A
102
{ACAD_REACTORS
330
2A
102
}
330
2A
100
AcDbVisualStyle
  2
ColorChange
 70
    16
177
     2
291
     1
 71
     2
176
     1
 72
     2
176
     1
 73
     3
176
     1
 90
        0
176
     1
 40
-0.6
176
     1
 41
-30.0
176
     1
 62
     5
 63
     8
421
  8421504
176
     1
 74
     1
176
     1
 91
        4
176
     1
 64
     7
176
     1
 65
   257
176
     1
 75
     1
176
     1
175
     1
176
     1
 42
1.0
176
     1
 92
        8
176
     1
 66
     8
424
  8421504
176
     1
 43
1.0
176
     1
 76
     1
176
     1
 77
     6
176
     1
 78
     2
176
     1
 67
     7
176
     1
 79
     5
176
     1
170
     0
176
     1
171
     0
176
     1
290
     0
176
     1
 93
        1
176
     1
 44
0.0
176
     1
173
     0
176
     1
  0
VISUALSTYLE
  5
34
102
{ACAD_REACTORS
330
2A
102
}
330
2A
100
AcDbVisualStyle
  2
Conceptual
 70
     9
177
     2
291
     0
 71
     3
176
     1
 72
     2
176
     1
 73
     0
176
     1
 90
        0
176
     1
 40
-0.6
176
     1
 41
-30.0
176
     1
 62
     5
 63
     7
421
 16777215
176
     1
 74
     2
176
     1
 91
        2
176
     1
 64
     7
176
     1
 65
   257
176
     1
 75
     1
176
     1
175
     1
176
     1
 42
40.0
176
     1
 92
        8
176
     1
 66
     7
176
     1
 43
1.0
176
     1
 76
     1
176
     1
 77
     6
176
     1
 78
     2
176
     1
 67
     7
176
     1
 79
     3
176
     1
170
     0
176
     1
171
     0
176
     1
290
     0
176
     1
 93
        1
176
     1
 44
0.0
176
     1
173
     0
176
     1
  0
VISUALSTYLE
  5
35
102
{ACAD_REACTORS
330
2A
102
}
330
2A
100
AcDbVisualStyle
  2
Dim
 70
    11
177
     2
291
     1
 71
     2
176
     1
 72
     2
176
     1
 73
     0
176
     1
 90
        0
176
     1
 40
-0.6
176
     1
 41
-30.0
176
     1
 62
     5
 63
     7
421
 16777215
176
     1
 74
     1
176
     1
 91
        4
176
     1
 64
     7
176
     1
 65
   257
176
     1
 75
     1
176
     1
175
     1
176
     1
 42
1.0
176
     1
 92
        8
176
     1
 66
     7
176
     1
 43
1.0
176
     1
 76
     1
176
     1
 77
     6
176
     1
 78
     2
176
     1
 67
     7
176
     1
 79
     5
176
     1
170
     0
176
     1
171
     0
176
     1
290
     0
176
     1
 93
        1
176
     1
 44
-50.0
176
     1
173
     0
176
     1
  0
VISUALSTYLE
  5
39
102
{ACAD_REACTORS
330
2A
102
}
330
2A
100
AcDbVisualStyle
  2
Facepattern
 70
    15
177
     2
291
     1
 71
     2
176
     1
 72
     2
176
     1
 73
     0
176
     1
 90
        0
176
     1
 40
-0.6
176
     1
 41
-30.0
176
     1
 62
     5
 63
     7
421
 16777215
176
     1
 74
     1
176
     1
 91
        4
176
     1
 64
     7
176
     1
 65
   257
176
     1
 75
     1
176
     1
175
     1
176
     1
 42
1.0
176
     1
 92
        8
176
     1
 66
     7
176
     1
 43
1.0
176
     1
 76
     1
176
     1
 77
     6
176
     1
 78
     2
176
     1
 67
     7
176
     1
 79
     5
176
     1
170
     0
176
     1
171
     0
176
     1
290
     0
176
     1
 93
        1
176
     1
 44
0.0
176
     1
173
     0
176
     1
  0
VISUALSTYLE
  5
2B
102
{ACAD_REACTORS
330
2A
102
}
330
2A
100
AcDbVisualStyle
  2
Flat
 70
     0
177
     2
291
     1
 71
     2
176
     1
 72
     1
176
     1
 73
     1
176
     1
 90
        2
176
     1
 40
-0.6
176
     1
 41
30.0
176
     1
 62
     5
 63
     7
421
 16777215
176
     1
 74
     0
176
     1
 91
        4
176
     1
 64
     7
176
     1
 65
   257
176
     1
 75
     1
176
     1
175
     1
176
     1
 42
1.0
176
     1
 92
        8
176
     1
 66
     7
176
     1
 43
1.0
176
     1
 76
     1
176
     1
 77
     6
176
     1
 78
     2
176
     1
 67
     7
176
     1
 79
     5
176
     1
170
     0
176
     1
171
     0
176
     1
290
     0
176
     1
 93
       13
176
     1
 44
0.0
176
     1
173
     0
176
     1
  0
VISUALSTYLE
  5
2C
102
{ACAD_REACTORS
330
2A
102
}
330
2A
100
AcDbVisualStyle
  2
FlatWithEdges
 70
     1
177
     2
291
     1
 71
     2
176
     1
 72
     1
176
     1
 73
     1
176
     1
 90
        2
176
     1
 40
-0.6
176
     1
 41
30.0
176
     1
 62
     5
 63
     7
421
 16777215
176
     1
 74
     1
176
     1
 91
        4
176
     1
 64
     7
176
     1
 65
   257
176
     1
 75
     1
176
     1
175
     1
176
     1
 42
1.0
176
     1
 92
        0
176
     1
 66
   257
176
     1
 43
1.0
176
     1
 76
     1
176
     1
 77
     6
176
     1
 78
     2
176
     1
 67
     7
176
     1
 79
     5
176
     1
170
     0
176
     1
171
     0
176
     1
290
     0
176
     1
 93
       13
176
     1
 44
0.0
176
     1
173
     0
176
     1
  0
VISUALSTYLE
  5
2D
102
{ACAD_REACTORS
330
2A
102
}
330
2A
100
AcDbVisualStyle
  2
Gouraud
 70
     2
177
     2
291
     1
 71
     2
176
     1
 72
     2
176
     1
 73
     1
176
     1
 90
        2
176
     1
 40
-0.6
176
     1
 41
30.0
176
     1
 62
     5
 63
     7
421
 16777215
176
     1
 74
     0
176
     1
 91
        4
176
     1
 64
     7
176
     1
 65
   257
176
     1
 75
     1
176
     1
175
     1
176
     1
 42
1.0
176
     1
 92
        0
176
     1
 66
     7
176
     1
 43
1.0
176
     1
 76
     1
176
     1
 77
     6
176
     1
 78
     2
176
     1
 67
     7
176
     1
 79
     5
176
     1
170
     0
176
     1
171
     0
176
     1
290
     0
176
     1
 93
       13
176
     1
 44
0.0
176
     1
173
     0
176
     1
  0
VISUALSTYLE
  5
2E
102
{ACAD_REACTORS
330
2A
102
}
330
2A
100
AcDbVisualStyle
  2
GouraudWithEdges
 70
     3
177
     2
291
     1
 71
     2
176
     1
 72
     2
176
     1
 73
     1
176
     1
 90
        2
176
     1
 40
-0.6
176
     1
 41
30.0
176
     1
 62
     5
 63
     7
421
 16777215
176
     1
 74
     1
176
     1
 91
        4
176
     1
 64
     7
176
     1
 65
   257
176
     1
 75
     1
176
     1
175
     1
176
     1
 42
1.0
176
     1
 92
        0
176
     1
 66
   257
176
     1
 43
1.0
176
     1
 76
     1
176
     1
 77
     6
176
     1
 78
     2
176
     1
 67
     7
176
     1
 79
     5
176
     1
170
     0
176
     1
171
     0
176
     1
290
     0
176
     1
 93
       13
176
     1
 44
0.0
176
     1
173
     0
176
     1
  0
VISUALSTYLE
  5
38
102
{ACAD_REACTORS
330
2A
102
}
330
2A
100
AcDbVisualStyle
  2
Linepattern
 70
    14
177
     2
291
     1
 71
     2
176
     1
 72
     2
176
     1
 73
     0
176
     1
 90
        0
176
     1
 40
-0.6
176
     1
 41
-30.0
176
     1
 62
     5
 63
     7
421
 16777215
176
     1
 74
     1
176
     1
 91
        4
176
     1
 64
     7
176
     1
 65
   257
176
     1
 75
     7
176
     1
175
     7
176
     1
 42
1.0
176
     1
 92
        8
176
     1
 66
     7
176
     1
 43
1.0
176
     1
 76
     1
176
     1
 77
     6
176
     1
 78
     2
176
     1
 67
     7
176
     1
 79
     5
176
     1
170
     0
176
     1
171
     0
176
     1
290
     0
176
     1
 93
        1
176
     1
 44
0.0
176
     1
173
     0
176
     1
  0
VISUALSTYLE
  5
33
102
{ACAD_REACTORS
330
2A
102
}
330
2A
100
AcDbVisualStyle
  2
Realistic
 70
     8
177
     2
291
     0
 71
     2
176
     1
 72
     2
176
     1
 73
     0
176
     1
 90
        0
176
     1
 40
-0.6
176
     1
 41
-30.0
176
     1
 62
     5
 63
     7
421
 16777215
176
     1
 74
     1
176
     1
 91
        0
176
     1
 64
     7
176
     1
 65
   257
176
     1
 75
     1
176
     1
175
     1
176
     1
 42
1.0
176
     1
 92
        8
176
     1
 66
     8
424
  7895160
176
     1
 43
1.0
176
     1
 76
     1
176
     1
 77
     6
176
     1
 78
     2
176
     1
 67
     7
176
     1
 79
     5
176
     1
170
     0
176
     1
171
     0
176
     1
290
     0
176
     1
 93
       13
176
     1
 44
0.0
176
     1
173
     0
176
     1
  0
VISUALSTYLE
  5
37
102
{ACAD_REACTORS
330
2A
102
}
330
2A
100
AcDbVisualStyle
  2
Thicken
 70
    13
177
     2
291
     1
 71
     2
176
     1
 72
     2
176
     1
 73
     0
176
     1
 90
        0
176
     1
 40
-0.6
176
     1
 41
-30.0
176
     1
 62
     5
 63
     7
421
 16777215
176
     1
 74
     1
176
     1
 91
        4
176
     1
 64
     7
176
     1
 65
   257
176
     1
 75
     1
176
     1
175
     1
176
     1
 42
1.0
176
     1
 92
       12
176
     1
 66
     7
176
     1
 43
1.0
176
     1
 76
     1
176
     1
 77
     6
176
     1
 78
     2
176
     1
 67
     7
176
     1
 79
     5
176
     1
170
     0
176
     1
171
     0
176
     1
290
     0
176
     1
 93
        1
176
     1
 44
0.0
176
     1
173
     0
176
     1
  0
ENDSEC
  0
EOF
