  0
SECTION
  2
HEADER
  9
$ACADVER
  1
AC1024
  9
$ACADMAINTVER
 70
     6
  9
$DWGCODEPAGE
  3
UNDEFINED
  9
$INSBASE
 10
0.0
 20
0.0
 30
0.0
  9
$EXTMIN
 10
1.000000000000000E+20
 20
1.000000000000000E+20
 30
1.000000000000000E+20
  9
$EXTMAX
 10
-1.000000000000000E+20
 20
-1.000000000000000E+20
 30
-1.000000000000000E+20
  9
$LIMMIN
 10
0.0
 20
0.0
  9
$LIMMAX
 10
12.0
 20
9.0
  9
$ORTHOMODE
 70
     0
  9
$REGENMODE
 70
     1
  9
$FILLMODE
 70
     1
  9
$QTEXTMODE
 70
     0
  9
$MIRRTEXT
 70
     1
  9
$LTSCALE
 40
1.0
  9
$ATTMODE
 70
     1
  9
$TEXTSIZE
 40
0.2
  9
$TRACEWID
 40
0.05
  9
$TEXTSTYLE
  7
Standard
  9
$CLAYER
  8
0
  9
$CELTYPE
  6
ByLayer
  9
$CECOLOR
 62
   256
  9
$CELTSCALE
 40
1.0
  9
$DISPSILH
 70
     0
  9
$DIMSCALE
 40
1.0
  9
$DIMASZ
 40
0.18
  9
$DIMEXO
 40
0.0625
  9
$DIMDLI
 40
0.38
  9
$DIMRND
 40
0.0
  9
$DIMDLE
 40
0.0
  9
$DIMEXE
 40
0.18
  9
$DIMTP
 40
0.0
  9
$DIMTM
 40
0.0
  9
$DIMTXT
 40
0.18
  9
$DIMCEN
 40
0.09
  9
$DIMTSZ
 40
0.0
  9
$DIMTOL
 70
     0
  9
$DIMLIM
 70
     0
  9
$DIMTIH
 70
     1
  9
$DIMTOH
 70
     1
  9
$DIMSE1
 70
     0
  9
$DIMSE2
 70
     0
  9
$DIMTAD
 70
     0
  9
$DIMZIN
 70
     0
  9
$DIMBLK
  1

  9
$DIMASO
 70
     1
  9
$DIMSHO
 70
     1
  9
$DIMPOST
  1

  9
$DIMAPOST
  1

  9
$DIMALT
 70
     0
  9
$DIMALTD
 70
     2
  9
$DIMALTF
 40
25.4
  9
$DIMLFAC
 40
1.0
  9
$DIMTOFL
 70
     0
  9
$DIMTVP
 40
0.0
  9
$DIMTIX
 70
     0
  9
$DIMSOXD
 70
     0
  9
$DIMSAH
 70
     0
  9
$DIMBLK1
  1

  9
$DIMBLK2
  1

  9
$DIMSTYLE
  2
Standard
  9
$DIMCLRD
 70
     0
  9
$DIMCLRE
 70
     0
  9
$DIMCLRT
 70
     0
  9
$DIMTFAC
 40
1.0
  9
$DIMGAP
 40
0.09
  9
$DIMJUST
 70
     0
  9
$DIMSD1
 70
     0
  9
$DIMSD2
 70
     0
  9
$DIMTOLJ
 70
     1
  9
$DIMTZIN
 70
     0
  9
$DIMALTZ
 70
     0
  9
$DIMALTTZ
 70
     0
  9
$DIMUPT
 70
     0
  9
$DIMDEC
 70
     4
  9
$DIMTDEC
 70
     4
  9
$DIMALTU
 70
     2
  9
$DIMALTTD
 70
     2
  9
$DIMTXSTY
  7
Standard
  9
$DIMAUNIT
 70
     0
  9
$DIMADEC
 70
     0
  9
$DIMALTRND
 40
0.0
  9
$DIMAZIN
 70
     0
  9
$DIMDSEP
 70
    46
  9
$DIMATFIT
 70
     3
  9
$DIMFRAC
 70
     0
  9
$DIMLDRBLK
  1

  9
$DIMLUNIT
 70
     2
  9
$DIMLWD
 70
    -2
  9
$DIMLWE
 70
    -2
  9
$DIMTMOVE
 70
     0
  9
$DIMFXL
 40
1.0
  9
$DIMFXLON
 70
     0
  9
$DIMJOGANG
 40
0.7853981633974483
  9
$DIMTFILL
 70
     0
  9
$DIMTFILLCLR
 70
     0
  9
$DIMARCSYM
 70
     0
  9
$DIMLTYPE
  6

  9
$DIMLTEX1
  6

  9
$DIMLTEX2
  6

  9
$DIMTXTDIRECTION
 70
     0
  9
$LUNITS
 70
     2
  9
$LUPREC
 70
     4
  9
$SKETCHINC
 40
0.1
  9
$FILLETRAD
 40
0.5
  9
$AUNITS
 70
     0
  9
$AUPREC
 70
     0
  9
$MENU
  1
.
  9
$ELEVATION
 40
0.0
  9
$PELEVATION
 40
0.0
  9
$THICKNESS
 40
0.0
  9
$LIMCHECK
 70
     0
  9
$CHAMFERA
 40
0.5
  9
$CHAMFERB
 40
0.5
  9
$CHAMFERC
 40
1.0
  9
$CHAMFERD
 40
0.0
  9
$SKPOLY
 70
     0
  9
$TDCREATE
 40
2457917.58585647
  9
$TDUCREATE
 40
2457917.210856481
  9
$TDUPDATE
 40
2457917.58585647
  9
$TDUUPDATE
 40
2457917.210856481
  9
$TDINDWG
 40
0.0000000116
  9
$TDUSRTIMER
 40
0.0000000116
  9
$USRTIMER
 70
     1
  9
$ANGBASE
 50
0.0
  9
$ANGDIR
 70
     0
  9
$PDMODE
 70
     0
  9
$PDSIZE
 40
0.0
  9
$PLINEWID
 40
0.0
  9
$SPLFRAME
 70
     0
  9
$SPLINETYPE
 70
     6
  9
$SPLINESEGS
 70
     8
  9
$HANDSEED
  5
FF
  9
$SURFTAB1
 70
     6
  9
$SURFTAB2
 70
     6
  9
$SURFTYPE
 70
     6
  9
$SURFU
 70
     6
  9
$SURFV
 70
     6
  9
$UCSBASE
  2

  9
$UCSNAME
  2

  9
$UCSORG
 10
0.0
 20
0.0
 30
0.0
  9
$UCSXDIR
 10
1.0
 20
0.0
 30
0.0
  9
$UCSYDIR
 10
0.0
 20
1.0
 30
0.0
  9
$UCSORTHOREF
  2

  9
$UCSORTHOVIEW
 70
     0
  9
$UCSORGTOP
 10
0.0
 20
0.0
 30
0.0
  9
$UCSORGBOTTOM
 10
0.0
 20
0.0
 30
0.0
  9
$UCSORGLEFT
 10
0.0
 20
0.0
 30
0.0
  9
$UCSORGRIGHT
 10
0.0
 20
0.0
 30
0.0
  9
$UCSORGFRONT
 10
0.0
 20
0.0
 30
0.0
  9
$UCSORGBACK
 10
0.0
 20
0.0
 30
0.0
  9
$PUCSBASE
  2

  9
$PUCSNAME
  2

  9
$PUCSORG
 10
0.0
 20
0.0
 30
0.0
  9
$PUCSXDIR
 10
1.0
 20
0.0
 30
0.0
  9
$PUCSYDIR
 10
0.0
 20
1.0
 30
0.0
  9
$PUCSORTHOREF
  2

  9
$PUCSORTHOVIEW
 70
     0
  9
$PUCSORGTOP
 10
0.0
 20
0.0
 30
0.0
  9
$PUCSORGBOTTOM
 10
0.0
 20
0.0
 30
0.0
  9
$PUCSORGLEFT
 10
0.0
 20
0.0
 30
0.0
  9
$PUCSORGRIGHT
 10
0.0
 20
0.0
 30
0.0
  9
$PUCSORGFRONT
 10
0.0
 20
0.0
 30
0.0
  9
$PUCSORGBACK
 10
0.0
 20
0.0
 30
0.0
  9
$USERI1
 70
     0
  9
$USERI2
 70
     0
  9
$USERI3
 70
     0
  9
$USERI4
 70
     0
  9
$USERI5
 70
     0
  9
$USERR1
 40
0.0
  9
$USERR2
 40
0.0
  9
$USERR3
 40
0.0
  9
$USERR4
 40
0.0
  9
$USERR5
 40
0.0
  9
$WORLDVIEW
 70
     1
  9
$SHADEDGE
 70
     3
  9
$SHADEDIF
 70
    70
  9
$TILEMODE
 70
     1
  9
$MAXACTVP
 70
    64
  9
$PINSBASE
 10
0.0
 20
0.0
 30
0.0
  9
$PLIMCHECK
 70
     0
  9
$PEXTMIN
 10
1.000000000000000E+20
 20
1.000000000000000E+20
 30
1.000000000000000E+20
  9
$PEXTMAX
 10
-1.000000000000000E+20
 20
-1.000000000000000E+20
 30
-1.000000000000000E+20
  9
$PLIMMIN
 10
0.0
 20
0.0
  9
$PLIMMAX
 10
12.0
 20
9.0
  9
$UNITMODE
 70
     0
  9
$VISRETAIN
 70
     1
  9
$PLINEGEN
 70
     0
  9
$PSLTSCALE
 70
     1
  9
$TREEDEPTH
 70
  3020
  9
$CMLSTYLE
  2
Standard
  9
$CMLJUST
 70
     0
  9
$CMLSCALE
 40
1.0
  9
$PROXYGRAPHICS
 70
     1
  9
$MEASUREMENT
 70
     0
  9
$CELWEIGHT
370
    -1
  9
$ENDCAPS
280
     0
  9
$JOINSTYLE
280
     0
  9
$LWDISPLAY
290
     1
  9
$INSUNITS
 70
     1
  9
$HYPERLINKBASE
  1

  9
$STYLESHEET
  1

  9
$XEDIT
290
     1
  9
$CEPSNTYPE
380
     0
  9
$PSTYLEMODE
290
     1
  9
$FINGERPRINTGUID
  2
{B2DEBDEA-4EED-0F7A-6F44-3E7CAC0748AA}
  9
$VERSIONGUID
  2
{FAEB1C32-E019-11D5-929B-00C0DF256EC4}
  9
$EXTNAMES
290
     1
  9
$PSVPSCALE
 40
0.0
  9
$OLESTARTUP
290
     0
  9
$SORTENTS
280
   127
  9
$INDEXCTL
280
     0
  9
$HIDETEXT
280
     1
  9
$XCLIPFRAME
280
     2
  9
$HALOGAP
280
     0
  9
$OBSCOLOR
 70
   257
  9
$OBSLTYPE
280
     0
  9
$INTERSECTIONDISPLAY
280
     0
  9
$INTERSECTIONCOLOR
 70
   257
  9
$DIMASSOC
280
     2
  9
$PROJECTNAME
  1

  9
$CAMERADISPLAY
290
     0
  9
$LENSLENGTH
 40
50.0
  9
$CAMERAHEIGHT
 40
0.0
  9
$STEPSPERSEC
 40
2.0
  9
$STEPSIZE
 40
6.0
  9
$3DDWFPREC
 40
2.0
  9
$PSOLWIDTH
 40
0.25
  9
$PSOLHEIGHT
 40
4.0
  9
$LOFTANG1
 40
1.570796326794897
  9
$LOFTANG2
 40
1.570796326794897
  9
$LOFTMAG1
 40
0.0
  9
$LOFTMAG2
 40
0.0
  9
$LOFTPARAM
 70
     7
  9
$LOFTNORMALS
280
     1
  9
$LATITUDE
 40
37.795
  9
$LONGITUDE
 40
-122.394
  9
$NORTHDIRECTION
 40
0.0
  9
$TIMEZONE
 70
 -8000
  9
$LIGHTGLYPHDISPLAY
280
     1
  9
$TILEMODELIGHTSYNCH
280
     1
  9
$CMATERIAL
347
3C
  9
$SOLIDHIST
280
     1
  9
$SHOWHIST
280
     1
  9
$DWFFRAME
280
     2
  9
$DGNFRAME
280
     2
  9
$REALWORLDSCALE
290
     1
  9
$INTERFERECOLOR
 62
   256
  9
$CSHADOW
280
     0
  9
$SHADOWPLANELOCATION
 40
0.0
  0
ENDSEC
  0
SECTION
  2
CLASSES
  0
CLASS
  1
ACDBDICTIONARYWDFLT
  2
AcDbDictionaryWithDefault
  3
ObjectDBX Classes
 90
        0
 91
        4
280
     0
281
     0
  0
CLASS
  1
VISUALSTYLE
  2
AcDbVisualStyle
  3
ObjectDBX Classes
 90
     4095
 91
        4
280
     0
281
     0
  0
CLASS
  1
MATERIAL
  2
AcDbMaterial
  3
ObjectDBX Classes
 90
     1153
 91
        4
280
     0
281
     0
  0
CLASS
  1
SUN
  2
AcDbSun
  3
SCENEOE
 90
     1024
 91
        4
280
     0
281
     0
  0
ENDSEC
  0
SECTION
  2
TABLES
  0
TABLE
  2
VPORT
  5
8
330
0
100
AcDbSymbolTable
 70
     1
  0
VPORT
  5
29
330
8
100
AcDbSymbolTableRecord
100
AcDbViewportTableRecord
  2
*Active
 70
     0
 10
0.0
 20
0.0
 11
1.0
 21
1.0
 12
0.0
 22
0.0
 13
0.0
 23
0.0
 14
0.5
 24
0.5
 15
0.5
 25
0.5
 16
0.0
 26
0.0
 36
1.0
 17
91.00082462281999
 27
-128.4993055234307
 37
0.0
 40
256.9986110468615
 41
0.7081814508812795
 42
50.0
 43
0.0
 44
0.0
 50
0.0
 51
0.0
 71
     0
 72
   100
 73
     1
 74
     3
 75
     0
 76
     0
 77
     0
 78
     0
281
     0
 65
     1
110
0.0
120
0.0
130
0.0
111
1.0
121
0.0
131
0.0
112
0.0
122
1.0
132
0.0
 79
     0
146
0.0
 60
     3
 61
     5
292
     1
282
     1
141
0.0
142
0.0
 63
   250
361
3F
  0
ENDTAB
  0
TABLE
  2
LTYPE
  5
5
330
0
100
AcDbSymbolTable
 70
     1
  0
LTYPE
  5
14
330
5
100
AcDbSymbolTableRecord
100
AcDbLinetypeTableRecord
  2
ByBlock
 70
     0
  3

 72
    65
 73
     0
 40
0.0
  0
LTYPE
  5
15
330
5
100
AcDbSymbolTableRecord
100
AcDbLinetypeTableRecord
  2
ByLayer
 70
     0
  3

 72
    65
 73
     0
 40
0.0
  0
LTYPE
  5
16
330
5
100
AcDbSymbolTableRecord
100
AcDbLinetypeTableRecord
  2
Continuous
 70
     0
  3
Solid line
 72
    65
 73
     0
 40
0.0
  0
ENDTAB
  0
TABLE
  2
LAYER
  5
2
330
0
100
AcDbSymbolTable
 70
     2
  0
LAYER
  5
10
330
2
100
AcDbSymbolTableRecord
100
AcDbLayerTableRecord
  2
0
 70
     0
 62
     7
  6
Continuous
370
    -3
390
F
347
3E
  0
LAYER
  5
40
330
2
100
AcDbSymbolTableRecord
100
AcDbLayerTableRecord
  2
_U+30EC_U+30A4_U+30E4_U+30FC 1
 70
     0
 62
     7
  6
Continuous
370
    -3
390
F
347
3E
  0
ENDTAB
  0
TABLE
  2
STYLE
  5
3
330
0
100
AcDbSymbolTable
 70
     1
  0
STYLE
  5
11
330
3
100
AcDbSymbolTableRecord
100
AcDbTextStyleTableRecord
  2
Standard
 70
     0
 40
0.0
 41
1.0
 50
0.0
 71
     0
 42
0.2
  3
txt
  4

  0
ENDTAB
  0
TABLE
  2
VIEW
  5
6
330
0
100
AcDbSymbolTable
 70
     0
  0
ENDTAB
  0
TABLE
  2
UCS
  5
7
330
0
100
AcDbSymbolTable
 70
     0
  0
ENDTAB
  0
TABLE
  2
APPID
  5
9
330
0
100
AcDbSymbolTable
 70
     1
  0
APPID
  5
12
330
9
100
AcDbSymbolTableRecord
100
AcDbRegAppTableRecord
  2
ACAD
 70
     0
  0
ENDTAB
  0
TABLE
  2
DIMSTYLE
  5
A
330
0
100
AcDbSymbolTable
 70
     1
100
AcDbDimStyleTable
  0
DIMSTYLE
105
27
330
A
100
AcDbSymbolTableRecord
100
AcDbDimStyleTableRecord
  2
Standard
 70
     0
178
     0
340
11
  0
ENDTAB
  0
TABLE
  2
BLOCK_RECORD
  5
1
330
0
100
AcDbSymbolTable
 70
     5
  0
BLOCK_RECORD
  5
1F
330
1
100
AcDbSymbolTableRecord
100
AcDbBlockTableRecord
  2
*Model_Space
340
22
 70
     0
280
     1
281
     0
  0
BLOCK_RECORD
  5
1B
330
1
100
AcDbSymbolTableRecord
100
AcDbBlockTableRecord
  2
*Paper_Space
340
1E
 70
     0
280
     1
281
     0
  0
BLOCK_RECORD
  5
23
330
1
100
AcDbSymbolTableRecord
100
AcDbBlockTableRecord
  2
*Paper_Space0
340
26
 70
     0
280
     1
281
     0
  0
BLOCK_RECORD
  5
41
330
1
100
AcDbSymbolTableRecord
100
AcDbBlockTableRecord
  2
block 2
340
0
102
{BLKREFS
331
42
102
}
 70
     0
280
     1
281
     0
  0
BLOCK_RECORD
  5
79
330
1
100
AcDbSymbolTableRecord
100
AcDbBlockTableRecord
  2
block 3
340
0
102
{BLKREFS
331
7A
102
}
 70
     0
280
     1
281
     0
  0
BLOCK_RECORD
  5
DF
330
1
100
AcDbSymbolTableRecord
100
AcDbBlockTableRecord
  2
block 4
340
0
102
{BLKREFS
331
E0
102
}
 70
     0
280
     1
281
     0
  0
BLOCK_RECORD
  5
F4
330
1
100
AcDbSymbolTableRecord
100
AcDbBlockTableRecord
  2
block 5
340
0
102
{BLKREFS
331
F5
102
}
 70
     0
280
     1
281
     0
  0
ENDTAB
  0
ENDSEC
  0
SECTION
  2
BLOCKS
  0
BLOCK
  5
20
330
1F
100
AcDbEntity
  8
0
100
AcDbBlockBegin
  2
*Model_Space
 70
     0
 10
0.0
 20
0.0
 30
0.0
  3
*Model_Space
  1

  0
ENDBLK
  5
21
330
1F
100
AcDbEntity
  8
0
100
AcDbBlockEnd
  0
BLOCK
  5
1C
330
1B
100
AcDbEntity
 67
     1
  8
0
100
AcDbBlockBegin
  2
*Paper_Space
 70
     0
 10
0.0
 20
0.0
 30
0.0
  3
*Paper_Space
  1

  0
ENDBLK
  5
1D
330
1B
100
AcDbEntity
 67
     1
  8
0
100
AcDbBlockEnd
  0
BLOCK
  5
24
330
23
100
AcDbEntity
  8
0
100
AcDbBlockBegin
  2
*Paper_Space0
 70
     0
 10
0.0
 20
0.0
 30
0.0
  3
*Paper_Space0
  1

  0
ENDBLK
  5
25
330
23
100
AcDbEntity
  8
0
100
AcDbBlockEnd
  0
BLOCK
  5
43
330
41
100
AcDbEntity
  8
0
100
AcDbBlockBegin
  2
block 2
 70
     0
 10
0.0
 20
0.0
 30
0.0
  3
block 2
  1

  0
POLYLINE
  5
45
330
41
100
AcDbEntity
  8
_U+30EC_U+30A4_U+30E4_U+30FC 1
 62
   179
420
  2234388
370
     9
100
AcDb2dPolyline
 66
     1
 10
0.0
 20
0.0
 30
0.0
  0
VERTEX
  5
46
330
45
100
AcDbEntity
  8
_U+30EC_U+30A4_U+30E4_U+30FC 1
 62
   179
420
  2234388
370
     9
100
AcDbVertex
100
AcDb2dVertex
 10
91.10468239794814
 20
-119.1362305257714
 30
0.0
  0
VERTEX
  5
47
330
45
100
AcDbEntity
  8
_U+30EC_U+30A4_U+30E4_U+30FC 1
 62
   179
420
  2234388
370
     9
100
AcDbVertex
100
AcDb2dVertex
 10
91.10468239794814
 20
-123.7375110801769
 30
0.0
  0
SEQEND
  5
48
330
45
100
AcDbEntity
  8
_U+30EC_U+30A4_U+30E4_U+30FC 1
 62
   179
420
  2234388
370
     9
  0
POLYLINE
  5
49
330
41
100
AcDbEntity
  8
_U+30EC_U+30A4_U+30E4_U+30FC 1
 62
   179
420
  2234388
370
     9
100
AcDb2dPolyline
 66
     1
 10
0.0
 20
0.0
 30
0.0
  0
VERTEX
  5
4A
330
49
100
AcDbEntity
  8
_U+30EC_U+30A4_U+30E4_U+30FC 1
 62
   179
420
  2234388
370
     9
100
AcDbVertex
100
AcDb2dVertex
 10
90.84630796009537
 20
-122.7714996915295
 30
0.0
  0
VERTEX
  5
4B
330
49
100
AcDbEntity
  8
_U+30EC_U+30A4_U+30E4_U+30FC 1
 62
   179
420
  2234388
370
     9
100
AcDbVertex
100
AcDb2dVertex
 10
91.10468239794814
 20
-123.7375110801769
 30
0.0
  0
SEQEND
  5
4C
330
49
100
AcDbEntity
  8
_U+30EC_U+30A4_U+30E4_U+30FC 1
 62
   179
420
  2234388
370
     9
  0
POLYLINE
  5
4D
330
41
100
AcDbEntity
  8
_U+30EC_U+30A4_U+30E4_U+30FC 1
 62
   179
420
  2234388
370
     9
100
AcDb2dPolyline
 66
     1
 10
0.0
 20
0.0
 30
0.0
  0
VERTEX
  5
4E
330
4D
100
AcDbEntity
  8
_U+30EC_U+30A4_U+30E4_U+30FC 1
 62
   179
420
  2234388
370
     9
100
AcDbVertex
100
AcDb2dVertex
 10
91.36376239133845
 20
-122.7714996915295
 30
0.0
  0
VERTEX
  5
4F
330
4D
100
AcDbEntity
  8
_U+30EC_U+30A4_U+30E4_U+30FC 1
 62
   179
420
  2234388
370
     9
100
AcDbVertex
100
AcDb2dVertex
 10
91.10468239794814
 20
-123.7375110801769
 30
0.0
  0
SEQEND
  5
50
330
4D
100
AcDbEntity
  8
_U+30EC_U+30A4_U+30E4_U+30FC 1
 62
   179
420
  2234388
370
     9
  0
POLYLINE
  5
51
330
41
100
AcDbEntity
  8
_U+30EC_U+30A4_U+30E4_U+30FC 1
 62
   179
420
  2234388
370
    25
100
AcDb2dPolyline
 66
     1
 10
0.0
 20
0.0
 30
0.0
  0
VERTEX
  5
52
330
51
100
AcDbEntity
  8
_U+30EC_U+30A4_U+30E4_U+30FC 1
 62
   179
420
  2234388
370
    25
100
AcDbVertex
100
AcDb2dVertex
 10
92.49804875128929
 20
-125.5523763575007
 30
0.0
  0
VERTEX
  5
53
330
51
100
AcDbEntity
  8
_U+30EC_U+30A4_U+30E4_U+30FC 1
 62
   179
420
  2234388
370
    25
100
AcDbVertex
100
AcDb2dVertex
 10
139.1157258953066
 20
-140.6391296870623
 30
0.0
  0
SEQEND
  5
54
330
51
100
AcDbEntity
  8
_U+30EC_U+30A4_U+30E4_U+30FC 1
 62
   179
420
  2234388
370
    25
  0
POLYLINE
  5
55
330
41
100
AcDbEntity
  8
_U+30EC_U+30A4_U+30E4_U+30FC 1
 62
   179
420
  2234388
370
    25
100
AcDb2dPolyline
 66
     1
 10
0.0
 20
0.0
 30
0.0
  0
VERTEX
  5
56
330
55
100
AcDbEntity
  8
_U+30EC_U+30A4_U+30E4_U+30FC 1
 62
   179
420
  2234388
370
    25
100
AcDbVertex
100
AcDb2dVertex
 10
139.1157258953066
 20
-140.6391296870623
 30
0.0
  0
VERTEX
  5
57
330
55
100
AcDbEntity
  8
_U+30EC_U+30A4_U+30E4_U+30FC 1
 62
   179
420
  2234388
370
    25
100
AcDbVertex
100
AcDb2dVertex
 10
138.9916892318044
 20
-141.0194594091897
 30
0.0
  0
SEQEND
  5
58
330
55
100
AcDbEntity
  8
_U+30EC_U+30A4_U+30E4_U+30FC 1
 62
   179
420
  2234388
370
    25
  0
POLYLINE
  5
59
330
41
100
AcDbEntity
  8
_U+30EC_U+30A4_U+30E4_U+30FC 1
 62
   179
420
  2234388
370
    25
100
AcDb2dPolyline
 66
     1
 10
0.0
 20
0.0
 30
0.0
  0
VERTEX
  5
5A
330
59
100
AcDbEntity
  8
_U+30EC_U+30A4_U+30E4_U+30FC 1
 62
   179
420
  2234388
370
    25
100
AcDbVertex
100
AcDb2dVertex
 10
91.9544182096029
 20
-126.7478344127576
 30
0.0
  0
VERTEX
  5
5B
330
59
100
AcDbEntity
  8
_U+30EC_U+30A4_U+30E4_U+30FC 1
 62
   179
420
  2234388
370
    25
100
AcDbVertex
100
AcDb2dVertex
 10
138.9916892318044
 20
-141.0194594091897
 30
0.0
  0
SEQEND
  5
5C
330
59
100
AcDbEntity
  8
_U+30EC_U+30A4_U+30E4_U+30FC 1
 62
   179
420
  2234388
370
    25
  0
POLYLINE
  5
5D
330
41
100
AcDbEntity
  8
_U+30EC_U+30A4_U+30E4_U+30FC 1
 62
   179
420
  2234388
370
    25
100
AcDb2dPolyline
 66
     1
 10
0.0
 20
0.0
 30
0.0
  0
VERTEX
  5
5E
330
5D
100
AcDbEntity
  8
_U+30EC_U+30A4_U+30E4_U+30FC 1
 62
   179
420
  2234388
370
    25
100
AcDbVertex
100
AcDb2dVertex
 10
89.71974743328077
 20
-125.549624690835
 30
0.0
  0
VERTEX
  5
5F
330
5D
100
AcDbEntity
  8
_U+30EC_U+30A4_U+30E4_U+30FC 1
 62
   179
420
  2234388
370
    25
100
AcDbVertex
100
AcDb2dVertex
 10
43.09332140059778
 20
-140.6391296870623
 30
0.0
  0
SEQEND
  5
60
330
5D
100
AcDbEntity
  8
_U+30EC_U+30A4_U+30E4_U+30FC 1
 62
   179
420
  2234388
370
    25
  0
POLYLINE
  5
61
330
41
100
AcDbEntity
  8
_U+30EC_U+30A4_U+30E4_U+30FC 1
 62
   179
420
  2234388
370
    25
100
AcDb2dPolyline
 66
     1
 10
0.0
 20
0.0
 30
0.0
  0
VERTEX
  5
62
330
61
100
AcDbEntity
  8
_U+30EC_U+30A4_U+30E4_U+30FC 1
 62
   179
420
  2234388
370
    25
100
AcDbVertex
100
AcDb2dVertex
 10
43.09332140059778
 20
-140.6391296870623
 30
0.0
  0
VERTEX
  5
63
330
61
100
AcDbEntity
  8
_U+30EC_U+30A4_U+30E4_U+30FC 1
 62
   179
420
  2234388
370
    25
100
AcDbVertex
100
AcDb2dVertex
 10
43.21700528633123
 20
-141.0194594091897
 30
0.0
  0
SEQEND
  5
64
330
61
100
AcDbEntity
  8
_U+30EC_U+30A4_U+30E4_U+30FC 1
 62
   179
420
  2234388
370
    25
  0
POLYLINE
  5
65
330
41
100
AcDbEntity
  8
_U+30EC_U+30A4_U+30E4_U+30FC 1
 62
   179
420
  2234388
370
    25
100
AcDb2dPolyline
 66
     1
 10
0.0
 20
0.0
 30
0.0
  0
VERTEX
  5
66
330
65
100
AcDbEntity
  8
_U+30EC_U+30A4_U+30E4_U+30FC 1
 62
   179
420
  2234388
370
    25
100
AcDbVertex
100
AcDb2dVertex
 10
90.25512297517776
 20
-126.7478344127576
 30
0.0
  0
VERTEX
  5
67
330
65
100
AcDbEntity
  8
_U+30EC_U+30A4_U+30E4_U+30FC 1
 62
   179
420
  2234388
370
    25
100
AcDbVertex
100
AcDb2dVertex
 10
43.21700528633123
 20
-141.0194594091897
 30
0.0
  0
SEQEND
  5
68
330
65
100
AcDbEntity
  8
_U+30EC_U+30A4_U+30E4_U+30FC 1
 62
   179
420
  2234388
370
    25
  0
POLYLINE
  5
69
330
41
100
AcDbEntity
  8
_U+30EC_U+30A4_U+30E4_U+30FC 1
 62
   179
420
  2234388
370
    25
100
AcDb2dPolyline
 66
     1
 10
0.0
 20
0.0
 30
0.0
  0
VERTEX
  5
6A
330
69
100
AcDbEntity
  8
_U+30EC_U+30A4_U+30E4_U+30FC 1
 62
   179
420
  2234388
370
    25
100
AcDbVertex
100
AcDb2dVertex
 10
94.37218064792064
 20
-126.2765233017642
 30
0.0
  0
VERTEX
  5
6B
330
69
100
AcDbEntity
  8
_U+30EC_U+30A4_U+30E4_U+30FC 1
 62
   179
420
  2234388
370
    25
100
AcDbVertex
100
AcDb2dVertex
 10
94.03457232320042
 20
-127.3040238570628
 30
0.0
  0
SEQEND
  5
6C
330
69
100
AcDbEntity
  8
_U+30EC_U+30A4_U+30E4_U+30FC 1
 62
   179
420
  2234388
370
    25
  0
POLYLINE
  5
6D
330
41
100
AcDbEntity
  8
_U+30EC_U+30A4_U+30E4_U+30FC 1
 62
   179
420
  2234388
370
    25
100
AcDb2dPolyline
 66
     1
 10
0.0
 20
0.0
 30
0.0
  0
VERTEX
  5
6E
330
6D
100
AcDbEntity
  8
_U+30EC_U+30A4_U+30E4_U+30FC 1
 62
   179
420
  2234388
370
    25
100
AcDbVertex
100
AcDb2dVertex
 10
87.82804720376429
 20
-126.2034983017823
 30
0.0
  0
VERTEX
  5
6F
330
6D
100
AcDbEntity
  8
_U+30EC_U+30A4_U+30E4_U+30FC 1
 62
   179
420
  2234388
370
    25
100
AcDbVertex
100
AcDb2dVertex
 10
88.1656908062614
 20
-127.2743905237369
 30
0.0
  0
SEQEND
  5
70
330
6D
100
AcDbEntity
  8
_U+30EC_U+30A4_U+30E4_U+30FC 1
 62
   179
420
  2234388
370
    25
  0
SPLINE
  5
71
330
41
100
AcDbEntity
  8
_U+30EC_U+30A4_U+30E4_U+30FC 1
 62
   179
420
  2234388
370
    25
100
AcDbSpline
210
0.0
220
0.0
230
1.0
 70
     8
 71
     3
 72
     8
 73
     4
 74
     0
 42
0.0000000001
 43
0.0000000001
 12
1.0
 22
0.0
 32
0.0
 13
1.0
 23
0.0
 33
0.0
 40
0.0
 40
0.0
 40
0.0
 40
0.0
 40
1.0
 40
1.0
 40
1.0
 40
1.0
 10
91.9544182096029
 20
-126.7478344127576
 30
0.0
 10
91.39974572375378
 20
-126.5838280239097
 30
0.0
 10
90.80979546102688
 20
-126.5838280239097
 30
0.0
 10
90.25512297517776
 20
-126.7478344127576
 30
0.0
  0
SPLINE
  5
72
330
41
100
AcDbEntity
  8
_U+30EC_U+30A4_U+30E4_U+30FC 1
 62
   179
420
  2234388
370
    25
100
AcDbSpline
210
0.0
220
0.0
230
1.0
 70
     8
 71
     3
 72
     8
 73
     4
 74
     0
 42
0.0000000001
 43
0.0000000001
 12
1.0
 22
0.0
 32
0.0
 13
1.0
 23
0.0
 33
0.0
 40
0.0
 40
0.0
 40
0.0
 40
0.0
 40
1.0
 40
1.0
 40
1.0
 40
1.0
 10
92.48979375149989
 20
-125.549624690835
 30
0.0
 10
91.58993053265807
 20
-125.2567838575748
 30
0.0
 10
90.61961296587884
 20
-125.2567838575748
 30
0.0
 10
89.71974743328077
 20
-125.549624690835
 30
0.0
  0
SPLINE
  5
73
330
41
100
AcDbEntity
  8
_U+30EC_U+30A4_U+30E4_U+30FC 1
 62
   179
420
  2234388
370
     9
100
AcDbSpline
210
0.0
220
0.0
230
1.0
 70
    11
 71
     3
 72
    17
 73
    13
 74
     0
 42
0.0000000001
 43
0.0000000001
 12
1.0
 22
0.0
 32
0.0
 13
1.0
 23
0.0
 33
0.0
 40
0.0
 40
0.0
 40
0.0
 40
0.0
 40
1.0
 40
1.0
 40
1.0
 40
2.0
 40
2.0
 40
2.0
 40
3.0
 40
3.0
 40
3.0
 40
4.0
 40
4.0
 40
4.0
 40
4.0
 10
140.4654889164268
 20
-136.8405596880122
 30
0.0
 10
140.4654889164268
 20
-136.7854557991373
 30
0.0
 10
140.4207249648947
 20
-136.7406530213706
 30
0.0
 10
140.3649119745483
 20
-136.7406530213706
 30
0.0
 10
140.3097728092884
 20
-136.7406530213706
 30
0.0
 10
140.2653228104224
 20
-136.7854557991373
 30
0.0
 10
140.2653228104224
 20
-136.8405596880122
 30
0.0
 10
140.2653228104224
 20
-136.8956988546653
 30
0.0
 10
140.3097728092884
 20
-136.9404663546538
 30
0.0
 10
140.3649119745483
 20
-136.9404663546538
 30
0.0
 10
140.4207249648947
 20
-136.9404663546538
 30
0.0
 10
140.4654889164268
 20
-136.8956988546653
 30
0.0
 10
140.4654889164268
 20
-136.8405596880122
 30
0.0
  0
HATCH
  5
74
330
41
100
AcDbEntity
  8
_U+30EC_U+30A4_U+30E4_U+30FC 1
 62
   179
420
  2234388
100
AcDbHatch
 10
0.0
 20
0.0
 30
0.0
210
0.0
220
0.0
230
1.0
  2
SOLID
 70
     1
 71
     0
 91
        1
 92
        1
 93
        1
 72
     4
 94
        3
 73
     0
 74
     1
 95
       17
 96
       13
 40
0.0
 40
0.0
 40
0.0
 40
0.0
 40
1.0
 40
1.0
 40
1.0
 40
2.0
 40
2.0
 40
2.0
 40
3.0
 40
3.0
 40
3.0
 40
4.0
 40
4.0
 40
4.0
 40
4.0
 10
140.4654889164268
 20
-136.8405596880122
 10
140.4654889164268
 20
-136.7854557991373
 10
140.4207249648947
 20
-136.7406530213706
 10
140.3649119745483
 20
-136.7406530213706
 10
140.3097728092884
 20
-136.7406530213706
 10
140.2653228104224
 20
-136.7854557991373
 10
140.2653228104224
 20
-136.8405596880122
 10
140.2653228104224
 20
-136.8956988546653
 10
140.3097728092884
 20
-136.9404663546538
 10
140.3649119745483
 20
-136.9404663546538
 10
140.4207249648947
 20
-136.9404663546538
 10
140.4654889164268
 20
-136.8956988546653
 10
140.4654889164268
 20
-136.8405596880122
 97
        0
 97
        0
 75
     2
 76
     1
 98
        0
  0
SPLINE
  5
75
330
41
100
AcDbEntity
  8
_U+30EC_U+30A4_U+30E4_U+30FC 1
 62
   179
420
  2234388
370
     9
100
AcDbSpline
210
0.0
220
0.0
230
1.0
 70
    11
 71
     3
 72
    17
 73
    13
 74
     0
 42
0.0000000001
 43
0.0000000001
 12
1.0
 22
0.0
 32
0.0
 13
1.0
 23
0.0
 33
0.0
 40
0.0
 40
0.0
 40
0.0
 40
0.0
 40
1.0
 40
1.0
 40
1.0
 40
2.0
 40
2.0
 40
2.0
 40
3.0
 40
3.0
 40
3.0
 40
4.0
 40
4.0
 40
4.0
 40
4.0
 10
89.50271854992874
 20
-121.3645160807701
 30
0.0
 10
89.50271854992874
 20
-121.3093769141171
 30
0.0
 10
89.45791577329399
 20
-121.2646094141282
 30
0.0
 10
89.40210633027336
 20
-121.2646094141282
 30
0.0
 10
89.34700244279028
 20
-121.2646094141282
 30
0.0
 10
89.30219966615553
 20
-121.3093769141171
 30
0.0
 10
89.30219966615553
 20
-121.3645160807701
 30
0.0
 10
89.30219966615553
 20
-121.4196199696451
 30
0.0
 10
89.34700244279028
 20
-121.4644227474118
 30
0.0
 10
89.40210633027336
 20
-121.4644227474118
 30
0.0
 10
89.45791577329399
 20
-121.4644227474118
 30
0.0
 10
89.50271854992874
 20
-121.4196199696451
 30
0.0
 10
89.50271854992874
 20
-121.3645160807701
 30
0.0
  0
SPLINE
  5
76
330
41
100
AcDbEntity
  8
_U+30EC_U+30A4_U+30E4_U+30FC 1
 62
   179
420
  2234388
370
     9
100
AcDbSpline
210
0.0
220
0.0
230
1.0
 70
    11
 71
     3
 72
    17
 73
    13
 74
     0
 42
0.0000000001
 43
0.0000000001
 12
1.0
 22
0.0
 32
0.0
 13
1.0
 23
0.0
 33
0.0
 40
0.0
 40
0.0
 40
0.0
 40
0.0
 40
1.0
 40
1.0
 40
1.0
 40
2.0
 40
2.0
 40
2.0
 40
3.0
 40
3.0
 40
3.0
 40
4.0
 40
4.0
 40
4.0
 40
4.0
 10
92.90734151862515
 20
-121.3645160807701
 30
0.0
 10
92.90734151862515
 20
-121.3093769141171
 30
0.0
 10
92.86253874199038
 20
-121.2646094141282
 30
0.0
 10
92.8074348545073
 20
-121.2646094141282
 30
0.0
 10
92.75229568924735
 20
-121.2646094141282
 30
0.0
 10
92.70753053237856
 20
-121.3093769141171
 30
0.0
 10
92.70753053237856
 20
-121.3645160807701
 30
0.0
 10
92.70753053237856
 20
-121.4196199696451
 30
0.0
 10
92.75229568924735
 20
-121.4644227474118
 30
0.0
 10
92.8074348545073
 20
-121.4644227474118
 30
0.0
 10
92.86253874199038
 20
-121.4644227474118
 30
0.0
 10
92.90734151862515
 20
-121.4196199696451
 30
0.0
 10
92.90734151862515
 20
-121.3645160807701
 30
0.0
  0
SPLINE
  5
77
330
41
100
AcDbEntity
  8
_U+30EC_U+30A4_U+30E4_U+30FC 1
 62
   179
420
  2234388
370
     9
100
AcDbSpline
210
0.0
220
0.0
230
1.0
 70
    11
 71
     3
 72
    17
 73
    13
 74
     0
 42
0.0000000001
 43
0.0000000001
 12
1.0
 22
0.0
 32
0.0
 13
1.0
 23
0.0
 33
0.0
 40
0.0
 40
0.0
 40
0.0
 40
0.0
 40
1.0
 40
1.0
 40
1.0
 40
2.0
 40
2.0
 40
2.0
 40
3.0
 40
3.0
 40
3.0
 40
4.0
 40
4.0
 40
4.0
 40
4.0
 10
41.94266615217566
 20
-136.8315991324587
 30
0.0
 10
41.94266615217566
 20
-136.7764952435838
 30
0.0
 10
41.8978633755409
 20
-136.7316924658171
 30
0.0
 10
41.84275948805783
 20
-136.7316924658171
 30
0.0
 10
41.78762032279788
 20
-136.7316924658171
 30
0.0
 10
41.74285282393999
 20
-136.7764952435838
 30
0.0
 10
41.74285282393999
 20
-136.8315991324587
 30
0.0
 10
41.74285282393999
 20
-136.8867382991118
 30
0.0
 10
41.78762032279788
 20
-136.9315057991004
 30
0.0
 10
41.84275948805783
 20
-136.9315057991004
 30
0.0
 10
41.8978633755409
 20
-136.9315057991004
 30
0.0
 10
41.94266615217566
 20
-136.8867382991118
 30
0.0
 10
41.94266615217566
 20
-136.8315991324587
 30
0.0
  0
HATCH
  5
78
330
41
100
AcDbEntity
  8
_U+30EC_U+30A4_U+30E4_U+30FC 1
 62
   179
420
  2234388
100
AcDbHatch
 10
0.0
 20
0.0
 30
0.0
210
0.0
220
0.0
230
1.0
  2
SOLID
 70
     1
 71
     0
 91
        1
 92
        1
 93
        1
 72
     4
 94
        3
 73
     0
 74
     1
 95
       17
 96
       13
 40
0.0
 40
0.0
 40
0.0
 40
0.0
 40
1.0
 40
1.0
 40
1.0
 40
2.0
 40
2.0
 40
2.0
 40
3.0
 40
3.0
 40
3.0
 40
4.0
 40
4.0
 40
4.0
 40
4.0
 10
41.94266615217566
 20
-136.8315991324587
 10
41.94266615217566
 20
-136.7764952435838
 10
41.8978633755409
 20
-136.7316924658171
 10
41.84275948805783
 20
-136.7316924658171
 10
41.78762032279788
 20
-136.7316924658171
 10
41.74285282393999
 20
-136.7764952435838
 10
41.74285282393999
 20
-136.8315991324587
 10
41.74285282393999
 20
-136.8867382991118
 10
41.78762032279788
 20
-136.9315057991004
 10
41.84275948805783
 20
-136.9315057991004
 10
41.8978633755409
 20
-136.9315057991004
 10
41.94266615217566
 20
-136.8867382991118
 10
41.94266615217566
 20
-136.8315991324587
 97
        0
 97
        0
 75
     2
 76
     1
 98
        0
  0
INSERT
  5
7A
330
41
100
AcDbEntity
  8
_U+30EC_U+30A4_U+30E4_U+30FC 1
100
AcDbBlockReference
  2
block 3
 10
0.0
 20
0.0
 30
0.0
  0
POLYLINE
  5
D3
330
41
100
AcDbEntity
  8
_U+30EC_U+30A4_U+30E4_U+30FC 1
 62
   179
420
  2234388
370
     9
100
AcDb2dPolyline
 66
     1
 10
0.0
 20
0.0
 30
0.0
  0
VERTEX
  5
D4
330
D3
100
AcDbEntity
  8
_U+30EC_U+30A4_U+30E4_U+30FC 1
 62
   179
420
  2234388
370
     9
100
AcDbVertex
100
AcDb2dVertex
 10
92.8074348545073
 20
-121.3645160807701
 30
0.0
  0
VERTEX
  5
D5
330
D3
100
AcDbEntity
  8
_U+30EC_U+30A4_U+30E4_U+30FC 1
 62
   179
420
  2234388
370
     9
100
AcDbVertex
100
AcDb2dVertex
 10
140.3514711415579
 20
-136.83505635468
 30
0.0
  0
SEQEND
  5
D6
330
D3
100
AcDbEntity
  8
_U+30EC_U+30A4_U+30E4_U+30FC 1
 62
   179
420
  2234388
370
     9
  0
POLYLINE
  5
D7
330
41
100
AcDbEntity
  8
_U+30EC_U+30A4_U+30E4_U+30FC 1
 62
   179
420
  2234388
370
     9
100
AcDb2dPolyline
 66
     1
 10
0.0
 20
0.0
 30
0.0
  0
VERTEX
  5
D8
330
D7
100
AcDbEntity
  8
_U+30EC_U+30A4_U+30E4_U+30FC 1
 62
   179
420
  2234388
370
     9
100
AcDbVertex
100
AcDb2dVertex
 10
91.89102404455356
 20
-124.1791535800662
 30
0.0
  0
VERTEX
  5
D9
330
D7
100
AcDbEntity
  8
_U+30EC_U+30A4_U+30E4_U+30FC 1
 62
   179
420
  2234388
370
     9
100
AcDbVertex
100
AcDb2dVertex
 10
93.11678567994844
 20
-120.4136741365633
 30
0.0
  0
SEQEND
  5
DA
330
D7
100
AcDbEntity
  8
_U+30EC_U+30A4_U+30E4_U+30FC 1
 62
   179
420
  2234388
370
     9
  0
POLYLINE
  5
DB
330
41
100
AcDbEntity
  8
_U+30EC_U+30A4_U+30E4_U+30FC 1
 62
   179
420
  2234388
370
     9
100
AcDb2dPolyline
 66
     1
 10
0.0
 20
0.0
 30
0.0
  0
VERTEX
  5
DC
330
DB
100
AcDbEntity
  8
_U+30EC_U+30A4_U+30E4_U+30FC 1
 62
   179
420
  2234388
370
     9
100
AcDbVertex
100
AcDb2dVertex
 10
139.9005153197294
 20
-138.2234485765554
 30
0.0
  0
VERTEX
  5
DD
330
DB
100
AcDbEntity
  8
_U+30EC_U+30A4_U+30E4_U+30FC 1
 62
   179
420
  2234388
370
     9
100
AcDbVertex
100
AcDb2dVertex
 10
140.6615275225366
 20
-135.8842144104735
 30
0.0
  0
SEQEND
  5
DE
330
DB
100
AcDbEntity
  8
_U+30EC_U+30A4_U+30E4_U+30FC 1
 62
   179
420
  2234388
370
     9
  0
INSERT
  5
E0
330
41
100
AcDbEntity
  8
_U+30EC_U+30A4_U+30E4_U+30FC 1
100
AcDbBlockReference
  2
block 4
 10
0.0
 20
0.0
 30
0.0
  0
POLYLINE
  5
E8
330
41
100
AcDbEntity
  8
_U+30EC_U+30A4_U+30E4_U+30FC 1
 62
   179
420
  2234388
370
     9
100
AcDb2dPolyline
 66
     1
 10
0.0
 20
0.0
 30
0.0
  0
VERTEX
  5
E9
330
E8
100
AcDbEntity
  8
_U+30EC_U+30A4_U+30E4_U+30FC 1
 62
   179
420
  2234388
370
     9
100
AcDbVertex
100
AcDb2dVertex
 10
41.8573997654621
 20
-136.83505635468
 30
0.0
  0
VERTEX
  5
EA
330
E8
100
AcDbEntity
  8
_U+30EC_U+30A4_U+30E4_U+30FC 1
 62
   179
420
  2234388
370
     9
100
AcDbVertex
100
AcDb2dVertex
 10
89.40210633027336
 20
-121.3645160807701
 30
0.0
  0
SEQEND
  5
EB
330
E8
100
AcDbEntity
  8
_U+30EC_U+30A4_U+30E4_U+30FC 1
 62
   179
420
  2234388
370
     9
  0
POLYLINE
  5
EC
330
41
100
AcDbEntity
  8
_U+30EC_U+30A4_U+30E4_U+30FC 1
 62
   179
420
  2234388
370
     9
100
AcDb2dPolyline
 66
     1
 10
0.0
 20
0.0
 30
0.0
  0
VERTEX
  5
ED
330
EC
100
AcDbEntity
  8
_U+30EC_U+30A4_U+30E4_U+30FC 1
 62
   179
420
  2234388
370
     9
100
AcDbVertex
100
AcDb2dVertex
 10
42.30853197617498
 20
-138.2234485765554
 30
0.0
  0
VERTEX
  5
EE
330
EC
100
AcDbEntity
  8
_U+30EC_U+30A4_U+30E4_U+30FC 1
 62
   179
420
  2234388
370
     9
100
AcDbVertex
100
AcDb2dVertex
 10
41.54716699559902
 20
-135.8842144104735
 30
0.0
  0
SEQEND
  5
EF
330
EC
100
AcDbEntity
  8
_U+30EC_U+30A4_U+30E4_U+30FC 1
 62
   179
420
  2234388
370
     9
  0
POLYLINE
  5
F0
330
41
100
AcDbEntity
  8
_U+30EC_U+30A4_U+30E4_U+30FC 1
 62
   179
420
  2234388
370
     9
100
AcDb2dPolyline
 66
     1
 10
0.0
 20
0.0
 30
0.0
  0
VERTEX
  5
F1
330
F0
100
AcDbEntity
  8
_U+30EC_U+30A4_U+30E4_U+30FC 1
 62
   179
420
  2234388
370
     9
100
AcDbVertex
100
AcDb2dVertex
 10
90.31851942186472
 20
-124.1791535800662
 30
0.0
  0
VERTEX
  5
F2
330
F0
100
AcDbEntity
  8
_U+30EC_U+30A4_U+30E4_U+30FC 1
 62
   179
420
  2234388
370
     9
100
AcDbVertex
100
AcDb2dVertex
 10
89.09275550483223
 20
-120.4136741365633
 30
0.0
  0
SEQEND
  5
F3
330
F0
100
AcDbEntity
  8
_U+30EC_U+30A4_U+30E4_U+30FC 1
 62
   179
420
  2234388
370
     9
  0
INSERT
  5
F5
330
41
100
AcDbEntity
  8
_U+30EC_U+30A4_U+30E4_U+30FC 1
100
AcDbBlockReference
  2
block 5
 10
0.0
 20
0.0
 30
0.0
  0
ENDBLK
  5
44
330
41
100
AcDbEntity
  8
0
100
AcDbBlockEnd
  0
BLOCK
  5
7B
330
79
100
AcDbEntity
  8
0
100
AcDbBlockBegin
  2
block 3
 70
     0
 10
0.0
 20
0.0
 30
0.0
  3
block 3
  1

  0
SPLINE
  5
7D
330
79
100
AcDbEntity
  8
_U+30EC_U+30A4_U+30E4_U+30FC 1
370
     0
100
AcDbSpline
210
0.0
220
0.0
230
1.0
 70
    11
 71
     3
 72
   197
 73
   193
 74
     0
 42
0.0000000001
 43
0.0000000001
 12
1.0
 22
0.0
 32
0.0
 13
1.0
 23
0.0
 33
0.0
 40
0.0
 40
0.0
 40
0.0
 40
0.0
 40
1.0
 40
1.0
 40
1.0
 40
2.0
 40
2.0
 40
2.0
 40
3.0
 40
3.0
 40
3.0
 40
4.0
 40
4.0
 40
4.0
 40
5.0
 40
5.0
 40
5.0
 40
6.0
 40
6.0
 40
6.0
 40
7.0
 40
7.0
 40
7.0
 40
8.0
 40
8.0
 40
8.0
 40
9.0
 40
9.0
 40
9.0
 40
10.0
 40
10.0
 40
10.0
 40
11.0
 40
11.0
 40
11.0
 40
12.0
 40
12.0
 40
12.0
 40
13.0
 40
13.0
 40
13.0
 40
14.0
 40
14.0
 40
14.0
 40
15.0
 40
15.0
 40
15.0
 40
16.0
 40
16.0
 40
16.0
 40
17.0
 40
17.0
 40
17.0
 40
18.0
 40
18.0
 40
18.0
 40
19.0
 40
19.0
 40
19.0
 40
20.0
 40
20.0
 40
20.0
 40
21.0
 40
21.0
 40
21.0
 40
22.0
 40
22.0
 40
22.0
 40
23.0
 40
23.0
 40
23.0
 40
24.0
 40
24.0
 40
24.0
 40
25.0
 40
25.0
 40
25.0
 40
26.0
 40
26.0
 40
26.0
 40
27.0
 40
27.0
 40
27.0
 40
28.0
 40
28.0
 40
28.0
 40
29.0
 40
29.0
 40
29.0
 40
30.0
 40
30.0
 40
30.0
 40
31.0
 40
31.0
 40
31.0
 40
32.0
 40
32.0
 40
32.0
 40
33.0
 40
33.0
 40
33.0
 40
34.0
 40
34.0
 40
34.0
 40
35.0
 40
35.0
 40
35.0
 40
36.0
 40
36.0
 40
36.0
 40
37.0
 40
37.0
 40
37.0
 40
38.0
 40
38.0
 40
38.0
 40
39.0
 40
39.0
 40
39.0
 40
40.0
 40
40.0
 40
40.0
 40
41.0
 40
41.0
 40
41.0
 40
42.0
 40
42.0
 40
42.0
 40
43.0
 40
43.0
 40
43.0
 40
44.0
 40
44.0
 40
44.0
 40
45.0
 40
45.0
 40
45.0
 40
46.0
 40
46.0
 40
46.0
 40
47.0
 40
47.0
 40
47.0
 40
48.0
 40
48.0
 40
48.0
 40
49.0
 40
49.0
 40
49.0
 40
50.0
 40
50.0
 40
50.0
 40
51.0
 40
51.0
 40
51.0
 40
52.0
 40
52.0
 40
52.0
 40
53.0
 40
53.0
 40
53.0
 40
54.0
 40
54.0
 40
54.0
 40
55.0
 40
55.0
 40
55.0
 40
56.0
 40
56.0
 40
56.0
 40
57.0
 40
57.0
 40
57.0
 40
58.0
 40
58.0
 40
58.0
 40
59.0
 40
59.0
 40
59.0
 40
60.0
 40
60.0
 40
60.0
 40
61.0
 40
61.0
 40
61.0
 40
62.0
 40
62.0
 40
62.0
 40
63.0
 40
63.0
 40
63.0
 40
64.0
 40
64.0
 40
64.0
 40
64.0
 10
89.72217201532987
 20
-116.3985798862649
 30
0.0
 10
89.7114922193256
 20
-116.4280354526638
 30
0.0
 10
89.6880655700259
 20
-116.474716496489
 30
0.0
 10
89.67773028357016
 20
-116.5021050055967
 30
0.0
 10
89.67773028357016
 20
-116.5021050055967
 30
0.0
 10
89.61640758393271
 20
-116.654550480819
 30
0.0
 10
89.61640758393271
 20
-116.654550480819
 30
0.0
 10
89.60572778792843
 20
-116.6798719326356
 30
0.0
 10
89.55715194158641
 20
-116.7920097906805
 30
0.0
 10
89.54440508829099
 20
-116.8152641852059
 30
0.0
 10
89.54233803099983
 20
-116.8216376118536
 30
0.0
 10
89.53785940686902
 20
-116.8300780957925
 30
0.0
 10
89.53579234957786
 20
-116.8364515224402
 30
0.0
 10
89.53579234957786
 20
-116.8364515224402
 30
0.0
 10
89.32633054407466
 20
-116.7835693067416
 30
0.0
 10
89.32633054407466
 20
-116.7835693067416
 30
0.0
 10
89.40487872113837
 20
-116.6734985059879
 30
0.0
 10
89.46620142077582
 20
-116.5381062534176
 30
0.0
 10
89.49789629924011
 20
-116.4280354526638
 30
0.0
 10
89.49789629924011
 20
-116.4280354526638
 30
0.0
 10
89.03246389918286
 20
-116.4280354526638
 30
0.0
 10
89.03246389918286
 20
-116.4280354526638
 30
0.0
 10
88.95184866482802
 20
-116.5930555264073
 30
0.0
 10
88.88432479331712
 20
-116.6714314486967
 30
0.0
 10
88.85056285756167
 20
-116.7115668110999
 30
0.0
 10
88.85056285756167
 20
-116.7115668110999
 30
0.0
 10
88.72791745828677
 20
-116.6459377421059
 30
0.0
 10
88.72791745828677
 20
-116.6459377421059
 30
0.0
 10
88.72791745828677
 20
-116.6459377421059
 30
0.0
 10
88.72791745828677
 20
-116.8173312424971
 30
0.0
 10
88.72791745828677
 20
-116.8173312424971
 30
0.0
 10
88.72791745828677
 20
-116.9253349859596
 30
0.0
 10
88.72998451557793
 20
-116.9739108323017
 30
0.0
 10
88.74031980203367
 20
-117.0796752636988
 30
0.0
 10
88.66866181594048
 20
-117.0776082064077
 30
0.0
 10
88.64730222393193
 20
-117.0776082064077
 30
0.0
 10
88.44231904255956
 20
-117.0776082064077
 30
0.0
 10
88.44231904255956
 20
-117.0776082064077
 30
0.0
 10
88.38719751479556
 20
-117.0776082064077
 30
0.0
 10
88.38719751479556
 20
-117.0776082064077
 30
0.0
 10
88.38719751479556
 20
-117.0776082064077
 30
0.0
 10
88.38719751479556
 20
-117.213000458978
 30
0.0
 10
88.38719751479556
 20
-117.213000458978
 30
0.0
 10
88.38719751479556
 20
-117.213000458978
 30
0.0
 10
88.45920001043729
 20
-117.213000458978
 30
0.0
 10
88.45920001043729
 20
-117.213000458978
 30
0.0
 10
88.52465682465703
 20
-117.213000458978
 30
0.0
 10
88.67072887323162
 20
-117.2086940896214
 30
0.0
 10
88.7764933046288
 20
-117.2002536056826
 30
0.0
 10
88.7764933046288
 20
-117.2002536056826
 30
0.0
 10
88.7764933046288
 20
-117.3780205327215
 30
0.0
 10
88.7764933046288
 20
-117.3780205327215
 30
0.0
 10
88.67899710239622
 20
-117.3716471060738
 30
0.0
 10
88.52052271007473
 20
-117.3673407367172
 30
0.0
 10
88.45920001043729
 20
-117.3673407367172
 30
0.0
 10
88.45920001043729
 20
-117.3673407367172
 30
0.0
 10
88.38719751479556
 20
-117.3673407367172
 30
0.0
 10
88.38719751479556
 20
-117.3673407367172
 30
0.0
 10
88.38926457208672
 20
-117.4562242002366
 30
0.0
 10
88.39339868666902
 20
-117.695313826913
 30
0.0
 10
88.39546574396016
 20
-117.7693833798458
 30
0.0
 10
88.39546574396016
 20
-117.7693833798458
 30
0.0
 10
88.1946166771701
 20
-117.7693833798458
 30
0.0
 10
88.1946166771701
 20
-117.7693833798458
 30
0.0
 10
88.20736353046553
 20
-117.5556152049861
 30
0.0
 10
88.20736353046553
 20
-117.5259873838129
 30
0.0
 10
88.21149764504783
 20
-117.3673407367172
 30
0.0
 10
88.21149764504783
 20
-117.3673407367172
 30
0.0
 10
88.14190671624577
 20
-117.3673407367172
 30
0.0
 10
88.14190671624577
 20
-117.3673407367172
 30
0.0
 10
88.08471813119063
 20
-117.3673407367172
 30
0.0
 10
87.93244491074259
 20
-117.3716471060738
 30
0.0
 10
87.82220185521459
 20
-117.3780205327215
 30
0.0
 10
87.82220185521459
 20
-117.3780205327215
 30
0.0
 10
87.82220185521459
 20
-117.2002536056826
 30
0.0
 10
87.82220185521459
 20
-117.2002536056826
 30
0.0
 10
87.92796628661176
 20
-117.2086940896214
 30
0.0
 10
88.0719712778952
 20
-117.213000458978
 30
0.0
 10
88.14190671624577
 20
-117.213000458978
 30
0.0
 10
88.14190671624577
 20
-117.213000458978
 30
0.0
 10
88.21563175963013
 20
-117.213000458978
 30
0.0
 10
88.21563175963013
 20
-117.213000458978
 30
0.0
 10
88.21563175963013
 20
-117.213000458978
 30
0.0
 10
88.21563175963013
 20
-117.0776082064077
 30
0.0
 10
88.21563175963013
 20
-117.0776082064077
 30
0.0
 10
88.21563175963013
 20
-117.0776082064077
 30
0.0
 10
88.17153453741892
 20
-117.0776082064077
 30
0.0
 10
88.17153453741892
 20
-117.0776082064077
 30
0.0
 10
88.09505341764638
 20
-117.0776082064077
 30
0.0
 10
87.90281708956944
 20
-117.0796752636988
 30
0.0
 10
87.86871064426546
 20
-117.0796752636988
 30
0.0
 10
87.87525632568745
 20
-117.0078450228314
 30
0.0
 10
87.88352455485204
 20
-116.9274020432508
 30
0.0
 10
87.88352455485204
 20
-116.806823701267
 30
0.0
 10
87.88352455485204
 20
-116.806823701267
 30
0.0
 10
87.88352455485204
 20
-116.6333631435847
 30
0.0
 10
87.88352455485204
 20
-116.6333631435847
 30
0.0
 10
87.88352455485204
 20
-116.561360647943
 30
0.0
 10
87.87525632568745
 20
-116.4407823059593
 30
0.0
 10
87.86871064426546
 20
-116.3605115811529
 30
0.0
 10
87.94725882132916
 20
-116.3646456957352
 30
0.0
 10
87.98515487166691
 20
-116.3667127530264
 30
0.0
 10
88.11227889507263
 20
-116.3667127530264
 30
0.0
 10
88.11227889507263
 20
-116.3667127530264
 30
0.0
 10
88.21563175963013
 20
-116.3667127530264
 30
0.0
 10
88.21563175963013
 20
-116.3667127530264
 30
0.0
 10
88.21563175963013
 20
-116.3667127530264
 30
0.0
 10
88.21563175963013
 20
-116.2208129592261
 30
0.0
 10
88.21563175963013
 20
-116.2208129592261
 30
0.0
 10
88.21563175963013
 20
-116.2208129592261
 30
0.0
 10
88.13742809211496
 20
-116.2208129592261
 30
0.0
 10
88.13742809211496
 20
-116.2208129592261
 30
0.0
 10
88.08265107389948
 20
-116.2208129592261
 30
0.0
 10
87.91108531873404
 20
-116.2251193285826
 30
0.0
 10
87.82668047934541
 20
-116.2313205004561
 30
0.0
 10
87.82668047934541
 20
-116.2313205004561
 30
0.0
 10
87.82668047934541
 20
-116.0537258281914
 30
0.0
 10
87.82668047934541
 20
-116.0537258281914
 30
0.0
 10
87.9090182614429
 20
-116.0600992548391
 30
0.0
 10
88.0719712778952
 20
-116.0642333694214
 30
0.0
 10
88.13742809211496
 20
-116.0642333694214
 30
0.0
 10
88.13742809211496
 20
-116.0642333694214
 30
0.0
 10
88.21563175963013
 20
-116.0642333694214
 30
0.0
 10
88.21563175963013
 20
-116.0642333694214
 30
0.0
 10
88.21563175963013
 20
-116.030471433666
 30
0.0
 10
88.21149764504783
 20
-115.8759589011525
 30
0.0
 10
88.21149764504783
 20
-115.8442640226883
 30
0.0
 10
88.21149764504783
 20
-115.8442640226883
 30
0.0
 10
88.40821259725558
 20
-115.861144990566
 30
0.0
 10
88.40821259725558
 20
-115.861144990566
 30
0.0
 10
88.42509356513331
 20
-115.8632120478571
 30
0.0
 10
88.44645315714186
 20
-115.8654513599225
 30
0.0
 10
88.44645315714186
 20
-115.8864664423826
 30
0.0
 10
88.44645315714186
 20
-115.9098930916822
 30
0.0
 10
88.42509356513331
 20
-115.9183335756211
 30
0.0
 10
88.39787731079984
 20
-115.9309081741423
 30
0.0
 10
88.39787731079984
 20
-115.9520955113766
 30
0.0
 10
88.39546574396016
 20
-116.0473524015437
 30
0.0
 10
88.39546574396016
 20
-116.0642333694214
 30
0.0
 10
88.39546574396016
 20
-116.0642333694214
 30
0.0
 10
88.45472138630646
 20
-116.0642333694214
 30
0.0
 10
88.45472138630646
 20
-116.0642333694214
 30
0.0
 10
88.52258976736589
 20
-116.0642333694214
 30
0.0
 10
88.6662502491008
 20
-116.0600992548391
 30
0.0
 10
88.77201468049797
 20
-116.0537258281914
 30
0.0
 10
88.77201468049797
 20
-116.0537258281914
 30
0.0
 10
88.77201468049797
 20
-116.2313205004561
 30
0.0
 10
88.77201468049797
 20
-116.2313205004561
 30
0.0
 10
88.67486298781392
 20
-116.2251193285826
 30
0.0
 10
88.51845565278359
 20
-116.2208129592261
 30
0.0
 10
88.45472138630646
 20
-116.2208129592261
 30
0.0
 10
88.45472138630646
 20
-116.2208129592261
 30
0.0
 10
88.38719751479556
 20
-116.2208129592261
 30
0.0
 10
88.38719751479556
 20
-116.2208129592261
 30
0.0
 10
88.38719751479556
 20
-116.2208129592261
 30
0.0
 10
88.38719751479556
 20
-116.3667127530264
 30
0.0
 10
88.38719751479556
 20
-116.3667127530264
 30
0.0
 10
88.38719751479556
 20
-116.3667127530264
 30
0.0
 10
88.45713295314614
 20
-116.3667127530264
 30
0.0
 10
88.45713295314614
 20
-116.3667127530264
 30
0.0
 10
88.60699460675451
 20
-116.3667127530264
 30
0.0
 10
88.67899710239622
 20
-116.3625786384441
 30
0.0
 10
88.74031980203367
 20
-116.3605115811529
 30
0.0
 10
88.73205157286907
 20
-116.4555962165458
 30
0.0
 10
88.72998451557793
 20
-116.5339721388353
 30
0.0
 10
88.72791745828677
 20
-116.5720404439473
 30
0.0
 10
88.88225773602596
 20
-116.3605115811529
 30
0.0
 10
88.98802216742314
 20
-116.1129814705377
 30
0.0
 10
89.00490313530086
 20
-115.850637449336
 30
0.0
 10
89.00490313530086
 20
-115.850637449336
 30
0.0
 10
89.2205661126775
 20
-115.9012803529691
 30
0.0
 10
89.2205661126775
 20
-115.9012803529691
 30
0.0
 10
89.23538002326407
 20
-115.9055867223257
 30
0.0
 10
89.25019393385065
 20
-115.9119601489734
 30
0.0
 10
89.25019393385065
 20
-115.9288411168511
 30
0.0
 10
89.25019393385065
 20
-115.9457220847289
 30
0.0
 10
89.24605981926835
 20
-115.9479613967943
 30
0.0
 10
89.19541691563518
 20
-115.9689764792543
 30
0.0
 10
89.17819143820893
 20
-116.0452853442526
 30
0.0
 10
89.1530422411666
 20
-116.1362358650632
 30
0.0
 10
89.10446639482458
 20
-116.2631876336946
 30
0.0
 10
89.10446639482458
 20
-116.2631876336946
 30
0.0
 10
89.44277477147611
 20
-116.2631876336946
 30
0.0
 10
89.44277477147611
 20
-116.2631876336946
 30
0.0
 10
89.48101533136239
 20
-116.2631876336946
 30
0.0
 10
89.60986190251073
 20
-116.2588812643381
 30
0.0
 10
89.65843774885276
 20
-116.2525078376903
 30
0.0
 10
89.65843774885276
 20
-116.2525078376903
 30
0.0
 10
89.75179983650303
 20
-116.3222710212667
 30
0.0
 10
89.75179983650303
 20
-116.3222710212667
 30
0.0
 10
89.7431870977899
 20
-116.3434583585009
 30
0.0
 10
89.73698592591646
 20
-116.3625786384441
 30
0.0
 10
89.72217201532987
 20
-116.3985798862649
 30
0.0
  0
POLYLINE
  5
7E
330
79
100
AcDbEntity
  8
_U+30EC_U+30A4_U+30E4_U+30FC 1
370
     0
100
AcDb2dPolyline
 66
     1
 10
0.0
 20
0.0
 30
0.0
  0
VERTEX
  5
7F
330
7E
100
AcDbEntity
  8
_U+30EC_U+30A4_U+30E4_U+30FC 1
370
     0
100
AcDbVertex
100
AcDb2dVertex
 10
88.21563175963013
 20
-116.523292342831
 30
0.0
  0
VERTEX
  5
80
330
7E
100
AcDbEntity
  8
_U+30EC_U+30A4_U+30E4_U+30FC 1
370
     0
100
AcDbVertex
100
AcDb2dVertex
 10
88.05715736730863
 20
-116.523292342831
 30
0.0
  0
VERTEX
  5
81
330
7E
100
AcDbEntity
  8
_U+30EC_U+30A4_U+30E4_U+30FC 1
370
     0
100
AcDbVertex
100
AcDb2dVertex
 10
88.05715736730863
 20
-116.6523111687536
 30
0.0
  0
VERTEX
  5
82
330
7E
100
AcDbEntity
  8
_U+30EC_U+30A4_U+30E4_U+30FC 1
370
     0
100
AcDbVertex
100
AcDb2dVertex
 10
88.21563175963013
 20
-116.6523111687536
 30
0.0
  0
VERTEX
  5
83
330
7E
100
AcDbEntity
  8
_U+30EC_U+30A4_U+30E4_U+30FC 1
370
     0
100
AcDbVertex
100
AcDb2dVertex
 10
88.21563175963013
 20
-116.523292342831
 30
0.0
  0
SEQEND
  5
84
330
7E
100
AcDbEntity
  8
_U+30EC_U+30A4_U+30E4_U+30FC 1
370
     0
  0
POLYLINE
  5
85
330
79
100
AcDbEntity
  8
_U+30EC_U+30A4_U+30E4_U+30FC 1
370
     0
100
AcDb2dPolyline
 66
     1
 10
0.0
 20
0.0
 30
0.0
  0
VERTEX
  5
86
330
85
100
AcDbEntity
  8
_U+30EC_U+30A4_U+30E4_U+30FC 1
370
     0
100
AcDbVertex
100
AcDb2dVertex
 10
88.21563175963013
 20
-116.7961439052628
 30
0.0
  0
VERTEX
  5
87
330
85
100
AcDbEntity
  8
_U+30EC_U+30A4_U+30E4_U+30FC 1
370
     0
100
AcDbVertex
100
AcDb2dVertex
 10
88.05715736730863
 20
-116.7961439052628
 30
0.0
  0
VERTEX
  5
88
330
85
100
AcDbEntity
  8
_U+30EC_U+30A4_U+30E4_U+30FC 1
370
     0
100
AcDbVertex
100
AcDb2dVertex
 10
88.05715736730863
 20
-116.9253349859596
 30
0.0
  0
VERTEX
  5
89
330
85
100
AcDbEntity
  8
_U+30EC_U+30A4_U+30E4_U+30FC 1
370
     0
100
AcDbVertex
100
AcDb2dVertex
 10
88.21563175963013
 20
-116.9253349859596
 30
0.0
  0
VERTEX
  5
8A
330
85
100
AcDbEntity
  8
_U+30EC_U+30A4_U+30E4_U+30FC 1
370
     0
100
AcDbVertex
100
AcDb2dVertex
 10
88.21563175963013
 20
-116.7961439052628
 30
0.0
  0
SEQEND
  5
8B
330
85
100
AcDbEntity
  8
_U+30EC_U+30A4_U+30E4_U+30FC 1
370
     0
  0
POLYLINE
  5
8C
330
79
100
AcDbEntity
  8
_U+30EC_U+30A4_U+30E4_U+30FC 1
370
     0
100
AcDb2dPolyline
 66
     1
 10
0.0
 20
0.0
 30
0.0
  0
VERTEX
  5
8D
330
8C
100
AcDbEntity
  8
_U+30EC_U+30A4_U+30E4_U+30FC 1
370
     0
100
AcDbVertex
100
AcDb2dVertex
 10
88.54808347395674
 20
-116.523292342831
 30
0.0
  0
VERTEX
  5
8E
330
8C
100
AcDbEntity
  8
_U+30EC_U+30A4_U+30E4_U+30FC 1
370
     0
100
AcDbVertex
100
AcDb2dVertex
 10
88.38719751479556
 20
-116.523292342831
 30
0.0
  0
VERTEX
  5
8F
330
8C
100
AcDbEntity
  8
_U+30EC_U+30A4_U+30E4_U+30FC 1
370
     0
100
AcDbVertex
100
AcDb2dVertex
 10
88.38719751479556
 20
-116.6523111687536
 30
0.0
  0
VERTEX
  5
90
330
8C
100
AcDbEntity
  8
_U+30EC_U+30A4_U+30E4_U+30FC 1
370
     0
100
AcDbVertex
100
AcDb2dVertex
 10
88.54808347395674
 20
-116.6523111687536
 30
0.0
  0
VERTEX
  5
91
330
8C
100
AcDbEntity
  8
_U+30EC_U+30A4_U+30E4_U+30FC 1
370
     0
100
AcDbVertex
100
AcDb2dVertex
 10
88.54808347395674
 20
-116.523292342831
 30
0.0
  0
SEQEND
  5
92
330
8C
100
AcDbEntity
  8
_U+30EC_U+30A4_U+30E4_U+30FC 1
370
     0
  0
POLYLINE
  5
93
330
79
100
AcDbEntity
  8
_U+30EC_U+30A4_U+30E4_U+30FC 1
370
     0
100
AcDb2dPolyline
 66
     1
 10
0.0
 20
0.0
 30
0.0
  0
VERTEX
  5
94
330
93
100
AcDbEntity
  8
_U+30EC_U+30A4_U+30E4_U+30FC 1
370
     0
100
AcDbVertex
100
AcDb2dVertex
 10
88.54808347395674
 20
-116.7961439052628
 30
0.0
  0
VERTEX
  5
95
330
93
100
AcDbEntity
  8
_U+30EC_U+30A4_U+30E4_U+30FC 1
370
     0
100
AcDbVertex
100
AcDb2dVertex
 10
88.38719751479556
 20
-116.7961439052628
 30
0.0
  0
VERTEX
  5
96
330
93
100
AcDbEntity
  8
_U+30EC_U+30A4_U+30E4_U+30FC 1
370
     0
100
AcDbVertex
100
AcDb2dVertex
 10
88.38719751479556
 20
-116.9253349859596
 30
0.0
  0
VERTEX
  5
97
330
93
100
AcDbEntity
  8
_U+30EC_U+30A4_U+30E4_U+30FC 1
370
     0
100
AcDbVertex
100
AcDb2dVertex
 10
88.54808347395674
 20
-116.9253349859596
 30
0.0
  0
VERTEX
  5
98
330
93
100
AcDbEntity
  8
_U+30EC_U+30A4_U+30E4_U+30FC 1
370
     0
100
AcDbVertex
100
AcDb2dVertex
 10
88.54808347395674
 20
-116.7961439052628
 30
0.0
  0
SEQEND
  5
99
330
93
100
AcDbEntity
  8
_U+30EC_U+30A4_U+30E4_U+30FC 1
370
     0
  0
SPLINE
  5
9A
330
79
100
AcDbEntity
  8
_U+30EC_U+30A4_U+30E4_U+30FC 1
370
     0
100
AcDbSpline
210
0.0
220
0.0
230
1.0
 70
    11
 71
     3
 72
    41
 73
    37
 74
     0
 42
0.0000000001
 43
0.0000000001
 12
1.0
 22
0.0
 32
0.0
 13
1.0
 23
0.0
 33
0.0
 40
0.0
 40
0.0
 40
0.0
 40
0.0
 40
1.0
 40
1.0
 40
1.0
 40
2.0
 40
2.0
 40
2.0
 40
3.0
 40
3.0
 40
3.0
 40
4.0
 40
4.0
 40
4.0
 40
5.0
 40
5.0
 40
5.0
 40
6.0
 40
6.0
 40
6.0
 40
7.0
 40
7.0
 40
7.0
 40
8.0
 40
8.0
 40
8.0
 40
9.0
 40
9.0
 40
9.0
 40
10.0
 40
10.0
 40
10.0
 40
11.0
 40
11.0
 40
11.0
 40
12.0
 40
12.0
 40
12.0
 40
12.0
 10
89.63742266639274
 20
-117.7545694692593
 30
0.0
 10
89.39626598242525
 20
-117.619177216689
 30
0.0
 10
89.21849905538635
 20
-117.3228990049575
 30
0.0
 10
89.17819143820893
 20
-117.1938801790349
 30
0.0
 10
89.05761309622518
 20
-117.4582912575278
 30
0.0
 10
88.89500458932139
 20
-117.6360581845667
 30
0.0
 10
88.7131035477002
 20
-117.7502630999027
 30
0.0
 10
88.7131035477002
 20
-117.7502630999027
 30
0.0
 10
88.5160440859439
 20
-117.6128037900413
 30
0.0
 10
88.5160440859439
 20
-117.6128037900413
 30
0.0
 10
88.58597952429449
 20
-117.5874823382247
 30
0.0
 10
88.73205157286907
 20
-117.5259873838129
 30
0.0
 10
88.85469697214397
 20
-117.3716471060738
 30
0.0
 10
88.97940942871001
 20
-117.2150675162692
 30
0.0
 10
89.06829289222946
 20
-116.9823513162405
 30
0.0
 10
89.06829289222946
 20
-116.7222466071042
 30
0.0
 10
89.06829289222946
 20
-116.6206162902893
 30
0.0
 10
89.05554603893404
 20
-116.5487860494218
 30
0.0
 10
89.04521075247828
 20
-116.5021050055967
 30
0.0
 10
89.04521075247828
 20
-116.5021050055967
 30
0.0
 10
89.25019393385065
 20
-116.523292342831
 30
0.0
 10
89.25019393385065
 20
-116.523292342831
 30
0.0
 10
89.2715535258592
 20
-116.5253594001221
 30
0.0
 10
89.29256860831923
 20
-116.5275987121876
 30
0.0
 10
89.29256860831923
 20
-116.5487860494218
 30
0.0
 10
89.29256860831923
 20
-116.5677340745907
 30
0.0
 10
89.28188881231495
 20
-116.5761745585296
 30
0.0
 10
89.2481268765595
 20
-116.5973618957639
 30
0.0
 10
89.2398586473949
 20
-116.7983832173282
 30
0.0
 10
89.29670272290153
 20
-117.0416069585868
 30
0.0
 10
89.35802542253897
 20
-117.1621853005706
 30
0.0
 10
89.44897594334957
 20
-117.337712915544
 30
0.0
 10
89.64362383826618
 20
-117.5175468998741
 30
0.0
 10
89.7790160908365
 20
-117.5747354849292
 30
0.0
 10
89.7790160908365
 20
-117.5747354849292
 30
0.0
 10
89.63742266639274
 20
-117.7545694692593
 30
0.0
 10
89.63742266639274
 20
-117.7545694692593
 30
0.0
  0
HATCH
  5
9B
330
79
100
AcDbEntity
  8
_U+30EC_U+30A4_U+30E4_U+30FC 1
 62
   179
420
  2234388
100
AcDbHatch
 10
0.0
 20
0.0
 30
0.0
210
0.0
220
0.0
230
1.0
  2
SOLID
 70
     1
 71
     0
 91
        6
 92
        1
 93
        1
 72
     4
 94
        3
 73
     0
 74
     1
 95
      197
 96
      193
 40
0.0
 40
0.0
 40
0.0
 40
0.0
 40
1.0
 40
1.0
 40
1.0
 40
2.0
 40
2.0
 40
2.0
 40
3.0
 40
3.0
 40
3.0
 40
4.0
 40
4.0
 40
4.0
 40
5.0
 40
5.0
 40
5.0
 40
6.0
 40
6.0
 40
6.0
 40
7.0
 40
7.0
 40
7.0
 40
8.0
 40
8.0
 40
8.0
 40
9.0
 40
9.0
 40
9.0
 40
10.0
 40
10.0
 40
10.0
 40
11.0
 40
11.0
 40
11.0
 40
12.0
 40
12.0
 40
12.0
 40
13.0
 40
13.0
 40
13.0
 40
14.0
 40
14.0
 40
14.0
 40
15.0
 40
15.0
 40
15.0
 40
16.0
 40
16.0
 40
16.0
 40
17.0
 40
17.0
 40
17.0
 40
18.0
 40
18.0
 40
18.0
 40
19.0
 40
19.0
 40
19.0
 40
20.0
 40
20.0
 40
20.0
 40
21.0
 40
21.0
 40
21.0
 40
22.0
 40
22.0
 40
22.0
 40
23.0
 40
23.0
 40
23.0
 40
24.0
 40
24.0
 40
24.0
 40
25.0
 40
25.0
 40
25.0
 40
26.0
 40
26.0
 40
26.0
 40
27.0
 40
27.0
 40
27.0
 40
28.0
 40
28.0
 40
28.0
 40
29.0
 40
29.0
 40
29.0
 40
30.0
 40
30.0
 40
30.0
 40
31.0
 40
31.0
 40
31.0
 40
32.0
 40
32.0
 40
32.0
 40
33.0
 40
33.0
 40
33.0
 40
34.0
 40
34.0
 40
34.0
 40
35.0
 40
35.0
 40
35.0
 40
36.0
 40
36.0
 40
36.0
 40
37.0
 40
37.0
 40
37.0
 40
38.0
 40
38.0
 40
38.0
 40
39.0
 40
39.0
 40
39.0
 40
40.0
 40
40.0
 40
40.0
 40
41.0
 40
41.0
 40
41.0
 40
42.0
 40
42.0
 40
42.0
 40
43.0
 40
43.0
 40
43.0
 40
44.0
 40
44.0
 40
44.0
 40
45.0
 40
45.0
 40
45.0
 40
46.0
 40
46.0
 40
46.0
 40
47.0
 40
47.0
 40
47.0
 40
48.0
 40
48.0
 40
48.0
 40
49.0
 40
49.0
 40
49.0
 40
50.0
 40
50.0
 40
50.0
 40
51.0
 40
51.0
 40
51.0
 40
52.0
 40
52.0
 40
52.0
 40
53.0
 40
53.0
 40
53.0
 40
54.0
 40
54.0
 40
54.0
 40
55.0
 40
55.0
 40
55.0
 40
56.0
 40
56.0
 40
56.0
 40
57.0
 40
57.0
 40
57.0
 40
58.0
 40
58.0
 40
58.0
 40
59.0
 40
59.0
 40
59.0
 40
60.0
 40
60.0
 40
60.0
 40
61.0
 40
61.0
 40
61.0
 40
62.0
 40
62.0
 40
62.0
 40
63.0
 40
63.0
 40
63.0
 40
64.0
 40
64.0
 40
64.0
 40
64.0
 10
89.72217201532987
 20
-116.3985798862649
 10
89.7114922193256
 20
-116.4280354526638
 10
89.6880655700259
 20
-116.474716496489
 10
89.67773028357016
 20
-116.5021050055967
 10
89.67773028357016
 20
-116.5021050055967
 10
89.61640758393271
 20
-116.654550480819
 10
89.61640758393271
 20
-116.654550480819
 10
89.60572778792843
 20
-116.6798719326356
 10
89.55715194158641
 20
-116.7920097906805
 10
89.54440508829099
 20
-116.8152641852059
 10
89.54233803099983
 20
-116.8216376118536
 10
89.53785940686902
 20
-116.8300780957925
 10
89.53579234957786
 20
-116.8364515224402
 10
89.53579234957786
 20
-116.8364515224402
 10
89.32633054407466
 20
-116.7835693067416
 10
89.32633054407466
 20
-116.7835693067416
 10
89.40487872113837
 20
-116.6734985059879
 10
89.46620142077582
 20
-116.5381062534176
 10
89.49789629924011
 20
-116.4280354526638
 10
89.49789629924011
 20
-116.4280354526638
 10
89.03246389918286
 20
-116.4280354526638
 10
89.03246389918286
 20
-116.4280354526638
 10
88.95184866482802
 20
-116.5930555264073
 10
88.88432479331712
 20
-116.6714314486967
 10
88.85056285756167
 20
-116.7115668110999
 10
88.85056285756167
 20
-116.7115668110999
 10
88.72791745828677
 20
-116.6459377421059
 10
88.72791745828677
 20
-116.6459377421059
 10
88.72791745828677
 20
-116.6459377421059
 10
88.72791745828677
 20
-116.8173312424971
 10
88.72791745828677
 20
-116.8173312424971
 10
88.72791745828677
 20
-116.9253349859596
 10
88.72998451557793
 20
-116.9739108323017
 10
88.74031980203367
 20
-117.0796752636988
 10
88.66866181594048
 20
-117.0776082064077
 10
88.64730222393193
 20
-117.0776082064077
 10
88.44231904255956
 20
-117.0776082064077
 10
88.44231904255956
 20
-117.0776082064077
 10
88.38719751479556
 20
-117.0776082064077
 10
88.38719751479556
 20
-117.0776082064077
 10
88.38719751479556
 20
-117.0776082064077
 10
88.38719751479556
 20
-117.213000458978
 10
88.38719751479556
 20
-117.213000458978
 10
88.38719751479556
 20
-117.213000458978
 10
88.45920001043729
 20
-117.213000458978
 10
88.45920001043729
 20
-117.213000458978
 10
88.52465682465703
 20
-117.213000458978
 10
88.67072887323162
 20
-117.2086940896214
 10
88.7764933046288
 20
-117.2002536056826
 10
88.7764933046288
 20
-117.2002536056826
 10
88.7764933046288
 20
-117.3780205327215
 10
88.7764933046288
 20
-117.3780205327215
 10
88.67899710239622
 20
-117.3716471060738
 10
88.52052271007473
 20
-117.3673407367172
 10
88.45920001043729
 20
-117.3673407367172
 10
88.45920001043729
 20
-117.3673407367172
 10
88.38719751479556
 20
-117.3673407367172
 10
88.38719751479556
 20
-117.3673407367172
 10
88.38926457208672
 20
-117.4562242002366
 10
88.39339868666902
 20
-117.695313826913
 10
88.39546574396016
 20
-117.7693833798458
 10
88.39546574396016
 20
-117.7693833798458
 10
88.1946166771701
 20
-117.7693833798458
 10
88.1946166771701
 20
-117.7693833798458
 10
88.20736353046553
 20
-117.5556152049861
 10
88.20736353046553
 20
-117.5259873838129
 10
88.21149764504783
 20
-117.3673407367172
 10
88.21149764504783
 20
-117.3673407367172
 10
88.14190671624577
 20
-117.3673407367172
 10
88.14190671624577
 20
-117.3673407367172
 10
88.08471813119063
 20
-117.3673407367172
 10
87.93244491074259
 20
-117.3716471060738
 10
87.82220185521459
 20
-117.3780205327215
 10
87.82220185521459
 20
-117.3780205327215
 10
87.82220185521459
 20
-117.2002536056826
 10
87.82220185521459
 20
-117.2002536056826
 10
87.92796628661176
 20
-117.2086940896214
 10
88.0719712778952
 20
-117.213000458978
 10
88.14190671624577
 20
-117.213000458978
 10
88.14190671624577
 20
-117.213000458978
 10
88.21563175963013
 20
-117.213000458978
 10
88.21563175963013
 20
-117.213000458978
 10
88.21563175963013
 20
-117.213000458978
 10
88.21563175963013
 20
-117.0776082064077
 10
88.21563175963013
 20
-117.0776082064077
 10
88.21563175963013
 20
-117.0776082064077
 10
88.17153453741892
 20
-117.0776082064077
 10
88.17153453741892
 20
-117.0776082064077
 10
88.09505341764638
 20
-117.0776082064077
 10
87.90281708956944
 20
-117.0796752636988
 10
87.86871064426546
 20
-117.0796752636988
 10
87.87525632568745
 20
-117.0078450228314
 10
87.88352455485204
 20
-116.9274020432508
 10
87.88352455485204
 20
-116.806823701267
 10
87.88352455485204
 20
-116.806823701267
 10
87.88352455485204
 20
-116.6333631435847
 10
87.88352455485204
 20
-116.6333631435847
 10
87.88352455485204
 20
-116.561360647943
 10
87.87525632568745
 20
-116.4407823059593
 10
87.86871064426546
 20
-116.3605115811529
 10
87.94725882132916
 20
-116.3646456957352
 10
87.98515487166691
 20
-116.3667127530264
 10
88.11227889507263
 20
-116.3667127530264
 10
88.11227889507263
 20
-116.3667127530264
 10
88.21563175963013
 20
-116.3667127530264
 10
88.21563175963013
 20
-116.3667127530264
 10
88.21563175963013
 20
-116.3667127530264
 10
88.21563175963013
 20
-116.2208129592261
 10
88.21563175963013
 20
-116.2208129592261
 10
88.21563175963013
 20
-116.2208129592261
 10
88.13742809211496
 20
-116.2208129592261
 10
88.13742809211496
 20
-116.2208129592261
 10
88.08265107389948
 20
-116.2208129592261
 10
87.91108531873404
 20
-116.2251193285826
 10
87.82668047934541
 20
-116.2313205004561
 10
87.82668047934541
 20
-116.2313205004561
 10
87.82668047934541
 20
-116.0537258281914
 10
87.82668047934541
 20
-116.0537258281914
 10
87.9090182614429
 20
-116.0600992548391
 10
88.0719712778952
 20
-116.0642333694214
 10
88.13742809211496
 20
-116.0642333694214
 10
88.13742809211496
 20
-116.0642333694214
 10
88.21563175963013
 20
-116.0642333694214
 10
88.21563175963013
 20
-116.0642333694214
 10
88.21563175963013
 20
-116.030471433666
 10
88.21149764504783
 20
-115.8759589011525
 10
88.21149764504783
 20
-115.8442640226883
 10
88.21149764504783
 20
-115.8442640226883
 10
88.40821259725558
 20
-115.861144990566
 10
88.40821259725558
 20
-115.861144990566
 10
88.42509356513331
 20
-115.8632120478571
 10
88.44645315714186
 20
-115.8654513599225
 10
88.44645315714186
 20
-115.8864664423826
 10
88.44645315714186
 20
-115.9098930916822
 10
88.42509356513331
 20
-115.9183335756211
 10
88.39787731079984
 20
-115.9309081741423
 10
88.39787731079984
 20
-115.9520955113766
 10
88.39546574396016
 20
-116.0473524015437
 10
88.39546574396016
 20
-116.0642333694214
 10
88.39546574396016
 20
-116.0642333694214
 10
88.45472138630646
 20
-116.0642333694214
 10
88.45472138630646
 20
-116.0642333694214
 10
88.52258976736589
 20
-116.0642333694214
 10
88.6662502491008
 20
-116.0600992548391
 10
88.77201468049797
 20
-116.0537258281914
 10
88.77201468049797
 20
-116.0537258281914
 10
88.77201468049797
 20
-116.2313205004561
 10
88.77201468049797
 20
-116.2313205004561
 10
88.67486298781392
 20
-116.2251193285826
 10
88.51845565278359
 20
-116.2208129592261
 10
88.45472138630646
 20
-116.2208129592261
 10
88.45472138630646
 20
-116.2208129592261
 10
88.38719751479556
 20
-116.2208129592261
 10
88.38719751479556
 20
-116.2208129592261
 10
88.38719751479556
 20
-116.2208129592261
 10
88.38719751479556
 20
-116.3667127530264
 10
88.38719751479556
 20
-116.3667127530264
 10
88.38719751479556
 20
-116.3667127530264
 10
88.45713295314614
 20
-116.3667127530264
 10
88.45713295314614
 20
-116.3667127530264
 10
88.60699460675451
 20
-116.3667127530264
 10
88.67899710239622
 20
-116.3625786384441
 10
88.74031980203367
 20
-116.3605115811529
 10
88.73205157286907
 20
-116.4555962165458
 10
88.72998451557793
 20
-116.5339721388353
 10
88.72791745828677
 20
-116.5720404439473
 10
88.88225773602596
 20
-116.3605115811529
 10
88.98802216742314
 20
-116.1129814705377
 10
89.00490313530086
 20
-115.850637449336
 10
89.00490313530086
 20
-115.850637449336
 10
89.2205661126775
 20
-115.9012803529691
 10
89.2205661126775
 20
-115.9012803529691
 10
89.23538002326407
 20
-115.9055867223257
 10
89.25019393385065
 20
-115.9119601489734
 10
89.25019393385065
 20
-115.9288411168511
 10
89.25019393385065
 20
-115.9457220847289
 10
89.24605981926835
 20
-115.9479613967943
 10
89.19541691563518
 20
-115.9689764792543
 10
89.17819143820893
 20
-116.0452853442526
 10
89.1530422411666
 20
-116.1362358650632
 10
89.10446639482458
 20
-116.2631876336946
 10
89.10446639482458
 20
-116.2631876336946
 10
89.44277477147611
 20
-116.2631876336946
 10
89.44277477147611
 20
-116.2631876336946
 10
89.48101533136239
 20
-116.2631876336946
 10
89.60986190251073
 20
-116.2588812643381
 10
89.65843774885276
 20
-116.2525078376903
 10
89.65843774885276
 20
-116.2525078376903
 10
89.75179983650303
 20
-116.3222710212667
 10
89.75179983650303
 20
-116.3222710212667
 10
89.7431870977899
 20
-116.3434583585009
 10
89.73698592591646
 20
-116.3625786384441
 10
89.72217201532987
 20
-116.3985798862649
 97
        0
 97
        0
 92
        1
 93
        4
 72
     1
 10
88.21563175963013
 20
-116.523292342831
 11
88.05715736730863
 21
-116.523292342831
 72
     1
 10
88.05715736730863
 20
-116.523292342831
 11
88.05715736730863
 21
-116.6523111687536
 72
     1
 10
88.05715736730863
 20
-116.6523111687536
 11
88.21563175963013
 21
-116.6523111687536
 72
     1
 10
88.21563175963013
 20
-116.6523111687536
 11
88.21563175963013
 21
-116.523292342831
 97
        0
 92
        1
 93
        4
 72
     1
 10
88.21563175963013
 20
-116.7961439052628
 11
88.05715736730863
 21
-116.7961439052628
 72
     1
 10
88.05715736730863
 20
-116.7961439052628
 11
88.05715736730863
 21
-116.9253349859596
 72
     1
 10
88.05715736730863
 20
-116.9253349859596
 11
88.21563175963013
 21
-116.9253349859596
 72
     1
 10
88.21563175963013
 20
-116.9253349859596
 11
88.21563175963013
 21
-116.7961439052628
 97
        0
 92
        1
 93
        4
 72
     1
 10
88.54808347395674
 20
-116.523292342831
 11
88.38719751479556
 21
-116.523292342831
 72
     1
 10
88.38719751479556
 20
-116.523292342831
 11
88.38719751479556
 21
-116.6523111687536
 72
     1
 10
88.38719751479556
 20
-116.6523111687536
 11
88.54808347395674
 21
-116.6523111687536
 72
     1
 10
88.54808347395674
 20
-116.6523111687536
 11
88.54808347395674
 21
-116.523292342831
 97
        0
 92
        1
 93
        4
 72
     1
 10
88.54808347395674
 20
-116.7961439052628
 11
88.38719751479556
 21
-116.7961439052628
 72
     1
 10
88.38719751479556
 20
-116.7961439052628
 11
88.38719751479556
 21
-116.9253349859596
 72
     1
 10
88.38719751479556
 20
-116.9253349859596
 11
88.54808347395674
 21
-116.9253349859596
 72
     1
 10
88.54808347395674
 20
-116.9253349859596
 11
88.54808347395674
 21
-116.7961439052628
 97
        0
 92
        1
 93
        1
 72
     4
 94
        3
 73
     0
 74
     1
 95
       41
 96
       37
 40
0.0
 40
0.0
 40
0.0
 40
0.0
 40
1.0
 40
1.0
 40
1.0
 40
2.0
 40
2.0
 40
2.0
 40
3.0
 40
3.0
 40
3.0
 40
4.0
 40
4.0
 40
4.0
 40
5.0
 40
5.0
 40
5.0
 40
6.0
 40
6.0
 40
6.0
 40
7.0
 40
7.0
 40
7.0
 40
8.0
 40
8.0
 40
8.0
 40
9.0
 40
9.0
 40
9.0
 40
10.0
 40
10.0
 40
10.0
 40
11.0
 40
11.0
 40
11.0
 40
12.0
 40
12.0
 40
12.0
 40
12.0
 10
89.63742266639274
 20
-117.7545694692593
 10
89.39626598242525
 20
-117.619177216689
 10
89.21849905538635
 20
-117.3228990049575
 10
89.17819143820893
 20
-117.1938801790349
 10
89.05761309622518
 20
-117.4582912575278
 10
88.89500458932139
 20
-117.6360581845667
 10
88.7131035477002
 20
-117.7502630999027
 10
88.7131035477002
 20
-117.7502630999027
 10
88.5160440859439
 20
-117.6128037900413
 10
88.5160440859439
 20
-117.6128037900413
 10
88.58597952429449
 20
-117.5874823382247
 10
88.73205157286907
 20
-117.5259873838129
 10
88.85469697214397
 20
-117.3716471060738
 10
88.97940942871001
 20
-117.2150675162692
 10
89.06829289222946
 20
-116.9823513162405
 10
89.06829289222946
 20
-116.7222466071042
 10
89.06829289222946
 20
-116.6206162902893
 10
89.05554603893404
 20
-116.5487860494218
 10
89.04521075247828
 20
-116.5021050055967
 10
89.04521075247828
 20
-116.5021050055967
 10
89.25019393385065
 20
-116.523292342831
 10
89.25019393385065
 20
-116.523292342831
 10
89.2715535258592
 20
-116.5253594001221
 10
89.29256860831923
 20
-116.5275987121876
 10
89.29256860831923
 20
-116.5487860494218
 10
89.29256860831923
 20
-116.5677340745907
 10
89.28188881231495
 20
-116.5761745585296
 10
89.2481268765595
 20
-116.5973618957639
 10
89.2398586473949
 20
-116.7983832173282
 10
89.29670272290153
 20
-117.0416069585868
 10
89.35802542253897
 20
-117.1621853005706
 10
89.44897594334957
 20
-117.337712915544
 10
89.64362383826618
 20
-117.5175468998741
 10
89.7790160908365
 20
-117.5747354849292
 10
89.7790160908365
 20
-117.5747354849292
 10
89.63742266639274
 20
-117.7545694692593
 10
89.63742266639274
 20
-117.7545694692593
 97
        0
 97
        0
 75
     2
 76
     1
 98
        0
  0
SPLINE
  5
9C
330
79
100
AcDbEntity
  8
_U+30EC_U+30A4_U+30E4_U+30FC 1
370
     0
100
AcDbSpline
210
0.0
220
0.0
230
1.0
 70
    11
 71
     3
 72
    71
 73
    67
 74
     0
 42
0.0000000001
 43
0.0000000001
 12
1.0
 22
0.0
 32
0.0
 13
1.0
 23
0.0
 33
0.0
 40
0.0
 40
0.0
 40
0.0
 40
0.0
 40
1.0
 40
1.0
 40
1.0
 40
2.0
 40
2.0
 40
2.0
 40
3.0
 40
3.0
 40
3.0
 40
4.0
 40
4.0
 40
4.0
 40
5.0
 40
5.0
 40
5.0
 40
6.0
 40
6.0
 40
6.0
 40
7.0
 40
7.0
 40
7.0
 40
8.0
 40
8.0
 40
8.0
 40
9.0
 40
9.0
 40
9.0
 40
10.0
 40
10.0
 40
10.0
 40
11.0
 40
11.0
 40
11.0
 40
12.0
 40
12.0
 40
12.0
 40
13.0
 40
13.0
 40
13.0
 40
14.0
 40
14.0
 40
14.0
 40
15.0
 40
15.0
 40
15.0
 40
16.0
 40
16.0
 40
16.0
 40
17.0
 40
17.0
 40
17.0
 40
18.0
 40
18.0
 40
18.0
 40
19.0
 40
19.0
 40
19.0
 40
20.0
 40
20.0
 40
20.0
 40
21.0
 40
21.0
 40
21.0
 40
22.0
 40
22.0
 40
22.0
 40
22.0
 10
90.83183727112885
 20
-116.0218586949529
 30
0.0
 10
90.81702336054228
 20
-116.0218586949529
 30
0.0
 10
90.80427650724685
 20
-116.0177245803706
 30
0.0
 10
90.778782800656
 20
-116.0092840964317
 30
0.0
 10
90.63718937621223
 20
-116.0557928854826
 30
0.0
 10
90.46355656375565
 20
-116.0726738533603
 30
0.0
 10
90.32403019660302
 20
-116.0769802227169
 30
0.0
 10
90.32403019660302
 20
-116.0769802227169
 30
0.0
 10
90.32196313931188
 20
-116.1658636862363
 30
0.0
 10
90.32196313931188
 20
-116.1658636862363
 30
0.0
 10
90.32196313931188
 20
-116.1658636862363
 30
0.0
 10
90.58206784844823
 20
-116.1658636862363
 30
0.0
 10
90.58206784844823
 20
-116.1658636862363
 30
0.0
 10
90.63512231892109
 20
-116.1658636862363
 30
0.0
 10
90.81702336054228
 20
-116.1572509475232
 30
0.0
 10
90.861465092302
 20
-116.1510497756497
 30
0.0
 10
90.861465092302
 20
-116.1510497756497
 30
0.0
 10
90.861465092302
 20
-116.3117634800366
 30
0.0
 10
90.861465092302
 20
-116.3117634800366
 30
0.0
 10
90.806343564538
 20
-116.3053900533889
 30
0.0
 10
90.68163110797195
 20
-116.3033229960978
 30
0.0
 10
90.64339054808569
 20
-116.3053900533889
 30
0.0
 10
90.64339054808569
 20
-116.3053900533889
 30
0.0
 10
90.64339054808569
 20
-116.4154608541427
 30
0.0
 10
90.64339054808569
 20
-116.4154608541427
 30
0.0
 10
90.64339054808569
 20
-116.4619696431935
 30
0.0
 10
90.64545760537683
 20
-116.5253594001221
 30
0.0
 10
90.6520032867988
 20
-116.5634277052341
 30
0.0
 10
90.6520032867988
 20
-116.5634277052341
 30
0.0
 10
90.45942244917335
 20
-116.5634277052341
 30
0.0
 10
90.45942244917335
 20
-116.5634277052341
 30
0.0
 10
90.46562362104679
 20
-116.523292342831
 30
0.0
 10
90.47216930246877
 20
-116.4407823059593
 30
0.0
 10
90.47216930246877
 20
-116.4259683953727
 30
0.0
 10
90.47216930246877
 20
-116.4259683953727
 30
0.0
 10
90.47216930246877
 20
-116.3053900533889
 30
0.0
 10
90.47216930246877
 20
-116.3053900533889
 30
0.0
 10
90.47216930246877
 20
-116.3053900533889
 30
0.0
 10
90.3071492287253
 20
-116.3053900533889
 30
0.0
 10
90.3071492287253
 20
-116.3053900533889
 30
0.0
 10
90.26477455425673
 20
-116.5253594001221
 30
0.0
 10
90.20965302649273
 20
-116.6058023797027
 30
0.0
 10
90.10388859509555
 20
-116.7051933844522
 30
0.0
 10
90.10388859509555
 20
-116.7051933844522
 30
0.0
 10
89.93680146406095
 20
-116.5909884691161
 30
0.0
 10
89.93680146406095
 20
-116.5909884691161
 30
0.0
 10
90.00019122098954
 20
-116.5424126227741
 30
0.0
 10
90.15039738414643
 20
-116.4302747647292
 30
0.0
 10
90.15039738414643
 20
-116.0811143372992
 30
0.0
 10
90.15039738414643
 20
-115.9986043004274
 30
0.0
 10
90.14212915498183
 20
-115.9520955113766
 30
0.0
 10
90.1335164162687
 20
-115.9035196650345
 30
0.0
 10
90.2795884648433
 20
-115.9183335756211
 30
0.0
 10
90.29440237542988
 20
-115.9183335756211
 30
0.0
 10
90.33023136847648
 20
-115.9183335756211
 30
0.0
 10
90.43840736671332
 20
-115.9183335756211
 30
0.0
 10
90.58000079115709
 20
-115.9012803529691
 30
0.0
 10
90.74088675031825
 20
-115.8399576533317
 30
0.0
 10
90.74088675031825
 20
-115.8399576533317
 30
0.0
 10
90.85491941088003
 20
-115.9712157913197
 30
0.0
 10
90.85491941088003
 20
-115.9712157913197
 30
0.0
 10
90.861465092302
 20
-115.9775892179674
 30
0.0
 10
90.8655992068843
 20
-115.9860297019063
 30
0.0
 10
90.8655992068843
 20
-115.9944701858451
 30
0.0
 10
90.8655992068843
 20
-116.0177245803706
 30
0.0
 10
90.84665118171543
 20
-116.0218586949529
 30
0.0
 10
90.83183727112885
 20
-116.0218586949529
 30
0.0
  0
SPLINE
  5
9D
330
79
100
AcDbEntity
  8
_U+30EC_U+30A4_U+30E4_U+30FC 1
370
     0
100
AcDbSpline
210
0.0
220
0.0
230
1.0
 70
    11
 71
     3
 72
    74
 73
    70
 74
     0
 42
0.0000000001
 43
0.0000000001
 12
1.0
 22
0.0
 32
0.0
 13
1.0
 23
0.0
 33
0.0
 40
0.0
 40
0.0
 40
0.0
 40
0.0
 40
1.0
 40
1.0
 40
1.0
 40
2.0
 40
2.0
 40
2.0
 40
3.0
 40
3.0
 40
3.0
 40
4.0
 40
4.0
 40
4.0
 40
5.0
 40
5.0
 40
5.0
 40
6.0
 40
6.0
 40
6.0
 40
7.0
 40
7.0
 40
7.0
 40
8.0
 40
8.0
 40
8.0
 40
9.0
 40
9.0
 40
9.0
 40
10.0
 40
10.0
 40
10.0
 40
11.0
 40
11.0
 40
11.0
 40
12.0
 40
12.0
 40
12.0
 40
13.0
 40
13.0
 40
13.0
 40
14.0
 40
14.0
 40
14.0
 40
15.0
 40
15.0
 40
15.0
 40
16.0
 40
16.0
 40
16.0
 40
17.0
 40
17.0
 40
17.0
 40
18.0
 40
18.0
 40
18.0
 40
19.0
 40
19.0
 40
19.0
 40
20.0
 40
20.0
 40
20.0
 40
21.0
 40
21.0
 40
21.0
 40
22.0
 40
22.0
 40
22.0
 40
23.0
 40
23.0
 40
23.0
 40
23.0
 10
91.66916772881882
 20
-117.7883314050147
 30
0.0
 10
91.45557180873334
 20
-117.7778238637847
 30
0.0
 10
91.25489499671752
 20
-117.6910074575564
 30
0.0
 10
91.0791951269698
 20
-117.5704291155727
 30
0.0
 10
91.0791951269698
 20
-117.5704291155727
 30
0.0
 10
91.17669132920236
 20
-117.4837849641186
 30
0.0
 10
91.17669132920236
 20
-117.4837849641186
 30
0.0
 10
91.17669132920236
 20
-117.4837849641186
 30
0.0
 10
90.62444252291681
 20
-117.4837849641186
 30
0.0
 10
90.62444252291681
 20
-117.4837849641186
 30
0.0
 10
90.62444252291681
 20
-117.4837849641186
 30
0.0
 10
90.70471324772313
 20
-117.5471747210472
 30
0.0
 10
90.70471324772313
 20
-117.5471747210472
 30
0.0
 10
90.7112589291451
 20
-117.5514810904038
 30
0.0
 10
90.72159421560086
 20
-117.5619886316338
 30
0.0
 10
90.72159421560086
 20
-117.5768025422204
 30
0.0
 10
90.72159421560086
 20
-117.6171101593978
 30
0.0
 10
90.64752466266799
 20
-117.6107367327501
 30
0.0
 10
90.63271075208141
 20
-117.6084974206847
 30
0.0
 10
90.4022338641182
 20
-117.7481960426116
 30
0.0
 10
90.25857338238328
 20
-117.7798909210759
 30
0.0
 10
90.15487600827726
 20
-117.7967718889536
 30
0.0
 10
90.15487600827726
 20
-117.7967718889536
 30
0.0
 10
90.02568492758039
 20
-117.619177216689
 30
0.0
 10
90.02568492758039
 20
-117.619177216689
 30
0.0
 10
90.27338729296986
 20
-117.5874823382247
 30
0.0
 10
90.3746731002362
 20
-117.5408012943995
 30
0.0
 10
90.46355656375565
 20
-117.4879190787009
 30
0.0
 10
90.38948701082278
 20
-117.4901583907664
 30
0.0
 10
90.275454350261
 20
-117.4922254480575
 30
0.0
 10
90.24375947179671
 20
-117.4942925053487
 30
0.0
 10
90.25857338238328
 20
-117.4054090418292
 30
0.0
 10
90.26064043967443
 20
-117.2763902159066
 30
0.0
 10
90.26064043967443
 20
-117.2023206629737
 30
0.0
 10
90.26064043967443
 20
-117.2023206629737
 30
0.0
 10
90.26064043967443
 20
-116.9020805914342
 30
0.0
 10
90.26064043967443
 20
-116.9020805914342
 30
0.0
 10
90.26064043967443
 20
-116.8025173319105
 30
0.0
 10
90.25409475825245
 20
-116.703126327161
 30
0.0
 10
90.24375947179671
 20
-116.6058023797027
 30
0.0
 10
90.34504527906304
 20
-116.6121758063504
 30
0.0
 10
90.57586667657479
 20
-116.6185492329981
 30
0.0
 10
90.68369816526311
 20
-116.6185492329981
 30
0.0
 10
90.68369816526311
 20
-116.6185492329981
 30
0.0
 10
91.10675589085179
 20
-116.6185492329981
 30
0.0
 10
91.10675589085179
 20
-116.6185492329981
 30
0.0
 10
91.22526717554439
 20
-116.6185492329981
 30
0.0
 10
91.26764185001295
 20
-116.6185492329981
 30
0.0
 10
91.34997963211043
 20
-116.6142428636416
 30
0.0
 10
91.4979464832019
 20
-116.6078694369939
 30
0.0
 10
91.51482745107963
 20
-116.6078694369939
 30
0.0
 10
91.5613362401305
 20
-116.6058023797027
 30
0.0
 10
91.5530680109659
 20
-116.6862453592833
 30
0.0
 10
91.54858938683508
 20
-116.8448920063791
 30
0.0
 10
91.54858938683508
 20
-116.9274020432508
 30
0.0
 10
91.54858938683508
 20
-116.9274020432508
 30
0.0
 10
91.54858938683508
 20
-117.213000458978
 30
0.0
 10
91.54858938683508
 20
-117.213000458978
 30
0.0
 10
91.54858938683508
 20
-117.2848306998455
 30
0.0
 10
91.55065644412623
 20
-117.4160888378335
 30
0.0
 10
91.5613362401305
 20
-117.4942925053487
 30
0.0
 10
91.48933374448877
 20
-117.4901583907664
 30
0.0
 10
91.36686059998814
 20
-117.4879190787009
 30
0.0
 10
91.28865693247297
 20
-117.4858520214098
 30
0.0
 10
91.39838322367818
 20
-117.553548147695
 30
0.0
 10
91.55065644412623
 20
-117.6043633061024
 30
0.0
 10
91.7625298164691
 20
-117.6084974206847
 30
0.0
 10
91.7625298164691
 20
-117.6084974206847
 30
0.0
 10
91.66916772881882
 20
-117.7883314050147
 30
0.0
 10
91.66916772881882
 20
-117.7883314050147
 30
0.0
  0
POLYLINE
  5
9E
330
79
100
AcDbEntity
  8
_U+30EC_U+30A4_U+30E4_U+30FC 1
370
     0
100
AcDb2dPolyline
 66
     1
 10
0.0
 20
0.0
 30
0.0
  0
VERTEX
  5
9F
330
9E
100
AcDbEntity
  8
_U+30EC_U+30A4_U+30E4_U+30FC 1
370
     0
100
AcDbVertex
100
AcDb2dVertex
 10
91.364793542697
 20
-116.7539414855685
 30
0.0
  0
VERTEX
  5
A0
330
9E
100
AcDbEntity
  8
_U+30EC_U+30A4_U+30E4_U+30FC 1
370
     0
100
AcDbVertex
100
AcDb2dVertex
 10
90.45287676775136
 20
-116.7539414855685
 30
0.0
  0
VERTEX
  5
A1
330
9E
100
AcDbEntity
  8
_U+30EC_U+30A4_U+30E4_U+30FC 1
370
     0
100
AcDbVertex
100
AcDb2dVertex
 10
90.45287676775136
 20
-116.8660793436134
 30
0.0
  0
VERTEX
  5
A2
330
9E
100
AcDbEntity
  8
_U+30EC_U+30A4_U+30E4_U+30FC 1
370
     0
100
AcDbVertex
100
AcDb2dVertex
 10
91.364793542697
 20
-116.8660793436134
 30
0.0
  0
VERTEX
  5
A3
330
9E
100
AcDbEntity
  8
_U+30EC_U+30A4_U+30E4_U+30FC 1
370
     0
100
AcDbVertex
100
AcDb2dVertex
 10
91.364793542697
 20
-116.7539414855685
 30
0.0
  0
SEQEND
  5
A4
330
9E
100
AcDbEntity
  8
_U+30EC_U+30A4_U+30E4_U+30FC 1
370
     0
  0
POLYLINE
  5
A5
330
79
100
AcDbEntity
  8
_U+30EC_U+30A4_U+30E4_U+30FC 1
370
     0
100
AcDb2dPolyline
 66
     1
 10
0.0
 20
0.0
 30
0.0
  0
VERTEX
  5
A6
330
A5
100
AcDbEntity
  8
_U+30EC_U+30A4_U+30E4_U+30FC 1
370
     0
100
AcDbVertex
100
AcDb2dVertex
 10
91.364793542697
 20
-116.9992322841182
 30
0.0
  0
VERTEX
  5
A7
330
A5
100
AcDbEntity
  8
_U+30EC_U+30A4_U+30E4_U+30FC 1
370
     0
100
AcDbVertex
100
AcDb2dVertex
 10
90.45287676775136
 20
-116.9992322841182
 30
0.0
  0
VERTEX
  5
A8
330
A5
100
AcDbEntity
  8
_U+30EC_U+30A4_U+30E4_U+30FC 1
370
     0
100
AcDbVertex
100
AcDb2dVertex
 10
90.45287676775136
 20
-117.109303084872
 30
0.0
  0
VERTEX
  5
A9
330
A5
100
AcDbEntity
  8
_U+30EC_U+30A4_U+30E4_U+30FC 1
370
     0
100
AcDbVertex
100
AcDb2dVertex
 10
91.364793542697
 20
-117.109303084872
 30
0.0
  0
VERTEX
  5
AA
330
A5
100
AcDbEntity
  8
_U+30EC_U+30A4_U+30E4_U+30FC 1
370
     0
100
AcDbVertex
100
AcDb2dVertex
 10
91.364793542697
 20
-116.9992322841182
 30
0.0
  0
SEQEND
  5
AB
330
A5
100
AcDbEntity
  8
_U+30EC_U+30A4_U+30E4_U+30FC 1
370
     0
  0
POLYLINE
  5
AC
330
79
100
AcDbEntity
  8
_U+30EC_U+30A4_U+30E4_U+30FC 1
370
     0
100
AcDb2dPolyline
 66
     1
 10
0.0
 20
0.0
 30
0.0
  0
VERTEX
  5
AD
330
AC
100
AcDbEntity
  8
_U+30EC_U+30A4_U+30E4_U+30FC 1
370
     0
100
AcDbVertex
100
AcDb2dVertex
 10
91.364793542697
 20
-117.2446953374423
 30
0.0
  0
VERTEX
  5
AE
330
AC
100
AcDbEntity
  8
_U+30EC_U+30A4_U+30E4_U+30FC 1
370
     0
100
AcDbVertex
100
AcDb2dVertex
 10
90.45287676775136
 20
-117.2446953374423
 30
0.0
  0
VERTEX
  5
AF
330
AC
100
AcDbEntity
  8
_U+30EC_U+30A4_U+30E4_U+30FC 1
370
     0
100
AcDbVertex
100
AcDb2dVertex
 10
90.45287676775136
 20
-117.3525268261306
 30
0.0
  0
VERTEX
  5
B0
330
AC
100
AcDbEntity
  8
_U+30EC_U+30A4_U+30E4_U+30FC 1
370
     0
100
AcDbVertex
100
AcDb2dVertex
 10
91.364793542697
 20
-117.3525268261306
 30
0.0
  0
VERTEX
  5
B1
330
AC
100
AcDbEntity
  8
_U+30EC_U+30A4_U+30E4_U+30FC 1
370
     0
100
AcDbVertex
100
AcDb2dVertex
 10
91.364793542697
 20
-117.2446953374423
 30
0.0
  0
SEQEND
  5
B2
330
AC
100
AcDbEntity
  8
_U+30EC_U+30A4_U+30E4_U+30FC 1
370
     0
  0
SPLINE
  5
B3
330
79
100
AcDbEntity
  8
_U+30EC_U+30A4_U+30E4_U+30FC 1
370
     0
100
AcDbSpline
210
0.0
220
0.0
230
1.0
 70
    11
 71
     3
 72
    74
 73
    70
 74
     0
 42
0.0000000001
 43
0.0000000001
 12
1.0
 22
0.0
 32
0.0
 13
1.0
 23
0.0
 33
0.0
 40
0.0
 40
0.0
 40
0.0
 40
0.0
 40
1.0
 40
1.0
 40
1.0
 40
2.0
 40
2.0
 40
2.0
 40
3.0
 40
3.0
 40
3.0
 40
4.0
 40
4.0
 40
4.0
 40
5.0
 40
5.0
 40
5.0
 40
6.0
 40
6.0
 40
6.0
 40
7.0
 40
7.0
 40
7.0
 40
8.0
 40
8.0
 40
8.0
 40
9.0
 40
9.0
 40
9.0
 40
10.0
 40
10.0
 40
10.0
 40
11.0
 40
11.0
 40
11.0
 40
12.0
 40
12.0
 40
12.0
 40
13.0
 40
13.0
 40
13.0
 40
14.0
 40
14.0
 40
14.0
 40
15.0
 40
15.0
 40
15.0
 40
16.0
 40
16.0
 40
16.0
 40
17.0
 40
17.0
 40
17.0
 40
18.0
 40
18.0
 40
18.0
 40
19.0
 40
19.0
 40
19.0
 40
20.0
 40
20.0
 40
20.0
 40
21.0
 40
21.0
 40
21.0
 40
22.0
 40
22.0
 40
22.0
 40
23.0
 40
23.0
 40
23.0
 40
23.0
 10
91.68191458211425
 20
-116.3012559388066
 30
0.0
 10
91.68191458211425
 20
-116.3012559388066
 30
0.0
 10
91.52137313250161
 20
-116.3012559388066
 30
0.0
 10
91.52137313250161
 20
-116.3012559388066
 30
0.0
 10
91.52137313250161
 20
-116.3012559388066
 30
0.0
 10
91.52137313250161
 20
-116.4154608541427
 30
0.0
 10
91.52137313250161
 20
-116.4154608541427
 30
0.0
 10
91.52137313250161
 20
-116.4555962165458
 30
0.0
 10
91.52757430437505
 20
-116.5296657694787
 30
0.0
 10
91.53170841895735
 20
-116.5549872212953
 30
0.0
 10
91.53170841895735
 20
-116.5549872212953
 30
0.0
 10
91.32035181093728
 20
-116.5549872212953
 30
0.0
 10
91.32035181093728
 20
-116.5549872212953
 30
0.0
 10
91.33103160694155
 20
-116.4895304070755
 30
0.0
 10
91.33309866423271
 20
-116.4302747647292
 30
0.0
 10
91.33309866423271
 20
-116.4280354526638
 30
0.0
 10
91.33309866423271
 20
-116.4280354526638
 30
0.0
 10
91.33309866423271
 20
-116.3053900533889
 30
0.0
 10
91.33309866423271
 20
-116.3053900533889
 30
0.0
 10
91.33309866423271
 20
-116.3053900533889
 30
0.0
 10
91.15326467990266
 20
-116.3053900533889
 30
0.0
 10
91.15326467990266
 20
-116.3053900533889
 30
0.0
 10
91.13431665473378
 20
-116.3646456957352
 30
0.0
 10
91.08780786568292
 20
-116.5105454895356
 30
0.0
 10
90.97343069557262
 20
-116.5930555264073
 30
0.0
 10
90.97343069557262
 20
-116.5930555264073
 30
0.0
 10
90.81702336054228
 20
-116.4872910950101
 30
0.0
 10
90.81702336054228
 20
-116.4872910950101
 30
0.0
 10
90.89109291347515
 20
-116.4407823059593
 30
0.0
 10
91.00719263132807
 20
-116.3667127530264
 30
0.0
 10
91.00719263132807
 20
-116.0452853442526
 30
0.0
 10
91.00719263132807
 20
-115.9901638164886
 30
0.0
 10
91.00305851674577
 20
-115.9457220847289
 30
0.0
 10
91.00099145945461
 20
-115.9076537796168
 30
0.0
 10
91.07712806967864
 20
-115.9160942635557
 30
0.0
 10
91.1511976226115
 20
-115.9224676902034
 30
0.0
 10
91.2145873795401
 20
-115.9224676902034
 30
0.0
 10
91.39218205180474
 20
-115.9224676902034
 30
0.0
 10
91.59096406130365
 20
-115.8632120478571
 30
0.0
 10
91.6522867609411
 20
-115.833584226684
 30
0.0
 10
91.6522867609411
 20
-115.833584226684
 30
0.0
 10
91.77941078434682
 20
-115.9689764792543
 30
0.0
 10
91.77941078434682
 20
-115.9689764792543
 30
0.0
 10
91.78354489892912
 20
-115.9732828486109
 30
0.0
 10
91.78561195622027
 20
-115.9817233325497
 30
0.0
 10
91.78561195622027
 20
-115.9880967591974
 30
0.0
 10
91.78561195622027
 20
-116.0092840964317
 30
0.0
 10
91.7707980456337
 20
-116.0156575230794
 30
0.0
 10
91.75391707775597
 20
-116.0156575230794
 30
0.0
 10
91.73290199529595
 20
-116.0156575230794
 30
0.0
 10
91.71808808470936
 20
-116.0072170391406
 30
0.0
 10
91.69879554999197
 20
-115.9965372431363
 30
0.0
 10
91.52550724708391
 20
-116.0537258281914
 30
0.0
 10
91.30760495764186
 20
-116.079047280008
 30
0.0
 10
91.17427976236269
 20
-116.0811143372992
 30
0.0
 10
91.17427976236269
 20
-116.0811143372992
 30
0.0
 10
91.17014564778039
 20
-116.1636243741709
 30
0.0
 10
91.17014564778039
 20
-116.1636243741709
 30
0.0
 10
91.17014564778039
 20
-116.1636243741709
 30
0.0
 10
91.44282495543791
 20
-116.1636243741709
 30
0.0
 10
91.44282495543791
 20
-116.1636243741709
 30
0.0
 10
91.50001354049306
 20
-116.1636243741709
 30
0.0
 10
91.7625298164691
 20
-116.144676349002
 30
0.0
 10
91.80662703868029
 20
-116.1383029223543
 30
0.0
 10
91.80662703868029
 20
-116.1383029223543
 30
0.0
 10
91.80662703868029
 20
-116.3074571106801
 30
0.0
 10
91.80662703868029
 20
-116.3074571106801
 30
0.0
 10
91.77286510292484
 20
-116.3033229960978
 30
0.0
 10
91.76011824962941
 20
-116.3012559388066
 30
0.0
 10
91.68191458211425
 20
-116.3012559388066
 30
0.0
  0
HATCH
  5
B4
330
79
100
AcDbEntity
  8
_U+30EC_U+30A4_U+30E4_U+30FC 1
 62
   179
420
  2234388
100
AcDbHatch
 10
0.0
 20
0.0
 30
0.0
210
0.0
220
0.0
230
1.0
  2
SOLID
 70
     1
 71
     0
 91
        6
 92
        1
 93
        1
 72
     4
 94
        3
 73
     0
 74
     1
 95
       71
 96
       67
 40
0.0
 40
0.0
 40
0.0
 40
0.0
 40
1.0
 40
1.0
 40
1.0
 40
2.0
 40
2.0
 40
2.0
 40
3.0
 40
3.0
 40
3.0
 40
4.0
 40
4.0
 40
4.0
 40
5.0
 40
5.0
 40
5.0
 40
6.0
 40
6.0
 40
6.0
 40
7.0
 40
7.0
 40
7.0
 40
8.0
 40
8.0
 40
8.0
 40
9.0
 40
9.0
 40
9.0
 40
10.0
 40
10.0
 40
10.0
 40
11.0
 40
11.0
 40
11.0
 40
12.0
 40
12.0
 40
12.0
 40
13.0
 40
13.0
 40
13.0
 40
14.0
 40
14.0
 40
14.0
 40
15.0
 40
15.0
 40
15.0
 40
16.0
 40
16.0
 40
16.0
 40
17.0
 40
17.0
 40
17.0
 40
18.0
 40
18.0
 40
18.0
 40
19.0
 40
19.0
 40
19.0
 40
20.0
 40
20.0
 40
20.0
 40
21.0
 40
21.0
 40
21.0
 40
22.0
 40
22.0
 40
22.0
 40
22.0
 10
90.83183727112885
 20
-116.0218586949529
 10
90.81702336054228
 20
-116.0218586949529
 10
90.80427650724685
 20
-116.0177245803706
 10
90.778782800656
 20
-116.0092840964317
 10
90.63718937621223
 20
-116.0557928854826
 10
90.46355656375565
 20
-116.0726738533603
 10
90.32403019660302
 20
-116.0769802227169
 10
90.32403019660302
 20
-116.0769802227169
 10
90.32196313931188
 20
-116.1658636862363
 10
90.32196313931188
 20
-116.1658636862363
 10
90.32196313931188
 20
-116.1658636862363
 10
90.58206784844823
 20
-116.1658636862363
 10
90.58206784844823
 20
-116.1658636862363
 10
90.63512231892109
 20
-116.1658636862363
 10
90.81702336054228
 20
-116.1572509475232
 10
90.861465092302
 20
-116.1510497756497
 10
90.861465092302
 20
-116.1510497756497
 10
90.861465092302
 20
-116.3117634800366
 10
90.861465092302
 20
-116.3117634800366
 10
90.806343564538
 20
-116.3053900533889
 10
90.68163110797195
 20
-116.3033229960978
 10
90.64339054808569
 20
-116.3053900533889
 10
90.64339054808569
 20
-116.3053900533889
 10
90.64339054808569
 20
-116.4154608541427
 10
90.64339054808569
 20
-116.4154608541427
 10
90.64339054808569
 20
-116.4619696431935
 10
90.64545760537683
 20
-116.5253594001221
 10
90.6520032867988
 20
-116.5634277052341
 10
90.6520032867988
 20
-116.5634277052341
 10
90.45942244917335
 20
-116.5634277052341
 10
90.45942244917335
 20
-116.5634277052341
 10
90.46562362104679
 20
-116.523292342831
 10
90.47216930246877
 20
-116.4407823059593
 10
90.47216930246877
 20
-116.4259683953727
 10
90.47216930246877
 20
-116.4259683953727
 10
90.47216930246877
 20
-116.3053900533889
 10
90.47216930246877
 20
-116.3053900533889
 10
90.47216930246877
 20
-116.3053900533889
 10
90.3071492287253
 20
-116.3053900533889
 10
90.3071492287253
 20
-116.3053900533889
 10
90.26477455425673
 20
-116.5253594001221
 10
90.20965302649273
 20
-116.6058023797027
 10
90.10388859509555
 20
-116.7051933844522
 10
90.10388859509555
 20
-116.7051933844522
 10
89.93680146406095
 20
-116.5909884691161
 10
89.93680146406095
 20
-116.5909884691161
 10
90.00019122098954
 20
-116.5424126227741
 10
90.15039738414643
 20
-116.4302747647292
 10
90.15039738414643
 20
-116.0811143372992
 10
90.15039738414643
 20
-115.9986043004274
 10
90.14212915498183
 20
-115.9520955113766
 10
90.1335164162687
 20
-115.9035196650345
 10
90.2795884648433
 20
-115.9183335756211
 10
90.29440237542988
 20
-115.9183335756211
 10
90.33023136847648
 20
-115.9183335756211
 10
90.43840736671332
 20
-115.9183335756211
 10
90.58000079115709
 20
-115.9012803529691
 10
90.74088675031825
 20
-115.8399576533317
 10
90.74088675031825
 20
-115.8399576533317
 10
90.85491941088003
 20
-115.9712157913197
 10
90.85491941088003
 20
-115.9712157913197
 10
90.861465092302
 20
-115.9775892179674
 10
90.8655992068843
 20
-115.9860297019063
 10
90.8655992068843
 20
-115.9944701858451
 10
90.8655992068843
 20
-116.0177245803706
 10
90.84665118171543
 20
-116.0218586949529
 10
90.83183727112885
 20
-116.0218586949529
 97
        0
 97
        0
 92
        1
 93
        1
 72
     4
 94
        3
 73
     0
 74
     1
 95
       74
 96
       70
 40
0.0
 40
0.0
 40
0.0
 40
0.0
 40
1.0
 40
1.0
 40
1.0
 40
2.0
 40
2.0
 40
2.0
 40
3.0
 40
3.0
 40
3.0
 40
4.0
 40
4.0
 40
4.0
 40
5.0
 40
5.0
 40
5.0
 40
6.0
 40
6.0
 40
6.0
 40
7.0
 40
7.0
 40
7.0
 40
8.0
 40
8.0
 40
8.0
 40
9.0
 40
9.0
 40
9.0
 40
10.0
 40
10.0
 40
10.0
 40
11.0
 40
11.0
 40
11.0
 40
12.0
 40
12.0
 40
12.0
 40
13.0
 40
13.0
 40
13.0
 40
14.0
 40
14.0
 40
14.0
 40
15.0
 40
15.0
 40
15.0
 40
16.0
 40
16.0
 40
16.0
 40
17.0
 40
17.0
 40
17.0
 40
18.0
 40
18.0
 40
18.0
 40
19.0
 40
19.0
 40
19.0
 40
20.0
 40
20.0
 40
20.0
 40
21.0
 40
21.0
 40
21.0
 40
22.0
 40
22.0
 40
22.0
 40
23.0
 40
23.0
 40
23.0
 40
23.0
 10
91.66916772881882
 20
-117.7883314050147
 10
91.45557180873334
 20
-117.7778238637847
 10
91.25489499671752
 20
-117.6910074575564
 10
91.0791951269698
 20
-117.5704291155727
 10
91.0791951269698
 20
-117.5704291155727
 10
91.17669132920236
 20
-117.4837849641186
 10
91.17669132920236
 20
-117.4837849641186
 10
91.17669132920236
 20
-117.4837849641186
 10
90.62444252291681
 20
-117.4837849641186
 10
90.62444252291681
 20
-117.4837849641186
 10
90.62444252291681
 20
-117.4837849641186
 10
90.70471324772313
 20
-117.5471747210472
 10
90.70471324772313
 20
-117.5471747210472
 10
90.7112589291451
 20
-117.5514810904038
 10
90.72159421560086
 20
-117.5619886316338
 10
90.72159421560086
 20
-117.5768025422204
 10
90.72159421560086
 20
-117.6171101593978
 10
90.64752466266799
 20
-117.6107367327501
 10
90.63271075208141
 20
-117.6084974206847
 10
90.4022338641182
 20
-117.7481960426116
 10
90.25857338238328
 20
-117.7798909210759
 10
90.15487600827726
 20
-117.7967718889536
 10
90.15487600827726
 20
-117.7967718889536
 10
90.02568492758039
 20
-117.619177216689
 10
90.02568492758039
 20
-117.619177216689
 10
90.27338729296986
 20
-117.5874823382247
 10
90.3746731002362
 20
-117.5408012943995
 10
90.46355656375565
 20
-117.4879190787009
 10
90.38948701082278
 20
-117.4901583907664
 10
90.275454350261
 20
-117.4922254480575
 10
90.24375947179671
 20
-117.4942925053487
 10
90.25857338238328
 20
-117.4054090418292
 10
90.26064043967443
 20
-117.2763902159066
 10
90.26064043967443
 20
-117.2023206629737
 10
90.26064043967443
 20
-117.2023206629737
 10
90.26064043967443
 20
-116.9020805914342
 10
90.26064043967443
 20
-116.9020805914342
 10
90.26064043967443
 20
-116.8025173319105
 10
90.25409475825245
 20
-116.703126327161
 10
90.24375947179671
 20
-116.6058023797027
 10
90.34504527906304
 20
-116.6121758063504
 10
90.57586667657479
 20
-116.6185492329981
 10
90.68369816526311
 20
-116.6185492329981
 10
90.68369816526311
 20
-116.6185492329981
 10
91.10675589085179
 20
-116.6185492329981
 10
91.10675589085179
 20
-116.6185492329981
 10
91.22526717554439
 20
-116.6185492329981
 10
91.26764185001295
 20
-116.6185492329981
 10
91.34997963211043
 20
-116.6142428636416
 10
91.4979464832019
 20
-116.6078694369939
 10
91.51482745107963
 20
-116.6078694369939
 10
91.5613362401305
 20
-116.6058023797027
 10
91.5530680109659
 20
-116.6862453592833
 10
91.54858938683508
 20
-116.8448920063791
 10
91.54858938683508
 20
-116.9274020432508
 10
91.54858938683508
 20
-116.9274020432508
 10
91.54858938683508
 20
-117.213000458978
 10
91.54858938683508
 20
-117.213000458978
 10
91.54858938683508
 20
-117.2848306998455
 10
91.55065644412623
 20
-117.4160888378335
 10
91.5613362401305
 20
-117.4942925053487
 10
91.48933374448877
 20
-117.4901583907664
 10
91.36686059998814
 20
-117.4879190787009
 10
91.28865693247297
 20
-117.4858520214098
 10
91.39838322367818
 20
-117.553548147695
 10
91.55065644412623
 20
-117.6043633061024
 10
91.7625298164691
 20
-117.6084974206847
 10
91.7625298164691
 20
-117.6084974206847
 10
91.66916772881882
 20
-117.7883314050147
 10
91.66916772881882
 20
-117.7883314050147
 97
        0
 97
        0
 92
        1
 93
        4
 72
     1
 10
91.364793542697
 20
-116.7539414855685
 11
90.45287676775136
 21
-116.7539414855685
 72
     1
 10
90.45287676775136
 20
-116.7539414855685
 11
90.45287676775136
 21
-116.8660793436134
 72
     1
 10
90.45287676775136
 20
-116.8660793436134
 11
91.364793542697
 21
-116.8660793436134
 72
     1
 10
91.364793542697
 20
-116.8660793436134
 11
91.364793542697
 21
-116.7539414855685
 97
        0
 92
        1
 93
        4
 72
     1
 10
91.364793542697
 20
-116.9992322841182
 11
90.45287676775136
 21
-116.9992322841182
 72
     1
 10
90.45287676775136
 20
-116.9992322841182
 11
90.45287676775136
 21
-117.109303084872
 72
     1
 10
90.45287676775136
 20
-117.109303084872
 11
91.364793542697
 21
-117.109303084872
 72
     1
 10
91.364793542697
 20
-117.109303084872
 11
91.364793542697
 21
-116.9992322841182
 97
        0
 92
        1
 93
        4
 72
     1
 10
91.364793542697
 20
-117.2446953374423
 11
90.45287676775136
 21
-117.2446953374423
 72
     1
 10
90.45287676775136
 20
-117.2446953374423
 11
90.45287676775136
 21
-117.3525268261306
 72
     1
 10
90.45287676775136
 20
-117.3525268261306
 11
91.364793542697
 21
-117.3525268261306
 72
     1
 10
91.364793542697
 20
-117.3525268261306
 11
91.364793542697
 21
-117.2446953374423
 97
        0
 92
        1
 93
        1
 72
     4
 94
        3
 73
     0
 74
     1
 95
       74
 96
       70
 40
0.0
 40
0.0
 40
0.0
 40
0.0
 40
1.0
 40
1.0
 40
1.0
 40
2.0
 40
2.0
 40
2.0
 40
3.0
 40
3.0
 40
3.0
 40
4.0
 40
4.0
 40
4.0
 40
5.0
 40
5.0
 40
5.0
 40
6.0
 40
6.0
 40
6.0
 40
7.0
 40
7.0
 40
7.0
 40
8.0
 40
8.0
 40
8.0
 40
9.0
 40
9.0
 40
9.0
 40
10.0
 40
10.0
 40
10.0
 40
11.0
 40
11.0
 40
11.0
 40
12.0
 40
12.0
 40
12.0
 40
13.0
 40
13.0
 40
13.0
 40
14.0
 40
14.0
 40
14.0
 40
15.0
 40
15.0
 40
15.0
 40
16.0
 40
16.0
 40
16.0
 40
17.0
 40
17.0
 40
17.0
 40
18.0
 40
18.0
 40
18.0
 40
19.0
 40
19.0
 40
19.0
 40
20.0
 40
20.0
 40
20.0
 40
21.0
 40
21.0
 40
21.0
 40
22.0
 40
22.0
 40
22.0
 40
23.0
 40
23.0
 40
23.0
 40
23.0
 10
91.68191458211425
 20
-116.3012559388066
 10
91.68191458211425
 20
-116.3012559388066
 10
91.52137313250161
 20
-116.3012559388066
 10
91.52137313250161
 20
-116.3012559388066
 10
91.52137313250161
 20
-116.3012559388066
 10
91.52137313250161
 20
-116.4154608541427
 10
91.52137313250161
 20
-116.4154608541427
 10
91.52137313250161
 20
-116.4555962165458
 10
91.52757430437505
 20
-116.5296657694787
 10
91.53170841895735
 20
-116.5549872212953
 10
91.53170841895735
 20
-116.5549872212953
 10
91.32035181093728
 20
-116.5549872212953
 10
91.32035181093728
 20
-116.5549872212953
 10
91.33103160694155
 20
-116.4895304070755
 10
91.33309866423271
 20
-116.4302747647292
 10
91.33309866423271
 20
-116.4280354526638
 10
91.33309866423271
 20
-116.4280354526638
 10
91.33309866423271
 20
-116.3053900533889
 10
91.33309866423271
 20
-116.3053900533889
 10
91.33309866423271
 20
-116.3053900533889
 10
91.15326467990266
 20
-116.3053900533889
 10
91.15326467990266
 20
-116.3053900533889
 10
91.13431665473378
 20
-116.3646456957352
 10
91.08780786568292
 20
-116.5105454895356
 10
90.97343069557262
 20
-116.5930555264073
 10
90.97343069557262
 20
-116.5930555264073
 10
90.81702336054228
 20
-116.4872910950101
 10
90.81702336054228
 20
-116.4872910950101
 10
90.89109291347515
 20
-116.4407823059593
 10
91.00719263132807
 20
-116.3667127530264
 10
91.00719263132807
 20
-116.0452853442526
 10
91.00719263132807
 20
-115.9901638164886
 10
91.00305851674577
 20
-115.9457220847289
 10
91.00099145945461
 20
-115.9076537796168
 10
91.07712806967864
 20
-115.9160942635557
 10
91.1511976226115
 20
-115.9224676902034
 10
91.2145873795401
 20
-115.9224676902034
 10
91.39218205180474
 20
-115.9224676902034
 10
91.59096406130365
 20
-115.8632120478571
 10
91.6522867609411
 20
-115.833584226684
 10
91.6522867609411
 20
-115.833584226684
 10
91.77941078434682
 20
-115.9689764792543
 10
91.77941078434682
 20
-115.9689764792543
 10
91.78354489892912
 20
-115.9732828486109
 10
91.78561195622027
 20
-115.9817233325497
 10
91.78561195622027
 20
-115.9880967591974
 10
91.78561195622027
 20
-116.0092840964317
 10
91.7707980456337
 20
-116.0156575230794
 10
91.75391707775597
 20
-116.0156575230794
 10
91.73290199529595
 20
-116.0156575230794
 10
91.71808808470936
 20
-116.0072170391406
 10
91.69879554999197
 20
-115.9965372431363
 10
91.52550724708391
 20
-116.0537258281914
 10
91.30760495764186
 20
-116.079047280008
 10
91.17427976236269
 20
-116.0811143372992
 10
91.17427976236269
 20
-116.0811143372992
 10
91.17014564778039
 20
-116.1636243741709
 10
91.17014564778039
 20
-116.1636243741709
 10
91.17014564778039
 20
-116.1636243741709
 10
91.44282495543791
 20
-116.1636243741709
 10
91.44282495543791
 20
-116.1636243741709
 10
91.50001354049306
 20
-116.1636243741709
 10
91.7625298164691
 20
-116.144676349002
 10
91.80662703868029
 20
-116.1383029223543
 10
91.80662703868029
 20
-116.1383029223543
 10
91.80662703868029
 20
-116.3074571106801
 10
91.80662703868029
 20
-116.3074571106801
 10
91.77286510292484
 20
-116.3033229960978
 10
91.76011824962941
 20
-116.3012559388066
 10
91.68191458211425
 20
-116.3012559388066
 97
        0
 97
        0
 75
     2
 76
     1
 98
        0
  0
SPLINE
  5
B5
330
79
100
AcDbEntity
  8
_U+30EC_U+30A4_U+30E4_U+30FC 1
370
     0
100
AcDbSpline
210
0.0
220
0.0
230
1.0
 70
    11
 71
     3
 72
    53
 73
    49
 74
     0
 42
0.0000000001
 43
0.0000000001
 12
1.0
 22
0.0
 32
0.0
 13
1.0
 23
0.0
 33
0.0
 40
0.0
 40
0.0
 40
0.0
 40
0.0
 40
1.0
 40
1.0
 40
1.0
 40
2.0
 40
2.0
 40
2.0
 40
3.0
 40
3.0
 40
3.0
 40
4.0
 40
4.0
 40
4.0
 40
5.0
 40
5.0
 40
5.0
 40
6.0
 40
6.0
 40
6.0
 40
7.0
 40
7.0
 40
7.0
 40
8.0
 40
8.0
 40
8.0
 40
9.0
 40
9.0
 40
9.0
 40
10.0
 40
10.0
 40
10.0
 40
11.0
 40
11.0
 40
11.0
 40
12.0
 40
12.0
 40
12.0
 40
13.0
 40
13.0
 40
13.0
 40
14.0
 40
14.0
 40
14.0
 40
15.0
 40
15.0
 40
15.0
 40
16.0
 40
16.0
 40
16.0
 40
16.0
 10
93.13540036734115
 20
-117.6636189484487
 30
0.0
 10
92.94523109655536
 20
-117.6636189484487
 30
0.0
 10
92.88597545420906
 20
-117.5387342371084
 30
0.0
 10
92.88597545420906
 20
-117.3905951312426
 30
0.0
 10
92.88597545420906
 20
-117.3905951312426
 30
0.0
 10
92.88597545420906
 20
-116.6967529005133
 30
0.0
 10
92.88597545420906
 20
-116.6967529005133
 30
0.0
 10
92.88597545420906
 20
-116.6967529005133
 30
0.0
 10
92.70407441258787
 20
-116.6967529005133
 30
0.0
 10
92.70407441258787
 20
-116.6967529005133
 30
0.0
 10
92.70407441258787
 20
-116.6967529005133
 30
0.0
 10
92.70407441258787
 20
-116.5043443176621
 30
0.0
 10
92.70407441258787
 20
-116.5043443176621
 30
0.0
 10
92.70407441258787
 20
-116.5043443176621
 30
0.0
 10
92.88597545420906
 20
-116.5043443176621
 30
0.0
 10
92.88597545420906
 20
-116.5043443176621
 30
0.0
 10
92.88597545420906
 20
-116.5043443176621
 30
0.0
 10
92.88597545420906
 20
-116.1891180807618
 30
0.0
 10
92.88597545420906
 20
-116.1891180807618
 30
0.0
 10
92.88597545420906
 20
-116.1891180807618
 30
0.0
 10
93.10370548887686
 20
-116.1891180807618
 30
0.0
 10
93.10370548887686
 20
-116.1891180807618
 30
0.0
 10
93.10370548887686
 20
-116.1891180807618
 30
0.0
 10
93.10370548887686
 20
-116.5043443176621
 30
0.0
 10
93.10370548887686
 20
-116.5043443176621
 30
0.0
 10
93.10370548887686
 20
-116.5043443176621
 30
0.0
 10
93.29421926921117
 20
-116.5043443176621
 30
0.0
 10
93.29421926921117
 20
-116.5043443176621
 30
0.0
 10
93.29421926921117
 20
-116.5043443176621
 30
0.0
 10
93.29421926921117
 20
-116.6967529005133
 30
0.0
 10
93.29421926921117
 20
-116.6967529005133
 30
0.0
 10
93.29421926921117
 20
-116.6967529005133
 30
0.0
 10
93.10370548887686
 20
-116.6967529005133
 30
0.0
 10
93.10370548887686
 20
-116.6967529005133
 30
0.0
 10
93.10370548887686
 20
-116.6967529005133
 30
0.0
 10
93.10370548887686
 20
-117.3652736794261
 30
0.0
 10
93.10370548887686
 20
-117.3652736794261
 30
0.0
 10
93.10370548887686
 20
-117.4498507735889
 30
0.0
 10
93.1567599593497
 20
-117.4731051681144
 30
0.0
 10
93.2284179454429
 20
-117.4731051681144
 30
0.0
 10
93.23909774144717
 20
-117.4731051681144
 30
0.0
 10
93.26252439074688
 20
-117.4731051681144
 30
0.0
 10
93.29421926921117
 20
-117.4689710535321
 30
0.0
 10
93.29421926921117
 20
-117.4689710535321
 30
0.0
 10
93.29421926921117
 20
-117.6403645539232
 30
0.0
 10
93.29421926921117
 20
-117.6403645539232
 30
0.0
 10
93.26045733345572
 20
-117.6529391524444
 30
0.0
 10
93.18638778052285
 20
-117.6636189484487
 30
0.0
 10
93.13540036734115
 20
-117.6636189484487
 30
0.0
  0
HATCH
  5
B6
330
79
100
AcDbEntity
  8
_U+30EC_U+30A4_U+30E4_U+30FC 1
 62
   179
420
  2234388
100
AcDbHatch
 10
0.0
 20
0.0
 30
0.0
210
0.0
220
0.0
230
1.0
  2
SOLID
 70
     1
 71
     0
 91
        1
 92
        1
 93
        1
 72
     4
 94
        3
 73
     0
 74
     1
 95
       53
 96
       49
 40
0.0
 40
0.0
 40
0.0
 40
0.0
 40
1.0
 40
1.0
 40
1.0
 40
2.0
 40
2.0
 40
2.0
 40
3.0
 40
3.0
 40
3.0
 40
4.0
 40
4.0
 40
4.0
 40
5.0
 40
5.0
 40
5.0
 40
6.0
 40
6.0
 40
6.0
 40
7.0
 40
7.0
 40
7.0
 40
8.0
 40
8.0
 40
8.0
 40
9.0
 40
9.0
 40
9.0
 40
10.0
 40
10.0
 40
10.0
 40
11.0
 40
11.0
 40
11.0
 40
12.0
 40
12.0
 40
12.0
 40
13.0
 40
13.0
 40
13.0
 40
14.0
 40
14.0
 40
14.0
 40
15.0
 40
15.0
 40
15.0
 40
16.0
 40
16.0
 40
16.0
 40
16.0
 10
93.13540036734115
 20
-117.6636189484487
 10
92.94523109655536
 20
-117.6636189484487
 10
92.88597545420906
 20
-117.5387342371084
 10
92.88597545420906
 20
-117.3905951312426
 10
92.88597545420906
 20
-117.3905951312426
 10
92.88597545420906
 20
-116.6967529005133
 10
92.88597545420906
 20
-116.6967529005133
 10
92.88597545420906
 20
-116.6967529005133
 10
92.70407441258787
 20
-116.6967529005133
 10
92.70407441258787
 20
-116.6967529005133
 10
92.70407441258787
 20
-116.6967529005133
 10
92.70407441258787
 20
-116.5043443176621
 10
92.70407441258787
 20
-116.5043443176621
 10
92.70407441258787
 20
-116.5043443176621
 10
92.88597545420906
 20
-116.5043443176621
 10
92.88597545420906
 20
-116.5043443176621
 10
92.88597545420906
 20
-116.5043443176621
 10
92.88597545420906
 20
-116.1891180807618
 10
92.88597545420906
 20
-116.1891180807618
 10
92.88597545420906
 20
-116.1891180807618
 10
93.10370548887686
 20
-116.1891180807618
 10
93.10370548887686
 20
-116.1891180807618
 10
93.10370548887686
 20
-116.1891180807618
 10
93.10370548887686
 20
-116.5043443176621
 10
93.10370548887686
 20
-116.5043443176621
 10
93.10370548887686
 20
-116.5043443176621
 10
93.29421926921117
 20
-116.5043443176621
 10
93.29421926921117
 20
-116.5043443176621
 10
93.29421926921117
 20
-116.5043443176621
 10
93.29421926921117
 20
-116.6967529005133
 10
93.29421926921117
 20
-116.6967529005133
 10
93.29421926921117
 20
-116.6967529005133
 10
93.10370548887686
 20
-116.6967529005133
 10
93.10370548887686
 20
-116.6967529005133
 10
93.10370548887686
 20
-116.6967529005133
 10
93.10370548887686
 20
-117.3652736794261
 10
93.10370548887686
 20
-117.3652736794261
 10
93.10370548887686
 20
-117.4498507735889
 10
93.1567599593497
 20
-117.4731051681144
 10
93.2284179454429
 20
-117.4731051681144
 10
93.23909774144717
 20
-117.4731051681144
 10
93.26252439074688
 20
-117.4731051681144
 10
93.29421926921117
 20
-117.4689710535321
 10
93.29421926921117
 20
-117.4689710535321
 10
93.29421926921117
 20
-117.6403645539232
 10
93.29421926921117
 20
-117.6403645539232
 10
93.26045733345572
 20
-117.6529391524444
 10
93.18638778052285
 20
-117.6636189484487
 10
93.13540036734115
 20
-117.6636189484487
 97
        0
 97
        0
 75
     2
 76
     1
 98
        0
  0
POLYLINE
  5
B7
330
79
100
AcDbEntity
  8
_U+30EC_U+30A4_U+30E4_U+30FC 1
370
     0
100
AcDb2dPolyline
 66
     1
 10
0.0
 20
0.0
 30
0.0
  0
VERTEX
  5
B8
330
B7
100
AcDbEntity
  8
_U+30EC_U+30A4_U+30E4_U+30FC 1
370
     0
100
AcDbVertex
100
AcDb2dVertex
 10
93.50678166065109
 20
-116.7263807216865
 30
0.0
  0
VERTEX
  5
B9
330
B7
100
AcDbEntity
  8
_U+30EC_U+30A4_U+30E4_U+30FC 1
370
     0
100
AcDbVertex
100
AcDb2dVertex
 10
93.50678166065109
 20
-116.5212252855398
 30
0.0
  0
VERTEX
  5
BA
330
B7
100
AcDbEntity
  8
_U+30EC_U+30A4_U+30E4_U+30FC 1
370
     0
100
AcDbVertex
100
AcDb2dVertex
 10
94.68500431660654
 20
-116.5212252855398
 30
0.0
  0
VERTEX
  5
BB
330
B7
100
AcDbEntity
  8
_U+30EC_U+30A4_U+30E4_U+30FC 1
370
     0
100
AcDbVertex
100
AcDb2dVertex
 10
94.68500431660654
 20
-116.7263807216865
 30
0.0
  0
VERTEX
  5
BC
330
B7
100
AcDbEntity
  8
_U+30EC_U+30A4_U+30E4_U+30FC 1
370
     0
100
AcDbVertex
100
AcDb2dVertex
 10
93.50678166065109
 20
-116.7263807216865
 30
0.0
  0
SEQEND
  5
BD
330
B7
100
AcDbEntity
  8
_U+30EC_U+30A4_U+30E4_U+30FC 1
370
     0
  0
POLYLINE
  5
BE
330
79
100
AcDbEntity
  8
_U+30EC_U+30A4_U+30E4_U+30FC 1
370
     0
100
AcDb2dPolyline
 66
     1
 10
0.0
 20
0.0
 30
0.0
  0
VERTEX
  5
BF
330
BE
100
AcDbEntity
  8
_U+30EC_U+30A4_U+30E4_U+30FC 1
370
     0
100
AcDbVertex
100
AcDb2dVertex
 10
93.50678166065109
 20
-117.1601182432794
 30
0.0
  0
VERTEX
  5
C0
330
BE
100
AcDbEntity
  8
_U+30EC_U+30A4_U+30E4_U+30FC 1
370
     0
100
AcDbVertex
100
AcDb2dVertex
 10
93.50678166065109
 20
-116.9549628071328
 30
0.0
  0
VERTEX
  5
C1
330
BE
100
AcDbEntity
  8
_U+30EC_U+30A4_U+30E4_U+30FC 1
370
     0
100
AcDbVertex
100
AcDb2dVertex
 10
94.68500431660654
 20
-116.9549628071328
 30
0.0
  0
VERTEX
  5
C2
330
BE
100
AcDbEntity
  8
_U+30EC_U+30A4_U+30E4_U+30FC 1
370
     0
100
AcDbVertex
100
AcDb2dVertex
 10
94.68500431660654
 20
-117.1601182432794
 30
0.0
  0
VERTEX
  5
C3
330
BE
100
AcDbEntity
  8
_U+30EC_U+30A4_U+30E4_U+30FC 1
370
     0
100
AcDbVertex
100
AcDb2dVertex
 10
93.50678166065109
 20
-117.1601182432794
 30
0.0
  0
SEQEND
  5
C4
330
BE
100
AcDbEntity
  8
_U+30EC_U+30A4_U+30E4_U+30FC 1
370
     0
  0
HATCH
  5
C5
330
79
100
AcDbEntity
  8
_U+30EC_U+30A4_U+30E4_U+30FC 1
 62
   179
420
  2234388
100
AcDbHatch
 10
0.0
 20
0.0
 30
0.0
210
0.0
220
0.0
230
1.0
  2
SOLID
 70
     1
 71
     0
 91
        2
 92
        1
 93
        4
 72
     1
 10
93.50678166065109
 20
-116.7263807216865
 11
93.50678166065109
 21
-116.5212252855398
 72
     1
 10
93.50678166065109
 20
-116.5212252855398
 11
94.68500431660654
 21
-116.5212252855398
 72
     1
 10
94.68500431660654
 20
-116.5212252855398
 11
94.68500431660654
 21
-116.7263807216865
 72
     1
 10
94.68500431660654
 20
-116.7263807216865
 11
93.50678166065109
 21
-116.7263807216865
 97
        0
 92
        1
 93
        4
 72
     1
 10
93.50678166065109
 20
-117.1601182432794
 11
93.50678166065109
 21
-116.9549628071328
 72
     1
 10
93.50678166065109
 20
-116.9549628071328
 11
94.68500431660654
 21
-116.9549628071328
 72
     1
 10
94.68500431660654
 20
-116.9549628071328
 11
94.68500431660654
 21
-117.1601182432794
 72
     1
 10
94.68500431660654
 20
-117.1601182432794
 11
93.50678166065109
 21
-117.1601182432794
 97
        0
 75
     2
 76
     1
 98
        0
  0
SPLINE
  5
C6
330
79
100
AcDbEntity
  8
_U+30EC_U+30A4_U+30E4_U+30FC 1
370
     0
100
AcDbSpline
210
0.0
220
0.0
230
1.0
 70
    11
 71
     3
 72
    26
 73
    22
 74
     0
 42
0.0000000001
 43
0.0000000001
 12
1.0
 22
0.0
 32
0.0
 13
1.0
 23
0.0
 33
0.0
 40
0.0
 40
0.0
 40
0.0
 40
0.0
 40
1.0
 40
1.0
 40
1.0
 40
2.0
 40
2.0
 40
2.0
 40
3.0
 40
3.0
 40
3.0
 40
4.0
 40
4.0
 40
4.0
 40
5.0
 40
5.0
 40
5.0
 40
6.0
 40
6.0
 40
6.0
 40
7.0
 40
7.0
 40
7.0
 40
7.0
 10
95.32200247182922
 20
-117.6128037900413
 30
0.0
 10
95.32200247182922
 20
-117.6128037900413
 30
0.0
 10
95.32200247182922
 20
-116.5084784322444
 30
0.0
 10
95.32200247182922
 20
-116.5084784322444
 30
0.0
 10
95.32200247182922
 20
-116.5084784322444
 30
0.0
 10
94.9919623243423
 20
-116.5084784322444
 30
0.0
 10
94.9919623243423
 20
-116.5084784322444
 30
0.0
 10
94.9919623243423
 20
-116.5084784322444
 30
0.0
 10
94.9919623243423
 20
-116.3605115811529
 30
0.0
 10
94.9919623243423
 20
-116.3605115811529
 30
0.0
 10
95.32406952912038
 20
-116.3456976705664
 30
0.0
 10
95.37057831817125
 20
-116.182744654114
 30
0.0
 10
95.40020613934439
 20
-116.068539738778
 30
0.0
 10
95.40020613934439
 20
-116.068539738778
 30
0.0
 10
95.54627818791899
 20
-116.068539738778
 30
0.0
 10
95.54627818791899
 20
-116.068539738778
 30
0.0
 10
95.54627818791899
 20
-116.068539738778
 30
0.0
 10
95.54627818791899
 20
-117.6128037900413
 30
0.0
 10
95.54627818791899
 20
-117.6128037900413
 30
0.0
 10
95.54627818791899
 20
-117.6128037900413
 30
0.0
 10
95.32200247182922
 20
-117.6128037900413
 30
0.0
 10
95.32200247182922
 20
-117.6128037900413
 30
0.0
  0
HATCH
  5
C7
330
79
100
AcDbEntity
  8
_U+30EC_U+30A4_U+30E4_U+30FC 1
 62
   179
420
  2234388
100
AcDbHatch
 10
0.0
 20
0.0
 30
0.0
210
0.0
220
0.0
230
1.0
  2
SOLID
 70
     1
 71
     0
 91
        1
 92
        1
 93
        1
 72
     4
 94
        3
 73
     0
 74
     1
 95
       26
 96
       22
 40
0.0
 40
0.0
 40
0.0
 40
0.0
 40
1.0
 40
1.0
 40
1.0
 40
2.0
 40
2.0
 40
2.0
 40
3.0
 40
3.0
 40
3.0
 40
4.0
 40
4.0
 40
4.0
 40
5.0
 40
5.0
 40
5.0
 40
6.0
 40
6.0
 40
6.0
 40
7.0
 40
7.0
 40
7.0
 40
7.0
 10
95.32200247182922
 20
-117.6128037900413
 10
95.32200247182922
 20
-117.6128037900413
 10
95.32200247182922
 20
-116.5084784322444
 10
95.32200247182922
 20
-116.5084784322444
 10
95.32200247182922
 20
-116.5084784322444
 10
94.9919623243423
 20
-116.5084784322444
 10
94.9919623243423
 20
-116.5084784322444
 10
94.9919623243423
 20
-116.5084784322444
 10
94.9919623243423
 20
-116.3605115811529
 10
94.9919623243423
 20
-116.3605115811529
 10
95.32406952912038
 20
-116.3456976705664
 10
95.37057831817125
 20
-116.182744654114
 10
95.40020613934439
 20
-116.068539738778
 10
95.40020613934439
 20
-116.068539738778
 10
95.54627818791899
 20
-116.068539738778
 10
95.54627818791899
 20
-116.068539738778
 10
95.54627818791899
 20
-116.068539738778
 10
95.54627818791899
 20
-117.6128037900413
 10
95.54627818791899
 20
-117.6128037900413
 10
95.54627818791899
 20
-117.6128037900413
 10
95.32200247182922
 20
-117.6128037900413
 10
95.32200247182922
 20
-117.6128037900413
 97
        0
 97
        0
 75
     2
 76
     1
 98
        0
  0
POLYLINE
  5
C8
330
79
100
AcDbEntity
  8
_U+30EC_U+30A4_U+30E4_U+30FC 1
370
     0
100
AcDb2dPolyline
 66
     1
 10
0.0
 20
0.0
 30
0.0
  0
VERTEX
  5
C9
330
C8
100
AcDbEntity
  8
_U+30EC_U+30A4_U+30E4_U+30FC 1
370
     0
100
AcDbVertex
100
AcDb2dVertex
 10
95.9889729577736
 20
-117.6128037900413
 30
0.0
  0
VERTEX
  5
CA
330
C8
100
AcDbEntity
  8
_U+30EC_U+30A4_U+30E4_U+30FC 1
370
     0
100
AcDbVertex
100
AcDb2dVertex
 10
95.9889729577736
 20
-117.3611395648438
 30
0.0
  0
VERTEX
  5
CB
330
C8
100
AcDbEntity
  8
_U+30EC_U+30A4_U+30E4_U+30FC 1
370
     0
100
AcDbVertex
100
AcDb2dVertex
 10
96.24080943774536
 20
-117.3611395648438
 30
0.0
  0
VERTEX
  5
CC
330
C8
100
AcDbEntity
  8
_U+30EC_U+30A4_U+30E4_U+30FC 1
370
     0
100
AcDbVertex
100
AcDb2dVertex
 10
96.24080943774536
 20
-117.6128037900413
 30
0.0
  0
VERTEX
  5
CD
330
C8
100
AcDbEntity
  8
_U+30EC_U+30A4_U+30E4_U+30FC 1
370
     0
100
AcDbVertex
100
AcDb2dVertex
 10
95.9889729577736
 20
-117.6128037900413
 30
0.0
  0
SEQEND
  5
CE
330
C8
100
AcDbEntity
  8
_U+30EC_U+30A4_U+30E4_U+30FC 1
370
     0
  0
HATCH
  5
CF
330
79
100
AcDbEntity
  8
_U+30EC_U+30A4_U+30E4_U+30FC 1
 62
   179
420
  2234388
100
AcDbHatch
 10
0.0
 20
0.0
 30
0.0
210
0.0
220
0.0
230
1.0
  2
SOLID
 70
     1
 71
     0
 91
        1
 92
        1
 93
        4
 72
     1
 10
95.9889729577736
 20
-117.6128037900413
 11
95.9889729577736
 21
-117.3611395648438
 72
     1
 10
95.9889729577736
 20
-117.3611395648438
 11
96.24080943774536
 21
-117.3611395648438
 72
     1
 10
96.24080943774536
 20
-117.3611395648438
 11
96.24080943774536
 21
-117.6128037900413
 72
     1
 10
96.24080943774536
 20
-117.6128037900413
 11
95.9889729577736
 21
-117.6128037900413
 97
        0
 75
     2
 76
     1
 98
        0
  0
SPLINE
  5
D0
330
79
100
AcDbEntity
  8
_U+30EC_U+30A4_U+30E4_U+30FC 1
370
     0
100
AcDbSpline
210
0.0
220
0.0
230
1.0
 70
    11
 71
     3
 72
    29
 73
    25
 74
     0
 42
0.0000000001
 43
0.0000000001
 12
1.0
 22
0.0
 32
0.0
 13
1.0
 23
0.0
 33
0.0
 40
0.0
 40
0.0
 40
0.0
 40
0.0
 40
1.0
 40
1.0
 40
1.0
 40
2.0
 40
2.0
 40
2.0
 40
3.0
 40
3.0
 40
3.0
 40
4.0
 40
4.0
 40
4.0
 40
5.0
 40
5.0
 40
5.0
 40
6.0
 40
6.0
 40
6.0
 40
7.0
 40
7.0
 40
7.0
 40
8.0
 40
8.0
 40
8.0
 40
8.0
 10
97.53237573516552
 20
-117.4350368630024
 30
0.0
 10
97.42419973692867
 20
-117.6444986685055
 30
0.0
 10
97.25091143402061
 20
-117.6636189484487
 30
0.0
 10
97.13446720661916
 20
-117.6636189484487
 30
0.0
 10
96.973581247458
 20
-117.6636189484487
 30
0.0
 10
96.83198782301423
 20
-117.6171101593978
 30
0.0
 10
96.73690318762134
 20
-117.4350368630024
 30
0.0
 10
96.63320581351532
 20
-117.2403889680857
 30
0.0
 10
96.61391327879791
 20
-117.0035386534748
 30
0.0
 10
96.61391327879791
 20
-116.8405856370225
 30
0.0
 10
96.61391327879791
 20
-116.6967529005133
 30
0.0
 10
96.63113875622416
 20
-116.4450886753158
 30
0.0
 10
96.73690318762134
 20
-116.2461344110426
 30
0.0
 10
96.84473467630966
 20
-116.0430460321872
 30
0.0
 10
97.00562063547082
 20
-116.0197916376617
 30
0.0
 10
97.13446720661916
 20
-116.0197916376617
 30
0.0
 10
97.29328610848918
 20
-116.0197916376617
 30
0.0
 10
97.4369465902241
 20
-116.0642333694214
 30
0.0
 10
97.53237573516552
 20
-116.2461344110426
 30
0.0
 10
97.63159448514072
 20
-116.4387152486681
 30
0.0
 10
97.65502113444042
 20
-116.6671250793402
 30
0.0
 10
97.65502113444042
 20
-116.8405856370225
 30
0.0
 10
97.65502113444042
 20
-117.0119791374137
 30
0.0
 10
97.63366154243187
 20
-117.2426282801512
 30
0.0
 10
97.53237573516552
 20
-117.4350368630024
 30
0.0
  0
SPLINE
  5
D1
330
79
100
AcDbEntity
  8
_U+30EC_U+30A4_U+30E4_U+30FC 1
370
     0
100
AcDbSpline
210
0.0
220
0.0
230
1.0
 70
    11
 71
     3
 72
    17
 73
    13
 74
     0
 42
0.0000000001
 43
0.0000000001
 12
1.0
 22
0.0
 32
0.0
 13
1.0
 23
0.0
 33
0.0
 40
0.0
 40
0.0
 40
0.0
 40
0.0
 40
1.0
 40
1.0
 40
1.0
 40
2.0
 40
2.0
 40
2.0
 40
3.0
 40
3.0
 40
3.0
 40
4.0
 40
4.0
 40
4.0
 40
4.0
 10
97.13446720661916
 20
-116.2123724752872
 30
0.0
 10
96.88469778393855
 20
-116.2123724752872
 30
0.0
 10
96.83818899488767
 20
-116.4959038337232
 30
0.0
 10
96.83818899488767
 20
-116.8405856370225
 30
0.0
 10
96.83818899488767
 20
-117.1601182432794
 30
0.0
 10
96.8743624974828
 20
-117.4689710535321
 30
0.0
 10
97.13446720661916
 20
-117.4689710535321
 30
0.0
 10
97.38216957200864
 20
-117.4689710535321
 30
0.0
 10
97.43074541835065
 20
-117.1875067523872
 30
0.0
 10
97.43074541835065
 20
-116.8405856370225
 30
0.0
 10
97.43074541835065
 20
-116.5212252855398
 30
0.0
 10
97.39250485846438
 20
-116.2123724752872
 30
0.0
 10
97.13446720661916
 20
-116.2123724752872
 30
0.0
  0
HATCH
  5
D2
330
79
100
AcDbEntity
  8
_U+30EC_U+30A4_U+30E4_U+30FC 1
 62
   179
420
  2234388
100
AcDbHatch
 10
0.0
 20
0.0
 30
0.0
210
0.0
220
0.0
230
1.0
  2
SOLID
 70
     1
 71
     0
 91
        2
 92
        1
 93
        1
 72
     4
 94
        3
 73
     0
 74
     1
 95
       29
 96
       25
 40
0.0
 40
0.0
 40
0.0
 40
0.0
 40
1.0
 40
1.0
 40
1.0
 40
2.0
 40
2.0
 40
2.0
 40
3.0
 40
3.0
 40
3.0
 40
4.0
 40
4.0
 40
4.0
 40
5.0
 40
5.0
 40
5.0
 40
6.0
 40
6.0
 40
6.0
 40
7.0
 40
7.0
 40
7.0
 40
8.0
 40
8.0
 40
8.0
 40
8.0
 10
97.53237573516552
 20
-117.4350368630024
 10
97.42419973692867
 20
-117.6444986685055
 10
97.25091143402061
 20
-117.6636189484487
 10
97.13446720661916
 20
-117.6636189484487
 10
96.973581247458
 20
-117.6636189484487
 10
96.83198782301423
 20
-117.6171101593978
 10
96.73690318762134
 20
-117.4350368630024
 10
96.63320581351532
 20
-117.2403889680857
 10
96.61391327879791
 20
-117.0035386534748
 10
96.61391327879791
 20
-116.8405856370225
 10
96.61391327879791
 20
-116.6967529005133
 10
96.63113875622416
 20
-116.4450886753158
 10
96.73690318762134
 20
-116.2461344110426
 10
96.84473467630966
 20
-116.0430460321872
 10
97.00562063547082
 20
-116.0197916376617
 10
97.13446720661916
 20
-116.0197916376617
 10
97.29328610848918
 20
-116.0197916376617
 10
97.4369465902241
 20
-116.0642333694214
 10
97.53237573516552
 20
-116.2461344110426
 10
97.63159448514072
 20
-116.4387152486681
 10
97.65502113444042
 20
-116.6671250793402
 10
97.65502113444042
 20
-116.8405856370225
 10
97.65502113444042
 20
-117.0119791374137
 10
97.63366154243187
 20
-117.2426282801512
 10
97.53237573516552
 20
-117.4350368630024
 97
        0
 97
        0
 92
        1
 93
        1
 72
     4
 94
        3
 73
     0
 74
     1
 95
       17
 96
       13
 40
0.0
 40
0.0
 40
0.0
 40
0.0
 40
1.0
 40
1.0
 40
1.0
 40
2.0
 40
2.0
 40
2.0
 40
3.0
 40
3.0
 40
3.0
 40
4.0
 40
4.0
 40
4.0
 40
4.0
 10
97.13446720661916
 20
-116.2123724752872
 10
96.88469778393855
 20
-116.2123724752872
 10
96.83818899488767
 20
-116.4959038337232
 10
96.83818899488767
 20
-116.8405856370225
 10
96.83818899488767
 20
-117.1601182432794
 10
96.8743624974828
 20
-117.4689710535321
 10
97.13446720661916
 20
-117.4689710535321
 10
97.38216957200864
 20
-117.4689710535321
 10
97.43074541835065
 20
-117.1875067523872
 10
97.43074541835065
 20
-116.8405856370225
 10
97.43074541835065
 20
-116.5212252855398
 10
97.39250485846438
 20
-116.2123724752872
 10
97.13446720661916
 20
-116.2123724752872
 97
        0
 97
        0
 75
     2
 76
     1
 98
        0
  0
ENDBLK
  5
7C
330
79
100
AcDbEntity
  8
0
100
AcDbBlockEnd
  0
BLOCK
  5
E1
330
DF
100
AcDbEntity
  8
0
100
AcDbBlockBegin
  2
block 4
 70
     0
 10
0.0
 20
0.0
 30
0.0
  3
block 4
  1

  0
SPLINE
  5
E3
330
DF
100
AcDbEntity
  8
_U+30EC_U+30A4_U+30E4_U+30FC 1
370
     0
100
AcDbSpline
210
0.0
220
0.0
230
1.0
 70
    11
 71
     3
 72
    53
 73
    49
 74
     0
 42
0.0000000001
 43
0.0000000001
 12
1.0
 22
0.0
 32
0.0
 13
1.0
 23
0.0
 33
0.0
 40
0.0
 40
0.0
 40
0.0
 40
0.0
 40
1.0
 40
1.0
 40
1.0
 40
2.0
 40
2.0
 40
2.0
 40
3.0
 40
3.0
 40
3.0
 40
4.0
 40
4.0
 40
4.0
 40
5.0
 40
5.0
 40
5.0
 40
6.0
 40
6.0
 40
6.0
 40
7.0
 40
7.0
 40
7.0
 40
8.0
 40
8.0
 40
8.0
 40
9.0
 40
9.0
 40
9.0
 40
10.0
 40
10.0
 40
10.0
 40
11.0
 40
11.0
 40
11.0
 40
12.0
 40
12.0
 40
12.0
 40
13.0
 40
13.0
 40
13.0
 40
14.0
 40
14.0
 40
14.0
 40
15.0
 40
15.0
 40
15.0
 40
16.0
 40
16.0
 40
16.0
 40
16.0
 10
115.1626518809316
 20
-127.9935655061961
 30
0.0
 10
115.0882378184502
 20
-127.9694498377993
 30
0.0
 10
114.996942788091
 20
-127.9219075201029
 30
0.0
 10
114.9197726492215
 20
-127.8302679801952
 30
0.0
 10
114.7892035303305
 20
-127.6717935878737
 30
0.0
 10
114.8095295936935
 20
-127.5405354498857
 30
0.0
 10
114.82434350428
 20
-127.4323594516489
 30
0.0
 10
114.82434350428
 20
-127.4323594516489
 30
0.0
 10
115.0358723670744
 20
-127.5009168518053
 30
0.0
 10
115.0358723670744
 20
-127.5009168518053
 30
0.0
 10
115.0265706092642
 20
-127.7069335618233
 30
0.0
 10
115.1381917029863
 20
-127.7744574333342
 30
0.0
 10
115.2267306569572
 20
-127.8030517258617
 30
0.0
 10
115.3593668331393
 20
-127.8461154194274
 30
0.0
 10
115.5350667028871
 20
-127.7985731017309
 30
0.0
 10
115.6067246889803
 20
-127.5773979715779
 30
0.0
 10
115.685961885141
 20
-127.3341742303192
 30
0.0
 10
115.5364447410812
 20
-127.2122178501414
 30
0.0
 10
115.4217230614224
 20
-127.1750108189007
 30
0.0
 10
115.3914062211522
 20
-127.1650200419935
 30
0.0
 10
115.2570474972274
 20
-127.1212673293308
 30
0.0
 10
115.1326795502099
 20
-127.2163519647237
 30
0.0
 10
115.1326795502099
 20
-127.2163519647237
 30
0.0
 10
114.9714490815002
 20
-127.1440049595334
 30
0.0
 10
114.9714490815002
 20
-127.1440049595334
 30
0.0
 10
114.9714490815002
 20
-127.1440049595334
 30
0.0
 10
115.3476535084895
 20
-126.3764376854198
 30
0.0
 10
115.3476535084895
 20
-126.3764376854198
 30
0.0
 10
115.3476535084895
 20
-126.3764376854198
 30
0.0
 10
116.0880045282697
 20
-126.6172498598388
 30
0.0
 10
116.0880045282697
 20
-126.6172498598388
 30
0.0
 10
116.0880045282697
 20
-126.6172498598388
 30
0.0
 10
116.0277153572778
 20
-126.8022514873967
 30
0.0
 10
116.0277153572778
 20
-126.8022514873967
 30
0.0
 10
116.0277153572778
 20
-126.8022514873967
 30
0.0
 10
115.4423936343339
 20
-126.6120822166109
 30
0.0
 10
115.4423936343339
 20
-126.6120822166109
 30
0.0
 10
115.4423936343339
 20
-126.6120822166109
 30
0.0
 10
115.2494682871599
 20
-126.9941433059251
 30
0.0
 10
115.2494682871599
 20
-126.9941433059251
 30
0.0
 10
115.3180256873163
 20
-126.9807074335326
 30
0.0
 10
115.4089762081269
 20
-126.9683050897857
 30
0.0
 10
115.5216308304946
 20
-127.0048231019294
 30
0.0
 10
115.7631320240106
 20
-127.0833712789931
 30
0.0
 10
115.9309081741423
 20
-127.3334852112222
 30
0.0
 10
115.8341009910068
 20
-127.6311414611478
 30
0.0
 10
115.7362602792257
 20
-127.9332763352042
 30
0.0
 10
115.4503173539499
 20
-128.0872721033949
 30
0.0
 10
115.1626518809316
 20
-127.9935655061961
 30
0.0
  0
HATCH
  5
E4
330
DF
100
AcDbEntity
  8
_U+30EC_U+30A4_U+30E4_U+30FC 1
 62
   179
420
  2234388
100
AcDbHatch
 10
0.0
 20
0.0
 30
0.0
210
0.0
220
0.0
230
1.0
  2
SOLID
 70
     1
 71
     0
 91
        1
 92
        1
 93
        1
 72
     4
 94
        3
 73
     0
 74
     1
 95
       53
 96
       49
 40
0.0
 40
0.0
 40
0.0
 40
0.0
 40
1.0
 40
1.0
 40
1.0
 40
2.0
 40
2.0
 40
2.0
 40
3.0
 40
3.0
 40
3.0
 40
4.0
 40
4.0
 40
4.0
 40
5.0
 40
5.0
 40
5.0
 40
6.0
 40
6.0
 40
6.0
 40
7.0
 40
7.0
 40
7.0
 40
8.0
 40
8.0
 40
8.0
 40
9.0
 40
9.0
 40
9.0
 40
10.0
 40
10.0
 40
10.0
 40
11.0
 40
11.0
 40
11.0
 40
12.0
 40
12.0
 40
12.0
 40
13.0
 40
13.0
 40
13.0
 40
14.0
 40
14.0
 40
14.0
 40
15.0
 40
15.0
 40
15.0
 40
16.0
 40
16.0
 40
16.0
 40
16.0
 10
115.1626518809316
 20
-127.9935655061961
 10
115.0882378184502
 20
-127.9694498377993
 10
114.996942788091
 20
-127.9219075201029
 10
114.9197726492215
 20
-127.8302679801952
 10
114.7892035303305
 20
-127.6717935878737
 10
114.8095295936935
 20
-127.5405354498857
 10
114.82434350428
 20
-127.4323594516489
 10
114.82434350428
 20
-127.4323594516489
 10
115.0358723670744
 20
-127.5009168518053
 10
115.0358723670744
 20
-127.5009168518053
 10
115.0265706092642
 20
-127.7069335618233
 10
115.1381917029863
 20
-127.7744574333342
 10
115.2267306569572
 20
-127.8030517258617
 10
115.3593668331393
 20
-127.8461154194274
 10
115.5350667028871
 20
-127.7985731017309
 10
115.6067246889803
 20
-127.5773979715779
 10
115.685961885141
 20
-127.3341742303192
 10
115.5364447410812
 20
-127.2122178501414
 10
115.4217230614224
 20
-127.1750108189007
 10
115.3914062211522
 20
-127.1650200419935
 10
115.2570474972274
 20
-127.1212673293308
 10
115.1326795502099
 20
-127.2163519647237
 10
115.1326795502099
 20
-127.2163519647237
 10
114.9714490815002
 20
-127.1440049595334
 10
114.9714490815002
 20
-127.1440049595334
 10
114.9714490815002
 20
-127.1440049595334
 10
115.3476535084895
 20
-126.3764376854198
 10
115.3476535084895
 20
-126.3764376854198
 10
115.3476535084895
 20
-126.3764376854198
 10
116.0880045282697
 20
-126.6172498598388
 10
116.0880045282697
 20
-126.6172498598388
 10
116.0880045282697
 20
-126.6172498598388
 10
116.0277153572778
 20
-126.8022514873967
 10
116.0277153572778
 20
-126.8022514873967
 10
116.0277153572778
 20
-126.8022514873967
 10
115.4423936343339
 20
-126.6120822166109
 10
115.4423936343339
 20
-126.6120822166109
 10
115.4423936343339
 20
-126.6120822166109
 10
115.2494682871599
 20
-126.9941433059251
 10
115.2494682871599
 20
-126.9941433059251
 10
115.3180256873163
 20
-126.9807074335326
 10
115.4089762081269
 20
-126.9683050897857
 10
115.5216308304946
 20
-127.0048231019294
 10
115.7631320240106
 20
-127.0833712789931
 10
115.9309081741423
 20
-127.3334852112222
 10
115.8341009910068
 20
-127.6311414611478
 10
115.7362602792257
 20
-127.9332763352042
 10
115.4503173539499
 20
-128.0872721033949
 10
115.1626518809316
 20
-127.9935655061961
 97
        0
 97
        0
 75
     2
 76
     1
 98
        0
  0
SPLINE
  5
E5
330
DF
100
AcDbEntity
  8
_U+30EC_U+30A4_U+30E4_U+30FC 1
370
     0
100
AcDbSpline
210
0.0
220
0.0
230
1.0
 70
    11
 71
     3
 72
    29
 73
    25
 74
     0
 42
0.0000000001
 43
0.0000000001
 12
1.0
 22
0.0
 32
0.0
 13
1.0
 23
0.0
 33
0.0
 40
0.0
 40
0.0
 40
0.0
 40
0.0
 40
1.0
 40
1.0
 40
1.0
 40
2.0
 40
2.0
 40
2.0
 40
3.0
 40
3.0
 40
3.0
 40
4.0
 40
4.0
 40
4.0
 40
5.0
 40
5.0
 40
5.0
 40
6.0
 40
6.0
 40
6.0
 40
7.0
 40
7.0
 40
7.0
 40
8.0
 40
8.0
 40
8.0
 40
8.0
 10
116.7491183518891
 20
-128.2688286354675
 30
0.0
 10
116.5813422017575
 20
-128.434537728308
 30
0.0
 10
116.4108099752376
 20
-128.3993977543585
 30
0.0
 10
116.2998779006125
 20
-128.3632242517634
 30
0.0
 10
116.1469156610674
 20
-128.3136148767758
 30
0.0
 10
116.0266818286322
 20
-128.2254204323534
 30
0.0
 10
115.9925753833282
 20
-128.0228488178207
 30
0.0
 10
115.9539903138935
 20
-127.8058078022499
 30
0.0
 10
116.0091118416574
 20
-127.5746418951897
 30
0.0
 10
116.0594102357421
 20
-127.4196125983534
 30
0.0
 10
116.1038519675018
 20
-127.282842307589
 30
0.0
 10
116.1979030742491
 20
-127.0489203241406
 30
0.0
 10
116.3598225620559
 20
-126.8921684795617
 30
0.0
 10
116.5251871453479
 20
-126.7323160490461
 30
0.0
 10
116.6850395758635
 20
-126.7602213224766
 30
0.0
 10
116.8076849751384
 20
-126.799839920557
 30
0.0
 10
116.9585801573923
 20
-126.8491047859961
 30
0.0
 10
117.0819145757642
 20
-126.9355766826758
 30
0.0
 10
117.1163655306167
 20
-127.1381482972085
 30
0.0
 10
117.1511609950178
 20
-127.3520887268425
 30
0.0
 10
117.1029296582243
 20
-127.5763644429323
 30
0.0
 10
117.0491861686544
 20
-127.7413845166758
 30
0.0
 10
116.9964762077301
 20
-127.9043375331281
 30
0.0
 10
116.9048366678224
 20
-128.1172444341165
 30
0.0
 10
116.7491183518891
 20
-128.2688286354675
 30
0.0
  0
SPLINE
  5
E6
330
DF
100
AcDbEntity
  8
_U+30EC_U+30A4_U+30E4_U+30FC 1
370
     0
100
AcDbSpline
210
0.0
220
0.0
230
1.0
 70
    11
 71
     3
 72
    17
 73
    13
 74
     0
 42
0.0000000001
 43
0.0000000001
 12
1.0
 22
0.0
 32
0.0
 13
1.0
 23
0.0
 33
0.0
 40
0.0
 40
0.0
 40
0.0
 40
0.0
 40
1.0
 40
1.0
 40
1.0
 40
2.0
 40
2.0
 40
2.0
 40
3.0
 40
3.0
 40
3.0
 40
4.0
 40
4.0
 40
4.0
 40
4.0
 10
116.7484293327921
 20
-126.9827744908238
 30
0.0
 10
116.5114067634069
 20
-126.9059488615027
 30
0.0
 10
116.3791150967733
 20
-127.1608859274112
 30
0.0
 10
116.2723171367305
 20
-127.488859017607
 30
0.0
 10
116.1737874058524
 20
-127.792716439406
 30
0.0
 10
116.1128092157635
 20
-128.0976073898506
 30
0.0
 10
116.3601670716044
 20
-128.1782226242055
 30
0.0
 10
116.5958116027955
 20
-128.254703743978
 30
0.0
 10
116.7287922885261
 20
-128.0018337353607
 30
0.0
 10
116.8359347581174
 20
-127.6721380974222
 30
0.0
 10
116.9348089985441
 20
-127.3682806756232
 30
0.0
 10
116.9937201313419
 20
-127.0627007060816
 30
0.0
 10
116.7484293327921
 20
-126.9827744908238
 30
0.0
  0
HATCH
  5
E7
330
DF
100
AcDbEntity
  8
_U+30EC_U+30A4_U+30E4_U+30FC 1
 62
   179
420
  2234388
100
AcDbHatch
 10
0.0
 20
0.0
 30
0.0
210
0.0
220
0.0
230
1.0
  2
SOLID
 70
     1
 71
     0
 91
        2
 92
        1
 93
        1
 72
     4
 94
        3
 73
     0
 74
     1
 95
       29
 96
       25
 40
0.0
 40
0.0
 40
0.0
 40
0.0
 40
1.0
 40
1.0
 40
1.0
 40
2.0
 40
2.0
 40
2.0
 40
3.0
 40
3.0
 40
3.0
 40
4.0
 40
4.0
 40
4.0
 40
5.0
 40
5.0
 40
5.0
 40
6.0
 40
6.0
 40
6.0
 40
7.0
 40
7.0
 40
7.0
 40
8.0
 40
8.0
 40
8.0
 40
8.0
 10
116.7491183518891
 20
-128.2688286354675
 10
116.5813422017575
 20
-128.434537728308
 10
116.4108099752376
 20
-128.3993977543585
 10
116.2998779006125
 20
-128.3632242517634
 10
116.1469156610674
 20
-128.3136148767758
 10
116.0266818286322
 20
-128.2254204323534
 10
115.9925753833282
 20
-128.0228488178207
 10
115.9539903138935
 20
-127.8058078022499
 10
116.0091118416574
 20
-127.5746418951897
 10
116.0594102357421
 20
-127.4196125983534
 10
116.1038519675018
 20
-127.282842307589
 10
116.1979030742491
 20
-127.0489203241406
 10
116.3598225620559
 20
-126.8921684795617
 10
116.5251871453479
 20
-126.7323160490461
 10
116.6850395758635
 20
-126.7602213224766
 10
116.8076849751384
 20
-126.799839920557
 10
116.9585801573923
 20
-126.8491047859961
 10
117.0819145757642
 20
-126.9355766826758
 10
117.1163655306167
 20
-127.1381482972085
 10
117.1511609950178
 20
-127.3520887268425
 10
117.1029296582243
 20
-127.5763644429323
 10
117.0491861686544
 20
-127.7413845166758
 10
116.9964762077301
 20
-127.9043375331281
 10
116.9048366678224
 20
-128.1172444341165
 10
116.7491183518891
 20
-128.2688286354675
 97
        0
 97
        0
 92
        1
 93
        1
 72
     4
 94
        3
 73
     0
 74
     1
 95
       17
 96
       13
 40
0.0
 40
0.0
 40
0.0
 40
0.0
 40
1.0
 40
1.0
 40
1.0
 40
2.0
 40
2.0
 40
2.0
 40
3.0
 40
3.0
 40
3.0
 40
4.0
 40
4.0
 40
4.0
 40
4.0
 10
116.7484293327921
 20
-126.9827744908238
 10
116.5114067634069
 20
-126.9059488615027
 10
116.3791150967733
 20
-127.1608859274112
 10
116.2723171367305
 20
-127.488859017607
 10
116.1737874058524
 20
-127.792716439406
 10
116.1128092157635
 20
-128.0976073898506
 10
116.3601670716044
 20
-128.1782226242055
 10
116.5958116027955
 20
-128.254703743978
 10
116.7287922885261
 20
-128.0018337353607
 10
116.8359347581174
 20
-127.6721380974222
 10
116.9348089985441
 20
-127.3682806756232
 10
116.9937201313419
 20
-127.0627007060816
 10
116.7484293327921
 20
-126.9827744908238
 97
        0
 97
        0
 75
     2
 76
     1
 98
        0
  0
ENDBLK
  5
E2
330
DF
100
AcDbEntity
  8
0
100
AcDbBlockEnd
  0
BLOCK
  5
F6
330
F4
100
AcDbEntity
  8
0
100
AcDbBlockBegin
  2
block 5
 70
     0
 10
0.0
 20
0.0
 30
0.0
  3
block 5
  1

  0
SPLINE
  5
F8
330
F4
100
AcDbEntity
  8
_U+30EC_U+30A4_U+30E4_U+30FC 1
370
     0
100
AcDbSpline
210
0.0
220
0.0
230
1.0
 70
    11
 71
     3
 72
    53
 73
    49
 74
     0
 42
0.0000000001
 43
0.0000000001
 12
1.0
 22
0.0
 32
0.0
 13
1.0
 23
0.0
 33
0.0
 40
0.0
 40
0.0
 40
0.0
 40
0.0
 40
1.0
 40
1.0
 40
1.0
 40
2.0
 40
2.0
 40
2.0
 40
3.0
 40
3.0
 40
3.0
 40
4.0
 40
4.0
 40
4.0
 40
5.0
 40
5.0
 40
5.0
 40
6.0
 40
6.0
 40
6.0
 40
7.0
 40
7.0
 40
7.0
 40
8.0
 40
8.0
 40
8.0
 40
9.0
 40
9.0
 40
9.0
 40
10.0
 40
10.0
 40
10.0
 40
11.0
 40
11.0
 40
11.0
 40
12.0
 40
12.0
 40
12.0
 40
13.0
 40
13.0
 40
13.0
 40
14.0
 40
14.0
 40
14.0
 40
15.0
 40
15.0
 40
15.0
 40
16.0
 40
16.0
 40
16.0
 40
16.0
 10
65.61890596232791
 20
-128.309825271742
 30
0.0
 10
65.54449189984652
 20
-128.3339409401387
 30
0.0
 10
65.44268932825739
 20
-128.3494438698224
 30
0.0
 10
65.3264173556302
 20
-128.3205050677463
 30
0.0
 10
65.12746309135703
 20
-128.2695176545646
 30
0.0
 10
65.06682941081662
 20
-128.1513508794205
 30
0.0
 10
65.01549748808641
 20
-128.054543696285
 30
0.0
 10
65.01549748808641
 20
-128.054543696285
 30
0.0
 10
65.22668184133222
 20
-127.9859862961285
 30
0.0
 10
65.22668184133222
 20
-127.9859862961285
 30
0.0
 10
65.34036999234547
 20
-128.158241070391
 30
0.0
 10
65.47025009213938
 20
-128.1468722552897
 30
0.0
 10
65.5587890461103
 20
-128.1179334532136
 30
0.0
 10
65.69142522229242
 20
-128.074869759648
 30
0.0
 10
65.80580239240273
 20
-127.9332763352042
 30
0.0
 10
65.73397215153526
 20
-127.7121012050511
 30
0.0
 10
65.65490721014878
 20
-127.468532954244
 30
0.0
 10
65.46215411774905
 20
-127.4578531582397
 30
0.0
 10
65.34743243809022
 20
-127.4950601894804
 30
0.0
 10
65.31728785259429
 20
-127.5047064568391
 30
0.0
 10
65.18241236434676
 20
-127.5488036790503
 30
0.0
 10
65.13797063258704
 20
-127.6990098422072
 30
0.0
 10
65.13797063258704
 20
-127.6990098422072
 30
0.0
 10
64.96519909400176
 20
-127.7351833448023
 30
0.0
 10
64.96519909400176
 20
-127.7351833448023
 30
0.0
 10
64.96519909400176
 20
-127.7351833448023
 30
0.0
 10
64.81809351678159
 20
-126.8928574986587
 30
0.0
 10
64.81809351678159
 20
-126.8928574986587
 30
0.0
 10
64.81809351678159
 20
-126.8928574986587
 30
0.0
 10
65.55844453656178
 20
-126.6520453242398
 30
0.0
 10
65.55844453656178
 20
-126.6520453242398
 30
0.0
 10
65.55844453656178
 20
-126.6520453242398
 30
0.0
 10
65.61873370755366
 20
-126.8373914613462
 30
0.0
 10
65.61873370755366
 20
-126.8373914613462
 30
0.0
 10
65.61873370755366
 20
-126.8373914613462
 30
0.0
 10
65.03323972983544
 20
-127.0279052416805
 30
0.0
 10
65.03323972983544
 20
-127.0279052416805
 30
0.0
 10
65.03323972983544
 20
-127.0279052416805
 30
0.0
 10
65.10162487521765
 20
-127.4502739481722
 30
0.0
 10
65.10162487521765
 20
-127.4502739481722
 30
0.0
 10
65.14951170246262
 20
-127.3992865349905
 30
0.0
 10
65.21565753577943
 20
-127.3352077589648
 30
0.0
 10
65.32813990337283
 20
-127.2986897468212
 30
0.0
 10
65.56964109688884
 20
-127.2201415697575
 30
0.0
 10
65.85265569100211
 20
-127.3245279629605
 30
0.0
 10
65.94946287413764
 20
-127.6221842128861
 30
0.0
 10
66.047475840693
 20
-127.923974577394
 30
0.0
 10
65.90657143534628
 20
-128.2164631840917
 30
0.0
 10
65.61890596232791
 20
-128.309825271742
 30
0.0
  0
HATCH
  5
F9
330
F4
100
AcDbEntity
  8
_U+30EC_U+30A4_U+30E4_U+30FC 1
 62
   179
420
  2234388
100
AcDbHatch
 10
0.0
 20
0.0
 30
0.0
210
0.0
220
0.0
230
1.0
  2
SOLID
 70
     1
 71
     0
 91
        1
 92
        1
 93
        1
 72
     4
 94
        3
 73
     0
 74
     1
 95
       53
 96
       49
 40
0.0
 40
0.0
 40
0.0
 40
0.0
 40
1.0
 40
1.0
 40
1.0
 40
2.0
 40
2.0
 40
2.0
 40
3.0
 40
3.0
 40
3.0
 40
4.0
 40
4.0
 40
4.0
 40
5.0
 40
5.0
 40
5.0
 40
6.0
 40
6.0
 40
6.0
 40
7.0
 40
7.0
 40
7.0
 40
8.0
 40
8.0
 40
8.0
 40
9.0
 40
9.0
 40
9.0
 40
10.0
 40
10.0
 40
10.0
 40
11.0
 40
11.0
 40
11.0
 40
12.0
 40
12.0
 40
12.0
 40
13.0
 40
13.0
 40
13.0
 40
14.0
 40
14.0
 40
14.0
 40
15.0
 40
15.0
 40
15.0
 40
16.0
 40
16.0
 40
16.0
 40
16.0
 10
65.61890596232791
 20
-128.309825271742
 10
65.54449189984652
 20
-128.3339409401387
 10
65.44268932825739
 20
-128.3494438698224
 10
65.3264173556302
 20
-128.3205050677463
 10
65.12746309135703
 20
-128.2695176545646
 10
65.06682941081662
 20
-128.1513508794205
 10
65.01549748808641
 20
-128.054543696285
 10
65.01549748808641
 20
-128.054543696285
 10
65.22668184133222
 20
-127.9859862961285
 10
65.22668184133222
 20
-127.9859862961285
 10
65.34036999234547
 20
-128.158241070391
 10
65.47025009213938
 20
-128.1468722552897
 10
65.5587890461103
 20
-128.1179334532136
 10
65.69142522229242
 20
-128.074869759648
 10
65.80580239240273
 20
-127.9332763352042
 10
65.73397215153526
 20
-127.7121012050511
 10
65.65490721014878
 20
-127.468532954244
 10
65.46215411774905
 20
-127.4578531582397
 10
65.34743243809022
 20
-127.4950601894804
 10
65.31728785259429
 20
-127.5047064568391
 10
65.18241236434676
 20
-127.5488036790503
 10
65.13797063258704
 20
-127.6990098422072
 10
65.13797063258704
 20
-127.6990098422072
 10
64.96519909400176
 20
-127.7351833448023
 10
64.96519909400176
 20
-127.7351833448023
 10
64.96519909400176
 20
-127.7351833448023
 10
64.81809351678159
 20
-126.8928574986587
 10
64.81809351678159
 20
-126.8928574986587
 10
64.81809351678159
 20
-126.8928574986587
 10
65.55844453656178
 20
-126.6520453242398
 10
65.55844453656178
 20
-126.6520453242398
 10
65.55844453656178
 20
-126.6520453242398
 10
65.61873370755366
 20
-126.8373914613462
 10
65.61873370755366
 20
-126.8373914613462
 10
65.61873370755366
 20
-126.8373914613462
 10
65.03323972983544
 20
-127.0279052416805
 10
65.03323972983544
 20
-127.0279052416805
 10
65.03323972983544
 20
-127.0279052416805
 10
65.10162487521765
 20
-127.4502739481722
 10
65.10162487521765
 20
-127.4502739481722
 10
65.14951170246262
 20
-127.3992865349905
 10
65.21565753577943
 20
-127.3352077589648
 10
65.32813990337283
 20
-127.2986897468212
 10
65.56964109688884
 20
-127.2201415697575
 10
65.85265569100211
 20
-127.3245279629605
 10
65.94946287413764
 20
-127.6221842128861
 10
66.047475840693
 20
-127.923974577394
 10
65.90657143534628
 20
-128.2164631840917
 10
65.61890596232791
 20
-128.309825271742
 97
        0
 97
        0
 75
     2
 76
     1
 98
        0
  0
SPLINE
  5
FA
330
F4
100
AcDbEntity
  8
_U+30EC_U+30A4_U+30E4_U+30FC 1
370
     0
100
AcDbSpline
210
0.0
220
0.0
230
1.0
 70
    11
 71
     3
 72
    29
 73
    25
 74
     0
 42
0.0000000001
 43
0.0000000001
 12
1.0
 22
0.0
 32
0.0
 13
1.0
 23
0.0
 33
0.0
 40
0.0
 40
0.0
 40
0.0
 40
0.0
 40
1.0
 40
1.0
 40
1.0
 40
2.0
 40
2.0
 40
2.0
 40
3.0
 40
3.0
 40
3.0
 40
4.0
 40
4.0
 40
4.0
 40
5.0
 40
5.0
 40
5.0
 40
6.0
 40
6.0
 40
6.0
 40
7.0
 40
7.0
 40
7.0
 40
8.0
 40
8.0
 40
8.0
 40
8.0
 10
67.06377900884169
 20
-127.6001356017805
 30
0.0
 10
67.02605521327821
 20
-127.8326795470349
 30
0.0
 10
66.86689180185967
 20
-127.9043375331281
 30
0.0
 10
66.75613198200888
 20
-127.9401665261747
 30
0.0
 10
66.60334199723806
 20
-127.9897759011623
 30
0.0
 10
66.45416936272674
 20
-127.9897759011623
 30
0.0
 10
66.30723604028083
 20
-127.8457709098788
 30
0.0
 10
66.14876164795935
 20
-127.6928086703337
 30
0.0
 10
66.05729436282596
 20
-127.4733560879233
 30
0.0
 10
66.00699596874131
 20
-127.3186713006356
 30
0.0
 10
65.96255423698159
 20
-127.1815565003227
 30
0.0
 10
65.90088702779562
 20
-126.9369547208699
 30
0.0
 10
65.93981660677893
 20
-126.7150905716198
 30
0.0
 10
65.98012422395637
 20
-126.4887477982389
 30
0.0
 10
66.12550725343391
 20
-126.4167453025972
 30
0.0
 10
66.2481526527088
 20
-126.3767821949683
 30
0.0
 10
66.39904783496274
 20
-126.3278618390778
 30
0.0
 10
66.54959850766816
 20
-126.3257947817866
 30
0.0
 10
66.6963595753398
 20
-126.4694552635215
 30
0.0
 10
66.85052759830474
 20
-126.6217284839696
 30
0.0
 10
66.94337292163222
 20
-126.8315347990213
 30
0.0
 10
66.99694415642784
 20
-126.9968993823133
 30
0.0
 10
67.04982637212643
 20
-127.1595078892171
 30
0.0
 10
67.10081378530813
 20
-127.3855061530495
 30
0.0
 10
67.06377900884169
 20
-127.6001356017805
 30
0.0
  0
SPLINE
  5
FB
330
F4
100
AcDbEntity
  8
_U+30EC_U+30A4_U+30E4_U+30FC 1
370
     0
100
AcDbSpline
210
0.0
220
0.0
230
1.0
 70
    11
 71
     3
 72
    17
 73
    13
 74
     0
 42
0.0000000001
 43
0.0000000001
 12
1.0
 22
0.0
 32
0.0
 13
1.0
 23
0.0
 33
0.0
 40
0.0
 40
0.0
 40
0.0
 40
0.0
 40
1.0
 40
1.0
 40
1.0
 40
2.0
 40
2.0
 40
2.0
 40
3.0
 40
3.0
 40
3.0
 40
4.0
 40
4.0
 40
4.0
 40
4.0
 10
66.30775280460362
 20
-126.5600612747836
 30
0.0
 10
66.07038572566991
 20
-126.6372314136532
 30
0.0
 10
66.11379392878405
 20
-126.9214517911863
 30
0.0
 10
66.22041963405253
 20
-127.2494248813821
 30
0.0
 10
66.31912161970494
 20
-127.5529377936326
 30
0.0
 10
66.44865720995034
 20
-127.8357801329716
 30
0.0
 10
66.69601506579127
 20
-127.7551648986168
 30
0.0
 10
66.93131508743384
 20
-127.6786837788442
 30
0.0
 10
66.89100747025641
 20
-127.3961859490537
 30
0.0
 10
66.78369274589089
 20
-127.0664903111153
 30
0.0
 10
66.68499076023848
 20
-126.7622883797678
 30
0.0
 10
66.55321585792767
 20
-126.4804795690743
 30
0.0
 10
66.30775280460362
 20
-126.5600612747836
 30
0.0
  0
HATCH
  5
FC
330
F4
100
AcDbEntity
  8
_U+30EC_U+30A4_U+30E4_U+30FC 1
 62
   179
420
  2234388
100
AcDbHatch
 10
0.0
 20
0.0
 30
0.0
210
0.0
220
0.0
230
1.0
  2
SOLID
 70
     1
 71
     0
 91
        2
 92
        1
 93
        1
 72
     4
 94
        3
 73
     0
 74
     1
 95
       29
 96
       25
 40
0.0
 40
0.0
 40
0.0
 40
0.0
 40
1.0
 40
1.0
 40
1.0
 40
2.0
 40
2.0
 40
2.0
 40
3.0
 40
3.0
 40
3.0
 40
4.0
 40
4.0
 40
4.0
 40
5.0
 40
5.0
 40
5.0
 40
6.0
 40
6.0
 40
6.0
 40
7.0
 40
7.0
 40
7.0
 40
8.0
 40
8.0
 40
8.0
 40
8.0
 10
67.06377900884169
 20
-127.6001356017805
 10
67.02605521327821
 20
-127.8326795470349
 10
66.86689180185967
 20
-127.9043375331281
 10
66.75613198200888
 20
-127.9401665261747
 10
66.60334199723806
 20
-127.9897759011623
 10
66.45416936272674
 20
-127.9897759011623
 10
66.30723604028083
 20
-127.8457709098788
 10
66.14876164795935
 20
-127.6928086703337
 10
66.05729436282596
 20
-127.4733560879233
 10
66.00699596874131
 20
-127.3186713006356
 10
65.96255423698159
 20
-127.1815565003227
 10
65.90088702779562
 20
-126.9369547208699
 10
65.93981660677893
 20
-126.7150905716198
 10
65.98012422395637
 20
-126.4887477982389
 10
66.12550725343391
 20
-126.4167453025972
 10
66.2481526527088
 20
-126.3767821949683
 10
66.39904783496274
 20
-126.3278618390778
 10
66.54959850766816
 20
-126.3257947817866
 10
66.6963595753398
 20
-126.4694552635215
 10
66.85052759830474
 20
-126.6217284839696
 10
66.94337292163222
 20
-126.8315347990213
 10
66.99694415642784
 20
-126.9968993823133
 10
67.04982637212643
 20
-127.1595078892171
 10
67.10081378530813
 20
-127.3855061530495
 10
67.06377900884169
 20
-127.6001356017805
 97
        0
 97
        0
 92
        1
 93
        1
 72
     4
 94
        3
 73
     0
 74
     1
 95
       17
 96
       13
 40
0.0
 40
0.0
 40
0.0
 40
0.0
 40
1.0
 40
1.0
 40
1.0
 40
2.0
 40
2.0
 40
2.0
 40
3.0
 40
3.0
 40
3.0
 40
4.0
 40
4.0
 40
4.0
 40
4.0
 10
66.30775280460362
 20
-126.5600612747836
 10
66.07038572566991
 20
-126.6372314136532
 10
66.11379392878405
 20
-126.9214517911863
 10
66.22041963405253
 20
-127.2494248813821
 10
66.31912161970494
 20
-127.5529377936326
 10
66.44865720995034
 20
-127.8357801329716
 10
66.69601506579127
 20
-127.7551648986168
 10
66.93131508743384
 20
-127.6786837788442
 10
66.89100747025641
 20
-127.3961859490537
 10
66.78369274589089
 20
-127.0664903111153
 10
66.68499076023848
 20
-126.7622883797678
 10
66.55321585792767
 20
-126.4804795690743
 10
66.30775280460362
 20
-126.5600612747836
 97
        0
 97
        0
 75
     2
 76
     1
 98
        0
  0
ENDBLK
  5
F7
330
F4
100
AcDbEntity
  8
0
100
AcDbBlockEnd
  0
ENDSEC
  0
SECTION
  2
ENTITIES
  0
INSERT
  5
42
330
1F
100
AcDbEntity
  8
_U+30EC_U+30A4_U+30E4_U+30FC 1
100
AcDbBlockReference
  2
block 2
 10
0.0
 20
0.0
 30
0.0
  0
ENDSEC
  0
SECTION
  2
OBJECTS
  0
DICTIONARY
  5
C
330
0
100
AcDbDictionary
281
     1
  3
ACAD_GROUP
350
D
  3
ACAD_LAYOUT
350
1A
  3
ACAD_MATERIAL
350
3B
  3
ACAD_MLEADERSTYLE
350
FE
  3
ACAD_MLINESTYLE
350
17
  3
ACAD_PLOTSETTINGS
350
19
  3
ACAD_PLOTSTYLENAME
350
E
  3
ACAD_TABLESTYLE
350
FD
  3
ACAD_VISUALSTYLE
350
2A
  0
SUN
  5
3F
330
29
100
AcDbSun
 90
        1
290
     0
 63
     7
421
 16777215
 40
1.0
291
     1
 91
  2455826
 92
 54000000
292
     0
 70
     2
 71
   256
280
     1
  0
DICTIONARY
  5
D
102
{ACAD_REACTORS
330
C
102
}
330
C
100
AcDbDictionary
281
     1
  0
DICTIONARY
  5
1A
102
{ACAD_REACTORS
330
C
102
}
330
C
100
AcDbDictionary
281
     1
  3
Layout1
350
1E
  3
Layout2
350
26
  3
Model
350
22
  0
DICTIONARY
  5
3B
102
{ACAD_REACTORS
330
C
102
}
330
C
100
AcDbDictionary
281
     1
  3
ByBlock
350
3D
  3
ByLayer
350
3C
  3
Global
350
3E
  0
DICTIONARY
  5
FE
102
{ACAD_REACTORS
330
C
102
}
330
C
100
AcDbDictionary
281
     1
  0
DICTIONARY
  5
17
102
{ACAD_REACTORS
330
C
102
}
330
C
100
AcDbDictionary
281
     1
  3
Standard
350
18
  0
DICTIONARY
  5
19
102
{ACAD_REACTORS
330
C
102
}
330
C
100
AcDbDictionary
281
     1
  0
ACDBDICTIONARYWDFLT
  5
E
102
{ACAD_REACTORS
330
C
102
}
330
C
100
AcDbDictionary
281
     1
  3
Normal
350
F
100
AcDbDictionaryWithDefault
340
F
  0
DICTIONARY
  5
FD
102
{ACAD_REACTORS
330
C
102
}
330
C
100
AcDbDictionary
281
     1
  0
DICTIONARY
  5
2A
102
{ACAD_REACTORS
330
C
102
}
330
C
100
AcDbDictionary
281
     1
  3
2dWireframe
350
2F
  3
3D Hidden
350
31
  3
3dWireframe
350
30
  3
Basic
350
32
  3
Brighten
350
36
  3
ColorChange
350
3A
  3
Conceptual
350
34
  3
Dim
350
35
  3
Facepattern
350
39
  3
Flat
350
2B
  3
FlatWithEdges
350
2C
  3
Gouraud
350
2D
  3
GouraudWithEdges
350
2E
  3
Linepattern
350
38
  3
Realistic
350
33
  3
Thicken
350
37
  0
LAYOUT
  5
1E
102
{ACAD_REACTORS
330
1A
102
}
330
1A
100
AcDbPlotSettings
  1

  2
none_device
  4

  6

 40
0.0
 41
0.0
 42
0.0
 43
0.0
 44
0.0
 45
0.0
 46
0.0
 47
0.0
 48
0.0
 49
0.0
140
0.0
141
0.0
142
1.0
143
1.0
 70
   688
 72
     0
 73
     0
 74
     5
  7

 75
    16
 76
     0
 77
     2
 78
   300
147
1.0
148
0.0
149
0.0
100
AcDbLayout
  1
Layout1
 70
     1
 71
     1
 10
0.0
 20
0.0
 11
12.0
 21
9.0
 12
0.0
 22
0.0
 32
0.0
 14
1.000000000000000E+20
 24
1.000000000000000E+20
 34
1.000000000000000E+20
 15
-1.000000000000000E+20
 25
-1.000000000000000E+20
 35
-1.000000000000000E+20
146
0.0
 13
0.0
 23
0.0
 33
0.0
 16
1.0
 26
0.0
 36
0.0
 17
0.0
 27
1.0
 37
0.0
 76
     0
330
1B
  0
LAYOUT
  5
26
102
{ACAD_REACTORS
330
1A
102
}
330
1A
100
AcDbPlotSettings
  1

  2
none_device
  4

  6

 40
0.0
 41
0.0
 42
0.0
 43
0.0
 44
0.0
 45
0.0
 46
0.0
 47
0.0
 48
0.0
 49
0.0
140
0.0
141
0.0
142
1.0
143
1.0
 70
   688
 72
     0
 73
     0
 74
     5
  7

 75
    16
 76
     0
 77
     2
 78
   300
147
1.0
148
0.0
149
0.0
100
AcDbLayout
  1
Layout2
 70
     1
 71
     2
 10
0.0
 20
0.0
 11
0.0
 21
0.0
 12
0.0
 22
0.0
 32
0.0
 14
0.0
 24
0.0
 34
0.0
 15
0.0
 25
0.0
 35
0.0
146
0.0
 13
0.0
 23
0.0
 33
0.0
 16
1.0
 26
0.0
 36
0.0
 17
0.0
 27
1.0
 37
0.0
 76
     0
330
23
  0
LAYOUT
  5
22
102
{ACAD_REACTORS
330
1A
102
}
330
1A
100
AcDbPlotSettings
  1

  2
none_device
  4

  6

 40
0.0
 41
0.0
 42
0.0
 43
0.0
 44
0.0
 45
0.0
 46
0.0
 47
0.0
 48
0.0
 49
0.0
140
0.0
141
0.0
142
1.0
143
1.0
 70
  1712
 72
     0
 73
     0
 74
     0
  7

 75
     0
 76
     0
 77
     2
 78
   300
147
1.0
148
0.0
149
0.0
100
AcDbLayout
  1
Model
 70
     1
 71
     0
 10
0.0
 20
0.0
 11
12.0
 21
9.0
 12
0.0
 22
0.0
 32
0.0
 14
1.000000000000000E+20
 24
1.000000000000000E+20
 34
1.000000000000000E+20
 15
-1.000000000000000E+20
 25
-1.000000000000000E+20
 35
-1.000000000000000E+20
146
0.0
 13
0.0
 23
0.0
 33
0.0
 16
1.0
 26
0.0
 36
0.0
 17
0.0
 27
1.0
 37
0.0
 76
     0
330
1F
331
29
  0
MATERIAL
  5
3D
102
{ACAD_REACTORS
330
3B
102
}
330
3B
100
AcDbMaterial
  1
ByBlock
 72
     1
 94
      127
  0
MATERIAL
  5
3C
102
{ACAD_REACTORS
330
3B
102
}
330
3B
100
AcDbMaterial
  1
ByLayer
 72
     1
 94
      127
  0
MATERIAL
  5
3E
102
{ACAD_REACTORS
330
3B
102
}
330
3B
100
AcDbMaterial
  1
Global
 72
     1
 94
      127
  0
MLINESTYLE
  5
18
102
{ACAD_REACTORS
330
17
102
}
330
17
100
AcDbMlineStyle
  2
Standard
 70
     0
  3

 62
   256
 51
90.0
 52
90.0
 71
     2
 49
0.5
 62
   256
  6
BYLAYER
 49
-0.5
 62
   256
  6
BYLAYER
  0
ACDBPLACEHOLDER
  5
F
102
{ACAD_REACTORS
330
E
102
}
330
E
  0
VISUALSTYLE
  5
2F
102
{ACAD_REACTORS
330
2A
102
}
330
2A
100
AcDbVisualStyle
  2
2dWireframe
 70
     4
177
     2
291
     0
 71
     0
176
     1
 72
     2
176
     1
 73
     0
176
     1
 90
        0
176
     1
 40
-0.6
176
     1
 41
-30.0
176
     1
 62
     5
 63
     7
421
 16777215
176
     1
 74
     1
176
     1
 91
        4
176
     1
 64
     7
176
     1
 65
   257
176
     1
 75
     1
176
     1
175
     1
176
     1
 42
1.0
176
     1
 92
        0
176
     1
 66
   257
176
     1
 43
1.0
176
     1
 76
     1
176
     1
 77
     6
176
     1
 78
     2
176
     1
 67
     7
176
     1
 79
     5
176
     1
170
     0
176
     1
171
     0
176
     1
290
     0
176
     1
 93
        1
176
     1
 44
0.0
176
     1
173
     0
176
     1
  0
VISUALSTYLE
  5
31
102
{ACAD_REACTORS
330
2A
102
}
330
2A
100
AcDbVisualStyle
  2
3D Hidden
 70
     6
177
     2
291
     0
 71
     1
176
     1
 72
     2
176
     1
 73
     2
176
     1
 90
        0
176
     1
 40
-0.6
176
     1
 41
-30.0
176
     1
 62
     5
 63
     7
421
 16777215
176
     1
 74
     2
176
     1
 91
        2
176
     1
 64
     7
176
     1
 65
   257
176
     1
 75
     2
176
     1
175
     1
176
     1
 42
40.0
176
     1
 92
        0
176
     1
 66
   257
176
     1
 43
1.0
176
     1
 76
     1
176
     1
 77
     6
176
     1
 78
     2
176
     1
 67
     7
176
     1
 79
     3
176
     1
170
     0
176
     1
171
     0
176
     1
290
     0
176
     1
 93
        1
176
     1
 44
0.0
176
     1
173
     0
176
     1
  0
VISUALSTYLE
  5
30
102
{ACAD_REACTORS
330
2A
102
}
330
2A
100
AcDbVisualStyle
  2
3dWireframe
 70
     5
177
     2
291
     0
 71
     0
176
     1
 72
     2
176
     1
 73
     0
176
     1
 90
        0
176
     1
 40
-0.6
176
     1
 41
-30.0
176
     1
 62
     5
 63
     7
421
 16777215
176
     1
 74
     1
176
     1
 91
        4
176
     1
 64
     7
176
     1
 65
   257
176
     1
 75
     1
176
     1
175
     1
176
     1
 42
1.0
176
     1
 92
        0
176
     1
 66
   257
176
     1
 43
1.0
176
     1
 76
     1
176
     1
 77
     6
176
     1
 78
     2
176
     1
 67
     7
176
     1
 79
     5
176
     1
170
     0
176
     1
171
     0
176
     1
290
     0
176
     1
 93
        1
176
     1
 44
0.0
176
     1
173
     0
176
     1
  0
VISUALSTYLE
  5
32
102
{ACAD_REACTORS
330
2A
102
}
330
2A
100
AcDbVisualStyle
  2
Basic
 70
     7
177
     2
291
     1
 71
     1
176
     1
 72
     0
176
     1
 73
     1
176
     1
 90
        0
176
     1
 40
-0.6
176
     1
 41
-30.0
176
     1
 62
     5
 63
     7
421
 16777215
176
     1
 74
     0
176
     1
 91
        4
176
     1
 64
     7
176
     1
 65
   257
176
     1
 75
     1
176
     1
175
     1
176
     1
 42
1.0
176
     1
 92
        8
176
     1
 66
     7
176
     1
 43
1.0
176
     1
 76
     1
176
     1
 77
     6
176
     1
 78
     2
176
     1
 67
     7
176
     1
 79
     5
176
     1
170
     0
176
     1
171
     0
176
     1
290
     0
176
     1
 93
        1
176
     1
 44
0.0
176
     1
173
     0
176
     1
  0
VISUALSTYLE
  5
36
102
{ACAD_REACTORS
330
2A
102
}
330
2A
100
AcDbVisualStyle
  2
Brighten
 70
    12
177
     2
291
     1
 71
     2
176
     1
 72
     2
176
     1
 73
     0
176
     1
 90
        0
176
     1
 40
-0.6
176
     1
 41
-30.0
176
     1
 62
     5
 63
     7
421
 16777215
176
     1
 74
     1
176
     1
 91
        4
176
     1
 64
     7
176
     1
 65
   257
176
     1
 75
     1
176
     1
175
     1
176
     1
 42
1.0
176
     1
 92
        8
176
     1
 66
     7
176
     1
 43
1.0
176
     1
 76
     1
176
     1
 77
     6
176
     1
 78
     2
176
     1
 67
     7
176
     1
 79
     5
176
     1
170
     0
176
     1
171
     0
176
     1
290
     0
176
     1
 93
        1
176
     1
 44
50.0
176
     1
173
     0
176
     1
  0
VISUALSTYLE
  5
3A
102
{ACAD_REACTORS
330
2A
102
}
330
2A
100
AcDbVisualStyle
  2
ColorChange
 70
    16
177
     2
291
     1
 71
     2
176
     1
 72
     2
176
     1
 73
     3
176
     1
 90
        0
176
     1
 40
-0.6
176
     1
 41
-30.0
176
     1
 62
     5
 63
     8
421
  8421504
176
     1
 74
     1
176
     1
 91
        4
176
     1
 64
     7
176
     1
 65
   257
176
     1
 75
     1
176
     1
175
     1
176
     1
 42
1.0
176
     1
 92
        8
176
     1
 66
     8
424
  8421504
176
     1
 43
1.0
176
     1
 76
     1
176
     1
 77
     6
176
     1
 78
     2
176
     1
 67
     7
176
     1
 79
     5
176
     1
170
     0
176
     1
171
     0
176
     1
290
     0
176
     1
 93
        1
176
     1
 44
0.0
176
     1
173
     0
176
     1
  0
VISUALSTYLE
  5
34
102
{ACAD_REACTORS
330
2A
102
}
330
2A
100
AcDbVisualStyle
  2
Conceptual
 70
     9
177
     2
291
     0
 71
     3
176
     1
 72
     2
176
     1
 73
     0
176
     1
 90
        0
176
     1
 40
-0.6
176
     1
 41
-30.0
176
     1
 62
     5
 63
     7
421
 16777215
176
     1
 74
     2
176
     1
 91
        2
176
     1
 64
     7
176
     1
 65
   257
176
     1
 75
     1
176
     1
175
     1
176
     1
 42
40.0
176
     1
 92
        8
176
     1
 66
     7
176
     1
 43
1.0
176
     1
 76
     1
176
     1
 77
     6
176
     1
 78
     2
176
     1
 67
     7
176
     1
 79
     3
176
     1
170
     0
176
     1
171
     0
176
     1
290
     0
176
     1
 93
        1
176
     1
 44
0.0
176
     1
173
     0
176
     1
  0
VISUALSTYLE
  5
35
102
{ACAD_REACTORS
330
2A
102
}
330
2A
100
AcDbVisualStyle
  2
Dim
 70
    11
177
     2
291
     1
 71
     2
176
     1
 72
     2
176
     1
 73
     0
176
     1
 90
        0
176
     1
 40
-0.6
176
     1
 41
-30.0
176
     1
 62
     5
 63
     7
421
 16777215
176
     1
 74
     1
176
     1
 91
        4
176
     1
 64
     7
176
     1
 65
   257
176
     1
 75
     1
176
     1
175
     1
176
     1
 42
1.0
176
     1
 92
        8
176
     1
 66
     7
176
     1
 43
1.0
176
     1
 76
     1
176
     1
 77
     6
176
     1
 78
     2
176
     1
 67
     7
176
     1
 79
     5
176
     1
170
     0
176
     1
171
     0
176
     1
290
     0
176
     1
 93
        1
176
     1
 44
-50.0
176
     1
173
     0
176
     1
  0
VISUALSTYLE
  5
39
102
{ACAD_REACTORS
330
2A
102
}
330
2A
100
AcDbVisualStyle
  2
Facepattern
 70
    15
177
     2
291
     1
 71
     2
176
     1
 72
     2
176
     1
 73
     0
176
     1
 90
        0
176
     1
 40
-0.6
176
     1
 41
-30.0
176
     1
 62
     5
 63
     7
421
 16777215
176
     1
 74
     1
176
     1
 91
        4
176
     1
 64
     7
176
     1
 65
   257
176
     1
 75
     1
176
     1
175
     1
176
     1
 42
1.0
176
     1
 92
        8
176
     1
 66
     7
176
     1
 43
1.0
176
     1
 76
     1
176
     1
 77
     6
176
     1
 78
     2
176
     1
 67
     7
176
     1
 79
     5
176
     1
170
     0
176
     1
171
     0
176
     1
290
     0
176
     1
 93
        1
176
     1
 44
0.0
176
     1
173
     0
176
     1
  0
VISUALSTYLE
  5
2B
102
{ACAD_REACTORS
330
2A
102
}
330
2A
100
AcDbVisualStyle
  2
Flat
 70
     0
177
     2
291
     1
 71
     2
176
     1
 72
     1
176
     1
 73
     1
176
     1
 90
        2
176
     1
 40
-0.6
176
     1
 41
30.0
176
     1
 62
     5
 63
     7
421
 16777215
176
     1
 74
     0
176
     1
 91
        4
176
     1
 64
     7
176
     1
 65
   257
176
     1
 75
     1
176
     1
175
     1
176
     1
 42
1.0
176
     1
 92
        8
176
     1
 66
     7
176
     1
 43
1.0
176
     1
 76
     1
176
     1
 77
     6
176
     1
 78
     2
176
     1
 67
     7
176
     1
 79
     5
176
     1
170
     0
176
     1
171
     0
176
     1
290
     0
176
     1
 93
       13
176
     1
 44
0.0
176
     1
173
     0
176
     1
  0
VISUALSTYLE
  5
2C
102
{ACAD_REACTORS
330
2A
102
}
330
2A
100
AcDbVisualStyle
  2
FlatWithEdges
 70
     1
177
     2
291
     1
 71
     2
176
     1
 72
     1
176
     1
 73
     1
176
     1
 90
        2
176
     1
 40
-0.6
176
     1
 41
30.0
176
     1
 62
     5
 63
     7
421
 16777215
176
     1
 74
     1
176
     1
 91
        4
176
     1
 64
     7
176
     1
 65
   257
176
     1
 75
     1
176
     1
175
     1
176
     1
 42
1.0
176
     1
 92
        0
176
     1
 66
   257
176
     1
 43
1.0
176
     1
 76
     1
176
     1
 77
     6
176
     1
 78
     2
176
     1
 67
     7
176
     1
 79
     5
176
     1
170
     0
176
     1
171
     0
176
     1
290
     0
176
     1
 93
       13
176
     1
 44
0.0
176
     1
173
     0
176
     1
  0
VISUALSTYLE
  5
2D
102
{ACAD_REACTORS
330
2A
102
}
330
2A
100
AcDbVisualStyle
  2
Gouraud
 70
     2
177
     2
291
     1
 71
     2
176
     1
 72
     2
176
     1
 73
     1
176
     1
 90
        2
176
     1
 40
-0.6
176
     1
 41
30.0
176
     1
 62
     5
 63
     7
421
 16777215
176
     1
 74
     0
176
     1
 91
        4
176
     1
 64
     7
176
     1
 65
   257
176
     1
 75
     1
176
     1
175
     1
176
     1
 42
1.0
176
     1
 92
        0
176
     1
 66
     7
176
     1
 43
1.0
176
     1
 76
     1
176
     1
 77
     6
176
     1
 78
     2
176
     1
 67
     7
176
     1
 79
     5
176
     1
170
     0
176
     1
171
     0
176
     1
290
     0
176
     1
 93
       13
176
     1
 44
0.0
176
     1
173
     0
176
     1
  0
VISUALSTYLE
  5
2E
102
{ACAD_REACTORS
330
2A
102
}
330
2A
100
AcDbVisualStyle
  2
GouraudWithEdges
 70
     3
177
     2
291
     1
 71
     2
176
     1
 72
     2
176
     1
 73
     1
176
     1
 90
        2
176
     1
 40
-0.6
176
     1
 41
30.0
176
     1
 62
     5
 63
     7
421
 16777215
176
     1
 74
     1
176
     1
 91
        4
176
     1
 64
     7
176
     1
 65
   257
176
     1
 75
     1
176
     1
175
     1
176
     1
 42
1.0
176
     1
 92
        0
176
     1
 66
   257
176
     1
 43
1.0
176
     1
 76
     1
176
     1
 77
     6
176
     1
 78
     2
176
     1
 67
     7
176
     1
 79
     5
176
     1
170
     0
176
     1
171
     0
176
     1
290
     0
176
     1
 93
       13
176
     1
 44
0.0
176
     1
173
     0
176
     1
  0
VISUALSTYLE
  5
38
102
{ACAD_REACTORS
330
2A
102
}
330
2A
100
AcDbVisualStyle
  2
Linepattern
 70
    14
177
     2
291
     1
 71
     2
176
     1
 72
     2
176
     1
 73
     0
176
     1
 90
        0
176
     1
 40
-0.6
176
     1
 41
-30.0
176
     1
 62
     5
 63
     7
421
 16777215
176
     1
 74
     1
176
     1
 91
        4
176
     1
 64
     7
176
     1
 65
   257
176
     1
 75
     7
176
     1
175
     7
176
     1
 42
1.0
176
     1
 92
        8
176
     1
 66
     7
176
     1
 43
1.0
176
     1
 76
     1
176
     1
 77
     6
176
     1
 78
     2
176
     1
 67
     7
176
     1
 79
     5
176
     1
170
     0
176
     1
171
     0
176
     1
290
     0
176
     1
 93
        1
176
     1
 44
0.0
176
     1
173
     0
176
     1
  0
VISUALSTYLE
  5
33
102
{ACAD_REACTORS
330
2A
102
}
330
2A
100
AcDbVisualStyle
  2
Realistic
 70
     8
177
     2
291
     0
 71
     2
176
     1
 72
     2
176
     1
 73
     0
176
     1
 90
        0
176
     1
 40
-0.6
176
     1
 41
-30.0
176
     1
 62
     5
 63
     7
421
 16777215
176
     1
 74
     1
176
     1
 91
        0
176
     1
 64
     7
176
     1
 65
   257
176
     1
 75
     1
176
     1
175
     1
176
     1
 42
1.0
176
     1
 92
        8
176
     1
 66
     8
424
  7895160
176
     1
 43
1.0
176
     1
 76
     1
176
     1
 77
     6
176
     1
 78
     2
176
     1
 67
     7
176
     1
 79
     5
176
     1
170
     0
176
     1
171
     0
176
     1
290
     0
176
     1
 93
       13
176
     1
 44
0.0
176
     1
173
     0
176
     1
  0
VISUALSTYLE
  5
37
102
{ACAD_REACTORS
330
2A
102
}
330
2A
100
AcDbVisualStyle
  2
Thicken
 70
    13
177
     2
291
     1
 71
     2
176
     1
 72
     2
176
     1
 73
     0
176
     1
 90
        0
176
     1
 40
-0.6
176
     1
 41
-30.0
176
     1
 62
     5
 63
     7
421
 16777215
176
     1
 74
     1
176
     1
 91
        4
176
     1
 64
     7
176
     1
 65
   257
176
     1
 75
     1
176
     1
175
     1
176
     1
 42
1.0
176
     1
 92
       12
176
     1
 66
     7
176
     1
 43
1.0
176
     1
 76
     1
176
     1
 77
     6
176
     1
 78
     2
176
     1
 67
     7
176
     1
 79
     5
176
     1
170
     0
176
     1
171
     0
176
     1
290
     0
176
     1
 93
        1
176
     1
 44
0.0
176
     1
173
     0
176
     1
  0
ENDSEC
  0
EOF
