  0
SECTION
  2
HEADER
  9
$ACADVER
  1
AC1024
  9
$ACADMAINTVER
 70
     6
  9
$DWGCODEPAGE
  3
UNDEFINED
  9
$INSBASE
 10
0.0
 20
0.0
 30
0.0
  9
$EXTMIN
 10
1.000000000000000E+20
 20
1.000000000000000E+20
 30
1.000000000000000E+20
  9
$EXTMAX
 10
-1.000000000000000E+20
 20
-1.000000000000000E+20
 30
-1.000000000000000E+20
  9
$LIMMIN
 10
0.0
 20
0.0
  9
$LIMMAX
 10
12.0
 20
9.0
  9
$ORTHOMODE
 70
     0
  9
$REGENMODE
 70
     1
  9
$FILLMODE
 70
     1
  9
$QTEXTMODE
 70
     0
  9
$MIRRTEXT
 70
     1
  9
$LTSCALE
 40
1.0
  9
$ATTMODE
 70
     1
  9
$TEXTSIZE
 40
0.2
  9
$TRACEWID
 40
0.05
  9
$TEXTSTYLE
  7
Standard
  9
$CLAYER
  8
0
  9
$CELTYPE
  6
ByLayer
  9
$CECOLOR
 62
   256
  9
$CELTSCALE
 40
1.0
  9
$DISPSILH
 70
     0
  9
$DIMSCALE
 40
1.0
  9
$DIMASZ
 40
0.18
  9
$DIMEXO
 40
0.0625
  9
$DIMDLI
 40
0.38
  9
$DIMRND
 40
0.0
  9
$DIMDLE
 40
0.0
  9
$DIMEXE
 40
0.18
  9
$DIMTP
 40
0.0
  9
$DIMTM
 40
0.0
  9
$DIMTXT
 40
0.18
  9
$DIMCEN
 40
0.09
  9
$DIMTSZ
 40
0.0
  9
$DIMTOL
 70
     0
  9
$DIMLIM
 70
     0
  9
$DIMTIH
 70
     1
  9
$DIMTOH
 70
     1
  9
$DIMSE1
 70
     0
  9
$DIMSE2
 70
     0
  9
$DIMTAD
 70
     0
  9
$DIMZIN
 70
     0
  9
$DIMBLK
  1

  9
$DIMASO
 70
     1
  9
$DIMSHO
 70
     1
  9
$DIMPOST
  1

  9
$DIMAPOST
  1

  9
$DIMALT
 70
     0
  9
$DIMALTD
 70
     2
  9
$DIMALTF
 40
25.4
  9
$DIMLFAC
 40
1.0
  9
$DIMTOFL
 70
     0
  9
$DIMTVP
 40
0.0
  9
$DIMTIX
 70
     0
  9
$DIMSOXD
 70
     0
  9
$DIMSAH
 70
     0
  9
$DIMBLK1
  1

  9
$DIMBLK2
  1

  9
$DIMSTYLE
  2
Standard
  9
$DIMCLRD
 70
     0
  9
$DIMCLRE
 70
     0
  9
$DIMCLRT
 70
     0
  9
$DIMTFAC
 40
1.0
  9
$DIMGAP
 40
0.09
  9
$DIMJUST
 70
     0
  9
$DIMSD1
 70
     0
  9
$DIMSD2
 70
     0
  9
$DIMTOLJ
 70
     1
  9
$DIMTZIN
 70
     0
  9
$DIMALTZ
 70
     0
  9
$DIMALTTZ
 70
     0
  9
$DIMUPT
 70
     0
  9
$DIMDEC
 70
     4
  9
$DIMTDEC
 70
     4
  9
$DIMALTU
 70
     2
  9
$DIMALTTD
 70
     2
  9
$DIMTXSTY
  7
Standard
  9
$DIMAUNIT
 70
     0
  9
$DIMADEC
 70
     0
  9
$DIMALTRND
 40
0.0
  9
$DIMAZIN
 70
     0
  9
$DIMDSEP
 70
    46
  9
$DIMATFIT
 70
     3
  9
$DIMFRAC
 70
     0
  9
$DIMLDRBLK
  1

  9
$DIMLUNIT
 70
     2
  9
$DIMLWD
 70
    -2
  9
$DIMLWE
 70
    -2
  9
$DIMTMOVE
 70
     0
  9
$DIMFXL
 40
1.0
  9
$DIMFXLON
 70
     0
  9
$DIMJOGANG
 40
0.7853981633974483
  9
$DIMTFILL
 70
     0
  9
$DIMTFILLCLR
 70
     0
  9
$DIMARCSYM
 70
     0
  9
$DIMLTYPE
  6

  9
$DIMLTEX1
  6

  9
$DIMLTEX2
  6

  9
$DIMTXTDIRECTION
 70
     0
  9
$LUNITS
 70
     2
  9
$LUPREC
 70
     4
  9
$SKETCHINC
 40
0.1
  9
$FILLETRAD
 40
0.5
  9
$AUNITS
 70
     0
  9
$AUPREC
 70
     0
  9
$MENU
  1
.
  9
$ELEVATION
 40
0.0
  9
$PELEVATION
 40
0.0
  9
$THICKNESS
 40
0.0
  9
$LIMCHECK
 70
     0
  9
$CHAMFERA
 40
0.5
  9
$CHAMFERB
 40
0.5
  9
$CHAMFERC
 40
1.0
  9
$CHAMFERD
 40
0.0
  9
$SKPOLY
 70
     0
  9
$TDCREATE
 40
2457917.585833333
  9
$TDUCREATE
 40
2457917.210833333
  9
$TDUPDATE
 40
2457917.585833333
  9
$TDUUPDATE
 40
2457917.210833333
  9
$TDINDWG
 40
0.0000000116
  9
$TDUSRTIMER
 40
0.0000000116
  9
$USRTIMER
 70
     1
  9
$ANGBASE
 50
0.0
  9
$ANGDIR
 70
     0
  9
$PDMODE
 70
     0
  9
$PDSIZE
 40
0.0
  9
$PLINEWID
 40
0.0
  9
$SPLFRAME
 70
     0
  9
$SPLINETYPE
 70
     6
  9
$SPLINESEGS
 70
     8
  9
$HANDSEED
  5
132
  9
$SURFTAB1
 70
     6
  9
$SURFTAB2
 70
     6
  9
$SURFTYPE
 70
     6
  9
$SURFU
 70
     6
  9
$SURFV
 70
     6
  9
$UCSBASE
  2

  9
$UCSNAME
  2

  9
$UCSORG
 10
0.0
 20
0.0
 30
0.0
  9
$UCSXDIR
 10
1.0
 20
0.0
 30
0.0
  9
$UCSYDIR
 10
0.0
 20
1.0
 30
0.0
  9
$UCSORTHOREF
  2

  9
$UCSORTHOVIEW
 70
     0
  9
$UCSORGTOP
 10
0.0
 20
0.0
 30
0.0
  9
$UCSORGBOTTOM
 10
0.0
 20
0.0
 30
0.0
  9
$UCSORGLEFT
 10
0.0
 20
0.0
 30
0.0
  9
$UCSORGRIGHT
 10
0.0
 20
0.0
 30
0.0
  9
$UCSORGFRONT
 10
0.0
 20
0.0
 30
0.0
  9
$UCSORGBACK
 10
0.0
 20
0.0
 30
0.0
  9
$PUCSBASE
  2

  9
$PUCSNAME
  2

  9
$PUCSORG
 10
0.0
 20
0.0
 30
0.0
  9
$PUCSXDIR
 10
1.0
 20
0.0
 30
0.0
  9
$PUCSYDIR
 10
0.0
 20
1.0
 30
0.0
  9
$PUCSORTHOREF
  2

  9
$PUCSORTHOVIEW
 70
     0
  9
$PUCSORGTOP
 10
0.0
 20
0.0
 30
0.0
  9
$PUCSORGBOTTOM
 10
0.0
 20
0.0
 30
0.0
  9
$PUCSORGLEFT
 10
0.0
 20
0.0
 30
0.0
  9
$PUCSORGRIGHT
 10
0.0
 20
0.0
 30
0.0
  9
$PUCSORGFRONT
 10
0.0
 20
0.0
 30
0.0
  9
$PUCSORGBACK
 10
0.0
 20
0.0
 30
0.0
  9
$USERI1
 70
     0
  9
$USERI2
 70
     0
  9
$USERI3
 70
     0
  9
$USERI4
 70
     0
  9
$USERI5
 70
     0
  9
$USERR1
 40
0.0
  9
$USERR2
 40
0.0
  9
$USERR3
 40
0.0
  9
$USERR4
 40
0.0
  9
$USERR5
 40
0.0
  9
$WORLDVIEW
 70
     1
  9
$SHADEDGE
 70
     3
  9
$SHADEDIF
 70
    70
  9
$TILEMODE
 70
     1
  9
$MAXACTVP
 70
    64
  9
$PINSBASE
 10
0.0
 20
0.0
 30
0.0
  9
$PLIMCHECK
 70
     0
  9
$PEXTMIN
 10
1.000000000000000E+20
 20
1.000000000000000E+20
 30
1.000000000000000E+20
  9
$PEXTMAX
 10
-1.000000000000000E+20
 20
-1.000000000000000E+20
 30
-1.000000000000000E+20
  9
$PLIMMIN
 10
0.0
 20
0.0
  9
$PLIMMAX
 10
12.0
 20
9.0
  9
$UNITMODE
 70
     0
  9
$VISRETAIN
 70
     1
  9
$PLINEGEN
 70
     0
  9
$PSLTSCALE
 70
     1
  9
$TREEDEPTH
 70
  3020
  9
$CMLSTYLE
  2
Standard
  9
$CMLJUST
 70
     0
  9
$CMLSCALE
 40
1.0
  9
$PROXYGRAPHICS
 70
     1
  9
$MEASUREMENT
 70
     0
  9
$CELWEIGHT
370
    -1
  9
$ENDCAPS
280
     0
  9
$JOINSTYLE
280
     0
  9
$LWDISPLAY
290
     1
  9
$INSUNITS
 70
     1
  9
$HYPERLINKBASE
  1

  9
$STYLESHEET
  1

  9
$XEDIT
290
     1
  9
$CEPSNTYPE
380
     0
  9
$PSTYLEMODE
290
     1
  9
$FINGERPRINTGUID
  2
{F9BB940C-4C78-D8CB-F6CF-63B03B1A235F}
  9
$VERSIONGUID
  2
{FAEB1C32-E019-11D5-929B-00C0DF256EC4}
  9
$EXTNAMES
290
     1
  9
$PSVPSCALE
 40
0.0
  9
$OLESTARTUP
290
     0
  9
$SORTENTS
280
   127
  9
$INDEXCTL
280
     0
  9
$HIDETEXT
280
     1
  9
$XCLIPFRAME
280
     2
  9
$HALOGAP
280
     0
  9
$OBSCOLOR
 70
   257
  9
$OBSLTYPE
280
     0
  9
$INTERSECTIONDISPLAY
280
     0
  9
$INTERSECTIONCOLOR
 70
   257
  9
$DIMASSOC
280
     2
  9
$PROJECTNAME
  1

  9
$CAMERADISPLAY
290
     0
  9
$LENSLENGTH
 40
50.0
  9
$CAMERAHEIGHT
 40
0.0
  9
$STEPSPERSEC
 40
2.0
  9
$STEPSIZE
 40
6.0
  9
$3DDWFPREC
 40
2.0
  9
$PSOLWIDTH
 40
0.25
  9
$PSOLHEIGHT
 40
4.0
  9
$LOFTANG1
 40
1.570796326794897
  9
$LOFTANG2
 40
1.570796326794897
  9
$LOFTMAG1
 40
0.0
  9
$LOFTMAG2
 40
0.0
  9
$LOFTPARAM
 70
     7
  9
$LOFTNORMALS
280
     1
  9
$LATITUDE
 40
37.795
  9
$LONGITUDE
 40
-122.394
  9
$NORTHDIRECTION
 40
0.0
  9
$TIMEZONE
 70
 -8000
  9
$LIGHTGLYPHDISPLAY
280
     1
  9
$TILEMODELIGHTSYNCH
280
     1
  9
$CMATERIAL
347
3C
  9
$SOLIDHIST
280
     1
  9
$SHOWHIST
280
     1
  9
$DWFFRAME
280
     2
  9
$DGNFRAME
280
     2
  9
$REALWORLDSCALE
290
     1
  9
$INTERFERECOLOR
 62
   256
  9
$CSHADOW
280
     0
  9
$SHADOWPLANELOCATION
 40
0.0
  0
ENDSEC
  0
SECTION
  2
CLASSES
  0
CLASS
  1
ACDBDICTIONARYWDFLT
  2
AcDbDictionaryWithDefault
  3
ObjectDBX Classes
 90
        0
 91
        4
280
     0
281
     0
  0
CLASS
  1
VISUALSTYLE
  2
AcDbVisualStyle
  3
ObjectDBX Classes
 90
     4095
 91
        4
280
     0
281
     0
  0
CLASS
  1
MATERIAL
  2
AcDbMaterial
  3
ObjectDBX Classes
 90
     1153
 91
        4
280
     0
281
     0
  0
CLASS
  1
SUN
  2
AcDbSun
  3
SCENEOE
 90
     1024
 91
        4
280
     0
281
     0
  0
ENDSEC
  0
SECTION
  2
TABLES
  0
TABLE
  2
VPORT
  5
8
330
0
100
AcDbSymbolTable
 70
     1
  0
VPORT
  5
29
330
8
100
AcDbSymbolTableRecord
100
AcDbViewportTableRecord
  2
*Active
 70
     0
 10
0.0
 20
0.0
 11
1.0
 21
1.0
 12
0.0
 22
0.0
 13
0.0
 23
0.0
 14
0.5
 24
0.5
 15
0.5
 25
0.5
 16
0.0
 26
0.0
 36
1.0
 17
91.00082462281999
 27
-128.4993055234307
 37
0.0
 40
256.9986110468615
 41
0.7081814508812795
 42
50.0
 43
0.0
 44
0.0
 50
0.0
 51
0.0
 71
     0
 72
   100
 73
     1
 74
     3
 75
     0
 76
     0
 77
     0
 78
     0
281
     0
 65
     1
110
0.0
120
0.0
130
0.0
111
1.0
121
0.0
131
0.0
112
0.0
122
1.0
132
0.0
 79
     0
146
0.0
 60
     3
 61
     5
292
     1
282
     1
141
0.0
142
0.0
 63
   250
361
3F
  0
ENDTAB
  0
TABLE
  2
LTYPE
  5
5
330
0
100
AcDbSymbolTable
 70
     3
  0
LTYPE
  5
14
330
5
100
AcDbSymbolTableRecord
100
AcDbLinetypeTableRecord
  2
ByBlock
 70
     0
  3

 72
    65
 73
     0
 40
0.0
  0
LTYPE
  5
15
330
5
100
AcDbSymbolTableRecord
100
AcDbLinetypeTableRecord
  2
ByLayer
 70
     0
  3

 72
    65
 73
     0
 40
0.0
  0
LTYPE
  5
16
330
5
100
AcDbSymbolTableRecord
100
AcDbLinetypeTableRecord
  2
Continuous
 70
     0
  3
Solid line
 72
    65
 73
     0
 40
0.0
  0
LTYPE
  5
129
330
5
100
AcDbSymbolTableRecord
100
AcDbLinetypeTableRecord
  2
AI-Linetype-1
 70
     0
  3
Adobe Illustrator Linetype No. 1
 72
    65
 73
     2
 40
1.411111110758333
 49
0.7055555553791667
 74
     0
 49
-0.7055555553791667
 74
     0
  0
LTYPE
  5
12E
330
5
100
AcDbSymbolTableRecord
100
AcDbLinetypeTableRecord
  2
AI-Linetype-2
 70
     0
  3
Adobe Illustrator Linetype No. 2
 72
    65
 73
     2
 40
1.411111110758333
 49
0.7055555553791667
 74
     0
 49
-0.7055555553791667
 74
     0
  0
ENDTAB
  0
TABLE
  2
LAYER
  5
2
330
0
100
AcDbSymbolTable
 70
     2
  0
LAYER
  5
10
330
2
100
AcDbSymbolTableRecord
100
AcDbLayerTableRecord
  2
0
 70
     0
 62
     7
  6
Continuous
370
    -3
390
F
347
3E
  0
LAYER
  5
40
330
2
100
AcDbSymbolTableRecord
100
AcDbLayerTableRecord
  2
_U+30EC_U+30A4_U+30E4_U+30FC 1
 70
     0
 62
     7
  6
Continuous
370
    -3
390
F
347
3E
  0
ENDTAB
  0
TABLE
  2
STYLE
  5
3
330
0
100
AcDbSymbolTable
 70
     1
  0
STYLE
  5
11
330
3
100
AcDbSymbolTableRecord
100
AcDbTextStyleTableRecord
  2
Standard
 70
     0
 40
0.0
 41
1.0
 50
0.0
 71
     0
 42
0.2
  3
txt
  4

  0
ENDTAB
  0
TABLE
  2
VIEW
  5
6
330
0
100
AcDbSymbolTable
 70
     0
  0
ENDTAB
  0
TABLE
  2
UCS
  5
7
330
0
100
AcDbSymbolTable
 70
     0
  0
ENDTAB
  0
TABLE
  2
APPID
  5
9
330
0
100
AcDbSymbolTable
 70
     1
  0
APPID
  5
12
330
9
100
AcDbSymbolTableRecord
100
AcDbRegAppTableRecord
  2
ACAD
 70
     0
  0
ENDTAB
  0
TABLE
  2
DIMSTYLE
  5
A
330
0
100
AcDbSymbolTable
 70
     1
100
AcDbDimStyleTable
  0
DIMSTYLE
105
27
330
A
100
AcDbSymbolTableRecord
100
AcDbDimStyleTableRecord
  2
Standard
 70
     0
178
     0
340
11
  0
ENDTAB
  0
TABLE
  2
BLOCK_RECORD
  5
1
330
0
100
AcDbSymbolTable
 70
     6
  0
BLOCK_RECORD
  5
1F
330
1
100
AcDbSymbolTableRecord
100
AcDbBlockTableRecord
  2
*Model_Space
340
22
 70
     0
280
     1
281
     0
  0
BLOCK_RECORD
  5
1B
330
1
100
AcDbSymbolTableRecord
100
AcDbBlockTableRecord
  2
*Paper_Space
340
1E
 70
     0
280
     1
281
     0
  0
BLOCK_RECORD
  5
23
330
1
100
AcDbSymbolTableRecord
100
AcDbBlockTableRecord
  2
*Paper_Space0
340
26
 70
     0
280
     1
281
     0
  0
BLOCK_RECORD
  5
41
330
1
100
AcDbSymbolTableRecord
100
AcDbBlockTableRecord
  2
block 2
340
0
102
{BLKREFS
331
42
102
}
 70
     0
280
     1
281
     0
  0
BLOCK_RECORD
  5
59
330
1
100
AcDbSymbolTableRecord
100
AcDbBlockTableRecord
  2
block 3
340
0
102
{BLKREFS
331
5A
102
}
 70
     0
280
     1
281
     0
  0
BLOCK_RECORD
  5
B3
330
1
100
AcDbSymbolTableRecord
100
AcDbBlockTableRecord
  2
block 4
340
0
102
{BLKREFS
331
B4
102
}
 70
     0
280
     1
281
     0
  0
BLOCK_RECORD
  5
CD
330
1
100
AcDbSymbolTableRecord
100
AcDbBlockTableRecord
  2
block 5
340
0
102
{BLKREFS
331
CE
102
}
 70
     0
280
     1
281
     0
  0
BLOCK_RECORD
  5
FE
330
1
100
AcDbSymbolTableRecord
100
AcDbBlockTableRecord
  2
block 6
340
0
102
{BLKREFS
331
FF
102
}
 70
     0
280
     1
281
     0
  0
ENDTAB
  0
ENDSEC
  0
SECTION
  2
BLOCKS
  0
BLOCK
  5
20
330
1F
100
AcDbEntity
  8
0
100
AcDbBlockBegin
  2
*Model_Space
 70
     0
 10
0.0
 20
0.0
 30
0.0
  3
*Model_Space
  1

  0
ENDBLK
  5
21
330
1F
100
AcDbEntity
  8
0
100
AcDbBlockEnd
  0
BLOCK
  5
1C
330
1B
100
AcDbEntity
 67
     1
  8
0
100
AcDbBlockBegin
  2
*Paper_Space
 70
     0
 10
0.0
 20
0.0
 30
0.0
  3
*Paper_Space
  1

  0
ENDBLK
  5
1D
330
1B
100
AcDbEntity
 67
     1
  8
0
100
AcDbBlockEnd
  0
BLOCK
  5
24
330
23
100
AcDbEntity
  8
0
100
AcDbBlockBegin
  2
*Paper_Space0
 70
     0
 10
0.0
 20
0.0
 30
0.0
  3
*Paper_Space0
  1

  0
ENDBLK
  5
25
330
23
100
AcDbEntity
  8
0
100
AcDbBlockEnd
  0
BLOCK
  5
43
330
41
100
AcDbEntity
  8
0
100
AcDbBlockBegin
  2
block 2
 70
     0
 10
0.0
 20
0.0
 30
0.0
  3
block 2
  1

  0
POLYLINE
  5
45
330
41
100
AcDbEntity
  8
_U+30EC_U+30A4_U+30E4_U+30FC 1
 62
   179
420
  2234388
370
     9
100
AcDb2dPolyline
 66
     1
 10
0.0
 20
0.0
 30
0.0
  0
VERTEX
  5
46
330
45
100
AcDbEntity
  8
_U+30EC_U+30A4_U+30E4_U+30FC 1
 62
   179
420
  2234388
370
     9
100
AcDbVertex
100
AcDb2dVertex
 10
91.07797712085167
 20
-120.0517594144317
 30
0.0
  0
VERTEX
  5
47
330
45
100
AcDbEntity
  8
_U+30EC_U+30A4_U+30E4_U+30FC 1
 62
   179
420
  2234388
370
     9
100
AcDbVertex
100
AcDb2dVertex
 10
91.07797712085167
 20
-125.9339055240721
 30
0.0
  0
SEQEND
  5
48
330
45
100
AcDbEntity
  8
_U+30EC_U+30A4_U+30E4_U+30FC 1
 62
   179
420
  2234388
370
     9
  0
POLYLINE
  5
49
330
41
100
AcDbEntity
  8
_U+30EC_U+30A4_U+30E4_U+30FC 1
 62
   179
420
  2234388
370
    25
100
AcDb2dPolyline
 66
     1
 10
0.0
 20
0.0
 30
0.0
  0
VERTEX
  5
4A
330
49
100
AcDbEntity
  8
_U+30EC_U+30A4_U+30E4_U+30FC 1
 62
   179
420
  2234388
370
    25
100
AcDbVertex
100
AcDb2dVertex
 10
86.90253472737608
 20
-129.1366338566047
 30
0.0
  0
VERTEX
  5
4B
330
49
100
AcDbEntity
  8
_U+30EC_U+30A4_U+30E4_U+30FC 1
 62
   179
420
  2234388
370
    25
100
AcDbVertex
100
AcDb2dVertex
 10
87.27323360680765
 20
-130.2783638563192
 30
0.0
  0
SEQEND
  5
4C
330
49
100
AcDbEntity
  8
_U+30EC_U+30A4_U+30E4_U+30FC 1
 62
   179
420
  2234388
370
    25
  0
POLYLINE
  5
4D
330
41
100
AcDbEntity
  8
_U+30EC_U+30A4_U+30E4_U+30FC 1
 62
   179
420
  2234388
370
     9
100
AcDb2dPolyline
 66
     1
 10
0.0
 20
0.0
 30
0.0
  0
VERTEX
  5
4E
330
4D
100
AcDbEntity
  8
_U+30EC_U+30A4_U+30E4_U+30FC 1
 62
   179
420
  2234388
370
     9
100
AcDbVertex
100
AcDb2dVertex
 10
90.74724796262261
 20
-124.6990069132697
 30
0.0
  0
VERTEX
  5
4F
330
4D
100
AcDbEntity
  8
_U+30EC_U+30A4_U+30E4_U+30FC 1
 62
   179
420
  2234388
370
     9
100
AcDbVertex
100
AcDb2dVertex
 10
91.07797712085167
 20
-125.9339055240721
 30
0.0
  0
SEQEND
  5
50
330
4D
100
AcDbEntity
  8
_U+30EC_U+30A4_U+30E4_U+30FC 1
 62
   179
420
  2234388
370
     9
  0
POLYLINE
  5
51
330
41
100
AcDbEntity
  8
_U+30EC_U+30A4_U+30E4_U+30FC 1
 62
   179
420
  2234388
370
     9
100
AcDb2dPolyline
 66
     1
 10
0.0
 20
0.0
 30
0.0
  0
VERTEX
  5
52
330
51
100
AcDbEntity
  8
_U+30EC_U+30A4_U+30E4_U+30FC 1
 62
   179
420
  2234388
370
     9
100
AcDbVertex
100
AcDb2dVertex
 10
91.40870627908073
 20
-124.6990069132697
 30
0.0
  0
VERTEX
  5
53
330
51
100
AcDbEntity
  8
_U+30EC_U+30A4_U+30E4_U+30FC 1
 62
   179
420
  2234388
370
     9
100
AcDbVertex
100
AcDb2dVertex
 10
91.07797712085167
 20
-125.9339055240721
 30
0.0
  0
SEQEND
  5
54
330
51
100
AcDbEntity
  8
_U+30EC_U+30A4_U+30E4_U+30FC 1
 62
   179
420
  2234388
370
     9
  0
SPLINE
  5
55
330
41
100
AcDbEntity
  8
_U+30EC_U+30A4_U+30E4_U+30FC 1
 62
   179
420
  2234388
370
     9
100
AcDbSpline
210
0.0
220
0.0
230
1.0
 70
    11
 71
     3
 72
    17
 73
    13
 74
     0
 42
0.0000000001
 43
0.0000000001
 12
1.0
 22
0.0
 32
0.0
 13
1.0
 23
0.0
 33
0.0
 40
0.0
 40
0.0
 40
0.0
 40
0.0
 40
1.0
 40
1.0
 40
1.0
 40
2.0
 40
2.0
 40
2.0
 40
3.0
 40
3.0
 40
3.0
 40
4.0
 40
4.0
 40
4.0
 40
4.0
 10
89.07292939422692
 20
-122.8827658026126
 30
0.0
 10
89.07292939422692
 20
-122.8114694137417
 30
0.0
 10
89.01574411790806
 20
-122.7542488582002
 30
0.0
 10
88.94547078636755
 20
-122.7542488582002
 30
0.0
 10
88.87519745482703
 20
-122.7542488582002
 30
0.0
 10
88.81730662297062
 20
-122.8114694137417
 30
0.0
 10
88.81730662297062
 20
-122.8827658026126
 30
0.0
 10
88.81730662297062
 20
-122.9532155248173
 30
0.0
 10
88.87519745482703
 20
-123.0104008025806
 30
0.0
 10
88.94547078636755
 20
-123.0104008025806
 30
0.0
 10
89.01574411790806
 20
-123.0104008025806
 30
0.0
 10
89.07292939422692
 20
-122.9532155248173
 30
0.0
 10
89.07292939422692
 20
-122.8827658026126
 30
0.0
  0
HATCH
  5
56
330
41
100
AcDbEntity
  8
_U+30EC_U+30A4_U+30E4_U+30FC 1
 62
   179
420
  2234388
100
AcDbHatch
 10
0.0
 20
0.0
 30
0.0
210
0.0
220
0.0
230
1.0
  2
SOLID
 70
     1
 71
     0
 91
        1
 92
        1
 93
        1
 72
     4
 94
        3
 73
     0
 74
     1
 95
       17
 96
       13
 40
0.0
 40
0.0
 40
0.0
 40
0.0
 40
1.0
 40
1.0
 40
1.0
 40
2.0
 40
2.0
 40
2.0
 40
3.0
 40
3.0
 40
3.0
 40
4.0
 40
4.0
 40
4.0
 40
4.0
 10
89.07292939422692
 20
-122.8827658026126
 10
89.07292939422692
 20
-122.8114694137417
 10
89.01574411790806
 20
-122.7542488582002
 10
88.94547078636755
 20
-122.7542488582002
 10
88.87519745482703
 20
-122.7542488582002
 10
88.81730662297062
 20
-122.8114694137417
 10
88.81730662297062
 20
-122.8827658026126
 10
88.81730662297062
 20
-122.9532155248173
 10
88.87519745482703
 20
-123.0104008025806
 10
88.94547078636755
 20
-123.0104008025806
 10
89.01574411790806
 20
-123.0104008025806
 10
89.07292939422692
 20
-122.9532155248173
 10
89.07292939422692
 20
-122.8827658026126
 97
        0
 97
        0
 75
     2
 76
     1
 98
        0
  0
SPLINE
  5
57
330
41
100
AcDbEntity
  8
_U+30EC_U+30A4_U+30E4_U+30FC 1
 62
   179
420
  2234388
370
     9
100
AcDbSpline
210
0.0
220
0.0
230
1.0
 70
    11
 71
     3
 72
    17
 73
    13
 74
     0
 42
0.0000000001
 43
0.0000000001
 12
1.0
 22
0.0
 32
0.0
 13
1.0
 23
0.0
 33
0.0
 40
0.0
 40
0.0
 40
0.0
 40
0.0
 40
1.0
 40
1.0
 40
1.0
 40
2.0
 40
2.0
 40
2.0
 40
3.0
 40
3.0
 40
3.0
 40
4.0
 40
4.0
 40
4.0
 40
4.0
 10
65.20878333638534
 20
-130.4692166340496
 30
0.0
 10
65.20878333638534
 20
-130.398237745178
 30
0.0
 10
65.15089250452893
 20
-130.3410524674147
 30
0.0
 10
65.08061917298842
 20
-130.3410524674147
 30
0.0
 10
65.0103458414479
 20
-130.3410524674147
 30
0.0
 10
64.95312528735217
 20
-130.398237745178
 30
0.0
 10
64.95312528735217
 20
-130.4692166340496
 30
0.0
 10
64.95312528735217
 20
-130.5394899673651
 30
0.0
 10
65.0103458414479
 20
-130.5966752451284
 30
0.0
 10
65.08061917298842
 20
-130.5966752451284
 30
0.0
 10
65.15089250452893
 20
-130.5966752451284
 30
0.0
 10
65.20878333638534
 20
-130.5394899673651
 30
0.0
 10
65.20878333638534
 20
-130.4692166340496
 30
0.0
  0
HATCH
  5
58
330
41
100
AcDbEntity
  8
_U+30EC_U+30A4_U+30E4_U+30FC 1
 62
   179
420
  2234388
100
AcDbHatch
 10
0.0
 20
0.0
 30
0.0
210
0.0
220
0.0
230
1.0
  2
SOLID
 70
     1
 71
     0
 91
        1
 92
        1
 93
        1
 72
     4
 94
        3
 73
     0
 74
     1
 95
       17
 96
       13
 40
0.0
 40
0.0
 40
0.0
 40
0.0
 40
1.0
 40
1.0
 40
1.0
 40
2.0
 40
2.0
 40
2.0
 40
3.0
 40
3.0
 40
3.0
 40
4.0
 40
4.0
 40
4.0
 40
4.0
 10
65.20878333638534
 20
-130.4692166340496
 10
65.20878333638534
 20
-130.398237745178
 10
65.15089250452893
 20
-130.3410524674147
 10
65.08061917298842
 20
-130.3410524674147
 10
65.0103458414479
 20
-130.3410524674147
 10
64.95312528735217
 20
-130.398237745178
 10
64.95312528735217
 20
-130.4692166340496
 10
64.95312528735217
 20
-130.5394899673651
 10
65.0103458414479
 20
-130.5966752451284
 10
65.08061917298842
 20
-130.5966752451284
 10
65.15089250452893
 20
-130.5966752451284
 10
65.20878333638534
 20
-130.5394899673651
 10
65.20878333638534
 20
-130.4692166340496
 97
        0
 97
        0
 75
     2
 76
     1
 98
        0
  0
INSERT
  5
5A
330
41
100
AcDbEntity
  8
_U+30EC_U+30A4_U+30E4_U+30FC 1
100
AcDbBlockReference
  2
block 3
 10
0.0
 20
0.0
 30
0.0
  0
INSERT
  5
B4
330
41
100
AcDbEntity
  8
_U+30EC_U+30A4_U+30E4_U+30FC 1
100
AcDbBlockReference
  2
block 4
 10
0.0
 20
0.0
 30
0.0
  0
POLYLINE
  5
BB
330
41
100
AcDbEntity
  8
_U+30EC_U+30A4_U+30E4_U+30FC 1
 62
   179
420
  2234388
370
     9
100
AcDb2dPolyline
 66
     1
 10
0.0
 20
0.0
 30
0.0
  0
VERTEX
  5
BC
330
BB
100
AcDbEntity
  8
_U+30EC_U+30A4_U+30E4_U+30FC 1
 62
   179
420
  2234388
370
     9
100
AcDbVertex
100
AcDb2dVertex
 10
88.94547078636755
 20
-122.8827658026126
 30
0.0
  0
VERTEX
  5
BD
330
BB
100
AcDbEntity
  8
_U+30EC_U+30A4_U+30E4_U+30FC 1
 62
   179
420
  2234388
370
     9
100
AcDbVertex
100
AcDb2dVertex
 10
65.08044442817419
 20
-130.4499196896098
 30
0.0
  0
SEQEND
  5
BE
330
BB
100
AcDbEntity
  8
_U+30EC_U+30A4_U+30E4_U+30FC 1
 62
   179
420
  2234388
370
     9
  0
POLYLINE
  5
BF
330
41
100
AcDbEntity
  8
_U+30EC_U+30A4_U+30E4_U+30FC 1
 62
   179
420
  2234388
370
     9
100
AcDb2dPolyline
 66
     1
 10
0.0
 20
0.0
 30
0.0
  0
VERTEX
  5
C0
330
BF
100
AcDbEntity
  8
_U+30EC_U+30A4_U+30E4_U+30FC 1
 62
   179
420
  2234388
370
     9
100
AcDbVertex
100
AcDb2dVertex
 10
90.0933743681932
 20
-126.4878724683782
 30
0.0
  0
VERTEX
  5
C1
330
BF
100
AcDbEntity
  8
_U+30EC_U+30A4_U+30E4_U+30FC 1
 62
   179
420
  2234388
370
     9
100
AcDbVertex
100
AcDb2dVertex
 10
88.55755635181963
 20
-121.6645888584728
 30
0.0
  0
SEQEND
  5
C2
330
BF
100
AcDbEntity
  8
_U+30EC_U+30A4_U+30E4_U+30FC 1
 62
   179
420
  2234388
370
     9
  0
SPLINE
  5
C3
330
41
100
AcDbEntity
  8
_U+30EC_U+30A4_U+30E4_U+30FC 1
 62
   179
420
  2234388
370
     9
100
AcDbSpline
210
0.0
220
0.0
230
1.0
 70
    11
 71
     3
 72
    17
 73
    13
 74
     0
 42
0.0000000001
 43
0.0000000001
 12
1.0
 22
0.0
 32
0.0
 13
1.0
 23
0.0
 33
0.0
 40
0.0
 40
0.0
 40
0.0
 40
0.0
 40
1.0
 40
1.0
 40
1.0
 40
2.0
 40
2.0
 40
2.0
 40
3.0
 40
3.0
 40
3.0
 40
4.0
 40
4.0
 40
4.0
 40
4.0
 10
93.08373040301397
 20
-122.8827658026126
 30
0.0
 10
93.08373040301397
 20
-122.8114694137417
 30
0.0
 10
93.14091567933283
 20
-122.7542488582002
 30
0.0
 10
93.21118901087334
 20
-122.7542488582002
 30
0.0
 10
93.28146234241386
 20
-122.7542488582002
 30
0.0
 10
93.33935553222098
 20
-122.8114694137417
 30
0.0
 10
93.33935553222098
 20
-122.8827658026126
 30
0.0
 10
93.33935553222098
 20
-122.9532155248173
 30
0.0
 10
93.28146234241386
 20
-123.0104008025806
 30
0.0
 10
93.21118901087334
 20
-123.0104008025806
 30
0.0
 10
93.14091567933283
 20
-123.0104008025806
 30
0.0
 10
93.08373040301397
 20
-122.9532155248173
 30
0.0
 10
93.08373040301397
 20
-122.8827658026126
 30
0.0
  0
HATCH
  5
C4
330
41
100
AcDbEntity
  8
_U+30EC_U+30A4_U+30E4_U+30FC 1
 62
   179
420
  2234388
100
AcDbHatch
 10
0.0
 20
0.0
 30
0.0
210
0.0
220
0.0
230
1.0
  2
SOLID
 70
     1
 71
     0
 91
        1
 92
        1
 93
        1
 72
     4
 94
        3
 73
     0
 74
     1
 95
       17
 96
       13
 40
0.0
 40
0.0
 40
0.0
 40
0.0
 40
1.0
 40
1.0
 40
1.0
 40
2.0
 40
2.0
 40
2.0
 40
3.0
 40
3.0
 40
3.0
 40
4.0
 40
4.0
 40
4.0
 40
4.0
 10
93.08373040301397
 20
-122.8827658026126
 10
93.08373040301397
 20
-122.8114694137417
 10
93.14091567933283
 20
-122.7542488582002
 10
93.21118901087334
 20
-122.7542488582002
 10
93.28146234241386
 20
-122.7542488582002
 10
93.33935553222098
 20
-122.8114694137417
 10
93.33935553222098
 20
-122.8827658026126
 10
93.33935553222098
 20
-122.9532155248173
 10
93.28146234241386
 20
-123.0104008025806
 10
93.21118901087334
 20
-123.0104008025806
 10
93.14091567933283
 20
-123.0104008025806
 10
93.08373040301397
 20
-122.9532155248173
 10
93.08373040301397
 20
-122.8827658026126
 97
        0
 97
        0
 75
     2
 76
     1
 98
        0
  0
POLYLINE
  5
C5
330
41
100
AcDbEntity
  8
_U+30EC_U+30A4_U+30E4_U+30FC 1
 62
   179
420
  2234388
370
     9
100
AcDb2dPolyline
 66
     1
 10
0.0
 20
0.0
 30
0.0
  0
VERTEX
  5
C6
330
C5
100
AcDbEntity
  8
_U+30EC_U+30A4_U+30E4_U+30FC 1
 62
   179
420
  2234388
370
     9
100
AcDbVertex
100
AcDb2dVertex
 10
92.0632854290477
 20
-126.4878724683782
 30
0.0
  0
VERTEX
  5
C7
330
C5
100
AcDbEntity
  8
_U+30EC_U+30A4_U+30E4_U+30FC 1
 62
   179
420
  2234388
370
     9
100
AcDbVertex
100
AcDb2dVertex
 10
93.59910344542126
 20
-121.6645888584728
 30
0.0
  0
SEQEND
  5
C8
330
C5
100
AcDbEntity
  8
_U+30EC_U+30A4_U+30E4_U+30FC 1
 62
   179
420
  2234388
370
     9
  0
POLYLINE
  5
C9
330
41
100
AcDbEntity
  8
_U+30EC_U+30A4_U+30E4_U+30FC 1
 62
   179
420
  2234388
370
     9
100
AcDb2dPolyline
 66
     1
 10
0.0
 20
0.0
 30
0.0
  0
VERTEX
  5
CA
330
C9
100
AcDbEntity
  8
_U+30EC_U+30A4_U+30E4_U+30FC 1
 62
   179
420
  2234388
370
     9
100
AcDbVertex
100
AcDb2dVertex
 10
65.6480269362904
 20
-132.1662541336252
 30
0.0
  0
VERTEX
  5
CB
330
C9
100
AcDbEntity
  8
_U+30EC_U+30A4_U+30E4_U+30FC 1
 62
   179
420
  2234388
370
     9
100
AcDbVertex
100
AcDb2dVertex
 10
64.69439807173062
 20
-129.1697244121522
 30
0.0
  0
SEQEND
  5
CC
330
C9
100
AcDbEntity
  8
_U+30EC_U+30A4_U+30E4_U+30FC 1
 62
   179
420
  2234388
370
     9
  0
INSERT
  5
CE
330
41
100
AcDbEntity
  8
_U+30EC_U+30A4_U+30E4_U+30FC 1
100
AcDbBlockReference
  2
block 5
 10
0.0
 20
0.0
 30
0.0
  0
POLYLINE
  5
D5
330
41
100
AcDbEntity
  8
_U+30EC_U+30A4_U+30E4_U+30FC 1
 62
   179
420
  2234388
370
    25
100
AcDb2dPolyline
 66
     1
 10
0.0
 20
0.0
 30
0.0
  0
VERTEX
  5
D6
330
D5
100
AcDbEntity
  8
_U+30EC_U+30A4_U+30E4_U+30FC 1
 62
   179
420
  2234388
370
    25
100
AcDbVertex
100
AcDb2dVertex
 10
95.24654034783609
 20
-129.1766035788172
 30
0.0
  0
VERTEX
  5
D7
330
D5
100
AcDbEntity
  8
_U+30EC_U+30A4_U+30E4_U+30FC 1
 62
   179
420
  2234388
370
    25
100
AcDbVertex
100
AcDb2dVertex
 10
94.88621313480658
 20
-130.2686977452108
 30
0.0
  0
SEQEND
  5
D8
330
D5
100
AcDbEntity
  8
_U+30EC_U+30A4_U+30E4_U+30FC 1
 62
   179
420
  2234388
370
    25
  0
SPLINE
  5
D9
330
41
100
AcDbEntity
  8
_U+30EC_U+30A4_U+30E4_U+30FC 1
 62
   179
420
  2234388
370
     9
100
AcDbSpline
210
0.0
220
0.0
230
1.0
 70
    11
 71
     3
 72
    17
 73
    13
 74
     0
 42
0.0000000001
 43
0.0000000001
 12
1.0
 22
0.0
 32
0.0
 13
1.0
 23
0.0
 33
0.0
 40
0.0
 40
0.0
 40
0.0
 40
0.0
 40
1.0
 40
1.0
 40
1.0
 40
2.0
 40
2.0
 40
2.0
 40
3.0
 40
3.0
 40
3.0
 40
4.0
 40
4.0
 40
4.0
 40
4.0
 10
116.9137981283916
 20
-130.4836805229346
 30
0.0
 10
116.9137981283916
 20
-130.4134071896192
 30
0.0
 10
116.9716536824712
 20
-130.3562219118552
 30
0.0
 10
117.0419622917886
 20
-130.3562219118552
 30
0.0
 10
117.1122356233291
 20
-130.3562219118552
 30
0.0
 10
117.1694208996479
 20
-130.4134071896192
 30
0.0
 10
117.1694208996479
 20
-130.4836805229346
 30
0.0
 10
117.1694208996479
 20
-130.5546594118056
 30
0.0
 10
117.1122356233291
 20
-130.6118446895696
 30
0.0
 10
117.0419622917886
 20
-130.6118446895696
 30
0.0
 10
116.9716536824712
 20
-130.6118446895696
 30
0.0
 10
116.9137981283916
 20
-130.5546594118056
 30
0.0
 10
116.9137981283916
 20
-130.4836805229346
 30
0.0
  0
HATCH
  5
DA
330
41
100
AcDbEntity
  8
_U+30EC_U+30A4_U+30E4_U+30FC 1
 62
   179
420
  2234388
100
AcDbHatch
 10
0.0
 20
0.0
 30
0.0
210
0.0
220
0.0
230
1.0
  2
SOLID
 70
     1
 71
     0
 91
        1
 92
        1
 93
        1
 72
     4
 94
        3
 73
     0
 74
     1
 95
       17
 96
       13
 40
0.0
 40
0.0
 40
0.0
 40
0.0
 40
1.0
 40
1.0
 40
1.0
 40
2.0
 40
2.0
 40
2.0
 40
3.0
 40
3.0
 40
3.0
 40
4.0
 40
4.0
 40
4.0
 40
4.0
 10
116.9137981283916
 20
-130.4836805229346
 10
116.9137981283916
 20
-130.4134071896192
 10
116.9716536824712
 20
-130.3562219118552
 10
117.0419622917886
 20
-130.3562219118552
 10
117.1122356233291
 20
-130.3562219118552
 10
117.1694208996479
 20
-130.4134071896192
 10
117.1694208996479
 20
-130.4836805229346
 10
117.1694208996479
 20
-130.5546594118056
 10
117.1122356233291
 20
-130.6118446895696
 10
117.0419622917886
 20
-130.6118446895696
 10
116.9716536824712
 20
-130.6118446895696
 10
116.9137981283916
 20
-130.5546594118056
 10
116.9137981283916
 20
-130.4836805229346
 97
        0
 97
        0
 75
     2
 76
     1
 98
        0
  0
POLYLINE
  5
DB
330
41
100
AcDbEntity
  8
_U+30EC_U+30A4_U+30E4_U+30FC 1
 62
   179
420
  2234388
370
     9
100
AcDb2dPolyline
 66
     1
 10
0.0
 20
0.0
 30
0.0
  0
VERTEX
  5
DC
330
DB
100
AcDbEntity
  8
_U+30EC_U+30A4_U+30E4_U+30FC 1
 62
   179
420
  2234388
370
     9
100
AcDbVertex
100
AcDb2dVertex
 10
93.21118901087334
 20
-122.8827658026126
 30
0.0
  0
VERTEX
  5
DD
330
DB
100
AcDbEntity
  8
_U+30EC_U+30A4_U+30E4_U+30FC 1
 62
   179
420
  2234388
370
     9
100
AcDbVertex
100
AcDb2dVertex
 10
117.071560346589
 20
-130.4643835784948
 30
0.0
  0
SEQEND
  5
DE
330
DB
100
AcDbEntity
  8
_U+30EC_U+30A4_U+30E4_U+30FC 1
 62
   179
420
  2234388
370
     9
  0
POLYLINE
  5
DF
330
41
100
AcDbEntity
  8
_U+30EC_U+30A4_U+30E4_U+30FC 1
 62
   179
420
  2234388
370
     9
100
AcDb2dPolyline
 66
     1
 10
0.0
 20
0.0
 30
0.0
  0
VERTEX
  5
E0
330
DF
100
AcDbEntity
  8
_U+30EC_U+30A4_U+30E4_U+30FC 1
 62
   179
420
  2234388
370
     9
100
AcDbVertex
100
AcDb2dVertex
 10
116.5003778611611
 20
-132.1662541336252
 30
0.0
  0
VERTEX
  5
E1
330
DF
100
AcDbEntity
  8
_U+30EC_U+30A4_U+30E4_U+30FC 1
 62
   179
420
  2234388
370
     9
100
AcDbVertex
100
AcDb2dVertex
 10
117.453971447944
 20
-129.1697244121522
 30
0.0
  0
SEQEND
  5
E2
330
DF
100
AcDbEntity
  8
_U+30EC_U+30A4_U+30E4_U+30FC 1
 62
   179
420
  2234388
370
     9
  0
SPLINE
  5
E3
330
41
100
AcDbEntity
  8
_U+30EC_U+30A4_U+30E4_U+30FC 1
 62
   179
420
  2234388
370
    25
100
AcDbSpline
210
0.0
220
0.0
230
1.0
 70
    11
 71
     3
 72
    35
 73
    31
 74
     0
 42
0.0000000001
 43
0.0000000001
 12
1.0
 22
0.0
 32
0.0
 13
1.0
 23
0.0
 33
0.0
 40
0.0
 40
0.0
 40
0.0
 40
0.0
 40
1.0
 40
1.0
 40
1.0
 40
2.0
 40
2.0
 40
2.0
 40
3.0
 40
3.0
 40
3.0
 40
4.0
 40
4.0
 40
4.0
 40
5.0
 40
5.0
 40
5.0
 40
6.0
 40
6.0
 40
6.0
 40
7.0
 40
7.0
 40
7.0
 40
8.0
 40
8.0
 40
8.0
 40
9.0
 40
9.0
 40
9.0
 40
10.0
 40
10.0
 40
10.0
 40
10.0
 10
91.07868267638922
 20
-128.1053585790849
 30
0.0
 10
91.63610682883481
 20
-128.1053585790849
 30
0.0
 10
92.19420125904108
 20
-128.1887199679528
 30
0.0
 10
92.73197568976576
 20
-128.3554780234668
 30
0.0
 10
92.73197568976576
 20
-128.3554780234668
 30
0.0
 10
115.4237706664054
 20
-135.4694182994658
 30
0.0
 10
115.4237706664054
 20
-135.4694182994658
 30
0.0
 10
115.4237706664054
 20
-135.4694182994658
 30
0.0
 10
115.2663612259768
 20
-135.9648241326753
 30
0.0
 10
115.2663612259768
 20
-135.9648241326753
 30
0.0
 10
115.2663612259768
 20
-135.9648241326753
 30
0.0
 10
92.02366848561395
 20
-129.5204208009534
 30
0.0
 10
92.02366848561395
 20
-129.5204208009534
 30
0.0
 10
91.71396488240404
 20
-129.4405166343064
 30
0.0
 10
91.39632377939664
 20
-129.399841356539
 30
0.0
 10
91.07868267638922
 20
-129.399841356539
 30
0.0
 10
90.76104157338182
 20
-129.399841356539
 30
0.0
 10
90.44304997738917
 20
-129.4405166343064
 30
0.0
 10
90.1333440893957
 20
-129.5204208009534
 30
0.0
 10
90.1333440893957
 20
-129.5204208009534
 30
0.0
 10
66.87135440508072
 20
-135.931768854906
 30
0.0
 10
66.87135440508072
 20
-135.931768854906
 30
0.0
 10
66.87135440508072
 20
-135.931768854906
 30
0.0
 10
66.71394496465213
 20
-135.4363630216965
 30
0.0
 10
66.71394496465213
 20
-135.4363630216965
 30
0.0
 10
66.71394496465213
 20
-135.4363630216965
 30
0.0
 10
89.42503688524391
 20
-128.3554780234668
 30
0.0
 10
89.42503688524391
 20
-128.3554780234668
 30
0.0
 10
89.96316409373736
 20
-128.1887199679528
 30
0.0
 10
90.52058824618295
 20
-128.1053585790849
 30
0.0
 10
91.07868267638922
 20
-128.1053585790849
 30
0.0
  0
POLYLINE
  5
E4
330
41
100
AcDbEntity
  8
_U+30EC_U+30A4_U+30E4_U+30FC 1
 62
   179
420
  2234388
370
     9
100
AcDb2dPolyline
 66
     1
 10
0.0
 20
0.0
 30
0.0
  0
VERTEX
  5
E5
330
E4
100
AcDbEntity
  8
_U+30EC_U+30A4_U+30E4_U+30FC 1
 62
   179
420
  2234388
370
     9
100
AcDbVertex
100
AcDb2dVertex
 10
72.53890564937834
 20
-135.4349871883636
 30
0.0
  0
VERTEX
  5
E6
330
E4
100
AcDbEntity
  8
_U+30EC_U+30A4_U+30E4_U+30FC 1
 62
   179
420
  2234388
370
     9
100
AcDbVertex
100
AcDb2dVertex
 10
79.89037101738239
 20
-138.9200435763811
 30
0.0
  0
VERTEX
  5
E7
330
E4
100
AcDbEntity
  8
_U+30EC_U+30A4_U+30E4_U+30FC 1
 62
   179
420
  2234388
370
     9
100
AcDbVertex
100
AcDb2dVertex
 10
85.04837220096024
 20
-138.9200435763811
 30
0.0
  0
SEQEND
  5
E8
330
E4
100
AcDbEntity
  8
_U+30EC_U+30A4_U+30E4_U+30FC 1
 62
   179
420
  2234388
370
     9
  0
POLYLINE
  5
E9
330
41
100
AcDbEntity
  8
_U+30EC_U+30A4_U+30E4_U+30FC 1
 62
   179
420
  2234388
370
     9
100
AcDb2dPolyline
 66
     1
 10
0.0
 20
0.0
 30
0.0
  0
VERTEX
  5
EA
330
E9
100
AcDbEntity
  8
_U+30EC_U+30A4_U+30E4_U+30FC 1
 62
   179
420
  2234388
370
     9
100
AcDbVertex
100
AcDb2dVertex
 10
72.53890564937834
 20
-135.4349871883636
 30
0.0
  0
VERTEX
  5
EB
330
E9
100
AcDbEntity
  8
_U+30EC_U+30A4_U+30E4_U+30FC 1
 62
   179
420
  2234388
370
     9
100
AcDbVertex
100
AcDb2dVertex
 10
73.52213256873857
 20
-135.6147980216521
 30
0.0
  0
SEQEND
  5
EC
330
E9
100
AcDbEntity
  8
_U+30EC_U+30A4_U+30E4_U+30FC 1
 62
   179
420
  2234388
370
     9
  0
POLYLINE
  5
ED
330
41
100
AcDbEntity
  8
_U+30EC_U+30A4_U+30E4_U+30FC 1
 62
   179
420
  2234388
370
     9
100
AcDb2dPolyline
 66
     1
 10
0.0
 20
0.0
 30
0.0
  0
VERTEX
  5
EE
330
ED
100
AcDbEntity
  8
_U+30EC_U+30A4_U+30E4_U+30FC 1
 62
   179
420
  2234388
370
     9
100
AcDbVertex
100
AcDb2dVertex
 10
72.53890564937834
 20
-135.4349871883636
 30
0.0
  0
VERTEX
  5
EF
330
ED
100
AcDbEntity
  8
_U+30EC_U+30A4_U+30E4_U+30FC 1
 62
   179
420
  2234388
370
     9
100
AcDbVertex
100
AcDb2dVertex
 10
73.30094090771497
 20
-136.0826519104239
 30
0.0
  0
SEQEND
  5
F0
330
ED
100
AcDbEntity
  8
_U+30EC_U+30A4_U+30E4_U+30FC 1
 62
   179
420
  2234388
370
     9
  0
POLYLINE
  5
F1
330
41
100
AcDbEntity
  8
_U+30EC_U+30A4_U+30E4_U+30FC 1
 62
   179
420
  2234388
370
     9
100
AcDb2dPolyline
 66
     1
 10
0.0
 20
0.0
 30
0.0
  0
VERTEX
  5
F2
330
F1
100
AcDbEntity
  8
_U+30EC_U+30A4_U+30E4_U+30FC 1
 62
   179
420
  2234388
370
     9
100
AcDbVertex
100
AcDb2dVertex
 10
108.9301197209611
 20
-135.4349871883636
 30
0.0
  0
VERTEX
  5
F3
330
F1
100
AcDbEntity
  8
_U+30EC_U+30A4_U+30E4_U+30FC 1
 62
   179
420
  2234388
370
     9
100
AcDbVertex
100
AcDb2dVertex
 10
101.8380518463393
 20
-138.796712465301
 30
0.0
  0
VERTEX
  5
F4
330
F1
100
AcDbEntity
  8
_U+30EC_U+30A4_U+30E4_U+30FC 1
 62
   179
420
  2234388
370
     9
100
AcDbVertex
100
AcDb2dVertex
 10
96.97289363712649
 20
-138.796712465301
 30
0.0
  0
SEQEND
  5
F5
330
F1
100
AcDbEntity
  8
_U+30EC_U+30A4_U+30E4_U+30FC 1
 62
   179
420
  2234388
370
     9
  0
POLYLINE
  5
F6
330
41
100
AcDbEntity
  8
_U+30EC_U+30A4_U+30E4_U+30FC 1
 62
   179
420
  2234388
370
     9
100
AcDb2dPolyline
 66
     1
 10
0.0
 20
0.0
 30
0.0
  0
VERTEX
  5
F7
330
F6
100
AcDbEntity
  8
_U+30EC_U+30A4_U+30E4_U+30FC 1
 62
   179
420
  2234388
370
     9
100
AcDbVertex
100
AcDb2dVertex
 10
108.9301197209611
 20
-135.4349871883636
 30
0.0
  0
VERTEX
  5
F8
330
F6
100
AcDbEntity
  8
_U+30EC_U+30A4_U+30E4_U+30FC 1
 62
   179
420
  2234388
370
     9
100
AcDbVertex
100
AcDb2dVertex
 10
107.9468928016009
 20
-135.6147980216521
 30
0.0
  0
SEQEND
  5
F9
330
F6
100
AcDbEntity
  8
_U+30EC_U+30A4_U+30E4_U+30FC 1
 62
   179
420
  2234388
370
     9
  0
POLYLINE
  5
FA
330
41
100
AcDbEntity
  8
_U+30EC_U+30A4_U+30E4_U+30FC 1
 62
   179
420
  2234388
370
     9
100
AcDb2dPolyline
 66
     1
 10
0.0
 20
0.0
 30
0.0
  0
VERTEX
  5
FB
330
FA
100
AcDbEntity
  8
_U+30EC_U+30A4_U+30E4_U+30FC 1
 62
   179
420
  2234388
370
     9
100
AcDbVertex
100
AcDb2dVertex
 10
108.9301197209611
 20
-135.4349871883636
 30
0.0
  0
VERTEX
  5
FC
330
FA
100
AcDbEntity
  8
_U+30EC_U+30A4_U+30E4_U+30FC 1
 62
   179
420
  2234388
370
     9
100
AcDbVertex
100
AcDb2dVertex
 10
108.1680844626245
 20
-136.0826519104239
 30
0.0
  0
SEQEND
  5
FD
330
FA
100
AcDbEntity
  8
_U+30EC_U+30A4_U+30E4_U+30FC 1
 62
   179
420
  2234388
370
     9
  0
INSERT
  5
FF
330
41
100
AcDbEntity
  8
_U+30EC_U+30A4_U+30E4_U+30FC 1
100
AcDbBlockReference
  2
block 6
 10
0.0
 20
0.0
 30
0.0
  0
POLYLINE
  5
126
330
41
100
AcDbEntity
  8
_U+30EC_U+30A4_U+30E4_U+30FC 1
  6
AI-Linetype-1
 62
   154
420
    23468
370
    25
100
AcDb2dPolyline
 66
     1
 10
0.0
 20
0.0
 30
0.0
  0
VERTEX
  5
127
330
126
100
AcDbEntity
  8
_U+30EC_U+30A4_U+30E4_U+30FC 1
  6
AI-Linetype-1
 62
   154
420
    23468
370
    25
100
AcDbVertex
100
AcDb2dVertex
 10
67.05945551139298
 20
-136.5422155214202
 30
0.0
  0
VERTEX
  5
128
330
126
100
AcDbEntity
  8
_U+30EC_U+30A4_U+30E4_U+30FC 1
  6
AI-Linetype-1
 62
   154
420
    23468
370
    25
100
AcDbVertex
100
AcDb2dVertex
 10
76.69886109880458
 20
-133.8812480220853
 30
0.0
  0
SEQEND
  5
12A
330
126
100
AcDbEntity
  8
_U+30EC_U+30A4_U+30E4_U+30FC 1
  6
AI-Linetype-1
 62
   154
420
    23468
370
    25
  0
POLYLINE
  5
12B
330
41
100
AcDbEntity
  8
_U+30EC_U+30A4_U+30E4_U+30FC 1
  6
AI-Linetype-2
 62
   154
420
    23468
370
    25
100
AcDb2dPolyline
 66
     1
 10
0.0
 20
0.0
 30
0.0
  0
VERTEX
  5
12C
330
12B
100
AcDbEntity
  8
_U+30EC_U+30A4_U+30E4_U+30FC 1
  6
AI-Linetype-2
 62
   154
420
    23468
370
    25
100
AcDbVertex
100
AcDb2dVertex
 10
105.4505694180821
 20
-133.8461113554276
 30
0.0
  0
VERTEX
  5
12D
330
12B
100
AcDbEntity
  8
_U+30EC_U+30A4_U+30E4_U+30FC 1
  6
AI-Linetype-2
 62
   154
420
    23468
370
    25
100
AcDbVertex
100
AcDb2dVertex
 10
115.089972341588
 20
-136.5077844103173
 30
0.0
  0
SEQEND
  5
12F
330
12B
100
AcDbEntity
  8
_U+30EC_U+30A4_U+30E4_U+30FC 1
  6
AI-Linetype-2
 62
   154
420
    23468
370
    25
  0
ENDBLK
  5
44
330
41
100
AcDbEntity
  8
0
100
AcDbBlockEnd
  0
BLOCK
  5
5B
330
59
100
AcDbEntity
  8
0
100
AcDbBlockBegin
  2
block 3
 70
     0
 10
0.0
 20
0.0
 30
0.0
  3
block 3
  1

  0
SPLINE
  5
5D
330
59
100
AcDbEntity
  8
_U+30EC_U+30A4_U+30E4_U+30FC 1
370
     0
100
AcDbSpline
210
0.0
220
0.0
230
1.0
 70
    11
 71
     3
 72
   197
 73
   193
 74
     0
 42
0.0000000001
 43
0.0000000001
 12
1.0
 22
0.0
 32
0.0
 13
1.0
 23
0.0
 33
0.0
 40
0.0
 40
0.0
 40
0.0
 40
0.0
 40
1.0
 40
1.0
 40
1.0
 40
2.0
 40
2.0
 40
2.0
 40
3.0
 40
3.0
 40
3.0
 40
4.0
 40
4.0
 40
4.0
 40
5.0
 40
5.0
 40
5.0
 40
6.0
 40
6.0
 40
6.0
 40
7.0
 40
7.0
 40
7.0
 40
8.0
 40
8.0
 40
8.0
 40
9.0
 40
9.0
 40
9.0
 40
10.0
 40
10.0
 40
10.0
 40
11.0
 40
11.0
 40
11.0
 40
12.0
 40
12.0
 40
12.0
 40
13.0
 40
13.0
 40
13.0
 40
14.0
 40
14.0
 40
14.0
 40
15.0
 40
15.0
 40
15.0
 40
16.0
 40
16.0
 40
16.0
 40
17.0
 40
17.0
 40
17.0
 40
18.0
 40
18.0
 40
18.0
 40
19.0
 40
19.0
 40
19.0
 40
20.0
 40
20.0
 40
20.0
 40
21.0
 40
21.0
 40
21.0
 40
22.0
 40
22.0
 40
22.0
 40
23.0
 40
23.0
 40
23.0
 40
24.0
 40
24.0
 40
24.0
 40
25.0
 40
25.0
 40
25.0
 40
26.0
 40
26.0
 40
26.0
 40
27.0
 40
27.0
 40
27.0
 40
28.0
 40
28.0
 40
28.0
 40
29.0
 40
29.0
 40
29.0
 40
30.0
 40
30.0
 40
30.0
 40
31.0
 40
31.0
 40
31.0
 40
32.0
 40
32.0
 40
32.0
 40
33.0
 40
33.0
 40
33.0
 40
34.0
 40
34.0
 40
34.0
 40
35.0
 40
35.0
 40
35.0
 40
36.0
 40
36.0
 40
36.0
 40
37.0
 40
37.0
 40
37.0
 40
38.0
 40
38.0
 40
38.0
 40
39.0
 40
39.0
 40
39.0
 40
40.0
 40
40.0
 40
40.0
 40
41.0
 40
41.0
 40
41.0
 40
42.0
 40
42.0
 40
42.0
 40
43.0
 40
43.0
 40
43.0
 40
44.0
 40
44.0
 40
44.0
 40
45.0
 40
45.0
 40
45.0
 40
46.0
 40
46.0
 40
46.0
 40
47.0
 40
47.0
 40
47.0
 40
48.0
 40
48.0
 40
48.0
 40
49.0
 40
49.0
 40
49.0
 40
50.0
 40
50.0
 40
50.0
 40
51.0
 40
51.0
 40
51.0
 40
52.0
 40
52.0
 40
52.0
 40
53.0
 40
53.0
 40
53.0
 40
54.0
 40
54.0
 40
54.0
 40
55.0
 40
55.0
 40
55.0
 40
56.0
 40
56.0
 40
56.0
 40
57.0
 40
57.0
 40
57.0
 40
58.0
 40
58.0
 40
58.0
 40
59.0
 40
59.0
 40
59.0
 40
60.0
 40
60.0
 40
60.0
 40
61.0
 40
61.0
 40
61.0
 40
62.0
 40
62.0
 40
62.0
 40
63.0
 40
63.0
 40
63.0
 40
64.0
 40
64.0
 40
64.0
 40
64.0
 10
88.7558227317173
 20
-116.8893337381388
 30
0.0
 10
88.74514293571302
 20
-116.9189615593119
 30
0.0
 10
88.72171628641333
 20
-116.9654703483628
 30
0.0
 10
88.71138099995757
 20
-116.9928588574705
 30
0.0
 10
88.71138099995757
 20
-116.9928588574705
 30
0.0
 10
88.65005830032013
 20
-117.1453043326928
 30
0.0
 10
88.65005830032013
 20
-117.1453043326928
 30
0.0
 10
88.63937850431586
 20
-117.1706257845094
 30
0.0
 10
88.59080265797382
 20
-117.2827636425543
 30
0.0
 10
88.57805580467841
 20
-117.3060180370798
 30
0.0
 10
88.57598874738726
 20
-117.3123914637275
 30
0.0
 10
88.57151012325643
 20
-117.3208319476663
 30
0.0
 10
88.56944306596529
 20
-117.327205374314
 30
0.0
 10
88.56944306596529
 20
-117.327205374314
 30
0.0
 10
88.35998126046209
 20
-117.2743231586155
 30
0.0
 10
88.35998126046209
 20
-117.2743231586155
 30
0.0
 10
88.43852943752579
 20
-117.1642523578617
 30
0.0
 10
88.49985213716323
 20
-117.0288601052914
 30
0.0
 10
88.53154701562754
 20
-116.9189615593119
 30
0.0
 10
88.53154701562754
 20
-116.9189615593119
 30
0.0
 10
88.06611461557029
 20
-116.9189615593119
 30
0.0
 10
88.06611461557029
 20
-116.9189615593119
 30
0.0
 10
87.98549938121543
 20
-117.0838093782811
 30
0.0
 10
87.91797550970453
 20
-117.1621853005706
 30
0.0
 10
87.88421357394908
 20
-117.2023206629737
 30
0.0
 10
87.88421357394908
 20
-117.2023206629737
 30
0.0
 10
87.7615681746742
 20
-117.1366915939797
 30
0.0
 10
87.7615681746742
 20
-117.1366915939797
 30
0.0
 10
87.7615681746742
 20
-117.1366915939797
 30
0.0
 10
87.7615681746742
 20
-117.3080850943709
 30
0.0
 10
87.7615681746742
 20
-117.3080850943709
 30
0.0
 10
87.7615681746742
 20
-117.4160888378335
 30
0.0
 10
87.76363523196534
 20
-117.4646646841755
 30
0.0
 10
87.7739705184211
 20
-117.5704291155727
 30
0.0
 10
87.7023125323279
 20
-117.5683620582815
 30
0.0
 10
87.68095294031934
 20
-117.5683620582815
 30
0.0
 10
87.47596975894699
 20
-117.5683620582815
 30
0.0
 10
87.47596975894699
 20
-117.5683620582815
 30
0.0
 10
87.42084823118299
 20
-117.5683620582815
 30
0.0
 10
87.42084823118299
 20
-117.5683620582815
 30
0.0
 10
87.42084823118299
 20
-117.5683620582815
 30
0.0
 10
87.42084823118299
 20
-117.7037543108518
 30
0.0
 10
87.42084823118299
 20
-117.7037543108518
 30
0.0
 10
87.42084823118299
 20
-117.7037543108518
 30
0.0
 10
87.49285072682471
 20
-117.7037543108518
 30
0.0
 10
87.49285072682471
 20
-117.7037543108518
 30
0.0
 10
87.55830754104446
 20
-117.7037543108518
 30
0.0
 10
87.70437958961905
 20
-117.6994479414953
 30
0.0
 10
87.81014402101621
 20
-117.6910074575564
 30
0.0
 10
87.81014402101621
 20
-117.6910074575564
 30
0.0
 10
87.81014402101621
 20
-117.8687743845953
 30
0.0
 10
87.81014402101621
 20
-117.8687743845953
 30
0.0
 10
87.71264781878365
 20
-117.8624009579476
 30
0.0
 10
87.55417342646216
 20
-117.858094588591
 30
0.0
 10
87.49285072682471
 20
-117.858094588591
 30
0.0
 10
87.49285072682471
 20
-117.858094588591
 30
0.0
 10
87.42084823118299
 20
-117.858094588591
 30
0.0
 10
87.42084823118299
 20
-117.858094588591
 30
0.0
 10
87.42291528847413
 20
-117.9469780521105
 30
0.0
 10
87.42704940305643
 20
-118.1860676787868
 30
0.0
 10
87.42911646034759
 20
-118.2601372317197
 30
0.0
 10
87.42911646034759
 20
-118.2601372317197
 30
0.0
 10
87.22826739355752
 20
-118.2601372317197
 30
0.0
 10
87.22826739355752
 20
-118.2601372317197
 30
0.0
 10
87.24101424685294
 20
-118.0463690568599
 30
0.0
 10
87.24101424685294
 20
-118.0167412356868
 30
0.0
 10
87.24514836143524
 20
-117.858094588591
 30
0.0
 10
87.24514836143524
 20
-117.858094588591
 30
0.0
 10
87.1755574326332
 20
-117.858094588591
 30
0.0
 10
87.1755574326332
 20
-117.858094588591
 30
0.0
 10
87.11836884757805
 20
-117.858094588591
 30
0.0
 10
86.96609562713
 20
-117.8624009579476
 30
0.0
 10
86.85585257160201
 20
-117.8687743845953
 30
0.0
 10
86.85585257160201
 20
-117.8687743845953
 30
0.0
 10
86.85585257160201
 20
-117.6910074575564
 30
0.0
 10
86.85585257160201
 20
-117.6910074575564
 30
0.0
 10
86.96161700299918
 20
-117.6994479414953
 30
0.0
 10
87.10562199428263
 20
-117.7037543108518
 30
0.0
 10
87.1755574326332
 20
-117.7037543108518
 30
0.0
 10
87.1755574326332
 20
-117.7037543108518
 30
0.0
 10
87.24928247601754
 20
-117.7037543108518
 30
0.0
 10
87.24928247601754
 20
-117.7037543108518
 30
0.0
 10
87.24928247601754
 20
-117.7037543108518
 30
0.0
 10
87.24928247601754
 20
-117.5683620582815
 30
0.0
 10
87.24928247601754
 20
-117.5683620582815
 30
0.0
 10
87.24928247601754
 20
-117.5683620582815
 30
0.0
 10
87.20518525380635
 20
-117.5683620582815
 30
0.0
 10
87.20518525380635
 20
-117.5683620582815
 30
0.0
 10
87.1287041340338
 20
-117.5683620582815
 30
0.0
 10
86.93646780595687
 20
-117.5704291155727
 30
0.0
 10
86.90236136065289
 20
-117.5704291155727
 30
0.0
 10
86.90890704207486
 20
-117.4985988747052
 30
0.0
 10
86.91717527123946
 20
-117.4181558951246
 30
0.0
 10
86.91717527123946
 20
-117.2975775531409
 30
0.0
 10
86.91717527123946
 20
-117.2975775531409
 30
0.0
 10
86.91717527123946
 20
-117.1241169954586
 30
0.0
 10
86.91717527123946
 20
-117.1241169954586
 30
0.0
 10
86.91717527123946
 20
-117.0521144998168
 30
0.0
 10
86.90890704207486
 20
-116.9315361578331
 30
0.0
 10
86.90236136065289
 20
-116.8510931782525
 30
0.0
 10
86.98090953771658
 20
-116.8553995476091
 30
0.0
 10
87.01880558805433
 20
-116.8574666049002
 30
0.0
 10
87.14592961146005
 20
-116.8574666049002
 30
0.0
 10
87.14592961146005
 20
-116.8574666049002
 30
0.0
 10
87.24928247601754
 20
-116.8574666049002
 30
0.0
 10
87.24928247601754
 20
-116.8574666049002
 30
0.0
 10
87.24928247601754
 20
-116.8574666049002
 30
0.0
 10
87.24928247601754
 20
-116.7115668110999
 30
0.0
 10
87.24928247601754
 20
-116.7115668110999
 30
0.0
 10
87.24928247601754
 20
-116.7115668110999
 30
0.0
 10
87.17107880850237
 20
-116.7115668110999
 30
0.0
 10
87.17107880850237
 20
-116.7115668110999
 30
0.0
 10
87.1163017902869
 20
-116.7115668110999
 30
0.0
 10
86.94473603512147
 20
-116.7157009256822
 30
0.0
 10
86.86033119573284
 20
-116.7220743523299
 30
0.0
 10
86.86033119573284
 20
-116.7220743523299
 30
0.0
 10
86.86033119573284
 20
-116.5444796800653
 30
0.0
 10
86.86033119573284
 20
-116.5444796800653
 30
0.0
 10
86.94266897783031
 20
-116.550853106713
 30
0.0
 10
87.10562199428263
 20
-116.5549872212953
 30
0.0
 10
87.17107880850237
 20
-116.5549872212953
 30
0.0
 10
87.17107880850237
 20
-116.5549872212953
 30
0.0
 10
87.24928247601754
 20
-116.5549872212953
 30
0.0
 10
87.24928247601754
 20
-116.5549872212953
 30
0.0
 10
87.24928247601754
 20
-116.5212252855398
 30
0.0
 10
87.24514836143524
 20
-116.3667127530264
 30
0.0
 10
87.24514836143524
 20
-116.3350178745621
 30
0.0
 10
87.24514836143524
 20
-116.3350178745621
 30
0.0
 10
87.44186331364301
 20
-116.3518988424398
 30
0.0
 10
87.44186331364301
 20
-116.3518988424398
 30
0.0
 10
87.45874428152074
 20
-116.353965899731
 30
0.0
 10
87.48010387352929
 20
-116.3562052117964
 30
0.0
 10
87.48010387352929
 20
-116.3773925490307
 30
0.0
 10
87.48010387352929
 20
-116.4006469435561
 30
0.0
 10
87.45874428152074
 20
-116.409087427495
 30
0.0
 10
87.43152802718726
 20
-116.4216620260161
 30
0.0
 10
87.43152802718726
 20
-116.4428493632504
 30
0.0
 10
87.42911646034759
 20
-116.5381062534176
 30
0.0
 10
87.42911646034759
 20
-116.5549872212953
 30
0.0
 10
87.42911646034759
 20
-116.5549872212953
 30
0.0
 10
87.48837210269389
 20
-116.5549872212953
 30
0.0
 10
87.48837210269389
 20
-116.5549872212953
 30
0.0
 10
87.5562404837533
 20
-116.5549872212953
 30
0.0
 10
87.69990096548823
 20
-116.550853106713
 30
0.0
 10
87.80566539688539
 20
-116.5444796800653
 30
0.0
 10
87.80566539688539
 20
-116.5444796800653
 30
0.0
 10
87.80566539688539
 20
-116.7220743523299
 30
0.0
 10
87.80566539688539
 20
-116.7220743523299
 30
0.0
 10
87.70851370420135
 20
-116.7157009256822
 30
0.0
 10
87.552106369171
 20
-116.7115668110999
 30
0.0
 10
87.48837210269389
 20
-116.7115668110999
 30
0.0
 10
87.48837210269389
 20
-116.7115668110999
 30
0.0
 10
87.42084823118299
 20
-116.7115668110999
 30
0.0
 10
87.42084823118299
 20
-116.7115668110999
 30
0.0
 10
87.42084823118299
 20
-116.7115668110999
 30
0.0
 10
87.42084823118299
 20
-116.8574666049002
 30
0.0
 10
87.42084823118299
 20
-116.8574666049002
 30
0.0
 10
87.42084823118299
 20
-116.8574666049002
 30
0.0
 10
87.49078366953356
 20
-116.8574666049002
 30
0.0
 10
87.49078366953356
 20
-116.8574666049002
 30
0.0
 10
87.64064532314192
 20
-116.8574666049002
 30
0.0
 10
87.71264781878365
 20
-116.8533324903179
 30
0.0
 10
87.7739705184211
 20
-116.8510931782525
 30
0.0
 10
87.7657022892565
 20
-116.9463500684197
 30
0.0
 10
87.76363523196534
 20
-117.0247259907091
 30
0.0
 10
87.7615681746742
 20
-117.0627942958211
 30
0.0
 10
87.91590845241339
 20
-116.8510931782525
 30
0.0
 10
88.02167288381055
 20
-116.6037353224116
 30
0.0
 10
88.03855385168828
 20
-116.3413913012098
 30
0.0
 10
88.03855385168828
 20
-116.3413913012098
 30
0.0
 10
88.25421682906492
 20
-116.392034204843
 30
0.0
 10
88.25421682906492
 20
-116.392034204843
 30
0.0
 10
88.2690307396515
 20
-116.3963405741995
 30
0.0
 10
88.28384465023807
 20
-116.4027140008472
 30
0.0
 10
88.28384465023807
 20
-116.419594968725
 30
0.0
 10
88.28384465023807
 20
-116.4364759366027
 30
0.0
 10
88.27971053565577
 20
-116.4387152486681
 30
0.0
 10
88.22906763202259
 20
-116.4597303311281
 30
0.0
 10
88.21184215459635
 20
-116.5360391961264
 30
0.0
 10
88.18669295755403
 20
-116.626989716937
 30
0.0
 10
88.138117111212
 20
-116.7539414855685
 30
0.0
 10
88.138117111212
 20
-116.7539414855685
 30
0.0
 10
88.47642548786354
 20
-116.7539414855685
 30
0.0
 10
88.47642548786354
 20
-116.7539414855685
 30
0.0
 10
88.51466604774981
 20
-116.7539414855685
 30
0.0
 10
88.64351261889816
 20
-116.7496351162119
 30
0.0
 10
88.69208846524018
 20
-116.7432616895642
 30
0.0
 10
88.69208846524018
 20
-116.7432616895642
 30
0.0
 10
88.78545055289045
 20
-116.8130248731405
 30
0.0
 10
88.78545055289045
 20
-116.8130248731405
 30
0.0
 10
88.77683781417733
 20
-116.8342122103748
 30
0.0
 10
88.77063664230387
 20
-116.8533324903179
 30
0.0
 10
88.7558227317173
 20
-116.8893337381388
 30
0.0
  0
POLYLINE
  5
5E
330
59
100
AcDbEntity
  8
_U+30EC_U+30A4_U+30E4_U+30FC 1
370
     0
100
AcDb2dPolyline
 66
     1
 10
0.0
 20
0.0
 30
0.0
  0
VERTEX
  5
5F
330
5E
100
AcDbEntity
  8
_U+30EC_U+30A4_U+30E4_U+30FC 1
370
     0
100
AcDbVertex
100
AcDb2dVertex
 10
87.24928247601754
 20
-117.0140461947048
 30
0.0
  0
VERTEX
  5
60
330
5E
100
AcDbEntity
  8
_U+30EC_U+30A4_U+30E4_U+30FC 1
370
     0
100
AcDbVertex
100
AcDb2dVertex
 10
87.09080808369605
 20
-117.0140461947048
 30
0.0
  0
VERTEX
  5
61
330
5E
100
AcDbEntity
  8
_U+30EC_U+30A4_U+30E4_U+30FC 1
370
     0
100
AcDbVertex
100
AcDb2dVertex
 10
87.09080808369605
 20
-117.1430650206274
 30
0.0
  0
VERTEX
  5
62
330
5E
100
AcDbEntity
  8
_U+30EC_U+30A4_U+30E4_U+30FC 1
370
     0
100
AcDbVertex
100
AcDb2dVertex
 10
87.24928247601754
 20
-117.1430650206274
 30
0.0
  0
VERTEX
  5
63
330
5E
100
AcDbEntity
  8
_U+30EC_U+30A4_U+30E4_U+30FC 1
370
     0
100
AcDbVertex
100
AcDb2dVertex
 10
87.24928247601754
 20
-117.0140461947048
 30
0.0
  0
SEQEND
  5
64
330
5E
100
AcDbEntity
  8
_U+30EC_U+30A4_U+30E4_U+30FC 1
370
     0
  0
POLYLINE
  5
65
330
59
100
AcDbEntity
  8
_U+30EC_U+30A4_U+30E4_U+30FC 1
370
     0
100
AcDb2dPolyline
 66
     1
 10
0.0
 20
0.0
 30
0.0
  0
VERTEX
  5
66
330
65
100
AcDbEntity
  8
_U+30EC_U+30A4_U+30E4_U+30FC 1
370
     0
100
AcDbVertex
100
AcDb2dVertex
 10
87.24928247601754
 20
-117.2868977571366
 30
0.0
  0
VERTEX
  5
67
330
65
100
AcDbEntity
  8
_U+30EC_U+30A4_U+30E4_U+30FC 1
370
     0
100
AcDbVertex
100
AcDb2dVertex
 10
87.09080808369605
 20
-117.2868977571366
 30
0.0
  0
VERTEX
  5
68
330
65
100
AcDbEntity
  8
_U+30EC_U+30A4_U+30E4_U+30FC 1
370
     0
100
AcDbVertex
100
AcDb2dVertex
 10
87.09080808369605
 20
-117.4160888378335
 30
0.0
  0
VERTEX
  5
69
330
65
100
AcDbEntity
  8
_U+30EC_U+30A4_U+30E4_U+30FC 1
370
     0
100
AcDbVertex
100
AcDb2dVertex
 10
87.24928247601754
 20
-117.4160888378335
 30
0.0
  0
VERTEX
  5
6A
330
65
100
AcDbEntity
  8
_U+30EC_U+30A4_U+30E4_U+30FC 1
370
     0
100
AcDbVertex
100
AcDb2dVertex
 10
87.24928247601754
 20
-117.2868977571366
 30
0.0
  0
SEQEND
  5
6B
330
65
100
AcDbEntity
  8
_U+30EC_U+30A4_U+30E4_U+30FC 1
370
     0
  0
POLYLINE
  5
6C
330
59
100
AcDbEntity
  8
_U+30EC_U+30A4_U+30E4_U+30FC 1
370
     0
100
AcDb2dPolyline
 66
     1
 10
0.0
 20
0.0
 30
0.0
  0
VERTEX
  5
6D
330
6C
100
AcDbEntity
  8
_U+30EC_U+30A4_U+30E4_U+30FC 1
370
     0
100
AcDbVertex
100
AcDb2dVertex
 10
87.58173419034415
 20
-117.0140461947048
 30
0.0
  0
VERTEX
  5
6E
330
6C
100
AcDbEntity
  8
_U+30EC_U+30A4_U+30E4_U+30FC 1
370
     0
100
AcDbVertex
100
AcDb2dVertex
 10
87.42084823118299
 20
-117.0140461947048
 30
0.0
  0
VERTEX
  5
6F
330
6C
100
AcDbEntity
  8
_U+30EC_U+30A4_U+30E4_U+30FC 1
370
     0
100
AcDbVertex
100
AcDb2dVertex
 10
87.42084823118299
 20
-117.1430650206274
 30
0.0
  0
VERTEX
  5
70
330
6C
100
AcDbEntity
  8
_U+30EC_U+30A4_U+30E4_U+30FC 1
370
     0
100
AcDbVertex
100
AcDb2dVertex
 10
87.58173419034415
 20
-117.1430650206274
 30
0.0
  0
VERTEX
  5
71
330
6C
100
AcDbEntity
  8
_U+30EC_U+30A4_U+30E4_U+30FC 1
370
     0
100
AcDbVertex
100
AcDb2dVertex
 10
87.58173419034415
 20
-117.0140461947048
 30
0.0
  0
SEQEND
  5
72
330
6C
100
AcDbEntity
  8
_U+30EC_U+30A4_U+30E4_U+30FC 1
370
     0
  0
POLYLINE
  5
73
330
59
100
AcDbEntity
  8
_U+30EC_U+30A4_U+30E4_U+30FC 1
370
     0
100
AcDb2dPolyline
 66
     1
 10
0.0
 20
0.0
 30
0.0
  0
VERTEX
  5
74
330
73
100
AcDbEntity
  8
_U+30EC_U+30A4_U+30E4_U+30FC 1
370
     0
100
AcDbVertex
100
AcDb2dVertex
 10
87.58173419034415
 20
-117.2868977571366
 30
0.0
  0
VERTEX
  5
75
330
73
100
AcDbEntity
  8
_U+30EC_U+30A4_U+30E4_U+30FC 1
370
     0
100
AcDbVertex
100
AcDb2dVertex
 10
87.42084823118299
 20
-117.2868977571366
 30
0.0
  0
VERTEX
  5
76
330
73
100
AcDbEntity
  8
_U+30EC_U+30A4_U+30E4_U+30FC 1
370
     0
100
AcDbVertex
100
AcDb2dVertex
 10
87.42084823118299
 20
-117.4160888378335
 30
0.0
  0
VERTEX
  5
77
330
73
100
AcDbEntity
  8
_U+30EC_U+30A4_U+30E4_U+30FC 1
370
     0
100
AcDbVertex
100
AcDb2dVertex
 10
87.58173419034415
 20
-117.4160888378335
 30
0.0
  0
VERTEX
  5
78
330
73
100
AcDbEntity
  8
_U+30EC_U+30A4_U+30E4_U+30FC 1
370
     0
100
AcDbVertex
100
AcDb2dVertex
 10
87.58173419034415
 20
-117.2868977571366
 30
0.0
  0
SEQEND
  5
79
330
73
100
AcDbEntity
  8
_U+30EC_U+30A4_U+30E4_U+30FC 1
370
     0
  0
SPLINE
  5
7A
330
59
100
AcDbEntity
  8
_U+30EC_U+30A4_U+30E4_U+30FC 1
370
     0
100
AcDbSpline
210
0.0
220
0.0
230
1.0
 70
    11
 71
     3
 72
    41
 73
    37
 74
     0
 42
0.0000000001
 43
0.0000000001
 12
1.0
 22
0.0
 32
0.0
 13
1.0
 23
0.0
 33
0.0
 40
0.0
 40
0.0
 40
0.0
 40
0.0
 40
1.0
 40
1.0
 40
1.0
 40
2.0
 40
2.0
 40
2.0
 40
3.0
 40
3.0
 40
3.0
 40
4.0
 40
4.0
 40
4.0
 40
5.0
 40
5.0
 40
5.0
 40
6.0
 40
6.0
 40
6.0
 40
7.0
 40
7.0
 40
7.0
 40
8.0
 40
8.0
 40
8.0
 40
9.0
 40
9.0
 40
9.0
 40
10.0
 40
10.0
 40
10.0
 40
11.0
 40
11.0
 40
11.0
 40
12.0
 40
12.0
 40
12.0
 40
12.0
 10
88.67107338278015
 20
-118.2453233211331
 30
0.0
 10
88.42991669881266
 20
-118.1099310685628
 30
0.0
 10
88.25214977177377
 20
-117.8136528568313
 30
0.0
 10
88.21184215459635
 20
-117.6846340309087
 30
0.0
 10
88.09126381261261
 20
-117.9490451094016
 30
0.0
 10
87.92865530570882
 20
-118.1268120364405
 30
0.0
 10
87.74675426408763
 20
-118.2410169517766
 30
0.0
 10
87.74675426408763
 20
-118.2410169517766
 30
0.0
 10
87.54969480233133
 20
-118.1035576419151
 30
0.0
 10
87.54969480233133
 20
-118.1035576419151
 30
0.0
 10
87.6196302406819
 20
-118.0782361900985
 30
0.0
 10
87.7657022892565
 20
-118.0167412356868
 30
0.0
 10
87.88834768853138
 20
-117.8624009579476
 30
0.0
 10
88.01306014509743
 20
-117.705821368143
 30
0.0
 10
88.10194360861688
 20
-117.4731051681144
 30
0.0
 10
88.10194360861688
 20
-117.213000458978
 30
0.0
 10
88.10194360861688
 20
-117.1113701421631
 30
0.0
 10
88.08919675532145
 20
-117.0395399012957
 30
0.0
 10
88.07886146886571
 20
-116.9928588574705
 30
0.0
 10
88.07886146886571
 20
-116.9928588574705
 30
0.0
 10
88.28384465023807
 20
-117.0140461947048
 30
0.0
 10
88.28384465023807
 20
-117.0140461947048
 30
0.0
 10
88.30520424224662
 20
-117.016113251996
 30
0.0
 10
88.32621932470664
 20
-117.0183525640614
 30
0.0
 10
88.32621932470664
 20
-117.0395399012957
 30
0.0
 10
88.32621932470664
 20
-117.0584879264646
 30
0.0
 10
88.31553952870237
 20
-117.0669284104034
 30
0.0
 10
88.28177759294692
 20
-117.0881157476377
 30
0.0
 10
88.27350936378232
 20
-117.289137069202
 30
0.0
 10
88.33035343928894
 20
-117.5323608104607
 30
0.0
 10
88.39167613892639
 20
-117.6529391524444
 30
0.0
 10
88.48262665973698
 20
-117.8284667674179
 30
0.0
 10
88.67727455465361
 20
-118.0083007517479
 30
0.0
 10
88.81266680722392
 20
-118.0654893368031
 30
0.0
 10
88.81266680722392
 20
-118.0654893368031
 30
0.0
 10
88.67107338278015
 20
-118.2453233211331
 30
0.0
 10
88.67107338278015
 20
-118.2453233211331
 30
0.0
  0
HATCH
  5
7B
330
59
100
AcDbEntity
  8
_U+30EC_U+30A4_U+30E4_U+30FC 1
 62
   179
420
  2234388
100
AcDbHatch
 10
0.0
 20
0.0
 30
0.0
210
0.0
220
0.0
230
1.0
  2
SOLID
 70
     1
 71
     0
 91
        6
 92
        1
 93
        1
 72
     4
 94
        3
 73
     0
 74
     1
 95
      197
 96
      193
 40
0.0
 40
0.0
 40
0.0
 40
0.0
 40
1.0
 40
1.0
 40
1.0
 40
2.0
 40
2.0
 40
2.0
 40
3.0
 40
3.0
 40
3.0
 40
4.0
 40
4.0
 40
4.0
 40
5.0
 40
5.0
 40
5.0
 40
6.0
 40
6.0
 40
6.0
 40
7.0
 40
7.0
 40
7.0
 40
8.0
 40
8.0
 40
8.0
 40
9.0
 40
9.0
 40
9.0
 40
10.0
 40
10.0
 40
10.0
 40
11.0
 40
11.0
 40
11.0
 40
12.0
 40
12.0
 40
12.0
 40
13.0
 40
13.0
 40
13.0
 40
14.0
 40
14.0
 40
14.0
 40
15.0
 40
15.0
 40
15.0
 40
16.0
 40
16.0
 40
16.0
 40
17.0
 40
17.0
 40
17.0
 40
18.0
 40
18.0
 40
18.0
 40
19.0
 40
19.0
 40
19.0
 40
20.0
 40
20.0
 40
20.0
 40
21.0
 40
21.0
 40
21.0
 40
22.0
 40
22.0
 40
22.0
 40
23.0
 40
23.0
 40
23.0
 40
24.0
 40
24.0
 40
24.0
 40
25.0
 40
25.0
 40
25.0
 40
26.0
 40
26.0
 40
26.0
 40
27.0
 40
27.0
 40
27.0
 40
28.0
 40
28.0
 40
28.0
 40
29.0
 40
29.0
 40
29.0
 40
30.0
 40
30.0
 40
30.0
 40
31.0
 40
31.0
 40
31.0
 40
32.0
 40
32.0
 40
32.0
 40
33.0
 40
33.0
 40
33.0
 40
34.0
 40
34.0
 40
34.0
 40
35.0
 40
35.0
 40
35.0
 40
36.0
 40
36.0
 40
36.0
 40
37.0
 40
37.0
 40
37.0
 40
38.0
 40
38.0
 40
38.0
 40
39.0
 40
39.0
 40
39.0
 40
40.0
 40
40.0
 40
40.0
 40
41.0
 40
41.0
 40
41.0
 40
42.0
 40
42.0
 40
42.0
 40
43.0
 40
43.0
 40
43.0
 40
44.0
 40
44.0
 40
44.0
 40
45.0
 40
45.0
 40
45.0
 40
46.0
 40
46.0
 40
46.0
 40
47.0
 40
47.0
 40
47.0
 40
48.0
 40
48.0
 40
48.0
 40
49.0
 40
49.0
 40
49.0
 40
50.0
 40
50.0
 40
50.0
 40
51.0
 40
51.0
 40
51.0
 40
52.0
 40
52.0
 40
52.0
 40
53.0
 40
53.0
 40
53.0
 40
54.0
 40
54.0
 40
54.0
 40
55.0
 40
55.0
 40
55.0
 40
56.0
 40
56.0
 40
56.0
 40
57.0
 40
57.0
 40
57.0
 40
58.0
 40
58.0
 40
58.0
 40
59.0
 40
59.0
 40
59.0
 40
60.0
 40
60.0
 40
60.0
 40
61.0
 40
61.0
 40
61.0
 40
62.0
 40
62.0
 40
62.0
 40
63.0
 40
63.0
 40
63.0
 40
64.0
 40
64.0
 40
64.0
 40
64.0
 10
88.7558227317173
 20
-116.8893337381388
 10
88.74514293571302
 20
-116.9189615593119
 10
88.72171628641333
 20
-116.9654703483628
 10
88.71138099995757
 20
-116.9928588574705
 10
88.71138099995757
 20
-116.9928588574705
 10
88.65005830032013
 20
-117.1453043326928
 10
88.65005830032013
 20
-117.1453043326928
 10
88.63937850431586
 20
-117.1706257845094
 10
88.59080265797382
 20
-117.2827636425543
 10
88.57805580467841
 20
-117.3060180370798
 10
88.57598874738726
 20
-117.3123914637275
 10
88.57151012325643
 20
-117.3208319476663
 10
88.56944306596529
 20
-117.327205374314
 10
88.56944306596529
 20
-117.327205374314
 10
88.35998126046209
 20
-117.2743231586155
 10
88.35998126046209
 20
-117.2743231586155
 10
88.43852943752579
 20
-117.1642523578617
 10
88.49985213716323
 20
-117.0288601052914
 10
88.53154701562754
 20
-116.9189615593119
 10
88.53154701562754
 20
-116.9189615593119
 10
88.06611461557029
 20
-116.9189615593119
 10
88.06611461557029
 20
-116.9189615593119
 10
87.98549938121543
 20
-117.0838093782811
 10
87.91797550970453
 20
-117.1621853005706
 10
87.88421357394908
 20
-117.2023206629737
 10
87.88421357394908
 20
-117.2023206629737
 10
87.7615681746742
 20
-117.1366915939797
 10
87.7615681746742
 20
-117.1366915939797
 10
87.7615681746742
 20
-117.1366915939797
 10
87.7615681746742
 20
-117.3080850943709
 10
87.7615681746742
 20
-117.3080850943709
 10
87.7615681746742
 20
-117.4160888378335
 10
87.76363523196534
 20
-117.4646646841755
 10
87.7739705184211
 20
-117.5704291155727
 10
87.7023125323279
 20
-117.5683620582815
 10
87.68095294031934
 20
-117.5683620582815
 10
87.47596975894699
 20
-117.5683620582815
 10
87.47596975894699
 20
-117.5683620582815
 10
87.42084823118299
 20
-117.5683620582815
 10
87.42084823118299
 20
-117.5683620582815
 10
87.42084823118299
 20
-117.5683620582815
 10
87.42084823118299
 20
-117.7037543108518
 10
87.42084823118299
 20
-117.7037543108518
 10
87.42084823118299
 20
-117.7037543108518
 10
87.49285072682471
 20
-117.7037543108518
 10
87.49285072682471
 20
-117.7037543108518
 10
87.55830754104446
 20
-117.7037543108518
 10
87.70437958961905
 20
-117.6994479414953
 10
87.81014402101621
 20
-117.6910074575564
 10
87.81014402101621
 20
-117.6910074575564
 10
87.81014402101621
 20
-117.8687743845953
 10
87.81014402101621
 20
-117.8687743845953
 10
87.71264781878365
 20
-117.8624009579476
 10
87.55417342646216
 20
-117.858094588591
 10
87.49285072682471
 20
-117.858094588591
 10
87.49285072682471
 20
-117.858094588591
 10
87.42084823118299
 20
-117.858094588591
 10
87.42084823118299
 20
-117.858094588591
 10
87.42291528847413
 20
-117.9469780521105
 10
87.42704940305643
 20
-118.1860676787868
 10
87.42911646034759
 20
-118.2601372317197
 10
87.42911646034759
 20
-118.2601372317197
 10
87.22826739355752
 20
-118.2601372317197
 10
87.22826739355752
 20
-118.2601372317197
 10
87.24101424685294
 20
-118.0463690568599
 10
87.24101424685294
 20
-118.0167412356868
 10
87.24514836143524
 20
-117.858094588591
 10
87.24514836143524
 20
-117.858094588591
 10
87.1755574326332
 20
-117.858094588591
 10
87.1755574326332
 20
-117.858094588591
 10
87.11836884757805
 20
-117.858094588591
 10
86.96609562713
 20
-117.8624009579476
 10
86.85585257160201
 20
-117.8687743845953
 10
86.85585257160201
 20
-117.8687743845953
 10
86.85585257160201
 20
-117.6910074575564
 10
86.85585257160201
 20
-117.6910074575564
 10
86.96161700299918
 20
-117.6994479414953
 10
87.10562199428263
 20
-117.7037543108518
 10
87.1755574326332
 20
-117.7037543108518
 10
87.1755574326332
 20
-117.7037543108518
 10
87.24928247601754
 20
-117.7037543108518
 10
87.24928247601754
 20
-117.7037543108518
 10
87.24928247601754
 20
-117.7037543108518
 10
87.24928247601754
 20
-117.5683620582815
 10
87.24928247601754
 20
-117.5683620582815
 10
87.24928247601754
 20
-117.5683620582815
 10
87.20518525380635
 20
-117.5683620582815
 10
87.20518525380635
 20
-117.5683620582815
 10
87.1287041340338
 20
-117.5683620582815
 10
86.93646780595687
 20
-117.5704291155727
 10
86.90236136065289
 20
-117.5704291155727
 10
86.90890704207486
 20
-117.4985988747052
 10
86.91717527123946
 20
-117.4181558951246
 10
86.91717527123946
 20
-117.2975775531409
 10
86.91717527123946
 20
-117.2975775531409
 10
86.91717527123946
 20
-117.1241169954586
 10
86.91717527123946
 20
-117.1241169954586
 10
86.91717527123946
 20
-117.0521144998168
 10
86.90890704207486
 20
-116.9315361578331
 10
86.90236136065289
 20
-116.8510931782525
 10
86.98090953771658
 20
-116.8553995476091
 10
87.01880558805433
 20
-116.8574666049002
 10
87.14592961146005
 20
-116.8574666049002
 10
87.14592961146005
 20
-116.8574666049002
 10
87.24928247601754
 20
-116.8574666049002
 10
87.24928247601754
 20
-116.8574666049002
 10
87.24928247601754
 20
-116.8574666049002
 10
87.24928247601754
 20
-116.7115668110999
 10
87.24928247601754
 20
-116.7115668110999
 10
87.24928247601754
 20
-116.7115668110999
 10
87.17107880850237
 20
-116.7115668110999
 10
87.17107880850237
 20
-116.7115668110999
 10
87.1163017902869
 20
-116.7115668110999
 10
86.94473603512147
 20
-116.7157009256822
 10
86.86033119573284
 20
-116.7220743523299
 10
86.86033119573284
 20
-116.7220743523299
 10
86.86033119573284
 20
-116.5444796800653
 10
86.86033119573284
 20
-116.5444796800653
 10
86.94266897783031
 20
-116.550853106713
 10
87.10562199428263
 20
-116.5549872212953
 10
87.17107880850237
 20
-116.5549872212953
 10
87.17107880850237
 20
-116.5549872212953
 10
87.24928247601754
 20
-116.5549872212953
 10
87.24928247601754
 20
-116.5549872212953
 10
87.24928247601754
 20
-116.5212252855398
 10
87.24514836143524
 20
-116.3667127530264
 10
87.24514836143524
 20
-116.3350178745621
 10
87.24514836143524
 20
-116.3350178745621
 10
87.44186331364301
 20
-116.3518988424398
 10
87.44186331364301
 20
-116.3518988424398
 10
87.45874428152074
 20
-116.353965899731
 10
87.48010387352929
 20
-116.3562052117964
 10
87.48010387352929
 20
-116.3773925490307
 10
87.48010387352929
 20
-116.4006469435561
 10
87.45874428152074
 20
-116.409087427495
 10
87.43152802718726
 20
-116.4216620260161
 10
87.43152802718726
 20
-116.4428493632504
 10
87.42911646034759
 20
-116.5381062534176
 10
87.42911646034759
 20
-116.5549872212953
 10
87.42911646034759
 20
-116.5549872212953
 10
87.48837210269389
 20
-116.5549872212953
 10
87.48837210269389
 20
-116.5549872212953
 10
87.5562404837533
 20
-116.5549872212953
 10
87.69990096548823
 20
-116.550853106713
 10
87.80566539688539
 20
-116.5444796800653
 10
87.80566539688539
 20
-116.5444796800653
 10
87.80566539688539
 20
-116.7220743523299
 10
87.80566539688539
 20
-116.7220743523299
 10
87.70851370420135
 20
-116.7157009256822
 10
87.552106369171
 20
-116.7115668110999
 10
87.48837210269389
 20
-116.7115668110999
 10
87.48837210269389
 20
-116.7115668110999
 10
87.42084823118299
 20
-116.7115668110999
 10
87.42084823118299
 20
-116.7115668110999
 10
87.42084823118299
 20
-116.7115668110999
 10
87.42084823118299
 20
-116.8574666049002
 10
87.42084823118299
 20
-116.8574666049002
 10
87.42084823118299
 20
-116.8574666049002
 10
87.49078366953356
 20
-116.8574666049002
 10
87.49078366953356
 20
-116.8574666049002
 10
87.64064532314192
 20
-116.8574666049002
 10
87.71264781878365
 20
-116.8533324903179
 10
87.7739705184211
 20
-116.8510931782525
 10
87.7657022892565
 20
-116.9463500684197
 10
87.76363523196534
 20
-117.0247259907091
 10
87.7615681746742
 20
-117.0627942958211
 10
87.91590845241339
 20
-116.8510931782525
 10
88.02167288381055
 20
-116.6037353224116
 10
88.03855385168828
 20
-116.3413913012098
 10
88.03855385168828
 20
-116.3413913012098
 10
88.25421682906492
 20
-116.392034204843
 10
88.25421682906492
 20
-116.392034204843
 10
88.2690307396515
 20
-116.3963405741995
 10
88.28384465023807
 20
-116.4027140008472
 10
88.28384465023807
 20
-116.419594968725
 10
88.28384465023807
 20
-116.4364759366027
 10
88.27971053565577
 20
-116.4387152486681
 10
88.22906763202259
 20
-116.4597303311281
 10
88.21184215459635
 20
-116.5360391961264
 10
88.18669295755403
 20
-116.626989716937
 10
88.138117111212
 20
-116.7539414855685
 10
88.138117111212
 20
-116.7539414855685
 10
88.47642548786354
 20
-116.7539414855685
 10
88.47642548786354
 20
-116.7539414855685
 10
88.51466604774981
 20
-116.7539414855685
 10
88.64351261889816
 20
-116.7496351162119
 10
88.69208846524018
 20
-116.7432616895642
 10
88.69208846524018
 20
-116.7432616895642
 10
88.78545055289045
 20
-116.8130248731405
 10
88.78545055289045
 20
-116.8130248731405
 10
88.77683781417733
 20
-116.8342122103748
 10
88.77063664230387
 20
-116.8533324903179
 10
88.7558227317173
 20
-116.8893337381388
 97
        0
 97
        0
 92
        1
 93
        4
 72
     1
 10
87.24928247601754
 20
-117.0140461947048
 11
87.09080808369605
 21
-117.0140461947048
 72
     1
 10
87.09080808369605
 20
-117.0140461947048
 11
87.09080808369605
 21
-117.1430650206274
 72
     1
 10
87.09080808369605
 20
-117.1430650206274
 11
87.24928247601754
 21
-117.1430650206274
 72
     1
 10
87.24928247601754
 20
-117.1430650206274
 11
87.24928247601754
 21
-117.0140461947048
 97
        0
 92
        1
 93
        4
 72
     1
 10
87.24928247601754
 20
-117.2868977571366
 11
87.09080808369605
 21
-117.2868977571366
 72
     1
 10
87.09080808369605
 20
-117.2868977571366
 11
87.09080808369605
 21
-117.4160888378335
 72
     1
 10
87.09080808369605
 20
-117.4160888378335
 11
87.24928247601754
 21
-117.4160888378335
 72
     1
 10
87.24928247601754
 20
-117.4160888378335
 11
87.24928247601754
 21
-117.2868977571366
 97
        0
 92
        1
 93
        4
 72
     1
 10
87.58173419034415
 20
-117.0140461947048
 11
87.42084823118299
 21
-117.0140461947048
 72
     1
 10
87.42084823118299
 20
-117.0140461947048
 11
87.42084823118299
 21
-117.1430650206274
 72
     1
 10
87.42084823118299
 20
-117.1430650206274
 11
87.58173419034415
 21
-117.1430650206274
 72
     1
 10
87.58173419034415
 20
-117.1430650206274
 11
87.58173419034415
 21
-117.0140461947048
 97
        0
 92
        1
 93
        4
 72
     1
 10
87.58173419034415
 20
-117.2868977571366
 11
87.42084823118299
 21
-117.2868977571366
 72
     1
 10
87.42084823118299
 20
-117.2868977571366
 11
87.42084823118299
 21
-117.4160888378335
 72
     1
 10
87.42084823118299
 20
-117.4160888378335
 11
87.58173419034415
 21
-117.4160888378335
 72
     1
 10
87.58173419034415
 20
-117.4160888378335
 11
87.58173419034415
 21
-117.2868977571366
 97
        0
 92
        1
 93
        1
 72
     4
 94
        3
 73
     0
 74
     1
 95
       41
 96
       37
 40
0.0
 40
0.0
 40
0.0
 40
0.0
 40
1.0
 40
1.0
 40
1.0
 40
2.0
 40
2.0
 40
2.0
 40
3.0
 40
3.0
 40
3.0
 40
4.0
 40
4.0
 40
4.0
 40
5.0
 40
5.0
 40
5.0
 40
6.0
 40
6.0
 40
6.0
 40
7.0
 40
7.0
 40
7.0
 40
8.0
 40
8.0
 40
8.0
 40
9.0
 40
9.0
 40
9.0
 40
10.0
 40
10.0
 40
10.0
 40
11.0
 40
11.0
 40
11.0
 40
12.0
 40
12.0
 40
12.0
 40
12.0
 10
88.67107338278015
 20
-118.2453233211331
 10
88.42991669881266
 20
-118.1099310685628
 10
88.25214977177377
 20
-117.8136528568313
 10
88.21184215459635
 20
-117.6846340309087
 10
88.09126381261261
 20
-117.9490451094016
 10
87.92865530570882
 20
-118.1268120364405
 10
87.74675426408763
 20
-118.2410169517766
 10
87.74675426408763
 20
-118.2410169517766
 10
87.54969480233133
 20
-118.1035576419151
 10
87.54969480233133
 20
-118.1035576419151
 10
87.6196302406819
 20
-118.0782361900985
 10
87.7657022892565
 20
-118.0167412356868
 10
87.88834768853138
 20
-117.8624009579476
 10
88.01306014509743
 20
-117.705821368143
 10
88.10194360861688
 20
-117.4731051681144
 10
88.10194360861688
 20
-117.213000458978
 10
88.10194360861688
 20
-117.1113701421631
 10
88.08919675532145
 20
-117.0395399012957
 10
88.07886146886571
 20
-116.9928588574705
 10
88.07886146886571
 20
-116.9928588574705
 10
88.28384465023807
 20
-117.0140461947048
 10
88.28384465023807
 20
-117.0140461947048
 10
88.30520424224662
 20
-117.016113251996
 10
88.32621932470664
 20
-117.0183525640614
 10
88.32621932470664
 20
-117.0395399012957
 10
88.32621932470664
 20
-117.0584879264646
 10
88.31553952870237
 20
-117.0669284104034
 10
88.28177759294692
 20
-117.0881157476377
 10
88.27350936378232
 20
-117.289137069202
 10
88.33035343928894
 20
-117.5323608104607
 10
88.39167613892639
 20
-117.6529391524444
 10
88.48262665973698
 20
-117.8284667674179
 10
88.67727455465361
 20
-118.0083007517479
 10
88.81266680722392
 20
-118.0654893368031
 10
88.81266680722392
 20
-118.0654893368031
 10
88.67107338278015
 20
-118.2453233211331
 10
88.67107338278015
 20
-118.2453233211331
 97
        0
 97
        0
 75
     2
 76
     1
 98
        0
  0
SPLINE
  5
7C
330
59
100
AcDbEntity
  8
_U+30EC_U+30A4_U+30E4_U+30FC 1
370
     0
100
AcDbSpline
210
0.0
220
0.0
230
1.0
 70
    11
 71
     3
 72
    71
 73
    67
 74
     0
 42
0.0000000001
 43
0.0000000001
 12
1.0
 22
0.0
 32
0.0
 13
1.0
 23
0.0
 33
0.0
 40
0.0
 40
0.0
 40
0.0
 40
0.0
 40
1.0
 40
1.0
 40
1.0
 40
2.0
 40
2.0
 40
2.0
 40
3.0
 40
3.0
 40
3.0
 40
4.0
 40
4.0
 40
4.0
 40
5.0
 40
5.0
 40
5.0
 40
6.0
 40
6.0
 40
6.0
 40
7.0
 40
7.0
 40
7.0
 40
8.0
 40
8.0
 40
8.0
 40
9.0
 40
9.0
 40
9.0
 40
10.0
 40
10.0
 40
10.0
 40
11.0
 40
11.0
 40
11.0
 40
12.0
 40
12.0
 40
12.0
 40
13.0
 40
13.0
 40
13.0
 40
14.0
 40
14.0
 40
14.0
 40
15.0
 40
15.0
 40
15.0
 40
16.0
 40
16.0
 40
16.0
 40
17.0
 40
17.0
 40
17.0
 40
18.0
 40
18.0
 40
18.0
 40
19.0
 40
19.0
 40
19.0
 40
20.0
 40
20.0
 40
20.0
 40
21.0
 40
21.0
 40
21.0
 40
22.0
 40
22.0
 40
22.0
 40
22.0
 10
89.86548798751627
 20
-116.512784801601
 30
0.0
 10
89.85067407692969
 20
-116.512784801601
 30
0.0
 10
89.83792722363427
 20
-116.5084784322444
 30
0.0
 10
89.81243351704342
 20
-116.5000379483055
 30
0.0
 10
89.67084009259966
 20
-116.5465467373564
 30
0.0
 10
89.49720728014306
 20
-116.5634277052341
 30
0.0
 10
89.35768091299045
 20
-116.5677340745907
 30
0.0
 10
89.35768091299045
 20
-116.5677340745907
 30
0.0
 10
89.35561385569929
 20
-116.6566175381102
 30
0.0
 10
89.35561385569929
 20
-116.6566175381102
 30
0.0
 10
89.35561385569929
 20
-116.6566175381102
 30
0.0
 10
89.61571856483566
 20
-116.6566175381102
 30
0.0
 10
89.61571856483566
 20
-116.6566175381102
 30
0.0
 10
89.6687730353085
 20
-116.6566175381102
 30
0.0
 10
89.85067407692969
 20
-116.6481770541713
 30
0.0
 10
89.89511580868943
 20
-116.6418036275236
 30
0.0
 10
89.89511580868943
 20
-116.6418036275236
 30
0.0
 10
89.89511580868943
 20
-116.8025173319105
 30
0.0
 10
89.89511580868943
 20
-116.8025173319105
 30
0.0
 10
89.83999428092542
 20
-116.7961439052628
 30
0.0
 10
89.71528182435938
 20
-116.7940768479716
 30
0.0
 10
89.6770412644731
 20
-116.7961439052628
 30
0.0
 10
89.6770412644731
 20
-116.7961439052628
 30
0.0
 10
89.6770412644731
 20
-116.9062147060165
 30
0.0
 10
89.6770412644731
 20
-116.9062147060165
 30
0.0
 10
89.6770412644731
 20
-116.9527234950674
 30
0.0
 10
89.67910832176426
 20
-117.016113251996
 30
0.0
 10
89.68565400318623
 20
-117.0543538118823
 30
0.0
 10
89.68565400318623
 20
-117.0543538118823
 30
0.0
 10
89.49307316556076
 20
-117.0543538118823
 30
0.0
 10
89.49307316556076
 20
-117.0543538118823
 30
0.0
 10
89.49927433743422
 20
-117.0140461947048
 30
0.0
 10
89.50582001885618
 20
-116.9315361578331
 30
0.0
 10
89.50582001885618
 20
-116.9167222472465
 30
0.0
 10
89.50582001885618
 20
-116.9167222472465
 30
0.0
 10
89.50582001885618
 20
-116.7961439052628
 30
0.0
 10
89.50582001885618
 20
-116.7961439052628
 30
0.0
 10
89.50582001885618
 20
-116.7961439052628
 30
0.0
 10
89.34079994511272
 20
-116.7961439052628
 30
0.0
 10
89.34079994511272
 20
-116.7961439052628
 30
0.0
 10
89.29842527064415
 20
-117.016113251996
 30
0.0
 10
89.24330374288014
 20
-117.0965562315766
 30
0.0
 10
89.13753931148298
 20
-117.195947236326
 30
0.0
 10
89.13753931148298
 20
-117.195947236326
 30
0.0
 10
88.97045218044836
 20
-117.08174232099
 30
0.0
 10
88.97045218044836
 20
-117.08174232099
 30
0.0
 10
89.03384193737696
 20
-117.033166474648
 30
0.0
 10
89.18404810053386
 20
-116.9210286166031
 30
0.0
 10
89.18404810053386
 20
-116.571868189173
 30
0.0
 10
89.18404810053386
 20
-116.4893581523013
 30
0.0
 10
89.17577987136926
 20
-116.4428493632504
 30
0.0
 10
89.16716713265613
 20
-116.3942735169084
 30
0.0
 10
89.31323918123073
 20
-116.409087427495
 30
0.0
 10
89.3280530918173
 20
-116.409087427495
 30
0.0
 10
89.36388208486389
 20
-116.409087427495
 30
0.0
 10
89.47205808310073
 20
-116.409087427495
 30
0.0
 10
89.6136515075445
 20
-116.392034204843
 30
0.0
 10
89.77453746670568
 20
-116.3307115052055
 30
0.0
 10
89.77453746670568
 20
-116.3307115052055
 30
0.0
 10
89.88857012726744
 20
-116.4619696431935
 30
0.0
 10
89.88857012726744
 20
-116.4619696431935
 30
0.0
 10
89.89511580868943
 20
-116.4683430698413
 30
0.0
 10
89.89924992327173
 20
-116.4767835537801
 30
0.0
 10
89.89924992327173
 20
-116.485224037719
 30
0.0
 10
89.89924992327173
 20
-116.5084784322444
 30
0.0
 10
89.88030189810284
 20
-116.512784801601
 30
0.0
 10
89.86548798751627
 20
-116.512784801601
 30
0.0
  0
SPLINE
  5
7D
330
59
100
AcDbEntity
  8
_U+30EC_U+30A4_U+30E4_U+30FC 1
370
     0
100
AcDbSpline
210
0.0
220
0.0
230
1.0
 70
    11
 71
     3
 72
    74
 73
    70
 74
     0
 42
0.0000000001
 43
0.0000000001
 12
1.0
 22
0.0
 32
0.0
 13
1.0
 23
0.0
 33
0.0
 40
0.0
 40
0.0
 40
0.0
 40
0.0
 40
1.0
 40
1.0
 40
1.0
 40
2.0
 40
2.0
 40
2.0
 40
3.0
 40
3.0
 40
3.0
 40
4.0
 40
4.0
 40
4.0
 40
5.0
 40
5.0
 40
5.0
 40
6.0
 40
6.0
 40
6.0
 40
7.0
 40
7.0
 40
7.0
 40
8.0
 40
8.0
 40
8.0
 40
9.0
 40
9.0
 40
9.0
 40
10.0
 40
10.0
 40
10.0
 40
11.0
 40
11.0
 40
11.0
 40
12.0
 40
12.0
 40
12.0
 40
13.0
 40
13.0
 40
13.0
 40
14.0
 40
14.0
 40
14.0
 40
15.0
 40
15.0
 40
15.0
 40
16.0
 40
16.0
 40
16.0
 40
17.0
 40
17.0
 40
17.0
 40
18.0
 40
18.0
 40
18.0
 40
19.0
 40
19.0
 40
19.0
 40
20.0
 40
20.0
 40
20.0
 40
21.0
 40
21.0
 40
21.0
 40
22.0
 40
22.0
 40
22.0
 40
23.0
 40
23.0
 40
23.0
 40
23.0
 10
90.7029906999805
 20
-118.2790852568886
 30
0.0
 10
90.48939477989502
 20
-118.2685777156586
 30
0.0
 10
90.28854571310495
 20
-118.1817613094303
 30
0.0
 10
90.1128458433572
 20
-118.0611829674465
 30
0.0
 10
90.1128458433572
 20
-118.0611829674465
 30
0.0
 10
90.21034204558978
 20
-117.9745388159925
 30
0.0
 10
90.21034204558978
 20
-117.9745388159925
 30
0.0
 10
90.21034204558978
 20
-117.9745388159925
 30
0.0
 10
89.65809323930424
 20
-117.9745388159925
 30
0.0
 10
89.65809323930424
 20
-117.9745388159925
 30
0.0
 10
89.65809323930424
 20
-117.9745388159925
 30
0.0
 10
89.73836396411055
 20
-118.0379285729211
 30
0.0
 10
89.73836396411055
 20
-118.0379285729211
 30
0.0
 10
89.74490964553253
 20
-118.0422349422776
 30
0.0
 10
89.75524493198827
 20
-118.0527424835077
 30
0.0
 10
89.75524493198827
 20
-118.0675563940942
 30
0.0
 10
89.75524493198827
 20
-118.1078640112716
 30
0.0
 10
89.6811753790554
 20
-118.1014905846239
 30
0.0
 10
89.66636146846884
 20
-118.0992512725585
 30
0.0
 10
89.43588458050561
 20
-118.2389498944854
 30
0.0
 10
89.2922240987707
 20
-118.2706447729497
 30
0.0
 10
89.18852672466468
 20
-118.2875257408274
 30
0.0
 10
89.18852672466468
 20
-118.2875257408274
 30
0.0
 10
89.05933564396781
 20
-118.1099310685628
 30
0.0
 10
89.05933564396781
 20
-118.1099310685628
 30
0.0
 10
89.30703800935727
 20
-118.0782361900985
 30
0.0
 10
89.40832381662362
 20
-118.0315551462734
 30
0.0
 10
89.49720728014306
 20
-117.9786729305748
 30
0.0
 10
89.42313772721019
 20
-117.9809122426402
 30
0.0
 10
89.30910506664843
 20
-117.9829792999313
 30
0.0
 10
89.27741018818412
 20
-117.9850463572225
 30
0.0
 10
89.2922240987707
 20
-117.896162893703
 30
0.0
 10
89.29429115606185
 20
-117.7671440677804
 30
0.0
 10
89.29429115606185
 20
-117.6930745148476
 30
0.0
 10
89.29429115606185
 20
-117.6930745148476
 30
0.0
 10
89.29429115606185
 20
-117.3926621885338
 30
0.0
 10
89.29429115606185
 20
-117.3926621885338
 30
0.0
 10
89.29429115606185
 20
-117.2932711837843
 30
0.0
 10
89.28774547463988
 20
-117.1938801790349
 30
0.0
 10
89.27741018818412
 20
-117.0965562315766
 30
0.0
 10
89.37869599545047
 20
-117.1029296582243
 30
0.0
 10
89.6095173929622
 20
-117.109303084872
 30
0.0
 10
89.71734888165052
 20
-117.109303084872
 30
0.0
 10
89.71734888165052
 20
-117.109303084872
 30
0.0
 10
90.14040660723921
 20
-117.109303084872
 30
0.0
 10
90.14040660723921
 20
-117.109303084872
 30
0.0
 10
90.2589178919318
 20
-117.109303084872
 30
0.0
 10
90.30129256640038
 20
-117.109303084872
 30
0.0
 10
90.38363034849785
 20
-117.1049967155154
 30
0.0
 10
90.53176945436358
 20
-117.0986232888677
 30
0.0
 10
90.54865042224131
 20
-117.0986232888677
 30
0.0
 10
90.59515921129218
 20
-117.0965562315766
 30
0.0
 10
90.58689098212758
 20
-117.1769992111571
 30
0.0
 10
90.58241235799676
 20
-117.3356458582529
 30
0.0
 10
90.58241235799676
 20
-117.4181558951246
 30
0.0
 10
90.58241235799676
 20
-117.4181558951246
 30
0.0
 10
90.58241235799676
 20
-117.7037543108518
 30
0.0
 10
90.58241235799676
 20
-117.7037543108518
 30
0.0
 10
90.58241235799676
 20
-117.7755845517193
 30
0.0
 10
90.58447941528792
 20
-117.9068426897073
 30
0.0
 10
90.59515921129218
 20
-117.9850463572225
 30
0.0
 10
90.52315671565046
 20
-117.9809122426402
 30
0.0
 10
90.40051131637557
 20
-117.9786729305748
 30
0.0
 10
90.3223076488604
 20
-117.9766058732836
 30
0.0
 10
90.43220619483986
 20
-118.0443019995688
 30
0.0
 10
90.58447941528792
 20
-118.0951171579762
 30
0.0
 10
90.79635278763078
 20
-118.0992512725585
 30
0.0
 10
90.79635278763078
 20
-118.0992512725585
 30
0.0
 10
90.7029906999805
 20
-118.2790852568886
 30
0.0
 10
90.7029906999805
 20
-118.2790852568886
 30
0.0
  0
POLYLINE
  5
7E
330
59
100
AcDbEntity
  8
_U+30EC_U+30A4_U+30E4_U+30FC 1
370
     0
100
AcDb2dPolyline
 66
     1
 10
0.0
 20
0.0
 30
0.0
  0
VERTEX
  5
7F
330
7E
100
AcDbEntity
  8
_U+30EC_U+30A4_U+30E4_U+30FC 1
370
     0
100
AcDbVertex
100
AcDb2dVertex
 10
90.39844425908441
 20
-117.2446953374423
 30
0.0
  0
VERTEX
  5
80
330
7E
100
AcDbEntity
  8
_U+30EC_U+30A4_U+30E4_U+30FC 1
370
     0
100
AcDbVertex
100
AcDb2dVertex
 10
89.48652748413879
 20
-117.2446953374423
 30
0.0
  0
VERTEX
  5
81
330
7E
100
AcDbEntity
  8
_U+30EC_U+30A4_U+30E4_U+30FC 1
370
     0
100
AcDbVertex
100
AcDb2dVertex
 10
89.48652748413879
 20
-117.3568331954872
 30
0.0
  0
VERTEX
  5
82
330
7E
100
AcDbEntity
  8
_U+30EC_U+30A4_U+30E4_U+30FC 1
370
     0
100
AcDbVertex
100
AcDb2dVertex
 10
90.39844425908441
 20
-117.3568331954872
 30
0.0
  0
VERTEX
  5
83
330
7E
100
AcDbEntity
  8
_U+30EC_U+30A4_U+30E4_U+30FC 1
370
     0
100
AcDbVertex
100
AcDb2dVertex
 10
90.39844425908441
 20
-117.2446953374423
 30
0.0
  0
SEQEND
  5
84
330
7E
100
AcDbEntity
  8
_U+30EC_U+30A4_U+30E4_U+30FC 1
370
     0
  0
POLYLINE
  5
85
330
59
100
AcDbEntity
  8
_U+30EC_U+30A4_U+30E4_U+30FC 1
370
     0
100
AcDb2dPolyline
 66
     1
 10
0.0
 20
0.0
 30
0.0
  0
VERTEX
  5
86
330
85
100
AcDbEntity
  8
_U+30EC_U+30A4_U+30E4_U+30FC 1
370
     0
100
AcDbVertex
100
AcDb2dVertex
 10
90.39844425908441
 20
-117.4899861359921
 30
0.0
  0
VERTEX
  5
87
330
85
100
AcDbEntity
  8
_U+30EC_U+30A4_U+30E4_U+30FC 1
370
     0
100
AcDbVertex
100
AcDb2dVertex
 10
89.48652748413879
 20
-117.4899861359921
 30
0.0
  0
VERTEX
  5
88
330
85
100
AcDbEntity
  8
_U+30EC_U+30A4_U+30E4_U+30FC 1
370
     0
100
AcDbVertex
100
AcDb2dVertex
 10
89.48652748413879
 20
-117.6000569367458
 30
0.0
  0
VERTEX
  5
89
330
85
100
AcDbEntity
  8
_U+30EC_U+30A4_U+30E4_U+30FC 1
370
     0
100
AcDbVertex
100
AcDb2dVertex
 10
90.39844425908441
 20
-117.6000569367458
 30
0.0
  0
VERTEX
  5
8A
330
85
100
AcDbEntity
  8
_U+30EC_U+30A4_U+30E4_U+30FC 1
370
     0
100
AcDbVertex
100
AcDb2dVertex
 10
90.39844425908441
 20
-117.4899861359921
 30
0.0
  0
SEQEND
  5
8B
330
85
100
AcDbEntity
  8
_U+30EC_U+30A4_U+30E4_U+30FC 1
370
     0
  0
POLYLINE
  5
8C
330
59
100
AcDbEntity
  8
_U+30EC_U+30A4_U+30E4_U+30FC 1
370
     0
100
AcDb2dPolyline
 66
     1
 10
0.0
 20
0.0
 30
0.0
  0
VERTEX
  5
8D
330
8C
100
AcDbEntity
  8
_U+30EC_U+30A4_U+30E4_U+30FC 1
370
     0
100
AcDbVertex
100
AcDb2dVertex
 10
90.39844425908441
 20
-117.7354491893161
 30
0.0
  0
VERTEX
  5
8E
330
8C
100
AcDbEntity
  8
_U+30EC_U+30A4_U+30E4_U+30FC 1
370
     0
100
AcDbVertex
100
AcDb2dVertex
 10
89.48652748413879
 20
-117.7354491893161
 30
0.0
  0
VERTEX
  5
8F
330
8C
100
AcDbEntity
  8
_U+30EC_U+30A4_U+30E4_U+30FC 1
370
     0
100
AcDbVertex
100
AcDb2dVertex
 10
89.48652748413879
 20
-117.8432806780045
 30
0.0
  0
VERTEX
  5
90
330
8C
100
AcDbEntity
  8
_U+30EC_U+30A4_U+30E4_U+30FC 1
370
     0
100
AcDbVertex
100
AcDb2dVertex
 10
90.39844425908441
 20
-117.8432806780045
 30
0.0
  0
VERTEX
  5
91
330
8C
100
AcDbEntity
  8
_U+30EC_U+30A4_U+30E4_U+30FC 1
370
     0
100
AcDbVertex
100
AcDb2dVertex
 10
90.39844425908441
 20
-117.7354491893161
 30
0.0
  0
SEQEND
  5
92
330
8C
100
AcDbEntity
  8
_U+30EC_U+30A4_U+30E4_U+30FC 1
370
     0
  0
SPLINE
  5
93
330
59
100
AcDbEntity
  8
_U+30EC_U+30A4_U+30E4_U+30FC 1
370
     0
100
AcDbSpline
210
0.0
220
0.0
230
1.0
 70
    11
 71
     3
 72
    74
 73
    70
 74
     0
 42
0.0000000001
 43
0.0000000001
 12
1.0
 22
0.0
 32
0.0
 13
1.0
 23
0.0
 33
0.0
 40
0.0
 40
0.0
 40
0.0
 40
0.0
 40
1.0
 40
1.0
 40
1.0
 40
2.0
 40
2.0
 40
2.0
 40
3.0
 40
3.0
 40
3.0
 40
4.0
 40
4.0
 40
4.0
 40
5.0
 40
5.0
 40
5.0
 40
6.0
 40
6.0
 40
6.0
 40
7.0
 40
7.0
 40
7.0
 40
8.0
 40
8.0
 40
8.0
 40
9.0
 40
9.0
 40
9.0
 40
10.0
 40
10.0
 40
10.0
 40
11.0
 40
11.0
 40
11.0
 40
12.0
 40
12.0
 40
12.0
 40
13.0
 40
13.0
 40
13.0
 40
14.0
 40
14.0
 40
14.0
 40
15.0
 40
15.0
 40
15.0
 40
16.0
 40
16.0
 40
16.0
 40
17.0
 40
17.0
 40
17.0
 40
18.0
 40
18.0
 40
18.0
 40
19.0
 40
19.0
 40
19.0
 40
20.0
 40
20.0
 40
20.0
 40
21.0
 40
21.0
 40
21.0
 40
22.0
 40
22.0
 40
22.0
 40
23.0
 40
23.0
 40
23.0
 40
23.0
 10
90.71573755327593
 20
-116.7920097906805
 30
0.0
 10
90.71573755327593
 20
-116.7920097906805
 30
0.0
 10
90.55519610366329
 20
-116.7920097906805
 30
0.0
 10
90.55519610366329
 20
-116.7920097906805
 30
0.0
 10
90.55519610366329
 20
-116.7920097906805
 30
0.0
 10
90.55519610366329
 20
-116.9062147060165
 30
0.0
 10
90.55519610366329
 20
-116.9062147060165
 30
0.0
 10
90.55519610366329
 20
-116.9463500684197
 30
0.0
 10
90.56139727553673
 20
-117.0204196213525
 30
0.0
 10
90.56553139011903
 20
-117.0457410731691
 30
0.0
 10
90.56553139011903
 20
-117.0457410731691
 30
0.0
 10
90.3540025273247
 20
-117.0457410731691
 30
0.0
 10
90.3540025273247
 20
-117.0457410731691
 30
0.0
 10
90.36468232332898
 20
-116.9802842589494
 30
0.0
 10
90.36674938062012
 20
-116.9210286166031
 30
0.0
 10
90.36674938062012
 20
-116.9189615593119
 30
0.0
 10
90.36674938062012
 20
-116.9189615593119
 30
0.0
 10
90.36674938062012
 20
-116.7961439052628
 30
0.0
 10
90.36674938062012
 20
-116.7961439052628
 30
0.0
 10
90.36674938062012
 20
-116.7961439052628
 30
0.0
 10
90.18691539629008
 20
-116.7961439052628
 30
0.0
 10
90.18691539629008
 20
-116.7961439052628
 30
0.0
 10
90.16796737112121
 20
-116.8553995476091
 30
0.0
 10
90.12145858207033
 20
-117.0012993414094
 30
0.0
 10
90.00708141196004
 20
-117.0838093782811
 30
0.0
 10
90.00708141196004
 20
-117.0838093782811
 30
0.0
 10
89.85067407692969
 20
-116.978044946884
 30
0.0
 10
89.85067407692969
 20
-116.978044946884
 30
0.0
 10
89.92474362986256
 20
-116.9315361578331
 30
0.0
 10
90.0408433477155
 20
-116.8574666049002
 30
0.0
 10
90.0408433477155
 20
-116.5360391961264
 30
0.0
 10
90.0408433477155
 20
-116.4809176683624
 30
0.0
 10
90.0367092331332
 20
-116.4364759366027
 30
0.0
 10
90.03464217584204
 20
-116.3984076314907
 30
0.0
 10
90.11077878606606
 20
-116.4068481154295
 30
0.0
 10
90.18484833899893
 20
-116.4132215420773
 30
0.0
 10
90.24823809592753
 20
-116.4132215420773
 30
0.0
 10
90.42600502296642
 20
-116.4132215420773
 30
0.0
 10
90.62478703246533
 20
-116.353965899731
 30
0.0
 10
90.68610973210278
 20
-116.3243380785578
 30
0.0
 10
90.68610973210278
 20
-116.3243380785578
 30
0.0
 10
90.8132337555085
 20
-116.4597303311281
 30
0.0
 10
90.8132337555085
 20
-116.4597303311281
 30
0.0
 10
90.8173678700908
 20
-116.4640367004847
 30
0.0
 10
90.81943492738195
 20
-116.4724771844236
 30
0.0
 10
90.81943492738195
 20
-116.4788506110713
 30
0.0
 10
90.81943492738195
 20
-116.5000379483055
 30
0.0
 10
90.80462101679538
 20
-116.5064113749533
 30
0.0
 10
90.78774004891766
 20
-116.5064113749533
 30
0.0
 10
90.76672496645763
 20
-116.5064113749533
 30
0.0
 10
90.75191105587105
 20
-116.4979708910144
 30
0.0
 10
90.73261852115365
 20
-116.4872910950101
 30
0.0
 10
90.55933021824559
 20
-116.5444796800653
 30
0.0
 10
90.34125567402927
 20
-116.5698011318819
 30
0.0
 10
90.2079304787501
 20
-116.571868189173
 30
0.0
 10
90.2079304787501
 20
-116.571868189173
 30
0.0
 10
90.2037963641678
 20
-116.6543782260447
 30
0.0
 10
90.2037963641678
 20
-116.6543782260447
 30
0.0
 10
90.2037963641678
 20
-116.6543782260447
 30
0.0
 10
90.4766479265996
 20
-116.6543782260447
 30
0.0
 10
90.4766479265996
 20
-116.6543782260447
 30
0.0
 10
90.53383651165474
 20
-116.6543782260447
 30
0.0
 10
90.79635278763078
 20
-116.6354302008759
 30
0.0
 10
90.84045000984197
 20
-116.6290567742282
 30
0.0
 10
90.84045000984197
 20
-116.6290567742282
 30
0.0
 10
90.84045000984197
 20
-116.7982109625539
 30
0.0
 10
90.84045000984197
 20
-116.7982109625539
 30
0.0
 10
90.80668807408652
 20
-116.7940768479716
 30
0.0
 10
90.7939412207911
 20
-116.7920097906805
 30
0.0
 10
90.71573755327593
 20
-116.7920097906805
 30
0.0
  0
HATCH
  5
94
330
59
100
AcDbEntity
  8
_U+30EC_U+30A4_U+30E4_U+30FC 1
 62
   179
420
  2234388
100
AcDbHatch
 10
0.0
 20
0.0
 30
0.0
210
0.0
220
0.0
230
1.0
  2
SOLID
 70
     1
 71
     0
 91
        6
 92
        1
 93
        1
 72
     4
 94
        3
 73
     0
 74
     1
 95
       71
 96
       67
 40
0.0
 40
0.0
 40
0.0
 40
0.0
 40
1.0
 40
1.0
 40
1.0
 40
2.0
 40
2.0
 40
2.0
 40
3.0
 40
3.0
 40
3.0
 40
4.0
 40
4.0
 40
4.0
 40
5.0
 40
5.0
 40
5.0
 40
6.0
 40
6.0
 40
6.0
 40
7.0
 40
7.0
 40
7.0
 40
8.0
 40
8.0
 40
8.0
 40
9.0
 40
9.0
 40
9.0
 40
10.0
 40
10.0
 40
10.0
 40
11.0
 40
11.0
 40
11.0
 40
12.0
 40
12.0
 40
12.0
 40
13.0
 40
13.0
 40
13.0
 40
14.0
 40
14.0
 40
14.0
 40
15.0
 40
15.0
 40
15.0
 40
16.0
 40
16.0
 40
16.0
 40
17.0
 40
17.0
 40
17.0
 40
18.0
 40
18.0
 40
18.0
 40
19.0
 40
19.0
 40
19.0
 40
20.0
 40
20.0
 40
20.0
 40
21.0
 40
21.0
 40
21.0
 40
22.0
 40
22.0
 40
22.0
 40
22.0
 10
89.86548798751627
 20
-116.512784801601
 10
89.85067407692969
 20
-116.512784801601
 10
89.83792722363427
 20
-116.5084784322444
 10
89.81243351704342
 20
-116.5000379483055
 10
89.67084009259966
 20
-116.5465467373564
 10
89.49720728014306
 20
-116.5634277052341
 10
89.35768091299045
 20
-116.5677340745907
 10
89.35768091299045
 20
-116.5677340745907
 10
89.35561385569929
 20
-116.6566175381102
 10
89.35561385569929
 20
-116.6566175381102
 10
89.35561385569929
 20
-116.6566175381102
 10
89.61571856483566
 20
-116.6566175381102
 10
89.61571856483566
 20
-116.6566175381102
 10
89.6687730353085
 20
-116.6566175381102
 10
89.85067407692969
 20
-116.6481770541713
 10
89.89511580868943
 20
-116.6418036275236
 10
89.89511580868943
 20
-116.6418036275236
 10
89.89511580868943
 20
-116.8025173319105
 10
89.89511580868943
 20
-116.8025173319105
 10
89.83999428092542
 20
-116.7961439052628
 10
89.71528182435938
 20
-116.7940768479716
 10
89.6770412644731
 20
-116.7961439052628
 10
89.6770412644731
 20
-116.7961439052628
 10
89.6770412644731
 20
-116.9062147060165
 10
89.6770412644731
 20
-116.9062147060165
 10
89.6770412644731
 20
-116.9527234950674
 10
89.67910832176426
 20
-117.016113251996
 10
89.68565400318623
 20
-117.0543538118823
 10
89.68565400318623
 20
-117.0543538118823
 10
89.49307316556076
 20
-117.0543538118823
 10
89.49307316556076
 20
-117.0543538118823
 10
89.49927433743422
 20
-117.0140461947048
 10
89.50582001885618
 20
-116.9315361578331
 10
89.50582001885618
 20
-116.9167222472465
 10
89.50582001885618
 20
-116.9167222472465
 10
89.50582001885618
 20
-116.7961439052628
 10
89.50582001885618
 20
-116.7961439052628
 10
89.50582001885618
 20
-116.7961439052628
 10
89.34079994511272
 20
-116.7961439052628
 10
89.34079994511272
 20
-116.7961439052628
 10
89.29842527064415
 20
-117.016113251996
 10
89.24330374288014
 20
-117.0965562315766
 10
89.13753931148298
 20
-117.195947236326
 10
89.13753931148298
 20
-117.195947236326
 10
88.97045218044836
 20
-117.08174232099
 10
88.97045218044836
 20
-117.08174232099
 10
89.03384193737696
 20
-117.033166474648
 10
89.18404810053386
 20
-116.9210286166031
 10
89.18404810053386
 20
-116.571868189173
 10
89.18404810053386
 20
-116.4893581523013
 10
89.17577987136926
 20
-116.4428493632504
 10
89.16716713265613
 20
-116.3942735169084
 10
89.31323918123073
 20
-116.409087427495
 10
89.3280530918173
 20
-116.409087427495
 10
89.36388208486389
 20
-116.409087427495
 10
89.47205808310073
 20
-116.409087427495
 10
89.6136515075445
 20
-116.392034204843
 10
89.77453746670568
 20
-116.3307115052055
 10
89.77453746670568
 20
-116.3307115052055
 10
89.88857012726744
 20
-116.4619696431935
 10
89.88857012726744
 20
-116.4619696431935
 10
89.89511580868943
 20
-116.4683430698413
 10
89.89924992327173
 20
-116.4767835537801
 10
89.89924992327173
 20
-116.485224037719
 10
89.89924992327173
 20
-116.5084784322444
 10
89.88030189810284
 20
-116.512784801601
 10
89.86548798751627
 20
-116.512784801601
 97
        0
 97
        0
 92
        1
 93
        1
 72
     4
 94
        3
 73
     0
 74
     1
 95
       74
 96
       70
 40
0.0
 40
0.0
 40
0.0
 40
0.0
 40
1.0
 40
1.0
 40
1.0
 40
2.0
 40
2.0
 40
2.0
 40
3.0
 40
3.0
 40
3.0
 40
4.0
 40
4.0
 40
4.0
 40
5.0
 40
5.0
 40
5.0
 40
6.0
 40
6.0
 40
6.0
 40
7.0
 40
7.0
 40
7.0
 40
8.0
 40
8.0
 40
8.0
 40
9.0
 40
9.0
 40
9.0
 40
10.0
 40
10.0
 40
10.0
 40
11.0
 40
11.0
 40
11.0
 40
12.0
 40
12.0
 40
12.0
 40
13.0
 40
13.0
 40
13.0
 40
14.0
 40
14.0
 40
14.0
 40
15.0
 40
15.0
 40
15.0
 40
16.0
 40
16.0
 40
16.0
 40
17.0
 40
17.0
 40
17.0
 40
18.0
 40
18.0
 40
18.0
 40
19.0
 40
19.0
 40
19.0
 40
20.0
 40
20.0
 40
20.0
 40
21.0
 40
21.0
 40
21.0
 40
22.0
 40
22.0
 40
22.0
 40
23.0
 40
23.0
 40
23.0
 40
23.0
 10
90.7029906999805
 20
-118.2790852568886
 10
90.48939477989502
 20
-118.2685777156586
 10
90.28854571310495
 20
-118.1817613094303
 10
90.1128458433572
 20
-118.0611829674465
 10
90.1128458433572
 20
-118.0611829674465
 10
90.21034204558978
 20
-117.9745388159925
 10
90.21034204558978
 20
-117.9745388159925
 10
90.21034204558978
 20
-117.9745388159925
 10
89.65809323930424
 20
-117.9745388159925
 10
89.65809323930424
 20
-117.9745388159925
 10
89.65809323930424
 20
-117.9745388159925
 10
89.73836396411055
 20
-118.0379285729211
 10
89.73836396411055
 20
-118.0379285729211
 10
89.74490964553253
 20
-118.0422349422776
 10
89.75524493198827
 20
-118.0527424835077
 10
89.75524493198827
 20
-118.0675563940942
 10
89.75524493198827
 20
-118.1078640112716
 10
89.6811753790554
 20
-118.1014905846239
 10
89.66636146846884
 20
-118.0992512725585
 10
89.43588458050561
 20
-118.2389498944854
 10
89.2922240987707
 20
-118.2706447729497
 10
89.18852672466468
 20
-118.2875257408274
 10
89.18852672466468
 20
-118.2875257408274
 10
89.05933564396781
 20
-118.1099310685628
 10
89.05933564396781
 20
-118.1099310685628
 10
89.30703800935727
 20
-118.0782361900985
 10
89.40832381662362
 20
-118.0315551462734
 10
89.49720728014306
 20
-117.9786729305748
 10
89.42313772721019
 20
-117.9809122426402
 10
89.30910506664843
 20
-117.9829792999313
 10
89.27741018818412
 20
-117.9850463572225
 10
89.2922240987707
 20
-117.896162893703
 10
89.29429115606185
 20
-117.7671440677804
 10
89.29429115606185
 20
-117.6930745148476
 10
89.29429115606185
 20
-117.6930745148476
 10
89.29429115606185
 20
-117.3926621885338
 10
89.29429115606185
 20
-117.3926621885338
 10
89.29429115606185
 20
-117.2932711837843
 10
89.28774547463988
 20
-117.1938801790349
 10
89.27741018818412
 20
-117.0965562315766
 10
89.37869599545047
 20
-117.1029296582243
 10
89.6095173929622
 20
-117.109303084872
 10
89.71734888165052
 20
-117.109303084872
 10
89.71734888165052
 20
-117.109303084872
 10
90.14040660723921
 20
-117.109303084872
 10
90.14040660723921
 20
-117.109303084872
 10
90.2589178919318
 20
-117.109303084872
 10
90.30129256640038
 20
-117.109303084872
 10
90.38363034849785
 20
-117.1049967155154
 10
90.53176945436358
 20
-117.0986232888677
 10
90.54865042224131
 20
-117.0986232888677
 10
90.59515921129218
 20
-117.0965562315766
 10
90.58689098212758
 20
-117.1769992111571
 10
90.58241235799676
 20
-117.3356458582529
 10
90.58241235799676
 20
-117.4181558951246
 10
90.58241235799676
 20
-117.4181558951246
 10
90.58241235799676
 20
-117.7037543108518
 10
90.58241235799676
 20
-117.7037543108518
 10
90.58241235799676
 20
-117.7755845517193
 10
90.58447941528792
 20
-117.9068426897073
 10
90.59515921129218
 20
-117.9850463572225
 10
90.52315671565046
 20
-117.9809122426402
 10
90.40051131637557
 20
-117.9786729305748
 10
90.3223076488604
 20
-117.9766058732836
 10
90.43220619483986
 20
-118.0443019995688
 10
90.58447941528792
 20
-118.0951171579762
 10
90.79635278763078
 20
-118.0992512725585
 10
90.79635278763078
 20
-118.0992512725585
 10
90.7029906999805
 20
-118.2790852568886
 10
90.7029906999805
 20
-118.2790852568886
 97
        0
 97
        0
 92
        1
 93
        4
 72
     1
 10
90.39844425908441
 20
-117.2446953374423
 11
89.48652748413879
 21
-117.2446953374423
 72
     1
 10
89.48652748413879
 20
-117.2446953374423
 11
89.48652748413879
 21
-117.3568331954872
 72
     1
 10
89.48652748413879
 20
-117.3568331954872
 11
90.39844425908441
 21
-117.3568331954872
 72
     1
 10
90.39844425908441
 20
-117.3568331954872
 11
90.39844425908441
 21
-117.2446953374423
 97
        0
 92
        1
 93
        4
 72
     1
 10
90.39844425908441
 20
-117.4899861359921
 11
89.48652748413879
 21
-117.4899861359921
 72
     1
 10
89.48652748413879
 20
-117.4899861359921
 11
89.48652748413879
 21
-117.6000569367458
 72
     1
 10
89.48652748413879
 20
-117.6000569367458
 11
90.39844425908441
 21
-117.6000569367458
 72
     1
 10
90.39844425908441
 20
-117.6000569367458
 11
90.39844425908441
 21
-117.4899861359921
 97
        0
 92
        1
 93
        4
 72
     1
 10
90.39844425908441
 20
-117.7354491893161
 11
89.48652748413879
 21
-117.7354491893161
 72
     1
 10
89.48652748413879
 20
-117.7354491893161
 11
89.48652748413879
 21
-117.8432806780045
 72
     1
 10
89.48652748413879
 20
-117.8432806780045
 11
90.39844425908441
 21
-117.8432806780045
 72
     1
 10
90.39844425908441
 20
-117.8432806780045
 11
90.39844425908441
 21
-117.7354491893161
 97
        0
 92
        1
 93
        1
 72
     4
 94
        3
 73
     0
 74
     1
 95
       74
 96
       70
 40
0.0
 40
0.0
 40
0.0
 40
0.0
 40
1.0
 40
1.0
 40
1.0
 40
2.0
 40
2.0
 40
2.0
 40
3.0
 40
3.0
 40
3.0
 40
4.0
 40
4.0
 40
4.0
 40
5.0
 40
5.0
 40
5.0
 40
6.0
 40
6.0
 40
6.0
 40
7.0
 40
7.0
 40
7.0
 40
8.0
 40
8.0
 40
8.0
 40
9.0
 40
9.0
 40
9.0
 40
10.0
 40
10.0
 40
10.0
 40
11.0
 40
11.0
 40
11.0
 40
12.0
 40
12.0
 40
12.0
 40
13.0
 40
13.0
 40
13.0
 40
14.0
 40
14.0
 40
14.0
 40
15.0
 40
15.0
 40
15.0
 40
16.0
 40
16.0
 40
16.0
 40
17.0
 40
17.0
 40
17.0
 40
18.0
 40
18.0
 40
18.0
 40
19.0
 40
19.0
 40
19.0
 40
20.0
 40
20.0
 40
20.0
 40
21.0
 40
21.0
 40
21.0
 40
22.0
 40
22.0
 40
22.0
 40
23.0
 40
23.0
 40
23.0
 40
23.0
 10
90.71573755327593
 20
-116.7920097906805
 10
90.71573755327593
 20
-116.7920097906805
 10
90.55519610366329
 20
-116.7920097906805
 10
90.55519610366329
 20
-116.7920097906805
 10
90.55519610366329
 20
-116.7920097906805
 10
90.55519610366329
 20
-116.9062147060165
 10
90.55519610366329
 20
-116.9062147060165
 10
90.55519610366329
 20
-116.9463500684197
 10
90.56139727553673
 20
-117.0204196213525
 10
90.56553139011903
 20
-117.0457410731691
 10
90.56553139011903
 20
-117.0457410731691
 10
90.3540025273247
 20
-117.0457410731691
 10
90.3540025273247
 20
-117.0457410731691
 10
90.36468232332898
 20
-116.9802842589494
 10
90.36674938062012
 20
-116.9210286166031
 10
90.36674938062012
 20
-116.9189615593119
 10
90.36674938062012
 20
-116.9189615593119
 10
90.36674938062012
 20
-116.7961439052628
 10
90.36674938062012
 20
-116.7961439052628
 10
90.36674938062012
 20
-116.7961439052628
 10
90.18691539629008
 20
-116.7961439052628
 10
90.18691539629008
 20
-116.7961439052628
 10
90.16796737112121
 20
-116.8553995476091
 10
90.12145858207033
 20
-117.0012993414094
 10
90.00708141196004
 20
-117.0838093782811
 10
90.00708141196004
 20
-117.0838093782811
 10
89.85067407692969
 20
-116.978044946884
 10
89.85067407692969
 20
-116.978044946884
 10
89.92474362986256
 20
-116.9315361578331
 10
90.0408433477155
 20
-116.8574666049002
 10
90.0408433477155
 20
-116.5360391961264
 10
90.0408433477155
 20
-116.4809176683624
 10
90.0367092331332
 20
-116.4364759366027
 10
90.03464217584204
 20
-116.3984076314907
 10
90.11077878606606
 20
-116.4068481154295
 10
90.18484833899893
 20
-116.4132215420773
 10
90.24823809592753
 20
-116.4132215420773
 10
90.42600502296642
 20
-116.4132215420773
 10
90.62478703246533
 20
-116.353965899731
 10
90.68610973210278
 20
-116.3243380785578
 10
90.68610973210278
 20
-116.3243380785578
 10
90.8132337555085
 20
-116.4597303311281
 10
90.8132337555085
 20
-116.4597303311281
 10
90.8173678700908
 20
-116.4640367004847
 10
90.81943492738195
 20
-116.4724771844236
 10
90.81943492738195
 20
-116.4788506110713
 10
90.81943492738195
 20
-116.5000379483055
 10
90.80462101679538
 20
-116.5064113749533
 10
90.78774004891766
 20
-116.5064113749533
 10
90.76672496645763
 20
-116.5064113749533
 10
90.75191105587105
 20
-116.4979708910144
 10
90.73261852115365
 20
-116.4872910950101
 10
90.55933021824559
 20
-116.5444796800653
 10
90.34125567402927
 20
-116.5698011318819
 10
90.2079304787501
 20
-116.571868189173
 10
90.2079304787501
 20
-116.571868189173
 10
90.2037963641678
 20
-116.6543782260447
 10
90.2037963641678
 20
-116.6543782260447
 10
90.2037963641678
 20
-116.6543782260447
 10
90.4766479265996
 20
-116.6543782260447
 10
90.4766479265996
 20
-116.6543782260447
 10
90.53383651165474
 20
-116.6543782260447
 10
90.79635278763078
 20
-116.6354302008759
 10
90.84045000984197
 20
-116.6290567742282
 10
90.84045000984197
 20
-116.6290567742282
 10
90.84045000984197
 20
-116.7982109625539
 10
90.84045000984197
 20
-116.7982109625539
 10
90.80668807408652
 20
-116.7940768479716
 10
90.7939412207911
 20
-116.7920097906805
 10
90.71573755327593
 20
-116.7920097906805
 97
        0
 97
        0
 75
     2
 76
     1
 98
        0
  0
SPLINE
  5
95
330
59
100
AcDbEntity
  8
_U+30EC_U+30A4_U+30E4_U+30FC 1
370
     0
100
AcDbSpline
210
0.0
220
0.0
230
1.0
 70
    11
 71
     3
 72
    53
 73
    49
 74
     0
 42
0.0000000001
 43
0.0000000001
 12
1.0
 22
0.0
 32
0.0
 13
1.0
 23
0.0
 33
0.0
 40
0.0
 40
0.0
 40
0.0
 40
0.0
 40
1.0
 40
1.0
 40
1.0
 40
2.0
 40
2.0
 40
2.0
 40
3.0
 40
3.0
 40
3.0
 40
4.0
 40
4.0
 40
4.0
 40
5.0
 40
5.0
 40
5.0
 40
6.0
 40
6.0
 40
6.0
 40
7.0
 40
7.0
 40
7.0
 40
8.0
 40
8.0
 40
8.0
 40
9.0
 40
9.0
 40
9.0
 40
10.0
 40
10.0
 40
10.0
 40
11.0
 40
11.0
 40
11.0
 40
12.0
 40
12.0
 40
12.0
 40
13.0
 40
13.0
 40
13.0
 40
14.0
 40
14.0
 40
14.0
 40
15.0
 40
15.0
 40
15.0
 40
16.0
 40
16.0
 40
16.0
 40
16.0
 10
92.1693955932771
 20
-118.1543728003225
 30
0.0
 10
91.97922632249131
 20
-118.1543728003225
 30
0.0
 10
91.91997068014501
 20
-118.0294880889822
 30
0.0
 10
91.91997068014501
 20
-117.8813489831165
 30
0.0
 10
91.91997068014501
 20
-117.8813489831165
 30
0.0
 10
91.91997068014501
 20
-117.1875067523872
 30
0.0
 10
91.91997068014501
 20
-117.1875067523872
 30
0.0
 10
91.91997068014501
 20
-117.1875067523872
 30
0.0
 10
91.73806963852383
 20
-117.1875067523872
 30
0.0
 10
91.73806963852383
 20
-117.1875067523872
 30
0.0
 10
91.73806963852383
 20
-117.1875067523872
 30
0.0
 10
91.73806963852383
 20
-116.995098169536
 30
0.0
 10
91.73806963852383
 20
-116.995098169536
 30
0.0
 10
91.73806963852383
 20
-116.995098169536
 30
0.0
 10
91.91997068014501
 20
-116.995098169536
 30
0.0
 10
91.91997068014501
 20
-116.995098169536
 30
0.0
 10
91.91997068014501
 20
-116.995098169536
 30
0.0
 10
91.91997068014501
 20
-116.6798719326356
 30
0.0
 10
91.91997068014501
 20
-116.6798719326356
 30
0.0
 10
91.91997068014501
 20
-116.6798719326356
 30
0.0
 10
92.1377007148128
 20
-116.6798719326356
 30
0.0
 10
92.1377007148128
 20
-116.6798719326356
 30
0.0
 10
92.1377007148128
 20
-116.6798719326356
 30
0.0
 10
92.1377007148128
 20
-116.995098169536
 30
0.0
 10
92.1377007148128
 20
-116.995098169536
 30
0.0
 10
92.1377007148128
 20
-116.995098169536
 30
0.0
 10
92.3278699855986
 20
-116.995098169536
 30
0.0
 10
92.3278699855986
 20
-116.995098169536
 30
0.0
 10
92.3278699855986
 20
-116.995098169536
 30
0.0
 10
92.3278699855986
 20
-117.1875067523872
 30
0.0
 10
92.3278699855986
 20
-117.1875067523872
 30
0.0
 10
92.3278699855986
 20
-117.1875067523872
 30
0.0
 10
92.1377007148128
 20
-117.1875067523872
 30
0.0
 10
92.1377007148128
 20
-117.1875067523872
 30
0.0
 10
92.1377007148128
 20
-117.1875067523872
 30
0.0
 10
92.1377007148128
 20
-117.8560275312999
 30
0.0
 10
92.1377007148128
 20
-117.8560275312999
 30
0.0
 10
92.1377007148128
 20
-117.9406046254628
 30
0.0
 10
92.19075518528565
 20
-117.9638590199882
 30
0.0
 10
92.26241317137884
 20
-117.9638590199882
 30
0.0
 10
92.2727484578346
 20
-117.9638590199882
 30
0.0
 10
92.29617510713429
 20
-117.9638590199882
 30
0.0
 10
92.3278699855986
 20
-117.9597249054059
 30
0.0
 10
92.3278699855986
 20
-117.9597249054059
 30
0.0
 10
92.3278699855986
 20
-118.1311184057971
 30
0.0
 10
92.3278699855986
 20
-118.1311184057971
 30
0.0
 10
92.29410804984315
 20
-118.1436930043183
 30
0.0
 10
92.2203830064588
 20
-118.1543728003225
 30
0.0
 10
92.1693955932771
 20
-118.1543728003225
 30
0.0
  0
HATCH
  5
96
330
59
100
AcDbEntity
  8
_U+30EC_U+30A4_U+30E4_U+30FC 1
 62
   179
420
  2234388
100
AcDbHatch
 10
0.0
 20
0.0
 30
0.0
210
0.0
220
0.0
230
1.0
  2
SOLID
 70
     1
 71
     0
 91
        1
 92
        1
 93
        1
 72
     4
 94
        3
 73
     0
 74
     1
 95
       53
 96
       49
 40
0.0
 40
0.0
 40
0.0
 40
0.0
 40
1.0
 40
1.0
 40
1.0
 40
2.0
 40
2.0
 40
2.0
 40
3.0
 40
3.0
 40
3.0
 40
4.0
 40
4.0
 40
4.0
 40
5.0
 40
5.0
 40
5.0
 40
6.0
 40
6.0
 40
6.0
 40
7.0
 40
7.0
 40
7.0
 40
8.0
 40
8.0
 40
8.0
 40
9.0
 40
9.0
 40
9.0
 40
10.0
 40
10.0
 40
10.0
 40
11.0
 40
11.0
 40
11.0
 40
12.0
 40
12.0
 40
12.0
 40
13.0
 40
13.0
 40
13.0
 40
14.0
 40
14.0
 40
14.0
 40
15.0
 40
15.0
 40
15.0
 40
16.0
 40
16.0
 40
16.0
 40
16.0
 10
92.1693955932771
 20
-118.1543728003225
 10
91.97922632249131
 20
-118.1543728003225
 10
91.91997068014501
 20
-118.0294880889822
 10
91.91997068014501
 20
-117.8813489831165
 10
91.91997068014501
 20
-117.8813489831165
 10
91.91997068014501
 20
-117.1875067523872
 10
91.91997068014501
 20
-117.1875067523872
 10
91.91997068014501
 20
-117.1875067523872
 10
91.73806963852383
 20
-117.1875067523872
 10
91.73806963852383
 20
-117.1875067523872
 10
91.73806963852383
 20
-117.1875067523872
 10
91.73806963852383
 20
-116.995098169536
 10
91.73806963852383
 20
-116.995098169536
 10
91.73806963852383
 20
-116.995098169536
 10
91.91997068014501
 20
-116.995098169536
 10
91.91997068014501
 20
-116.995098169536
 10
91.91997068014501
 20
-116.995098169536
 10
91.91997068014501
 20
-116.6798719326356
 10
91.91997068014501
 20
-116.6798719326356
 10
91.91997068014501
 20
-116.6798719326356
 10
92.1377007148128
 20
-116.6798719326356
 10
92.1377007148128
 20
-116.6798719326356
 10
92.1377007148128
 20
-116.6798719326356
 10
92.1377007148128
 20
-116.995098169536
 10
92.1377007148128
 20
-116.995098169536
 10
92.1377007148128
 20
-116.995098169536
 10
92.3278699855986
 20
-116.995098169536
 10
92.3278699855986
 20
-116.995098169536
 10
92.3278699855986
 20
-116.995098169536
 10
92.3278699855986
 20
-117.1875067523872
 10
92.3278699855986
 20
-117.1875067523872
 10
92.3278699855986
 20
-117.1875067523872
 10
92.1377007148128
 20
-117.1875067523872
 10
92.1377007148128
 20
-117.1875067523872
 10
92.1377007148128
 20
-117.1875067523872
 10
92.1377007148128
 20
-117.8560275312999
 10
92.1377007148128
 20
-117.8560275312999
 10
92.1377007148128
 20
-117.9406046254628
 10
92.19075518528565
 20
-117.9638590199882
 10
92.26241317137884
 20
-117.9638590199882
 10
92.2727484578346
 20
-117.9638590199882
 10
92.29617510713429
 20
-117.9638590199882
 10
92.3278699855986
 20
-117.9597249054059
 10
92.3278699855986
 20
-117.9597249054059
 10
92.3278699855986
 20
-118.1311184057971
 10
92.3278699855986
 20
-118.1311184057971
 10
92.29410804984315
 20
-118.1436930043183
 10
92.2203830064588
 20
-118.1543728003225
 10
92.1693955932771
 20
-118.1543728003225
 97
        0
 97
        0
 75
     2
 76
     1
 98
        0
  0
POLYLINE
  5
97
330
59
100
AcDbEntity
  8
_U+30EC_U+30A4_U+30E4_U+30FC 1
370
     0
100
AcDb2dPolyline
 66
     1
 10
0.0
 20
0.0
 30
0.0
  0
VERTEX
  5
98
330
97
100
AcDbEntity
  8
_U+30EC_U+30A4_U+30E4_U+30FC 1
370
     0
100
AcDbVertex
100
AcDb2dVertex
 10
92.54077688658703
 20
-117.2171345735603
 30
0.0
  0
VERTEX
  5
99
330
97
100
AcDbEntity
  8
_U+30EC_U+30A4_U+30E4_U+30FC 1
370
     0
100
AcDbVertex
100
AcDb2dVertex
 10
92.54077688658703
 20
-117.0119791374137
 30
0.0
  0
VERTEX
  5
9A
330
97
100
AcDbEntity
  8
_U+30EC_U+30A4_U+30E4_U+30FC 1
370
     0
100
AcDbVertex
100
AcDb2dVertex
 10
93.71899954254248
 20
-117.0119791374137
 30
0.0
  0
VERTEX
  5
9B
330
97
100
AcDbEntity
  8
_U+30EC_U+30A4_U+30E4_U+30FC 1
370
     0
100
AcDbVertex
100
AcDb2dVertex
 10
93.71899954254248
 20
-117.2171345735603
 30
0.0
  0
VERTEX
  5
9C
330
97
100
AcDbEntity
  8
_U+30EC_U+30A4_U+30E4_U+30FC 1
370
     0
100
AcDbVertex
100
AcDb2dVertex
 10
92.54077688658703
 20
-117.2171345735603
 30
0.0
  0
SEQEND
  5
9D
330
97
100
AcDbEntity
  8
_U+30EC_U+30A4_U+30E4_U+30FC 1
370
     0
  0
POLYLINE
  5
9E
330
59
100
AcDbEntity
  8
_U+30EC_U+30A4_U+30E4_U+30FC 1
370
     0
100
AcDb2dPolyline
 66
     1
 10
0.0
 20
0.0
 30
0.0
  0
VERTEX
  5
9F
330
9E
100
AcDbEntity
  8
_U+30EC_U+30A4_U+30E4_U+30FC 1
370
     0
100
AcDbVertex
100
AcDb2dVertex
 10
92.54077688658703
 20
-117.6508720951533
 30
0.0
  0
VERTEX
  5
A0
330
9E
100
AcDbEntity
  8
_U+30EC_U+30A4_U+30E4_U+30FC 1
370
     0
100
AcDbVertex
100
AcDb2dVertex
 10
92.54077688658703
 20
-117.4457166590066
 30
0.0
  0
VERTEX
  5
A1
330
9E
100
AcDbEntity
  8
_U+30EC_U+30A4_U+30E4_U+30FC 1
370
     0
100
AcDbVertex
100
AcDb2dVertex
 10
93.71899954254248
 20
-117.4457166590066
 30
0.0
  0
VERTEX
  5
A2
330
9E
100
AcDbEntity
  8
_U+30EC_U+30A4_U+30E4_U+30FC 1
370
     0
100
AcDbVertex
100
AcDb2dVertex
 10
93.71899954254248
 20
-117.6508720951533
 30
0.0
  0
VERTEX
  5
A3
330
9E
100
AcDbEntity
  8
_U+30EC_U+30A4_U+30E4_U+30FC 1
370
     0
100
AcDbVertex
100
AcDb2dVertex
 10
92.54077688658703
 20
-117.6508720951533
 30
0.0
  0
SEQEND
  5
A4
330
9E
100
AcDbEntity
  8
_U+30EC_U+30A4_U+30E4_U+30FC 1
370
     0
  0
HATCH
  5
A5
330
59
100
AcDbEntity
  8
_U+30EC_U+30A4_U+30E4_U+30FC 1
 62
   179
420
  2234388
100
AcDbHatch
 10
0.0
 20
0.0
 30
0.0
210
0.0
220
0.0
230
1.0
  2
SOLID
 70
     1
 71
     0
 91
        2
 92
        1
 93
        4
 72
     1
 10
92.54077688658703
 20
-117.2171345735603
 11
92.54077688658703
 21
-117.0119791374137
 72
     1
 10
92.54077688658703
 20
-117.0119791374137
 11
93.71899954254248
 21
-117.0119791374137
 72
     1
 10
93.71899954254248
 20
-117.0119791374137
 11
93.71899954254248
 21
-117.2171345735603
 72
     1
 10
93.71899954254248
 20
-117.2171345735603
 11
92.54077688658703
 21
-117.2171345735603
 97
        0
 92
        1
 93
        4
 72
     1
 10
92.54077688658703
 20
-117.6508720951533
 11
92.54077688658703
 21
-117.4457166590066
 72
     1
 10
92.54077688658703
 20
-117.4457166590066
 11
93.71899954254248
 21
-117.4457166590066
 72
     1
 10
93.71899954254248
 20
-117.4457166590066
 11
93.71899954254248
 21
-117.6508720951533
 72
     1
 10
93.71899954254248
 20
-117.6508720951533
 11
92.54077688658703
 21
-117.6508720951533
 97
        0
 75
     2
 76
     1
 98
        0
  0
SPLINE
  5
A6
330
59
100
AcDbEntity
  8
_U+30EC_U+30A4_U+30E4_U+30FC 1
370
     0
100
AcDbSpline
210
0.0
220
0.0
230
1.0
 70
    11
 71
     3
 72
    26
 73
    22
 74
     0
 42
0.0000000001
 43
0.0000000001
 12
1.0
 22
0.0
 32
0.0
 13
1.0
 23
0.0
 33
0.0
 40
0.0
 40
0.0
 40
0.0
 40
0.0
 40
1.0
 40
1.0
 40
1.0
 40
2.0
 40
2.0
 40
2.0
 40
3.0
 40
3.0
 40
3.0
 40
4.0
 40
4.0
 40
4.0
 40
5.0
 40
5.0
 40
5.0
 40
6.0
 40
6.0
 40
6.0
 40
7.0
 40
7.0
 40
7.0
 40
7.0
 10
94.35565318821665
 20
-118.1035576419151
 30
0.0
 10
94.35565318821665
 20
-118.1035576419151
 30
0.0
 10
94.35565318821665
 20
-116.9992322841182
 30
0.0
 10
94.35565318821665
 20
-116.9992322841182
 30
0.0
 10
94.35565318821665
 20
-116.9992322841182
 30
0.0
 10
94.02561304072971
 20
-116.9992322841182
 30
0.0
 10
94.02561304072971
 20
-116.9992322841182
 30
0.0
 10
94.02561304072971
 20
-116.9992322841182
 30
0.0
 10
94.02561304072971
 20
-116.8510931782525
 30
0.0
 10
94.02561304072971
 20
-116.8510931782525
 30
0.0
 10
94.35772024550779
 20
-116.8364515224402
 30
0.0
 10
94.4045735441072
 20
-116.6734985059879
 30
0.0
 10
94.43420136528034
 20
-116.5592935906518
 30
0.0
 10
94.43420136528034
 20
-116.5592935906518
 30
0.0
 10
94.58027341385494
 20
-116.5592935906518
 30
0.0
 10
94.58027341385494
 20
-116.5592935906518
 30
0.0
 10
94.58027341385494
 20
-116.5592935906518
 30
0.0
 10
94.58027341385494
 20
-118.1035576419151
 30
0.0
 10
94.58027341385494
 20
-118.1035576419151
 30
0.0
 10
94.58027341385494
 20
-118.1035576419151
 30
0.0
 10
94.35565318821665
 20
-118.1035576419151
 30
0.0
 10
94.35565318821665
 20
-118.1035576419151
 30
0.0
  0
HATCH
  5
A7
330
59
100
AcDbEntity
  8
_U+30EC_U+30A4_U+30E4_U+30FC 1
 62
   179
420
  2234388
100
AcDbHatch
 10
0.0
 20
0.0
 30
0.0
210
0.0
220
0.0
230
1.0
  2
SOLID
 70
     1
 71
     0
 91
        1
 92
        1
 93
        1
 72
     4
 94
        3
 73
     0
 74
     1
 95
       26
 96
       22
 40
0.0
 40
0.0
 40
0.0
 40
0.0
 40
1.0
 40
1.0
 40
1.0
 40
2.0
 40
2.0
 40
2.0
 40
3.0
 40
3.0
 40
3.0
 40
4.0
 40
4.0
 40
4.0
 40
5.0
 40
5.0
 40
5.0
 40
6.0
 40
6.0
 40
6.0
 40
7.0
 40
7.0
 40
7.0
 40
7.0
 10
94.35565318821665
 20
-118.1035576419151
 10
94.35565318821665
 20
-118.1035576419151
 10
94.35565318821665
 20
-116.9992322841182
 10
94.35565318821665
 20
-116.9992322841182
 10
94.35565318821665
 20
-116.9992322841182
 10
94.02561304072971
 20
-116.9992322841182
 10
94.02561304072971
 20
-116.9992322841182
 10
94.02561304072971
 20
-116.9992322841182
 10
94.02561304072971
 20
-116.8510931782525
 10
94.02561304072971
 20
-116.8510931782525
 10
94.35772024550779
 20
-116.8364515224402
 10
94.4045735441072
 20
-116.6734985059879
 10
94.43420136528034
 20
-116.5592935906518
 10
94.43420136528034
 20
-116.5592935906518
 10
94.58027341385494
 20
-116.5592935906518
 10
94.58027341385494
 20
-116.5592935906518
 10
94.58027341385494
 20
-116.5592935906518
 10
94.58027341385494
 20
-118.1035576419151
 10
94.58027341385494
 20
-118.1035576419151
 10
94.58027341385494
 20
-118.1035576419151
 10
94.35565318821665
 20
-118.1035576419151
 10
94.35565318821665
 20
-118.1035576419151
 97
        0
 97
        0
 75
     2
 76
     1
 98
        0
  0
POLYLINE
  5
A8
330
59
100
AcDbEntity
  8
_U+30EC_U+30A4_U+30E4_U+30FC 1
370
     0
100
AcDb2dPolyline
 66
     1
 10
0.0
 20
0.0
 30
0.0
  0
VERTEX
  5
A9
330
A8
100
AcDbEntity
  8
_U+30EC_U+30A4_U+30E4_U+30FC 1
370
     0
100
AcDbVertex
100
AcDb2dVertex
 10
95.02262367416101
 20
-118.1035576419151
 30
0.0
  0
VERTEX
  5
AA
330
A8
100
AcDbEntity
  8
_U+30EC_U+30A4_U+30E4_U+30FC 1
370
     0
100
AcDbVertex
100
AcDb2dVertex
 10
95.02262367416101
 20
-117.8518934167176
 30
0.0
  0
VERTEX
  5
AB
330
A8
100
AcDbEntity
  8
_U+30EC_U+30A4_U+30E4_U+30FC 1
370
     0
100
AcDbVertex
100
AcDb2dVertex
 10
95.27480466368131
 20
-117.8518934167176
 30
0.0
  0
VERTEX
  5
AC
330
A8
100
AcDbEntity
  8
_U+30EC_U+30A4_U+30E4_U+30FC 1
370
     0
100
AcDbVertex
100
AcDb2dVertex
 10
95.27480466368131
 20
-118.1035576419151
 30
0.0
  0
VERTEX
  5
AD
330
A8
100
AcDbEntity
  8
_U+30EC_U+30A4_U+30E4_U+30FC 1
370
     0
100
AcDbVertex
100
AcDb2dVertex
 10
95.02262367416101
 20
-118.1035576419151
 30
0.0
  0
SEQEND
  5
AE
330
A8
100
AcDbEntity
  8
_U+30EC_U+30A4_U+30E4_U+30FC 1
370
     0
  0
HATCH
  5
AF
330
59
100
AcDbEntity
  8
_U+30EC_U+30A4_U+30E4_U+30FC 1
 62
   179
420
  2234388
100
AcDbHatch
 10
0.0
 20
0.0
 30
0.0
210
0.0
220
0.0
230
1.0
  2
SOLID
 70
     1
 71
     0
 91
        1
 92
        1
 93
        4
 72
     1
 10
95.02262367416101
 20
-118.1035576419151
 11
95.02262367416101
 21
-117.8518934167176
 72
     1
 10
95.02262367416101
 20
-117.8518934167176
 11
95.27480466368131
 21
-117.8518934167176
 72
     1
 10
95.27480466368131
 20
-117.8518934167176
 11
95.27480466368131
 21
-118.1035576419151
 72
     1
 10
95.27480466368131
 20
-118.1035576419151
 11
95.02262367416101
 21
-118.1035576419151
 97
        0
 75
     2
 76
     1
 98
        0
  0
SPLINE
  5
B0
330
59
100
AcDbEntity
  8
_U+30EC_U+30A4_U+30E4_U+30FC 1
370
     0
100
AcDbSpline
210
0.0
220
0.0
230
1.0
 70
    11
 71
     3
 72
    29
 73
    25
 74
     0
 42
0.0000000001
 43
0.0000000001
 12
1.0
 22
0.0
 32
0.0
 13
1.0
 23
0.0
 33
0.0
 40
0.0
 40
0.0
 40
0.0
 40
0.0
 40
1.0
 40
1.0
 40
1.0
 40
2.0
 40
2.0
 40
2.0
 40
3.0
 40
3.0
 40
3.0
 40
4.0
 40
4.0
 40
4.0
 40
5.0
 40
5.0
 40
5.0
 40
6.0
 40
6.0
 40
6.0
 40
7.0
 40
7.0
 40
7.0
 40
8.0
 40
8.0
 40
8.0
 40
8.0
 10
96.56602645155294
 20
-117.9257907148762
 30
0.0
 10
96.4578504533161
 20
-118.1352525203794
 30
0.0
 10
96.28490665995656
 20
-118.1543728003225
 30
0.0
 10
96.16846243255512
 20
-118.1543728003225
 30
0.0
 10
96.00723196384541
 20
-118.1543728003225
 30
0.0
 10
95.86598304895017
 20
-118.1078640112716
 30
0.0
 10
95.77089841355728
 20
-117.9257907148762
 30
0.0
 10
95.66685652990273
 20
-117.7313150747338
 30
0.0
 10
95.64756399518534
 20
-117.4942925053487
 30
0.0
 10
95.64756399518534
 20
-117.3313394888963
 30
0.0
 10
95.64756399518534
 20
-117.1875067523872
 30
0.0
 10
95.66478947261159
 20
-116.9358425271896
 30
0.0
 10
95.77089841355728
 20
-116.7368882629165
 30
0.0
 10
95.87838539269707
 20
-116.533799884061
 30
0.0
 10
96.03961586140677
 20
-116.5105454895356
 30
0.0
 10
96.16846243255512
 20
-116.5105454895356
 30
0.0
 10
96.3269368248766
 20
-116.5105454895356
 30
0.0
 10
96.47094181616005
 20
-116.5549872212953
 30
0.0
 10
96.56602645155294
 20
-116.7368882629165
 30
0.0
 10
96.66524520152814
 20
-116.9294691005419
 30
0.0
 10
96.68867185082783
 20
-117.157878931214
 30
0.0
 10
96.68867185082783
 20
-117.3313394888963
 30
0.0
 10
96.68867185082783
 20
-117.5027329892875
 30
0.0
 10
96.6673122588193
 20
-117.733382132025
 30
0.0
 10
96.56602645155294
 20
-117.9257907148762
 30
0.0
  0
SPLINE
  5
B1
330
59
100
AcDbEntity
  8
_U+30EC_U+30A4_U+30E4_U+30FC 1
370
     0
100
AcDbSpline
210
0.0
220
0.0
230
1.0
 70
    11
 71
     3
 72
    17
 73
    13
 74
     0
 42
0.0000000001
 43
0.0000000001
 12
1.0
 22
0.0
 32
0.0
 13
1.0
 23
0.0
 33
0.0
 40
0.0
 40
0.0
 40
0.0
 40
0.0
 40
1.0
 40
1.0
 40
1.0
 40
2.0
 40
2.0
 40
2.0
 40
3.0
 40
3.0
 40
3.0
 40
4.0
 40
4.0
 40
4.0
 40
4.0
 10
96.16846243255512
 20
-116.703126327161
 30
0.0
 10
95.91834850032598
 20
-116.703126327161
 30
0.0
 10
95.87218422082363
 20
-116.9864854308228
 30
0.0
 10
95.87218422082363
 20
-117.3313394888963
 30
0.0
 10
95.87218422082363
 20
-117.6508720951533
 30
0.0
 10
95.90801321387022
 20
-117.9597249054059
 30
0.0
 10
96.16846243255512
 20
-117.9597249054059
 30
0.0
 10
96.41582028839605
 20
-117.9597249054059
 30
0.0
 10
96.4647406442866
 20
-117.678260604261
 30
0.0
 10
96.4647406442866
 20
-117.3313394888963
 30
0.0
 10
96.4647406442866
 20
-117.0119791374137
 30
0.0
 10
96.4261555748518
 20
-116.703126327161
 30
0.0
 10
96.16846243255512
 20
-116.703126327161
 30
0.0
  0
HATCH
  5
B2
330
59
100
AcDbEntity
  8
_U+30EC_U+30A4_U+30E4_U+30FC 1
 62
   179
420
  2234388
100
AcDbHatch
 10
0.0
 20
0.0
 30
0.0
210
0.0
220
0.0
230
1.0
  2
SOLID
 70
     1
 71
     0
 91
        2
 92
        1
 93
        1
 72
     4
 94
        3
 73
     0
 74
     1
 95
       29
 96
       25
 40
0.0
 40
0.0
 40
0.0
 40
0.0
 40
1.0
 40
1.0
 40
1.0
 40
2.0
 40
2.0
 40
2.0
 40
3.0
 40
3.0
 40
3.0
 40
4.0
 40
4.0
 40
4.0
 40
5.0
 40
5.0
 40
5.0
 40
6.0
 40
6.0
 40
6.0
 40
7.0
 40
7.0
 40
7.0
 40
8.0
 40
8.0
 40
8.0
 40
8.0
 10
96.56602645155294
 20
-117.9257907148762
 10
96.4578504533161
 20
-118.1352525203794
 10
96.28490665995656
 20
-118.1543728003225
 10
96.16846243255512
 20
-118.1543728003225
 10
96.00723196384541
 20
-118.1543728003225
 10
95.86598304895017
 20
-118.1078640112716
 10
95.77089841355728
 20
-117.9257907148762
 10
95.66685652990273
 20
-117.7313150747338
 10
95.64756399518534
 20
-117.4942925053487
 10
95.64756399518534
 20
-117.3313394888963
 10
95.64756399518534
 20
-117.1875067523872
 10
95.66478947261159
 20
-116.9358425271896
 10
95.77089841355728
 20
-116.7368882629165
 10
95.87838539269707
 20
-116.533799884061
 10
96.03961586140677
 20
-116.5105454895356
 10
96.16846243255512
 20
-116.5105454895356
 10
96.3269368248766
 20
-116.5105454895356
 10
96.47094181616005
 20
-116.5549872212953
 10
96.56602645155294
 20
-116.7368882629165
 10
96.66524520152814
 20
-116.9294691005419
 10
96.68867185082783
 20
-117.157878931214
 10
96.68867185082783
 20
-117.3313394888963
 10
96.68867185082783
 20
-117.5027329892875
 10
96.6673122588193
 20
-117.733382132025
 10
96.56602645155294
 20
-117.9257907148762
 97
        0
 97
        0
 92
        1
 93
        1
 72
     4
 94
        3
 73
     0
 74
     1
 95
       17
 96
       13
 40
0.0
 40
0.0
 40
0.0
 40
0.0
 40
1.0
 40
1.0
 40
1.0
 40
2.0
 40
2.0
 40
2.0
 40
3.0
 40
3.0
 40
3.0
 40
4.0
 40
4.0
 40
4.0
 40
4.0
 10
96.16846243255512
 20
-116.703126327161
 10
95.91834850032598
 20
-116.703126327161
 10
95.87218422082363
 20
-116.9864854308228
 10
95.87218422082363
 20
-117.3313394888963
 10
95.87218422082363
 20
-117.6508720951533
 10
95.90801321387022
 20
-117.9597249054059
 10
96.16846243255512
 20
-117.9597249054059
 10
96.41582028839605
 20
-117.9597249054059
 10
96.4647406442866
 20
-117.678260604261
 10
96.4647406442866
 20
-117.3313394888963
 10
96.4647406442866
 20
-117.0119791374137
 10
96.4261555748518
 20
-116.703126327161
 10
96.16846243255512
 20
-116.703126327161
 97
        0
 97
        0
 75
     2
 76
     1
 98
        0
  0
ENDBLK
  5
5C
330
59
100
AcDbEntity
  8
0
100
AcDbBlockEnd
  0
BLOCK
  5
B5
330
B3
100
AcDbEntity
  8
0
100
AcDbBlockBegin
  2
block 4
 70
     0
 10
0.0
 20
0.0
 30
0.0
  3
block 4
  1

  0
SPLINE
  5
B7
330
B3
100
AcDbEntity
  8
_U+30EC_U+30A4_U+30E4_U+30FC 1
370
     0
100
AcDbSpline
210
0.0
220
0.0
230
1.0
 70
    11
 71
     3
 72
    44
 73
    40
 74
     0
 42
0.0000000001
 43
0.0000000001
 12
1.0
 22
0.0
 32
0.0
 13
1.0
 23
0.0
 33
0.0
 40
0.0
 40
0.0
 40
0.0
 40
0.0
 40
1.0
 40
1.0
 40
1.0
 40
2.0
 40
2.0
 40
2.0
 40
3.0
 40
3.0
 40
3.0
 40
4.0
 40
4.0
 40
4.0
 40
5.0
 40
5.0
 40
5.0
 40
6.0
 40
6.0
 40
6.0
 40
7.0
 40
7.0
 40
7.0
 40
8.0
 40
8.0
 40
8.0
 40
9.0
 40
9.0
 40
9.0
 40
10.0
 40
10.0
 40
10.0
 40
11.0
 40
11.0
 40
11.0
 40
12.0
 40
12.0
 40
12.0
 40
13.0
 40
13.0
 40
13.0
 40
13.0
 10
104.6323730207169
 20
-124.9456895303955
 30
0.0
 10
104.3767469357114
 20
-125.0306111341069
 30
0.0
 10
104.2658148610863
 20
-125.0729858085755
 30
0.0
 10
104.1755533593728
 20
-125.1951144435276
 30
0.0
 10
104.1755533593728
 20
-125.1951144435276
 30
0.0
 10
104.9176269268956
 20
-125.4317925033643
 30
0.0
 10
104.9176269268956
 20
-125.4317925033643
 30
0.0
 10
104.9176269268956
 20
-125.4317925033643
 30
0.0
 10
104.854926189064
 20
-125.6271294173779
 30
0.0
 10
104.854926189064
 20
-125.6271294173779
 30
0.0
 10
104.854926189064
 20
-125.6271294173779
 30
0.0
 10
103.875830052156
 20
-125.3146592568658
 30
0.0
 10
103.875830052156
 20
-125.3146592568658
 30
0.0
 10
104.0150119097601
 20
-124.9835855807333
 30
0.0
 10
104.1011392968914
 20
-124.9291530720663
 30
0.0
 10
104.5586479773326
 20
-124.7620659410317
 30
0.0
 10
104.8625053991316
 20
-124.6504448473096
 30
0.0
 10
104.9458767098747
 20
-124.6058308607756
 30
0.0
 10
104.9872178556977
 20
-124.4749172323361
 30
0.0
 10
105.0237358678413
 20
-124.3619181004199
 30
0.0
 10
104.9947970657652
 20
-124.2151570327483
 30
0.0
 10
104.8073838713676
 20
-124.1553846260792
 30
0.0
 10
104.5593369964296
 20
-124.0761474299185
 30
0.0
 10
104.481477838463
 20
-124.2933607002635
 30
0.0
 10
104.4415147308341
 20
-124.4029147366944
 30
0.0
 10
104.4415147308341
 20
-124.4029147366944
 30
0.0
 10
104.2279188107486
 20
-124.3348741008607
 30
0.0
 10
104.2279188107486
 20
-124.3348741008607
 30
0.0
 10
104.274772109348
 20
-124.2163628161681
 30
0.0
 10
104.3188693315592
 20
-124.1130099516106
 30
0.0
 10
104.4318684634754
 20
-124.0242987428655
 30
0.0
 10
104.5855197221175
 20
-123.904581674753
 30
0.0
 10
104.7736219356122
 20
-123.9290418526983
 30
0.0
 10
104.8838649911401
 20
-123.9643540814221
 30
0.0
 10
105.1477593053103
 20
-124.0485866660365
 30
0.0
 10
105.2896972393026
 20
-124.2869872736158
 30
0.0
 10
105.2063259285595
 20
-124.5469197279779
 30
0.0
 10
105.1374240188545
 20
-124.7644775078714
 30
0.0
 10
104.9961751039593
 20
-124.8240776597662
 30
0.0
 10
104.6323730207169
 20
-124.9456895303955
 30
0.0
  0
HATCH
  5
B8
330
B3
100
AcDbEntity
  8
_U+30EC_U+30A4_U+30E4_U+30FC 1
 62
   179
420
  2234388
100
AcDbHatch
 10
0.0
 20
0.0
 30
0.0
210
0.0
220
0.0
230
1.0
  2
SOLID
 70
     1
 71
     0
 91
        1
 92
        1
 93
        1
 72
     4
 94
        3
 73
     0
 74
     1
 95
       44
 96
       40
 40
0.0
 40
0.0
 40
0.0
 40
0.0
 40
1.0
 40
1.0
 40
1.0
 40
2.0
 40
2.0
 40
2.0
 40
3.0
 40
3.0
 40
3.0
 40
4.0
 40
4.0
 40
4.0
 40
5.0
 40
5.0
 40
5.0
 40
6.0
 40
6.0
 40
6.0
 40
7.0
 40
7.0
 40
7.0
 40
8.0
 40
8.0
 40
8.0
 40
9.0
 40
9.0
 40
9.0
 40
10.0
 40
10.0
 40
10.0
 40
11.0
 40
11.0
 40
11.0
 40
12.0
 40
12.0
 40
12.0
 40
13.0
 40
13.0
 40
13.0
 40
13.0
 10
104.6323730207169
 20
-124.9456895303955
 10
104.3767469357114
 20
-125.0306111341069
 10
104.2658148610863
 20
-125.0729858085755
 10
104.1755533593728
 20
-125.1951144435276
 10
104.1755533593728
 20
-125.1951144435276
 10
104.9176269268956
 20
-125.4317925033643
 10
104.9176269268956
 20
-125.4317925033643
 10
104.9176269268956
 20
-125.4317925033643
 10
104.854926189064
 20
-125.6271294173779
 10
104.854926189064
 20
-125.6271294173779
 10
104.854926189064
 20
-125.6271294173779
 10
103.875830052156
 20
-125.3146592568658
 10
103.875830052156
 20
-125.3146592568658
 10
104.0150119097601
 20
-124.9835855807333
 10
104.1011392968914
 20
-124.9291530720663
 10
104.5586479773326
 20
-124.7620659410317
 10
104.8625053991316
 20
-124.6504448473096
 10
104.9458767098747
 20
-124.6058308607756
 10
104.9872178556977
 20
-124.4749172323361
 10
105.0237358678413
 20
-124.3619181004199
 10
104.9947970657652
 20
-124.2151570327483
 10
104.8073838713676
 20
-124.1553846260792
 10
104.5593369964296
 20
-124.0761474299185
 10
104.481477838463
 20
-124.2933607002635
 10
104.4415147308341
 20
-124.4029147366944
 10
104.4415147308341
 20
-124.4029147366944
 10
104.2279188107486
 20
-124.3348741008607
 10
104.2279188107486
 20
-124.3348741008607
 10
104.274772109348
 20
-124.2163628161681
 10
104.3188693315592
 20
-124.1130099516106
 10
104.4318684634754
 20
-124.0242987428655
 10
104.5855197221175
 20
-123.904581674753
 10
104.7736219356122
 20
-123.9290418526983
 10
104.8838649911401
 20
-123.9643540814221
 10
105.1477593053103
 20
-124.0485866660365
 10
105.2896972393026
 20
-124.2869872736158
 10
105.2063259285595
 20
-124.5469197279779
 10
105.1374240188545
 20
-124.7644775078714
 10
104.9961751039593
 20
-124.8240776597662
 10
104.6323730207169
 20
-124.9456895303955
 97
        0
 97
        0
 75
     2
 76
     1
 98
        0
  0
SPLINE
  5
B9
330
B3
100
AcDbEntity
  8
_U+30EC_U+30A4_U+30E4_U+30FC 1
370
     0
100
AcDbSpline
210
0.0
220
0.0
230
1.0
 70
    11
 71
     3
 72
    53
 73
    49
 74
     0
 42
0.0000000001
 43
0.0000000001
 12
1.0
 22
0.0
 32
0.0
 13
1.0
 23
0.0
 33
0.0
 40
0.0
 40
0.0
 40
0.0
 40
0.0
 40
1.0
 40
1.0
 40
1.0
 40
2.0
 40
2.0
 40
2.0
 40
3.0
 40
3.0
 40
3.0
 40
4.0
 40
4.0
 40
4.0
 40
5.0
 40
5.0
 40
5.0
 40
6.0
 40
6.0
 40
6.0
 40
7.0
 40
7.0
 40
7.0
 40
8.0
 40
8.0
 40
8.0
 40
9.0
 40
9.0
 40
9.0
 40
10.0
 40
10.0
 40
10.0
 40
11.0
 40
11.0
 40
11.0
 40
12.0
 40
12.0
 40
12.0
 40
13.0
 40
13.0
 40
13.0
 40
14.0
 40
14.0
 40
14.0
 40
15.0
 40
15.0
 40
15.0
 40
16.0
 40
16.0
 40
16.0
 40
16.0
 10
105.4550618225946
 20
-125.8720757063792
 30
0.0
 10
105.3806477601132
 20
-125.848304547531
 30
0.0
 10
105.2890082202055
 20
-125.8011067393831
 30
0.0
 10
105.2111490622389
 20
-125.7098117090239
 30
0.0
 10
105.0795464147023
 20
-125.5521985905738
 30
0.0
 10
105.0995279685168
 20
-125.4207681978115
 30
0.0
 10
105.1139973695548
 20
-125.3124199448004
 30
0.0
 10
105.1139973695548
 20
-125.3124199448004
 30
0.0
 10
105.3255262323492
 20
-125.3799438163113
 30
0.0
 10
105.3255262323492
 20
-125.3799438163113
 30
0.0
 10
105.3172580031846
 20
-125.5857882715549
 30
0.0
 10
105.4295681160037
 20
-125.6527953787431
 30
0.0
 10
105.5184515795232
 20
-125.6810451617221
 30
0.0
 10
105.6514322652538
 20
-125.7235920909649
 30
0.0
 10
105.8264431159045
 20
-125.6750162446229
 30
0.0
 10
105.8974120829007
 20
-125.4533243501471
 30
0.0
 10
105.9745822217702
 20
-125.2095838445657
 30
0.0
 10
105.8243760586134
 20
-125.0884887382591
 30
0.0
 10
105.7099988885031
 20
-125.0517984713412
 30
0.0
 10
105.6796820482329
 20
-125.0421522039825
 30
0.0
 10
105.5446343052111
 20
-124.9990885104169
 30
0.0
 10
105.4206108677421
 20
-125.0948621649068
 30
0.0
 10
105.4206108677421
 20
-125.0948621649068
 30
0.0
 10
105.2593803990324
 20
-125.0235486883622
 30
0.0
 10
105.2593803990324
 20
-125.0235486883622
 30
0.0
 10
105.2593803990324
 20
-125.0235486883622
 30
0.0
 10
105.6314507114394
 20
-124.2539143569574
 30
0.0
 10
105.6314507114394
 20
-124.2539143569574
 30
0.0
 10
105.6314507114394
 20
-124.2539143569574
 30
0.0
 10
106.3735242789622
 20
-124.490592416794
 30
0.0
 10
106.3735242789622
 20
-124.490592416794
 30
0.0
 10
106.3735242789622
 20
-124.490592416794
 30
0.0
 10
106.3142686366159
 20
-124.6761108086747
 30
0.0
 10
106.3142686366159
 20
-124.6761108086747
 30
0.0
 10
106.3142686366159
 20
-124.6761108086747
 30
0.0
 10
105.7272243659293
 20
-124.4888698690514
 30
0.0
 10
105.7272243659293
 20
-124.4888698690514
 30
0.0
 10
105.7272243659293
 20
-124.4888698690514
 30
0.0
 10
105.5363660760465
 20
-124.8719644870112
 30
0.0
 10
105.5363660760465
 20
-124.8719644870112
 30
0.0
 10
105.6052679857515
 20
-124.8585286146187
 30
0.0
 10
105.695529487465
 20
-124.8450927422262
 30
0.0
 10
105.8085286193812
 20
-124.8812662448214
 30
0.0
 10
106.0503743224457
 20
-124.958436383691
 30
0.0
 10
106.21987302032
 20
-125.207861296823
 30
0.0
 10
106.1247883849271
 20
-125.5060343110714
 30
0.0
 10
106.0283257113401
 20
-125.8083414399021
 30
0.0
 10
105.7430718051615
 20
-125.9640597558354
 30
0.0
 10
105.4550618225946
 20
-125.8720757063792
 30
0.0
  0
HATCH
  5
BA
330
B3
100
AcDbEntity
  8
_U+30EC_U+30A4_U+30E4_U+30FC 1
 62
   179
420
  2234388
100
AcDbHatch
 10
0.0
 20
0.0
 30
0.0
210
0.0
220
0.0
230
1.0
  2
SOLID
 70
     1
 71
     0
 91
        1
 92
        1
 93
        1
 72
     4
 94
        3
 73
     0
 74
     1
 95
       53
 96
       49
 40
0.0
 40
0.0
 40
0.0
 40
0.0
 40
1.0
 40
1.0
 40
1.0
 40
2.0
 40
2.0
 40
2.0
 40
3.0
 40
3.0
 40
3.0
 40
4.0
 40
4.0
 40
4.0
 40
5.0
 40
5.0
 40
5.0
 40
6.0
 40
6.0
 40
6.0
 40
7.0
 40
7.0
 40
7.0
 40
8.0
 40
8.0
 40
8.0
 40
9.0
 40
9.0
 40
9.0
 40
10.0
 40
10.0
 40
10.0
 40
11.0
 40
11.0
 40
11.0
 40
12.0
 40
12.0
 40
12.0
 40
13.0
 40
13.0
 40
13.0
 40
14.0
 40
14.0
 40
14.0
 40
15.0
 40
15.0
 40
15.0
 40
16.0
 40
16.0
 40
16.0
 40
16.0
 10
105.4550618225946
 20
-125.8720757063792
 10
105.3806477601132
 20
-125.848304547531
 10
105.2890082202055
 20
-125.8011067393831
 10
105.2111490622389
 20
-125.7098117090239
 10
105.0795464147023
 20
-125.5521985905738
 10
105.0995279685168
 20
-125.4207681978115
 10
105.1139973695548
 20
-125.3124199448004
 10
105.1139973695548
 20
-125.3124199448004
 10
105.3255262323492
 20
-125.3799438163113
 10
105.3255262323492
 20
-125.3799438163113
 10
105.3172580031846
 20
-125.5857882715549
 10
105.4295681160037
 20
-125.6527953787431
 10
105.5184515795232
 20
-125.6810451617221
 10
105.6514322652538
 20
-125.7235920909649
 10
105.8264431159045
 20
-125.6750162446229
 10
105.8974120829007
 20
-125.4533243501471
 10
105.9745822217702
 20
-125.2095838445657
 10
105.8243760586134
 20
-125.0884887382591
 10
105.7099988885031
 20
-125.0517984713412
 10
105.6796820482329
 20
-125.0421522039825
 10
105.5446343052111
 20
-124.9990885104169
 10
105.4206108677421
 20
-125.0948621649068
 10
105.4206108677421
 20
-125.0948621649068
 10
105.2593803990324
 20
-125.0235486883622
 10
105.2593803990324
 20
-125.0235486883622
 10
105.2593803990324
 20
-125.0235486883622
 10
105.6314507114394
 20
-124.2539143569574
 10
105.6314507114394
 20
-124.2539143569574
 10
105.6314507114394
 20
-124.2539143569574
 10
106.3735242789622
 20
-124.490592416794
 10
106.3735242789622
 20
-124.490592416794
 10
106.3735242789622
 20
-124.490592416794
 10
106.3142686366159
 20
-124.6761108086747
 10
106.3142686366159
 20
-124.6761108086747
 10
106.3142686366159
 20
-124.6761108086747
 10
105.7272243659293
 20
-124.4888698690514
 10
105.7272243659293
 20
-124.4888698690514
 10
105.7272243659293
 20
-124.4888698690514
 10
105.5363660760465
 20
-124.8719644870112
 10
105.5363660760465
 20
-124.8719644870112
 10
105.6052679857515
 20
-124.8585286146187
 10
105.695529487465
 20
-124.8450927422262
 10
105.8085286193812
 20
-124.8812662448214
 10
106.0503743224457
 20
-124.958436383691
 10
106.21987302032
 20
-125.207861296823
 10
106.1247883849271
 20
-125.5060343110714
 10
106.0283257113401
 20
-125.8083414399021
 10
105.7430718051615
 20
-125.9640597558354
 10
105.4550618225946
 20
-125.8720757063792
 97
        0
 97
        0
 75
     2
 76
     1
 98
        0
  0
ENDBLK
  5
B6
330
B3
100
AcDbEntity
  8
0
100
AcDbBlockEnd
  0
BLOCK
  5
CF
330
CD
100
AcDbEntity
  8
0
100
AcDbBlockBegin
  2
block 5
 70
     0
 10
0.0
 20
0.0
 30
0.0
  3
block 5
  1

  0
SPLINE
  5
D1
330
CD
100
AcDbEntity
  8
_U+30EC_U+30A4_U+30E4_U+30FC 1
370
     0
100
AcDbSpline
210
0.0
220
0.0
230
1.0
 70
    11
 71
     3
 72
    44
 73
    40
 74
     0
 42
0.0000000001
 43
0.0000000001
 12
1.0
 22
0.0
 32
0.0
 13
1.0
 23
0.0
 33
0.0
 40
0.0
 40
0.0
 40
0.0
 40
0.0
 40
1.0
 40
1.0
 40
1.0
 40
2.0
 40
2.0
 40
2.0
 40
3.0
 40
3.0
 40
3.0
 40
4.0
 40
4.0
 40
4.0
 40
5.0
 40
5.0
 40
5.0
 40
6.0
 40
6.0
 40
6.0
 40
7.0
 40
7.0
 40
7.0
 40
8.0
 40
8.0
 40
8.0
 40
9.0
 40
9.0
 40
9.0
 40
10.0
 40
10.0
 40
10.0
 40
11.0
 40
11.0
 40
11.0
 40
12.0
 40
12.0
 40
12.0
 40
13.0
 40
13.0
 40
13.0
 40
13.0
 10
75.56937525237502
 20
-125.7117065115408
 30
0.0
 10
75.41021184095648
 20
-125.9292642914344
 30
0.0
 10
75.34406600763968
 20
-126.028138531861
 30
0.0
 10
75.34130993125149
 20
-126.1800672427605
 30
0.0
 10
75.34130993125149
 20
-126.1800672427605
 30
0.0
 10
76.08269447967724
 20
-125.9433891829239
 30
0.0
 10
76.08269447967724
 20
-125.9433891829239
 30
0.0
 10
76.08269447967724
 20
-125.9433891829239
 30
0.0
 10
76.14539521750879
 20
-126.1387260969375
 30
0.0
 10
76.14539521750879
 20
-126.1387260969375
 30
0.0
 10
76.14539521750879
 20
-126.1387260969375
 30
0.0
 10
75.16595457105227
 20
-126.4511962574497
 30
0.0
 10
75.16595457105227
 20
-126.4511962574497
 30
0.0
 10
75.08740639398857
 20
-126.1008300465998
 30
0.0
 10
75.12599146342336
 20
-126.0066066850782
 30
0.0
 10
75.4022881213404
 20
-125.6052530610466
 30
0.0
 10
75.5855672011557
 20
-125.338430415714
 30
0.0
 10
75.62725285652722
 20
-125.2536810667769
 30
0.0
 10
75.5855672011557
 20
-125.1227674383374
 30
0.0
 10
75.54939369856058
 20
-125.0097683064212
 30
0.0
 10
75.44121770032373
 20
-124.9069322061865
 30
0.0
 10
75.25380450592614
 20
-124.9667046128556
 30
0.0
 10
75.00575763098814
 20
-125.045769554242
 30
0.0
 10
75.06776934972264
 20
-125.2678059582664
 30
0.0
 10
75.09946422818695
 20
-125.3801160710855
 30
0.0
 10
75.09946422818695
 20
-125.3801160710855
 30
0.0
 10
74.88586830810145
 20
-125.4481567069192
 30
0.0
 10
74.88586830810145
 20
-125.4481567069192
 30
0.0
 10
74.85520695828274
 20
-125.324650033773
 30
0.0
 10
74.83109128988598
 20
-125.2147514877935
 30
0.0
 10
74.87174341661193
 20
-125.0772921779321
 30
0.0
 10
74.92755396347297
 20
-124.8909125121801
 30
0.0
 10
75.0946410945076
 20
-124.8018567938863
 30
0.0
 10
75.20557316913263
 20
-124.7665445651625
 30
0.0
 10
75.46946748330278
 20
-124.6821397257739
 30
0.0
 10
75.72302651101717
 20
-124.7946220933673
 30
0.0
 10
75.80570880266316
 20
-125.0543822929552
 30
0.0
 10
75.8752997314652
 20
-125.2724568371715
 30
0.0
 10
75.79468449711035
 20
-125.4021646821911
 30
0.0
 10
75.56937525237502
 20
-125.7117065115408
 30
0.0
  0
HATCH
  5
D2
330
CD
100
AcDbEntity
  8
_U+30EC_U+30A4_U+30E4_U+30FC 1
 62
   179
420
  2234388
100
AcDbHatch
 10
0.0
 20
0.0
 30
0.0
210
0.0
220
0.0
230
1.0
  2
SOLID
 70
     1
 71
     0
 91
        1
 92
        1
 93
        1
 72
     4
 94
        3
 73
     0
 74
     1
 95
       44
 96
       40
 40
0.0
 40
0.0
 40
0.0
 40
0.0
 40
1.0
 40
1.0
 40
1.0
 40
2.0
 40
2.0
 40
2.0
 40
3.0
 40
3.0
 40
3.0
 40
4.0
 40
4.0
 40
4.0
 40
5.0
 40
5.0
 40
5.0
 40
6.0
 40
6.0
 40
6.0
 40
7.0
 40
7.0
 40
7.0
 40
8.0
 40
8.0
 40
8.0
 40
9.0
 40
9.0
 40
9.0
 40
10.0
 40
10.0
 40
10.0
 40
11.0
 40
11.0
 40
11.0
 40
12.0
 40
12.0
 40
12.0
 40
13.0
 40
13.0
 40
13.0
 40
13.0
 10
75.56937525237502
 20
-125.7117065115408
 10
75.41021184095648
 20
-125.9292642914344
 10
75.34406600763968
 20
-126.028138531861
 10
75.34130993125149
 20
-126.1800672427605
 10
75.34130993125149
 20
-126.1800672427605
 10
76.08269447967724
 20
-125.9433891829239
 10
76.08269447967724
 20
-125.9433891829239
 10
76.08269447967724
 20
-125.9433891829239
 10
76.14539521750879
 20
-126.1387260969375
 10
76.14539521750879
 20
-126.1387260969375
 10
76.14539521750879
 20
-126.1387260969375
 10
75.16595457105227
 20
-126.4511962574497
 10
75.16595457105227
 20
-126.4511962574497
 10
75.08740639398857
 20
-126.1008300465998
 10
75.12599146342336
 20
-126.0066066850782
 10
75.4022881213404
 20
-125.6052530610466
 10
75.5855672011557
 20
-125.338430415714
 10
75.62725285652722
 20
-125.2536810667769
 10
75.5855672011557
 20
-125.1227674383374
 10
75.54939369856058
 20
-125.0097683064212
 10
75.44121770032373
 20
-124.9069322061865
 10
75.25380450592614
 20
-124.9667046128556
 10
75.00575763098814
 20
-125.045769554242
 10
75.06776934972264
 20
-125.2678059582664
 10
75.09946422818695
 20
-125.3801160710855
 10
75.09946422818695
 20
-125.3801160710855
 10
74.88586830810145
 20
-125.4481567069192
 10
74.88586830810145
 20
-125.4481567069192
 10
74.85520695828274
 20
-125.324650033773
 10
74.83109128988598
 20
-125.2147514877935
 10
74.87174341661193
 20
-125.0772921779321
 10
74.92755396347297
 20
-124.8909125121801
 10
75.0946410945076
 20
-124.8018567938863
 10
75.20557316913263
 20
-124.7665445651625
 10
75.46946748330278
 20
-124.6821397257739
 10
75.72302651101717
 20
-124.7946220933673
 10
75.80570880266316
 20
-125.0543822929552
 10
75.8752997314652
 20
-125.2724568371715
 10
75.79468449711035
 20
-125.4021646821911
 10
75.56937525237502
 20
-125.7117065115408
 97
        0
 97
        0
 75
     2
 76
     1
 98
        0
  0
SPLINE
  5
D3
330
CD
100
AcDbEntity
  8
_U+30EC_U+30A4_U+30E4_U+30FC 1
370
     0
100
AcDbSpline
210
0.0
220
0.0
230
1.0
 70
    11
 71
     3
 72
    53
 73
    49
 74
     0
 42
0.0000000001
 43
0.0000000001
 12
1.0
 22
0.0
 32
0.0
 13
1.0
 23
0.0
 33
0.0
 40
0.0
 40
0.0
 40
0.0
 40
0.0
 40
1.0
 40
1.0
 40
1.0
 40
2.0
 40
2.0
 40
2.0
 40
3.0
 40
3.0
 40
3.0
 40
4.0
 40
4.0
 40
4.0
 40
5.0
 40
5.0
 40
5.0
 40
6.0
 40
6.0
 40
6.0
 40
7.0
 40
7.0
 40
7.0
 40
8.0
 40
8.0
 40
8.0
 40
9.0
 40
9.0
 40
9.0
 40
10.0
 40
10.0
 40
10.0
 40
11.0
 40
11.0
 40
11.0
 40
12.0
 40
12.0
 40
12.0
 40
13.0
 40
13.0
 40
13.0
 40
14.0
 40
14.0
 40
14.0
 40
15.0
 40
15.0
 40
15.0
 40
16.0
 40
16.0
 40
16.0
 40
16.0
 10
76.77584769130951
 20
-125.9905869910718
 30
0.0
 10
76.70143362882811
 20
-126.01435814992
 30
0.0
 10
76.59945880246472
 20
-126.0295165700551
 30
0.0
 10
76.4833590846118
 20
-125.9997164941077
 30
0.0
 10
76.28492158466142
 20
-125.948040061829
 30
0.0
 10
76.22463241366954
 20
-125.8293565223621
 30
0.0
 10
76.17398951003636
 20
-125.7322048296781
 30
0.0
 10
76.17398951003636
 20
-125.7322048296781
 30
0.0
 10
76.3855183728307
 20
-125.6646809581672
 30
0.0
 10
76.3855183728307
 20
-125.6646809581672
 30
0.0
 10
76.49817299519837
 20
-125.8374524967524
 30
0.0
 10
76.62839760454082
 20
-125.8271172102967
 30
0.0
 10
76.71693655851175
 20
-125.7986951725434
 30
0.0
 10
76.84991724424239
 20
-125.7563204980748
 30
0.0
 10
76.9646389239012
 20
-125.6152438379538
 30
0.0
 10
76.89401446645358
 20
-125.3937241982523
 30
0.0
 10
76.81649981803547
 20
-125.1498114378966
 30
0.0
 10
76.62357447086147
 20
-125.1375813489239
 30
0.0
 10
76.50885279120266
 20
-125.1744438706161
 30
0.0
 10
76.47853595093245
 20
-125.1839178832006
 30
0.0
 10
76.34348820791065
 20
-125.2271538315404
 30
0.0
 10
76.29801294750536
 20
-125.3773599946973
 30
0.0
 10
76.29801294750536
 20
-125.3773599946973
 30
0.0
 10
76.12541366369435
 20
-125.4124999686469
 30
0.0
 10
76.12541366369435
 20
-125.4124999686469
 30
0.0
 10
76.12541366369435
 20
-125.4124999686469
 30
0.0
 10
75.982786710605
 20
-124.5696573581805
 30
0.0
 10
75.982786710605
 20
-124.5696573581805
 30
0.0
 10
75.982786710605
 20
-124.5696573581805
 30
0.0
 10
76.7245157685793
 20
-124.3331515531181
 30
0.0
 10
76.7245157685793
 20
-124.3331515531181
 30
0.0
 10
76.7245157685793
 20
-124.3331515531181
 30
0.0
 10
76.78342690137707
 20
-124.5184976902245
 30
0.0
 10
76.78342690137707
 20
-124.5184976902245
 30
0.0
 10
76.78342690137707
 20
-124.5184976902245
 30
0.0
 10
76.19707164978755
 20
-124.7055663750736
 30
0.0
 10
76.19707164978755
 20
-124.7055663750736
 30
0.0
 10
76.19707164978755
 20
-124.7055663750736
 30
0.0
 10
76.26321748310434
 20
-125.1286241006623
 30
0.0
 10
76.26321748310434
 20
-125.1286241006623
 30
0.0
 10
76.31144881989783
 20
-125.0774644327063
 30
0.0
 10
76.37759465321463
 20
-125.014246930552
 30
0.0
 10
76.49059378513083
 20
-124.9782456827311
 30
0.0
 10
76.73243948819537
 20
-124.9010755438615
 30
0.0
 10
77.01493731798585
 20
-125.0063232109359
 30
0.0
 10
77.11002195337875
 20
-125.3046684799586
 30
0.0
 10
77.20648462696575
 20
-125.6071478635635
 30
0.0
 10
77.0638576738764
 20
-125.8986029416156
 30
0.0
 10
76.77584769130951
 20
-125.9905869910718
 30
0.0
  0
HATCH
  5
D4
330
CD
100
AcDbEntity
  8
_U+30EC_U+30A4_U+30E4_U+30FC 1
 62
   179
420
  2234388
100
AcDbHatch
 10
0.0
 20
0.0
 30
0.0
210
0.0
220
0.0
230
1.0
  2
SOLID
 70
     1
 71
     0
 91
        1
 92
        1
 93
        1
 72
     4
 94
        3
 73
     0
 74
     1
 95
       53
 96
       49
 40
0.0
 40
0.0
 40
0.0
 40
0.0
 40
1.0
 40
1.0
 40
1.0
 40
2.0
 40
2.0
 40
2.0
 40
3.0
 40
3.0
 40
3.0
 40
4.0
 40
4.0
 40
4.0
 40
5.0
 40
5.0
 40
5.0
 40
6.0
 40
6.0
 40
6.0
 40
7.0
 40
7.0
 40
7.0
 40
8.0
 40
8.0
 40
8.0
 40
9.0
 40
9.0
 40
9.0
 40
10.0
 40
10.0
 40
10.0
 40
11.0
 40
11.0
 40
11.0
 40
12.0
 40
12.0
 40
12.0
 40
13.0
 40
13.0
 40
13.0
 40
14.0
 40
14.0
 40
14.0
 40
15.0
 40
15.0
 40
15.0
 40
16.0
 40
16.0
 40
16.0
 40
16.0
 10
76.77584769130951
 20
-125.9905869910718
 10
76.70143362882811
 20
-126.01435814992
 10
76.59945880246472
 20
-126.0295165700551
 10
76.4833590846118
 20
-125.9997164941077
 10
76.28492158466142
 20
-125.948040061829
 10
76.22463241366954
 20
-125.8293565223621
 10
76.17398951003636
 20
-125.7322048296781
 10
76.17398951003636
 20
-125.7322048296781
 10
76.3855183728307
 20
-125.6646809581672
 10
76.3855183728307
 20
-125.6646809581672
 10
76.49817299519837
 20
-125.8374524967524
 10
76.62839760454082
 20
-125.8271172102967
 10
76.71693655851175
 20
-125.7986951725434
 10
76.84991724424239
 20
-125.7563204980748
 10
76.9646389239012
 20
-125.6152438379538
 10
76.89401446645358
 20
-125.3937241982523
 10
76.81649981803547
 20
-125.1498114378966
 10
76.62357447086147
 20
-125.1375813489239
 10
76.50885279120266
 20
-125.1744438706161
 10
76.47853595093245
 20
-125.1839178832006
 10
76.34348820791065
 20
-125.2271538315404
 10
76.29801294750536
 20
-125.3773599946973
 10
76.29801294750536
 20
-125.3773599946973
 10
76.12541366369435
 20
-125.4124999686469
 10
76.12541366369435
 20
-125.4124999686469
 10
76.12541366369435
 20
-125.4124999686469
 10
75.982786710605
 20
-124.5696573581805
 10
75.982786710605
 20
-124.5696573581805
 10
75.982786710605
 20
-124.5696573581805
 10
76.7245157685793
 20
-124.3331515531181
 10
76.7245157685793
 20
-124.3331515531181
 10
76.7245157685793
 20
-124.3331515531181
 10
76.78342690137707
 20
-124.5184976902245
 10
76.78342690137707
 20
-124.5184976902245
 10
76.78342690137707
 20
-124.5184976902245
 10
76.19707164978755
 20
-124.7055663750736
 10
76.19707164978755
 20
-124.7055663750736
 10
76.19707164978755
 20
-124.7055663750736
 10
76.26321748310434
 20
-125.1286241006623
 10
76.26321748310434
 20
-125.1286241006623
 10
76.31144881989783
 20
-125.0774644327063
 10
76.37759465321463
 20
-125.014246930552
 10
76.49059378513083
 20
-124.9782456827311
 10
76.73243948819537
 20
-124.9010755438615
 10
77.01493731798585
 20
-125.0063232109359
 10
77.11002195337875
 20
-125.3046684799586
 10
77.20648462696575
 20
-125.6071478635635
 10
77.0638576738764
 20
-125.8986029416156
 10
76.77584769130951
 20
-125.9905869910718
 97
        0
 97
        0
 75
     2
 76
     1
 98
        0
  0
ENDBLK
  5
D0
330
CD
100
AcDbEntity
  8
0
100
AcDbBlockEnd
  0
BLOCK
  5
100
330
FE
100
AcDbEntity
  8
0
100
AcDbBlockBegin
  2
block 6
 70
     0
 10
0.0
 20
0.0
 30
0.0
  3
block 6
  1

  0
SPLINE
  5
102
330
FE
100
AcDbEntity
  8
_U+30EC_U+30A4_U+30E4_U+30FC 1
370
     0
100
AcDbSpline
210
0.0
220
0.0
230
1.0
 70
    11
 71
     3
 72
   242
 73
   238
 74
     0
 42
0.0000000001
 43
0.0000000001
 12
1.0
 22
0.0
 32
0.0
 13
1.0
 23
0.0
 33
0.0
 40
0.0
 40
0.0
 40
0.0
 40
0.0
 40
1.0
 40
1.0
 40
1.0
 40
2.0
 40
2.0
 40
2.0
 40
3.0
 40
3.0
 40
3.0
 40
4.0
 40
4.0
 40
4.0
 40
5.0
 40
5.0
 40
5.0
 40
6.0
 40
6.0
 40
6.0
 40
7.0
 40
7.0
 40
7.0
 40
8.0
 40
8.0
 40
8.0
 40
9.0
 40
9.0
 40
9.0
 40
10.0
 40
10.0
 40
10.0
 40
11.0
 40
11.0
 40
11.0
 40
12.0
 40
12.0
 40
12.0
 40
13.0
 40
13.0
 40
13.0
 40
14.0
 40
14.0
 40
14.0
 40
15.0
 40
15.0
 40
15.0
 40
16.0
 40
16.0
 40
16.0
 40
17.0
 40
17.0
 40
17.0
 40
18.0
 40
18.0
 40
18.0
 40
19.0
 40
19.0
 40
19.0
 40
20.0
 40
20.0
 40
20.0
 40
21.0
 40
21.0
 40
21.0
 40
22.0
 40
22.0
 40
22.0
 40
23.0
 40
23.0
 40
23.0
 40
24.0
 40
24.0
 40
24.0
 40
25.0
 40
25.0
 40
25.0
 40
26.0
 40
26.0
 40
26.0
 40
27.0
 40
27.0
 40
27.0
 40
28.0
 40
28.0
 40
28.0
 40
29.0
 40
29.0
 40
29.0
 40
30.0
 40
30.0
 40
30.0
 40
31.0
 40
31.0
 40
31.0
 40
32.0
 40
32.0
 40
32.0
 40
33.0
 40
33.0
 40
33.0
 40
34.0
 40
34.0
 40
34.0
 40
35.0
 40
35.0
 40
35.0
 40
36.0
 40
36.0
 40
36.0
 40
37.0
 40
37.0
 40
37.0
 40
38.0
 40
38.0
 40
38.0
 40
39.0
 40
39.0
 40
39.0
 40
40.0
 40
40.0
 40
40.0
 40
41.0
 40
41.0
 40
41.0
 40
42.0
 40
42.0
 40
42.0
 40
43.0
 40
43.0
 40
43.0
 40
44.0
 40
44.0
 40
44.0
 40
45.0
 40
45.0
 40
45.0
 40
46.0
 40
46.0
 40
46.0
 40
47.0
 40
47.0
 40
47.0
 40
48.0
 40
48.0
 40
48.0
 40
49.0
 40
49.0
 40
49.0
 40
50.0
 40
50.0
 40
50.0
 40
51.0
 40
51.0
 40
51.0
 40
52.0
 40
52.0
 40
52.0
 40
53.0
 40
53.0
 40
53.0
 40
54.0
 40
54.0
 40
54.0
 40
55.0
 40
55.0
 40
55.0
 40
56.0
 40
56.0
 40
56.0
 40
57.0
 40
57.0
 40
57.0
 40
58.0
 40
58.0
 40
58.0
 40
59.0
 40
59.0
 40
59.0
 40
60.0
 40
60.0
 40
60.0
 40
61.0
 40
61.0
 40
61.0
 40
62.0
 40
62.0
 40
62.0
 40
63.0
 40
63.0
 40
63.0
 40
64.0
 40
64.0
 40
64.0
 40
65.0
 40
65.0
 40
65.0
 40
66.0
 40
66.0
 40
66.0
 40
67.0
 40
67.0
 40
67.0
 40
68.0
 40
68.0
 40
68.0
 40
69.0
 40
69.0
 40
69.0
 40
70.0
 40
70.0
 40
70.0
 40
71.0
 40
71.0
 40
71.0
 40
72.0
 40
72.0
 40
72.0
 40
73.0
 40
73.0
 40
73.0
 40
74.0
 40
74.0
 40
74.0
 40
75.0
 40
75.0
 40
75.0
 40
76.0
 40
76.0
 40
76.0
 40
77.0
 40
77.0
 40
77.0
 40
78.0
 40
78.0
 40
78.0
 40
79.0
 40
79.0
 40
79.0
 40
79.0
 10
87.8506238929679
 20
-138.9610269834889
 30
0.0
 10
87.8506238929679
 20
-138.9610269834889
 30
0.0
 10
87.59672035570499
 20
-138.9610269834889
 30
0.0
 10
87.59672035570499
 20
-138.9610269834889
 30
0.0
 10
87.59672035570499
 20
-138.9610269834889
 30
0.0
 10
87.31956242391664
 20
-138.9610269834889
 30
0.0
 10
87.31956242391664
 20
-138.9610269834889
 30
0.0
 10
87.31956242391664
 20
-138.9610269834889
 30
0.0
 10
87.4465141925481
 20
-139.0034016579575
 30
0.0
 10
87.4465141925481
 20
-139.0034016579575
 30
0.0
 10
87.4570217337781
 20
-139.0075357725398
 30
0.0
 10
87.46976858707353
 20
-139.0137369444132
 30
0.0
 10
87.46976858707353
 20
-139.0264837977087
 30
0.0
 10
87.46976858707353
 20
-139.0474988801687
 30
0.0
 10
87.43807370860924
 20
-139.0540445615907
 30
0.0
 10
87.41688637137494
 20
-139.058178676173
 30
0.0
 10
87.40637883014493
 20
-139.0816053254727
 30
0.0
 10
87.3767510089718
 20
-139.1470621396924
 30
0.0
 10
87.35763072902866
 20
-139.1915038714521
 30
0.0
 10
87.35763072902866
 20
-139.1915038714521
 30
0.0
 10
87.6284152341693
 20
-139.1915038714521
 30
0.0
 10
87.6284152341693
 20
-139.1915038714521
 30
0.0
 10
87.71936575497989
 20
-139.1915038714521
 30
0.0
 10
87.91608070718765
 20
-139.1873697568698
 30
0.0
 10
88.05784638640569
 20
-139.1787570181567
 30
0.0
 10
88.05784638640569
 20
-139.1787570181567
 30
0.0
 10
88.05784638640569
 20
-139.3565239451956
 30
0.0
 10
88.05784638640569
 20
-139.3565239451956
 30
0.0
 10
87.97533634953395
 20
-139.3523898306133
 30
0.0
 10
87.95414901229967
 20
-139.3523898306133
 30
0.0
 10
87.77448728274388
 20
-139.3479112064825
 30
0.0
 10
87.74262014950533
 20
-139.5025959937702
 30
0.0
 10
87.6981784177456
 20
-139.5828667185765
 30
0.0
 10
87.65373668598588
 20
-139.6528021569271
 30
0.0
 10
87.77448728274388
 20
-139.7120577992734
 30
0.0
 10
87.88025171414105
 20
-139.7795816707843
 30
0.0
 10
87.98377683347282
 20
-139.8622639624303
 30
0.0
 10
87.98377683347282
 20
-139.8622639624303
 30
0.0
 10
87.86543780355447
 20
-140.0293510934649
 30
0.0
 10
87.86543780355447
 20
-140.0293510934649
 30
0.0
 10
87.84201115425478
 20
-140.0100585587475
 30
0.0
 10
87.82943655573362
 20
-140.0017903295829
 30
0.0
 10
87.71729869768873
 20
-139.9170409806457
 30
0.0
 10
87.66855059657244
 20
-139.879144930308
 30
0.0
 10
87.60946720900041
 20
-139.8429714277129
 30
0.0
 10
87.52902422941983
 20
-139.7985296959532
 30
0.0
 10
87.3174953666255
 20
-139.9849093617052
 30
0.0
 10
87.1121676757046
 20
-140.0079915014563
 30
0.0
 10
86.82243514539509
 20
-140.0376193226295
 30
0.0
 10
86.82243514539509
 20
-140.0376193226295
 30
0.0
 10
86.71873777128907
 20
-139.8577853382994
 30
0.0
 10
86.71873777128907
 20
-139.8577853382994
 30
0.0
 10
87.03603106548059
 20
-139.8536512237172
 30
0.0
 10
87.21173093522832
 20
-139.8281575171263
 30
0.0
 10
87.36400415567637
 20
-139.7182589711468
 30
0.0
 10
87.24549287098377
 20
-139.6676160675136
 30
0.0
 10
87.15660940746433
 20
-139.6400553036317
 30
0.0
 10
87.12078041441772
 20
-139.6273084503362
 30
0.0
 10
87.10166013447459
 20
-139.6548692142182
 30
0.0
 10
87.08684622388802
 20
-139.6738172393871
 30
0.0
 10
87.05928546000601
 20
-139.7075791751426
 30
0.0
 10
87.05928546000601
 20
-139.7075791751426
 30
0.0
 10
86.86257050779825
 20
-139.6252413930451
 30
0.0
 10
86.86257050779825
 20
-139.6252413930451
 30
0.0
 10
86.94508054466998
 20
-139.5449706682388
 30
0.0
 10
87.00640324430744
 20
-139.4495415232973
 30
0.0
 10
87.06359182936258
 20
-139.3479112064825
 30
0.0
 10
86.87325030380252
 20
-139.3523898306133
 30
0.0
 10
86.85206296656824
 20
-139.3523898306133
 30
0.0
 10
86.7695529296965
 20
-139.3565239451956
 30
0.0
 10
86.7695529296965
 20
-139.3565239451956
 30
0.0
 10
86.7695529296965
 20
-139.1787570181567
 30
0.0
 10
86.7695529296965
 20
-139.1787570181567
 30
0.0
 10
86.90907929684913
 20
-139.1853026995787
 30
0.0
 10
87.11854110235231
 20
-139.189436814161
 30
0.0
 10
87.14403480894316
 20
-139.189436814161
 30
0.0
 10
87.16091577682089
 20
-139.1556748784055
 30
0.0
 10
87.21586504981062
 20
-139.0350965364218
 30
0.0
 10
87.23498532975375
 20
-138.9610269834889
 30
0.0
 10
87.21586504981062
 20
-138.9610269834889
 30
0.0
 10
87.038270377546
 20
-138.9672281553624
 30
0.0
 10
86.84362248262937
 20
-138.9799750086578
 30
0.0
 10
86.84362248262937
 20
-138.9799750086578
 30
0.0
 10
86.84362248262937
 20
-139.113300203937
 30
0.0
 10
86.84362248262937
 20
-139.113300203937
 30
0.0
 10
86.7948743815131
 20
-139.1384494009793
 30
0.0
 10
86.7356187391668
 20
-139.1704887889921
 30
0.0
 10
86.60246579866188
 20
-139.2359456032119
 30
0.0
 10
86.60246579866188
 20
-139.2359456032119
 30
0.0
 10
86.60246579866188
 20
-139.3820176517864
 30
0.0
 10
86.60246579866188
 20
-139.3820176517864
 30
0.0
 10
86.60246579866188
 20
-139.3820176517864
 30
0.0
 10
86.60246579866188
 20
-139.8495171091348
 30
0.0
 10
86.60246579866188
 20
-139.8495171091348
 30
0.0
 10
86.60246579866188
 20
-139.976296622992
 30
0.0
 10
86.56646455084103
 20
-140.0355522653383
 30
0.0
 10
86.28293319240497
 20
-140.0272840361737
 30
0.0
 10
86.28293319240497
 20
-140.0272840361737
 30
0.0
 10
86.17923581829895
 20
-139.8198892879617
 30
0.0
 10
86.17923581829895
 20
-139.8198892879617
 30
0.0
 10
86.2427978300018
 20
-139.8326361412571
 30
0.0
 10
86.29137367634382
 20
-139.8367702558394
 30
0.0
 10
86.33168129352126
 20
-139.8367702558394
 30
0.0
 10
86.40781790374527
 20
-139.8367702558394
 30
0.0
 10
86.41832544497528
 20
-139.8133436065397
 30
0.0
 10
86.41832544497528
 20
-139.74788679232
 30
0.0
 10
86.41832544497528
 20
-139.74788679232
 30
0.0
 10
86.41832544497528
 20
-139.3182833853093
 30
0.0
 10
86.41832544497528
 20
-139.3182833853093
 30
0.0
 10
86.32100149751697
 20
-139.3585910024867
 30
0.0
 10
86.30412052963925
 20
-139.3651366839087
 30
0.0
 10
86.25761174058837
 20
-139.3840847090776
 30
0.0
 10
86.25330537123182
 20
-139.4050997915376
 30
0.0
 10
86.24917125664952
 20
-139.4347276127108
 30
0.0
 10
86.23005097670638
 20
-139.4347276127108
 30
0.0
 10
86.22161049276752
 20
-139.4347276127108
 30
0.0
 10
86.21110295153751
 20
-139.4305934981285
 30
0.0
 10
86.2047295248898
 20
-139.4071668488288
 30
0.0
 10
86.2047295248898
 20
-139.4071668488288
 30
0.0
 10
86.15184730919121
 20
-139.2149305207518
 30
0.0
 10
86.15184730919121
 20
-139.2149305207518
 30
0.0
 10
86.29774710299154
 20
-139.1680772221524
 30
0.0
 10
86.36337617198555
 20
-139.1449950824013
 30
0.0
 10
86.41832544497528
 20
-139.1239799999412
 30
0.0
 10
86.41832544497528
 20
-139.1239799999412
 30
0.0
 10
86.41832544497528
 20
-138.7112575608083
 30
0.0
 10
86.41832544497528
 20
-138.7112575608083
 30
0.0
 10
86.41832544497528
 20
-138.7112575608083
 30
0.0
 10
86.36544322927669
 20
-138.7112575608083
 30
0.0
 10
86.36544322927669
 20
-138.7112575608083
 30
0.0
 10
86.36544322927669
 20
-138.7112575608083
 30
0.0
 10
86.28723956176152
 20
-138.7112575608083
 30
0.0
 10
86.28723956176152
 20
-138.7112575608083
 30
0.0
 10
86.21954343547637
 20
-138.7112575608083
 30
0.0
 10
86.21110295153751
 20
-138.7112575608083
 30
0.0
 10
86.17510170371665
 20
-138.7178032422303
 30
0.0
 10
86.17510170371665
 20
-138.7178032422303
 30
0.0
 10
86.17510170371665
 20
-138.5231553473137
 30
0.0
 10
86.17510170371665
 20
-138.5231553473137
 30
0.0
 10
86.20266246759864
 20
-138.5293565191871
 30
0.0
 10
86.21110295153751
 20
-138.5293565191871
 30
0.0
 10
86.28086613511381
 20
-138.5293565191871
 30
0.0
 10
86.28086613511381
 20
-138.5293565191871
 30
0.0
 10
86.41419133039298
 20
-138.5293565191871
 30
0.0
 10
86.41419133039298
 20
-138.5293565191871
 30
0.0
 10
86.41419133039298
 20
-138.4594210808365
 30
0.0
 10
86.41419133039298
 20
-138.3770832987391
 30
0.0
 10
86.41195201832757
 20
-138.3729491841568
 30
0.0
 10
86.40351153438871
 20
-138.1931151998267
 30
0.0
 10
86.40351153438871
 20
-138.1738226651093
 30
0.0
 10
86.40144447709756
 20
-138.1273138760585
 30
0.0
 10
86.40144447709756
 20
-138.1273138760585
 30
0.0
 10
86.61727970924846
 20
-138.1359266147716
 30
0.0
 10
86.61727970924846
 20
-138.1359266147716
 30
0.0
 10
86.62778725047848
 20
-138.1359266147716
 30
0.0
 10
86.64897458771276
 20
-138.1379936720627
 30
0.0
 10
86.64897458771276
 20
-138.1548746399405
 30
0.0
 10
86.64897458771276
 20
-138.1738226651093
 30
0.0
 10
86.63416067712619
 20
-138.1845024611136
 30
0.0
 10
86.6088392253096
 20
-138.2034504862825
 30
0.0
 10
86.6088392253096
 20
-138.2544378994642
 30
0.0
 10
86.60246579866188
 20
-138.4828477301362
 30
0.0
 10
86.60453285595304
 20
-138.5293565191871
 30
0.0
 10
86.73355168187564
 20
-138.5293565191871
 30
0.0
 10
86.74629853517106
 20
-138.5293565191871
 30
0.0
 10
86.84362248262937
 20
-138.520743780474
 30
0.0
 10
86.84362248262937
 20
-138.520743780474
 30
0.0
 10
86.84362248262937
 20
-138.7153916753906
 30
0.0
 10
86.84362248262937
 20
-138.7153916753906
 30
0.0
 10
86.80555417751737
 20
-138.7133246180994
 30
0.0
 10
86.73785805123221
 20
-138.7091905035172
 30
0.0
 10
86.60246579866188
 20
-138.7112575608083
 30
0.0
 10
86.60246579866188
 20
-138.7112575608083
 30
0.0
 10
86.60246579866188
 20
-139.0499104470084
 30
0.0
 10
86.60246579866188
 20
-139.0499104470084
 30
0.0
 10
86.65741507165163
 20
-139.0264837977087
 30
0.0
 10
86.72304414064563
 20
-138.9989230338267
 30
0.0
 10
86.77161998698766
 20
-138.9758408940755
 30
0.0
 10
86.77161998698766
 20
-138.9758408940755
 30
0.0
 10
86.77161998698766
 20
-138.7980739670366
 30
0.0
 10
86.77161998698766
 20
-138.7980739670366
 30
0.0
 10
86.88582490232369
 20
-138.810820820332
 30
0.0
 10
87.00433618701628
 20
-138.810820820332
 30
0.0
 10
87.12078041441772
 20
-138.810820820332
 30
0.0
 10
87.09752601989229
 20
-138.7153916753906
 30
0.0
 10
87.06996525601029
 20
-138.6330538932931
 30
0.0
 10
87.00640324430744
 20
-138.499728698014
 30
0.0
 10
86.96213376732197
 20
-138.5017957553051
 30
0.0
 10
86.87962373045023
 20
-138.5059298698874
 30
0.0
 10
86.84138317056396
 20
-138.5083414367271
 30
0.0
 10
86.84138317056396
 20
-138.5083414367271
 30
0.0
 10
86.84138317056396
 20
-138.328507452397
 30
0.0
 10
86.84138317056396
 20
-138.328507452397
 30
0.0
 10
86.96626788190427
 20
-138.3367756815616
 30
0.0
 10
87.1397284395866
 20
-138.3409097961439
 30
0.0
 10
87.22223847645833
 20
-138.3409097961439
 30
0.0
 10
87.22223847645833
 20
-138.3409097961439
 30
0.0
 10
87.30474851333007
 20
-138.3409097961439
 30
0.0
 10
87.30474851333007
 20
-138.3409097961439
 30
0.0
 10
87.30474851333007
 20
-138.1783012892402
 30
0.0
 10
87.30474851333007
 20
-138.1676214932359
 30
0.0
 10
87.30268145603891
 20
-138.1124999654719
 30
0.0
 10
87.30268145603891
 20
-138.1124999654719
 30
0.0
 10
87.52695717212868
 20
-138.1379936720627
 30
0.0
 10
87.52695717212868
 20
-138.1379936720627
 30
0.0
 10
87.53109128671097
 20
-138.1379936720627
 30
0.0
 10
87.55227862394527
 20
-138.1400607293539
 30
0.0
 10
87.55227862394527
 20
-138.1569416972316
 30
0.0
 10
87.55227862394527
 20
-138.1717556078182
 30
0.0
 10
87.54177108271526
 20
-138.1803683465313
 30
0.0
 10
87.51421031883326
 20
-138.1951822571179
 30
0.0
 10
87.50783689218555
 20
-138.2606390713376
 30
0.0
 10
87.5057698348944
 20
-138.2819986633462
 30
0.0
 10
87.5057698348944
 20
-138.3409097961439
 30
0.0
 10
87.5057698348944
 20
-138.3409097961439
 30
0.0
 10
87.60085447028729
 20
-138.3409097961439
 30
0.0
 10
87.60085447028729
 20
-138.3409097961439
 30
0.0
 10
87.68336450715903
 20
-138.3409097961439
 30
0.0
 10
87.85682506484136
 20
-138.3367756815616
 30
0.0
 10
87.98170977618166
 20
-138.328507452397
 30
0.0
 10
87.98170977618166
 20
-138.328507452397
 30
0.0
 10
87.98170977618166
 20
-138.5083414367271
 30
0.0
 10
87.98170977618166
 20
-138.5083414367271
 30
0.0
 10
87.95208195500851
 20
-138.5059298698874
 30
0.0
 10
87.83357067031592
 20
-138.5017957553051
 30
0.0
 10
87.79343530791276
 20
-138.499728698014
 30
0.0
 10
87.77862139732618
 20
-138.5503716016471
 30
0.0
 10
87.74485946157074
 20
-138.6626817144663
 30
0.0
 10
87.67923039257673
 20
-138.8022080816189
 30
0.0
 10
87.72143281227103
 20
-138.8022080816189
 30
0.0
 10
87.99859074405938
 20
-138.78326005645
 30
0.0
 10
88.05991344369683
 20
-138.7811929991589
 30
0.0
 10
88.05991344369683
 20
-138.7811929991589
 30
0.0
 10
88.05991344369683
 20
-138.9651610980712
 30
0.0
 10
88.05991344369683
 20
-138.9651610980712
 30
0.0
 10
88.03045787729795
 20
-138.9651610980712
 30
0.0
 10
88.01340465464595
 20
-138.9610269834889
 30
0.0
 10
87.8506238929679
 20
-138.9610269834889
 30
0.0
  0
SPLINE
  5
103
330
FE
100
AcDbEntity
  8
_U+30EC_U+30A4_U+30E4_U+30FC 1
370
     0
100
AcDbSpline
210
0.0
220
0.0
230
1.0
 70
    11
 71
     3
 72
    20
 73
    16
 74
     0
 42
0.0000000001
 43
0.0000000001
 12
1.0
 22
0.0
 32
0.0
 13
1.0
 23
0.0
 33
0.0
 40
0.0
 40
0.0
 40
0.0
 40
0.0
 40
1.0
 40
1.0
 40
1.0
 40
2.0
 40
2.0
 40
2.0
 40
3.0
 40
3.0
 40
3.0
 40
4.0
 40
4.0
 40
4.0
 40
5.0
 40
5.0
 40
5.0
 40
5.0
 10
87.22223847645833
 20
-138.4955945834317
 30
0.0
 10
87.22223847645833
 20
-138.4955945834317
 30
0.0
 10
87.19054359799404
 20
-138.4955945834317
 30
0.0
 10
87.19054359799404
 20
-138.4955945834317
 30
0.0
 10
87.23705238704491
 20
-138.5948133334068
 30
0.0
 10
87.2687472655092
 20
-138.6754285677617
 30
0.0
 10
87.30268145603891
 20
-138.8022080816189
 30
0.0
 10
87.30268145603891
 20
-138.8022080816189
 30
0.0
 10
87.5099039494767
 20
-138.8022080816189
 30
0.0
 10
87.5099039494767
 20
-138.8022080816189
 30
0.0
 10
87.54177108271526
 20
-138.7091905035172
 30
0.0
 10
87.5650254772407
 20
-138.62444115458
 30
0.0
 10
87.58827987176613
 20
-138.4955945834317
 30
0.0
 10
87.58827987176613
 20
-138.4955945834317
 30
0.0
 10
87.22223847645833
 20
-138.4955945834317
 30
0.0
 10
87.22223847645833
 20
-138.4955945834317
 30
0.0
  0
SPLINE
  5
104
330
FE
100
AcDbEntity
  8
_U+30EC_U+30A4_U+30E4_U+30FC 1
370
     0
100
AcDbSpline
210
0.0
220
0.0
230
1.0
 70
    11
 71
     3
 72
    17
 73
    13
 74
     0
 42
0.0000000001
 43
0.0000000001
 12
1.0
 22
0.0
 32
0.0
 13
1.0
 23
0.0
 33
0.0
 40
0.0
 40
0.0
 40
0.0
 40
0.0
 40
1.0
 40
1.0
 40
1.0
 40
2.0
 40
2.0
 40
2.0
 40
3.0
 40
3.0
 40
3.0
 40
4.0
 40
4.0
 40
4.0
 40
4.0
 10
87.28580048816119
 20
-139.3458441491913
 30
0.0
 10
87.2687472655092
 20
-139.3754719703645
 30
0.0
 10
87.21810436187603
 20
-139.4684895484662
 30
0.0
 10
87.20742456587176
 20
-139.4877820831836
 30
0.0
 10
87.39776609143182
 20
-139.5470377255299
 30
0.0
 10
87.4189534286661
 20
-139.5532388974034
 30
0.0
 10
87.49095592430783
 20
-139.5807996612854
 30
0.0
 10
87.54590519729756
 20
-139.4939832550571
 30
0.0
 10
87.569159591823
 20
-139.4199137021242
 30
0.0
 10
87.58397350240956
 20
-139.3458441491913
 30
0.0
 10
87.58397350240956
 20
-139.3458441491913
 30
0.0
 10
87.28580048816119
 20
-139.3458441491913
 30
0.0
 10
87.28580048816119
 20
-139.3458441491913
 30
0.0
  0
HATCH
  5
105
330
FE
100
AcDbEntity
  8
_U+30EC_U+30A4_U+30E4_U+30FC 1
 62
   179
420
  2234388
100
AcDbHatch
 10
0.0
 20
0.0
 30
0.0
210
0.0
220
0.0
230
1.0
  2
SOLID
 70
     1
 71
     0
 91
        3
 92
        1
 93
        1
 72
     4
 94
        3
 73
     0
 74
     1
 95
      242
 96
      238
 40
0.0
 40
0.0
 40
0.0
 40
0.0
 40
1.0
 40
1.0
 40
1.0
 40
2.0
 40
2.0
 40
2.0
 40
3.0
 40
3.0
 40
3.0
 40
4.0
 40
4.0
 40
4.0
 40
5.0
 40
5.0
 40
5.0
 40
6.0
 40
6.0
 40
6.0
 40
7.0
 40
7.0
 40
7.0
 40
8.0
 40
8.0
 40
8.0
 40
9.0
 40
9.0
 40
9.0
 40
10.0
 40
10.0
 40
10.0
 40
11.0
 40
11.0
 40
11.0
 40
12.0
 40
12.0
 40
12.0
 40
13.0
 40
13.0
 40
13.0
 40
14.0
 40
14.0
 40
14.0
 40
15.0
 40
15.0
 40
15.0
 40
16.0
 40
16.0
 40
16.0
 40
17.0
 40
17.0
 40
17.0
 40
18.0
 40
18.0
 40
18.0
 40
19.0
 40
19.0
 40
19.0
 40
20.0
 40
20.0
 40
20.0
 40
21.0
 40
21.0
 40
21.0
 40
22.0
 40
22.0
 40
22.0
 40
23.0
 40
23.0
 40
23.0
 40
24.0
 40
24.0
 40
24.0
 40
25.0
 40
25.0
 40
25.0
 40
26.0
 40
26.0
 40
26.0
 40
27.0
 40
27.0
 40
27.0
 40
28.0
 40
28.0
 40
28.0
 40
29.0
 40
29.0
 40
29.0
 40
30.0
 40
30.0
 40
30.0
 40
31.0
 40
31.0
 40
31.0
 40
32.0
 40
32.0
 40
32.0
 40
33.0
 40
33.0
 40
33.0
 40
34.0
 40
34.0
 40
34.0
 40
35.0
 40
35.0
 40
35.0
 40
36.0
 40
36.0
 40
36.0
 40
37.0
 40
37.0
 40
37.0
 40
38.0
 40
38.0
 40
38.0
 40
39.0
 40
39.0
 40
39.0
 40
40.0
 40
40.0
 40
40.0
 40
41.0
 40
41.0
 40
41.0
 40
42.0
 40
42.0
 40
42.0
 40
43.0
 40
43.0
 40
43.0
 40
44.0
 40
44.0
 40
44.0
 40
45.0
 40
45.0
 40
45.0
 40
46.0
 40
46.0
 40
46.0
 40
47.0
 40
47.0
 40
47.0
 40
48.0
 40
48.0
 40
48.0
 40
49.0
 40
49.0
 40
49.0
 40
50.0
 40
50.0
 40
50.0
 40
51.0
 40
51.0
 40
51.0
 40
52.0
 40
52.0
 40
52.0
 40
53.0
 40
53.0
 40
53.0
 40
54.0
 40
54.0
 40
54.0
 40
55.0
 40
55.0
 40
55.0
 40
56.0
 40
56.0
 40
56.0
 40
57.0
 40
57.0
 40
57.0
 40
58.0
 40
58.0
 40
58.0
 40
59.0
 40
59.0
 40
59.0
 40
60.0
 40
60.0
 40
60.0
 40
61.0
 40
61.0
 40
61.0
 40
62.0
 40
62.0
 40
62.0
 40
63.0
 40
63.0
 40
63.0
 40
64.0
 40
64.0
 40
64.0
 40
65.0
 40
65.0
 40
65.0
 40
66.0
 40
66.0
 40
66.0
 40
67.0
 40
67.0
 40
67.0
 40
68.0
 40
68.0
 40
68.0
 40
69.0
 40
69.0
 40
69.0
 40
70.0
 40
70.0
 40
70.0
 40
71.0
 40
71.0
 40
71.0
 40
72.0
 40
72.0
 40
72.0
 40
73.0
 40
73.0
 40
73.0
 40
74.0
 40
74.0
 40
74.0
 40
75.0
 40
75.0
 40
75.0
 40
76.0
 40
76.0
 40
76.0
 40
77.0
 40
77.0
 40
77.0
 40
78.0
 40
78.0
 40
78.0
 40
79.0
 40
79.0
 40
79.0
 40
79.0
 10
87.8506238929679
 20
-138.9610269834889
 10
87.8506238929679
 20
-138.9610269834889
 10
87.59672035570499
 20
-138.9610269834889
 10
87.59672035570499
 20
-138.9610269834889
 10
87.59672035570499
 20
-138.9610269834889
 10
87.31956242391664
 20
-138.9610269834889
 10
87.31956242391664
 20
-138.9610269834889
 10
87.31956242391664
 20
-138.9610269834889
 10
87.4465141925481
 20
-139.0034016579575
 10
87.4465141925481
 20
-139.0034016579575
 10
87.4570217337781
 20
-139.0075357725398
 10
87.46976858707353
 20
-139.0137369444132
 10
87.46976858707353
 20
-139.0264837977087
 10
87.46976858707353
 20
-139.0474988801687
 10
87.43807370860924
 20
-139.0540445615907
 10
87.41688637137494
 20
-139.058178676173
 10
87.40637883014493
 20
-139.0816053254727
 10
87.3767510089718
 20
-139.1470621396924
 10
87.35763072902866
 20
-139.1915038714521
 10
87.35763072902866
 20
-139.1915038714521
 10
87.6284152341693
 20
-139.1915038714521
 10
87.6284152341693
 20
-139.1915038714521
 10
87.71936575497989
 20
-139.1915038714521
 10
87.91608070718765
 20
-139.1873697568698
 10
88.05784638640569
 20
-139.1787570181567
 10
88.05784638640569
 20
-139.1787570181567
 10
88.05784638640569
 20
-139.3565239451956
 10
88.05784638640569
 20
-139.3565239451956
 10
87.97533634953395
 20
-139.3523898306133
 10
87.95414901229967
 20
-139.3523898306133
 10
87.77448728274388
 20
-139.3479112064825
 10
87.74262014950533
 20
-139.5025959937702
 10
87.6981784177456
 20
-139.5828667185765
 10
87.65373668598588
 20
-139.6528021569271
 10
87.77448728274388
 20
-139.7120577992734
 10
87.88025171414105
 20
-139.7795816707843
 10
87.98377683347282
 20
-139.8622639624303
 10
87.98377683347282
 20
-139.8622639624303
 10
87.86543780355447
 20
-140.0293510934649
 10
87.86543780355447
 20
-140.0293510934649
 10
87.84201115425478
 20
-140.0100585587475
 10
87.82943655573362
 20
-140.0017903295829
 10
87.71729869768873
 20
-139.9170409806457
 10
87.66855059657244
 20
-139.879144930308
 10
87.60946720900041
 20
-139.8429714277129
 10
87.52902422941983
 20
-139.7985296959532
 10
87.3174953666255
 20
-139.9849093617052
 10
87.1121676757046
 20
-140.0079915014563
 10
86.82243514539509
 20
-140.0376193226295
 10
86.82243514539509
 20
-140.0376193226295
 10
86.71873777128907
 20
-139.8577853382994
 10
86.71873777128907
 20
-139.8577853382994
 10
87.03603106548059
 20
-139.8536512237172
 10
87.21173093522832
 20
-139.8281575171263
 10
87.36400415567637
 20
-139.7182589711468
 10
87.24549287098377
 20
-139.6676160675136
 10
87.15660940746433
 20
-139.6400553036317
 10
87.12078041441772
 20
-139.6273084503362
 10
87.10166013447459
 20
-139.6548692142182
 10
87.08684622388802
 20
-139.6738172393871
 10
87.05928546000601
 20
-139.7075791751426
 10
87.05928546000601
 20
-139.7075791751426
 10
86.86257050779825
 20
-139.6252413930451
 10
86.86257050779825
 20
-139.6252413930451
 10
86.94508054466998
 20
-139.5449706682388
 10
87.00640324430744
 20
-139.4495415232973
 10
87.06359182936258
 20
-139.3479112064825
 10
86.87325030380252
 20
-139.3523898306133
 10
86.85206296656824
 20
-139.3523898306133
 10
86.7695529296965
 20
-139.3565239451956
 10
86.7695529296965
 20
-139.3565239451956
 10
86.7695529296965
 20
-139.1787570181567
 10
86.7695529296965
 20
-139.1787570181567
 10
86.90907929684913
 20
-139.1853026995787
 10
87.11854110235231
 20
-139.189436814161
 10
87.14403480894316
 20
-139.189436814161
 10
87.16091577682089
 20
-139.1556748784055
 10
87.21586504981062
 20
-139.0350965364218
 10
87.23498532975375
 20
-138.9610269834889
 10
87.21586504981062
 20
-138.9610269834889
 10
87.038270377546
 20
-138.9672281553624
 10
86.84362248262937
 20
-138.9799750086578
 10
86.84362248262937
 20
-138.9799750086578
 10
86.84362248262937
 20
-139.113300203937
 10
86.84362248262937
 20
-139.113300203937
 10
86.7948743815131
 20
-139.1384494009793
 10
86.7356187391668
 20
-139.1704887889921
 10
86.60246579866188
 20
-139.2359456032119
 10
86.60246579866188
 20
-139.2359456032119
 10
86.60246579866188
 20
-139.3820176517864
 10
86.60246579866188
 20
-139.3820176517864
 10
86.60246579866188
 20
-139.3820176517864
 10
86.60246579866188
 20
-139.8495171091348
 10
86.60246579866188
 20
-139.8495171091348
 10
86.60246579866188
 20
-139.976296622992
 10
86.56646455084103
 20
-140.0355522653383
 10
86.28293319240497
 20
-140.0272840361737
 10
86.28293319240497
 20
-140.0272840361737
 10
86.17923581829895
 20
-139.8198892879617
 10
86.17923581829895
 20
-139.8198892879617
 10
86.2427978300018
 20
-139.8326361412571
 10
86.29137367634382
 20
-139.8367702558394
 10
86.33168129352126
 20
-139.8367702558394
 10
86.40781790374527
 20
-139.8367702558394
 10
86.41832544497528
 20
-139.8133436065397
 10
86.41832544497528
 20
-139.74788679232
 10
86.41832544497528
 20
-139.74788679232
 10
86.41832544497528
 20
-139.3182833853093
 10
86.41832544497528
 20
-139.3182833853093
 10
86.32100149751697
 20
-139.3585910024867
 10
86.30412052963925
 20
-139.3651366839087
 10
86.25761174058837
 20
-139.3840847090776
 10
86.25330537123182
 20
-139.4050997915376
 10
86.24917125664952
 20
-139.4347276127108
 10
86.23005097670638
 20
-139.4347276127108
 10
86.22161049276752
 20
-139.4347276127108
 10
86.21110295153751
 20
-139.4305934981285
 10
86.2047295248898
 20
-139.4071668488288
 10
86.2047295248898
 20
-139.4071668488288
 10
86.15184730919121
 20
-139.2149305207518
 10
86.15184730919121
 20
-139.2149305207518
 10
86.29774710299154
 20
-139.1680772221524
 10
86.36337617198555
 20
-139.1449950824013
 10
86.41832544497528
 20
-139.1239799999412
 10
86.41832544497528
 20
-139.1239799999412
 10
86.41832544497528
 20
-138.7112575608083
 10
86.41832544497528
 20
-138.7112575608083
 10
86.41832544497528
 20
-138.7112575608083
 10
86.36544322927669
 20
-138.7112575608083
 10
86.36544322927669
 20
-138.7112575608083
 10
86.36544322927669
 20
-138.7112575608083
 10
86.28723956176152
 20
-138.7112575608083
 10
86.28723956176152
 20
-138.7112575608083
 10
86.21954343547637
 20
-138.7112575608083
 10
86.21110295153751
 20
-138.7112575608083
 10
86.17510170371665
 20
-138.7178032422303
 10
86.17510170371665
 20
-138.7178032422303
 10
86.17510170371665
 20
-138.5231553473137
 10
86.17510170371665
 20
-138.5231553473137
 10
86.20266246759864
 20
-138.5293565191871
 10
86.21110295153751
 20
-138.5293565191871
 10
86.28086613511381
 20
-138.5293565191871
 10
86.28086613511381
 20
-138.5293565191871
 10
86.41419133039298
 20
-138.5293565191871
 10
86.41419133039298
 20
-138.5293565191871
 10
86.41419133039298
 20
-138.4594210808365
 10
86.41419133039298
 20
-138.3770832987391
 10
86.41195201832757
 20
-138.3729491841568
 10
86.40351153438871
 20
-138.1931151998267
 10
86.40351153438871
 20
-138.1738226651093
 10
86.40144447709756
 20
-138.1273138760585
 10
86.40144447709756
 20
-138.1273138760585
 10
86.61727970924846
 20
-138.1359266147716
 10
86.61727970924846
 20
-138.1359266147716
 10
86.62778725047848
 20
-138.1359266147716
 10
86.64897458771276
 20
-138.1379936720627
 10
86.64897458771276
 20
-138.1548746399405
 10
86.64897458771276
 20
-138.1738226651093
 10
86.63416067712619
 20
-138.1845024611136
 10
86.6088392253096
 20
-138.2034504862825
 10
86.6088392253096
 20
-138.2544378994642
 10
86.60246579866188
 20
-138.4828477301362
 10
86.60453285595304
 20
-138.5293565191871
 10
86.73355168187564
 20
-138.5293565191871
 10
86.74629853517106
 20
-138.5293565191871
 10
86.84362248262937
 20
-138.520743780474
 10
86.84362248262937
 20
-138.520743780474
 10
86.84362248262937
 20
-138.7153916753906
 10
86.84362248262937
 20
-138.7153916753906
 10
86.80555417751737
 20
-138.7133246180994
 10
86.73785805123221
 20
-138.7091905035172
 10
86.60246579866188
 20
-138.7112575608083
 10
86.60246579866188
 20
-138.7112575608083
 10
86.60246579866188
 20
-139.0499104470084
 10
86.60246579866188
 20
-139.0499104470084
 10
86.65741507165163
 20
-139.0264837977087
 10
86.72304414064563
 20
-138.9989230338267
 10
86.77161998698766
 20
-138.9758408940755
 10
86.77161998698766
 20
-138.9758408940755
 10
86.77161998698766
 20
-138.7980739670366
 10
86.77161998698766
 20
-138.7980739670366
 10
86.88582490232369
 20
-138.810820820332
 10
87.00433618701628
 20
-138.810820820332
 10
87.12078041441772
 20
-138.810820820332
 10
87.09752601989229
 20
-138.7153916753906
 10
87.06996525601029
 20
-138.6330538932931
 10
87.00640324430744
 20
-138.499728698014
 10
86.96213376732197
 20
-138.5017957553051
 10
86.87962373045023
 20
-138.5059298698874
 10
86.84138317056396
 20
-138.5083414367271
 10
86.84138317056396
 20
-138.5083414367271
 10
86.84138317056396
 20
-138.328507452397
 10
86.84138317056396
 20
-138.328507452397
 10
86.96626788190427
 20
-138.3367756815616
 10
87.1397284395866
 20
-138.3409097961439
 10
87.22223847645833
 20
-138.3409097961439
 10
87.22223847645833
 20
-138.3409097961439
 10
87.30474851333007
 20
-138.3409097961439
 10
87.30474851333007
 20
-138.3409097961439
 10
87.30474851333007
 20
-138.1783012892402
 10
87.30474851333007
 20
-138.1676214932359
 10
87.30268145603891
 20
-138.1124999654719
 10
87.30268145603891
 20
-138.1124999654719
 10
87.52695717212868
 20
-138.1379936720627
 10
87.52695717212868
 20
-138.1379936720627
 10
87.53109128671097
 20
-138.1379936720627
 10
87.55227862394527
 20
-138.1400607293539
 10
87.55227862394527
 20
-138.1569416972316
 10
87.55227862394527
 20
-138.1717556078182
 10
87.54177108271526
 20
-138.1803683465313
 10
87.51421031883326
 20
-138.1951822571179
 10
87.50783689218555
 20
-138.2606390713376
 10
87.5057698348944
 20
-138.2819986633462
 10
87.5057698348944
 20
-138.3409097961439
 10
87.5057698348944
 20
-138.3409097961439
 10
87.60085447028729
 20
-138.3409097961439
 10
87.60085447028729
 20
-138.3409097961439
 10
87.68336450715903
 20
-138.3409097961439
 10
87.85682506484136
 20
-138.3367756815616
 10
87.98170977618166
 20
-138.328507452397
 10
87.98170977618166
 20
-138.328507452397
 10
87.98170977618166
 20
-138.5083414367271
 10
87.98170977618166
 20
-138.5083414367271
 10
87.95208195500851
 20
-138.5059298698874
 10
87.83357067031592
 20
-138.5017957553051
 10
87.79343530791276
 20
-138.499728698014
 10
87.77862139732618
 20
-138.5503716016471
 10
87.74485946157074
 20
-138.6626817144663
 10
87.67923039257673
 20
-138.8022080816189
 10
87.72143281227103
 20
-138.8022080816189
 10
87.99859074405938
 20
-138.78326005645
 10
88.05991344369683
 20
-138.7811929991589
 10
88.05991344369683
 20
-138.7811929991589
 10
88.05991344369683
 20
-138.9651610980712
 10
88.05991344369683
 20
-138.9651610980712
 10
88.03045787729795
 20
-138.9651610980712
 10
88.01340465464595
 20
-138.9610269834889
 10
87.8506238929679
 20
-138.9610269834889
 97
        0
 97
        0
 92
        1
 93
        1
 72
     4
 94
        3
 73
     0
 74
     1
 95
       20
 96
       16
 40
0.0
 40
0.0
 40
0.0
 40
0.0
 40
1.0
 40
1.0
 40
1.0
 40
2.0
 40
2.0
 40
2.0
 40
3.0
 40
3.0
 40
3.0
 40
4.0
 40
4.0
 40
4.0
 40
5.0
 40
5.0
 40
5.0
 40
5.0
 10
87.22223847645833
 20
-138.4955945834317
 10
87.22223847645833
 20
-138.4955945834317
 10
87.19054359799404
 20
-138.4955945834317
 10
87.19054359799404
 20
-138.4955945834317
 10
87.23705238704491
 20
-138.5948133334068
 10
87.2687472655092
 20
-138.6754285677617
 10
87.30268145603891
 20
-138.8022080816189
 10
87.30268145603891
 20
-138.8022080816189
 10
87.5099039494767
 20
-138.8022080816189
 10
87.5099039494767
 20
-138.8022080816189
 10
87.54177108271526
 20
-138.7091905035172
 10
87.5650254772407
 20
-138.62444115458
 10
87.58827987176613
 20
-138.4955945834317
 10
87.58827987176613
 20
-138.4955945834317
 10
87.22223847645833
 20
-138.4955945834317
 10
87.22223847645833
 20
-138.4955945834317
 97
        0
 97
        0
 92
        1
 93
        1
 72
     4
 94
        3
 73
     0
 74
     1
 95
       17
 96
       13
 40
0.0
 40
0.0
 40
0.0
 40
0.0
 40
1.0
 40
1.0
 40
1.0
 40
2.0
 40
2.0
 40
2.0
 40
3.0
 40
3.0
 40
3.0
 40
4.0
 40
4.0
 40
4.0
 40
4.0
 10
87.28580048816119
 20
-139.3458441491913
 10
87.2687472655092
 20
-139.3754719703645
 10
87.21810436187603
 20
-139.4684895484662
 10
87.20742456587176
 20
-139.4877820831836
 10
87.39776609143182
 20
-139.5470377255299
 10
87.4189534286661
 20
-139.5532388974034
 10
87.49095592430783
 20
-139.5807996612854
 10
87.54590519729756
 20
-139.4939832550571
 10
87.569159591823
 20
-139.4199137021242
 10
87.58397350240956
 20
-139.3458441491913
 10
87.58397350240956
 20
-139.3458441491913
 10
87.28580048816119
 20
-139.3458441491913
 10
87.28580048816119
 20
-139.3458441491913
 97
        0
 97
        0
 75
     2
 76
     1
 98
        0
  0
SPLINE
  5
106
330
FE
100
AcDbEntity
  8
_U+30EC_U+30A4_U+30E4_U+30FC 1
370
     0
100
AcDbSpline
210
0.0
220
0.0
230
1.0
 70
    11
 71
     3
 72
   203
 73
   199
 74
     0
 42
0.0000000001
 43
0.0000000001
 12
1.0
 22
0.0
 32
0.0
 13
1.0
 23
0.0
 33
0.0
 40
0.0
 40
0.0
 40
0.0
 40
0.0
 40
1.0
 40
1.0
 40
1.0
 40
2.0
 40
2.0
 40
2.0
 40
3.0
 40
3.0
 40
3.0
 40
4.0
 40
4.0
 40
4.0
 40
5.0
 40
5.0
 40
5.0
 40
6.0
 40
6.0
 40
6.0
 40
7.0
 40
7.0
 40
7.0
 40
8.0
 40
8.0
 40
8.0
 40
9.0
 40
9.0
 40
9.0
 40
10.0
 40
10.0
 40
10.0
 40
11.0
 40
11.0
 40
11.0
 40
12.0
 40
12.0
 40
12.0
 40
13.0
 40
13.0
 40
13.0
 40
14.0
 40
14.0
 40
14.0
 40
15.0
 40
15.0
 40
15.0
 40
16.0
 40
16.0
 40
16.0
 40
17.0
 40
17.0
 40
17.0
 40
18.0
 40
18.0
 40
18.0
 40
19.0
 40
19.0
 40
19.0
 40
20.0
 40
20.0
 40
20.0
 40
21.0
 40
21.0
 40
21.0
 40
22.0
 40
22.0
 40
22.0
 40
23.0
 40
23.0
 40
23.0
 40
24.0
 40
24.0
 40
24.0
 40
25.0
 40
25.0
 40
25.0
 40
26.0
 40
26.0
 40
26.0
 40
27.0
 40
27.0
 40
27.0
 40
28.0
 40
28.0
 40
28.0
 40
29.0
 40
29.0
 40
29.0
 40
30.0
 40
30.0
 40
30.0
 40
31.0
 40
31.0
 40
31.0
 40
32.0
 40
32.0
 40
32.0
 40
33.0
 40
33.0
 40
33.0
 40
34.0
 40
34.0
 40
34.0
 40
35.0
 40
35.0
 40
35.0
 40
36.0
 40
36.0
 40
36.0
 40
37.0
 40
37.0
 40
37.0
 40
38.0
 40
38.0
 40
38.0
 40
39.0
 40
39.0
 40
39.0
 40
40.0
 40
40.0
 40
40.0
 40
41.0
 40
41.0
 40
41.0
 40
42.0
 40
42.0
 40
42.0
 40
43.0
 40
43.0
 40
43.0
 40
44.0
 40
44.0
 40
44.0
 40
45.0
 40
45.0
 40
45.0
 40
46.0
 40
46.0
 40
46.0
 40
47.0
 40
47.0
 40
47.0
 40
48.0
 40
48.0
 40
48.0
 40
49.0
 40
49.0
 40
49.0
 40
50.0
 40
50.0
 40
50.0
 40
51.0
 40
51.0
 40
51.0
 40
52.0
 40
52.0
 40
52.0
 40
53.0
 40
53.0
 40
53.0
 40
54.0
 40
54.0
 40
54.0
 40
55.0
 40
55.0
 40
55.0
 40
56.0
 40
56.0
 40
56.0
 40
57.0
 40
57.0
 40
57.0
 40
58.0
 40
58.0
 40
58.0
 40
59.0
 40
59.0
 40
59.0
 40
60.0
 40
60.0
 40
60.0
 40
61.0
 40
61.0
 40
61.0
 40
62.0
 40
62.0
 40
62.0
 40
63.0
 40
63.0
 40
63.0
 40
64.0
 40
64.0
 40
64.0
 40
65.0
 40
65.0
 40
65.0
 40
66.0
 40
66.0
 40
66.0
 40
66.0
 10
89.54199352145132
 20
-139.0285508549998
 30
0.0
 10
89.54199352145132
 20
-139.0285508549998
 30
0.0
 10
88.98354354329231
 20
-139.0285508549998
 30
0.0
 10
88.98354354329231
 20
-139.0285508549998
 30
0.0
 10
88.97286374728805
 20
-139.0729925867595
 30
0.0
 10
88.96442326334918
 20
-139.1046874652238
 30
0.0
 10
88.95184866482802
 20
-139.1429280251101
 30
0.0
 10
88.9771701166446
 20
-139.1429280251101
 30
0.0
 10
88.99198402723117
 20
-139.1449950824013
 30
0.0
 10
88.99835745387888
 20
-139.1449950824013
 30
0.0
 10
88.99835745387888
 20
-139.1449950824013
 30
0.0
 10
89.1866319221478
 20
-139.1449950824013
 30
0.0
 10
89.1866319221478
 20
-139.1449950824013
 30
0.0
 10
89.1866319221478
 20
-139.1449950824013
 30
0.0
 10
89.56111380139444
 20
-139.1449950824013
 30
0.0
 10
89.56111380139444
 20
-139.1449950824013
 30
0.0
 10
89.61175670502762
 20
-139.1449950824013
 30
0.0
 10
89.89528806346368
 20
-139.1322482291058
 30
0.0
 10
89.92698294192797
 20
-139.1322482291058
 30
0.0
 10
89.92491588463683
 20
-139.1598089929878
 30
0.0
 10
89.92284882734567
 20
-139.1787570181567
 30
0.0
 10
89.92284882734567
 20
-139.2083848393299
 30
0.0
 10
89.92060951528026
 20
-139.2400797177941
 30
0.0
 10
89.92060951528026
 20
-139.3754719703645
 30
0.0
 10
89.92060951528026
 20
-139.4030327342465
 30
0.0
 10
89.92060951528026
 20
-139.4030327342465
 30
0.0
 10
89.92060951528026
 20
-139.6483235327963
 30
0.0
 10
89.92060951528026
 20
-139.6483235327963
 30
0.0
 10
89.92060951528026
 20
-139.692765264556
 30
0.0
 10
89.92491588463683
 20
-139.8894802167638
 30
0.0
 10
89.92922225399339
 20
-140.0420979467603
 30
0.0
 10
89.92922225399339
 20
-140.0420979467603
 30
0.0
 10
89.70270722583821
 20
-140.0420979467603
 30
0.0
 10
89.70270722583821
 20
-140.0420979467603
 30
0.0
 10
89.70270722583821
 20
-140.0420979467603
 30
0.0
 10
89.70494653790362
 20
-140.0079915014563
 30
0.0
 10
89.70494653790362
 20
-140.0079915014563
 30
0.0
 10
89.70494653790362
 20
-140.0079915014563
 30
0.0
 10
89.00249156846118
 20
-140.0079915014563
 30
0.0
 10
89.00249156846118
 20
-140.0079915014563
 30
0.0
 10
89.00249156846118
 20
-140.0079915014563
 30
0.0
 10
89.0047308805266
 20
-140.0420979467603
 30
0.0
 10
89.0047308805266
 20
-140.0420979467603
 30
0.0
 10
89.0047308805266
 20
-140.0420979467603
 30
0.0
 10
88.78682859108454
 20
-140.0420979467603
 30
0.0
 10
88.78682859108454
 20
-140.0420979467603
 30
0.0
 10
88.79096270566684
 20
-139.9869764189963
 30
0.0
 10
88.79096270566684
 20
-139.9742295657009
 30
0.0
 10
88.79733613231456
 20
-139.8598523955906
 30
0.0
 10
88.79940318960571
 20
-139.8326361412571
 30
0.0
 10
88.80164250167113
 20
-139.699310945978
 30
0.0
 10
88.80164250167113
 20
-139.6800184112606
 30
0.0
 10
88.80164250167113
 20
-139.6800184112606
 30
0.0
 10
88.80164250167113
 20
-139.4771022871793
 30
0.0
 10
88.80164250167113
 20
-139.4771022871793
 30
0.0
 10
88.66194387974424
 20
-139.7268717098599
 30
0.0
 10
88.49278969141848
 20
-139.8577853382994
 30
0.0
 10
88.3870252600213
 20
-139.9235866620677
 30
0.0
 10
88.3870252600213
 20
-139.9235866620677
 30
0.0
 10
88.21339244756471
 20
-139.7837157853666
 30
0.0
 10
88.21339244756471
 20
-139.7837157853666
 30
0.0
 10
88.30227591108415
 20
-139.7330728817334
 30
0.0
 10
88.44610864759333
 20
-139.6462564755051
 30
0.0
 10
88.58374021222907
 20
-139.4516085805885
 30
0.0
 10
88.67469073303967
 20
-139.3248290667313
 30
0.0
 10
88.74014754725941
 20
-139.1808240754478
 30
0.0
 10
88.77408173778912
 20
-139.0285508549998
 30
0.0
 10
88.54567190711705
 20
-139.0306179122909
 30
0.0
 10
88.36583792278702
 20
-139.0371635937129
 30
0.0
 10
88.27058103261986
 20
-139.0392306510041
 30
0.0
 10
88.27058103261986
 20
-139.0392306510041
 30
0.0
 10
88.27058103261986
 20
-138.8614637239652
 30
0.0
 10
88.27058103261986
 20
-138.8614637239652
 30
0.0
 10
88.46729598482763
 20
-138.8676648958387
 30
0.0
 10
88.75082734326368
 20
-138.8721435199695
 30
0.0
 10
88.90103350642057
 20
-138.8721435199695
 30
0.0
 10
88.90103350642057
 20
-138.8721435199695
 30
0.0
 10
89.11462942650607
 20
-138.8721435199695
 30
0.0
 10
89.11462942650607
 20
-138.8721435199695
 30
0.0
 10
89.11462942650607
 20
-138.8721435199695
 30
0.0
 10
89.11462942650607
 20
-138.7643120312812
 30
0.0
 10
89.11462942650607
 20
-138.7643120312812
 30
0.0
 10
89.11462942650607
 20
-138.7643120312812
 30
0.0
 10
88.96872963270575
 20
-138.7643120312812
 30
0.0
 10
88.96872963270575
 20
-138.7643120312812
 30
0.0
 10
88.79940318960571
 20
-138.7643120312812
 30
0.0
 10
88.63024900127994
 20
-138.7684461458635
 30
0.0
 10
88.46316187024533
 20
-138.7746473177369
 30
0.0
 10
88.46316187024533
 20
-138.7746473177369
 30
0.0
 10
88.46316187024533
 20
-138.60342607212
 30
0.0
 10
88.46316187024533
 20
-138.60342607212
 30
0.0
 10
88.61750214798452
 20
-138.6141058681243
 30
0.0
 10
88.80370955896227
 20
-138.6141058681243
 30
0.0
 10
88.96872963270575
 20
-138.6141058681243
 30
0.0
 10
88.96872963270575
 20
-138.6141058681243
 30
0.0
 10
89.11462942650607
 20
-138.6141058681243
 30
0.0
 10
89.11462942650607
 20
-138.6141058681243
 30
0.0
 10
89.11462942650607
 20
-138.6141058681243
 30
0.0
 10
89.11462942650607
 20
-138.4955945834317
 30
0.0
 10
89.11462942650607
 20
-138.4955945834317
 30
0.0
 10
89.11462942650607
 20
-138.4955945834317
 30
0.0
 10
88.98354354329231
 20
-138.4955945834317
 30
0.0
 10
88.98354354329231
 20
-138.4955945834317
 30
0.0
 10
88.93703475424144
 20
-138.4955945834317
 30
0.0
 10
88.73394637538597
 20
-138.5038628125963
 30
0.0
 10
88.6915717009174
 20
-138.5038628125963
 30
0.0
 10
88.48848332206191
 20
-138.5083414367271
 30
0.0
 10
88.41234671183788
 20
-138.5104084940182
 30
0.0
 10
88.33397078954846
 20
-138.5124755513094
 30
0.0
 10
88.33397078954846
 20
-138.5124755513094
 30
0.0
 10
88.33397078954846
 20
-138.328507452397
 30
0.0
 10
88.33397078954846
 20
-138.328507452397
 30
0.0
 10
88.44834795965875
 20
-138.3367756815616
 30
0.0
 10
88.49278969141848
 20
-138.3367756815616
 30
0.0
 10
88.87553979982972
 20
-138.3453884202748
 30
0.0
 10
88.81215004290114
 20
-138.2499592753333
 30
0.0
 10
88.78458927901913
 20
-138.2227430209999
 30
0.0
 10
88.74876028597254
 20
-138.1865695184048
 30
0.0
 10
88.74876028597254
 20
-138.1865695184048
 30
0.0
 10
88.92428790094601
 20
-138.1042317363073
 30
0.0
 10
88.92428790094601
 20
-138.1042317363073
 30
0.0
 10
88.96442326334918
 20
-138.1400607293539
 30
0.0
 10
89.0088649951089
 20
-138.1824354038225
 30
0.0
 10
89.08293454804178
 20
-138.2923339498019
 30
0.0
 10
89.08293454804178
 20
-138.2923339498019
 30
0.0
 10
88.96872963270575
 20
-138.3474554775659
 30
0.0
 10
88.96872963270575
 20
-138.3474554775659
 30
0.0
 10
88.96872963270575
 20
-138.3474554775659
 30
0.0
 10
88.97923717393574
 20
-138.3474554775659
 30
0.0
 10
88.97923717393574
 20
-138.3474554775659
 30
0.0
 10
88.97923717393574
 20
-138.3474554775659
 30
0.0
 10
89.50185815904815
 20
-138.3474554775659
 30
0.0
 10
89.50185815904815
 20
-138.3474554775659
 30
0.0
 10
89.50185815904815
 20
-138.3474554775659
 30
0.0
 10
89.40660126888099
 20
-138.3030137458062
 30
0.0
 10
89.40660126888099
 20
-138.3030137458062
 30
0.0
 10
89.434162032763
 20
-138.2647731859199
 30
0.0
 10
89.49117836304387
 20
-138.1845024611136
 30
0.0
 10
89.50599227363045
 20
-138.1104329081807
 30
0.0
 10
89.50599227363045
 20
-138.1104329081807
 30
0.0
 10
89.7197604484902
 20
-138.1738226651093
 30
0.0
 10
89.7197604484902
 20
-138.1738226651093
 30
0.0
 10
89.72820093242906
 20
-138.176234231949
 30
0.0
 10
89.74938826966336
 20
-138.1865695184048
 30
0.0
 10
89.74938826966336
 20
-138.2079291104133
 30
0.0
 10
89.74938826966336
 20
-138.2458251607511
 30
0.0
 10
89.68375920066934
 20
-138.2458251607511
 30
0.0
 10
89.6646389207262
 20
-138.2458251607511
 30
0.0
 10
89.65413137949619
 20
-138.2647731859199
 30
0.0
 10
89.63087698497075
 20
-138.3050808030974
 30
0.0
 10
89.6012491637976
 20
-138.3453884202748
 30
0.0
 10
90.00105249486086
 20
-138.3388427388528
 30
0.0
 10
90.030680316034
 20
-138.3367756815616
 30
0.0
 10
90.10681692625802
 20
-138.3305745096882
 30
0.0
 10
90.10681692625802
 20
-138.3305745096882
 30
0.0
 10
90.10681692625802
 20
-138.5124755513094
 30
0.0
 10
90.10681692625802
 20
-138.5124755513094
 30
0.0
 10
90.08786890108915
 20
-138.5124755513094
 30
0.0
 10
90.0623751944983
 20
-138.5104084940182
 30
0.0
 10
89.8424058477651
 20
-138.5017957553051
 30
0.0
 10
89.79159068935766
 20
-138.499728698014
 30
0.0
 10
89.57162134262445
 20
-138.4955945834317
 30
0.0
 10
89.52717961086474
 20
-138.4955945834317
 30
0.0
 10
89.52717961086474
 20
-138.4955945834317
 30
0.0
 10
89.31134437871384
 20
-138.4955945834317
 30
0.0
 10
89.31134437871384
 20
-138.4955945834317
 30
0.0
 10
89.31134437871384
 20
-138.4955945834317
 30
0.0
 10
89.31134437871384
 20
-138.6141058681243
 30
0.0
 10
89.31134437871384
 20
-138.6141058681243
 30
0.0
 10
89.31134437871384
 20
-138.6141058681243
 30
0.0
 10
89.48497719117043
 20
-138.6141058681243
 30
0.0
 10
89.48497719117043
 20
-138.6141058681243
 30
0.0
 10
89.64775795284848
 20
-138.6141058681243
 30
0.0
 10
89.83809947840854
 20
-138.6141058681243
 30
0.0
 10
89.99467906821315
 20
-138.60342607212
 30
0.0
 10
89.99467906821315
 20
-138.60342607212
 30
0.0
 10
89.99467906821315
 20
-138.7746473177369
 30
0.0
 10
89.99467906821315
 20
-138.7746473177369
 30
0.0
 10
89.78521726270995
 20
-138.7663790885723
 30
0.0
 10
89.58850231050218
 20
-138.7643120312812
 30
0.0
 10
89.48497719117043
 20
-138.7643120312812
 30
0.0
 10
89.48497719117043
 20
-138.7643120312812
 30
0.0
 10
89.31134437871384
 20
-138.7643120312812
 30
0.0
 10
89.31134437871384
 20
-138.7643120312812
 30
0.0
 10
89.31134437871384
 20
-138.7643120312812
 30
0.0
 10
89.31134437871384
 20
-138.8721435199695
 30
0.0
 10
89.31134437871384
 20
-138.8721435199695
 30
0.0
 10
89.31134437871384
 20
-138.8721435199695
 30
0.0
 10
89.54199352145132
 20
-138.8721435199695
 30
0.0
 10
89.54199352145132
 20
-138.8721435199695
 30
0.0
 10
89.67531871673047
 20
-138.8721435199695
 30
0.0
 10
89.96298418974884
 20
-138.8676648958387
 30
0.0
 10
90.17244599525203
 20
-138.8614637239652
 30
0.0
 10
90.17244599525203
 20
-138.8614637239652
 30
0.0
 10
90.17244599525203
 20
-139.0392306510041
 30
0.0
 10
90.17244599525203
 20
-139.0392306510041
 30
0.0
 10
89.97986515762656
 20
-139.0326849695821
 30
0.0
 10
89.66687823279162
 20
-139.0285508549998
 30
0.0
 10
89.54199352145132
 20
-139.0285508549998
 30
0.0
  0
POLYLINE
  5
107
330
FE
100
AcDbEntity
  8
_U+30EC_U+30A4_U+30E4_U+30FC 1
370
     0
100
AcDb2dPolyline
 66
     1
 10
0.0
 20
0.0
 30
0.0
  0
VERTEX
  5
108
330
107
100
AcDbEntity
  8
_U+30EC_U+30A4_U+30E4_U+30FC 1
370
     0
100
AcDbVertex
100
AcDb2dVertex
 10
89.70701359519478
 20
-139.2845214495539
 30
0.0
  0
VERTEX
  5
109
330
107
100
AcDbEntity
  8
_U+30EC_U+30A4_U+30E4_U+30FC 1
370
     0
100
AcDbVertex
100
AcDb2dVertex
 10
89.00042451117004
 20
-139.2845214495539
 30
0.0
  0
VERTEX
  5
10A
330
107
100
AcDbEntity
  8
_U+30EC_U+30A4_U+30E4_U+30FC 1
370
     0
100
AcDbVertex
100
AcDb2dVertex
 10
89.00042451117004
 20
-139.3923529382422
 30
0.0
  0
VERTEX
  5
10B
330
107
100
AcDbEntity
  8
_U+30EC_U+30A4_U+30E4_U+30FC 1
370
     0
100
AcDbVertex
100
AcDb2dVertex
 10
89.70701359519478
 20
-139.3923529382422
 30
0.0
  0
VERTEX
  5
10C
330
107
100
AcDbEntity
  8
_U+30EC_U+30A4_U+30E4_U+30FC 1
370
     0
100
AcDbVertex
100
AcDb2dVertex
 10
89.70701359519478
 20
-139.2845214495539
 30
0.0
  0
SEQEND
  5
10D
330
107
100
AcDbEntity
  8
_U+30EC_U+30A4_U+30E4_U+30FC 1
370
     0
  0
POLYLINE
  5
10E
330
FE
100
AcDbEntity
  8
_U+30EC_U+30A4_U+30E4_U+30FC 1
370
     0
100
AcDb2dPolyline
 66
     1
 10
0.0
 20
0.0
 30
0.0
  0
VERTEX
  5
10F
330
10E
100
AcDbEntity
  8
_U+30EC_U+30A4_U+30E4_U+30FC 1
370
     0
100
AcDbVertex
100
AcDb2dVertex
 10
89.70701359519478
 20
-139.5174099043568
 30
0.0
  0
VERTEX
  5
110
330
10E
100
AcDbEntity
  8
_U+30EC_U+30A4_U+30E4_U+30FC 1
370
     0
100
AcDbVertex
100
AcDb2dVertex
 10
89.00042451117004
 20
-139.5174099043568
 30
0.0
  0
VERTEX
  5
111
330
10E
100
AcDbEntity
  8
_U+30EC_U+30A4_U+30E4_U+30FC 1
370
     0
100
AcDbVertex
100
AcDb2dVertex
 10
89.00042451117004
 20
-139.6314425649185
 30
0.0
  0
VERTEX
  5
112
330
10E
100
AcDbEntity
  8
_U+30EC_U+30A4_U+30E4_U+30FC 1
370
     0
100
AcDbVertex
100
AcDb2dVertex
 10
89.70701359519478
 20
-139.6314425649185
 30
0.0
  0
VERTEX
  5
113
330
10E
100
AcDbEntity
  8
_U+30EC_U+30A4_U+30E4_U+30FC 1
370
     0
100
AcDbVertex
100
AcDb2dVertex
 10
89.70701359519478
 20
-139.5174099043568
 30
0.0
  0
SEQEND
  5
114
330
10E
100
AcDbEntity
  8
_U+30EC_U+30A4_U+30E4_U+30FC 1
370
     0
  0
POLYLINE
  5
115
330
FE
100
AcDbEntity
  8
_U+30EC_U+30A4_U+30E4_U+30FC 1
370
     0
100
AcDb2dPolyline
 66
     1
 10
0.0
 20
0.0
 30
0.0
  0
VERTEX
  5
116
330
115
100
AcDbEntity
  8
_U+30EC_U+30A4_U+30E4_U+30FC 1
370
     0
100
AcDbVertex
100
AcDb2dVertex
 10
89.70701359519478
 20
-139.7606336456154
 30
0.0
  0
VERTEX
  5
117
330
115
100
AcDbEntity
  8
_U+30EC_U+30A4_U+30E4_U+30FC 1
370
     0
100
AcDbVertex
100
AcDb2dVertex
 10
89.00042451117004
 20
-139.7606336456154
 30
0.0
  0
VERTEX
  5
118
330
115
100
AcDbEntity
  8
_U+30EC_U+30A4_U+30E4_U+30FC 1
370
     0
100
AcDbVertex
100
AcDb2dVertex
 10
89.00042451117004
 20
-139.8746663061772
 30
0.0
  0
VERTEX
  5
119
330
115
100
AcDbEntity
  8
_U+30EC_U+30A4_U+30E4_U+30FC 1
370
     0
100
AcDbVertex
100
AcDb2dVertex
 10
89.70701359519478
 20
-139.8746663061772
 30
0.0
  0
VERTEX
  5
11A
330
115
100
AcDbEntity
  8
_U+30EC_U+30A4_U+30E4_U+30FC 1
370
     0
100
AcDbVertex
100
AcDb2dVertex
 10
89.70701359519478
 20
-139.7606336456154
 30
0.0
  0
SEQEND
  5
11B
330
115
100
AcDbEntity
  8
_U+30EC_U+30A4_U+30E4_U+30FC 1
370
     0
  0
HATCH
  5
11C
330
FE
100
AcDbEntity
  8
_U+30EC_U+30A4_U+30E4_U+30FC 1
 62
   179
420
  2234388
100
AcDbHatch
 10
0.0
 20
0.0
 30
0.0
210
0.0
220
0.0
230
1.0
  2
SOLID
 70
     1
 71
     0
 91
        4
 92
        1
 93
        1
 72
     4
 94
        3
 73
     0
 74
     1
 95
      203
 96
      199
 40
0.0
 40
0.0
 40
0.0
 40
0.0
 40
1.0
 40
1.0
 40
1.0
 40
2.0
 40
2.0
 40
2.0
 40
3.0
 40
3.0
 40
3.0
 40
4.0
 40
4.0
 40
4.0
 40
5.0
 40
5.0
 40
5.0
 40
6.0
 40
6.0
 40
6.0
 40
7.0
 40
7.0
 40
7.0
 40
8.0
 40
8.0
 40
8.0
 40
9.0
 40
9.0
 40
9.0
 40
10.0
 40
10.0
 40
10.0
 40
11.0
 40
11.0
 40
11.0
 40
12.0
 40
12.0
 40
12.0
 40
13.0
 40
13.0
 40
13.0
 40
14.0
 40
14.0
 40
14.0
 40
15.0
 40
15.0
 40
15.0
 40
16.0
 40
16.0
 40
16.0
 40
17.0
 40
17.0
 40
17.0
 40
18.0
 40
18.0
 40
18.0
 40
19.0
 40
19.0
 40
19.0
 40
20.0
 40
20.0
 40
20.0
 40
21.0
 40
21.0
 40
21.0
 40
22.0
 40
22.0
 40
22.0
 40
23.0
 40
23.0
 40
23.0
 40
24.0
 40
24.0
 40
24.0
 40
25.0
 40
25.0
 40
25.0
 40
26.0
 40
26.0
 40
26.0
 40
27.0
 40
27.0
 40
27.0
 40
28.0
 40
28.0
 40
28.0
 40
29.0
 40
29.0
 40
29.0
 40
30.0
 40
30.0
 40
30.0
 40
31.0
 40
31.0
 40
31.0
 40
32.0
 40
32.0
 40
32.0
 40
33.0
 40
33.0
 40
33.0
 40
34.0
 40
34.0
 40
34.0
 40
35.0
 40
35.0
 40
35.0
 40
36.0
 40
36.0
 40
36.0
 40
37.0
 40
37.0
 40
37.0
 40
38.0
 40
38.0
 40
38.0
 40
39.0
 40
39.0
 40
39.0
 40
40.0
 40
40.0
 40
40.0
 40
41.0
 40
41.0
 40
41.0
 40
42.0
 40
42.0
 40
42.0
 40
43.0
 40
43.0
 40
43.0
 40
44.0
 40
44.0
 40
44.0
 40
45.0
 40
45.0
 40
45.0
 40
46.0
 40
46.0
 40
46.0
 40
47.0
 40
47.0
 40
47.0
 40
48.0
 40
48.0
 40
48.0
 40
49.0
 40
49.0
 40
49.0
 40
50.0
 40
50.0
 40
50.0
 40
51.0
 40
51.0
 40
51.0
 40
52.0
 40
52.0
 40
52.0
 40
53.0
 40
53.0
 40
53.0
 40
54.0
 40
54.0
 40
54.0
 40
55.0
 40
55.0
 40
55.0
 40
56.0
 40
56.0
 40
56.0
 40
57.0
 40
57.0
 40
57.0
 40
58.0
 40
58.0
 40
58.0
 40
59.0
 40
59.0
 40
59.0
 40
60.0
 40
60.0
 40
60.0
 40
61.0
 40
61.0
 40
61.0
 40
62.0
 40
62.0
 40
62.0
 40
63.0
 40
63.0
 40
63.0
 40
64.0
 40
64.0
 40
64.0
 40
65.0
 40
65.0
 40
65.0
 40
66.0
 40
66.0
 40
66.0
 40
66.0
 10
89.54199352145132
 20
-139.0285508549998
 10
89.54199352145132
 20
-139.0285508549998
 10
88.98354354329231
 20
-139.0285508549998
 10
88.98354354329231
 20
-139.0285508549998
 10
88.97286374728805
 20
-139.0729925867595
 10
88.96442326334918
 20
-139.1046874652238
 10
88.95184866482802
 20
-139.1429280251101
 10
88.9771701166446
 20
-139.1429280251101
 10
88.99198402723117
 20
-139.1449950824013
 10
88.99835745387888
 20
-139.1449950824013
 10
88.99835745387888
 20
-139.1449950824013
 10
89.1866319221478
 20
-139.1449950824013
 10
89.1866319221478
 20
-139.1449950824013
 10
89.1866319221478
 20
-139.1449950824013
 10
89.56111380139444
 20
-139.1449950824013
 10
89.56111380139444
 20
-139.1449950824013
 10
89.61175670502762
 20
-139.1449950824013
 10
89.89528806346368
 20
-139.1322482291058
 10
89.92698294192797
 20
-139.1322482291058
 10
89.92491588463683
 20
-139.1598089929878
 10
89.92284882734567
 20
-139.1787570181567
 10
89.92284882734567
 20
-139.2083848393299
 10
89.92060951528026
 20
-139.2400797177941
 10
89.92060951528026
 20
-139.3754719703645
 10
89.92060951528026
 20
-139.4030327342465
 10
89.92060951528026
 20
-139.4030327342465
 10
89.92060951528026
 20
-139.6483235327963
 10
89.92060951528026
 20
-139.6483235327963
 10
89.92060951528026
 20
-139.692765264556
 10
89.92491588463683
 20
-139.8894802167638
 10
89.92922225399339
 20
-140.0420979467603
 10
89.92922225399339
 20
-140.0420979467603
 10
89.70270722583821
 20
-140.0420979467603
 10
89.70270722583821
 20
-140.0420979467603
 10
89.70270722583821
 20
-140.0420979467603
 10
89.70494653790362
 20
-140.0079915014563
 10
89.70494653790362
 20
-140.0079915014563
 10
89.70494653790362
 20
-140.0079915014563
 10
89.00249156846118
 20
-140.0079915014563
 10
89.00249156846118
 20
-140.0079915014563
 10
89.00249156846118
 20
-140.0079915014563
 10
89.0047308805266
 20
-140.0420979467603
 10
89.0047308805266
 20
-140.0420979467603
 10
89.0047308805266
 20
-140.0420979467603
 10
88.78682859108454
 20
-140.0420979467603
 10
88.78682859108454
 20
-140.0420979467603
 10
88.79096270566684
 20
-139.9869764189963
 10
88.79096270566684
 20
-139.9742295657009
 10
88.79733613231456
 20
-139.8598523955906
 10
88.79940318960571
 20
-139.8326361412571
 10
88.80164250167113
 20
-139.699310945978
 10
88.80164250167113
 20
-139.6800184112606
 10
88.80164250167113
 20
-139.6800184112606
 10
88.80164250167113
 20
-139.4771022871793
 10
88.80164250167113
 20
-139.4771022871793
 10
88.66194387974424
 20
-139.7268717098599
 10
88.49278969141848
 20
-139.8577853382994
 10
88.3870252600213
 20
-139.9235866620677
 10
88.3870252600213
 20
-139.9235866620677
 10
88.21339244756471
 20
-139.7837157853666
 10
88.21339244756471
 20
-139.7837157853666
 10
88.30227591108415
 20
-139.7330728817334
 10
88.44610864759333
 20
-139.6462564755051
 10
88.58374021222907
 20
-139.4516085805885
 10
88.67469073303967
 20
-139.3248290667313
 10
88.74014754725941
 20
-139.1808240754478
 10
88.77408173778912
 20
-139.0285508549998
 10
88.54567190711705
 20
-139.0306179122909
 10
88.36583792278702
 20
-139.0371635937129
 10
88.27058103261986
 20
-139.0392306510041
 10
88.27058103261986
 20
-139.0392306510041
 10
88.27058103261986
 20
-138.8614637239652
 10
88.27058103261986
 20
-138.8614637239652
 10
88.46729598482763
 20
-138.8676648958387
 10
88.75082734326368
 20
-138.8721435199695
 10
88.90103350642057
 20
-138.8721435199695
 10
88.90103350642057
 20
-138.8721435199695
 10
89.11462942650607
 20
-138.8721435199695
 10
89.11462942650607
 20
-138.8721435199695
 10
89.11462942650607
 20
-138.8721435199695
 10
89.11462942650607
 20
-138.7643120312812
 10
89.11462942650607
 20
-138.7643120312812
 10
89.11462942650607
 20
-138.7643120312812
 10
88.96872963270575
 20
-138.7643120312812
 10
88.96872963270575
 20
-138.7643120312812
 10
88.79940318960571
 20
-138.7643120312812
 10
88.63024900127994
 20
-138.7684461458635
 10
88.46316187024533
 20
-138.7746473177369
 10
88.46316187024533
 20
-138.7746473177369
 10
88.46316187024533
 20
-138.60342607212
 10
88.46316187024533
 20
-138.60342607212
 10
88.61750214798452
 20
-138.6141058681243
 10
88.80370955896227
 20
-138.6141058681243
 10
88.96872963270575
 20
-138.6141058681243
 10
88.96872963270575
 20
-138.6141058681243
 10
89.11462942650607
 20
-138.6141058681243
 10
89.11462942650607
 20
-138.6141058681243
 10
89.11462942650607
 20
-138.6141058681243
 10
89.11462942650607
 20
-138.4955945834317
 10
89.11462942650607
 20
-138.4955945834317
 10
89.11462942650607
 20
-138.4955945834317
 10
88.98354354329231
 20
-138.4955945834317
 10
88.98354354329231
 20
-138.4955945834317
 10
88.93703475424144
 20
-138.4955945834317
 10
88.73394637538597
 20
-138.5038628125963
 10
88.6915717009174
 20
-138.5038628125963
 10
88.48848332206191
 20
-138.5083414367271
 10
88.41234671183788
 20
-138.5104084940182
 10
88.33397078954846
 20
-138.5124755513094
 10
88.33397078954846
 20
-138.5124755513094
 10
88.33397078954846
 20
-138.328507452397
 10
88.33397078954846
 20
-138.328507452397
 10
88.44834795965875
 20
-138.3367756815616
 10
88.49278969141848
 20
-138.3367756815616
 10
88.87553979982972
 20
-138.3453884202748
 10
88.81215004290114
 20
-138.2499592753333
 10
88.78458927901913
 20
-138.2227430209999
 10
88.74876028597254
 20
-138.1865695184048
 10
88.74876028597254
 20
-138.1865695184048
 10
88.92428790094601
 20
-138.1042317363073
 10
88.92428790094601
 20
-138.1042317363073
 10
88.96442326334918
 20
-138.1400607293539
 10
89.0088649951089
 20
-138.1824354038225
 10
89.08293454804178
 20
-138.2923339498019
 10
89.08293454804178
 20
-138.2923339498019
 10
88.96872963270575
 20
-138.3474554775659
 10
88.96872963270575
 20
-138.3474554775659
 10
88.96872963270575
 20
-138.3474554775659
 10
88.97923717393574
 20
-138.3474554775659
 10
88.97923717393574
 20
-138.3474554775659
 10
88.97923717393574
 20
-138.3474554775659
 10
89.50185815904815
 20
-138.3474554775659
 10
89.50185815904815
 20
-138.3474554775659
 10
89.50185815904815
 20
-138.3474554775659
 10
89.40660126888099
 20
-138.3030137458062
 10
89.40660126888099
 20
-138.3030137458062
 10
89.434162032763
 20
-138.2647731859199
 10
89.49117836304387
 20
-138.1845024611136
 10
89.50599227363045
 20
-138.1104329081807
 10
89.50599227363045
 20
-138.1104329081807
 10
89.7197604484902
 20
-138.1738226651093
 10
89.7197604484902
 20
-138.1738226651093
 10
89.72820093242906
 20
-138.176234231949
 10
89.74938826966336
 20
-138.1865695184048
 10
89.74938826966336
 20
-138.2079291104133
 10
89.74938826966336
 20
-138.2458251607511
 10
89.68375920066934
 20
-138.2458251607511
 10
89.6646389207262
 20
-138.2458251607511
 10
89.65413137949619
 20
-138.2647731859199
 10
89.63087698497075
 20
-138.3050808030974
 10
89.6012491637976
 20
-138.3453884202748
 10
90.00105249486086
 20
-138.3388427388528
 10
90.030680316034
 20
-138.3367756815616
 10
90.10681692625802
 20
-138.3305745096882
 10
90.10681692625802
 20
-138.3305745096882
 10
90.10681692625802
 20
-138.5124755513094
 10
90.10681692625802
 20
-138.5124755513094
 10
90.08786890108915
 20
-138.5124755513094
 10
90.0623751944983
 20
-138.5104084940182
 10
89.8424058477651
 20
-138.5017957553051
 10
89.79159068935766
 20
-138.499728698014
 10
89.57162134262445
 20
-138.4955945834317
 10
89.52717961086474
 20
-138.4955945834317
 10
89.52717961086474
 20
-138.4955945834317
 10
89.31134437871384
 20
-138.4955945834317
 10
89.31134437871384
 20
-138.4955945834317
 10
89.31134437871384
 20
-138.4955945834317
 10
89.31134437871384
 20
-138.6141058681243
 10
89.31134437871384
 20
-138.6141058681243
 10
89.31134437871384
 20
-138.6141058681243
 10
89.48497719117043
 20
-138.6141058681243
 10
89.48497719117043
 20
-138.6141058681243
 10
89.64775795284848
 20
-138.6141058681243
 10
89.83809947840854
 20
-138.6141058681243
 10
89.99467906821315
 20
-138.60342607212
 10
89.99467906821315
 20
-138.60342607212
 10
89.99467906821315
 20
-138.7746473177369
 10
89.99467906821315
 20
-138.7746473177369
 10
89.78521726270995
 20
-138.7663790885723
 10
89.58850231050218
 20
-138.7643120312812
 10
89.48497719117043
 20
-138.7643120312812
 10
89.48497719117043
 20
-138.7643120312812
 10
89.31134437871384
 20
-138.7643120312812
 10
89.31134437871384
 20
-138.7643120312812
 10
89.31134437871384
 20
-138.7643120312812
 10
89.31134437871384
 20
-138.8721435199695
 10
89.31134437871384
 20
-138.8721435199695
 10
89.31134437871384
 20
-138.8721435199695
 10
89.54199352145132
 20
-138.8721435199695
 10
89.54199352145132
 20
-138.8721435199695
 10
89.67531871673047
 20
-138.8721435199695
 10
89.96298418974884
 20
-138.8676648958387
 10
90.17244599525203
 20
-138.8614637239652
 10
90.17244599525203
 20
-138.8614637239652
 10
90.17244599525203
 20
-139.0392306510041
 10
90.17244599525203
 20
-139.0392306510041
 10
89.97986515762656
 20
-139.0326849695821
 10
89.66687823279162
 20
-139.0285508549998
 10
89.54199352145132
 20
-139.0285508549998
 97
        0
 97
        0
 92
        1
 93
        4
 72
     1
 10
89.70701359519478
 20
-139.2845214495539
 11
89.00042451117004
 21
-139.2845214495539
 72
     1
 10
89.00042451117004
 20
-139.2845214495539
 11
89.00042451117004
 21
-139.3923529382422
 72
     1
 10
89.00042451117004
 20
-139.3923529382422
 11
89.70701359519478
 21
-139.3923529382422
 72
     1
 10
89.70701359519478
 20
-139.3923529382422
 11
89.70701359519478
 21
-139.2845214495539
 97
        0
 92
        1
 93
        4
 72
     1
 10
89.70701359519478
 20
-139.5174099043568
 11
89.00042451117004
 21
-139.5174099043568
 72
     1
 10
89.00042451117004
 20
-139.5174099043568
 11
89.00042451117004
 21
-139.6314425649185
 72
     1
 10
89.00042451117004
 20
-139.6314425649185
 11
89.70701359519478
 21
-139.6314425649185
 72
     1
 10
89.70701359519478
 20
-139.6314425649185
 11
89.70701359519478
 21
-139.5174099043568
 97
        0
 92
        1
 93
        4
 72
     1
 10
89.70701359519478
 20
-139.7606336456154
 11
89.00042451117004
 21
-139.7606336456154
 72
     1
 10
89.00042451117004
 20
-139.7606336456154
 11
89.00042451117004
 21
-139.8746663061772
 72
     1
 10
89.00042451117004
 20
-139.8746663061772
 11
89.70701359519478
 21
-139.8746663061772
 72
     1
 10
89.70701359519478
 20
-139.8746663061772
 11
89.70701359519478
 21
-139.7606336456154
 97
        0
 75
     2
 76
     1
 98
        0
  0
SPLINE
  5
11D
330
FE
100
AcDbEntity
  8
_U+30EC_U+30A4_U+30E4_U+30FC 1
370
     0
100
AcDbSpline
210
0.0
220
0.0
230
1.0
 70
    11
 71
     3
 72
    47
 73
    43
 74
     0
 42
0.0000000001
 43
0.0000000001
 12
1.0
 22
0.0
 32
0.0
 13
1.0
 23
0.0
 33
0.0
 40
0.0
 40
0.0
 40
0.0
 40
0.0
 40
1.0
 40
1.0
 40
1.0
 40
2.0
 40
2.0
 40
2.0
 40
3.0
 40
3.0
 40
3.0
 40
4.0
 40
4.0
 40
4.0
 40
5.0
 40
5.0
 40
5.0
 40
6.0
 40
6.0
 40
6.0
 40
7.0
 40
7.0
 40
7.0
 40
8.0
 40
8.0
 40
8.0
 40
9.0
 40
9.0
 40
9.0
 40
10.0
 40
10.0
 40
10.0
 40
11.0
 40
11.0
 40
11.0
 40
12.0
 40
12.0
 40
12.0
 40
13.0
 40
13.0
 40
13.0
 40
14.0
 40
14.0
 40
14.0
 40
14.0
 10
91.51896156566193
 20
-139.0054687152486
 30
0.0
 10
91.51896156566193
 20
-139.0054687152486
 30
0.0
 10
91.41733124884706
 20
-139.0054687152486
 30
0.0
 10
91.41733124884706
 20
-139.0054687152486
 30
0.0
 10
91.41733124884706
 20
-139.0919406119284
 30
0.0
 10
91.39631616638704
 20
-139.4812364017616
 30
0.0
 10
91.19960121417927
 20
-139.7013780032691
 30
0.0
 10
91.04732799373123
 20
-139.8705321915949
 30
0.0
 10
90.83993324551919
 20
-139.9404676299454
 30
0.0
 10
90.75535615135631
 20
-139.9680283938274
 30
0.0
 10
90.75535615135631
 20
-139.9680283938274
 30
0.0
 10
90.56070825643968
 20
-139.8009412627928
 30
0.0
 10
90.56070825643968
 20
-139.8009412627928
 30
0.0
 10
90.658032203898
 20
-139.7881944094974
 30
0.0
 10
90.83355981887148
 20
-139.7647677601977
 30
0.0
 10
91.02183428714038
 20
-139.5766655467031
 30
0.0
 10
91.09590384007325
 20
-139.5046630510613
 30
0.0
 10
91.19960121417927
 20
-139.3651366839087
 30
0.0
 10
91.19960121417927
 20
-139.0054687152486
 30
0.0
 10
91.19960121417927
 20
-139.0054687152486
 30
0.0
 10
90.96895207144179
 20
-139.0054687152486
 30
0.0
 10
90.96895207144179
 20
-139.0054687152486
 30
0.0
 10
90.78274466046405
 20
-139.0054687152486
 30
0.0
 10
90.59670950426055
 20
-139.0096028298309
 30
0.0
 10
90.4105020932828
 20
-139.0244167404175
 30
0.0
 10
90.4105020932828
 20
-139.0244167404175
 30
0.0
 10
90.4105020932828
 20
-138.80427513891
 30
0.0
 10
90.4105020932828
 20
-138.80427513891
 30
0.0
 10
90.5987765615517
 20
-138.8190890494966
 30
0.0
 10
90.88437497727891
 20
-138.8235676736275
 30
0.0
 10
90.96895207144179
 20
-138.8235676736275
 30
0.0
 10
90.96895207144179
 20
-138.8235676736275
 30
0.0
 10
91.51896156566193
 20
-138.8235676736275
 30
0.0
 10
91.51896156566193
 20
-138.8235676736275
 30
0.0
 10
91.53790959083081
 20
-138.8235676736275
 30
0.0
 10
91.85554739457083
 20
-138.8235676736275
 30
0.0
 10
92.0839572252429
 20
-138.80427513891
 30
0.0
 10
92.0839572252429
 20
-138.80427513891
 30
0.0
 10
92.0839572252429
 20
-139.0244167404175
 30
0.0
 10
92.0839572252429
 20
-139.0244167404175
 30
0.0
 10
91.89551050219974
 20
-139.0096028298309
 30
0.0
 10
91.7074082887051
 20
-139.0054687152486
 30
0.0
 10
91.51896156566193
 20
-139.0054687152486
 30
0.0
  0
SPLINE
  5
11E
330
FE
100
AcDbEntity
  8
_U+30EC_U+30A4_U+30E4_U+30FC 1
370
     0
100
AcDbSpline
210
0.0
220
0.0
230
1.0
 70
    11
 71
     3
 72
    29
 73
    25
 74
     0
 42
0.0000000001
 43
0.0000000001
 12
1.0
 22
0.0
 32
0.0
 13
1.0
 23
0.0
 33
0.0
 40
0.0
 40
0.0
 40
0.0
 40
0.0
 40
1.0
 40
1.0
 40
1.0
 40
2.0
 40
2.0
 40
2.0
 40
3.0
 40
3.0
 40
3.0
 40
4.0
 40
4.0
 40
4.0
 40
5.0
 40
5.0
 40
5.0
 40
6.0
 40
6.0
 40
6.0
 40
7.0
 40
7.0
 40
7.0
 40
8.0
 40
8.0
 40
8.0
 40
8.0
 10
91.41733124884706
 20
-138.4763020487143
 30
0.0
 10
91.41733124884706
 20
-138.4763020487143
 30
0.0
 10
91.06420896160895
 20
-138.4763020487143
 30
0.0
 10
91.06420896160895
 20
-138.4763020487143
 30
0.0
 10
90.95207110356407
 20
-138.4763020487143
 30
0.0
 10
90.81237248163718
 20
-138.4828477301362
 30
0.0
 10
90.70454099294886
 20
-138.4955945834317
 30
0.0
 10
90.70454099294886
 20
-138.4955945834317
 30
0.0
 10
90.70454099294886
 20
-138.2606390713376
 30
0.0
 10
90.70454099294886
 20
-138.2606390713376
 30
0.0
 10
90.82305227764147
 20
-138.2754529819242
 30
0.0
 10
91.00702037655381
 20
-138.2795870965065
 30
0.0
 10
91.06420896160895
 20
-138.2795870965065
 30
0.0
 10
91.06420896160895
 20
-138.2795870965065
 30
0.0
 10
91.41733124884706
 20
-138.2795870965065
 30
0.0
 10
91.41733124884706
 20
-138.2795870965065
 30
0.0
 10
91.43662378356446
 20
-138.2795870965065
 30
0.0
 10
91.63953990764567
 20
-138.2795870965065
 30
0.0
 10
91.78147784163797
 20
-138.2606390713376
 30
0.0
 10
91.78147784163797
 20
-138.2606390713376
 30
0.0
 10
91.78147784163797
 20
-138.4955945834317
 30
0.0
 10
91.78147784163797
 20
-138.4955945834317
 30
0.0
 10
91.6247259970591
 20
-138.4763020487143
 30
0.0
 10
91.43455672627331
 20
-138.4763020487143
 30
0.0
 10
91.41733124884706
 20
-138.4763020487143
 30
0.0
  0
HATCH
  5
11F
330
FE
100
AcDbEntity
  8
_U+30EC_U+30A4_U+30E4_U+30FC 1
 62
   179
420
  2234388
100
AcDbHatch
 10
0.0
 20
0.0
 30
0.0
210
0.0
220
0.0
230
1.0
  2
SOLID
 70
     1
 71
     0
 91
        2
 92
        1
 93
        1
 72
     4
 94
        3
 73
     0
 74
     1
 95
       47
 96
       43
 40
0.0
 40
0.0
 40
0.0
 40
0.0
 40
1.0
 40
1.0
 40
1.0
 40
2.0
 40
2.0
 40
2.0
 40
3.0
 40
3.0
 40
3.0
 40
4.0
 40
4.0
 40
4.0
 40
5.0
 40
5.0
 40
5.0
 40
6.0
 40
6.0
 40
6.0
 40
7.0
 40
7.0
 40
7.0
 40
8.0
 40
8.0
 40
8.0
 40
9.0
 40
9.0
 40
9.0
 40
10.0
 40
10.0
 40
10.0
 40
11.0
 40
11.0
 40
11.0
 40
12.0
 40
12.0
 40
12.0
 40
13.0
 40
13.0
 40
13.0
 40
14.0
 40
14.0
 40
14.0
 40
14.0
 10
91.51896156566193
 20
-139.0054687152486
 10
91.51896156566193
 20
-139.0054687152486
 10
91.41733124884706
 20
-139.0054687152486
 10
91.41733124884706
 20
-139.0054687152486
 10
91.41733124884706
 20
-139.0919406119284
 10
91.39631616638704
 20
-139.4812364017616
 10
91.19960121417927
 20
-139.7013780032691
 10
91.04732799373123
 20
-139.8705321915949
 10
90.83993324551919
 20
-139.9404676299454
 10
90.75535615135631
 20
-139.9680283938274
 10
90.75535615135631
 20
-139.9680283938274
 10
90.56070825643968
 20
-139.8009412627928
 10
90.56070825643968
 20
-139.8009412627928
 10
90.658032203898
 20
-139.7881944094974
 10
90.83355981887148
 20
-139.7647677601977
 10
91.02183428714038
 20
-139.5766655467031
 10
91.09590384007325
 20
-139.5046630510613
 10
91.19960121417927
 20
-139.3651366839087
 10
91.19960121417927
 20
-139.0054687152486
 10
91.19960121417927
 20
-139.0054687152486
 10
90.96895207144179
 20
-139.0054687152486
 10
90.96895207144179
 20
-139.0054687152486
 10
90.78274466046405
 20
-139.0054687152486
 10
90.59670950426055
 20
-139.0096028298309
 10
90.4105020932828
 20
-139.0244167404175
 10
90.4105020932828
 20
-139.0244167404175
 10
90.4105020932828
 20
-138.80427513891
 10
90.4105020932828
 20
-138.80427513891
 10
90.5987765615517
 20
-138.8190890494966
 10
90.88437497727891
 20
-138.8235676736275
 10
90.96895207144179
 20
-138.8235676736275
 10
90.96895207144179
 20
-138.8235676736275
 10
91.51896156566193
 20
-138.8235676736275
 10
91.51896156566193
 20
-138.8235676736275
 10
91.53790959083081
 20
-138.8235676736275
 10
91.85554739457083
 20
-138.8235676736275
 10
92.0839572252429
 20
-138.80427513891
 10
92.0839572252429
 20
-138.80427513891
 10
92.0839572252429
 20
-139.0244167404175
 10
92.0839572252429
 20
-139.0244167404175
 10
91.89551050219974
 20
-139.0096028298309
 10
91.7074082887051
 20
-139.0054687152486
 10
91.51896156566193
 20
-139.0054687152486
 97
        0
 97
        0
 92
        1
 93
        1
 72
     4
 94
        3
 73
     0
 74
     1
 95
       29
 96
       25
 40
0.0
 40
0.0
 40
0.0
 40
0.0
 40
1.0
 40
1.0
 40
1.0
 40
2.0
 40
2.0
 40
2.0
 40
3.0
 40
3.0
 40
3.0
 40
4.0
 40
4.0
 40
4.0
 40
5.0
 40
5.0
 40
5.0
 40
6.0
 40
6.0
 40
6.0
 40
7.0
 40
7.0
 40
7.0
 40
8.0
 40
8.0
 40
8.0
 40
8.0
 10
91.41733124884706
 20
-138.4763020487143
 10
91.41733124884706
 20
-138.4763020487143
 10
91.06420896160895
 20
-138.4763020487143
 10
91.06420896160895
 20
-138.4763020487143
 10
90.95207110356407
 20
-138.4763020487143
 10
90.81237248163718
 20
-138.4828477301362
 10
90.70454099294886
 20
-138.4955945834317
 10
90.70454099294886
 20
-138.4955945834317
 10
90.70454099294886
 20
-138.2606390713376
 10
90.70454099294886
 20
-138.2606390713376
 10
90.82305227764147
 20
-138.2754529819242
 10
91.00702037655381
 20
-138.2795870965065
 10
91.06420896160895
 20
-138.2795870965065
 10
91.06420896160895
 20
-138.2795870965065
 10
91.41733124884706
 20
-138.2795870965065
 10
91.41733124884706
 20
-138.2795870965065
 10
91.43662378356446
 20
-138.2795870965065
 10
91.63953990764567
 20
-138.2795870965065
 10
91.78147784163797
 20
-138.2606390713376
 10
91.78147784163797
 20
-138.2606390713376
 10
91.78147784163797
 20
-138.4955945834317
 10
91.78147784163797
 20
-138.4955945834317
 10
91.6247259970591
 20
-138.4763020487143
 10
91.43455672627331
 20
-138.4763020487143
 10
91.41733124884706
 20
-138.4763020487143
 97
        0
 97
        0
 75
     2
 76
     1
 98
        0
  0
SPLINE
  5
120
330
FE
100
AcDbEntity
  8
_U+30EC_U+30A4_U+30E4_U+30FC 1
370
     0
100
AcDbSpline
210
0.0
220
0.0
230
1.0
 70
    11
 71
     3
 72
    29
 73
    25
 74
     0
 42
0.0000000001
 43
0.0000000001
 12
1.0
 22
0.0
 32
0.0
 13
1.0
 23
0.0
 33
0.0
 40
0.0
 40
0.0
 40
0.0
 40
0.0
 40
1.0
 40
1.0
 40
1.0
 40
2.0
 40
2.0
 40
2.0
 40
3.0
 40
3.0
 40
3.0
 40
4.0
 40
4.0
 40
4.0
 40
5.0
 40
5.0
 40
5.0
 40
6.0
 40
6.0
 40
6.0
 40
7.0
 40
7.0
 40
7.0
 40
8.0
 40
8.0
 40
8.0
 40
8.0
 10
93.36484372665879
 20
-139.1680772221524
 30
0.0
 10
93.36484372665879
 20
-139.1680772221524
 30
0.0
 10
92.88046330143267
 20
-139.1680772221524
 30
0.0
 10
92.88046330143267
 20
-139.1680772221524
 30
0.0
 10
92.85290253755066
 20
-139.1680772221524
 30
0.0
 10
92.53560924335916
 20
-139.1680772221524
 30
0.0
 10
92.32408038056482
 20
-139.1935709287433
 30
0.0
 10
92.32408038056482
 20
-139.1935709287433
 30
0.0
 10
92.32408038056482
 20
-138.9630940407801
 30
0.0
 10
92.32408038056482
 20
-138.9630940407801
 30
0.0
 10
92.4825547728863
 20
-138.9861761805312
 30
0.0
 10
92.67306855322063
 20
-138.9885877473709
 30
0.0
 10
92.88046330143267
 20
-138.9885877473709
 30
0.0
 10
92.88046330143267
 20
-138.9885877473709
 30
0.0
 10
93.36484372665879
 20
-138.9885877473709
 30
0.0
 10
93.36484372665879
 20
-138.9885877473709
 30
0.0
 10
93.55087888286228
 20
-138.9885877473709
 30
0.0
 10
93.7372585486143
 20
-138.9861761805312
 30
0.0
 10
93.92122664752664
 20
-138.9630940407801
 30
0.0
 10
93.92122664752664
 20
-138.9630940407801
 30
0.0
 10
93.92122664752664
 20
-139.1935709287433
 30
0.0
 10
93.92122664752664
 20
-139.1935709287433
 30
0.0
 10
93.7372585486143
 20
-139.1704887889921
 30
0.0
 10
93.48955618322483
 20
-139.1680772221524
 30
0.0
 10
93.36484372665879
 20
-139.1680772221524
 30
0.0
  0
HATCH
  5
121
330
FE
100
AcDbEntity
  8
_U+30EC_U+30A4_U+30E4_U+30FC 1
 62
   179
420
  2234388
100
AcDbHatch
 10
0.0
 20
0.0
 30
0.0
210
0.0
220
0.0
230
1.0
  2
SOLID
 70
     1
 71
     0
 91
        1
 92
        1
 93
        1
 72
     4
 94
        3
 73
     0
 74
     1
 95
       29
 96
       25
 40
0.0
 40
0.0
 40
0.0
 40
0.0
 40
1.0
 40
1.0
 40
1.0
 40
2.0
 40
2.0
 40
2.0
 40
3.0
 40
3.0
 40
3.0
 40
4.0
 40
4.0
 40
4.0
 40
5.0
 40
5.0
 40
5.0
 40
6.0
 40
6.0
 40
6.0
 40
7.0
 40
7.0
 40
7.0
 40
8.0
 40
8.0
 40
8.0
 40
8.0
 10
93.36484372665879
 20
-139.1680772221524
 10
93.36484372665879
 20
-139.1680772221524
 10
92.88046330143267
 20
-139.1680772221524
 10
92.88046330143267
 20
-139.1680772221524
 10
92.85290253755066
 20
-139.1680772221524
 10
92.53560924335916
 20
-139.1680772221524
 10
92.32408038056482
 20
-139.1935709287433
 10
92.32408038056482
 20
-139.1935709287433
 10
92.32408038056482
 20
-138.9630940407801
 10
92.32408038056482
 20
-138.9630940407801
 10
92.4825547728863
 20
-138.9861761805312
 10
92.67306855322063
 20
-138.9885877473709
 10
92.88046330143267
 20
-138.9885877473709
 10
92.88046330143267
 20
-138.9885877473709
 10
93.36484372665879
 20
-138.9885877473709
 10
93.36484372665879
 20
-138.9885877473709
 10
93.55087888286228
 20
-138.9885877473709
 10
93.7372585486143
 20
-138.9861761805312
 10
93.92122664752664
 20
-138.9630940407801
 10
93.92122664752664
 20
-138.9630940407801
 10
93.92122664752664
 20
-139.1935709287433
 10
93.92122664752664
 20
-139.1935709287433
 10
93.7372585486143
 20
-139.1704887889921
 10
93.48955618322483
 20
-139.1680772221524
 10
93.36484372665879
 20
-139.1680772221524
 97
        0
 97
        0
 75
     2
 76
     1
 98
        0
  0
SPLINE
  5
122
330
FE
100
AcDbEntity
  8
_U+30EC_U+30A4_U+30E4_U+30FC 1
370
     0
100
AcDbSpline
210
0.0
220
0.0
230
1.0
 70
    11
 71
     3
 72
    44
 73
    40
 74
     0
 42
0.0000000001
 43
0.0000000001
 12
1.0
 22
0.0
 32
0.0
 13
1.0
 23
0.0
 33
0.0
 40
0.0
 40
0.0
 40
0.0
 40
0.0
 40
1.0
 40
1.0
 40
1.0
 40
2.0
 40
2.0
 40
2.0
 40
3.0
 40
3.0
 40
3.0
 40
4.0
 40
4.0
 40
4.0
 40
5.0
 40
5.0
 40
5.0
 40
6.0
 40
6.0
 40
6.0
 40
7.0
 40
7.0
 40
7.0
 40
8.0
 40
8.0
 40
8.0
 40
9.0
 40
9.0
 40
9.0
 40
10.0
 40
10.0
 40
10.0
 40
11.0
 40
11.0
 40
11.0
 40
12.0
 40
12.0
 40
12.0
 40
13.0
 40
13.0
 40
13.0
 40
13.0
 10
95.57659502818919
 20
-138.7302055859772
 30
0.0
 10
95.46428491537004
 20
-139.0984862933504
 30
0.0
 10
95.41364201173687
 20
-139.2569606856719
 30
0.0
 10
95.21692705952911
 20
-139.5067301083525
 30
0.0
 10
95.03295896061677
 20
-139.7372069963157
 30
0.0
 10
94.79593639123158
 20
-139.9235866620677
 30
0.0
 10
94.51653914737781
 20
-140.0166042401695
 30
0.0
 10
94.51653914737781
 20
-140.0166042401695
 30
0.0
 10
94.32430281930087
 20
-139.8367702558394
 30
0.0
 10
94.32430281930087
 20
-139.8367702558394
 30
0.0
 10
94.96509057955734
 20
-139.6844970353914
 30
0.0
 10
95.29513072704428
 20
-139.1281141145235
 30
0.0
 10
95.35852048397287
 20
-138.6881754210571
 30
0.0
 10
95.35852048397287
 20
-138.6881754210571
 30
0.0
 10
94.59267575760184
 20
-138.6881754210571
 30
0.0
 10
94.59267575760184
 20
-138.6881754210571
 30
0.0
 10
94.49965817950009
 20
-138.6881754210571
 30
0.0
 10
94.31569008058774
 20
-138.6923095356394
 30
0.0
 10
94.1592827455574
 20
-138.7112575608083
 30
0.0
 10
94.1592827455574
 20
-138.7112575608083
 30
0.0
 10
94.1592827455574
 20
-138.4911159593008
 30
0.0
 10
94.1592827455574
 20
-138.4911159593008
 30
0.0
 10
94.24575464223717
 20
-138.5124755513094
 30
0.0
 10
94.49759112220895
 20
-138.5124755513094
 30
0.0
 10
94.59715438173266
 20
-138.5124755513094
 30
0.0
 10
94.59715438173266
 20
-138.5124755513094
 30
0.0
 10
95.02848033648594
 20
-138.5124755513094
 30
0.0
 10
95.02848033648594
 20
-138.5124755513094
 30
0.0
 10
95.07085501095452
 20
-138.5124755513094
 30
0.0
 10
95.30581052304855
 20
-138.5104084940182
 30
0.0
 10
95.3437065733863
 20
-138.5038628125963
 30
0.0
 10
95.38608124785488
 20
-138.4976616407228
 30
0.0
 10
95.38814830514602
 20
-138.4955945834317
 30
0.0
 10
95.44947100478348
 20
-138.4552869662542
 30
0.0
 10
95.44947100478348
 20
-138.4552869662542
 30
0.0
 10
95.63791772782663
 20
-138.6096272439934
 30
0.0
 10
95.63791772782663
 20
-138.6096272439934
 30
0.0
 10
95.60828990665348
 20
-138.6392550651666
 30
0.0
 10
95.59347599606691
 20
-138.6709499436309
 30
0.0
 10
95.57659502818919
 20
-138.7302055859772
 30
0.0
  0
SPLINE
  5
123
330
FE
100
AcDbEntity
  8
_U+30EC_U+30A4_U+30E4_U+30FC 1
370
     0
100
AcDbSpline
210
0.0
220
0.0
230
1.0
 70
    11
 71
     3
 72
    17
 73
    13
 74
     0
 42
0.0000000001
 43
0.0000000001
 12
1.0
 22
0.0
 32
0.0
 13
1.0
 23
0.0
 33
0.0
 40
0.0
 40
0.0
 40
0.0
 40
0.0
 40
1.0
 40
1.0
 40
1.0
 40
2.0
 40
2.0
 40
2.0
 40
3.0
 40
3.0
 40
3.0
 40
4.0
 40
4.0
 40
4.0
 40
4.0
 10
95.78605683369238
 20
-138.5314235764783
 30
0.0
 10
95.65893281028666
 20
-138.5314235764783
 30
0.0
 10
95.55764700302032
 20
-138.4297932596634
 30
0.0
 10
95.55764700302032
 20
-138.3030137458062
 30
0.0
 10
95.55764700302032
 20
-138.176234231949
 30
0.0
 10
95.65893281028666
 20
-138.072536857843
 30
0.0
 10
95.78605683369238
 20
-138.072536857843
 30
0.0
 10
95.91283634754957
 20
-138.072536857843
 30
0.0
 10
96.01653372165559
 20
-138.176234231949
 30
0.0
 10
96.01653372165559
 20
-138.3030137458062
 30
0.0
 10
96.01653372165559
 20
-138.4297932596634
 30
0.0
 10
95.91283634754957
 20
-138.5314235764783
 30
0.0
 10
95.78605683369238
 20
-138.5314235764783
 30
0.0
  0
SPLINE
  5
124
330
FE
100
AcDbEntity
  8
_U+30EC_U+30A4_U+30E4_U+30FC 1
370
     0
100
AcDbSpline
210
0.0
220
0.0
230
1.0
 70
    11
 71
     3
 72
    17
 73
    13
 74
     0
 42
0.0000000001
 43
0.0000000001
 12
1.0
 22
0.0
 32
0.0
 13
1.0
 23
0.0
 33
0.0
 40
0.0
 40
0.0
 40
0.0
 40
0.0
 40
1.0
 40
1.0
 40
1.0
 40
2.0
 40
2.0
 40
2.0
 40
3.0
 40
3.0
 40
3.0
 40
4.0
 40
4.0
 40
4.0
 40
4.0
 10
95.78398977640123
 20
-138.2013834289913
 30
0.0
 10
95.72886824863723
 20
-138.2013834289913
 30
0.0
 10
95.68442651687751
 20
-138.2458251607511
 30
0.0
 10
95.68442651687751
 20
-138.300946688515
 30
0.0
 10
95.68442651687751
 20
-138.3581352735702
 30
0.0
 10
95.72886824863723
 20
-138.4067111199122
 30
0.0
 10
95.78812389098353
 20
-138.4067111199122
 30
0.0
 10
95.84737953332983
 20
-138.4067111199122
 30
0.0
 10
95.88734264095872
 20
-138.3557237067305
 30
0.0
 10
95.88734264095872
 20
-138.3030137458062
 30
0.0
 10
95.88734264095872
 20
-138.2458251607511
 30
0.0
 10
95.84083385190785
 20
-138.2013834289913
 30
0.0
 10
95.78398977640123
 20
-138.2013834289913
 30
0.0
  0
HATCH
  5
125
330
FE
100
AcDbEntity
  8
_U+30EC_U+30A4_U+30E4_U+30FC 1
 62
   179
420
  2234388
100
AcDbHatch
 10
0.0
 20
0.0
 30
0.0
210
0.0
220
0.0
230
1.0
  2
SOLID
 70
     1
 71
     0
 91
        3
 92
        1
 93
        1
 72
     4
 94
        3
 73
     0
 74
     1
 95
       44
 96
       40
 40
0.0
 40
0.0
 40
0.0
 40
0.0
 40
1.0
 40
1.0
 40
1.0
 40
2.0
 40
2.0
 40
2.0
 40
3.0
 40
3.0
 40
3.0
 40
4.0
 40
4.0
 40
4.0
 40
5.0
 40
5.0
 40
5.0
 40
6.0
 40
6.0
 40
6.0
 40
7.0
 40
7.0
 40
7.0
 40
8.0
 40
8.0
 40
8.0
 40
9.0
 40
9.0
 40
9.0
 40
10.0
 40
10.0
 40
10.0
 40
11.0
 40
11.0
 40
11.0
 40
12.0
 40
12.0
 40
12.0
 40
13.0
 40
13.0
 40
13.0
 40
13.0
 10
95.57659502818919
 20
-138.7302055859772
 10
95.46428491537004
 20
-139.0984862933504
 10
95.41364201173687
 20
-139.2569606856719
 10
95.21692705952911
 20
-139.5067301083525
 10
95.03295896061677
 20
-139.7372069963157
 10
94.79593639123158
 20
-139.9235866620677
 10
94.51653914737781
 20
-140.0166042401695
 10
94.51653914737781
 20
-140.0166042401695
 10
94.32430281930087
 20
-139.8367702558394
 10
94.32430281930087
 20
-139.8367702558394
 10
94.96509057955734
 20
-139.6844970353914
 10
95.29513072704428
 20
-139.1281141145235
 10
95.35852048397287
 20
-138.6881754210571
 10
95.35852048397287
 20
-138.6881754210571
 10
94.59267575760184
 20
-138.6881754210571
 10
94.59267575760184
 20
-138.6881754210571
 10
94.49965817950009
 20
-138.6881754210571
 10
94.31569008058774
 20
-138.6923095356394
 10
94.1592827455574
 20
-138.7112575608083
 10
94.1592827455574
 20
-138.7112575608083
 10
94.1592827455574
 20
-138.4911159593008
 10
94.1592827455574
 20
-138.4911159593008
 10
94.24575464223717
 20
-138.5124755513094
 10
94.49759112220895
 20
-138.5124755513094
 10
94.59715438173266
 20
-138.5124755513094
 10
94.59715438173266
 20
-138.5124755513094
 10
95.02848033648594
 20
-138.5124755513094
 10
95.02848033648594
 20
-138.5124755513094
 10
95.07085501095452
 20
-138.5124755513094
 10
95.30581052304855
 20
-138.5104084940182
 10
95.3437065733863
 20
-138.5038628125963
 10
95.38608124785488
 20
-138.4976616407228
 10
95.38814830514602
 20
-138.4955945834317
 10
95.44947100478348
 20
-138.4552869662542
 10
95.44947100478348
 20
-138.4552869662542
 10
95.63791772782663
 20
-138.6096272439934
 10
95.63791772782663
 20
-138.6096272439934
 10
95.60828990665348
 20
-138.6392550651666
 10
95.59347599606691
 20
-138.6709499436309
 10
95.57659502818919
 20
-138.7302055859772
 97
        0
 97
        0
 92
        1
 93
        1
 72
     4
 94
        3
 73
     0
 74
     1
 95
       17
 96
       13
 40
0.0
 40
0.0
 40
0.0
 40
0.0
 40
1.0
 40
1.0
 40
1.0
 40
2.0
 40
2.0
 40
2.0
 40
3.0
 40
3.0
 40
3.0
 40
4.0
 40
4.0
 40
4.0
 40
4.0
 10
95.78605683369238
 20
-138.5314235764783
 10
95.65893281028666
 20
-138.5314235764783
 10
95.55764700302032
 20
-138.4297932596634
 10
95.55764700302032
 20
-138.3030137458062
 10
95.55764700302032
 20
-138.176234231949
 10
95.65893281028666
 20
-138.072536857843
 10
95.78605683369238
 20
-138.072536857843
 10
95.91283634754957
 20
-138.072536857843
 10
96.01653372165559
 20
-138.176234231949
 10
96.01653372165559
 20
-138.3030137458062
 10
96.01653372165559
 20
-138.4297932596634
 10
95.91283634754957
 20
-138.5314235764783
 10
95.78605683369238
 20
-138.5314235764783
 97
        0
 97
        0
 92
        1
 93
        1
 72
     4
 94
        3
 73
     0
 74
     1
 95
       17
 96
       13
 40
0.0
 40
0.0
 40
0.0
 40
0.0
 40
1.0
 40
1.0
 40
1.0
 40
2.0
 40
2.0
 40
2.0
 40
3.0
 40
3.0
 40
3.0
 40
4.0
 40
4.0
 40
4.0
 40
4.0
 10
95.78398977640123
 20
-138.2013834289913
 10
95.72886824863723
 20
-138.2013834289913
 10
95.68442651687751
 20
-138.2458251607511
 10
95.68442651687751
 20
-138.300946688515
 10
95.68442651687751
 20
-138.3581352735702
 10
95.72886824863723
 20
-138.4067111199122
 10
95.78812389098353
 20
-138.4067111199122
 10
95.84737953332983
 20
-138.4067111199122
 10
95.88734264095872
 20
-138.3557237067305
 10
95.88734264095872
 20
-138.3030137458062
 10
95.88734264095872
 20
-138.2458251607511
 10
95.84083385190785
 20
-138.2013834289913
 10
95.78398977640123
 20
-138.2013834289913
 97
        0
 97
        0
 75
     2
 76
     1
 98
        0
  0
ENDBLK
  5
101
330
FE
100
AcDbEntity
  8
0
100
AcDbBlockEnd
  0
ENDSEC
  0
SECTION
  2
ENTITIES
  0
INSERT
  5
42
330
1F
100
AcDbEntity
  8
_U+30EC_U+30A4_U+30E4_U+30FC 1
100
AcDbBlockReference
  2
block 2
 10
0.0
 20
0.0
 30
0.0
  0
ENDSEC
  0
SECTION
  2
OBJECTS
  0
DICTIONARY
  5
C
330
0
100
AcDbDictionary
281
     1
  3
ACAD_GROUP
350
D
  3
ACAD_LAYOUT
350
1A
  3
ACAD_MATERIAL
350
3B
  3
ACAD_MLEADERSTYLE
350
131
  3
ACAD_MLINESTYLE
350
17
  3
ACAD_PLOTSETTINGS
350
19
  3
ACAD_PLOTSTYLENAME
350
E
  3
ACAD_TABLESTYLE
350
130
  3
ACAD_VISUALSTYLE
350
2A
  0
SUN
  5
3F
330
29
100
AcDbSun
 90
        1
290
     0
 63
     7
421
 16777215
 40
1.0
291
     1
 91
  2455826
 92
 54000000
292
     0
 70
     2
 71
   256
280
     1
  0
DICTIONARY
  5
D
102
{ACAD_REACTORS
330
C
102
}
330
C
100
AcDbDictionary
281
     1
  0
DICTIONARY
  5
1A
102
{ACAD_REACTORS
330
C
102
}
330
C
100
AcDbDictionary
281
     1
  3
Layout1
350
1E
  3
Layout2
350
26
  3
Model
350
22
  0
DICTIONARY
  5
3B
102
{ACAD_REACTORS
330
C
102
}
330
C
100
AcDbDictionary
281
     1
  3
ByBlock
350
3D
  3
ByLayer
350
3C
  3
Global
350
3E
  0
DICTIONARY
  5
131
102
{ACAD_REACTORS
330
C
102
}
330
C
100
AcDbDictionary
281
     1
  0
DICTIONARY
  5
17
102
{ACAD_REACTORS
330
C
102
}
330
C
100
AcDbDictionary
281
     1
  3
Standard
350
18
  0
DICTIONARY
  5
19
102
{ACAD_REACTORS
330
C
102
}
330
C
100
AcDbDictionary
281
     1
  0
ACDBDICTIONARYWDFLT
  5
E
102
{ACAD_REACTORS
330
C
102
}
330
C
100
AcDbDictionary
281
     1
  3
Normal
350
F
100
AcDbDictionaryWithDefault
340
F
  0
DICTIONARY
  5
130
102
{ACAD_REACTORS
330
C
102
}
330
C
100
AcDbDictionary
281
     1
  0
DICTIONARY
  5
2A
102
{ACAD_REACTORS
330
C
102
}
330
C
100
AcDbDictionary
281
     1
  3
2dWireframe
350
2F
  3
3D Hidden
350
31
  3
3dWireframe
350
30
  3
Basic
350
32
  3
Brighten
350
36
  3
ColorChange
350
3A
  3
Conceptual
350
34
  3
Dim
350
35
  3
Facepattern
350
39
  3
Flat
350
2B
  3
FlatWithEdges
350
2C
  3
Gouraud
350
2D
  3
GouraudWithEdges
350
2E
  3
Linepattern
350
38
  3
Realistic
350
33
  3
Thicken
350
37
  0
LAYOUT
  5
1E
102
{ACAD_REACTORS
330
1A
102
}
330
1A
100
AcDbPlotSettings
  1

  2
none_device
  4

  6

 40
0.0
 41
0.0
 42
0.0
 43
0.0
 44
0.0
 45
0.0
 46
0.0
 47
0.0
 48
0.0
 49
0.0
140
0.0
141
0.0
142
1.0
143
1.0
 70
   688
 72
     0
 73
     0
 74
     5
  7

 75
    16
 76
     0
 77
     2
 78
   300
147
1.0
148
0.0
149
0.0
100
AcDbLayout
  1
Layout1
 70
     1
 71
     1
 10
0.0
 20
0.0
 11
12.0
 21
9.0
 12
0.0
 22
0.0
 32
0.0
 14
1.000000000000000E+20
 24
1.000000000000000E+20
 34
1.000000000000000E+20
 15
-1.000000000000000E+20
 25
-1.000000000000000E+20
 35
-1.000000000000000E+20
146
0.0
 13
0.0
 23
0.0
 33
0.0
 16
1.0
 26
0.0
 36
0.0
 17
0.0
 27
1.0
 37
0.0
 76
     0
330
1B
  0
LAYOUT
  5
26
102
{ACAD_REACTORS
330
1A
102
}
330
1A
100
AcDbPlotSettings
  1

  2
none_device
  4

  6

 40
0.0
 41
0.0
 42
0.0
 43
0.0
 44
0.0
 45
0.0
 46
0.0
 47
0.0
 48
0.0
 49
0.0
140
0.0
141
0.0
142
1.0
143
1.0
 70
   688
 72
     0
 73
     0
 74
     5
  7

 75
    16
 76
     0
 77
     2
 78
   300
147
1.0
148
0.0
149
0.0
100
AcDbLayout
  1
Layout2
 70
     1
 71
     2
 10
0.0
 20
0.0
 11
0.0
 21
0.0
 12
0.0
 22
0.0
 32
0.0
 14
0.0
 24
0.0
 34
0.0
 15
0.0
 25
0.0
 35
0.0
146
0.0
 13
0.0
 23
0.0
 33
0.0
 16
1.0
 26
0.0
 36
0.0
 17
0.0
 27
1.0
 37
0.0
 76
     0
330
23
  0
LAYOUT
  5
22
102
{ACAD_REACTORS
330
1A
102
}
330
1A
100
AcDbPlotSettings
  1

  2
none_device
  4

  6

 40
0.0
 41
0.0
 42
0.0
 43
0.0
 44
0.0
 45
0.0
 46
0.0
 47
0.0
 48
0.0
 49
0.0
140
0.0
141
0.0
142
1.0
143
1.0
 70
  1712
 72
     0
 73
     0
 74
     0
  7

 75
     0
 76
     0
 77
     2
 78
   300
147
1.0
148
0.0
149
0.0
100
AcDbLayout
  1
Model
 70
     1
 71
     0
 10
0.0
 20
0.0
 11
12.0
 21
9.0
 12
0.0
 22
0.0
 32
0.0
 14
1.000000000000000E+20
 24
1.000000000000000E+20
 34
1.000000000000000E+20
 15
-1.000000000000000E+20
 25
-1.000000000000000E+20
 35
-1.000000000000000E+20
146
0.0
 13
0.0
 23
0.0
 33
0.0
 16
1.0
 26
0.0
 36
0.0
 17
0.0
 27
1.0
 37
0.0
 76
     0
330
1F
331
29
  0
MATERIAL
  5
3D
102
{ACAD_REACTORS
330
3B
102
}
330
3B
100
AcDbMaterial
  1
ByBlock
 72
     1
 94
      127
  0
MATERIAL
  5
3C
102
{ACAD_REACTORS
330
3B
102
}
330
3B
100
AcDbMaterial
  1
ByLayer
 72
     1
 94
      127
  0
MATERIAL
  5
3E
102
{ACAD_REACTORS
330
3B
102
}
330
3B
100
AcDbMaterial
  1
Global
 72
     1
 94
      127
  0
MLINESTYLE
  5
18
102
{ACAD_REACTORS
330
17
102
}
330
17
100
AcDbMlineStyle
  2
Standard
 70
     0
  3

 62
   256
 51
90.0
 52
90.0
 71
     2
 49
0.5
 62
   256
  6
BYLAYER
 49
-0.5
 62
   256
  6
BYLAYER
  0
ACDBPLACEHOLDER
  5
F
102
{ACAD_REACTORS
330
E
102
}
330
E
  0
VISUALSTYLE
  5
2F
102
{ACAD_REACTORS
330
2A
102
}
330
2A
100
AcDbVisualStyle
  2
2dWireframe
 70
     4
177
     2
291
     0
 71
     0
176
     1
 72
     2
176
     1
 73
     0
176
     1
 90
        0
176
     1
 40
-0.6
176
     1
 41
-30.0
176
     1
 62
     5
 63
     7
421
 16777215
176
     1
 74
     1
176
     1
 91
        4
176
     1
 64
     7
176
     1
 65
   257
176
     1
 75
     1
176
     1
175
     1
176
     1
 42
1.0
176
     1
 92
        0
176
     1
 66
   257
176
     1
 43
1.0
176
     1
 76
     1
176
     1
 77
     6
176
     1
 78
     2
176
     1
 67
     7
176
     1
 79
     5
176
     1
170
     0
176
     1
171
     0
176
     1
290
     0
176
     1
 93
        1
176
     1
 44
0.0
176
     1
173
     0
176
     1
  0
VISUALSTYLE
  5
31
102
{ACAD_REACTORS
330
2A
102
}
330
2A
100
AcDbVisualStyle
  2
3D Hidden
 70
     6
177
     2
291
     0
 71
     1
176
     1
 72
     2
176
     1
 73
     2
176
     1
 90
        0
176
     1
 40
-0.6
176
     1
 41
-30.0
176
     1
 62
     5
 63
     7
421
 16777215
176
     1
 74
     2
176
     1
 91
        2
176
     1
 64
     7
176
     1
 65
   257
176
     1
 75
     2
176
     1
175
     1
176
     1
 42
40.0
176
     1
 92
        0
176
     1
 66
   257
176
     1
 43
1.0
176
     1
 76
     1
176
     1
 77
     6
176
     1
 78
     2
176
     1
 67
     7
176
     1
 79
     3
176
     1
170
     0
176
     1
171
     0
176
     1
290
     0
176
     1
 93
        1
176
     1
 44
0.0
176
     1
173
     0
176
     1
  0
VISUALSTYLE
  5
30
102
{ACAD_REACTORS
330
2A
102
}
330
2A
100
AcDbVisualStyle
  2
3dWireframe
 70
     5
177
     2
291
     0
 71
     0
176
     1
 72
     2
176
     1
 73
     0
176
     1
 90
        0
176
     1
 40
-0.6
176
     1
 41
-30.0
176
     1
 62
     5
 63
     7
421
 16777215
176
     1
 74
     1
176
     1
 91
        4
176
     1
 64
     7
176
     1
 65
   257
176
     1
 75
     1
176
     1
175
     1
176
     1
 42
1.0
176
     1
 92
        0
176
     1
 66
   257
176
     1
 43
1.0
176
     1
 76
     1
176
     1
 77
     6
176
     1
 78
     2
176
     1
 67
     7
176
     1
 79
     5
176
     1
170
     0
176
     1
171
     0
176
     1
290
     0
176
     1
 93
        1
176
     1
 44
0.0
176
     1
173
     0
176
     1
  0
VISUALSTYLE
  5
32
102
{ACAD_REACTORS
330
2A
102
}
330
2A
100
AcDbVisualStyle
  2
Basic
 70
     7
177
     2
291
     1
 71
     1
176
     1
 72
     0
176
     1
 73
     1
176
     1
 90
        0
176
     1
 40
-0.6
176
     1
 41
-30.0
176
     1
 62
     5
 63
     7
421
 16777215
176
     1
 74
     0
176
     1
 91
        4
176
     1
 64
     7
176
     1
 65
   257
176
     1
 75
     1
176
     1
175
     1
176
     1
 42
1.0
176
     1
 92
        8
176
     1
 66
     7
176
     1
 43
1.0
176
     1
 76
     1
176
     1
 77
     6
176
     1
 78
     2
176
     1
 67
     7
176
     1
 79
     5
176
     1
170
     0
176
     1
171
     0
176
     1
290
     0
176
     1
 93
        1
176
     1
 44
0.0
176
     1
173
     0
176
     1
  0
VISUALSTYLE
  5
36
102
{ACAD_REACTORS
330
2A
102
}
330
2A
100
AcDbVisualStyle
  2
Brighten
 70
    12
177
     2
291
     1
 71
     2
176
     1
 72
     2
176
     1
 73
     0
176
     1
 90
        0
176
     1
 40
-0.6
176
     1
 41
-30.0
176
     1
 62
     5
 63
     7
421
 16777215
176
     1
 74
     1
176
     1
 91
        4
176
     1
 64
     7
176
     1
 65
   257
176
     1
 75
     1
176
     1
175
     1
176
     1
 42
1.0
176
     1
 92
        8
176
     1
 66
     7
176
     1
 43
1.0
176
     1
 76
     1
176
     1
 77
     6
176
     1
 78
     2
176
     1
 67
     7
176
     1
 79
     5
176
     1
170
     0
176
     1
171
     0
176
     1
290
     0
176
     1
 93
        1
176
     1
 44
50.0
176
     1
173
     0
176
     1
  0
VISUALSTYLE
  5
3A
102
{ACAD_REACTORS
330
2A
102
}
330
2A
100
AcDbVisualStyle
  2
ColorChange
 70
    16
177
     2
291
     1
 71
     2
176
     1
 72
     2
176
     1
 73
     3
176
     1
 90
        0
176
     1
 40
-0.6
176
     1
 41
-30.0
176
     1
 62
     5
 63
     8
421
  8421504
176
     1
 74
     1
176
     1
 91
        4
176
     1
 64
     7
176
     1
 65
   257
176
     1
 75
     1
176
     1
175
     1
176
     1
 42
1.0
176
     1
 92
        8
176
     1
 66
     8
424
  8421504
176
     1
 43
1.0
176
     1
 76
     1
176
     1
 77
     6
176
     1
 78
     2
176
     1
 67
     7
176
     1
 79
     5
176
     1
170
     0
176
     1
171
     0
176
     1
290
     0
176
     1
 93
        1
176
     1
 44
0.0
176
     1
173
     0
176
     1
  0
VISUALSTYLE
  5
34
102
{ACAD_REACTORS
330
2A
102
}
330
2A
100
AcDbVisualStyle
  2
Conceptual
 70
     9
177
     2
291
     0
 71
     3
176
     1
 72
     2
176
     1
 73
     0
176
     1
 90
        0
176
     1
 40
-0.6
176
     1
 41
-30.0
176
     1
 62
     5
 63
     7
421
 16777215
176
     1
 74
     2
176
     1
 91
        2
176
     1
 64
     7
176
     1
 65
   257
176
     1
 75
     1
176
     1
175
     1
176
     1
 42
40.0
176
     1
 92
        8
176
     1
 66
     7
176
     1
 43
1.0
176
     1
 76
     1
176
     1
 77
     6
176
     1
 78
     2
176
     1
 67
     7
176
     1
 79
     3
176
     1
170
     0
176
     1
171
     0
176
     1
290
     0
176
     1
 93
        1
176
     1
 44
0.0
176
     1
173
     0
176
     1
  0
VISUALSTYLE
  5
35
102
{ACAD_REACTORS
330
2A
102
}
330
2A
100
AcDbVisualStyle
  2
Dim
 70
    11
177
     2
291
     1
 71
     2
176
     1
 72
     2
176
     1
 73
     0
176
     1
 90
        0
176
     1
 40
-0.6
176
     1
 41
-30.0
176
     1
 62
     5
 63
     7
421
 16777215
176
     1
 74
     1
176
     1
 91
        4
176
     1
 64
     7
176
     1
 65
   257
176
     1
 75
     1
176
     1
175
     1
176
     1
 42
1.0
176
     1
 92
        8
176
     1
 66
     7
176
     1
 43
1.0
176
     1
 76
     1
176
     1
 77
     6
176
     1
 78
     2
176
     1
 67
     7
176
     1
 79
     5
176
     1
170
     0
176
     1
171
     0
176
     1
290
     0
176
     1
 93
        1
176
     1
 44
-50.0
176
     1
173
     0
176
     1
  0
VISUALSTYLE
  5
39
102
{ACAD_REACTORS
330
2A
102
}
330
2A
100
AcDbVisualStyle
  2
Facepattern
 70
    15
177
     2
291
     1
 71
     2
176
     1
 72
     2
176
     1
 73
     0
176
     1
 90
        0
176
     1
 40
-0.6
176
     1
 41
-30.0
176
     1
 62
     5
 63
     7
421
 16777215
176
     1
 74
     1
176
     1
 91
        4
176
     1
 64
     7
176
     1
 65
   257
176
     1
 75
     1
176
     1
175
     1
176
     1
 42
1.0
176
     1
 92
        8
176
     1
 66
     7
176
     1
 43
1.0
176
     1
 76
     1
176
     1
 77
     6
176
     1
 78
     2
176
     1
 67
     7
176
     1
 79
     5
176
     1
170
     0
176
     1
171
     0
176
     1
290
     0
176
     1
 93
        1
176
     1
 44
0.0
176
     1
173
     0
176
     1
  0
VISUALSTYLE
  5
2B
102
{ACAD_REACTORS
330
2A
102
}
330
2A
100
AcDbVisualStyle
  2
Flat
 70
     0
177
     2
291
     1
 71
     2
176
     1
 72
     1
176
     1
 73
     1
176
     1
 90
        2
176
     1
 40
-0.6
176
     1
 41
30.0
176
     1
 62
     5
 63
     7
421
 16777215
176
     1
 74
     0
176
     1
 91
        4
176
     1
 64
     7
176
     1
 65
   257
176
     1
 75
     1
176
     1
175
     1
176
     1
 42
1.0
176
     1
 92
        8
176
     1
 66
     7
176
     1
 43
1.0
176
     1
 76
     1
176
     1
 77
     6
176
     1
 78
     2
176
     1
 67
     7
176
     1
 79
     5
176
     1
170
     0
176
     1
171
     0
176
     1
290
     0
176
     1
 93
       13
176
     1
 44
0.0
176
     1
173
     0
176
     1
  0
VISUALSTYLE
  5
2C
102
{ACAD_REACTORS
330
2A
102
}
330
2A
100
AcDbVisualStyle
  2
FlatWithEdges
 70
     1
177
     2
291
     1
 71
     2
176
     1
 72
     1
176
     1
 73
     1
176
     1
 90
        2
176
     1
 40
-0.6
176
     1
 41
30.0
176
     1
 62
     5
 63
     7
421
 16777215
176
     1
 74
     1
176
     1
 91
        4
176
     1
 64
     7
176
     1
 65
   257
176
     1
 75
     1
176
     1
175
     1
176
     1
 42
1.0
176
     1
 92
        0
176
     1
 66
   257
176
     1
 43
1.0
176
     1
 76
     1
176
     1
 77
     6
176
     1
 78
     2
176
     1
 67
     7
176
     1
 79
     5
176
     1
170
     0
176
     1
171
     0
176
     1
290
     0
176
     1
 93
       13
176
     1
 44
0.0
176
     1
173
     0
176
     1
  0
VISUALSTYLE
  5
2D
102
{ACAD_REACTORS
330
2A
102
}
330
2A
100
AcDbVisualStyle
  2
Gouraud
 70
     2
177
     2
291
     1
 71
     2
176
     1
 72
     2
176
     1
 73
     1
176
     1
 90
        2
176
     1
 40
-0.6
176
     1
 41
30.0
176
     1
 62
     5
 63
     7
421
 16777215
176
     1
 74
     0
176
     1
 91
        4
176
     1
 64
     7
176
     1
 65
   257
176
     1
 75
     1
176
     1
175
     1
176
     1
 42
1.0
176
     1
 92
        0
176
     1
 66
     7
176
     1
 43
1.0
176
     1
 76
     1
176
     1
 77
     6
176
     1
 78
     2
176
     1
 67
     7
176
     1
 79
     5
176
     1
170
     0
176
     1
171
     0
176
     1
290
     0
176
     1
 93
       13
176
     1
 44
0.0
176
     1
173
     0
176
     1
  0
VISUALSTYLE
  5
2E
102
{ACAD_REACTORS
330
2A
102
}
330
2A
100
AcDbVisualStyle
  2
GouraudWithEdges
 70
     3
177
     2
291
     1
 71
     2
176
     1
 72
     2
176
     1
 73
     1
176
     1
 90
        2
176
     1
 40
-0.6
176
     1
 41
30.0
176
     1
 62
     5
 63
     7
421
 16777215
176
     1
 74
     1
176
     1
 91
        4
176
     1
 64
     7
176
     1
 65
   257
176
     1
 75
     1
176
     1
175
     1
176
     1
 42
1.0
176
     1
 92
        0
176
     1
 66
   257
176
     1
 43
1.0
176
     1
 76
     1
176
     1
 77
     6
176
     1
 78
     2
176
     1
 67
     7
176
     1
 79
     5
176
     1
170
     0
176
     1
171
     0
176
     1
290
     0
176
     1
 93
       13
176
     1
 44
0.0
176
     1
173
     0
176
     1
  0
VISUALSTYLE
  5
38
102
{ACAD_REACTORS
330
2A
102
}
330
2A
100
AcDbVisualStyle
  2
Linepattern
 70
    14
177
     2
291
     1
 71
     2
176
     1
 72
     2
176
     1
 73
     0
176
     1
 90
        0
176
     1
 40
-0.6
176
     1
 41
-30.0
176
     1
 62
     5
 63
     7
421
 16777215
176
     1
 74
     1
176
     1
 91
        4
176
     1
 64
     7
176
     1
 65
   257
176
     1
 75
     7
176
     1
175
     7
176
     1
 42
1.0
176
     1
 92
        8
176
     1
 66
     7
176
     1
 43
1.0
176
     1
 76
     1
176
     1
 77
     6
176
     1
 78
     2
176
     1
 67
     7
176
     1
 79
     5
176
     1
170
     0
176
     1
171
     0
176
     1
290
     0
176
     1
 93
        1
176
     1
 44
0.0
176
     1
173
     0
176
     1
  0
VISUALSTYLE
  5
33
102
{ACAD_REACTORS
330
2A
102
}
330
2A
100
AcDbVisualStyle
  2
Realistic
 70
     8
177
     2
291
     0
 71
     2
176
     1
 72
     2
176
     1
 73
     0
176
     1
 90
        0
176
     1
 40
-0.6
176
     1
 41
-30.0
176
     1
 62
     5
 63
     7
421
 16777215
176
     1
 74
     1
176
     1
 91
        0
176
     1
 64
     7
176
     1
 65
   257
176
     1
 75
     1
176
     1
175
     1
176
     1
 42
1.0
176
     1
 92
        8
176
     1
 66
     8
424
  7895160
176
     1
 43
1.0
176
     1
 76
     1
176
     1
 77
     6
176
     1
 78
     2
176
     1
 67
     7
176
     1
 79
     5
176
     1
170
     0
176
     1
171
     0
176
     1
290
     0
176
     1
 93
       13
176
     1
 44
0.0
176
     1
173
     0
176
     1
  0
VISUALSTYLE
  5
37
102
{ACAD_REACTORS
330
2A
102
}
330
2A
100
AcDbVisualStyle
  2
Thicken
 70
    13
177
     2
291
     1
 71
     2
176
     1
 72
     2
176
     1
 73
     0
176
     1
 90
        0
176
     1
 40
-0.6
176
     1
 41
-30.0
176
     1
 62
     5
 63
     7
421
 16777215
176
     1
 74
     1
176
     1
 91
        4
176
     1
 64
     7
176
     1
 65
   257
176
     1
 75
     1
176
     1
175
     1
176
     1
 42
1.0
176
     1
 92
       12
176
     1
 66
     7
176
     1
 43
1.0
176
     1
 76
     1
176
     1
 77
     6
176
     1
 78
     2
176
     1
 67
     7
176
     1
 79
     5
176
     1
170
     0
176
     1
171
     0
176
     1
290
     0
176
     1
 93
        1
176
     1
 44
0.0
176
     1
173
     0
176
     1
  0
ENDSEC
  0
EOF
