  0
SECTION
  2
HEADER
  9
$ACADVER
  1
AC1024
  9
$ACADMAINTVER
 70
     6
  9
$DWGCODEPAGE
  3
UNDEFINED
  9
$INSBASE
 10
0.0
 20
0.0
 30
0.0
  9
$EXTMIN
 10
1.000000000000000E+20
 20
1.000000000000000E+20
 30
1.000000000000000E+20
  9
$EXTMAX
 10
-1.000000000000000E+20
 20
-1.000000000000000E+20
 30
-1.000000000000000E+20
  9
$LIMMIN
 10
0.0
 20
0.0
  9
$LIMMAX
 10
12.0
 20
9.0
  9
$ORTHOMODE
 70
     0
  9
$REGENMODE
 70
     1
  9
$FILLMODE
 70
     1
  9
$QTEXTMODE
 70
     0
  9
$MIRRTEXT
 70
     1
  9
$LTSCALE
 40
1.0
  9
$ATTMODE
 70
     1
  9
$TEXTSIZE
 40
0.2
  9
$TRACEWID
 40
0.05
  9
$TEXTSTYLE
  7
Standard
  9
$CLAYER
  8
0
  9
$CELTYPE
  6
ByLayer
  9
$CECOLOR
 62
   256
  9
$CELTSCALE
 40
1.0
  9
$DISPSILH
 70
     0
  9
$DIMSCALE
 40
1.0
  9
$DIMASZ
 40
0.18
  9
$DIMEXO
 40
0.0625
  9
$DIMDLI
 40
0.38
  9
$DIMRND
 40
0.0
  9
$DIMDLE
 40
0.0
  9
$DIMEXE
 40
0.18
  9
$DIMTP
 40
0.0
  9
$DIMTM
 40
0.0
  9
$DIMTXT
 40
0.18
  9
$DIMCEN
 40
0.09
  9
$DIMTSZ
 40
0.0
  9
$DIMTOL
 70
     0
  9
$DIMLIM
 70
     0
  9
$DIMTIH
 70
     1
  9
$DIMTOH
 70
     1
  9
$DIMSE1
 70
     0
  9
$DIMSE2
 70
     0
  9
$DIMTAD
 70
     0
  9
$DIMZIN
 70
     0
  9
$DIMBLK
  1

  9
$DIMASO
 70
     1
  9
$DIMSHO
 70
     1
  9
$DIMPOST
  1

  9
$DIMAPOST
  1

  9
$DIMALT
 70
     0
  9
$DIMALTD
 70
     2
  9
$DIMALTF
 40
25.4
  9
$DIMLFAC
 40
1.0
  9
$DIMTOFL
 70
     0
  9
$DIMTVP
 40
0.0
  9
$DIMTIX
 70
     0
  9
$DIMSOXD
 70
     0
  9
$DIMSAH
 70
     0
  9
$DIMBLK1
  1

  9
$DIMBLK2
  1

  9
$DIMSTYLE
  2
Standard
  9
$DIMCLRD
 70
     0
  9
$DIMCLRE
 70
     0
  9
$DIMCLRT
 70
     0
  9
$DIMTFAC
 40
1.0
  9
$DIMGAP
 40
0.09
  9
$DIMJUST
 70
     0
  9
$DIMSD1
 70
     0
  9
$DIMSD2
 70
     0
  9
$DIMTOLJ
 70
     1
  9
$DIMTZIN
 70
     0
  9
$DIMALTZ
 70
     0
  9
$DIMALTTZ
 70
     0
  9
$DIMUPT
 70
     0
  9
$DIMDEC
 70
     4
  9
$DIMTDEC
 70
     4
  9
$DIMALTU
 70
     2
  9
$DIMALTTD
 70
     2
  9
$DIMTXSTY
  7
Standard
  9
$DIMAUNIT
 70
     0
  9
$DIMADEC
 70
     0
  9
$DIMALTRND
 40
0.0
  9
$DIMAZIN
 70
     0
  9
$DIMDSEP
 70
    46
  9
$DIMATFIT
 70
     3
  9
$DIMFRAC
 70
     0
  9
$DIMLDRBLK
  1

  9
$DIMLUNIT
 70
     2
  9
$DIMLWD
 70
    -2
  9
$DIMLWE
 70
    -2
  9
$DIMTMOVE
 70
     0
  9
$DIMFXL
 40
1.0
  9
$DIMFXLON
 70
     0
  9
$DIMJOGANG
 40
0.7853981633974483
  9
$DIMTFILL
 70
     0
  9
$DIMTFILLCLR
 70
     0
  9
$DIMARCSYM
 70
     0
  9
$DIMLTYPE
  6

  9
$DIMLTEX1
  6

  9
$DIMLTEX2
  6

  9
$DIMTXTDIRECTION
 70
     0
  9
$LUNITS
 70
     2
  9
$LUPREC
 70
     4
  9
$SKETCHINC
 40
0.1
  9
$FILLETRAD
 40
0.5
  9
$AUNITS
 70
     0
  9
$AUPREC
 70
     0
  9
$MENU
  1
.
  9
$ELEVATION
 40
0.0
  9
$PELEVATION
 40
0.0
  9
$THICKNESS
 40
0.0
  9
$LIMCHECK
 70
     0
  9
$CHAMFERA
 40
0.5
  9
$CHAMFERB
 40
0.5
  9
$CHAMFERC
 40
1.0
  9
$CHAMFERD
 40
0.0
  9
$SKPOLY
 70
     0
  9
$TDCREATE
 40
2457917.585925926
  9
$TDUCREATE
 40
2457917.210925926
  9
$TDUPDATE
 40
2457917.585925926
  9
$TDUUPDATE
 40
2457917.210925926
  9
$TDINDWG
 40
0.0000000116
  9
$TDUSRTIMER
 40
0.0000000116
  9
$USRTIMER
 70
     1
  9
$ANGBASE
 50
0.0
  9
$ANGDIR
 70
     0
  9
$PDMODE
 70
     0
  9
$PDSIZE
 40
0.0
  9
$PLINEWID
 40
0.0
  9
$SPLFRAME
 70
     0
  9
$SPLINETYPE
 70
     6
  9
$SPLINESEGS
 70
     8
  9
$HANDSEED
  5
E6
  9
$SURFTAB1
 70
     6
  9
$SURFTAB2
 70
     6
  9
$SURFTYPE
 70
     6
  9
$SURFU
 70
     6
  9
$SURFV
 70
     6
  9
$UCSBASE
  2

  9
$UCSNAME
  2

  9
$UCSORG
 10
0.0
 20
0.0
 30
0.0
  9
$UCSXDIR
 10
1.0
 20
0.0
 30
0.0
  9
$UCSYDIR
 10
0.0
 20
1.0
 30
0.0
  9
$UCSORTHOREF
  2

  9
$UCSORTHOVIEW
 70
     0
  9
$UCSORGTOP
 10
0.0
 20
0.0
 30
0.0
  9
$UCSORGBOTTOM
 10
0.0
 20
0.0
 30
0.0
  9
$UCSORGLEFT
 10
0.0
 20
0.0
 30
0.0
  9
$UCSORGRIGHT
 10
0.0
 20
0.0
 30
0.0
  9
$UCSORGFRONT
 10
0.0
 20
0.0
 30
0.0
  9
$UCSORGBACK
 10
0.0
 20
0.0
 30
0.0
  9
$PUCSBASE
  2

  9
$PUCSNAME
  2

  9
$PUCSORG
 10
0.0
 20
0.0
 30
0.0
  9
$PUCSXDIR
 10
1.0
 20
0.0
 30
0.0
  9
$PUCSYDIR
 10
0.0
 20
1.0
 30
0.0
  9
$PUCSORTHOREF
  2

  9
$PUCSORTHOVIEW
 70
     0
  9
$PUCSORGTOP
 10
0.0
 20
0.0
 30
0.0
  9
$PUCSORGBOTTOM
 10
0.0
 20
0.0
 30
0.0
  9
$PUCSORGLEFT
 10
0.0
 20
0.0
 30
0.0
  9
$PUCSORGRIGHT
 10
0.0
 20
0.0
 30
0.0
  9
$PUCSORGFRONT
 10
0.0
 20
0.0
 30
0.0
  9
$PUCSORGBACK
 10
0.0
 20
0.0
 30
0.0
  9
$USERI1
 70
     0
  9
$USERI2
 70
     0
  9
$USERI3
 70
     0
  9
$USERI4
 70
     0
  9
$USERI5
 70
     0
  9
$USERR1
 40
0.0
  9
$USERR2
 40
0.0
  9
$USERR3
 40
0.0
  9
$USERR4
 40
0.0
  9
$USERR5
 40
0.0
  9
$WORLDVIEW
 70
     1
  9
$SHADEDGE
 70
     3
  9
$SHADEDIF
 70
    70
  9
$TILEMODE
 70
     1
  9
$MAXACTVP
 70
    64
  9
$PINSBASE
 10
0.0
 20
0.0
 30
0.0
  9
$PLIMCHECK
 70
     0
  9
$PEXTMIN
 10
1.000000000000000E+20
 20
1.000000000000000E+20
 30
1.000000000000000E+20
  9
$PEXTMAX
 10
-1.000000000000000E+20
 20
-1.000000000000000E+20
 30
-1.000000000000000E+20
  9
$PLIMMIN
 10
0.0
 20
0.0
  9
$PLIMMAX
 10
12.0
 20
9.0
  9
$UNITMODE
 70
     0
  9
$VISRETAIN
 70
     1
  9
$PLINEGEN
 70
     0
  9
$PSLTSCALE
 70
     1
  9
$TREEDEPTH
 70
  3020
  9
$CMLSTYLE
  2
Standard
  9
$CMLJUST
 70
     0
  9
$CMLSCALE
 40
1.0
  9
$PROXYGRAPHICS
 70
     1
  9
$MEASUREMENT
 70
     0
  9
$CELWEIGHT
370
    -1
  9
$ENDCAPS
280
     0
  9
$JOINSTYLE
280
     0
  9
$LWDISPLAY
290
     1
  9
$INSUNITS
 70
     1
  9
$HYPERLINKBASE
  1

  9
$STYLESHEET
  1

  9
$XEDIT
290
     1
  9
$CEPSNTYPE
380
     0
  9
$PSTYLEMODE
290
     1
  9
$FINGERPRINTGUID
  2
{2CFACF17-4EE1-7D73-77D5-ABBAEF534985}
  9
$VERSIONGUID
  2
{FAEB1C32-E019-11D5-929B-00C0DF256EC4}
  9
$EXTNAMES
290
     1
  9
$PSVPSCALE
 40
0.0
  9
$OLESTARTUP
290
     0
  9
$SORTENTS
280
   127
  9
$INDEXCTL
280
     0
  9
$HIDETEXT
280
     1
  9
$XCLIPFRAME
280
     2
  9
$HALOGAP
280
     0
  9
$OBSCOLOR
 70
   257
  9
$OBSLTYPE
280
     0
  9
$INTERSECTIONDISPLAY
280
     0
  9
$INTERSECTIONCOLOR
 70
   257
  9
$DIMASSOC
280
     2
  9
$PROJECTNAME
  1

  9
$CAMERADISPLAY
290
     0
  9
$LENSLENGTH
 40
50.0
  9
$CAMERAHEIGHT
 40
0.0
  9
$STEPSPERSEC
 40
2.0
  9
$STEPSIZE
 40
6.0
  9
$3DDWFPREC
 40
2.0
  9
$PSOLWIDTH
 40
0.25
  9
$PSOLHEIGHT
 40
4.0
  9
$LOFTANG1
 40
1.570796326794897
  9
$LOFTANG2
 40
1.570796326794897
  9
$LOFTMAG1
 40
0.0
  9
$LOFTMAG2
 40
0.0
  9
$LOFTPARAM
 70
     7
  9
$LOFTNORMALS
280
     1
  9
$LATITUDE
 40
37.795
  9
$LONGITUDE
 40
-122.394
  9
$NORTHDIRECTION
 40
0.0
  9
$TIMEZONE
 70
 -8000
  9
$LIGHTGLYPHDISPLAY
280
     1
  9
$TILEMODELIGHTSYNCH
280
     1
  9
$CMATERIAL
347
3C
  9
$SOLIDHIST
280
     1
  9
$SHOWHIST
280
     1
  9
$DWFFRAME
280
     2
  9
$DGNFRAME
280
     2
  9
$REALWORLDSCALE
290
     1
  9
$INTERFERECOLOR
 62
   256
  9
$CSHADOW
280
     0
  9
$SHADOWPLANELOCATION
 40
0.0
  0
ENDSEC
  0
SECTION
  2
CLASSES
  0
CLASS
  1
ACDBDICTIONARYWDFLT
  2
AcDbDictionaryWithDefault
  3
ObjectDBX Classes
 90
        0
 91
        4
280
     0
281
     0
  0
CLASS
  1
VISUALSTYLE
  2
AcDbVisualStyle
  3
ObjectDBX Classes
 90
     4095
 91
        4
280
     0
281
     0
  0
CLASS
  1
MATERIAL
  2
AcDbMaterial
  3
ObjectDBX Classes
 90
     1153
 91
        4
280
     0
281
     0
  0
CLASS
  1
SUN
  2
AcDbSun
  3
SCENEOE
 90
     1024
 91
        4
280
     0
281
     0
  0
ENDSEC
  0
SECTION
  2
TABLES
  0
TABLE
  2
VPORT
  5
8
330
0
100
AcDbSymbolTable
 70
     1
  0
VPORT
  5
29
330
8
100
AcDbSymbolTableRecord
100
AcDbViewportTableRecord
  2
*Active
 70
     0
 10
0.0
 20
0.0
 11
1.0
 21
1.0
 12
0.0
 22
0.0
 13
0.0
 23
0.0
 14
0.5
 24
0.5
 15
0.5
 25
0.5
 16
0.0
 26
0.0
 36
1.0
 17
91.00082462281999
 27
-128.4993055234307
 37
0.0
 40
256.9986110468615
 41
0.7081814508812795
 42
50.0
 43
0.0
 44
0.0
 50
0.0
 51
0.0
 71
     0
 72
   100
 73
     1
 74
     3
 75
     0
 76
     0
 77
     0
 78
     0
281
     0
 65
     1
110
0.0
120
0.0
130
0.0
111
1.0
121
0.0
131
0.0
112
0.0
122
1.0
132
0.0
 79
     0
146
0.0
 60
     3
 61
     5
292
     1
282
     1
141
0.0
142
0.0
 63
   250
361
3F
  0
ENDTAB
  0
TABLE
  2
LTYPE
  5
5
330
0
100
AcDbSymbolTable
 70
     1
  0
LTYPE
  5
14
330
5
100
AcDbSymbolTableRecord
100
AcDbLinetypeTableRecord
  2
ByBlock
 70
     0
  3

 72
    65
 73
     0
 40
0.0
  0
LTYPE
  5
15
330
5
100
AcDbSymbolTableRecord
100
AcDbLinetypeTableRecord
  2
ByLayer
 70
     0
  3

 72
    65
 73
     0
 40
0.0
  0
LTYPE
  5
16
330
5
100
AcDbSymbolTableRecord
100
AcDbLinetypeTableRecord
  2
Continuous
 70
     0
  3
Solid line
 72
    65
 73
     0
 40
0.0
  0
ENDTAB
  0
TABLE
  2
LAYER
  5
2
330
0
100
AcDbSymbolTable
 70
     2
  0
LAYER
  5
10
330
2
100
AcDbSymbolTableRecord
100
AcDbLayerTableRecord
  2
0
 70
     0
 62
     7
  6
Continuous
370
    -3
390
F
347
3E
  0
LAYER
  5
40
330
2
100
AcDbSymbolTableRecord
100
AcDbLayerTableRecord
  2
_U+30EC_U+30A4_U+30E4_U+30FC 1
 70
     0
 62
     7
  6
Continuous
370
    -3
390
F
347
3E
  0
ENDTAB
  0
TABLE
  2
STYLE
  5
3
330
0
100
AcDbSymbolTable
 70
     1
  0
STYLE
  5
11
330
3
100
AcDbSymbolTableRecord
100
AcDbTextStyleTableRecord
  2
Standard
 70
     0
 40
0.0
 41
1.0
 50
0.0
 71
     0
 42
0.2
  3
txt
  4

  0
ENDTAB
  0
TABLE
  2
VIEW
  5
6
330
0
100
AcDbSymbolTable
 70
     0
  0
ENDTAB
  0
TABLE
  2
UCS
  5
7
330
0
100
AcDbSymbolTable
 70
     0
  0
ENDTAB
  0
TABLE
  2
APPID
  5
9
330
0
100
AcDbSymbolTable
 70
     1
  0
APPID
  5
12
330
9
100
AcDbSymbolTableRecord
100
AcDbRegAppTableRecord
  2
ACAD
 70
     0
  0
ENDTAB
  0
TABLE
  2
DIMSTYLE
  5
A
330
0
100
AcDbSymbolTable
 70
     1
100
AcDbDimStyleTable
  0
DIMSTYLE
105
27
330
A
100
AcDbSymbolTableRecord
100
AcDbDimStyleTableRecord
  2
Standard
 70
     0
178
     0
340
11
  0
ENDTAB
  0
TABLE
  2
BLOCK_RECORD
  5
1
330
0
100
AcDbSymbolTable
 70
     5
  0
BLOCK_RECORD
  5
1F
330
1
100
AcDbSymbolTableRecord
100
AcDbBlockTableRecord
  2
*Model_Space
340
22
 70
     0
280
     1
281
     0
  0
BLOCK_RECORD
  5
1B
330
1
100
AcDbSymbolTableRecord
100
AcDbBlockTableRecord
  2
*Paper_Space
340
1E
 70
     0
280
     1
281
     0
  0
BLOCK_RECORD
  5
23
330
1
100
AcDbSymbolTableRecord
100
AcDbBlockTableRecord
  2
*Paper_Space0
340
26
 70
     0
280
     1
281
     0
  0
BLOCK_RECORD
  5
41
330
1
100
AcDbSymbolTableRecord
100
AcDbBlockTableRecord
  2
block 2
340
0
102
{BLKREFS
331
42
102
}
 70
     0
280
     1
281
     0
  0
BLOCK_RECORD
  5
59
330
1
100
AcDbSymbolTableRecord
100
AcDbBlockTableRecord
  2
block 3
340
0
102
{BLKREFS
331
5A
102
}
 70
     0
280
     1
281
     0
  0
BLOCK_RECORD
  5
B3
330
1
100
AcDbSymbolTableRecord
100
AcDbBlockTableRecord
  2
block 4
340
0
102
{BLKREFS
331
B4
102
}
 70
     0
280
     1
281
     0
  0
BLOCK_RECORD
  5
CD
330
1
100
AcDbSymbolTableRecord
100
AcDbBlockTableRecord
  2
block 5
340
0
102
{BLKREFS
331
CE
102
}
 70
     0
280
     1
281
     0
  0
ENDTAB
  0
ENDSEC
  0
SECTION
  2
BLOCKS
  0
BLOCK
  5
20
330
1F
100
AcDbEntity
  8
0
100
AcDbBlockBegin
  2
*Model_Space
 70
     0
 10
0.0
 20
0.0
 30
0.0
  3
*Model_Space
  1

  0
ENDBLK
  5
21
330
1F
100
AcDbEntity
  8
0
100
AcDbBlockEnd
  0
BLOCK
  5
1C
330
1B
100
AcDbEntity
 67
     1
  8
0
100
AcDbBlockBegin
  2
*Paper_Space
 70
     0
 10
0.0
 20
0.0
 30
0.0
  3
*Paper_Space
  1

  0
ENDBLK
  5
1D
330
1B
100
AcDbEntity
 67
     1
  8
0
100
AcDbBlockEnd
  0
BLOCK
  5
24
330
23
100
AcDbEntity
  8
0
100
AcDbBlockBegin
  2
*Paper_Space0
 70
     0
 10
0.0
 20
0.0
 30
0.0
  3
*Paper_Space0
  1

  0
ENDBLK
  5
25
330
23
100
AcDbEntity
  8
0
100
AcDbBlockEnd
  0
BLOCK
  5
43
330
41
100
AcDbEntity
  8
0
100
AcDbBlockBegin
  2
block 2
 70
     0
 10
0.0
 20
0.0
 30
0.0
  3
block 2
  1

  0
POLYLINE
  5
45
330
41
100
AcDbEntity
  8
_U+30EC_U+30A4_U+30E4_U+30FC 1
 62
   179
420
  2234388
370
     9
100
AcDb2dPolyline
 66
     1
 10
0.0
 20
0.0
 30
0.0
  0
VERTEX
  5
46
330
45
100
AcDbEntity
  8
_U+30EC_U+30A4_U+30E4_U+30FC 1
 62
   179
420
  2234388
370
     9
100
AcDbVertex
100
AcDb2dVertex
 10
90.86130101526842
 20
-122.3990721916223
 30
0.0
  0
VERTEX
  5
47
330
45
100
AcDbEntity
  8
_U+30EC_U+30A4_U+30E4_U+30FC 1
 62
   179
420
  2234388
370
     9
100
AcDbVertex
100
AcDb2dVertex
 10
90.86130101526842
 20
-128.2812183012631
 30
0.0
  0
SEQEND
  5
48
330
45
100
AcDbEntity
  8
_U+30EC_U+30A4_U+30E4_U+30FC 1
 62
   179
420
  2234388
370
     9
  0
POLYLINE
  5
49
330
41
100
AcDbEntity
  8
_U+30EC_U+30A4_U+30E4_U+30FC 1
 62
   179
420
  2234388
370
    25
100
AcDb2dPolyline
 66
     1
 10
0.0
 20
0.0
 30
0.0
  0
VERTEX
  5
4A
330
49
100
AcDbEntity
  8
_U+30EC_U+30A4_U+30E4_U+30FC 1
 62
   179
420
  2234388
370
    25
100
AcDbVertex
100
AcDb2dVertex
 10
86.68550584402406
 20
-131.4841230226845
 30
0.0
  0
VERTEX
  5
4B
330
49
100
AcDbEntity
  8
_U+30EC_U+30A4_U+30E4_U+30FC 1
 62
   179
420
  2234388
370
    25
100
AcDbVertex
100
AcDb2dVertex
 10
87.05616944567875
 20
-132.625853022399
 30
0.0
  0
SEQEND
  5
4C
330
49
100
AcDbEntity
  8
_U+30EC_U+30A4_U+30E4_U+30FC 1
 62
   179
420
  2234388
370
    25
  0
POLYLINE
  5
4D
330
41
100
AcDbEntity
  8
_U+30EC_U+30A4_U+30E4_U+30FC 1
 62
   179
420
  2234388
370
     9
100
AcDb2dPolyline
 66
     1
 10
0.0
 20
0.0
 30
0.0
  0
VERTEX
  5
4E
330
4D
100
AcDbEntity
  8
_U+30EC_U+30A4_U+30E4_U+30FC 1
 62
   179
420
  2234388
370
     9
100
AcDbVertex
100
AcDb2dVertex
 10
90.53057185703936
 20
-127.0463196904606
 30
0.0
  0
VERTEX
  5
4F
330
4D
100
AcDbEntity
  8
_U+30EC_U+30A4_U+30E4_U+30FC 1
 62
   179
420
  2234388
370
     9
100
AcDbVertex
100
AcDb2dVertex
 10
90.86130101526842
 20
-128.2812183012631
 30
0.0
  0
SEQEND
  5
50
330
4D
100
AcDbEntity
  8
_U+30EC_U+30A4_U+30E4_U+30FC 1
 62
   179
420
  2234388
370
     9
  0
POLYLINE
  5
51
330
41
100
AcDbEntity
  8
_U+30EC_U+30A4_U+30E4_U+30FC 1
 62
   179
420
  2234388
370
     9
100
AcDb2dPolyline
 66
     1
 10
0.0
 20
0.0
 30
0.0
  0
VERTEX
  5
52
330
51
100
AcDbEntity
  8
_U+30EC_U+30A4_U+30E4_U+30FC 1
 62
   179
420
  2234388
370
     9
100
AcDbVertex
100
AcDb2dVertex
 10
91.19203017349749
 20
-127.0463196904606
 30
0.0
  0
VERTEX
  5
53
330
51
100
AcDbEntity
  8
_U+30EC_U+30A4_U+30E4_U+30FC 1
 62
   179
420
  2234388
370
     9
100
AcDbVertex
100
AcDb2dVertex
 10
90.86130101526842
 20
-128.2812183012631
 30
0.0
  0
SEQEND
  5
54
330
51
100
AcDbEntity
  8
_U+30EC_U+30A4_U+30E4_U+30FC 1
 62
   179
420
  2234388
370
     9
  0
SPLINE
  5
55
330
41
100
AcDbEntity
  8
_U+30EC_U+30A4_U+30E4_U+30FC 1
 62
   179
420
  2234388
370
     9
100
AcDbSpline
210
0.0
220
0.0
230
1.0
 70
    11
 71
     3
 72
    17
 73
    13
 74
     0
 42
0.0000000001
 43
0.0000000001
 12
1.0
 22
0.0
 32
0.0
 13
1.0
 23
0.0
 33
0.0
 40
0.0
 40
0.0
 40
0.0
 40
0.0
 40
1.0
 40
1.0
 40
1.0
 40
2.0
 40
2.0
 40
2.0
 40
3.0
 40
3.0
 40
3.0
 40
4.0
 40
4.0
 40
4.0
 40
4.0
 10
88.85625553334157
 20
-125.2300785798036
 30
0.0
 10
88.85625553334157
 20
-125.1587821909327
 30
0.0
 10
88.79906801232481
 20
-125.101596913169
 30
0.0
 10
88.72875940300743
 20
-125.101596913169
 30
0.0
 10
88.65848607146691
 20
-125.101596913169
 30
0.0
 10
88.60063051738737
 20
-125.1587821909327
 30
0.0
 10
88.60063051738737
 20
-125.2300785798036
 30
0.0
 10
88.60063051738737
 20
-125.3005283020082
 30
0.0
 10
88.65848607146691
 20
-125.3577135797716
 30
0.0
 10
88.72875940300743
 20
-125.3577135797716
 30
0.0
 10
88.79906801232481
 20
-125.3577135797716
 30
0.0
 10
88.85625553334157
 20
-125.3005283020082
 30
0.0
 10
88.85625553334157
 20
-125.2300785798036
 30
0.0
  0
HATCH
  5
56
330
41
100
AcDbEntity
  8
_U+30EC_U+30A4_U+30E4_U+30FC 1
 62
   179
420
  2234388
100
AcDbHatch
 10
0.0
 20
0.0
 30
0.0
210
0.0
220
0.0
230
1.0
  2
SOLID
 70
     1
 71
     0
 91
        1
 92
        1
 93
        1
 72
     4
 94
        3
 73
     0
 74
     1
 95
       17
 96
       13
 40
0.0
 40
0.0
 40
0.0
 40
0.0
 40
1.0
 40
1.0
 40
1.0
 40
2.0
 40
2.0
 40
2.0
 40
3.0
 40
3.0
 40
3.0
 40
4.0
 40
4.0
 40
4.0
 40
4.0
 10
88.85625553334157
 20
-125.2300785798036
 10
88.85625553334157
 20
-125.1587821909327
 10
88.79906801232481
 20
-125.101596913169
 10
88.72875940300743
 20
-125.101596913169
 10
88.65848607146691
 20
-125.101596913169
 10
88.60063051738737
 20
-125.1587821909327
 10
88.60063051738737
 20
-125.2300785798036
 10
88.60063051738737
 20
-125.3005283020082
 10
88.65848607146691
 20
-125.3577135797716
 10
88.72875940300743
 20
-125.3577135797716
 10
88.79906801232481
 20
-125.3577135797716
 10
88.85625553334157
 20
-125.3005283020082
 10
88.85625553334157
 20
-125.2300785798036
 97
        0
 97
        0
 75
     2
 76
     1
 98
        0
  0
SPLINE
  5
57
330
41
100
AcDbEntity
  8
_U+30EC_U+30A4_U+30E4_U+30FC 1
 62
   179
420
  2234388
370
     9
100
AcDbSpline
210
0.0
220
0.0
230
1.0
 70
    11
 71
     3
 72
    17
 73
    13
 74
     0
 42
0.0000000001
 43
0.0000000001
 12
1.0
 22
0.0
 32
0.0
 13
1.0
 23
0.0
 33
0.0
 40
0.0
 40
0.0
 40
0.0
 40
0.0
 40
1.0
 40
1.0
 40
1.0
 40
2.0
 40
2.0
 40
2.0
 40
3.0
 40
3.0
 40
3.0
 40
4.0
 40
4.0
 40
4.0
 40
4.0
 10
64.99207195302522
 20
-132.8163530223517
 30
0.0
 10
64.99207195302522
 20
-132.7457269112579
 30
0.0
 10
64.9341811211688
 20
-132.6885416334945
 30
0.0
 10
64.86390778962829
 20
-132.6885416334945
 30
0.0
 10
64.79363609491284
 20
-132.6885416334945
 30
0.0
 10
64.73644918176892
 20
-132.7457269112579
 30
0.0
 10
64.73644918176892
 20
-132.8163530223517
 30
0.0
 10
64.73644918176892
 20
-132.8869791334449
 30
0.0
 10
64.79363609491284
 20
-132.9441644112082
 30
0.0
 10
64.86390778962829
 20
-132.9441644112082
 30
0.0
 10
64.9341811211688
 20
-132.9441644112082
 30
0.0
 10
64.99207195302522
 20
-132.8869791334449
 30
0.0
 10
64.99207195302522
 20
-132.8163530223517
 30
0.0
  0
HATCH
  5
58
330
41
100
AcDbEntity
  8
_U+30EC_U+30A4_U+30E4_U+30FC 1
 62
   179
420
  2234388
100
AcDbHatch
 10
0.0
 20
0.0
 30
0.0
210
0.0
220
0.0
230
1.0
  2
SOLID
 70
     1
 71
     0
 91
        1
 92
        1
 93
        1
 72
     4
 94
        3
 73
     0
 74
     1
 95
       17
 96
       13
 40
0.0
 40
0.0
 40
0.0
 40
0.0
 40
1.0
 40
1.0
 40
1.0
 40
2.0
 40
2.0
 40
2.0
 40
3.0
 40
3.0
 40
3.0
 40
4.0
 40
4.0
 40
4.0
 40
4.0
 10
64.99207195302522
 20
-132.8163530223517
 10
64.99207195302522
 20
-132.7457269112579
 10
64.9341811211688
 20
-132.6885416334945
 10
64.86390778962829
 20
-132.6885416334945
 10
64.79363609491284
 20
-132.6885416334945
 10
64.73644918176892
 20
-132.7457269112579
 10
64.73644918176892
 20
-132.8163530223517
 10
64.73644918176892
 20
-132.8869791334449
 10
64.79363609491284
 20
-132.9441644112082
 10
64.86390778962829
 20
-132.9441644112082
 10
64.9341811211688
 20
-132.9441644112082
 10
64.99207195302522
 20
-132.8869791334449
 10
64.99207195302522
 20
-132.8163530223517
 97
        0
 97
        0
 75
     2
 76
     1
 98
        0
  0
INSERT
  5
5A
330
41
100
AcDbEntity
  8
_U+30EC_U+30A4_U+30E4_U+30FC 1
100
AcDbBlockReference
  2
block 3
 10
0.0
 20
0.0
 30
0.0
  0
INSERT
  5
B4
330
41
100
AcDbEntity
  8
_U+30EC_U+30A4_U+30E4_U+30FC 1
100
AcDbBlockReference
  2
block 4
 10
0.0
 20
0.0
 30
0.0
  0
POLYLINE
  5
BB
330
41
100
AcDbEntity
  8
_U+30EC_U+30A4_U+30E4_U+30FC 1
 62
   179
420
  2234388
370
     9
100
AcDb2dPolyline
 66
     1
 10
0.0
 20
0.0
 30
0.0
  0
VERTEX
  5
BC
330
BB
100
AcDbEntity
  8
_U+30EC_U+30A4_U+30E4_U+30FC 1
 62
   179
420
  2234388
370
     9
100
AcDbVertex
100
AcDb2dVertex
 10
88.72875940300743
 20
-125.2300785798036
 30
0.0
  0
VERTEX
  5
BD
330
BB
100
AcDbEntity
  8
_U+30EC_U+30A4_U+30E4_U+30FC 1
 62
   179
420
  2234388
370
     9
100
AcDbVertex
100
AcDb2dVertex
 10
64.8637314007439
 20
-132.7974088556896
 30
0.0
  0
SEQEND
  5
BE
330
BB
100
AcDbEntity
  8
_U+30EC_U+30A4_U+30E4_U+30FC 1
 62
   179
420
  2234388
370
     9
  0
POLYLINE
  5
BF
330
41
100
AcDbEntity
  8
_U+30EC_U+30A4_U+30E4_U+30FC 1
 62
   179
420
  2234388
370
     9
100
AcDb2dPolyline
 66
     1
 10
0.0
 20
0.0
 30
0.0
  0
VERTEX
  5
C0
330
BF
100
AcDbEntity
  8
_U+30EC_U+30A4_U+30E4_U+30FC 1
 62
   179
420
  2234388
370
     9
100
AcDbVertex
100
AcDb2dVertex
 10
89.87669826260995
 20
-128.8351852455691
 30
0.0
  0
VERTEX
  5
C1
330
BF
100
AcDbEntity
  8
_U+30EC_U+30A4_U+30E4_U+30FC 1
 62
   179
420
  2234388
370
     9
100
AcDbVertex
100
AcDb2dVertex
 10
88.340847200137
 20
-124.0119016356638
 30
0.0
  0
SEQEND
  5
C2
330
BF
100
AcDbEntity
  8
_U+30EC_U+30A4_U+30E4_U+30FC 1
 62
   179
420
  2234388
370
     9
  0
SPLINE
  5
C3
330
41
100
AcDbEntity
  8
_U+30EC_U+30A4_U+30E4_U+30FC 1
 62
   179
420
  2234388
370
     9
100
AcDbSpline
210
0.0
220
0.0
230
1.0
 70
    11
 71
     3
 72
    17
 73
    13
 74
     0
 42
0.0000000001
 43
0.0000000001
 12
1.0
 22
0.0
 32
0.0
 13
1.0
 23
0.0
 33
0.0
 40
0.0
 40
0.0
 40
0.0
 40
0.0
 40
1.0
 40
1.0
 40
1.0
 40
2.0
 40
2.0
 40
2.0
 40
3.0
 40
3.0
 40
3.0
 40
4.0
 40
4.0
 40
4.0
 40
4.0
 10
92.86666624188507
 20
-125.2300785798036
 30
0.0
 10
92.86666624188507
 20
-125.1587821909327
 30
0.0
 10
92.9238867959808
 20
-125.101596913169
 30
0.0
 10
92.99416012752133
 20
-125.101596913169
 30
0.0
 10
93.06443345906183
 20
-125.101596913169
 30
0.0
 10
93.12232429091824
 20
-125.1587821909327
 30
0.0
 10
93.12232429091824
 20
-125.2300785798036
 30
0.0
 10
93.12232429091824
 20
-125.3005283020082
 30
0.0
 10
93.06443345906183
 20
-125.3577135797716
 30
0.0
 10
92.99416012752133
 20
-125.3577135797716
 30
0.0
 10
92.9238867959808
 20
-125.3577135797716
 30
0.0
 10
92.86666624188507
 20
-125.3005283020082
 30
0.0
 10
92.86666624188507
 20
-125.2300785798036
 30
0.0
  0
HATCH
  5
C4
330
41
100
AcDbEntity
  8
_U+30EC_U+30A4_U+30E4_U+30FC 1
 62
   179
420
  2234388
100
AcDbHatch
 10
0.0
 20
0.0
 30
0.0
210
0.0
220
0.0
230
1.0
  2
SOLID
 70
     1
 71
     0
 91
        1
 92
        1
 93
        1
 72
     4
 94
        3
 73
     0
 74
     1
 95
       17
 96
       13
 40
0.0
 40
0.0
 40
0.0
 40
0.0
 40
1.0
 40
1.0
 40
1.0
 40
2.0
 40
2.0
 40
2.0
 40
3.0
 40
3.0
 40
3.0
 40
4.0
 40
4.0
 40
4.0
 40
4.0
 10
92.86666624188507
 20
-125.2300785798036
 10
92.86666624188507
 20
-125.1587821909327
 10
92.9238867959808
 20
-125.101596913169
 10
92.99416012752133
 20
-125.101596913169
 10
93.06443345906183
 20
-125.101596913169
 10
93.12232429091824
 20
-125.1587821909327
 10
93.12232429091824
 20
-125.2300785798036
 10
93.12232429091824
 20
-125.3005283020082
 10
93.06443345906183
 20
-125.3577135797716
 10
92.99416012752133
 20
-125.3577135797716
 10
92.9238867959808
 20
-125.3577135797716
 10
92.86666624188507
 20
-125.3005283020082
 10
92.86666624188507
 20
-125.2300785798036
 97
        0
 97
        0
 75
     2
 76
     1
 98
        0
  0
POLYLINE
  5
C5
330
41
100
AcDbEntity
  8
_U+30EC_U+30A4_U+30E4_U+30FC 1
 62
   179
420
  2234388
370
     9
100
AcDb2dPolyline
 66
     1
 10
0.0
 20
0.0
 30
0.0
  0
VERTEX
  5
C6
330
C5
100
AcDbEntity
  8
_U+30EC_U+30A4_U+30E4_U+30FC 1
 62
   179
420
  2234388
370
     9
100
AcDbVertex
100
AcDb2dVertex
 10
91.84625654569567
 20
-128.8351852455691
 30
0.0
  0
VERTEX
  5
C7
330
C5
100
AcDbEntity
  8
_U+30EC_U+30A4_U+30E4_U+30FC 1
 62
   179
420
  2234388
370
     9
100
AcDbVertex
100
AcDb2dVertex
 10
93.38207456206925
 20
-124.0119016356638
 30
0.0
  0
SEQEND
  5
C8
330
C5
100
AcDbEntity
  8
_U+30EC_U+30A4_U+30E4_U+30FC 1
 62
   179
420
  2234388
370
     9
  0
POLYLINE
  5
C9
330
41
100
AcDbEntity
  8
_U+30EC_U+30A4_U+30E4_U+30FC 1
 62
   179
420
  2234388
370
     9
100
AcDb2dPolyline
 66
     1
 10
0.0
 20
0.0
 30
0.0
  0
VERTEX
  5
CA
330
C9
100
AcDbEntity
  8
_U+30EC_U+30A4_U+30E4_U+30FC 1
 62
   179
420
  2234388
370
     9
100
AcDbVertex
100
AcDb2dVertex
 10
65.43131555293029
 20
-134.5137432997051
 30
0.0
  0
VERTEX
  5
CB
330
C9
100
AcDbEntity
  8
_U+30EC_U+30A4_U+30E4_U+30FC 1
 62
   179
420
  2234388
370
     9
100
AcDbVertex
100
AcDb2dVertex
 10
64.47772196614739
 20
-131.517213578232
 30
0.0
  0
SEQEND
  5
CC
330
C9
100
AcDbEntity
  8
_U+30EC_U+30A4_U+30E4_U+30FC 1
 62
   179
420
  2234388
370
     9
  0
INSERT
  5
CE
330
41
100
AcDbEntity
  8
_U+30EC_U+30A4_U+30E4_U+30FC 1
100
AcDbBlockReference
  2
block 5
 10
0.0
 20
0.0
 30
0.0
  0
POLYLINE
  5
D5
330
41
100
AcDbEntity
  8
_U+30EC_U+30A4_U+30E4_U+30FC 1
 62
   179
420
  2234388
370
    25
100
AcDb2dPolyline
 66
     1
 10
0.0
 20
0.0
 30
0.0
  0
VERTEX
  5
D6
330
D5
100
AcDbEntity
  8
_U+30EC_U+30A4_U+30E4_U+30FC 1
 62
   179
420
  2234388
370
    25
100
AcDbVertex
100
AcDb2dVertex
 10
95.02951386513152
 20
-131.5240927448964
 30
0.0
  0
VERTEX
  5
D7
330
D5
100
AcDbEntity
  8
_U+30EC_U+30A4_U+30E4_U+30FC 1
 62
   179
420
  2234388
370
    25
100
AcDbVertex
100
AcDb2dVertex
 10
94.66914897367768
 20
-132.6158341335129
 30
0.0
  0
SEQEND
  5
D8
330
D5
100
AcDbEntity
  8
_U+30EC_U+30A4_U+30E4_U+30FC 1
 62
   179
420
  2234388
370
    25
  0
SPLINE
  5
D9
330
41
100
AcDbEntity
  8
_U+30EC_U+30A4_U+30E4_U+30FC 1
 62
   179
420
  2234388
370
     9
100
AcDbSpline
210
0.0
220
0.0
230
1.0
 70
    11
 71
     3
 72
    17
 73
    13
 74
     0
 42
0.0000000001
 43
0.0000000001
 12
1.0
 22
0.0
 32
0.0
 13
1.0
 23
0.0
 33
0.0
 40
0.0
 40
0.0
 40
0.0
 40
0.0
 40
1.0
 40
1.0
 40
1.0
 40
2.0
 40
2.0
 40
2.0
 40
3.0
 40
3.0
 40
3.0
 40
4.0
 40
4.0
 40
4.0
 40
4.0
 10
116.6970867450315
 20
-132.8311696890145
 30
0.0
 10
116.6970867450315
 20
-132.7605435779213
 30
0.0
 10
116.7549805263671
 20
-132.7033583001573
 30
0.0
 10
116.8252509084284
 20
-132.7033583001573
 30
0.0
 10
116.8955242399689
 20
-132.7033583001573
 30
0.0
 10
116.9527095162878
 20
-132.7605435779213
 30
0.0
 10
116.9527095162878
 20
-132.8311696890145
 30
0.0
 10
116.9527095162878
 20
-132.9017958001077
 30
0.0
 10
116.8955242399689
 20
-132.9589810778717
 30
0.0
 10
116.8252509084284
 20
-132.9589810778717
 30
0.0
 10
116.7549805263671
 20
-132.9589810778717
 30
0.0
 10
116.6970867450315
 20
-132.9017958001077
 30
0.0
 10
116.6970867450315
 20
-132.8311696890145
 30
0.0
  0
HATCH
  5
DA
330
41
100
AcDbEntity
  8
_U+30EC_U+30A4_U+30E4_U+30FC 1
 62
   179
420
  2234388
100
AcDbHatch
 10
0.0
 20
0.0
 30
0.0
210
0.0
220
0.0
230
1.0
  2
SOLID
 70
     1
 71
     0
 91
        1
 92
        1
 93
        1
 72
     4
 94
        3
 73
     0
 74
     1
 95
       17
 96
       13
 40
0.0
 40
0.0
 40
0.0
 40
0.0
 40
1.0
 40
1.0
 40
1.0
 40
2.0
 40
2.0
 40
2.0
 40
3.0
 40
3.0
 40
3.0
 40
4.0
 40
4.0
 40
4.0
 40
4.0
 10
116.6970867450315
 20
-132.8311696890145
 10
116.6970867450315
 20
-132.7605435779213
 10
116.7549805263671
 20
-132.7033583001573
 10
116.8252509084284
 20
-132.7033583001573
 10
116.8955242399689
 20
-132.7033583001573
 10
116.9527095162878
 20
-132.7605435779213
 10
116.9527095162878
 20
-132.8311696890145
 10
116.9527095162878
 20
-132.9017958001077
 10
116.8955242399689
 20
-132.9589810778717
 10
116.8252509084284
 20
-132.9589810778717
 10
116.7549805263671
 20
-132.9589810778717
 10
116.6970867450315
 20
-132.9017958001077
 10
116.6970867450315
 20
-132.8311696890145
 97
        0
 97
        0
 75
     2
 76
     1
 98
        0
  0
POLYLINE
  5
DB
330
41
100
AcDbEntity
  8
_U+30EC_U+30A4_U+30E4_U+30FC 1
 62
   179
420
  2234388
370
     9
100
AcDb2dPolyline
 66
     1
 10
0.0
 20
0.0
 30
0.0
  0
VERTEX
  5
DC
330
DB
100
AcDbEntity
  8
_U+30EC_U+30A4_U+30E4_U+30FC 1
 62
   179
420
  2234388
370
     9
100
AcDbVertex
100
AcDb2dVertex
 10
92.99416012752133
 20
-125.2300785798036
 30
0.0
  0
VERTEX
  5
DD
330
DB
100
AcDbEntity
  8
_U+30EC_U+30A4_U+30E4_U+30FC 1
 62
   179
420
  2234388
370
     9
100
AcDbVertex
100
AcDb2dVertex
 10
116.8548842410058
 20
-132.8118727445747
 30
0.0
  0
SEQEND
  5
DE
330
DB
100
AcDbEntity
  8
_U+30EC_U+30A4_U+30E4_U+30FC 1
 62
   179
420
  2234388
370
     9
  0
POLYLINE
  5
DF
330
41
100
AcDbEntity
  8
_U+30EC_U+30A4_U+30E4_U+30FC 1
 62
   179
420
  2234388
370
     9
100
AcDb2dPolyline
 66
     1
 10
0.0
 20
0.0
 30
0.0
  0
VERTEX
  5
E0
330
DF
100
AcDbEntity
  8
_U+30EC_U+30A4_U+30E4_U+30FC 1
 62
   179
420
  2234388
370
     9
100
AcDbVertex
100
AcDb2dVertex
 10
116.2836694153734
 20
-134.5137432997051
 30
0.0
  0
VERTEX
  5
E1
330
DF
100
AcDbEntity
  8
_U+30EC_U+30A4_U+30E4_U+30FC 1
 62
   179
420
  2234388
370
     9
100
AcDbVertex
100
AcDb2dVertex
 10
117.2372953423608
 20
-131.517213578232
 30
0.0
  0
SEQEND
  5
E2
330
DF
100
AcDbEntity
  8
_U+30EC_U+30A4_U+30E4_U+30FC 1
 62
   179
420
  2234388
370
     9
  0
SPLINE
  5
E3
330
41
100
AcDbEntity
  8
_U+30EC_U+30A4_U+30E4_U+30FC 1
 62
   179
420
  2234388
370
    25
100
AcDbSpline
210
0.0
220
0.0
230
1.0
 70
    11
 71
     3
 72
    35
 73
    31
 74
     0
 42
0.0000000001
 43
0.0000000001
 12
1.0
 22
0.0
 32
0.0
 13
1.0
 23
0.0
 33
0.0
 40
0.0
 40
0.0
 40
0.0
 40
0.0
 40
1.0
 40
1.0
 40
1.0
 40
2.0
 40
2.0
 40
2.0
 40
3.0
 40
3.0
 40
3.0
 40
4.0
 40
4.0
 40
4.0
 40
5.0
 40
5.0
 40
5.0
 40
6.0
 40
6.0
 40
6.0
 40
7.0
 40
7.0
 40
7.0
 40
8.0
 40
8.0
 40
8.0
 40
9.0
 40
9.0
 40
9.0
 40
10.0
 40
10.0
 40
10.0
 40
10.0
 10
90.86161851526032
 20
-130.4526713562756
 30
0.0
 10
91.41904266770591
 20
-130.4526713562756
 30
0.0
 10
91.97717237568907
 20
-130.5360327451438
 30
0.0
 10
92.51526664353771
 20
-130.7027908006577
 30
0.0
 10
92.51526664353771
 20
-130.7027908006577
 30
0.0
 10
115.2067417830534
 20
-137.8169074655456
 30
0.0
 10
115.2067417830534
 20
-137.8169074655456
 30
0.0
 10
115.2067417830534
 20
-137.8169074655456
 30
0.0
 10
115.0496527490154
 20
-138.3123132987552
 30
0.0
 10
115.0496527490154
 20
-138.3123132987552
 30
0.0
 10
115.0496527490154
 20
-138.3123132987552
 30
0.0
 10
91.80695710225383
 20
-131.8679099670332
 30
0.0
 10
91.80695710225383
 20
-131.8679099670332
 30
0.0
 10
91.49690072127515
 20
-131.7876530226085
 30
0.0
 10
91.17925961826774
 20
-131.7473305226189
 30
0.0
 10
90.86161851526032
 20
-131.7473305226189
 30
0.0
 10
90.54401269002979
 20
-131.7473305226189
 30
0.0
 10
90.22619519813799
 20
-131.7876530226085
 30
0.0
 10
89.9164563171512
 20
-131.8679099670332
 30
0.0
 10
89.9164563171512
 20
-131.8679099670332
 30
0.0
 10
66.65467829949749
 20
-138.2792580209858
 30
0.0
 10
66.65467829949749
 20
-138.2792580209858
 30
0.0
 10
66.65467829949749
 20
-138.2792580209858
 30
0.0
 10
66.49705719240762
 20
-137.7838521877763
 30
0.0
 10
66.49705719240762
 20
-137.7838521877763
 30
0.0
 10
66.49705719240762
 20
-137.7838521877763
 30
0.0
 10
89.2081491129994
 20
-130.7027908006577
 30
0.0
 10
89.2081491129994
 20
-130.7027908006577
 30
0.0
 10
89.74609993260846
 20
-130.5360327451438
 30
0.0
 10
90.30387686282283
 20
-130.4526713562756
 30
0.0
 10
90.86161851526032
 20
-130.4526713562756
 30
0.0
  0
ENDBLK
  5
44
330
41
100
AcDbEntity
  8
0
100
AcDbBlockEnd
  0
BLOCK
  5
5B
330
59
100
AcDbEntity
  8
0
100
AcDbBlockBegin
  2
block 3
 70
     0
 10
0.0
 20
0.0
 30
0.0
  3
block 3
  1

  0
SPLINE
  5
5D
330
59
100
AcDbEntity
  8
_U+30EC_U+30A4_U+30E4_U+30FC 1
370
     0
100
AcDbSpline
210
0.0
220
0.0
230
1.0
 70
    11
 71
     3
 72
   197
 73
   193
 74
     0
 42
0.0000000001
 43
0.0000000001
 12
1.0
 22
0.0
 32
0.0
 13
1.0
 23
0.0
 33
0.0
 40
0.0
 40
0.0
 40
0.0
 40
0.0
 40
1.0
 40
1.0
 40
1.0
 40
2.0
 40
2.0
 40
2.0
 40
3.0
 40
3.0
 40
3.0
 40
4.0
 40
4.0
 40
4.0
 40
5.0
 40
5.0
 40
5.0
 40
6.0
 40
6.0
 40
6.0
 40
7.0
 40
7.0
 40
7.0
 40
8.0
 40
8.0
 40
8.0
 40
9.0
 40
9.0
 40
9.0
 40
10.0
 40
10.0
 40
10.0
 40
11.0
 40
11.0
 40
11.0
 40
12.0
 40
12.0
 40
12.0
 40
13.0
 40
13.0
 40
13.0
 40
14.0
 40
14.0
 40
14.0
 40
15.0
 40
15.0
 40
15.0
 40
16.0
 40
16.0
 40
16.0
 40
17.0
 40
17.0
 40
17.0
 40
18.0
 40
18.0
 40
18.0
 40
19.0
 40
19.0
 40
19.0
 40
20.0
 40
20.0
 40
20.0
 40
21.0
 40
21.0
 40
21.0
 40
22.0
 40
22.0
 40
22.0
 40
23.0
 40
23.0
 40
23.0
 40
24.0
 40
24.0
 40
24.0
 40
25.0
 40
25.0
 40
25.0
 40
26.0
 40
26.0
 40
26.0
 40
27.0
 40
27.0
 40
27.0
 40
28.0
 40
28.0
 40
28.0
 40
29.0
 40
29.0
 40
29.0
 40
30.0
 40
30.0
 40
30.0
 40
31.0
 40
31.0
 40
31.0
 40
32.0
 40
32.0
 40
32.0
 40
33.0
 40
33.0
 40
33.0
 40
34.0
 40
34.0
 40
34.0
 40
35.0
 40
35.0
 40
35.0
 40
36.0
 40
36.0
 40
36.0
 40
37.0
 40
37.0
 40
37.0
 40
38.0
 40
38.0
 40
38.0
 40
39.0
 40
39.0
 40
39.0
 40
40.0
 40
40.0
 40
40.0
 40
41.0
 40
41.0
 40
41.0
 40
42.0
 40
42.0
 40
42.0
 40
43.0
 40
43.0
 40
43.0
 40
44.0
 40
44.0
 40
44.0
 40
45.0
 40
45.0
 40
45.0
 40
46.0
 40
46.0
 40
46.0
 40
47.0
 40
47.0
 40
47.0
 40
48.0
 40
48.0
 40
48.0
 40
49.0
 40
49.0
 40
49.0
 40
50.0
 40
50.0
 40
50.0
 40
51.0
 40
51.0
 40
51.0
 40
52.0
 40
52.0
 40
52.0
 40
53.0
 40
53.0
 40
53.0
 40
54.0
 40
54.0
 40
54.0
 40
55.0
 40
55.0
 40
55.0
 40
56.0
 40
56.0
 40
56.0
 40
57.0
 40
57.0
 40
57.0
 40
58.0
 40
58.0
 40
58.0
 40
59.0
 40
59.0
 40
59.0
 40
60.0
 40
60.0
 40
60.0
 40
61.0
 40
61.0
 40
61.0
 40
62.0
 40
62.0
 40
62.0
 40
63.0
 40
63.0
 40
63.0
 40
64.0
 40
64.0
 40
64.0
 40
64.0
 10
88.53929848046934
 20
-119.2366495470138
 30
0.0
 10
88.52861868446507
 20
-119.2662773681869
 30
0.0
 10
88.50519203516538
 20
-119.3127861572378
 30
0.0
 10
88.49485674870962
 20
-119.3401746663455
 30
0.0
 10
88.49485674870962
 20
-119.3401746663455
 30
0.0
 10
88.43353404907218
 20
-119.4926201415678
 30
0.0
 10
88.43353404907218
 20
-119.4926201415678
 30
0.0
 10
88.4228542530679
 20
-119.5179415933844
 30
0.0
 10
88.37427840672588
 20
-119.6300794514293
 30
0.0
 10
88.36153155343045
 20
-119.6533338459547
 30
0.0
 10
88.35946449613931
 20
-119.6597072726024
 30
0.0
 10
88.35498587200848
 20
-119.6681477565413
 30
0.0
 10
88.35291881471733
 20
-119.674521183189
 30
0.0
 10
88.35291881471733
 20
-119.674521183189
 30
0.0
 10
88.14345700921415
 20
-119.6216389674904
 30
0.0
 10
88.14345700921415
 20
-119.6216389674904
 30
0.0
 10
88.22200518627784
 20
-119.5115681667367
 30
0.0
 10
88.28332788591528
 20
-119.3761759141664
 30
0.0
 10
88.31502276437958
 20
-119.2662773681869
 30
0.0
 10
88.31502276437958
 20
-119.2662773681869
 30
0.0
 10
87.84959036432232
 20
-119.2662773681869
 30
0.0
 10
87.84959036432232
 20
-119.2662773681869
 30
0.0
 10
87.76897512996749
 20
-119.4311251871561
 30
0.0
 10
87.70145125845659
 20
-119.5095011094456
 30
0.0
 10
87.66768932270114
 20
-119.5496364718487
 30
0.0
 10
87.66768932270114
 20
-119.5496364718487
 30
0.0
 10
87.54504392342625
 20
-119.4840074028547
 30
0.0
 10
87.54504392342625
 20
-119.4840074028547
 30
0.0
 10
87.54504392342625
 20
-119.4840074028547
 30
0.0
 10
87.54504392342625
 20
-119.6554009032459
 30
0.0
 10
87.54504392342625
 20
-119.6554009032459
 30
0.0
 10
87.54504392342625
 20
-119.7634046467085
 30
0.0
 10
87.54711098071739
 20
-119.8119804930505
 30
0.0
 10
87.55744626717315
 20
-119.9177449244476
 30
0.0
 10
87.48578828107995
 20
-119.9156778671565
 30
0.0
 10
87.4644286890714
 20
-119.9156778671565
 30
0.0
 10
87.25944550769903
 20
-119.9156778671565
 30
0.0
 10
87.25944550769903
 20
-119.9156778671565
 30
0.0
 10
87.20432397993504
 20
-119.9156778671565
 30
0.0
 10
87.20432397993504
 20
-119.9156778671565
 30
0.0
 10
87.20432397993504
 20
-119.9156778671565
 30
0.0
 10
87.20432397993504
 20
-120.0510701197268
 30
0.0
 10
87.20432397993504
 20
-120.0510701197268
 30
0.0
 10
87.20432397993504
 20
-120.0510701197268
 30
0.0
 10
87.27632647557675
 20
-120.0510701197268
 30
0.0
 10
87.27632647557675
 20
-120.0510701197268
 30
0.0
 10
87.3417832897965
 20
-120.0510701197268
 30
0.0
 10
87.48785533837109
 20
-120.0467637503703
 30
0.0
 10
87.59361976976827
 20
-120.0383232664314
 30
0.0
 10
87.59361976976827
 20
-120.0383232664314
 30
0.0
 10
87.59361976976827
 20
-120.2160901934703
 30
0.0
 10
87.59361976976827
 20
-120.2160901934703
 30
0.0
 10
87.49612356753569
 20
-120.2097167668226
 30
0.0
 10
87.3376491752142
 20
-120.205410397466
 30
0.0
 10
87.27632647557675
 20
-120.205410397466
 30
0.0
 10
87.27632647557675
 20
-120.205410397466
 30
0.0
 10
87.20432397993504
 20
-120.205410397466
 30
0.0
 10
87.20432397993504
 20
-120.205410397466
 30
0.0
 10
87.20639103722618
 20
-120.2942938609855
 30
0.0
 10
87.21052515180848
 20
-120.5333834876618
 30
0.0
 10
87.21259220909964
 20
-120.6074530405947
 30
0.0
 10
87.21259220909964
 20
-120.6074530405947
 30
0.0
 10
87.01174314230957
 20
-120.6074530405947
 30
0.0
 10
87.01174314230957
 20
-120.6074530405947
 30
0.0
 10
87.024489995605
 20
-120.3936848657349
 30
0.0
 10
87.024489995605
 20
-120.3640570445618
 30
0.0
 10
87.0286241101873
 20
-120.205410397466
 30
0.0
 10
87.0286241101873
 20
-120.205410397466
 30
0.0
 10
86.95903318138525
 20
-120.205410397466
 30
0.0
 10
86.95903318138525
 20
-120.205410397466
 30
0.0
 10
86.9018445963301
 20
-120.205410397466
 30
0.0
 10
86.74957137588206
 20
-120.2097167668226
 30
0.0
 10
86.63932832035407
 20
-120.2160901934703
 30
0.0
 10
86.63932832035407
 20
-120.2160901934703
 30
0.0
 10
86.63932832035407
 20
-120.0383232664314
 30
0.0
 10
86.63932832035407
 20
-120.0383232664314
 30
0.0
 10
86.74509275175123
 20
-120.0467637503703
 30
0.0
 10
86.88909774303467
 20
-120.0510701197268
 30
0.0
 10
86.95903318138525
 20
-120.0510701197268
 30
0.0
 10
86.95903318138525
 20
-120.0510701197268
 30
0.0
 10
87.0327582247696
 20
-120.0510701197268
 30
0.0
 10
87.0327582247696
 20
-120.0510701197268
 30
0.0
 10
87.0327582247696
 20
-120.0510701197268
 30
0.0
 10
87.0327582247696
 20
-119.9156778671565
 30
0.0
 10
87.0327582247696
 20
-119.9156778671565
 30
0.0
 10
87.0327582247696
 20
-119.9156778671565
 30
0.0
 10
86.98866100255839
 20
-119.9156778671565
 30
0.0
 10
86.98866100255839
 20
-119.9156778671565
 30
0.0
 10
86.91217988278585
 20
-119.9156778671565
 30
0.0
 10
86.7199435547089
 20
-119.9177449244476
 30
0.0
 10
86.68583710940493
 20
-119.9177449244476
 30
0.0
 10
86.69238279082691
 20
-119.8459146835802
 30
0.0
 10
86.70065101999151
 20
-119.7654717039996
 30
0.0
 10
86.70065101999151
 20
-119.6448933620159
 30
0.0
 10
86.70065101999151
 20
-119.6448933620159
 30
0.0
 10
86.70065101999151
 20
-119.4714328043335
 30
0.0
 10
86.70065101999151
 20
-119.4714328043335
 30
0.0
 10
86.70065101999151
 20
-119.3994303086918
 30
0.0
 10
86.69238279082691
 20
-119.2788519667081
 30
0.0
 10
86.68583710940493
 20
-119.1984089871275
 30
0.0
 10
86.76438528646862
 20
-119.202715356484
 30
0.0
 10
86.80228133680637
 20
-119.2047824137752
 30
0.0
 10
86.9294053602121
 20
-119.2047824137752
 30
0.0
 10
86.9294053602121
 20
-119.2047824137752
 30
0.0
 10
87.0327582247696
 20
-119.2047824137752
 30
0.0
 10
87.0327582247696
 20
-119.2047824137752
 30
0.0
 10
87.0327582247696
 20
-119.2047824137752
 30
0.0
 10
87.0327582247696
 20
-119.0588826199749
 30
0.0
 10
87.0327582247696
 20
-119.0588826199749
 30
0.0
 10
87.0327582247696
 20
-119.0588826199749
 30
0.0
 10
86.95455455725443
 20
-119.0588826199749
 30
0.0
 10
86.95455455725443
 20
-119.0588826199749
 30
0.0
 10
86.89977753903895
 20
-119.0588826199749
 30
0.0
 10
86.7282117838735
 20
-119.0630167345572
 30
0.0
 10
86.64380694448488
 20
-119.0693901612049
 30
0.0
 10
86.64380694448488
 20
-119.0693901612049
 30
0.0
 10
86.64380694448488
 20
-118.8917954889402
 30
0.0
 10
86.64380694448488
 20
-118.8917954889402
 30
0.0
 10
86.72614472658236
 20
-118.898168915588
 30
0.0
 10
86.88909774303467
 20
-118.9023030301703
 30
0.0
 10
86.95455455725443
 20
-118.9023030301703
 30
0.0
 10
86.95455455725443
 20
-118.9023030301703
 30
0.0
 10
87.0327582247696
 20
-118.9023030301703
 30
0.0
 10
87.0327582247696
 20
-118.9023030301703
 30
0.0
 10
87.0327582247696
 20
-118.8685410944148
 30
0.0
 10
87.0286241101873
 20
-118.7140285619014
 30
0.0
 10
87.0286241101873
 20
-118.6823336834371
 30
0.0
 10
87.0286241101873
 20
-118.6823336834371
 30
0.0
 10
87.22533906239507
 20
-118.6992146513148
 30
0.0
 10
87.22533906239507
 20
-118.6992146513148
 30
0.0
 10
87.24222003027278
 20
-118.7012817086059
 30
0.0
 10
87.26357962228133
 20
-118.7035210206713
 30
0.0
 10
87.26357962228133
 20
-118.7247083579056
 30
0.0
 10
87.26357962228133
 20
-118.7479627524311
 30
0.0
 10
87.24222003027278
 20
-118.7564032363699
 30
0.0
 10
87.21500377593931
 20
-118.7689778348911
 30
0.0
 10
87.21500377593931
 20
-118.7901651721254
 30
0.0
 10
87.21259220909964
 20
-118.8854220622925
 30
0.0
 10
87.21259220909964
 20
-118.9023030301703
 30
0.0
 10
87.21259220909964
 20
-118.9023030301703
 30
0.0
 10
87.27184785144593
 20
-118.9023030301703
 30
0.0
 10
87.27184785144593
 20
-118.9023030301703
 30
0.0
 10
87.33971623250535
 20
-118.9023030301703
 30
0.0
 10
87.48337671424026
 20
-118.898168915588
 30
0.0
 10
87.58914114563744
 20
-118.8917954889402
 30
0.0
 10
87.58914114563744
 20
-118.8917954889402
 30
0.0
 10
87.58914114563744
 20
-119.0693901612049
 30
0.0
 10
87.58914114563744
 20
-119.0693901612049
 30
0.0
 10
87.49198945295339
 20
-119.0630167345572
 30
0.0
 10
87.33558211792305
 20
-119.0588826199749
 30
0.0
 10
87.27184785144593
 20
-119.0588826199749
 30
0.0
 10
87.27184785144593
 20
-119.0588826199749
 30
0.0
 10
87.20432397993504
 20
-119.0588826199749
 30
0.0
 10
87.20432397993504
 20
-119.0588826199749
 30
0.0
 10
87.20432397993504
 20
-119.0588826199749
 30
0.0
 10
87.20432397993504
 20
-119.2047824137752
 30
0.0
 10
87.20432397993504
 20
-119.2047824137752
 30
0.0
 10
87.20432397993504
 20
-119.2047824137752
 30
0.0
 10
87.27425941828561
 20
-119.2047824137752
 30
0.0
 10
87.27425941828561
 20
-119.2047824137752
 30
0.0
 10
87.42412107189398
 20
-119.2047824137752
 30
0.0
 10
87.49612356753569
 20
-119.2006482991929
 30
0.0
 10
87.55744626717315
 20
-119.1984089871275
 30
0.0
 10
87.54917803800855
 20
-119.2936658772946
 30
0.0
 10
87.54711098071739
 20
-119.3720417995841
 30
0.0
 10
87.54504392342625
 20
-119.4101101046961
 30
0.0
 10
87.69938420116543
 20
-119.1984089871275
 30
0.0
 10
87.8051486325626
 20
-118.9510511312865
 30
0.0
 10
87.82202960044033
 20
-118.6887071100848
 30
0.0
 10
87.82202960044033
 20
-118.6887071100848
 30
0.0
 10
88.03769257781697
 20
-118.7393500137179
 30
0.0
 10
88.03769257781697
 20
-118.7393500137179
 30
0.0
 10
88.05250648840354
 20
-118.7436563830745
 30
0.0
 10
88.06732039899012
 20
-118.7500298097222
 30
0.0
 10
88.06732039899012
 20
-118.7669107775999
 30
0.0
 10
88.06732039899012
 20
-118.7837917454777
 30
0.0
 10
88.06318628440782
 20
-118.7860310575431
 30
0.0
 10
88.01254338077464
 20
-118.8070461400031
 30
0.0
 10
87.9953179033484
 20
-118.8833550050014
 30
0.0
 10
87.97016870630607
 20
-118.974305525812
 30
0.0
 10
87.92159285996405
 20
-119.1012572944434
 30
0.0
 10
87.92159285996405
 20
-119.1012572944434
 30
0.0
 10
88.25990123661559
 20
-119.1012572944434
 30
0.0
 10
88.25990123661559
 20
-119.1012572944434
 30
0.0
 10
88.29814179650185
 20
-119.1012572944434
 30
0.0
 10
88.4269883676502
 20
-119.0969509250869
 30
0.0
 10
88.47556421399223
 20
-119.0905774984392
 30
0.0
 10
88.47556421399223
 20
-119.0905774984392
 30
0.0
 10
88.56892630164249
 20
-119.1603406820155
 30
0.0
 10
88.56892630164249
 20
-119.1603406820155
 30
0.0
 10
88.56031356292937
 20
-119.1815280192498
 30
0.0
 10
88.55411239105592
 20
-119.2006482991929
 30
0.0
 10
88.53929848046934
 20
-119.2366495470138
 30
0.0
  0
POLYLINE
  5
5E
330
59
100
AcDbEntity
  8
_U+30EC_U+30A4_U+30E4_U+30FC 1
370
     0
100
AcDb2dPolyline
 66
     1
 10
0.0
 20
0.0
 30
0.0
  0
VERTEX
  5
5F
330
5E
100
AcDbEntity
  8
_U+30EC_U+30A4_U+30E4_U+30FC 1
370
     0
100
AcDbVertex
100
AcDb2dVertex
 10
87.0327582247696
 20
-119.3613620035798
 30
0.0
  0
VERTEX
  5
60
330
5E
100
AcDbEntity
  8
_U+30EC_U+30A4_U+30E4_U+30FC 1
370
     0
100
AcDbVertex
100
AcDb2dVertex
 10
86.8742838324481
 20
-119.3613620035798
 30
0.0
  0
VERTEX
  5
61
330
5E
100
AcDbEntity
  8
_U+30EC_U+30A4_U+30E4_U+30FC 1
370
     0
100
AcDbVertex
100
AcDb2dVertex
 10
86.8742838324481
 20
-119.4903808295024
 30
0.0
  0
VERTEX
  5
62
330
5E
100
AcDbEntity
  8
_U+30EC_U+30A4_U+30E4_U+30FC 1
370
     0
100
AcDbVertex
100
AcDb2dVertex
 10
87.0327582247696
 20
-119.4903808295024
 30
0.0
  0
VERTEX
  5
63
330
5E
100
AcDbEntity
  8
_U+30EC_U+30A4_U+30E4_U+30FC 1
370
     0
100
AcDbVertex
100
AcDb2dVertex
 10
87.0327582247696
 20
-119.3613620035798
 30
0.0
  0
SEQEND
  5
64
330
5E
100
AcDbEntity
  8
_U+30EC_U+30A4_U+30E4_U+30FC 1
370
     0
  0
POLYLINE
  5
65
330
59
100
AcDbEntity
  8
_U+30EC_U+30A4_U+30E4_U+30FC 1
370
     0
100
AcDb2dPolyline
 66
     1
 10
0.0
 20
0.0
 30
0.0
  0
VERTEX
  5
66
330
65
100
AcDbEntity
  8
_U+30EC_U+30A4_U+30E4_U+30FC 1
370
     0
100
AcDbVertex
100
AcDb2dVertex
 10
87.0327582247696
 20
-119.6342135660116
 30
0.0
  0
VERTEX
  5
67
330
65
100
AcDbEntity
  8
_U+30EC_U+30A4_U+30E4_U+30FC 1
370
     0
100
AcDbVertex
100
AcDb2dVertex
 10
86.8742838324481
 20
-119.6342135660116
 30
0.0
  0
VERTEX
  5
68
330
65
100
AcDbEntity
  8
_U+30EC_U+30A4_U+30E4_U+30FC 1
370
     0
100
AcDbVertex
100
AcDb2dVertex
 10
86.8742838324481
 20
-119.7634046467085
 30
0.0
  0
VERTEX
  5
69
330
65
100
AcDbEntity
  8
_U+30EC_U+30A4_U+30E4_U+30FC 1
370
     0
100
AcDbVertex
100
AcDb2dVertex
 10
87.0327582247696
 20
-119.7634046467085
 30
0.0
  0
VERTEX
  5
6A
330
65
100
AcDbEntity
  8
_U+30EC_U+30A4_U+30E4_U+30FC 1
370
     0
100
AcDbVertex
100
AcDb2dVertex
 10
87.0327582247696
 20
-119.6342135660116
 30
0.0
  0
SEQEND
  5
6B
330
65
100
AcDbEntity
  8
_U+30EC_U+30A4_U+30E4_U+30FC 1
370
     0
  0
POLYLINE
  5
6C
330
59
100
AcDbEntity
  8
_U+30EC_U+30A4_U+30E4_U+30FC 1
370
     0
100
AcDb2dPolyline
 66
     1
 10
0.0
 20
0.0
 30
0.0
  0
VERTEX
  5
6D
330
6C
100
AcDbEntity
  8
_U+30EC_U+30A4_U+30E4_U+30FC 1
370
     0
100
AcDbVertex
100
AcDb2dVertex
 10
87.3652099390962
 20
-119.3613620035798
 30
0.0
  0
VERTEX
  5
6E
330
6C
100
AcDbEntity
  8
_U+30EC_U+30A4_U+30E4_U+30FC 1
370
     0
100
AcDbVertex
100
AcDb2dVertex
 10
87.20432397993504
 20
-119.3613620035798
 30
0.0
  0
VERTEX
  5
6F
330
6C
100
AcDbEntity
  8
_U+30EC_U+30A4_U+30E4_U+30FC 1
370
     0
100
AcDbVertex
100
AcDb2dVertex
 10
87.20432397993504
 20
-119.4903808295024
 30
0.0
  0
VERTEX
  5
70
330
6C
100
AcDbEntity
  8
_U+30EC_U+30A4_U+30E4_U+30FC 1
370
     0
100
AcDbVertex
100
AcDb2dVertex
 10
87.3652099390962
 20
-119.4903808295024
 30
0.0
  0
VERTEX
  5
71
330
6C
100
AcDbEntity
  8
_U+30EC_U+30A4_U+30E4_U+30FC 1
370
     0
100
AcDbVertex
100
AcDb2dVertex
 10
87.3652099390962
 20
-119.3613620035798
 30
0.0
  0
SEQEND
  5
72
330
6C
100
AcDbEntity
  8
_U+30EC_U+30A4_U+30E4_U+30FC 1
370
     0
  0
POLYLINE
  5
73
330
59
100
AcDbEntity
  8
_U+30EC_U+30A4_U+30E4_U+30FC 1
370
     0
100
AcDb2dPolyline
 66
     1
 10
0.0
 20
0.0
 30
0.0
  0
VERTEX
  5
74
330
73
100
AcDbEntity
  8
_U+30EC_U+30A4_U+30E4_U+30FC 1
370
     0
100
AcDbVertex
100
AcDb2dVertex
 10
87.3652099390962
 20
-119.6342135660116
 30
0.0
  0
VERTEX
  5
75
330
73
100
AcDbEntity
  8
_U+30EC_U+30A4_U+30E4_U+30FC 1
370
     0
100
AcDbVertex
100
AcDb2dVertex
 10
87.20432397993504
 20
-119.6342135660116
 30
0.0
  0
VERTEX
  5
76
330
73
100
AcDbEntity
  8
_U+30EC_U+30A4_U+30E4_U+30FC 1
370
     0
100
AcDbVertex
100
AcDb2dVertex
 10
87.20432397993504
 20
-119.7634046467085
 30
0.0
  0
VERTEX
  5
77
330
73
100
AcDbEntity
  8
_U+30EC_U+30A4_U+30E4_U+30FC 1
370
     0
100
AcDbVertex
100
AcDb2dVertex
 10
87.3652099390962
 20
-119.7634046467085
 30
0.0
  0
VERTEX
  5
78
330
73
100
AcDbEntity
  8
_U+30EC_U+30A4_U+30E4_U+30FC 1
370
     0
100
AcDbVertex
100
AcDb2dVertex
 10
87.3652099390962
 20
-119.6342135660116
 30
0.0
  0
SEQEND
  5
79
330
73
100
AcDbEntity
  8
_U+30EC_U+30A4_U+30E4_U+30FC 1
370
     0
  0
SPLINE
  5
7A
330
59
100
AcDbEntity
  8
_U+30EC_U+30A4_U+30E4_U+30FC 1
370
     0
100
AcDbSpline
210
0.0
220
0.0
230
1.0
 70
    11
 71
     3
 72
    41
 73
    37
 74
     0
 42
0.0000000001
 43
0.0000000001
 12
1.0
 22
0.0
 32
0.0
 13
1.0
 23
0.0
 33
0.0
 40
0.0
 40
0.0
 40
0.0
 40
0.0
 40
1.0
 40
1.0
 40
1.0
 40
2.0
 40
2.0
 40
2.0
 40
3.0
 40
3.0
 40
3.0
 40
4.0
 40
4.0
 40
4.0
 40
5.0
 40
5.0
 40
5.0
 40
6.0
 40
6.0
 40
6.0
 40
7.0
 40
7.0
 40
7.0
 40
8.0
 40
8.0
 40
8.0
 40
9.0
 40
9.0
 40
9.0
 40
10.0
 40
10.0
 40
10.0
 40
11.0
 40
11.0
 40
11.0
 40
12.0
 40
12.0
 40
12.0
 40
12.0
 10
88.4545491315322
 20
-120.5926391300081
 30
0.0
 10
88.21339244756471
 20
-120.4572468774378
 30
0.0
 10
88.03562552052583
 20
-120.1609686657063
 30
0.0
 10
87.9953179033484
 20
-120.0319498397837
 30
0.0
 10
87.87473956136465
 20
-120.2963609182766
 30
0.0
 10
87.71213105446085
 20
-120.4741278453155
 30
0.0
 10
87.53023001283967
 20
-120.5883327606515
 30
0.0
 10
87.53023001283967
 20
-120.5883327606515
 30
0.0
 10
87.33317055108338
 20
-120.4508734507901
 30
0.0
 10
87.33317055108338
 20
-120.4508734507901
 30
0.0
 10
87.40310598943395
 20
-120.4255519989735
 30
0.0
 10
87.54917803800855
 20
-120.3640570445618
 30
0.0
 10
87.67182343728344
 20
-120.2097167668226
 30
0.0
 10
87.79653589384948
 20
-120.053137177018
 30
0.0
 10
87.88541935736893
 20
-119.8204209769893
 30
0.0
 10
87.88541935736893
 20
-119.560316267853
 30
0.0
 10
87.88541935736893
 20
-119.4586859510381
 30
0.0
 10
87.8726725040735
 20
-119.3868557101707
 30
0.0
 10
87.86233721761775
 20
-119.3401746663455
 30
0.0
 10
87.86233721761775
 20
-119.3401746663455
 30
0.0
 10
88.06732039899012
 20
-119.3613620035798
 30
0.0
 10
88.06732039899012
 20
-119.3613620035798
 30
0.0
 10
88.08867999099867
 20
-119.363429060871
 30
0.0
 10
88.1096950734587
 20
-119.3656683729364
 30
0.0
 10
88.1096950734587
 20
-119.3868557101707
 30
0.0
 10
88.1096950734587
 20
-119.4058037353395
 30
0.0
 10
88.09901527745441
 20
-119.4142442192784
 30
0.0
 10
88.06525334169896
 20
-119.4354315565127
 30
0.0
 10
88.05698511253436
 20
-119.636452878077
 30
0.0
 10
88.113829188041
 20
-119.8796766193356
 30
0.0
 10
88.17515188767844
 20
-120.0002549613194
 30
0.0
 10
88.26610240848903
 20
-120.1757825762929
 30
0.0
 10
88.46075030340565
 20
-120.3556165606229
 30
0.0
 10
88.59614255597597
 20
-120.412805145678
 30
0.0
 10
88.59614255597597
 20
-120.412805145678
 30
0.0
 10
88.4545491315322
 20
-120.5926391300081
 30
0.0
 10
88.4545491315322
 20
-120.5926391300081
 30
0.0
  0
HATCH
  5
7B
330
59
100
AcDbEntity
  8
_U+30EC_U+30A4_U+30E4_U+30FC 1
 62
   179
420
  2234388
100
AcDbHatch
 10
0.0
 20
0.0
 30
0.0
210
0.0
220
0.0
230
1.0
  2
SOLID
 70
     1
 71
     0
 91
        6
 92
        1
 93
        1
 72
     4
 94
        3
 73
     0
 74
     1
 95
      197
 96
      193
 40
0.0
 40
0.0
 40
0.0
 40
0.0
 40
1.0
 40
1.0
 40
1.0
 40
2.0
 40
2.0
 40
2.0
 40
3.0
 40
3.0
 40
3.0
 40
4.0
 40
4.0
 40
4.0
 40
5.0
 40
5.0
 40
5.0
 40
6.0
 40
6.0
 40
6.0
 40
7.0
 40
7.0
 40
7.0
 40
8.0
 40
8.0
 40
8.0
 40
9.0
 40
9.0
 40
9.0
 40
10.0
 40
10.0
 40
10.0
 40
11.0
 40
11.0
 40
11.0
 40
12.0
 40
12.0
 40
12.0
 40
13.0
 40
13.0
 40
13.0
 40
14.0
 40
14.0
 40
14.0
 40
15.0
 40
15.0
 40
15.0
 40
16.0
 40
16.0
 40
16.0
 40
17.0
 40
17.0
 40
17.0
 40
18.0
 40
18.0
 40
18.0
 40
19.0
 40
19.0
 40
19.0
 40
20.0
 40
20.0
 40
20.0
 40
21.0
 40
21.0
 40
21.0
 40
22.0
 40
22.0
 40
22.0
 40
23.0
 40
23.0
 40
23.0
 40
24.0
 40
24.0
 40
24.0
 40
25.0
 40
25.0
 40
25.0
 40
26.0
 40
26.0
 40
26.0
 40
27.0
 40
27.0
 40
27.0
 40
28.0
 40
28.0
 40
28.0
 40
29.0
 40
29.0
 40
29.0
 40
30.0
 40
30.0
 40
30.0
 40
31.0
 40
31.0
 40
31.0
 40
32.0
 40
32.0
 40
32.0
 40
33.0
 40
33.0
 40
33.0
 40
34.0
 40
34.0
 40
34.0
 40
35.0
 40
35.0
 40
35.0
 40
36.0
 40
36.0
 40
36.0
 40
37.0
 40
37.0
 40
37.0
 40
38.0
 40
38.0
 40
38.0
 40
39.0
 40
39.0
 40
39.0
 40
40.0
 40
40.0
 40
40.0
 40
41.0
 40
41.0
 40
41.0
 40
42.0
 40
42.0
 40
42.0
 40
43.0
 40
43.0
 40
43.0
 40
44.0
 40
44.0
 40
44.0
 40
45.0
 40
45.0
 40
45.0
 40
46.0
 40
46.0
 40
46.0
 40
47.0
 40
47.0
 40
47.0
 40
48.0
 40
48.0
 40
48.0
 40
49.0
 40
49.0
 40
49.0
 40
50.0
 40
50.0
 40
50.0
 40
51.0
 40
51.0
 40
51.0
 40
52.0
 40
52.0
 40
52.0
 40
53.0
 40
53.0
 40
53.0
 40
54.0
 40
54.0
 40
54.0
 40
55.0
 40
55.0
 40
55.0
 40
56.0
 40
56.0
 40
56.0
 40
57.0
 40
57.0
 40
57.0
 40
58.0
 40
58.0
 40
58.0
 40
59.0
 40
59.0
 40
59.0
 40
60.0
 40
60.0
 40
60.0
 40
61.0
 40
61.0
 40
61.0
 40
62.0
 40
62.0
 40
62.0
 40
63.0
 40
63.0
 40
63.0
 40
64.0
 40
64.0
 40
64.0
 40
64.0
 10
88.53929848046934
 20
-119.2366495470138
 10
88.52861868446507
 20
-119.2662773681869
 10
88.50519203516538
 20
-119.3127861572378
 10
88.49485674870962
 20
-119.3401746663455
 10
88.49485674870962
 20
-119.3401746663455
 10
88.43353404907218
 20
-119.4926201415678
 10
88.43353404907218
 20
-119.4926201415678
 10
88.4228542530679
 20
-119.5179415933844
 10
88.37427840672588
 20
-119.6300794514293
 10
88.36153155343045
 20
-119.6533338459547
 10
88.35946449613931
 20
-119.6597072726024
 10
88.35498587200848
 20
-119.6681477565413
 10
88.35291881471733
 20
-119.674521183189
 10
88.35291881471733
 20
-119.674521183189
 10
88.14345700921415
 20
-119.6216389674904
 10
88.14345700921415
 20
-119.6216389674904
 10
88.22200518627784
 20
-119.5115681667367
 10
88.28332788591528
 20
-119.3761759141664
 10
88.31502276437958
 20
-119.2662773681869
 10
88.31502276437958
 20
-119.2662773681869
 10
87.84959036432232
 20
-119.2662773681869
 10
87.84959036432232
 20
-119.2662773681869
 10
87.76897512996749
 20
-119.4311251871561
 10
87.70145125845659
 20
-119.5095011094456
 10
87.66768932270114
 20
-119.5496364718487
 10
87.66768932270114
 20
-119.5496364718487
 10
87.54504392342625
 20
-119.4840074028547
 10
87.54504392342625
 20
-119.4840074028547
 10
87.54504392342625
 20
-119.4840074028547
 10
87.54504392342625
 20
-119.6554009032459
 10
87.54504392342625
 20
-119.6554009032459
 10
87.54504392342625
 20
-119.7634046467085
 10
87.54711098071739
 20
-119.8119804930505
 10
87.55744626717315
 20
-119.9177449244476
 10
87.48578828107995
 20
-119.9156778671565
 10
87.4644286890714
 20
-119.9156778671565
 10
87.25944550769903
 20
-119.9156778671565
 10
87.25944550769903
 20
-119.9156778671565
 10
87.20432397993504
 20
-119.9156778671565
 10
87.20432397993504
 20
-119.9156778671565
 10
87.20432397993504
 20
-119.9156778671565
 10
87.20432397993504
 20
-120.0510701197268
 10
87.20432397993504
 20
-120.0510701197268
 10
87.20432397993504
 20
-120.0510701197268
 10
87.27632647557675
 20
-120.0510701197268
 10
87.27632647557675
 20
-120.0510701197268
 10
87.3417832897965
 20
-120.0510701197268
 10
87.48785533837109
 20
-120.0467637503703
 10
87.59361976976827
 20
-120.0383232664314
 10
87.59361976976827
 20
-120.0383232664314
 10
87.59361976976827
 20
-120.2160901934703
 10
87.59361976976827
 20
-120.2160901934703
 10
87.49612356753569
 20
-120.2097167668226
 10
87.3376491752142
 20
-120.205410397466
 10
87.27632647557675
 20
-120.205410397466
 10
87.27632647557675
 20
-120.205410397466
 10
87.20432397993504
 20
-120.205410397466
 10
87.20432397993504
 20
-120.205410397466
 10
87.20639103722618
 20
-120.2942938609855
 10
87.21052515180848
 20
-120.5333834876618
 10
87.21259220909964
 20
-120.6074530405947
 10
87.21259220909964
 20
-120.6074530405947
 10
87.01174314230957
 20
-120.6074530405947
 10
87.01174314230957
 20
-120.6074530405947
 10
87.024489995605
 20
-120.3936848657349
 10
87.024489995605
 20
-120.3640570445618
 10
87.0286241101873
 20
-120.205410397466
 10
87.0286241101873
 20
-120.205410397466
 10
86.95903318138525
 20
-120.205410397466
 10
86.95903318138525
 20
-120.205410397466
 10
86.9018445963301
 20
-120.205410397466
 10
86.74957137588206
 20
-120.2097167668226
 10
86.63932832035407
 20
-120.2160901934703
 10
86.63932832035407
 20
-120.2160901934703
 10
86.63932832035407
 20
-120.0383232664314
 10
86.63932832035407
 20
-120.0383232664314
 10
86.74509275175123
 20
-120.0467637503703
 10
86.88909774303467
 20
-120.0510701197268
 10
86.95903318138525
 20
-120.0510701197268
 10
86.95903318138525
 20
-120.0510701197268
 10
87.0327582247696
 20
-120.0510701197268
 10
87.0327582247696
 20
-120.0510701197268
 10
87.0327582247696
 20
-120.0510701197268
 10
87.0327582247696
 20
-119.9156778671565
 10
87.0327582247696
 20
-119.9156778671565
 10
87.0327582247696
 20
-119.9156778671565
 10
86.98866100255839
 20
-119.9156778671565
 10
86.98866100255839
 20
-119.9156778671565
 10
86.91217988278585
 20
-119.9156778671565
 10
86.7199435547089
 20
-119.9177449244476
 10
86.68583710940493
 20
-119.9177449244476
 10
86.69238279082691
 20
-119.8459146835802
 10
86.70065101999151
 20
-119.7654717039996
 10
86.70065101999151
 20
-119.6448933620159
 10
86.70065101999151
 20
-119.6448933620159
 10
86.70065101999151
 20
-119.4714328043335
 10
86.70065101999151
 20
-119.4714328043335
 10
86.70065101999151
 20
-119.3994303086918
 10
86.69238279082691
 20
-119.2788519667081
 10
86.68583710940493
 20
-119.1984089871275
 10
86.76438528646862
 20
-119.202715356484
 10
86.80228133680637
 20
-119.2047824137752
 10
86.9294053602121
 20
-119.2047824137752
 10
86.9294053602121
 20
-119.2047824137752
 10
87.0327582247696
 20
-119.2047824137752
 10
87.0327582247696
 20
-119.2047824137752
 10
87.0327582247696
 20
-119.2047824137752
 10
87.0327582247696
 20
-119.0588826199749
 10
87.0327582247696
 20
-119.0588826199749
 10
87.0327582247696
 20
-119.0588826199749
 10
86.95455455725443
 20
-119.0588826199749
 10
86.95455455725443
 20
-119.0588826199749
 10
86.89977753903895
 20
-119.0588826199749
 10
86.7282117838735
 20
-119.0630167345572
 10
86.64380694448488
 20
-119.0693901612049
 10
86.64380694448488
 20
-119.0693901612049
 10
86.64380694448488
 20
-118.8917954889402
 10
86.64380694448488
 20
-118.8917954889402
 10
86.72614472658236
 20
-118.898168915588
 10
86.88909774303467
 20
-118.9023030301703
 10
86.95455455725443
 20
-118.9023030301703
 10
86.95455455725443
 20
-118.9023030301703
 10
87.0327582247696
 20
-118.9023030301703
 10
87.0327582247696
 20
-118.9023030301703
 10
87.0327582247696
 20
-118.8685410944148
 10
87.0286241101873
 20
-118.7140285619014
 10
87.0286241101873
 20
-118.6823336834371
 10
87.0286241101873
 20
-118.6823336834371
 10
87.22533906239507
 20
-118.6992146513148
 10
87.22533906239507
 20
-118.6992146513148
 10
87.24222003027278
 20
-118.7012817086059
 10
87.26357962228133
 20
-118.7035210206713
 10
87.26357962228133
 20
-118.7247083579056
 10
87.26357962228133
 20
-118.7479627524311
 10
87.24222003027278
 20
-118.7564032363699
 10
87.21500377593931
 20
-118.7689778348911
 10
87.21500377593931
 20
-118.7901651721254
 10
87.21259220909964
 20
-118.8854220622925
 10
87.21259220909964
 20
-118.9023030301703
 10
87.21259220909964
 20
-118.9023030301703
 10
87.27184785144593
 20
-118.9023030301703
 10
87.27184785144593
 20
-118.9023030301703
 10
87.33971623250535
 20
-118.9023030301703
 10
87.48337671424026
 20
-118.898168915588
 10
87.58914114563744
 20
-118.8917954889402
 10
87.58914114563744
 20
-118.8917954889402
 10
87.58914114563744
 20
-119.0693901612049
 10
87.58914114563744
 20
-119.0693901612049
 10
87.49198945295339
 20
-119.0630167345572
 10
87.33558211792305
 20
-119.0588826199749
 10
87.27184785144593
 20
-119.0588826199749
 10
87.27184785144593
 20
-119.0588826199749
 10
87.20432397993504
 20
-119.0588826199749
 10
87.20432397993504
 20
-119.0588826199749
 10
87.20432397993504
 20
-119.0588826199749
 10
87.20432397993504
 20
-119.2047824137752
 10
87.20432397993504
 20
-119.2047824137752
 10
87.20432397993504
 20
-119.2047824137752
 10
87.27425941828561
 20
-119.2047824137752
 10
87.27425941828561
 20
-119.2047824137752
 10
87.42412107189398
 20
-119.2047824137752
 10
87.49612356753569
 20
-119.2006482991929
 10
87.55744626717315
 20
-119.1984089871275
 10
87.54917803800855
 20
-119.2936658772946
 10
87.54711098071739
 20
-119.3720417995841
 10
87.54504392342625
 20
-119.4101101046961
 10
87.69938420116543
 20
-119.1984089871275
 10
87.8051486325626
 20
-118.9510511312865
 10
87.82202960044033
 20
-118.6887071100848
 10
87.82202960044033
 20
-118.6887071100848
 10
88.03769257781697
 20
-118.7393500137179
 10
88.03769257781697
 20
-118.7393500137179
 10
88.05250648840354
 20
-118.7436563830745
 10
88.06732039899012
 20
-118.7500298097222
 10
88.06732039899012
 20
-118.7669107775999
 10
88.06732039899012
 20
-118.7837917454777
 10
88.06318628440782
 20
-118.7860310575431
 10
88.01254338077464
 20
-118.8070461400031
 10
87.9953179033484
 20
-118.8833550050014
 10
87.97016870630607
 20
-118.974305525812
 10
87.92159285996405
 20
-119.1012572944434
 10
87.92159285996405
 20
-119.1012572944434
 10
88.25990123661559
 20
-119.1012572944434
 10
88.25990123661559
 20
-119.1012572944434
 10
88.29814179650185
 20
-119.1012572944434
 10
88.4269883676502
 20
-119.0969509250869
 10
88.47556421399223
 20
-119.0905774984392
 10
88.47556421399223
 20
-119.0905774984392
 10
88.56892630164249
 20
-119.1603406820155
 10
88.56892630164249
 20
-119.1603406820155
 10
88.56031356292937
 20
-119.1815280192498
 10
88.55411239105592
 20
-119.2006482991929
 10
88.53929848046934
 20
-119.2366495470138
 97
        0
 97
        0
 92
        1
 93
        4
 72
     1
 10
87.0327582247696
 20
-119.3613620035798
 11
86.8742838324481
 21
-119.3613620035798
 72
     1
 10
86.8742838324481
 20
-119.3613620035798
 11
86.8742838324481
 21
-119.4903808295024
 72
     1
 10
86.8742838324481
 20
-119.4903808295024
 11
87.0327582247696
 21
-119.4903808295024
 72
     1
 10
87.0327582247696
 20
-119.4903808295024
 11
87.0327582247696
 21
-119.3613620035798
 97
        0
 92
        1
 93
        4
 72
     1
 10
87.0327582247696
 20
-119.6342135660116
 11
86.8742838324481
 21
-119.6342135660116
 72
     1
 10
86.8742838324481
 20
-119.6342135660116
 11
86.8742838324481
 21
-119.7634046467085
 72
     1
 10
86.8742838324481
 20
-119.7634046467085
 11
87.0327582247696
 21
-119.7634046467085
 72
     1
 10
87.0327582247696
 20
-119.7634046467085
 11
87.0327582247696
 21
-119.6342135660116
 97
        0
 92
        1
 93
        4
 72
     1
 10
87.3652099390962
 20
-119.3613620035798
 11
87.20432397993504
 21
-119.3613620035798
 72
     1
 10
87.20432397993504
 20
-119.3613620035798
 11
87.20432397993504
 21
-119.4903808295024
 72
     1
 10
87.20432397993504
 20
-119.4903808295024
 11
87.3652099390962
 21
-119.4903808295024
 72
     1
 10
87.3652099390962
 20
-119.4903808295024
 11
87.3652099390962
 21
-119.3613620035798
 97
        0
 92
        1
 93
        4
 72
     1
 10
87.3652099390962
 20
-119.6342135660116
 11
87.20432397993504
 21
-119.6342135660116
 72
     1
 10
87.20432397993504
 20
-119.6342135660116
 11
87.20432397993504
 21
-119.7634046467085
 72
     1
 10
87.20432397993504
 20
-119.7634046467085
 11
87.3652099390962
 21
-119.7634046467085
 72
     1
 10
87.3652099390962
 20
-119.7634046467085
 11
87.3652099390962
 21
-119.6342135660116
 97
        0
 92
        1
 93
        1
 72
     4
 94
        3
 73
     0
 74
     1
 95
       41
 96
       37
 40
0.0
 40
0.0
 40
0.0
 40
0.0
 40
1.0
 40
1.0
 40
1.0
 40
2.0
 40
2.0
 40
2.0
 40
3.0
 40
3.0
 40
3.0
 40
4.0
 40
4.0
 40
4.0
 40
5.0
 40
5.0
 40
5.0
 40
6.0
 40
6.0
 40
6.0
 40
7.0
 40
7.0
 40
7.0
 40
8.0
 40
8.0
 40
8.0
 40
9.0
 40
9.0
 40
9.0
 40
10.0
 40
10.0
 40
10.0
 40
11.0
 40
11.0
 40
11.0
 40
12.0
 40
12.0
 40
12.0
 40
12.0
 10
88.4545491315322
 20
-120.5926391300081
 10
88.21339244756471
 20
-120.4572468774378
 10
88.03562552052583
 20
-120.1609686657063
 10
87.9953179033484
 20
-120.0319498397837
 10
87.87473956136465
 20
-120.2963609182766
 10
87.71213105446085
 20
-120.4741278453155
 10
87.53023001283967
 20
-120.5883327606515
 10
87.53023001283967
 20
-120.5883327606515
 10
87.33317055108338
 20
-120.4508734507901
 10
87.33317055108338
 20
-120.4508734507901
 10
87.40310598943395
 20
-120.4255519989735
 10
87.54917803800855
 20
-120.3640570445618
 10
87.67182343728344
 20
-120.2097167668226
 10
87.79653589384948
 20
-120.053137177018
 10
87.88541935736893
 20
-119.8204209769893
 10
87.88541935736893
 20
-119.560316267853
 10
87.88541935736893
 20
-119.4586859510381
 10
87.8726725040735
 20
-119.3868557101707
 10
87.86233721761775
 20
-119.3401746663455
 10
87.86233721761775
 20
-119.3401746663455
 10
88.06732039899012
 20
-119.3613620035798
 10
88.06732039899012
 20
-119.3613620035798
 10
88.08867999099867
 20
-119.363429060871
 10
88.1096950734587
 20
-119.3656683729364
 10
88.1096950734587
 20
-119.3868557101707
 10
88.1096950734587
 20
-119.4058037353395
 10
88.09901527745441
 20
-119.4142442192784
 10
88.06525334169896
 20
-119.4354315565127
 10
88.05698511253436
 20
-119.636452878077
 10
88.113829188041
 20
-119.8796766193356
 10
88.17515188767844
 20
-120.0002549613194
 10
88.26610240848903
 20
-120.1757825762929
 10
88.46075030340565
 20
-120.3556165606229
 10
88.59614255597597
 20
-120.412805145678
 10
88.59614255597597
 20
-120.412805145678
 10
88.4545491315322
 20
-120.5926391300081
 10
88.4545491315322
 20
-120.5926391300081
 97
        0
 97
        0
 75
     2
 76
     1
 98
        0
  0
SPLINE
  5
7C
330
59
100
AcDbEntity
  8
_U+30EC_U+30A4_U+30E4_U+30FC 1
370
     0
100
AcDbSpline
210
0.0
220
0.0
230
1.0
 70
    11
 71
     3
 72
    71
 73
    67
 74
     0
 42
0.0000000001
 43
0.0000000001
 12
1.0
 22
0.0
 32
0.0
 13
1.0
 23
0.0
 33
0.0
 40
0.0
 40
0.0
 40
0.0
 40
0.0
 40
1.0
 40
1.0
 40
1.0
 40
2.0
 40
2.0
 40
2.0
 40
3.0
 40
3.0
 40
3.0
 40
4.0
 40
4.0
 40
4.0
 40
5.0
 40
5.0
 40
5.0
 40
6.0
 40
6.0
 40
6.0
 40
7.0
 40
7.0
 40
7.0
 40
8.0
 40
8.0
 40
8.0
 40
9.0
 40
9.0
 40
9.0
 40
10.0
 40
10.0
 40
10.0
 40
11.0
 40
11.0
 40
11.0
 40
12.0
 40
12.0
 40
12.0
 40
13.0
 40
13.0
 40
13.0
 40
14.0
 40
14.0
 40
14.0
 40
15.0
 40
15.0
 40
15.0
 40
16.0
 40
16.0
 40
16.0
 40
17.0
 40
17.0
 40
17.0
 40
18.0
 40
18.0
 40
18.0
 40
19.0
 40
19.0
 40
19.0
 40
20.0
 40
20.0
 40
20.0
 40
21.0
 40
21.0
 40
21.0
 40
22.0
 40
22.0
 40
22.0
 40
22.0
 10
89.64896373626831
 20
-118.860100610476
 30
0.0
 10
89.63414982568175
 20
-118.860100610476
 30
0.0
 10
89.62140297238632
 20
-118.8557942411194
 30
0.0
 10
89.59590926579547
 20
-118.8473537571805
 30
0.0
 10
89.4543158413517
 20
-118.8938625462314
 30
0.0
 10
89.28068302889511
 20
-118.9107435141091
 30
0.0
 10
89.1411566617425
 20
-118.9150498834657
 30
0.0
 10
89.1411566617425
 20
-118.9150498834657
 30
0.0
 10
89.13908960445134
 20
-119.0039333469851
 30
0.0
 10
89.13908960445134
 20
-119.0039333469851
 30
0.0
 10
89.13908960445134
 20
-119.0039333469851
 30
0.0
 10
89.3991943135877
 20
-119.0039333469851
 30
0.0
 10
89.3991943135877
 20
-119.0039333469851
 30
0.0
 10
89.45224878406056
 20
-119.0039333469851
 30
0.0
 10
89.63414982568175
 20
-118.9954928630463
 30
0.0
 10
89.67859155744146
 20
-118.9891194363986
 30
0.0
 10
89.67859155744146
 20
-118.9891194363986
 30
0.0
 10
89.67859155744146
 20
-119.1498331407855
 30
0.0
 10
89.67859155744146
 20
-119.1498331407855
 30
0.0
 10
89.62347002967746
 20
-119.1434597141377
 30
0.0
 10
89.49875757311142
 20
-119.1413926568466
 30
0.0
 10
89.46051701322516
 20
-119.1434597141377
 30
0.0
 10
89.46051701322516
 20
-119.1434597141377
 30
0.0
 10
89.46051701322516
 20
-119.2535305148915
 30
0.0
 10
89.46051701322516
 20
-119.2535305148915
 30
0.0
 10
89.46051701322516
 20
-119.3000393039424
 30
0.0
 10
89.4625840705163
 20
-119.363429060871
 30
0.0
 10
89.46912975193828
 20
-119.4016696207572
 30
0.0
 10
89.46912975193828
 20
-119.4016696207572
 30
0.0
 10
89.27654891431281
 20
-119.4016696207572
 30
0.0
 10
89.27654891431281
 20
-119.4016696207572
 30
0.0
 10
89.28275008618625
 20
-119.3613620035798
 30
0.0
 10
89.28929576760824
 20
-119.2788519667081
 30
0.0
 10
89.28929576760824
 20
-119.2640380561215
 30
0.0
 10
89.28929576760824
 20
-119.2640380561215
 30
0.0
 10
89.28929576760824
 20
-119.1434597141377
 30
0.0
 10
89.28929576760824
 20
-119.1434597141377
 30
0.0
 10
89.28929576760824
 20
-119.1434597141377
 30
0.0
 10
89.12427569386477
 20
-119.1434597141377
 30
0.0
 10
89.12427569386477
 20
-119.1434597141377
 30
0.0
 10
89.0819010193962
 20
-119.363429060871
 30
0.0
 10
89.0267794916322
 20
-119.4438720404515
 30
0.0
 10
88.92101506023502
 20
-119.543263045201
 30
0.0
 10
88.92101506023502
 20
-119.543263045201
 30
0.0
 10
88.75392792920042
 20
-119.429058129865
 30
0.0
 10
88.75392792920042
 20
-119.429058129865
 30
0.0
 10
88.817317686129
 20
-119.3804822835229
 30
0.0
 10
88.9675238492859
 20
-119.2683444254781
 30
0.0
 10
88.9675238492859
 20
-118.919183998048
 30
0.0
 10
88.9675238492859
 20
-118.8366739611763
 30
0.0
 10
88.9592556201213
 20
-118.7901651721254
 30
0.0
 10
88.95064288140817
 20
-118.7415893257834
 30
0.0
 10
89.09671492998277
 20
-118.7564032363699
 30
0.0
 10
89.11152884056935
 20
-118.7564032363699
 30
0.0
 10
89.14735783361594
 20
-118.7564032363699
 30
0.0
 10
89.25553383185279
 20
-118.7564032363699
 30
0.0
 10
89.39712725629656
 20
-118.7393500137179
 30
0.0
 10
89.55801321545772
 20
-118.6780273140805
 30
0.0
 10
89.55801321545772
 20
-118.6780273140805
 30
0.0
 10
89.6720458760195
 20
-118.8092854520685
 30
0.0
 10
89.6720458760195
 20
-118.8092854520685
 30
0.0
 10
89.67859155744146
 20
-118.8156588787162
 30
0.0
 10
89.68272567202376
 20
-118.8240993626551
 30
0.0
 10
89.68272567202376
 20
-118.832539846594
 30
0.0
 10
89.68272567202376
 20
-118.8557942411194
 30
0.0
 10
89.6637776468549
 20
-118.860100610476
 30
0.0
 10
89.64896373626831
 20
-118.860100610476
 30
0.0
  0
SPLINE
  5
7D
330
59
100
AcDbEntity
  8
_U+30EC_U+30A4_U+30E4_U+30FC 1
370
     0
100
AcDbSpline
210
0.0
220
0.0
230
1.0
 70
    11
 71
     3
 72
    74
 73
    70
 74
     0
 42
0.0000000001
 43
0.0000000001
 12
1.0
 22
0.0
 32
0.0
 13
1.0
 23
0.0
 33
0.0
 40
0.0
 40
0.0
 40
0.0
 40
0.0
 40
1.0
 40
1.0
 40
1.0
 40
2.0
 40
2.0
 40
2.0
 40
3.0
 40
3.0
 40
3.0
 40
4.0
 40
4.0
 40
4.0
 40
5.0
 40
5.0
 40
5.0
 40
6.0
 40
6.0
 40
6.0
 40
7.0
 40
7.0
 40
7.0
 40
8.0
 40
8.0
 40
8.0
 40
9.0
 40
9.0
 40
9.0
 40
10.0
 40
10.0
 40
10.0
 40
11.0
 40
11.0
 40
11.0
 40
12.0
 40
12.0
 40
12.0
 40
13.0
 40
13.0
 40
13.0
 40
14.0
 40
14.0
 40
14.0
 40
15.0
 40
15.0
 40
15.0
 40
16.0
 40
16.0
 40
16.0
 40
17.0
 40
17.0
 40
17.0
 40
18.0
 40
18.0
 40
18.0
 40
19.0
 40
19.0
 40
19.0
 40
20.0
 40
20.0
 40
20.0
 40
21.0
 40
21.0
 40
21.0
 40
22.0
 40
22.0
 40
22.0
 40
23.0
 40
23.0
 40
23.0
 40
23.0
 10
90.48646644873256
 20
-120.6264010657635
 30
0.0
 10
90.27287052864706
 20
-120.6158935245335
 30
0.0
 10
90.072021461857
 20
-120.5290771183052
 30
0.0
 10
89.89632159210926
 20
-120.4084987763215
 30
0.0
 10
89.89632159210926
 20
-120.4084987763215
 30
0.0
 10
89.99381779434182
 20
-120.3218546248675
 30
0.0
 10
89.99381779434182
 20
-120.3218546248675
 30
0.0
 10
89.99381779434182
 20
-120.3218546248675
 30
0.0
 10
89.44156898805628
 20
-120.3218546248675
 30
0.0
 10
89.44156898805628
 20
-120.3218546248675
 30
0.0
 10
89.44156898805628
 20
-120.3218546248675
 30
0.0
 10
89.5218397128626
 20
-120.3852443817961
 30
0.0
 10
89.5218397128626
 20
-120.3852443817961
 30
0.0
 10
89.52838539428457
 20
-120.3895507511526
 30
0.0
 10
89.53872068074033
 20
-120.4000582923826
 30
0.0
 10
89.53872068074033
 20
-120.4148722029692
 30
0.0
 10
89.53872068074033
 20
-120.4551798201466
 30
0.0
 10
89.46465112780746
 20
-120.4488063934989
 30
0.0
 10
89.44983721722087
 20
-120.4465670814335
 30
0.0
 10
89.21936032925767
 20
-120.5862657033604
 30
0.0
 10
89.07569984752274
 20
-120.6179605818247
 30
0.0
 10
88.97200247341672
 20
-120.6348415497024
 30
0.0
 10
88.97200247341672
 20
-120.6348415497024
 30
0.0
 10
88.84281139271985
 20
-120.4572468774378
 30
0.0
 10
88.84281139271985
 20
-120.4572468774378
 30
0.0
 10
89.09051375810932
 20
-120.4255519989735
 30
0.0
 10
89.19179956537566
 20
-120.3788709551483
 30
0.0
 10
89.28068302889511
 20
-120.3259887394498
 30
0.0
 10
89.20661347596224
 20
-120.3282280515152
 30
0.0
 10
89.09258081540047
 20
-120.3302951088063
 30
0.0
 10
89.06088593693617
 20
-120.3323621660975
 30
0.0
 10
89.07569984752274
 20
-120.243478702578
 30
0.0
 10
89.0777669048139
 20
-120.1144598766554
 30
0.0
 10
89.0777669048139
 20
-120.0403903237225
 30
0.0
 10
89.0777669048139
 20
-120.0403903237225
 30
0.0
 10
89.0777669048139
 20
-119.7399779974088
 30
0.0
 10
89.0777669048139
 20
-119.7399779974088
 30
0.0
 10
89.0777669048139
 20
-119.6405869926593
 30
0.0
 10
89.07122122339192
 20
-119.5411959879098
 30
0.0
 10
89.06088593693617
 20
-119.4438720404515
 30
0.0
 10
89.16217174420251
 20
-119.4502454670993
 30
0.0
 10
89.39299314171426
 20
-119.456618893747
 30
0.0
 10
89.50082463040258
 20
-119.456618893747
 30
0.0
 10
89.50082463040258
 20
-119.456618893747
 30
0.0
 10
89.92388235599125
 20
-119.456618893747
 30
0.0
 10
89.92388235599125
 20
-119.456618893747
 30
0.0
 10
90.04239364068385
 20
-119.456618893747
 30
0.0
 10
90.08476831515242
 20
-119.456618893747
 30
0.0
 10
90.1671060972499
 20
-119.4523125243904
 30
0.0
 10
90.31524520311564
 20
-119.4459390977427
 30
0.0
 10
90.33212617099336
 20
-119.4459390977427
 30
0.0
 10
90.37863496004424
 20
-119.4438720404515
 30
0.0
 10
90.37036673087964
 20
-119.5243150200321
 30
0.0
 10
90.36588810674881
 20
-119.6829616671279
 30
0.0
 10
90.36588810674881
 20
-119.7654717039996
 30
0.0
 10
90.36588810674881
 20
-119.7654717039996
 30
0.0
 10
90.36588810674881
 20
-120.0510701197268
 30
0.0
 10
90.36588810674881
 20
-120.0510701197268
 30
0.0
 10
90.36588810674881
 20
-120.1229003605943
 30
0.0
 10
90.36795516403996
 20
-120.2541584985823
 30
0.0
 10
90.37863496004424
 20
-120.3323621660975
 30
0.0
 10
90.30663246440251
 20
-120.3282280515152
 30
0.0
 10
90.18398706512762
 20
-120.3259887394498
 30
0.0
 10
90.10578339761244
 20
-120.3239216821586
 30
0.0
 10
90.21568194359192
 20
-120.3916178084438
 30
0.0
 10
90.36795516403996
 20
-120.4424329668512
 30
0.0
 10
90.57982853638282
 20
-120.4465670814335
 30
0.0
 10
90.57982853638282
 20
-120.4465670814335
 30
0.0
 10
90.48646644873256
 20
-120.6264010657635
 30
0.0
 10
90.48646644873256
 20
-120.6264010657635
 30
0.0
  0
POLYLINE
  5
7E
330
59
100
AcDbEntity
  8
_U+30EC_U+30A4_U+30E4_U+30FC 1
370
     0
100
AcDb2dPolyline
 66
     1
 10
0.0
 20
0.0
 30
0.0
  0
VERTEX
  5
7F
330
7E
100
AcDbEntity
  8
_U+30EC_U+30A4_U+30E4_U+30FC 1
370
     0
100
AcDbVertex
100
AcDb2dVertex
 10
90.18192000783647
 20
-119.5920111463173
 30
0.0
  0
VERTEX
  5
80
330
7E
100
AcDbEntity
  8
_U+30EC_U+30A4_U+30E4_U+30FC 1
370
     0
100
AcDbVertex
100
AcDb2dVertex
 10
89.27000323289084
 20
-119.5920111463173
 30
0.0
  0
VERTEX
  5
81
330
7E
100
AcDbEntity
  8
_U+30EC_U+30A4_U+30E4_U+30FC 1
370
     0
100
AcDbVertex
100
AcDb2dVertex
 10
89.27000323289084
 20
-119.7041490043622
 30
0.0
  0
VERTEX
  5
82
330
7E
100
AcDbEntity
  8
_U+30EC_U+30A4_U+30E4_U+30FC 1
370
     0
100
AcDbVertex
100
AcDb2dVertex
 10
90.18192000783647
 20
-119.7041490043622
 30
0.0
  0
VERTEX
  5
83
330
7E
100
AcDbEntity
  8
_U+30EC_U+30A4_U+30E4_U+30FC 1
370
     0
100
AcDbVertex
100
AcDb2dVertex
 10
90.18192000783647
 20
-119.5920111463173
 30
0.0
  0
SEQEND
  5
84
330
7E
100
AcDbEntity
  8
_U+30EC_U+30A4_U+30E4_U+30FC 1
370
     0
  0
POLYLINE
  5
85
330
59
100
AcDbEntity
  8
_U+30EC_U+30A4_U+30E4_U+30FC 1
370
     0
100
AcDb2dPolyline
 66
     1
 10
0.0
 20
0.0
 30
0.0
  0
VERTEX
  5
86
330
85
100
AcDbEntity
  8
_U+30EC_U+30A4_U+30E4_U+30FC 1
370
     0
100
AcDbVertex
100
AcDb2dVertex
 10
90.18192000783647
 20
-119.8373019448671
 30
0.0
  0
VERTEX
  5
87
330
85
100
AcDbEntity
  8
_U+30EC_U+30A4_U+30E4_U+30FC 1
370
     0
100
AcDbVertex
100
AcDb2dVertex
 10
89.27000323289084
 20
-119.8373019448671
 30
0.0
  0
VERTEX
  5
88
330
85
100
AcDbEntity
  8
_U+30EC_U+30A4_U+30E4_U+30FC 1
370
     0
100
AcDbVertex
100
AcDb2dVertex
 10
89.27000323289084
 20
-119.9473727456208
 30
0.0
  0
VERTEX
  5
89
330
85
100
AcDbEntity
  8
_U+30EC_U+30A4_U+30E4_U+30FC 1
370
     0
100
AcDbVertex
100
AcDb2dVertex
 10
90.18192000783647
 20
-119.9473727456208
 30
0.0
  0
VERTEX
  5
8A
330
85
100
AcDbEntity
  8
_U+30EC_U+30A4_U+30E4_U+30FC 1
370
     0
100
AcDbVertex
100
AcDb2dVertex
 10
90.18192000783647
 20
-119.8373019448671
 30
0.0
  0
SEQEND
  5
8B
330
85
100
AcDbEntity
  8
_U+30EC_U+30A4_U+30E4_U+30FC 1
370
     0
  0
POLYLINE
  5
8C
330
59
100
AcDbEntity
  8
_U+30EC_U+30A4_U+30E4_U+30FC 1
370
     0
100
AcDb2dPolyline
 66
     1
 10
0.0
 20
0.0
 30
0.0
  0
VERTEX
  5
8D
330
8C
100
AcDbEntity
  8
_U+30EC_U+30A4_U+30E4_U+30FC 1
370
     0
100
AcDbVertex
100
AcDb2dVertex
 10
90.18192000783647
 20
-120.0827649981911
 30
0.0
  0
VERTEX
  5
8E
330
8C
100
AcDbEntity
  8
_U+30EC_U+30A4_U+30E4_U+30FC 1
370
     0
100
AcDbVertex
100
AcDb2dVertex
 10
89.27000323289084
 20
-120.0827649981911
 30
0.0
  0
VERTEX
  5
8F
330
8C
100
AcDbEntity
  8
_U+30EC_U+30A4_U+30E4_U+30FC 1
370
     0
100
AcDbVertex
100
AcDb2dVertex
 10
89.27000323289084
 20
-120.1905964868794
 30
0.0
  0
VERTEX
  5
90
330
8C
100
AcDbEntity
  8
_U+30EC_U+30A4_U+30E4_U+30FC 1
370
     0
100
AcDbVertex
100
AcDb2dVertex
 10
90.18192000783647
 20
-120.1905964868794
 30
0.0
  0
VERTEX
  5
91
330
8C
100
AcDbEntity
  8
_U+30EC_U+30A4_U+30E4_U+30FC 1
370
     0
100
AcDbVertex
100
AcDb2dVertex
 10
90.18192000783647
 20
-120.0827649981911
 30
0.0
  0
SEQEND
  5
92
330
8C
100
AcDbEntity
  8
_U+30EC_U+30A4_U+30E4_U+30FC 1
370
     0
  0
SPLINE
  5
93
330
59
100
AcDbEntity
  8
_U+30EC_U+30A4_U+30E4_U+30FC 1
370
     0
100
AcDbSpline
210
0.0
220
0.0
230
1.0
 70
    11
 71
     3
 72
    74
 73
    70
 74
     0
 42
0.0000000001
 43
0.0000000001
 12
1.0
 22
0.0
 32
0.0
 13
1.0
 23
0.0
 33
0.0
 40
0.0
 40
0.0
 40
0.0
 40
0.0
 40
1.0
 40
1.0
 40
1.0
 40
2.0
 40
2.0
 40
2.0
 40
3.0
 40
3.0
 40
3.0
 40
4.0
 40
4.0
 40
4.0
 40
5.0
 40
5.0
 40
5.0
 40
6.0
 40
6.0
 40
6.0
 40
7.0
 40
7.0
 40
7.0
 40
8.0
 40
8.0
 40
8.0
 40
9.0
 40
9.0
 40
9.0
 40
10.0
 40
10.0
 40
10.0
 40
11.0
 40
11.0
 40
11.0
 40
12.0
 40
12.0
 40
12.0
 40
13.0
 40
13.0
 40
13.0
 40
14.0
 40
14.0
 40
14.0
 40
15.0
 40
15.0
 40
15.0
 40
16.0
 40
16.0
 40
16.0
 40
17.0
 40
17.0
 40
17.0
 40
18.0
 40
18.0
 40
18.0
 40
19.0
 40
19.0
 40
19.0
 40
20.0
 40
20.0
 40
20.0
 40
21.0
 40
21.0
 40
21.0
 40
22.0
 40
22.0
 40
22.0
 40
23.0
 40
23.0
 40
23.0
 40
23.0
 10
90.49921330202798
 20
-119.1393255995554
 30
0.0
 10
90.49921330202798
 20
-119.1393255995554
 30
0.0
 10
90.33867185241533
 20
-119.1393255995554
 30
0.0
 10
90.33867185241533
 20
-119.1393255995554
 30
0.0
 10
90.33867185241533
 20
-119.1393255995554
 30
0.0
 10
90.33867185241533
 20
-119.2535305148915
 30
0.0
 10
90.33867185241533
 20
-119.2535305148915
 30
0.0
 10
90.33867185241533
 20
-119.2936658772946
 30
0.0
 10
90.34487302428879
 20
-119.3677354302275
 30
0.0
 10
90.34900713887109
 20
-119.3930568820441
 30
0.0
 10
90.34900713887109
 20
-119.3930568820441
 30
0.0
 10
90.13747827607675
 20
-119.3930568820441
 30
0.0
 10
90.13747827607675
 20
-119.3930568820441
 30
0.0
 10
90.14815807208102
 20
-119.3276000678243
 30
0.0
 10
90.15022512937217
 20
-119.2683444254781
 30
0.0
 10
90.15022512937217
 20
-119.2662773681869
 30
0.0
 10
90.15022512937217
 20
-119.2662773681869
 30
0.0
 10
90.15022512937217
 20
-119.1434597141377
 30
0.0
 10
90.15022512937217
 20
-119.1434597141377
 30
0.0
 10
90.15022512937217
 20
-119.1434597141377
 30
0.0
 10
89.97039114504213
 20
-119.1434597141377
 30
0.0
 10
89.97039114504213
 20
-119.1434597141377
 30
0.0
 10
89.95144311987326
 20
-119.202715356484
 30
0.0
 10
89.90493433082239
 20
-119.3486151502844
 30
0.0
 10
89.79055716071208
 20
-119.4311251871561
 30
0.0
 10
89.79055716071208
 20
-119.4311251871561
 30
0.0
 10
89.63414982568175
 20
-119.3253607557589
 30
0.0
 10
89.63414982568175
 20
-119.3253607557589
 30
0.0
 10
89.70821937861461
 20
-119.2788519667081
 30
0.0
 10
89.82431909646753
 20
-119.2047824137752
 30
0.0
 10
89.82431909646753
 20
-118.8833550050014
 30
0.0
 10
89.82431909646753
 20
-118.8282334772374
 30
0.0
 10
89.82018498188523
 20
-118.7837917454777
 30
0.0
 10
89.81811792459409
 20
-118.7457234403657
 30
0.0
 10
89.8942545348181
 20
-118.7541639243045
 30
0.0
 10
89.96832408775097
 20
-118.7605373509522
 30
0.0
 10
90.03171384467957
 20
-118.7605373509522
 30
0.0
 10
90.20948077171846
 20
-118.7605373509522
 30
0.0
 10
90.40826278121739
 20
-118.7012817086059
 30
0.0
 10
90.46958548085483
 20
-118.6716538874328
 30
0.0
 10
90.46958548085483
 20
-118.6716538874328
 30
0.0
 10
90.59670950426055
 20
-118.8070461400031
 30
0.0
 10
90.59670950426055
 20
-118.8070461400031
 30
0.0
 10
90.60084361884284
 20
-118.8113525093597
 30
0.0
 10
90.602910676134
 20
-118.8197929932985
 30
0.0
 10
90.602910676134
 20
-118.8261664199462
 30
0.0
 10
90.602910676134
 20
-118.8473537571805
 30
0.0
 10
90.58809676554742
 20
-118.8537271838282
 30
0.0
 10
90.5712157976697
 20
-118.8537271838282
 30
0.0
 10
90.55020071520967
 20
-118.8537271838282
 30
0.0
 10
90.5353868046231
 20
-118.8452866998894
 30
0.0
 10
90.51609426990571
 20
-118.8346069038851
 30
0.0
 10
90.34280596699763
 20
-118.8917954889402
 30
0.0
 10
90.12473142278132
 20
-118.9171169407568
 30
0.0
 10
89.99140622750215
 20
-118.919183998048
 30
0.0
 10
89.99140622750215
 20
-118.919183998048
 30
0.0
 10
89.98727211291985
 20
-119.0016940349197
 30
0.0
 10
89.98727211291985
 20
-119.0016940349197
 30
0.0
 10
89.98727211291985
 20
-119.0016940349197
 30
0.0
 10
90.26012367535164
 20
-119.0016940349197
 30
0.0
 10
90.26012367535164
 20
-119.0016940349197
 30
0.0
 10
90.3173122604068
 20
-119.0016940349197
 30
0.0
 10
90.57982853638282
 20
-118.9827460097508
 30
0.0
 10
90.62392575859403
 20
-118.9763725831031
 30
0.0
 10
90.62392575859403
 20
-118.9763725831031
 30
0.0
 10
90.62392575859403
 20
-119.1455267714289
 30
0.0
 10
90.62392575859403
 20
-119.1455267714289
 30
0.0
 10
90.59016382283858
 20
-119.1413926568466
 30
0.0
 10
90.57741696954315
 20
-119.1393255995554
 30
0.0
 10
90.49921330202798
 20
-119.1393255995554
 30
0.0
  0
HATCH
  5
94
330
59
100
AcDbEntity
  8
_U+30EC_U+30A4_U+30E4_U+30FC 1
 62
   179
420
  2234388
100
AcDbHatch
 10
0.0
 20
0.0
 30
0.0
210
0.0
220
0.0
230
1.0
  2
SOLID
 70
     1
 71
     0
 91
        6
 92
        1
 93
        1
 72
     4
 94
        3
 73
     0
 74
     1
 95
       71
 96
       67
 40
0.0
 40
0.0
 40
0.0
 40
0.0
 40
1.0
 40
1.0
 40
1.0
 40
2.0
 40
2.0
 40
2.0
 40
3.0
 40
3.0
 40
3.0
 40
4.0
 40
4.0
 40
4.0
 40
5.0
 40
5.0
 40
5.0
 40
6.0
 40
6.0
 40
6.0
 40
7.0
 40
7.0
 40
7.0
 40
8.0
 40
8.0
 40
8.0
 40
9.0
 40
9.0
 40
9.0
 40
10.0
 40
10.0
 40
10.0
 40
11.0
 40
11.0
 40
11.0
 40
12.0
 40
12.0
 40
12.0
 40
13.0
 40
13.0
 40
13.0
 40
14.0
 40
14.0
 40
14.0
 40
15.0
 40
15.0
 40
15.0
 40
16.0
 40
16.0
 40
16.0
 40
17.0
 40
17.0
 40
17.0
 40
18.0
 40
18.0
 40
18.0
 40
19.0
 40
19.0
 40
19.0
 40
20.0
 40
20.0
 40
20.0
 40
21.0
 40
21.0
 40
21.0
 40
22.0
 40
22.0
 40
22.0
 40
22.0
 10
89.64896373626831
 20
-118.860100610476
 10
89.63414982568175
 20
-118.860100610476
 10
89.62140297238632
 20
-118.8557942411194
 10
89.59590926579547
 20
-118.8473537571805
 10
89.4543158413517
 20
-118.8938625462314
 10
89.28068302889511
 20
-118.9107435141091
 10
89.1411566617425
 20
-118.9150498834657
 10
89.1411566617425
 20
-118.9150498834657
 10
89.13908960445134
 20
-119.0039333469851
 10
89.13908960445134
 20
-119.0039333469851
 10
89.13908960445134
 20
-119.0039333469851
 10
89.3991943135877
 20
-119.0039333469851
 10
89.3991943135877
 20
-119.0039333469851
 10
89.45224878406056
 20
-119.0039333469851
 10
89.63414982568175
 20
-118.9954928630463
 10
89.67859155744146
 20
-118.9891194363986
 10
89.67859155744146
 20
-118.9891194363986
 10
89.67859155744146
 20
-119.1498331407855
 10
89.67859155744146
 20
-119.1498331407855
 10
89.62347002967746
 20
-119.1434597141377
 10
89.49875757311142
 20
-119.1413926568466
 10
89.46051701322516
 20
-119.1434597141377
 10
89.46051701322516
 20
-119.1434597141377
 10
89.46051701322516
 20
-119.2535305148915
 10
89.46051701322516
 20
-119.2535305148915
 10
89.46051701322516
 20
-119.3000393039424
 10
89.4625840705163
 20
-119.363429060871
 10
89.46912975193828
 20
-119.4016696207572
 10
89.46912975193828
 20
-119.4016696207572
 10
89.27654891431281
 20
-119.4016696207572
 10
89.27654891431281
 20
-119.4016696207572
 10
89.28275008618625
 20
-119.3613620035798
 10
89.28929576760824
 20
-119.2788519667081
 10
89.28929576760824
 20
-119.2640380561215
 10
89.28929576760824
 20
-119.2640380561215
 10
89.28929576760824
 20
-119.1434597141377
 10
89.28929576760824
 20
-119.1434597141377
 10
89.28929576760824
 20
-119.1434597141377
 10
89.12427569386477
 20
-119.1434597141377
 10
89.12427569386477
 20
-119.1434597141377
 10
89.0819010193962
 20
-119.363429060871
 10
89.0267794916322
 20
-119.4438720404515
 10
88.92101506023502
 20
-119.543263045201
 10
88.92101506023502
 20
-119.543263045201
 10
88.75392792920042
 20
-119.429058129865
 10
88.75392792920042
 20
-119.429058129865
 10
88.817317686129
 20
-119.3804822835229
 10
88.9675238492859
 20
-119.2683444254781
 10
88.9675238492859
 20
-118.919183998048
 10
88.9675238492859
 20
-118.8366739611763
 10
88.9592556201213
 20
-118.7901651721254
 10
88.95064288140817
 20
-118.7415893257834
 10
89.09671492998277
 20
-118.7564032363699
 10
89.11152884056935
 20
-118.7564032363699
 10
89.14735783361594
 20
-118.7564032363699
 10
89.25553383185279
 20
-118.7564032363699
 10
89.39712725629656
 20
-118.7393500137179
 10
89.55801321545772
 20
-118.6780273140805
 10
89.55801321545772
 20
-118.6780273140805
 10
89.6720458760195
 20
-118.8092854520685
 10
89.6720458760195
 20
-118.8092854520685
 10
89.67859155744146
 20
-118.8156588787162
 10
89.68272567202376
 20
-118.8240993626551
 10
89.68272567202376
 20
-118.832539846594
 10
89.68272567202376
 20
-118.8557942411194
 10
89.6637776468549
 20
-118.860100610476
 10
89.64896373626831
 20
-118.860100610476
 97
        0
 97
        0
 92
        1
 93
        1
 72
     4
 94
        3
 73
     0
 74
     1
 95
       74
 96
       70
 40
0.0
 40
0.0
 40
0.0
 40
0.0
 40
1.0
 40
1.0
 40
1.0
 40
2.0
 40
2.0
 40
2.0
 40
3.0
 40
3.0
 40
3.0
 40
4.0
 40
4.0
 40
4.0
 40
5.0
 40
5.0
 40
5.0
 40
6.0
 40
6.0
 40
6.0
 40
7.0
 40
7.0
 40
7.0
 40
8.0
 40
8.0
 40
8.0
 40
9.0
 40
9.0
 40
9.0
 40
10.0
 40
10.0
 40
10.0
 40
11.0
 40
11.0
 40
11.0
 40
12.0
 40
12.0
 40
12.0
 40
13.0
 40
13.0
 40
13.0
 40
14.0
 40
14.0
 40
14.0
 40
15.0
 40
15.0
 40
15.0
 40
16.0
 40
16.0
 40
16.0
 40
17.0
 40
17.0
 40
17.0
 40
18.0
 40
18.0
 40
18.0
 40
19.0
 40
19.0
 40
19.0
 40
20.0
 40
20.0
 40
20.0
 40
21.0
 40
21.0
 40
21.0
 40
22.0
 40
22.0
 40
22.0
 40
23.0
 40
23.0
 40
23.0
 40
23.0
 10
90.48646644873256
 20
-120.6264010657635
 10
90.27287052864706
 20
-120.6158935245335
 10
90.072021461857
 20
-120.5290771183052
 10
89.89632159210926
 20
-120.4084987763215
 10
89.89632159210926
 20
-120.4084987763215
 10
89.99381779434182
 20
-120.3218546248675
 10
89.99381779434182
 20
-120.3218546248675
 10
89.99381779434182
 20
-120.3218546248675
 10
89.44156898805628
 20
-120.3218546248675
 10
89.44156898805628
 20
-120.3218546248675
 10
89.44156898805628
 20
-120.3218546248675
 10
89.5218397128626
 20
-120.3852443817961
 10
89.5218397128626
 20
-120.3852443817961
 10
89.52838539428457
 20
-120.3895507511526
 10
89.53872068074033
 20
-120.4000582923826
 10
89.53872068074033
 20
-120.4148722029692
 10
89.53872068074033
 20
-120.4551798201466
 10
89.46465112780746
 20
-120.4488063934989
 10
89.44983721722087
 20
-120.4465670814335
 10
89.21936032925767
 20
-120.5862657033604
 10
89.07569984752274
 20
-120.6179605818247
 10
88.97200247341672
 20
-120.6348415497024
 10
88.97200247341672
 20
-120.6348415497024
 10
88.84281139271985
 20
-120.4572468774378
 10
88.84281139271985
 20
-120.4572468774378
 10
89.09051375810932
 20
-120.4255519989735
 10
89.19179956537566
 20
-120.3788709551483
 10
89.28068302889511
 20
-120.3259887394498
 10
89.20661347596224
 20
-120.3282280515152
 10
89.09258081540047
 20
-120.3302951088063
 10
89.06088593693617
 20
-120.3323621660975
 10
89.07569984752274
 20
-120.243478702578
 10
89.0777669048139
 20
-120.1144598766554
 10
89.0777669048139
 20
-120.0403903237225
 10
89.0777669048139
 20
-120.0403903237225
 10
89.0777669048139
 20
-119.7399779974088
 10
89.0777669048139
 20
-119.7399779974088
 10
89.0777669048139
 20
-119.6405869926593
 10
89.07122122339192
 20
-119.5411959879098
 10
89.06088593693617
 20
-119.4438720404515
 10
89.16217174420251
 20
-119.4502454670993
 10
89.39299314171426
 20
-119.456618893747
 10
89.50082463040258
 20
-119.456618893747
 10
89.50082463040258
 20
-119.456618893747
 10
89.92388235599125
 20
-119.456618893747
 10
89.92388235599125
 20
-119.456618893747
 10
90.04239364068385
 20
-119.456618893747
 10
90.08476831515242
 20
-119.456618893747
 10
90.1671060972499
 20
-119.4523125243904
 10
90.31524520311564
 20
-119.4459390977427
 10
90.33212617099336
 20
-119.4459390977427
 10
90.37863496004424
 20
-119.4438720404515
 10
90.37036673087964
 20
-119.5243150200321
 10
90.36588810674881
 20
-119.6829616671279
 10
90.36588810674881
 20
-119.7654717039996
 10
90.36588810674881
 20
-119.7654717039996
 10
90.36588810674881
 20
-120.0510701197268
 10
90.36588810674881
 20
-120.0510701197268
 10
90.36588810674881
 20
-120.1229003605943
 10
90.36795516403996
 20
-120.2541584985823
 10
90.37863496004424
 20
-120.3323621660975
 10
90.30663246440251
 20
-120.3282280515152
 10
90.18398706512762
 20
-120.3259887394498
 10
90.10578339761244
 20
-120.3239216821586
 10
90.21568194359192
 20
-120.3916178084438
 10
90.36795516403996
 20
-120.4424329668512
 10
90.57982853638282
 20
-120.4465670814335
 10
90.57982853638282
 20
-120.4465670814335
 10
90.48646644873256
 20
-120.6264010657635
 10
90.48646644873256
 20
-120.6264010657635
 97
        0
 97
        0
 92
        1
 93
        4
 72
     1
 10
90.18192000783647
 20
-119.5920111463173
 11
89.27000323289084
 21
-119.5920111463173
 72
     1
 10
89.27000323289084
 20
-119.5920111463173
 11
89.27000323289084
 21
-119.7041490043622
 72
     1
 10
89.27000323289084
 20
-119.7041490043622
 11
90.18192000783647
 21
-119.7041490043622
 72
     1
 10
90.18192000783647
 20
-119.7041490043622
 11
90.18192000783647
 21
-119.5920111463173
 97
        0
 92
        1
 93
        4
 72
     1
 10
90.18192000783647
 20
-119.8373019448671
 11
89.27000323289084
 21
-119.8373019448671
 72
     1
 10
89.27000323289084
 20
-119.8373019448671
 11
89.27000323289084
 21
-119.9473727456208
 72
     1
 10
89.27000323289084
 20
-119.9473727456208
 11
90.18192000783647
 21
-119.9473727456208
 72
     1
 10
90.18192000783647
 20
-119.9473727456208
 11
90.18192000783647
 21
-119.8373019448671
 97
        0
 92
        1
 93
        4
 72
     1
 10
90.18192000783647
 20
-120.0827649981911
 11
89.27000323289084
 21
-120.0827649981911
 72
     1
 10
89.27000323289084
 20
-120.0827649981911
 11
89.27000323289084
 21
-120.1905964868794
 72
     1
 10
89.27000323289084
 20
-120.1905964868794
 11
90.18192000783647
 21
-120.1905964868794
 72
     1
 10
90.18192000783647
 20
-120.1905964868794
 11
90.18192000783647
 21
-120.0827649981911
 97
        0
 92
        1
 93
        1
 72
     4
 94
        3
 73
     0
 74
     1
 95
       74
 96
       70
 40
0.0
 40
0.0
 40
0.0
 40
0.0
 40
1.0
 40
1.0
 40
1.0
 40
2.0
 40
2.0
 40
2.0
 40
3.0
 40
3.0
 40
3.0
 40
4.0
 40
4.0
 40
4.0
 40
5.0
 40
5.0
 40
5.0
 40
6.0
 40
6.0
 40
6.0
 40
7.0
 40
7.0
 40
7.0
 40
8.0
 40
8.0
 40
8.0
 40
9.0
 40
9.0
 40
9.0
 40
10.0
 40
10.0
 40
10.0
 40
11.0
 40
11.0
 40
11.0
 40
12.0
 40
12.0
 40
12.0
 40
13.0
 40
13.0
 40
13.0
 40
14.0
 40
14.0
 40
14.0
 40
15.0
 40
15.0
 40
15.0
 40
16.0
 40
16.0
 40
16.0
 40
17.0
 40
17.0
 40
17.0
 40
18.0
 40
18.0
 40
18.0
 40
19.0
 40
19.0
 40
19.0
 40
20.0
 40
20.0
 40
20.0
 40
21.0
 40
21.0
 40
21.0
 40
22.0
 40
22.0
 40
22.0
 40
23.0
 40
23.0
 40
23.0
 40
23.0
 10
90.49921330202798
 20
-119.1393255995554
 10
90.49921330202798
 20
-119.1393255995554
 10
90.33867185241533
 20
-119.1393255995554
 10
90.33867185241533
 20
-119.1393255995554
 10
90.33867185241533
 20
-119.1393255995554
 10
90.33867185241533
 20
-119.2535305148915
 10
90.33867185241533
 20
-119.2535305148915
 10
90.33867185241533
 20
-119.2936658772946
 10
90.34487302428879
 20
-119.3677354302275
 10
90.34900713887109
 20
-119.3930568820441
 10
90.34900713887109
 20
-119.3930568820441
 10
90.13747827607675
 20
-119.3930568820441
 10
90.13747827607675
 20
-119.3930568820441
 10
90.14815807208102
 20
-119.3276000678243
 10
90.15022512937217
 20
-119.2683444254781
 10
90.15022512937217
 20
-119.2662773681869
 10
90.15022512937217
 20
-119.2662773681869
 10
90.15022512937217
 20
-119.1434597141377
 10
90.15022512937217
 20
-119.1434597141377
 10
90.15022512937217
 20
-119.1434597141377
 10
89.97039114504213
 20
-119.1434597141377
 10
89.97039114504213
 20
-119.1434597141377
 10
89.95144311987326
 20
-119.202715356484
 10
89.90493433082239
 20
-119.3486151502844
 10
89.79055716071208
 20
-119.4311251871561
 10
89.79055716071208
 20
-119.4311251871561
 10
89.63414982568175
 20
-119.3253607557589
 10
89.63414982568175
 20
-119.3253607557589
 10
89.70821937861461
 20
-119.2788519667081
 10
89.82431909646753
 20
-119.2047824137752
 10
89.82431909646753
 20
-118.8833550050014
 10
89.82431909646753
 20
-118.8282334772374
 10
89.82018498188523
 20
-118.7837917454777
 10
89.81811792459409
 20
-118.7457234403657
 10
89.8942545348181
 20
-118.7541639243045
 10
89.96832408775097
 20
-118.7605373509522
 10
90.03171384467957
 20
-118.7605373509522
 10
90.20948077171846
 20
-118.7605373509522
 10
90.40826278121739
 20
-118.7012817086059
 10
90.46958548085483
 20
-118.6716538874328
 10
90.46958548085483
 20
-118.6716538874328
 10
90.59670950426055
 20
-118.8070461400031
 10
90.59670950426055
 20
-118.8070461400031
 10
90.60084361884284
 20
-118.8113525093597
 10
90.602910676134
 20
-118.8197929932985
 10
90.602910676134
 20
-118.8261664199462
 10
90.602910676134
 20
-118.8473537571805
 10
90.58809676554742
 20
-118.8537271838282
 10
90.5712157976697
 20
-118.8537271838282
 10
90.55020071520967
 20
-118.8537271838282
 10
90.5353868046231
 20
-118.8452866998894
 10
90.51609426990571
 20
-118.8346069038851
 10
90.34280596699763
 20
-118.8917954889402
 10
90.12473142278132
 20
-118.9171169407568
 10
89.99140622750215
 20
-118.919183998048
 10
89.99140622750215
 20
-118.919183998048
 10
89.98727211291985
 20
-119.0016940349197
 10
89.98727211291985
 20
-119.0016940349197
 10
89.98727211291985
 20
-119.0016940349197
 10
90.26012367535164
 20
-119.0016940349197
 10
90.26012367535164
 20
-119.0016940349197
 10
90.3173122604068
 20
-119.0016940349197
 10
90.57982853638282
 20
-118.9827460097508
 10
90.62392575859403
 20
-118.9763725831031
 10
90.62392575859403
 20
-118.9763725831031
 10
90.62392575859403
 20
-119.1455267714289
 10
90.62392575859403
 20
-119.1455267714289
 10
90.59016382283858
 20
-119.1413926568466
 10
90.57741696954315
 20
-119.1393255995554
 10
90.49921330202798
 20
-119.1393255995554
 97
        0
 97
        0
 75
     2
 76
     1
 98
        0
  0
SPLINE
  5
95
330
59
100
AcDbEntity
  8
_U+30EC_U+30A4_U+30E4_U+30FC 1
370
     0
100
AcDbSpline
210
0.0
220
0.0
230
1.0
 70
    11
 71
     3
 72
    53
 73
    49
 74
     0
 42
0.0000000001
 43
0.0000000001
 12
1.0
 22
0.0
 32
0.0
 13
1.0
 23
0.0
 33
0.0
 40
0.0
 40
0.0
 40
0.0
 40
0.0
 40
1.0
 40
1.0
 40
1.0
 40
2.0
 40
2.0
 40
2.0
 40
3.0
 40
3.0
 40
3.0
 40
4.0
 40
4.0
 40
4.0
 40
5.0
 40
5.0
 40
5.0
 40
6.0
 40
6.0
 40
6.0
 40
7.0
 40
7.0
 40
7.0
 40
8.0
 40
8.0
 40
8.0
 40
9.0
 40
9.0
 40
9.0
 40
10.0
 40
10.0
 40
10.0
 40
11.0
 40
11.0
 40
11.0
 40
12.0
 40
12.0
 40
12.0
 40
13.0
 40
13.0
 40
13.0
 40
14.0
 40
14.0
 40
14.0
 40
15.0
 40
15.0
 40
15.0
 40
16.0
 40
16.0
 40
16.0
 40
16.0
 10
91.95269908725489
 20
-120.5016886091975
 30
0.0
 10
91.7625298164691
 20
-120.5016886091975
 30
0.0
 10
91.7032741741228
 20
-120.3768038978572
 30
0.0
 10
91.7032741741228
 20
-120.2286647919914
 30
0.0
 10
91.7032741741228
 20
-120.2286647919914
 30
0.0
 10
91.7032741741228
 20
-119.5348225612621
 30
0.0
 10
91.7032741741228
 20
-119.5348225612621
 30
0.0
 10
91.7032741741228
 20
-119.5348225612621
 30
0.0
 10
91.52137313250161
 20
-119.5348225612621
 30
0.0
 10
91.52137313250161
 20
-119.5348225612621
 30
0.0
 10
91.52137313250161
 20
-119.5348225612621
 30
0.0
 10
91.52137313250161
 20
-119.3424139784109
 30
0.0
 10
91.52137313250161
 20
-119.3424139784109
 30
0.0
 10
91.52137313250161
 20
-119.3424139784109
 30
0.0
 10
91.7032741741228
 20
-119.3424139784109
 30
0.0
 10
91.7032741741228
 20
-119.3424139784109
 30
0.0
 10
91.7032741741228
 20
-119.3424139784109
 30
0.0
 10
91.7032741741228
 20
-119.0271877415106
 30
0.0
 10
91.7032741741228
 20
-119.0271877415106
 30
0.0
 10
91.7032741741228
 20
-119.0271877415106
 30
0.0
 10
91.92100420879059
 20
-119.0271877415106
 30
0.0
 10
91.92100420879059
 20
-119.0271877415106
 30
0.0
 10
91.92100420879059
 20
-119.0271877415106
 30
0.0
 10
91.92100420879059
 20
-119.3424139784109
 30
0.0
 10
91.92100420879059
 20
-119.3424139784109
 30
0.0
 10
91.92100420879059
 20
-119.3424139784109
 30
0.0
 10
92.1115179891249
 20
-119.3424139784109
 30
0.0
 10
92.1115179891249
 20
-119.3424139784109
 30
0.0
 10
92.1115179891249
 20
-119.3424139784109
 30
0.0
 10
92.1115179891249
 20
-119.5348225612621
 30
0.0
 10
92.1115179891249
 20
-119.5348225612621
 30
0.0
 10
92.1115179891249
 20
-119.5348225612621
 30
0.0
 10
91.92100420879059
 20
-119.5348225612621
 30
0.0
 10
91.92100420879059
 20
-119.5348225612621
 30
0.0
 10
91.92100420879059
 20
-119.5348225612621
 30
0.0
 10
91.92100420879059
 20
-120.2033433401749
 30
0.0
 10
91.92100420879059
 20
-120.2033433401749
 30
0.0
 10
91.92100420879059
 20
-120.2879204343377
 30
0.0
 10
91.97405867926344
 20
-120.3111748288632
 30
0.0
 10
92.04571666535664
 20
-120.3111748288632
 30
0.0
 10
92.0563964613609
 20
-120.3111748288632
 30
0.0
 10
92.0798231106606
 20
-120.3111748288632
 30
0.0
 10
92.1115179891249
 20
-120.3070407142809
 30
0.0
 10
92.1115179891249
 20
-120.3070407142809
 30
0.0
 10
92.1115179891249
 20
-120.4784342146721
 30
0.0
 10
92.1115179891249
 20
-120.4784342146721
 30
0.0
 10
92.07775605336946
 20
-120.4910088131932
 30
0.0
 10
92.00368650043659
 20
-120.5016886091975
 30
0.0
 10
91.95269908725489
 20
-120.5016886091975
 30
0.0
  0
HATCH
  5
96
330
59
100
AcDbEntity
  8
_U+30EC_U+30A4_U+30E4_U+30FC 1
 62
   179
420
  2234388
100
AcDbHatch
 10
0.0
 20
0.0
 30
0.0
210
0.0
220
0.0
230
1.0
  2
SOLID
 70
     1
 71
     0
 91
        1
 92
        1
 93
        1
 72
     4
 94
        3
 73
     0
 74
     1
 95
       53
 96
       49
 40
0.0
 40
0.0
 40
0.0
 40
0.0
 40
1.0
 40
1.0
 40
1.0
 40
2.0
 40
2.0
 40
2.0
 40
3.0
 40
3.0
 40
3.0
 40
4.0
 40
4.0
 40
4.0
 40
5.0
 40
5.0
 40
5.0
 40
6.0
 40
6.0
 40
6.0
 40
7.0
 40
7.0
 40
7.0
 40
8.0
 40
8.0
 40
8.0
 40
9.0
 40
9.0
 40
9.0
 40
10.0
 40
10.0
 40
10.0
 40
11.0
 40
11.0
 40
11.0
 40
12.0
 40
12.0
 40
12.0
 40
13.0
 40
13.0
 40
13.0
 40
14.0
 40
14.0
 40
14.0
 40
15.0
 40
15.0
 40
15.0
 40
16.0
 40
16.0
 40
16.0
 40
16.0
 10
91.95269908725489
 20
-120.5016886091975
 10
91.7625298164691
 20
-120.5016886091975
 10
91.7032741741228
 20
-120.3768038978572
 10
91.7032741741228
 20
-120.2286647919914
 10
91.7032741741228
 20
-120.2286647919914
 10
91.7032741741228
 20
-119.5348225612621
 10
91.7032741741228
 20
-119.5348225612621
 10
91.7032741741228
 20
-119.5348225612621
 10
91.52137313250161
 20
-119.5348225612621
 10
91.52137313250161
 20
-119.5348225612621
 10
91.52137313250161
 20
-119.5348225612621
 10
91.52137313250161
 20
-119.3424139784109
 10
91.52137313250161
 20
-119.3424139784109
 10
91.52137313250161
 20
-119.3424139784109
 10
91.7032741741228
 20
-119.3424139784109
 10
91.7032741741228
 20
-119.3424139784109
 10
91.7032741741228
 20
-119.3424139784109
 10
91.7032741741228
 20
-119.0271877415106
 10
91.7032741741228
 20
-119.0271877415106
 10
91.7032741741228
 20
-119.0271877415106
 10
91.92100420879059
 20
-119.0271877415106
 10
91.92100420879059
 20
-119.0271877415106
 10
91.92100420879059
 20
-119.0271877415106
 10
91.92100420879059
 20
-119.3424139784109
 10
91.92100420879059
 20
-119.3424139784109
 10
91.92100420879059
 20
-119.3424139784109
 10
92.1115179891249
 20
-119.3424139784109
 10
92.1115179891249
 20
-119.3424139784109
 10
92.1115179891249
 20
-119.3424139784109
 10
92.1115179891249
 20
-119.5348225612621
 10
92.1115179891249
 20
-119.5348225612621
 10
92.1115179891249
 20
-119.5348225612621
 10
91.92100420879059
 20
-119.5348225612621
 10
91.92100420879059
 20
-119.5348225612621
 10
91.92100420879059
 20
-119.5348225612621
 10
91.92100420879059
 20
-120.2033433401749
 10
91.92100420879059
 20
-120.2033433401749
 10
91.92100420879059
 20
-120.2879204343377
 10
91.97405867926344
 20
-120.3111748288632
 10
92.04571666535664
 20
-120.3111748288632
 10
92.0563964613609
 20
-120.3111748288632
 10
92.0798231106606
 20
-120.3111748288632
 10
92.1115179891249
 20
-120.3070407142809
 10
92.1115179891249
 20
-120.3070407142809
 10
92.1115179891249
 20
-120.4784342146721
 10
92.1115179891249
 20
-120.4784342146721
 10
92.07775605336946
 20
-120.4910088131932
 10
92.00368650043659
 20
-120.5016886091975
 10
91.95269908725489
 20
-120.5016886091975
 97
        0
 97
        0
 75
     2
 76
     1
 98
        0
  0
POLYLINE
  5
97
330
59
100
AcDbEntity
  8
_U+30EC_U+30A4_U+30E4_U+30FC 1
370
     0
100
AcDb2dPolyline
 66
     1
 10
0.0
 20
0.0
 30
0.0
  0
VERTEX
  5
98
330
97
100
AcDbEntity
  8
_U+30EC_U+30A4_U+30E4_U+30FC 1
370
     0
100
AcDbVertex
100
AcDb2dVertex
 10
92.32408038056482
 20
-119.5644503824353
 30
0.0
  0
VERTEX
  5
99
330
97
100
AcDbEntity
  8
_U+30EC_U+30A4_U+30E4_U+30FC 1
370
     0
100
AcDbVertex
100
AcDb2dVertex
 10
92.32408038056482
 20
-119.3592949462887
 30
0.0
  0
VERTEX
  5
9A
330
97
100
AcDbEntity
  8
_U+30EC_U+30A4_U+30E4_U+30FC 1
370
     0
100
AcDbVertex
100
AcDb2dVertex
 10
93.50230303652026
 20
-119.3592949462887
 30
0.0
  0
VERTEX
  5
9B
330
97
100
AcDbEntity
  8
_U+30EC_U+30A4_U+30E4_U+30FC 1
370
     0
100
AcDbVertex
100
AcDb2dVertex
 10
93.50230303652026
 20
-119.5644503824353
 30
0.0
  0
VERTEX
  5
9C
330
97
100
AcDbEntity
  8
_U+30EC_U+30A4_U+30E4_U+30FC 1
370
     0
100
AcDbVertex
100
AcDb2dVertex
 10
92.32408038056482
 20
-119.5644503824353
 30
0.0
  0
SEQEND
  5
9D
330
97
100
AcDbEntity
  8
_U+30EC_U+30A4_U+30E4_U+30FC 1
370
     0
  0
POLYLINE
  5
9E
330
59
100
AcDbEntity
  8
_U+30EC_U+30A4_U+30E4_U+30FC 1
370
     0
100
AcDb2dPolyline
 66
     1
 10
0.0
 20
0.0
 30
0.0
  0
VERTEX
  5
9F
330
9E
100
AcDbEntity
  8
_U+30EC_U+30A4_U+30E4_U+30FC 1
370
     0
100
AcDbVertex
100
AcDb2dVertex
 10
92.32408038056482
 20
-119.9981879040282
 30
0.0
  0
VERTEX
  5
A0
330
9E
100
AcDbEntity
  8
_U+30EC_U+30A4_U+30E4_U+30FC 1
370
     0
100
AcDbVertex
100
AcDb2dVertex
 10
92.32408038056482
 20
-119.7930324678816
 30
0.0
  0
VERTEX
  5
A1
330
9E
100
AcDbEntity
  8
_U+30EC_U+30A4_U+30E4_U+30FC 1
370
     0
100
AcDbVertex
100
AcDb2dVertex
 10
93.50230303652026
 20
-119.7930324678816
 30
0.0
  0
VERTEX
  5
A2
330
9E
100
AcDbEntity
  8
_U+30EC_U+30A4_U+30E4_U+30FC 1
370
     0
100
AcDbVertex
100
AcDb2dVertex
 10
93.50230303652026
 20
-119.9981879040282
 30
0.0
  0
VERTEX
  5
A3
330
9E
100
AcDbEntity
  8
_U+30EC_U+30A4_U+30E4_U+30FC 1
370
     0
100
AcDbVertex
100
AcDb2dVertex
 10
92.32408038056482
 20
-119.9981879040282
 30
0.0
  0
SEQEND
  5
A4
330
9E
100
AcDbEntity
  8
_U+30EC_U+30A4_U+30E4_U+30FC 1
370
     0
  0
HATCH
  5
A5
330
59
100
AcDbEntity
  8
_U+30EC_U+30A4_U+30E4_U+30FC 1
 62
   179
420
  2234388
100
AcDbHatch
 10
0.0
 20
0.0
 30
0.0
210
0.0
220
0.0
230
1.0
  2
SOLID
 70
     1
 71
     0
 91
        2
 92
        1
 93
        4
 72
     1
 10
92.32408038056482
 20
-119.5644503824353
 11
92.32408038056482
 21
-119.3592949462887
 72
     1
 10
92.32408038056482
 20
-119.3592949462887
 11
93.50230303652026
 21
-119.3592949462887
 72
     1
 10
93.50230303652026
 20
-119.3592949462887
 11
93.50230303652026
 21
-119.5644503824353
 72
     1
 10
93.50230303652026
 20
-119.5644503824353
 11
92.32408038056482
 21
-119.5644503824353
 97
        0
 92
        1
 93
        4
 72
     1
 10
92.32408038056482
 20
-119.9981879040282
 11
92.32408038056482
 21
-119.7930324678816
 72
     1
 10
92.32408038056482
 20
-119.7930324678816
 11
93.50230303652026
 21
-119.7930324678816
 72
     1
 10
93.50230303652026
 20
-119.7930324678816
 11
93.50230303652026
 21
-119.9981879040282
 72
     1
 10
93.50230303652026
 20
-119.9981879040282
 11
92.32408038056482
 21
-119.9981879040282
 97
        0
 75
     2
 76
     1
 98
        0
  0
SPLINE
  5
A6
330
59
100
AcDbEntity
  8
_U+30EC_U+30A4_U+30E4_U+30FC 1
370
     0
100
AcDbSpline
210
0.0
220
0.0
230
1.0
 70
    11
 71
     3
 72
    26
 73
    22
 74
     0
 42
0.0000000001
 43
0.0000000001
 12
1.0
 22
0.0
 32
0.0
 13
1.0
 23
0.0
 33
0.0
 40
0.0
 40
0.0
 40
0.0
 40
0.0
 40
1.0
 40
1.0
 40
1.0
 40
2.0
 40
2.0
 40
2.0
 40
3.0
 40
3.0
 40
3.0
 40
4.0
 40
4.0
 40
4.0
 40
5.0
 40
5.0
 40
5.0
 40
6.0
 40
6.0
 40
6.0
 40
7.0
 40
7.0
 40
7.0
 40
7.0
 10
94.13930119174296
 20
-120.4508734507901
 30
0.0
 10
94.13930119174296
 20
-120.4508734507901
 30
0.0
 10
94.13930119174296
 20
-119.3465480929932
 30
0.0
 10
94.13930119174296
 20
-119.3465480929932
 30
0.0
 10
94.13930119174296
 20
-119.3465480929932
 30
0.0
 10
93.80926104425602
 20
-119.3465480929932
 30
0.0
 10
93.80926104425602
 20
-119.3465480929932
 30
0.0
 10
93.80926104425602
 20
-119.3465480929932
 30
0.0
 10
93.80926104425602
 20
-119.1984089871275
 30
0.0
 10
93.80926104425602
 20
-119.1984089871275
 30
0.0
 10
94.1413682490341
 20
-119.1837673313152
 30
0.0
 10
94.18787703808498
 20
-119.0208143148629
 30
0.0
 10
94.21750485925813
 20
-118.9066093995268
 30
0.0
 10
94.21750485925813
 20
-118.9066093995268
 30
0.0
 10
94.36357690783272
 20
-118.9066093995268
 30
0.0
 10
94.36357690783272
 20
-118.9066093995268
 30
0.0
 10
94.36357690783272
 20
-118.9066093995268
 30
0.0
 10
94.36357690783272
 20
-120.4508734507901
 30
0.0
 10
94.36357690783272
 20
-120.4508734507901
 30
0.0
 10
94.36357690783272
 20
-120.4508734507901
 30
0.0
 10
94.13930119174296
 20
-120.4508734507901
 30
0.0
 10
94.13930119174296
 20
-120.4508734507901
 30
0.0
  0
HATCH
  5
A7
330
59
100
AcDbEntity
  8
_U+30EC_U+30A4_U+30E4_U+30FC 1
 62
   179
420
  2234388
100
AcDbHatch
 10
0.0
 20
0.0
 30
0.0
210
0.0
220
0.0
230
1.0
  2
SOLID
 70
     1
 71
     0
 91
        1
 92
        1
 93
        1
 72
     4
 94
        3
 73
     0
 74
     1
 95
       26
 96
       22
 40
0.0
 40
0.0
 40
0.0
 40
0.0
 40
1.0
 40
1.0
 40
1.0
 40
2.0
 40
2.0
 40
2.0
 40
3.0
 40
3.0
 40
3.0
 40
4.0
 40
4.0
 40
4.0
 40
5.0
 40
5.0
 40
5.0
 40
6.0
 40
6.0
 40
6.0
 40
7.0
 40
7.0
 40
7.0
 40
7.0
 10
94.13930119174296
 20
-120.4508734507901
 10
94.13930119174296
 20
-120.4508734507901
 10
94.13930119174296
 20
-119.3465480929932
 10
94.13930119174296
 20
-119.3465480929932
 10
94.13930119174296
 20
-119.3465480929932
 10
93.80926104425602
 20
-119.3465480929932
 10
93.80926104425602
 20
-119.3465480929932
 10
93.80926104425602
 20
-119.3465480929932
 10
93.80926104425602
 20
-119.1984089871275
 10
93.80926104425602
 20
-119.1984089871275
 10
94.1413682490341
 20
-119.1837673313152
 10
94.18787703808498
 20
-119.0208143148629
 10
94.21750485925813
 20
-118.9066093995268
 10
94.21750485925813
 20
-118.9066093995268
 10
94.36357690783272
 20
-118.9066093995268
 10
94.36357690783272
 20
-118.9066093995268
 10
94.36357690783272
 20
-118.9066093995268
 10
94.36357690783272
 20
-120.4508734507901
 10
94.36357690783272
 20
-120.4508734507901
 10
94.36357690783272
 20
-120.4508734507901
 10
94.13930119174296
 20
-120.4508734507901
 10
94.13930119174296
 20
-120.4508734507901
 97
        0
 97
        0
 75
     2
 76
     1
 98
        0
  0
POLYLINE
  5
A8
330
59
100
AcDbEntity
  8
_U+30EC_U+30A4_U+30E4_U+30FC 1
370
     0
100
AcDb2dPolyline
 66
     1
 10
0.0
 20
0.0
 30
0.0
  0
VERTEX
  5
A9
330
A8
100
AcDbEntity
  8
_U+30EC_U+30A4_U+30E4_U+30FC 1
370
     0
100
AcDbVertex
100
AcDb2dVertex
 10
94.80627167768732
 20
-120.4508734507901
 30
0.0
  0
VERTEX
  5
AA
330
A8
100
AcDbEntity
  8
_U+30EC_U+30A4_U+30E4_U+30FC 1
370
     0
100
AcDbVertex
100
AcDb2dVertex
 10
94.80627167768732
 20
-120.1992092255926
 30
0.0
  0
VERTEX
  5
AB
330
A8
100
AcDbEntity
  8
_U+30EC_U+30A4_U+30E4_U+30FC 1
370
     0
100
AcDbVertex
100
AcDb2dVertex
 10
95.05810815765909
 20
-120.1992092255926
 30
0.0
  0
VERTEX
  5
AC
330
A8
100
AcDbEntity
  8
_U+30EC_U+30A4_U+30E4_U+30FC 1
370
     0
100
AcDbVertex
100
AcDb2dVertex
 10
95.05810815765909
 20
-120.4508734507901
 30
0.0
  0
VERTEX
  5
AD
330
A8
100
AcDbEntity
  8
_U+30EC_U+30A4_U+30E4_U+30FC 1
370
     0
100
AcDbVertex
100
AcDb2dVertex
 10
94.80627167768732
 20
-120.4508734507901
 30
0.0
  0
SEQEND
  5
AE
330
A8
100
AcDbEntity
  8
_U+30EC_U+30A4_U+30E4_U+30FC 1
370
     0
  0
HATCH
  5
AF
330
59
100
AcDbEntity
  8
_U+30EC_U+30A4_U+30E4_U+30FC 1
 62
   179
420
  2234388
100
AcDbHatch
 10
0.0
 20
0.0
 30
0.0
210
0.0
220
0.0
230
1.0
  2
SOLID
 70
     1
 71
     0
 91
        1
 92
        1
 93
        4
 72
     1
 10
94.80627167768732
 20
-120.4508734507901
 11
94.80627167768732
 21
-120.1992092255926
 72
     1
 10
94.80627167768732
 20
-120.1992092255926
 11
95.05810815765909
 21
-120.1992092255926
 72
     1
 10
95.05810815765909
 20
-120.1992092255926
 11
95.05810815765909
 21
-120.4508734507901
 72
     1
 10
95.05810815765909
 20
-120.4508734507901
 11
94.80627167768732
 21
-120.4508734507901
 97
        0
 75
     2
 76
     1
 98
        0
  0
SPLINE
  5
B0
330
59
100
AcDbEntity
  8
_U+30EC_U+30A4_U+30E4_U+30FC 1
370
     0
100
AcDbSpline
210
0.0
220
0.0
230
1.0
 70
    11
 71
     3
 72
    29
 73
    25
 74
     0
 42
0.0000000001
 43
0.0000000001
 12
1.0
 22
0.0
 32
0.0
 13
1.0
 23
0.0
 33
0.0
 40
0.0
 40
0.0
 40
0.0
 40
0.0
 40
1.0
 40
1.0
 40
1.0
 40
2.0
 40
2.0
 40
2.0
 40
3.0
 40
3.0
 40
3.0
 40
4.0
 40
4.0
 40
4.0
 40
5.0
 40
5.0
 40
5.0
 40
6.0
 40
6.0
 40
6.0
 40
7.0
 40
7.0
 40
7.0
 40
8.0
 40
8.0
 40
8.0
 40
8.0
 10
96.34967445507925
 20
-120.2731065237512
 30
0.0
 10
96.24149845684241
 20
-120.4825683292544
 30
0.0
 10
96.06821015393434
 20
-120.5016886091975
 30
0.0
 10
95.9517659265329
 20
-120.5016886091975
 30
0.0
 10
95.79087996737172
 20
-120.5016886091975
 30
0.0
 10
95.64928654292797
 20
-120.4551798201466
 30
0.0
 10
95.55420190753506
 20
-120.2731065237512
 30
0.0
 10
95.45050453342904
 20
-120.0786308836088
 30
0.0
 10
95.43121199871165
 20
-119.8416083142236
 30
0.0
 10
95.43121199871165
 20
-119.6786552977713
 30
0.0
 10
95.43121199871165
 20
-119.5348225612621
 30
0.0
 10
95.4484374761379
 20
-119.2831583360646
 30
0.0
 10
95.55420190753506
 20
-119.0842040717915
 30
0.0
 10
95.66203339622338
 20
-118.881115692936
 30
0.0
 10
95.82291935538456
 20
-118.8578612984105
 30
0.0
 10
95.9517659265329
 20
-118.8578612984105
 30
0.0
 10
96.11058482840292
 20
-118.8578612984105
 30
0.0
 10
96.25424531013783
 20
-118.9023030301703
 30
0.0
 10
96.34967445507925
 20
-119.0842040717915
 30
0.0
 10
96.44889320505445
 20
-119.2767849094169
 30
0.0
 10
96.47231985435414
 20
-119.505194740089
 30
0.0
 10
96.47231985435414
 20
-119.6786552977713
 30
0.0
 10
96.47231985435414
 20
-119.8500487981625
 30
0.0
 10
96.4509602623456
 20
-120.0806979409
 30
0.0
 10
96.34967445507925
 20
-120.2731065237512
 30
0.0
  0
SPLINE
  5
B1
330
59
100
AcDbEntity
  8
_U+30EC_U+30A4_U+30E4_U+30FC 1
370
     0
100
AcDbSpline
210
0.0
220
0.0
230
1.0
 70
    11
 71
     3
 72
    17
 73
    13
 74
     0
 42
0.0000000001
 43
0.0000000001
 12
1.0
 22
0.0
 32
0.0
 13
1.0
 23
0.0
 33
0.0
 40
0.0
 40
0.0
 40
0.0
 40
0.0
 40
1.0
 40
1.0
 40
1.0
 40
2.0
 40
2.0
 40
2.0
 40
3.0
 40
3.0
 40
3.0
 40
4.0
 40
4.0
 40
4.0
 40
4.0
 10
95.9517659265329
 20
-119.050442136036
 30
0.0
 10
95.70199650385229
 20
-119.050442136036
 30
0.0
 10
95.65548771480141
 20
-119.3338012396978
 30
0.0
 10
95.65548771480141
 20
-119.6786552977713
 30
0.0
 10
95.65548771480141
 20
-119.9981879040282
 30
0.0
 10
95.69166121739653
 20
-120.3070407142809
 30
0.0
 10
95.9517659265329
 20
-120.3070407142809
 30
0.0
 10
96.19946829192236
 20
-120.3070407142809
 30
0.0
 10
96.24804413826438
 20
-120.025576413136
 30
0.0
 10
96.24804413826438
 20
-119.6786552977713
 30
0.0
 10
96.24804413826438
 20
-119.3592949462887
 30
0.0
 10
96.20980357837811
 20
-119.050442136036
 30
0.0
 10
95.9517659265329
 20
-119.050442136036
 30
0.0
  0
HATCH
  5
B2
330
59
100
AcDbEntity
  8
_U+30EC_U+30A4_U+30E4_U+30FC 1
 62
   179
420
  2234388
100
AcDbHatch
 10
0.0
 20
0.0
 30
0.0
210
0.0
220
0.0
230
1.0
  2
SOLID
 70
     1
 71
     0
 91
        2
 92
        1
 93
        1
 72
     4
 94
        3
 73
     0
 74
     1
 95
       29
 96
       25
 40
0.0
 40
0.0
 40
0.0
 40
0.0
 40
1.0
 40
1.0
 40
1.0
 40
2.0
 40
2.0
 40
2.0
 40
3.0
 40
3.0
 40
3.0
 40
4.0
 40
4.0
 40
4.0
 40
5.0
 40
5.0
 40
5.0
 40
6.0
 40
6.0
 40
6.0
 40
7.0
 40
7.0
 40
7.0
 40
8.0
 40
8.0
 40
8.0
 40
8.0
 10
96.34967445507925
 20
-120.2731065237512
 10
96.24149845684241
 20
-120.4825683292544
 10
96.06821015393434
 20
-120.5016886091975
 10
95.9517659265329
 20
-120.5016886091975
 10
95.79087996737172
 20
-120.5016886091975
 10
95.64928654292797
 20
-120.4551798201466
 10
95.55420190753506
 20
-120.2731065237512
 10
95.45050453342904
 20
-120.0786308836088
 10
95.43121199871165
 20
-119.8416083142236
 10
95.43121199871165
 20
-119.6786552977713
 10
95.43121199871165
 20
-119.5348225612621
 10
95.4484374761379
 20
-119.2831583360646
 10
95.55420190753506
 20
-119.0842040717915
 10
95.66203339622338
 20
-118.881115692936
 10
95.82291935538456
 20
-118.8578612984105
 10
95.9517659265329
 20
-118.8578612984105
 10
96.11058482840292
 20
-118.8578612984105
 10
96.25424531013783
 20
-118.9023030301703
 10
96.34967445507925
 20
-119.0842040717915
 10
96.44889320505445
 20
-119.2767849094169
 10
96.47231985435414
 20
-119.505194740089
 10
96.47231985435414
 20
-119.6786552977713
 10
96.47231985435414
 20
-119.8500487981625
 10
96.4509602623456
 20
-120.0806979409
 10
96.34967445507925
 20
-120.2731065237512
 97
        0
 97
        0
 92
        1
 93
        1
 72
     4
 94
        3
 73
     0
 74
     1
 95
       17
 96
       13
 40
0.0
 40
0.0
 40
0.0
 40
0.0
 40
1.0
 40
1.0
 40
1.0
 40
2.0
 40
2.0
 40
2.0
 40
3.0
 40
3.0
 40
3.0
 40
4.0
 40
4.0
 40
4.0
 40
4.0
 10
95.9517659265329
 20
-119.050442136036
 10
95.70199650385229
 20
-119.050442136036
 10
95.65548771480141
 20
-119.3338012396978
 10
95.65548771480141
 20
-119.6786552977713
 10
95.65548771480141
 20
-119.9981879040282
 10
95.69166121739653
 20
-120.3070407142809
 10
95.9517659265329
 20
-120.3070407142809
 10
96.19946829192236
 20
-120.3070407142809
 10
96.24804413826438
 20
-120.025576413136
 10
96.24804413826438
 20
-119.6786552977713
 10
96.24804413826438
 20
-119.3592949462887
 10
96.20980357837811
 20
-119.050442136036
 10
95.9517659265329
 20
-119.050442136036
 97
        0
 97
        0
 75
     2
 76
     1
 98
        0
  0
ENDBLK
  5
5C
330
59
100
AcDbEntity
  8
0
100
AcDbBlockEnd
  0
BLOCK
  5
B5
330
B3
100
AcDbEntity
  8
0
100
AcDbBlockBegin
  2
block 4
 70
     0
 10
0.0
 20
0.0
 30
0.0
  3
block 4
  1

  0
SPLINE
  5
B7
330
B3
100
AcDbEntity
  8
_U+30EC_U+30A4_U+30E4_U+30FC 1
370
     0
100
AcDbSpline
210
0.0
220
0.0
230
1.0
 70
    11
 71
     3
 72
    44
 73
    40
 74
     0
 42
0.0000000001
 43
0.0000000001
 12
1.0
 22
0.0
 32
0.0
 13
1.0
 23
0.0
 33
0.0
 40
0.0
 40
0.0
 40
0.0
 40
0.0
 40
1.0
 40
1.0
 40
1.0
 40
2.0
 40
2.0
 40
2.0
 40
3.0
 40
3.0
 40
3.0
 40
4.0
 40
4.0
 40
4.0
 40
5.0
 40
5.0
 40
5.0
 40
6.0
 40
6.0
 40
6.0
 40
7.0
 40
7.0
 40
7.0
 40
8.0
 40
8.0
 40
8.0
 40
9.0
 40
9.0
 40
9.0
 40
10.0
 40
10.0
 40
10.0
 40
11.0
 40
11.0
 40
11.0
 40
12.0
 40
12.0
 40
12.0
 40
13.0
 40
13.0
 40
13.0
 40
13.0
 10
104.4156765146947
 20
-127.2930053392705
 30
0.0
 10
104.1600504296892
 20
-127.3779269429819
 30
0.0
 10
104.0491183550641
 20
-127.4203016174505
 30
0.0
 10
103.9588568533506
 20
-127.5424302524026
 30
0.0
 10
103.9588568533506
 20
-127.5424302524026
 30
0.0
 10
104.7005859113249
 20
-127.7791083122393
 30
0.0
 10
104.7005859113249
 20
-127.7791083122393
 30
0.0
 10
104.7005859113249
 20
-127.7791083122393
 30
0.0
 10
104.6382296830418
 20
-127.9744452262529
 30
0.0
 10
104.6382296830418
 20
-127.9744452262529
 30
0.0
 10
104.6382296830418
 20
-127.9744452262529
 30
0.0
 10
103.6587890365853
 20
-127.6619750657408
 30
0.0
 10
103.6587890365853
 20
-127.6619750657408
 30
0.0
 10
103.7979708941894
 20
-127.3309013896083
 30
0.0
 10
103.8840982813206
 20
-127.2764688809413
 30
0.0
 10
104.3416069617618
 20
-127.1093817499067
 30
0.0
 10
104.6458088931094
 20
-126.9977606561846
 30
0.0
 10
104.7288356943039
 20
-126.9531466696506
 30
0.0
 10
104.7705213496754
 20
-126.8222330412111
 30
0.0
 10
104.8066948522706
 20
-126.7092339092949
 30
0.0
 10
104.7777560501945
 20
-126.5624728416233
 30
0.0
 10
104.5903428557969
 20
-126.5027004349542
 30
0.0
 10
104.3422959808589
 20
-126.4234632387934
 30
0.0
 10
104.2644368228922
 20
-126.6406765091384
 30
0.0
 10
104.2248182248119
 20
-126.7502305455694
 30
0.0
 10
104.2248182248119
 20
-126.7502305455694
 30
0.0
 10
104.0112223047264
 20
-126.6821899097357
 30
0.0
 10
104.0112223047264
 20
-126.6821899097357
 30
0.0
 10
104.0580756033258
 20
-126.5636786250431
 30
0.0
 10
104.102172825537
 20
-126.4603257604856
 30
0.0
 10
104.2148274479046
 20
-126.3716145517404
 30
0.0
 10
104.3684787065468
 20
-126.251897483628
 30
0.0
 10
104.5565809200414
 20
-126.2763576615733
 30
0.0
 10
104.6671684851179
 20
-126.3116698902971
 30
0.0
 10
104.9310627992881
 20
-126.3959024749115
 30
0.0
 10
105.0726562237318
 20
-126.6343030824907
 30
0.0
 10
104.9896294225373
 20
-126.8942355368528
 30
0.0
 10
104.9203830032838
 20
-127.1117933167464
 30
0.0
 10
104.7791340883886
 20
-127.1713934686412
 30
0.0
 10
104.4156765146947
 20
-127.2930053392705
 30
0.0
  0
HATCH
  5
B8
330
B3
100
AcDbEntity
  8
_U+30EC_U+30A4_U+30E4_U+30FC 1
 62
   179
420
  2234388
100
AcDbHatch
 10
0.0
 20
0.0
 30
0.0
210
0.0
220
0.0
230
1.0
  2
SOLID
 70
     1
 71
     0
 91
        1
 92
        1
 93
        1
 72
     4
 94
        3
 73
     0
 74
     1
 95
       44
 96
       40
 40
0.0
 40
0.0
 40
0.0
 40
0.0
 40
1.0
 40
1.0
 40
1.0
 40
2.0
 40
2.0
 40
2.0
 40
3.0
 40
3.0
 40
3.0
 40
4.0
 40
4.0
 40
4.0
 40
5.0
 40
5.0
 40
5.0
 40
6.0
 40
6.0
 40
6.0
 40
7.0
 40
7.0
 40
7.0
 40
8.0
 40
8.0
 40
8.0
 40
9.0
 40
9.0
 40
9.0
 40
10.0
 40
10.0
 40
10.0
 40
11.0
 40
11.0
 40
11.0
 40
12.0
 40
12.0
 40
12.0
 40
13.0
 40
13.0
 40
13.0
 40
13.0
 10
104.4156765146947
 20
-127.2930053392705
 10
104.1600504296892
 20
-127.3779269429819
 10
104.0491183550641
 20
-127.4203016174505
 10
103.9588568533506
 20
-127.5424302524026
 10
103.9588568533506
 20
-127.5424302524026
 10
104.7005859113249
 20
-127.7791083122393
 10
104.7005859113249
 20
-127.7791083122393
 10
104.7005859113249
 20
-127.7791083122393
 10
104.6382296830418
 20
-127.9744452262529
 10
104.6382296830418
 20
-127.9744452262529
 10
104.6382296830418
 20
-127.9744452262529
 10
103.6587890365853
 20
-127.6619750657408
 10
103.6587890365853
 20
-127.6619750657408
 10
103.7979708941894
 20
-127.3309013896083
 10
103.8840982813206
 20
-127.2764688809413
 10
104.3416069617618
 20
-127.1093817499067
 10
104.6458088931094
 20
-126.9977606561846
 10
104.7288356943039
 20
-126.9531466696506
 10
104.7705213496754
 20
-126.8222330412111
 10
104.8066948522706
 20
-126.7092339092949
 10
104.7777560501945
 20
-126.5624728416233
 10
104.5903428557969
 20
-126.5027004349542
 10
104.3422959808589
 20
-126.4234632387934
 10
104.2644368228922
 20
-126.6406765091384
 10
104.2248182248119
 20
-126.7502305455694
 10
104.2248182248119
 20
-126.7502305455694
 10
104.0112223047264
 20
-126.6821899097357
 10
104.0112223047264
 20
-126.6821899097357
 10
104.0580756033258
 20
-126.5636786250431
 10
104.102172825537
 20
-126.4603257604856
 10
104.2148274479046
 20
-126.3716145517404
 10
104.3684787065468
 20
-126.251897483628
 10
104.5565809200414
 20
-126.2763576615733
 10
104.6671684851179
 20
-126.3116698902971
 10
104.9310627992881
 20
-126.3959024749115
 10
105.0726562237318
 20
-126.6343030824907
 10
104.9896294225373
 20
-126.8942355368528
 10
104.9203830032838
 20
-127.1117933167464
 10
104.7791340883886
 20
-127.1713934686412
 10
104.4156765146947
 20
-127.2930053392705
 97
        0
 97
        0
 75
     2
 76
     1
 98
        0
  0
SPLINE
  5
B9
330
B3
100
AcDbEntity
  8
_U+30EC_U+30A4_U+30E4_U+30FC 1
370
     0
100
AcDbSpline
210
0.0
220
0.0
230
1.0
 70
    11
 71
     3
 72
    53
 73
    49
 74
     0
 42
0.0000000001
 43
0.0000000001
 12
1.0
 22
0.0
 32
0.0
 13
1.0
 23
0.0
 33
0.0
 40
0.0
 40
0.0
 40
0.0
 40
0.0
 40
1.0
 40
1.0
 40
1.0
 40
2.0
 40
2.0
 40
2.0
 40
3.0
 40
3.0
 40
3.0
 40
4.0
 40
4.0
 40
4.0
 40
5.0
 40
5.0
 40
5.0
 40
6.0
 40
6.0
 40
6.0
 40
7.0
 40
7.0
 40
7.0
 40
8.0
 40
8.0
 40
8.0
 40
9.0
 40
9.0
 40
9.0
 40
10.0
 40
10.0
 40
10.0
 40
11.0
 40
11.0
 40
11.0
 40
12.0
 40
12.0
 40
12.0
 40
13.0
 40
13.0
 40
13.0
 40
14.0
 40
14.0
 40
14.0
 40
15.0
 40
15.0
 40
15.0
 40
16.0
 40
16.0
 40
16.0
 40
16.0
 10
105.2380208070238
 20
-128.2193915152542
 30
0.0
 10
105.1636067445424
 20
-128.195620356406
 30
0.0
 10
105.0719672046348
 20
-128.148422548258
 30
0.0
 10
104.9944525562167
 20
-128.0571275178989
 30
0.0
 10
104.8628499086801
 20
-127.8995143994487
 30
0.0
 10
104.8824869529461
 20
-127.7680840066865
 30
0.0
 10
104.8969563539841
 20
-127.6597357536753
 30
0.0
 10
104.8969563539841
 20
-127.6597357536753
 30
0.0
 10
105.108829726327
 20
-127.7272596251862
 30
0.0
 10
105.108829726327
 20
-127.7272596251862
 30
0.0
 10
105.1005614971624
 20
-127.9331040804299
 30
0.0
 10
105.212527100433
 20
-128.000111187618
 30
0.0
 10
105.3014105639524
 20
-128.0283609705971
 30
0.0
 10
105.4343912496831
 20
-128.0709078998399
 30
0.0
 10
105.6094021003338
 20
-128.0223320534979
 30
0.0
 10
105.6803710673299
 20
-127.8006401590221
 30
0.0
 10
105.757885715748
 20
-127.5568996534406
 30
0.0
 10
105.6076795525911
 20
-127.4358045471341
 30
0.0
 10
105.4929578729323
 20
-127.3991142802162
 30
0.0
 10
105.4626410326621
 20
-127.3894680128575
 30
0.0
 10
105.3279377991889
 20
-127.3464043192919
 30
0.0
 10
105.2039143617199
 20
-127.4421779737818
 30
0.0
 10
105.2039143617199
 20
-127.4421779737818
 30
0.0
 10
105.0423393834616
 20
-127.3708644972372
 30
0.0
 10
105.0423393834616
 20
-127.3708644972372
 30
0.0
 10
105.0423393834616
 20
-127.3708644972372
 30
0.0
 10
105.4147542054172
 20
-126.6012301658323
 30
0.0
 10
105.4147542054172
 20
-126.6012301658323
 30
0.0
 10
105.4147542054172
 20
-126.6012301658323
 30
0.0
 10
106.1564832633914
 20
-126.837908225669
 30
0.0
 10
106.1564832633914
 20
-126.837908225669
 30
0.0
 10
106.1564832633914
 20
-126.837908225669
 30
0.0
 10
106.0972276210451
 20
-127.0234266175497
 30
0.0
 10
106.0972276210451
 20
-127.0234266175497
 30
0.0
 10
106.0972276210451
 20
-127.0234266175497
 30
0.0
 10
105.5105278599071
 20
-126.8361856779264
 30
0.0
 10
105.5105278599071
 20
-126.8361856779264
 30
0.0
 10
105.5105278599071
 20
-126.8361856779264
 30
0.0
 10
105.3193250604757
 20
-127.2192802958862
 30
0.0
 10
105.3193250604757
 20
-127.2192802958862
 30
0.0
 10
105.3882269701807
 20
-127.2058444234937
 30
0.0
 10
105.4788329814428
 20
-127.1924085511012
 30
0.0
 10
105.591832113359
 20
-127.2285820536963
 30
0.0
 10
105.8336778164235
 20
-127.3057521925659
 30
0.0
 10
106.0031765142978
 20
-127.555177105698
 30
0.0
 10
105.9077473693564
 20
-127.8533501199464
 30
0.0
 10
105.8112846957694
 20
-128.1556572487771
 30
0.0
 10
105.5263752991392
 20
-128.3113755647103
 30
0.0
 10
105.2380208070238
 20
-128.2193915152542
 30
0.0
  0
HATCH
  5
BA
330
B3
100
AcDbEntity
  8
_U+30EC_U+30A4_U+30E4_U+30FC 1
 62
   179
420
  2234388
100
AcDbHatch
 10
0.0
 20
0.0
 30
0.0
210
0.0
220
0.0
230
1.0
  2
SOLID
 70
     1
 71
     0
 91
        1
 92
        1
 93
        1
 72
     4
 94
        3
 73
     0
 74
     1
 95
       53
 96
       49
 40
0.0
 40
0.0
 40
0.0
 40
0.0
 40
1.0
 40
1.0
 40
1.0
 40
2.0
 40
2.0
 40
2.0
 40
3.0
 40
3.0
 40
3.0
 40
4.0
 40
4.0
 40
4.0
 40
5.0
 40
5.0
 40
5.0
 40
6.0
 40
6.0
 40
6.0
 40
7.0
 40
7.0
 40
7.0
 40
8.0
 40
8.0
 40
8.0
 40
9.0
 40
9.0
 40
9.0
 40
10.0
 40
10.0
 40
10.0
 40
11.0
 40
11.0
 40
11.0
 40
12.0
 40
12.0
 40
12.0
 40
13.0
 40
13.0
 40
13.0
 40
14.0
 40
14.0
 40
14.0
 40
15.0
 40
15.0
 40
15.0
 40
16.0
 40
16.0
 40
16.0
 40
16.0
 10
105.2380208070238
 20
-128.2193915152542
 10
105.1636067445424
 20
-128.195620356406
 10
105.0719672046348
 20
-128.148422548258
 10
104.9944525562167
 20
-128.0571275178989
 10
104.8628499086801
 20
-127.8995143994487
 10
104.8824869529461
 20
-127.7680840066865
 10
104.8969563539841
 20
-127.6597357536753
 10
104.8969563539841
 20
-127.6597357536753
 10
105.108829726327
 20
-127.7272596251862
 10
105.108829726327
 20
-127.7272596251862
 10
105.1005614971624
 20
-127.9331040804299
 10
105.212527100433
 20
-128.000111187618
 10
105.3014105639524
 20
-128.0283609705971
 10
105.4343912496831
 20
-128.0709078998399
 10
105.6094021003338
 20
-128.0223320534979
 10
105.6803710673299
 20
-127.8006401590221
 10
105.757885715748
 20
-127.5568996534406
 10
105.6076795525911
 20
-127.4358045471341
 10
105.4929578729323
 20
-127.3991142802162
 10
105.4626410326621
 20
-127.3894680128575
 10
105.3279377991889
 20
-127.3464043192919
 10
105.2039143617199
 20
-127.4421779737818
 10
105.2039143617199
 20
-127.4421779737818
 10
105.0423393834616
 20
-127.3708644972372
 10
105.0423393834616
 20
-127.3708644972372
 10
105.0423393834616
 20
-127.3708644972372
 10
105.4147542054172
 20
-126.6012301658323
 10
105.4147542054172
 20
-126.6012301658323
 10
105.4147542054172
 20
-126.6012301658323
 10
106.1564832633914
 20
-126.837908225669
 10
106.1564832633914
 20
-126.837908225669
 10
106.1564832633914
 20
-126.837908225669
 10
106.0972276210451
 20
-127.0234266175497
 10
106.0972276210451
 20
-127.0234266175497
 10
106.0972276210451
 20
-127.0234266175497
 10
105.5105278599071
 20
-126.8361856779264
 10
105.5105278599071
 20
-126.8361856779264
 10
105.5105278599071
 20
-126.8361856779264
 10
105.3193250604757
 20
-127.2192802958862
 10
105.3193250604757
 20
-127.2192802958862
 10
105.3882269701807
 20
-127.2058444234937
 10
105.4788329814428
 20
-127.1924085511012
 10
105.591832113359
 20
-127.2285820536963
 10
105.8336778164235
 20
-127.3057521925659
 10
106.0031765142978
 20
-127.555177105698
 10
105.9077473693564
 20
-127.8533501199464
 10
105.8112846957694
 20
-128.1556572487771
 10
105.5263752991392
 20
-128.3113755647103
 10
105.2380208070238
 20
-128.2193915152542
 97
        0
 97
        0
 75
     2
 76
     1
 98
        0
  0
ENDBLK
  5
B6
330
B3
100
AcDbEntity
  8
0
100
AcDbBlockEnd
  0
BLOCK
  5
CF
330
CD
100
AcDbEntity
  8
0
100
AcDbBlockBegin
  2
block 5
 70
     0
 10
0.0
 20
0.0
 30
0.0
  3
block 5
  1

  0
SPLINE
  5
D1
330
CD
100
AcDbEntity
  8
_U+30EC_U+30A4_U+30E4_U+30FC 1
370
     0
100
AcDbSpline
210
0.0
220
0.0
230
1.0
 70
    11
 71
     3
 72
    44
 73
    40
 74
     0
 42
0.0000000001
 43
0.0000000001
 12
1.0
 22
0.0
 32
0.0
 13
1.0
 23
0.0
 33
0.0
 40
0.0
 40
0.0
 40
0.0
 40
0.0
 40
1.0
 40
1.0
 40
1.0
 40
2.0
 40
2.0
 40
2.0
 40
3.0
 40
3.0
 40
3.0
 40
4.0
 40
4.0
 40
4.0
 40
5.0
 40
5.0
 40
5.0
 40
6.0
 40
6.0
 40
6.0
 40
7.0
 40
7.0
 40
7.0
 40
8.0
 40
8.0
 40
8.0
 40
9.0
 40
9.0
 40
9.0
 40
10.0
 40
10.0
 40
10.0
 40
11.0
 40
11.0
 40
11.0
 40
12.0
 40
12.0
 40
12.0
 40
13.0
 40
13.0
 40
13.0
 40
13.0
 10
75.35250649157854
 20
-128.0590223204158
 30
0.0
 10
75.19334308016
 20
-128.2765801003093
 30
0.0
 10
75.12719724684321
 20
-128.375454340736
 30
0.0
 10
75.124441170455
 20
-128.5273830516355
 30
0.0
 10
75.124441170455
 20
-128.5273830516355
 30
0.0
 10
75.86582571888077
 20
-128.2907049917989
 30
0.0
 10
75.86582571888077
 20
-128.2907049917989
 30
0.0
 10
75.86582571888077
 20
-128.2907049917989
 30
0.0
 10
75.92852645671232
 20
-128.4860419058125
 30
0.0
 10
75.92852645671232
 20
-128.4860419058125
 30
0.0
 10
75.92852645671232
 20
-128.4860419058125
 30
0.0
 10
74.94908581025578
 20
-128.7983398115504
 30
0.0
 10
74.94908581025578
 20
-128.7983398115504
 30
0.0
 10
74.87053763319209
 20
-128.4481458554748
 30
0.0
 10
74.90912270262689
 20
-128.3539224939532
 30
0.0
 10
75.18541936054393
 20
-127.9525688699216
 30
0.0
 10
75.36869844035921
 20
-127.685746224589
 30
0.0
 10
75.41038409573073
 20
-127.6009968756518
 30
0.0
 10
75.36869844035921
 20
-127.4700832472123
 30
0.0
 10
75.33252493776409
 20
-127.3570841152961
 30
0.0
 10
75.22434893952725
 20
-127.2542480150614
 30
0.0
 10
75.03693574512965
 20
-127.3140204217305
 30
0.0
 10
74.78888887019167
 20
-127.393085363117
 30
0.0
 10
74.85090058892617
 20
-127.6151217671414
 30
0.0
 10
74.88259546739046
 20
-127.7274318799605
 30
0.0
 10
74.88259546739046
 20
-127.7274318799605
 30
0.0
 10
74.66899954730498
 20
-127.7954725157942
 30
0.0
 10
74.66899954730498
 20
-127.7954725157942
 30
0.0
 10
74.63833819748625
 20
-127.671965842648
 30
0.0
 10
74.6142225290895
 20
-127.5620672966685
 30
0.0
 10
74.65487465581545
 20
-127.424607986807
 30
0.0
 10
74.7106852026765
 20
-127.238228321055
 30
0.0
 10
74.87777233371112
 20
-127.1491726027613
 30
0.0
 10
74.98870440833616
 20
-127.1138603740375
 30
0.0
 10
75.25259872250629
 20
-127.0294555346489
 30
0.0
 10
75.50615775022068
 20
-127.1419379022423
 30
0.0
 10
75.58884004186669
 20
-127.4016981018301
 30
0.0
 10
75.65843097066873
 20
-127.6197726460465
 30
0.0
 10
75.57781573631388
 20
-127.7494804910661
 30
0.0
 10
75.35250649157854
 20
-128.0590223204158
 30
0.0
  0
HATCH
  5
D2
330
CD
100
AcDbEntity
  8
_U+30EC_U+30A4_U+30E4_U+30FC 1
 62
   179
420
  2234388
100
AcDbHatch
 10
0.0
 20
0.0
 30
0.0
210
0.0
220
0.0
230
1.0
  2
SOLID
 70
     1
 71
     0
 91
        1
 92
        1
 93
        1
 72
     4
 94
        3
 73
     0
 74
     1
 95
       44
 96
       40
 40
0.0
 40
0.0
 40
0.0
 40
0.0
 40
1.0
 40
1.0
 40
1.0
 40
2.0
 40
2.0
 40
2.0
 40
3.0
 40
3.0
 40
3.0
 40
4.0
 40
4.0
 40
4.0
 40
5.0
 40
5.0
 40
5.0
 40
6.0
 40
6.0
 40
6.0
 40
7.0
 40
7.0
 40
7.0
 40
8.0
 40
8.0
 40
8.0
 40
9.0
 40
9.0
 40
9.0
 40
10.0
 40
10.0
 40
10.0
 40
11.0
 40
11.0
 40
11.0
 40
12.0
 40
12.0
 40
12.0
 40
13.0
 40
13.0
 40
13.0
 40
13.0
 10
75.35250649157854
 20
-128.0590223204158
 10
75.19334308016
 20
-128.2765801003093
 10
75.12719724684321
 20
-128.375454340736
 10
75.124441170455
 20
-128.5273830516355
 10
75.124441170455
 20
-128.5273830516355
 10
75.86582571888077
 20
-128.2907049917989
 10
75.86582571888077
 20
-128.2907049917989
 10
75.86582571888077
 20
-128.2907049917989
 10
75.92852645671232
 20
-128.4860419058125
 10
75.92852645671232
 20
-128.4860419058125
 10
75.92852645671232
 20
-128.4860419058125
 10
74.94908581025578
 20
-128.7983398115504
 10
74.94908581025578
 20
-128.7983398115504
 10
74.87053763319209
 20
-128.4481458554748
 10
74.90912270262689
 20
-128.3539224939532
 10
75.18541936054393
 20
-127.9525688699216
 10
75.36869844035921
 20
-127.685746224589
 10
75.41038409573073
 20
-127.6009968756518
 10
75.36869844035921
 20
-127.4700832472123
 10
75.33252493776409
 20
-127.3570841152961
 10
75.22434893952725
 20
-127.2542480150614
 10
75.03693574512965
 20
-127.3140204217305
 10
74.78888887019167
 20
-127.393085363117
 10
74.85090058892617
 20
-127.6151217671414
 10
74.88259546739046
 20
-127.7274318799605
 10
74.88259546739046
 20
-127.7274318799605
 10
74.66899954730498
 20
-127.7954725157942
 10
74.66899954730498
 20
-127.7954725157942
 10
74.63833819748625
 20
-127.671965842648
 10
74.6142225290895
 20
-127.5620672966685
 10
74.65487465581545
 20
-127.424607986807
 10
74.7106852026765
 20
-127.238228321055
 10
74.87777233371112
 20
-127.1491726027613
 10
74.98870440833616
 20
-127.1138603740375
 10
75.25259872250629
 20
-127.0294555346489
 10
75.50615775022068
 20
-127.1419379022423
 10
75.58884004186669
 20
-127.4016981018301
 10
75.65843097066873
 20
-127.6197726460465
 10
75.57781573631388
 20
-127.7494804910661
 10
75.35250649157854
 20
-128.0590223204158
 97
        0
 97
        0
 75
     2
 76
     1
 98
        0
  0
SPLINE
  5
D3
330
CD
100
AcDbEntity
  8
_U+30EC_U+30A4_U+30E4_U+30FC 1
370
     0
100
AcDbSpline
210
0.0
220
0.0
230
1.0
 70
    11
 71
     3
 72
    53
 73
    49
 74
     0
 42
0.0000000001
 43
0.0000000001
 12
1.0
 22
0.0
 32
0.0
 13
1.0
 23
0.0
 33
0.0
 40
0.0
 40
0.0
 40
0.0
 40
0.0
 40
1.0
 40
1.0
 40
1.0
 40
2.0
 40
2.0
 40
2.0
 40
3.0
 40
3.0
 40
3.0
 40
4.0
 40
4.0
 40
4.0
 40
5.0
 40
5.0
 40
5.0
 40
6.0
 40
6.0
 40
6.0
 40
7.0
 40
7.0
 40
7.0
 40
8.0
 40
8.0
 40
8.0
 40
9.0
 40
9.0
 40
9.0
 40
10.0
 40
10.0
 40
10.0
 40
11.0
 40
11.0
 40
11.0
 40
12.0
 40
12.0
 40
12.0
 40
13.0
 40
13.0
 40
13.0
 40
14.0
 40
14.0
 40
14.0
 40
15.0
 40
15.0
 40
15.0
 40
16.0
 40
16.0
 40
16.0
 40
16.0
 10
76.55897893051304
 20
-128.3379027999468
 30
0.0
 10
76.48456486803164
 20
-128.361673958795
 30
0.0
 10
76.38259004166825
 20
-128.3768323789301
 30
0.0
 10
76.26649032381532
 20
-128.3470323029827
 30
0.0
 10
76.06805282386493
 20
-128.295355870704
 30
0.0
 10
76.00776365287307
 20
-128.1766723312371
 30
0.0
 10
75.95712074923989
 20
-128.079520638553
 30
0.0
 10
75.95712074923989
 20
-128.079520638553
 30
0.0
 10
76.16864961203423
 20
-128.0119967670421
 30
0.0
 10
76.16864961203423
 20
-128.0119967670421
 30
0.0
 10
76.2813042344019
 20
-128.1847683056274
 30
0.0
 10
76.41152884374435
 20
-128.1744330191717
 30
0.0
 10
76.50006779771526
 20
-128.1460109814184
 30
0.0
 10
76.6330484834459
 20
-128.1036363069498
 30
0.0
 10
76.74777016310473
 20
-127.9625596468288
 30
0.0
 10
76.67714570565711
 20
-127.7410400071272
 30
0.0
 10
76.59963105723898
 20
-127.4971272467716
 30
0.0
 10
76.406705710065
 20
-127.4848971577989
 30
0.0
 10
76.29198403040617
 20
-127.5217596794911
 30
0.0
 10
76.26166719013598
 20
-127.5312336920755
 30
0.0
 10
76.12661944711418
 20
-127.5744696404154
 30
0.0
 10
76.08114418670888
 20
-127.7246758035723
 30
0.0
 10
76.08114418670888
 20
-127.7246758035723
 30
0.0
 10
75.90854490289787
 20
-127.7598157775219
 30
0.0
 10
75.90854490289787
 20
-127.7598157775219
 30
0.0
 10
75.90854490289787
 20
-127.7598157775219
 30
0.0
 10
75.76591794980853
 20
-126.9169731670555
 30
0.0
 10
75.76591794980853
 20
-126.9169731670555
 30
0.0
 10
75.76591794980853
 20
-126.9169731670555
 30
0.0
 10
76.50764700778281
 20
-126.6804673619931
 30
0.0
 10
76.50764700778281
 20
-126.6804673619931
 30
0.0
 10
76.50764700778281
 20
-126.6804673619931
 30
0.0
 10
76.56655814058058
 20
-126.8658134990995
 30
0.0
 10
76.56655814058058
 20
-126.8658134990995
 30
0.0
 10
76.56655814058058
 20
-126.8658134990995
 30
0.0
 10
75.98020288899106
 20
-127.0528821839486
 30
0.0
 10
75.98020288899106
 20
-127.0528821839486
 30
0.0
 10
75.98020288899106
 20
-127.0528821839486
 30
0.0
 10
76.04634872230785
 20
-127.4759399095373
 30
0.0
 10
76.04634872230785
 20
-127.4759399095373
 30
0.0
 10
76.09458005910136
 20
-127.4247802415813
 30
0.0
 10
76.16072589241816
 20
-127.361562739427
 30
0.0
 10
76.27372502433435
 20
-127.3255614916061
 30
0.0
 10
76.5155707273989
 20
-127.2483913527365
 30
0.0
 10
76.79806855718938
 20
-127.3536390198109
 30
0.0
 10
76.89315319258228
 20
-127.6519842888335
 30
0.0
 10
76.98961586616926
 20
-127.9544636724385
 30
0.0
 10
76.84698891307993
 20
-128.2459187504906
 30
0.0
 10
76.55897893051304
 20
-128.3379027999468
 30
0.0
  0
HATCH
  5
D4
330
CD
100
AcDbEntity
  8
_U+30EC_U+30A4_U+30E4_U+30FC 1
 62
   179
420
  2234388
100
AcDbHatch
 10
0.0
 20
0.0
 30
0.0
210
0.0
220
0.0
230
1.0
  2
SOLID
 70
     1
 71
     0
 91
        1
 92
        1
 93
        1
 72
     4
 94
        3
 73
     0
 74
     1
 95
       53
 96
       49
 40
0.0
 40
0.0
 40
0.0
 40
0.0
 40
1.0
 40
1.0
 40
1.0
 40
2.0
 40
2.0
 40
2.0
 40
3.0
 40
3.0
 40
3.0
 40
4.0
 40
4.0
 40
4.0
 40
5.0
 40
5.0
 40
5.0
 40
6.0
 40
6.0
 40
6.0
 40
7.0
 40
7.0
 40
7.0
 40
8.0
 40
8.0
 40
8.0
 40
9.0
 40
9.0
 40
9.0
 40
10.0
 40
10.0
 40
10.0
 40
11.0
 40
11.0
 40
11.0
 40
12.0
 40
12.0
 40
12.0
 40
13.0
 40
13.0
 40
13.0
 40
14.0
 40
14.0
 40
14.0
 40
15.0
 40
15.0
 40
15.0
 40
16.0
 40
16.0
 40
16.0
 40
16.0
 10
76.55897893051304
 20
-128.3379027999468
 10
76.48456486803164
 20
-128.361673958795
 10
76.38259004166825
 20
-128.3768323789301
 10
76.26649032381532
 20
-128.3470323029827
 10
76.06805282386493
 20
-128.295355870704
 10
76.00776365287307
 20
-128.1766723312371
 10
75.95712074923989
 20
-128.079520638553
 10
75.95712074923989
 20
-128.079520638553
 10
76.16864961203423
 20
-128.0119967670421
 10
76.16864961203423
 20
-128.0119967670421
 10
76.2813042344019
 20
-128.1847683056274
 10
76.41152884374435
 20
-128.1744330191717
 10
76.50006779771526
 20
-128.1460109814184
 10
76.6330484834459
 20
-128.1036363069498
 10
76.74777016310473
 20
-127.9625596468288
 10
76.67714570565711
 20
-127.7410400071272
 10
76.59963105723898
 20
-127.4971272467716
 10
76.406705710065
 20
-127.4848971577989
 10
76.29198403040617
 20
-127.5217596794911
 10
76.26166719013598
 20
-127.5312336920755
 10
76.12661944711418
 20
-127.5744696404154
 10
76.08114418670888
 20
-127.7246758035723
 10
76.08114418670888
 20
-127.7246758035723
 10
75.90854490289787
 20
-127.7598157775219
 10
75.90854490289787
 20
-127.7598157775219
 10
75.90854490289787
 20
-127.7598157775219
 10
75.76591794980853
 20
-126.9169731670555
 10
75.76591794980853
 20
-126.9169731670555
 10
75.76591794980853
 20
-126.9169731670555
 10
76.50764700778281
 20
-126.6804673619931
 10
76.50764700778281
 20
-126.6804673619931
 10
76.50764700778281
 20
-126.6804673619931
 10
76.56655814058058
 20
-126.8658134990995
 10
76.56655814058058
 20
-126.8658134990995
 10
76.56655814058058
 20
-126.8658134990995
 10
75.98020288899106
 20
-127.0528821839486
 10
75.98020288899106
 20
-127.0528821839486
 10
75.98020288899106
 20
-127.0528821839486
 10
76.04634872230785
 20
-127.4759399095373
 10
76.04634872230785
 20
-127.4759399095373
 10
76.09458005910136
 20
-127.4247802415813
 10
76.16072589241816
 20
-127.361562739427
 10
76.27372502433435
 20
-127.3255614916061
 10
76.5155707273989
 20
-127.2483913527365
 10
76.79806855718938
 20
-127.3536390198109
 10
76.89315319258228
 20
-127.6519842888335
 10
76.98961586616926
 20
-127.9544636724385
 10
76.84698891307993
 20
-128.2459187504906
 10
76.55897893051304
 20
-128.3379027999468
 97
        0
 97
        0
 75
     2
 76
     1
 98
        0
  0
ENDBLK
  5
D0
330
CD
100
AcDbEntity
  8
0
100
AcDbBlockEnd
  0
ENDSEC
  0
SECTION
  2
ENTITIES
  0
INSERT
  5
42
330
1F
100
AcDbEntity
  8
_U+30EC_U+30A4_U+30E4_U+30FC 1
100
AcDbBlockReference
  2
block 2
 10
0.0
 20
0.0
 30
0.0
  0
ENDSEC
  0
SECTION
  2
OBJECTS
  0
DICTIONARY
  5
C
330
0
100
AcDbDictionary
281
     1
  3
ACAD_GROUP
350
D
  3
ACAD_LAYOUT
350
1A
  3
ACAD_MATERIAL
350
3B
  3
ACAD_MLEADERSTYLE
350
E5
  3
ACAD_MLINESTYLE
350
17
  3
ACAD_PLOTSETTINGS
350
19
  3
ACAD_PLOTSTYLENAME
350
E
  3
ACAD_TABLESTYLE
350
E4
  3
ACAD_VISUALSTYLE
350
2A
  0
SUN
  5
3F
330
29
100
AcDbSun
 90
        1
290
     0
 63
     7
421
 16777215
 40
1.0
291
     1
 91
  2455826
 92
 54000000
292
     0
 70
     2
 71
   256
280
     1
  0
DICTIONARY
  5
D
102
{ACAD_REACTORS
330
C
102
}
330
C
100
AcDbDictionary
281
     1
  0
DICTIONARY
  5
1A
102
{ACAD_REACTORS
330
C
102
}
330
C
100
AcDbDictionary
281
     1
  3
Layout1
350
1E
  3
Layout2
350
26
  3
Model
350
22
  0
DICTIONARY
  5
3B
102
{ACAD_REACTORS
330
C
102
}
330
C
100
AcDbDictionary
281
     1
  3
ByBlock
350
3D
  3
ByLayer
350
3C
  3
Global
350
3E
  0
DICTIONARY
  5
E5
102
{ACAD_REACTORS
330
C
102
}
330
C
100
AcDbDictionary
281
     1
  0
DICTIONARY
  5
17
102
{ACAD_REACTORS
330
C
102
}
330
C
100
AcDbDictionary
281
     1
  3
Standard
350
18
  0
DICTIONARY
  5
19
102
{ACAD_REACTORS
330
C
102
}
330
C
100
AcDbDictionary
281
     1
  0
ACDBDICTIONARYWDFLT
  5
E
102
{ACAD_REACTORS
330
C
102
}
330
C
100
AcDbDictionary
281
     1
  3
Normal
350
F
100
AcDbDictionaryWithDefault
340
F
  0
DICTIONARY
  5
E4
102
{ACAD_REACTORS
330
C
102
}
330
C
100
AcDbDictionary
281
     1
  0
DICTIONARY
  5
2A
102
{ACAD_REACTORS
330
C
102
}
330
C
100
AcDbDictionary
281
     1
  3
2dWireframe
350
2F
  3
3D Hidden
350
31
  3
3dWireframe
350
30
  3
Basic
350
32
  3
Brighten
350
36
  3
ColorChange
350
3A
  3
Conceptual
350
34
  3
Dim
350
35
  3
Facepattern
350
39
  3
Flat
350
2B
  3
FlatWithEdges
350
2C
  3
Gouraud
350
2D
  3
GouraudWithEdges
350
2E
  3
Linepattern
350
38
  3
Realistic
350
33
  3
Thicken
350
37
  0
LAYOUT
  5
1E
102
{ACAD_REACTORS
330
1A
102
}
330
1A
100
AcDbPlotSettings
  1

  2
none_device
  4

  6

 40
0.0
 41
0.0
 42
0.0
 43
0.0
 44
0.0
 45
0.0
 46
0.0
 47
0.0
 48
0.0
 49
0.0
140
0.0
141
0.0
142
1.0
143
1.0
 70
   688
 72
     0
 73
     0
 74
     5
  7

 75
    16
 76
     0
 77
     2
 78
   300
147
1.0
148
0.0
149
0.0
100
AcDbLayout
  1
Layout1
 70
     1
 71
     1
 10
0.0
 20
0.0
 11
12.0
 21
9.0
 12
0.0
 22
0.0
 32
0.0
 14
1.000000000000000E+20
 24
1.000000000000000E+20
 34
1.000000000000000E+20
 15
-1.000000000000000E+20
 25
-1.000000000000000E+20
 35
-1.000000000000000E+20
146
0.0
 13
0.0
 23
0.0
 33
0.0
 16
1.0
 26
0.0
 36
0.0
 17
0.0
 27
1.0
 37
0.0
 76
     0
330
1B
  0
LAYOUT
  5
26
102
{ACAD_REACTORS
330
1A
102
}
330
1A
100
AcDbPlotSettings
  1

  2
none_device
  4

  6

 40
0.0
 41
0.0
 42
0.0
 43
0.0
 44
0.0
 45
0.0
 46
0.0
 47
0.0
 48
0.0
 49
0.0
140
0.0
141
0.0
142
1.0
143
1.0
 70
   688
 72
     0
 73
     0
 74
     5
  7

 75
    16
 76
     0
 77
     2
 78
   300
147
1.0
148
0.0
149
0.0
100
AcDbLayout
  1
Layout2
 70
     1
 71
     2
 10
0.0
 20
0.0
 11
0.0
 21
0.0
 12
0.0
 22
0.0
 32
0.0
 14
0.0
 24
0.0
 34
0.0
 15
0.0
 25
0.0
 35
0.0
146
0.0
 13
0.0
 23
0.0
 33
0.0
 16
1.0
 26
0.0
 36
0.0
 17
0.0
 27
1.0
 37
0.0
 76
     0
330
23
  0
LAYOUT
  5
22
102
{ACAD_REACTORS
330
1A
102
}
330
1A
100
AcDbPlotSettings
  1

  2
none_device
  4

  6

 40
0.0
 41
0.0
 42
0.0
 43
0.0
 44
0.0
 45
0.0
 46
0.0
 47
0.0
 48
0.0
 49
0.0
140
0.0
141
0.0
142
1.0
143
1.0
 70
  1712
 72
     0
 73
     0
 74
     0
  7

 75
     0
 76
     0
 77
     2
 78
   300
147
1.0
148
0.0
149
0.0
100
AcDbLayout
  1
Model
 70
     1
 71
     0
 10
0.0
 20
0.0
 11
12.0
 21
9.0
 12
0.0
 22
0.0
 32
0.0
 14
1.000000000000000E+20
 24
1.000000000000000E+20
 34
1.000000000000000E+20
 15
-1.000000000000000E+20
 25
-1.000000000000000E+20
 35
-1.000000000000000E+20
146
0.0
 13
0.0
 23
0.0
 33
0.0
 16
1.0
 26
0.0
 36
0.0
 17
0.0
 27
1.0
 37
0.0
 76
     0
330
1F
331
29
  0
MATERIAL
  5
3D
102
{ACAD_REACTORS
330
3B
102
}
330
3B
100
AcDbMaterial
  1
ByBlock
 72
     1
 94
      127
  0
MATERIAL
  5
3C
102
{ACAD_REACTORS
330
3B
102
}
330
3B
100
AcDbMaterial
  1
ByLayer
 72
     1
 94
      127
  0
MATERIAL
  5
3E
102
{ACAD_REACTORS
330
3B
102
}
330
3B
100
AcDbMaterial
  1
Global
 72
     1
 94
      127
  0
MLINESTYLE
  5
18
102
{ACAD_REACTORS
330
17
102
}
330
17
100
AcDbMlineStyle
  2
Standard
 70
     0
  3

 62
   256
 51
90.0
 52
90.0
 71
     2
 49
0.5
 62
   256
  6
BYLAYER
 49
-0.5
 62
   256
  6
BYLAYER
  0
ACDBPLACEHOLDER
  5
F
102
{ACAD_REACTORS
330
E
102
}
330
E
  0
VISUALSTYLE
  5
2F
102
{ACAD_REACTORS
330
2A
102
}
330
2A
100
AcDbVisualStyle
  2
2dWireframe
 70
     4
177
     2
291
     0
 71
     0
176
     1
 72
     2
176
     1
 73
     0
176
     1
 90
        0
176
     1
 40
-0.6
176
     1
 41
-30.0
176
     1
 62
     5
 63
     7
421
 16777215
176
     1
 74
     1
176
     1
 91
        4
176
     1
 64
     7
176
     1
 65
   257
176
     1
 75
     1
176
     1
175
     1
176
     1
 42
1.0
176
     1
 92
        0
176
     1
 66
   257
176
     1
 43
1.0
176
     1
 76
     1
176
     1
 77
     6
176
     1
 78
     2
176
     1
 67
     7
176
     1
 79
     5
176
     1
170
     0
176
     1
171
     0
176
     1
290
     0
176
     1
 93
        1
176
     1
 44
0.0
176
     1
173
     0
176
     1
  0
VISUALSTYLE
  5
31
102
{ACAD_REACTORS
330
2A
102
}
330
2A
100
AcDbVisualStyle
  2
3D Hidden
 70
     6
177
     2
291
     0
 71
     1
176
     1
 72
     2
176
     1
 73
     2
176
     1
 90
        0
176
     1
 40
-0.6
176
     1
 41
-30.0
176
     1
 62
     5
 63
     7
421
 16777215
176
     1
 74
     2
176
     1
 91
        2
176
     1
 64
     7
176
     1
 65
   257
176
     1
 75
     2
176
     1
175
     1
176
     1
 42
40.0
176
     1
 92
        0
176
     1
 66
   257
176
     1
 43
1.0
176
     1
 76
     1
176
     1
 77
     6
176
     1
 78
     2
176
     1
 67
     7
176
     1
 79
     3
176
     1
170
     0
176
     1
171
     0
176
     1
290
     0
176
     1
 93
        1
176
     1
 44
0.0
176
     1
173
     0
176
     1
  0
VISUALSTYLE
  5
30
102
{ACAD_REACTORS
330
2A
102
}
330
2A
100
AcDbVisualStyle
  2
3dWireframe
 70
     5
177
     2
291
     0
 71
     0
176
     1
 72
     2
176
     1
 73
     0
176
     1
 90
        0
176
     1
 40
-0.6
176
     1
 41
-30.0
176
     1
 62
     5
 63
     7
421
 16777215
176
     1
 74
     1
176
     1
 91
        4
176
     1
 64
     7
176
     1
 65
   257
176
     1
 75
     1
176
     1
175
     1
176
     1
 42
1.0
176
     1
 92
        0
176
     1
 66
   257
176
     1
 43
1.0
176
     1
 76
     1
176
     1
 77
     6
176
     1
 78
     2
176
     1
 67
     7
176
     1
 79
     5
176
     1
170
     0
176
     1
171
     0
176
     1
290
     0
176
     1
 93
        1
176
     1
 44
0.0
176
     1
173
     0
176
     1
  0
VISUALSTYLE
  5
32
102
{ACAD_REACTORS
330
2A
102
}
330
2A
100
AcDbVisualStyle
  2
Basic
 70
     7
177
     2
291
     1
 71
     1
176
     1
 72
     0
176
     1
 73
     1
176
     1
 90
        0
176
     1
 40
-0.6
176
     1
 41
-30.0
176
     1
 62
     5
 63
     7
421
 16777215
176
     1
 74
     0
176
     1
 91
        4
176
     1
 64
     7
176
     1
 65
   257
176
     1
 75
     1
176
     1
175
     1
176
     1
 42
1.0
176
     1
 92
        8
176
     1
 66
     7
176
     1
 43
1.0
176
     1
 76
     1
176
     1
 77
     6
176
     1
 78
     2
176
     1
 67
     7
176
     1
 79
     5
176
     1
170
     0
176
     1
171
     0
176
     1
290
     0
176
     1
 93
        1
176
     1
 44
0.0
176
     1
173
     0
176
     1
  0
VISUALSTYLE
  5
36
102
{ACAD_REACTORS
330
2A
102
}
330
2A
100
AcDbVisualStyle
  2
Brighten
 70
    12
177
     2
291
     1
 71
     2
176
     1
 72
     2
176
     1
 73
     0
176
     1
 90
        0
176
     1
 40
-0.6
176
     1
 41
-30.0
176
     1
 62
     5
 63
     7
421
 16777215
176
     1
 74
     1
176
     1
 91
        4
176
     1
 64
     7
176
     1
 65
   257
176
     1
 75
     1
176
     1
175
     1
176
     1
 42
1.0
176
     1
 92
        8
176
     1
 66
     7
176
     1
 43
1.0
176
     1
 76
     1
176
     1
 77
     6
176
     1
 78
     2
176
     1
 67
     7
176
     1
 79
     5
176
     1
170
     0
176
     1
171
     0
176
     1
290
     0
176
     1
 93
        1
176
     1
 44
50.0
176
     1
173
     0
176
     1
  0
VISUALSTYLE
  5
3A
102
{ACAD_REACTORS
330
2A
102
}
330
2A
100
AcDbVisualStyle
  2
ColorChange
 70
    16
177
     2
291
     1
 71
     2
176
     1
 72
     2
176
     1
 73
     3
176
     1
 90
        0
176
     1
 40
-0.6
176
     1
 41
-30.0
176
     1
 62
     5
 63
     8
421
  8421504
176
     1
 74
     1
176
     1
 91
        4
176
     1
 64
     7
176
     1
 65
   257
176
     1
 75
     1
176
     1
175
     1
176
     1
 42
1.0
176
     1
 92
        8
176
     1
 66
     8
424
  8421504
176
     1
 43
1.0
176
     1
 76
     1
176
     1
 77
     6
176
     1
 78
     2
176
     1
 67
     7
176
     1
 79
     5
176
     1
170
     0
176
     1
171
     0
176
     1
290
     0
176
     1
 93
        1
176
     1
 44
0.0
176
     1
173
     0
176
     1
  0
VISUALSTYLE
  5
34
102
{ACAD_REACTORS
330
2A
102
}
330
2A
100
AcDbVisualStyle
  2
Conceptual
 70
     9
177
     2
291
     0
 71
     3
176
     1
 72
     2
176
     1
 73
     0
176
     1
 90
        0
176
     1
 40
-0.6
176
     1
 41
-30.0
176
     1
 62
     5
 63
     7
421
 16777215
176
     1
 74
     2
176
     1
 91
        2
176
     1
 64
     7
176
     1
 65
   257
176
     1
 75
     1
176
     1
175
     1
176
     1
 42
40.0
176
     1
 92
        8
176
     1
 66
     7
176
     1
 43
1.0
176
     1
 76
     1
176
     1
 77
     6
176
     1
 78
     2
176
     1
 67
     7
176
     1
 79
     3
176
     1
170
     0
176
     1
171
     0
176
     1
290
     0
176
     1
 93
        1
176
     1
 44
0.0
176
     1
173
     0
176
     1
  0
VISUALSTYLE
  5
35
102
{ACAD_REACTORS
330
2A
102
}
330
2A
100
AcDbVisualStyle
  2
Dim
 70
    11
177
     2
291
     1
 71
     2
176
     1
 72
     2
176
     1
 73
     0
176
     1
 90
        0
176
     1
 40
-0.6
176
     1
 41
-30.0
176
     1
 62
     5
 63
     7
421
 16777215
176
     1
 74
     1
176
     1
 91
        4
176
     1
 64
     7
176
     1
 65
   257
176
     1
 75
     1
176
     1
175
     1
176
     1
 42
1.0
176
     1
 92
        8
176
     1
 66
     7
176
     1
 43
1.0
176
     1
 76
     1
176
     1
 77
     6
176
     1
 78
     2
176
     1
 67
     7
176
     1
 79
     5
176
     1
170
     0
176
     1
171
     0
176
     1
290
     0
176
     1
 93
        1
176
     1
 44
-50.0
176
     1
173
     0
176
     1
  0
VISUALSTYLE
  5
39
102
{ACAD_REACTORS
330
2A
102
}
330
2A
100
AcDbVisualStyle
  2
Facepattern
 70
    15
177
     2
291
     1
 71
     2
176
     1
 72
     2
176
     1
 73
     0
176
     1
 90
        0
176
     1
 40
-0.6
176
     1
 41
-30.0
176
     1
 62
     5
 63
     7
421
 16777215
176
     1
 74
     1
176
     1
 91
        4
176
     1
 64
     7
176
     1
 65
   257
176
     1
 75
     1
176
     1
175
     1
176
     1
 42
1.0
176
     1
 92
        8
176
     1
 66
     7
176
     1
 43
1.0
176
     1
 76
     1
176
     1
 77
     6
176
     1
 78
     2
176
     1
 67
     7
176
     1
 79
     5
176
     1
170
     0
176
     1
171
     0
176
     1
290
     0
176
     1
 93
        1
176
     1
 44
0.0
176
     1
173
     0
176
     1
  0
VISUALSTYLE
  5
2B
102
{ACAD_REACTORS
330
2A
102
}
330
2A
100
AcDbVisualStyle
  2
Flat
 70
     0
177
     2
291
     1
 71
     2
176
     1
 72
     1
176
     1
 73
     1
176
     1
 90
        2
176
     1
 40
-0.6
176
     1
 41
30.0
176
     1
 62
     5
 63
     7
421
 16777215
176
     1
 74
     0
176
     1
 91
        4
176
     1
 64
     7
176
     1
 65
   257
176
     1
 75
     1
176
     1
175
     1
176
     1
 42
1.0
176
     1
 92
        8
176
     1
 66
     7
176
     1
 43
1.0
176
     1
 76
     1
176
     1
 77
     6
176
     1
 78
     2
176
     1
 67
     7
176
     1
 79
     5
176
     1
170
     0
176
     1
171
     0
176
     1
290
     0
176
     1
 93
       13
176
     1
 44
0.0
176
     1
173
     0
176
     1
  0
VISUALSTYLE
  5
2C
102
{ACAD_REACTORS
330
2A
102
}
330
2A
100
AcDbVisualStyle
  2
FlatWithEdges
 70
     1
177
     2
291
     1
 71
     2
176
     1
 72
     1
176
     1
 73
     1
176
     1
 90
        2
176
     1
 40
-0.6
176
     1
 41
30.0
176
     1
 62
     5
 63
     7
421
 16777215
176
     1
 74
     1
176
     1
 91
        4
176
     1
 64
     7
176
     1
 65
   257
176
     1
 75
     1
176
     1
175
     1
176
     1
 42
1.0
176
     1
 92
        0
176
     1
 66
   257
176
     1
 43
1.0
176
     1
 76
     1
176
     1
 77
     6
176
     1
 78
     2
176
     1
 67
     7
176
     1
 79
     5
176
     1
170
     0
176
     1
171
     0
176
     1
290
     0
176
     1
 93
       13
176
     1
 44
0.0
176
     1
173
     0
176
     1
  0
VISUALSTYLE
  5
2D
102
{ACAD_REACTORS
330
2A
102
}
330
2A
100
AcDbVisualStyle
  2
Gouraud
 70
     2
177
     2
291
     1
 71
     2
176
     1
 72
     2
176
     1
 73
     1
176
     1
 90
        2
176
     1
 40
-0.6
176
     1
 41
30.0
176
     1
 62
     5
 63
     7
421
 16777215
176
     1
 74
     0
176
     1
 91
        4
176
     1
 64
     7
176
     1
 65
   257
176
     1
 75
     1
176
     1
175
     1
176
     1
 42
1.0
176
     1
 92
        0
176
     1
 66
     7
176
     1
 43
1.0
176
     1
 76
     1
176
     1
 77
     6
176
     1
 78
     2
176
     1
 67
     7
176
     1
 79
     5
176
     1
170
     0
176
     1
171
     0
176
     1
290
     0
176
     1
 93
       13
176
     1
 44
0.0
176
     1
173
     0
176
     1
  0
VISUALSTYLE
  5
2E
102
{ACAD_REACTORS
330
2A
102
}
330
2A
100
AcDbVisualStyle
  2
GouraudWithEdges
 70
     3
177
     2
291
     1
 71
     2
176
     1
 72
     2
176
     1
 73
     1
176
     1
 90
        2
176
     1
 40
-0.6
176
     1
 41
30.0
176
     1
 62
     5
 63
     7
421
 16777215
176
     1
 74
     1
176
     1
 91
        4
176
     1
 64
     7
176
     1
 65
   257
176
     1
 75
     1
176
     1
175
     1
176
     1
 42
1.0
176
     1
 92
        0
176
     1
 66
   257
176
     1
 43
1.0
176
     1
 76
     1
176
     1
 77
     6
176
     1
 78
     2
176
     1
 67
     7
176
     1
 79
     5
176
     1
170
     0
176
     1
171
     0
176
     1
290
     0
176
     1
 93
       13
176
     1
 44
0.0
176
     1
173
     0
176
     1
  0
VISUALSTYLE
  5
38
102
{ACAD_REACTORS
330
2A
102
}
330
2A
100
AcDbVisualStyle
  2
Linepattern
 70
    14
177
     2
291
     1
 71
     2
176
     1
 72
     2
176
     1
 73
     0
176
     1
 90
        0
176
     1
 40
-0.6
176
     1
 41
-30.0
176
     1
 62
     5
 63
     7
421
 16777215
176
     1
 74
     1
176
     1
 91
        4
176
     1
 64
     7
176
     1
 65
   257
176
     1
 75
     7
176
     1
175
     7
176
     1
 42
1.0
176
     1
 92
        8
176
     1
 66
     7
176
     1
 43
1.0
176
     1
 76
     1
176
     1
 77
     6
176
     1
 78
     2
176
     1
 67
     7
176
     1
 79
     5
176
     1
170
     0
176
     1
171
     0
176
     1
290
     0
176
     1
 93
        1
176
     1
 44
0.0
176
     1
173
     0
176
     1
  0
VISUALSTYLE
  5
33
102
{ACAD_REACTORS
330
2A
102
}
330
2A
100
AcDbVisualStyle
  2
Realistic
 70
     8
177
     2
291
     0
 71
     2
176
     1
 72
     2
176
     1
 73
     0
176
     1
 90
        0
176
     1
 40
-0.6
176
     1
 41
-30.0
176
     1
 62
     5
 63
     7
421
 16777215
176
     1
 74
     1
176
     1
 91
        0
176
     1
 64
     7
176
     1
 65
   257
176
     1
 75
     1
176
     1
175
     1
176
     1
 42
1.0
176
     1
 92
        8
176
     1
 66
     8
424
  7895160
176
     1
 43
1.0
176
     1
 76
     1
176
     1
 77
     6
176
     1
 78
     2
176
     1
 67
     7
176
     1
 79
     5
176
     1
170
     0
176
     1
171
     0
176
     1
290
     0
176
     1
 93
       13
176
     1
 44
0.0
176
     1
173
     0
176
     1
  0
VISUALSTYLE
  5
37
102
{ACAD_REACTORS
330
2A
102
}
330
2A
100
AcDbVisualStyle
  2
Thicken
 70
    13
177
     2
291
     1
 71
     2
176
     1
 72
     2
176
     1
 73
     0
176
     1
 90
        0
176
     1
 40
-0.6
176
     1
 41
-30.0
176
     1
 62
     5
 63
     7
421
 16777215
176
     1
 74
     1
176
     1
 91
        4
176
     1
 64
     7
176
     1
 65
   257
176
     1
 75
     1
176
     1
175
     1
176
     1
 42
1.0
176
     1
 92
       12
176
     1
 66
     7
176
     1
 43
1.0
176
     1
 76
     1
176
     1
 77
     6
176
     1
 78
     2
176
     1
 67
     7
176
     1
 79
     5
176
     1
170
     0
176
     1
171
     0
176
     1
290
     0
176
     1
 93
        1
176
     1
 44
0.0
176
     1
173
     0
176
     1
  0
ENDSEC
  0
EOF
