  0
SECTION
  2
HEADER
  9
$ACADVER
  1
AC1024
  9
$ACADMAINTVER
 70
     6
  9
$DWGCODEPAGE
  3
UNDEFINED
  9
$INSBASE
 10
0.0
 20
0.0
 30
0.0
  9
$EXTMIN
 10
1.000000000000000E+20
 20
1.000000000000000E+20
 30
1.000000000000000E+20
  9
$EXTMAX
 10
-1.000000000000000E+20
 20
-1.000000000000000E+20
 30
-1.000000000000000E+20
  9
$LIMMIN
 10
0.0
 20
0.0
  9
$LIMMAX
 10
12.0
 20
9.0
  9
$ORTHOMODE
 70
     0
  9
$REGENMODE
 70
     1
  9
$FILLMODE
 70
     1
  9
$QTEXTMODE
 70
     0
  9
$MIRRTEXT
 70
     1
  9
$LTSCALE
 40
1.0
  9
$ATTMODE
 70
     1
  9
$TEXTSIZE
 40
0.2
  9
$TRACEWID
 40
0.05
  9
$TEXTSTYLE
  7
Standard
  9
$CLAYER
  8
0
  9
$CELTYPE
  6
ByLayer
  9
$CECOLOR
 62
   256
  9
$CELTSCALE
 40
1.0
  9
$DISPSILH
 70
     0
  9
$DIMSCALE
 40
1.0
  9
$DIMASZ
 40
0.18
  9
$DIMEXO
 40
0.0625
  9
$DIMDLI
 40
0.38
  9
$DIMRND
 40
0.0
  9
$DIMDLE
 40
0.0
  9
$DIMEXE
 40
0.18
  9
$DIMTP
 40
0.0
  9
$DIMTM
 40
0.0
  9
$DIMTXT
 40
0.18
  9
$DIMCEN
 40
0.09
  9
$DIMTSZ
 40
0.0
  9
$DIMTOL
 70
     0
  9
$DIMLIM
 70
     0
  9
$DIMTIH
 70
     1
  9
$DIMTOH
 70
     1
  9
$DIMSE1
 70
     0
  9
$DIMSE2
 70
     0
  9
$DIMTAD
 70
     0
  9
$DIMZIN
 70
     0
  9
$DIMBLK
  1

  9
$DIMASO
 70
     1
  9
$DIMSHO
 70
     1
  9
$DIMPOST
  1

  9
$DIMAPOST
  1

  9
$DIMALT
 70
     0
  9
$DIMALTD
 70
     2
  9
$DIMALTF
 40
25.4
  9
$DIMLFAC
 40
1.0
  9
$DIMTOFL
 70
     0
  9
$DIMTVP
 40
0.0
  9
$DIMTIX
 70
     0
  9
$DIMSOXD
 70
     0
  9
$DIMSAH
 70
     0
  9
$DIMBLK1
  1

  9
$DIMBLK2
  1

  9
$DIMSTYLE
  2
Standard
  9
$DIMCLRD
 70
     0
  9
$DIMCLRE
 70
     0
  9
$DIMCLRT
 70
     0
  9
$DIMTFAC
 40
1.0
  9
$DIMGAP
 40
0.09
  9
$DIMJUST
 70
     0
  9
$DIMSD1
 70
     0
  9
$DIMSD2
 70
     0
  9
$DIMTOLJ
 70
     1
  9
$DIMTZIN
 70
     0
  9
$DIMALTZ
 70
     0
  9
$DIMALTTZ
 70
     0
  9
$DIMUPT
 70
     0
  9
$DIMDEC
 70
     4
  9
$DIMTDEC
 70
     4
  9
$DIMALTU
 70
     2
  9
$DIMALTTD
 70
     2
  9
$DIMTXSTY
  7
Standard
  9
$DIMAUNIT
 70
     0
  9
$DIMADEC
 70
     0
  9
$DIMALTRND
 40
0.0
  9
$DIMAZIN
 70
     0
  9
$DIMDSEP
 70
    46
  9
$DIMATFIT
 70
     3
  9
$DIMFRAC
 70
     0
  9
$DIMLDRBLK
  1

  9
$DIMLUNIT
 70
     2
  9
$DIMLWD
 70
    -2
  9
$DIMLWE
 70
    -2
  9
$DIMTMOVE
 70
     0
  9
$DIMFXL
 40
1.0
  9
$DIMFXLON
 70
     0
  9
$DIMJOGANG
 40
0.7853981633974483
  9
$DIMTFILL
 70
     0
  9
$DIMTFILLCLR
 70
     0
  9
$DIMARCSYM
 70
     0
  9
$DIMLTYPE
  6

  9
$DIMLTEX1
  6

  9
$DIMLTEX2
  6

  9
$DIMTXTDIRECTION
 70
     0
  9
$LUNITS
 70
     2
  9
$LUPREC
 70
     4
  9
$SKETCHINC
 40
0.1
  9
$FILLETRAD
 40
0.5
  9
$AUNITS
 70
     0
  9
$AUPREC
 70
     0
  9
$MENU
  1
.
  9
$ELEVATION
 40
0.0
  9
$PELEVATION
 40
0.0
  9
$THICKNESS
 40
0.0
  9
$LIMCHECK
 70
     0
  9
$CHAMFERA
 40
0.5
  9
$CHAMFERB
 40
0.5
  9
$CHAMFERC
 40
1.0
  9
$CHAMFERD
 40
0.0
  9
$SKPOLY
 70
     0
  9
$TDCREATE
 40
2457917.585532396
  9
$TDUCREATE
 40
2457917.210532407
  9
$TDUPDATE
 40
2457917.585532396
  9
$TDUUPDATE
 40
2457917.210532407
  9
$TDINDWG
 40
0.0000000116
  9
$TDUSRTIMER
 40
0.0000000116
  9
$USRTIMER
 70
     1
  9
$ANGBASE
 50
0.0
  9
$ANGDIR
 70
     0
  9
$PDMODE
 70
     0
  9
$PDSIZE
 40
0.0
  9
$PLINEWID
 40
0.0
  9
$SPLFRAME
 70
     0
  9
$SPLINETYPE
 70
     6
  9
$SPLINESEGS
 70
     8
  9
$HANDSEED
  5
E7
  9
$SURFTAB1
 70
     6
  9
$SURFTAB2
 70
     6
  9
$SURFTYPE
 70
     6
  9
$SURFU
 70
     6
  9
$SURFV
 70
     6
  9
$UCSBASE
  2

  9
$UCSNAME
  2

  9
$UCSORG
 10
0.0
 20
0.0
 30
0.0
  9
$UCSXDIR
 10
1.0
 20
0.0
 30
0.0
  9
$UCSYDIR
 10
0.0
 20
1.0
 30
0.0
  9
$UCSORTHOREF
  2

  9
$UCSORTHOVIEW
 70
     0
  9
$UCSORGTOP
 10
0.0
 20
0.0
 30
0.0
  9
$UCSORGBOTTOM
 10
0.0
 20
0.0
 30
0.0
  9
$UCSORGLEFT
 10
0.0
 20
0.0
 30
0.0
  9
$UCSORGRIGHT
 10
0.0
 20
0.0
 30
0.0
  9
$UCSORGFRONT
 10
0.0
 20
0.0
 30
0.0
  9
$UCSORGBACK
 10
0.0
 20
0.0
 30
0.0
  9
$PUCSBASE
  2

  9
$PUCSNAME
  2

  9
$PUCSORG
 10
0.0
 20
0.0
 30
0.0
  9
$PUCSXDIR
 10
1.0
 20
0.0
 30
0.0
  9
$PUCSYDIR
 10
0.0
 20
1.0
 30
0.0
  9
$PUCSORTHOREF
  2

  9
$PUCSORTHOVIEW
 70
     0
  9
$PUCSORGTOP
 10
0.0
 20
0.0
 30
0.0
  9
$PUCSORGBOTTOM
 10
0.0
 20
0.0
 30
0.0
  9
$PUCSORGLEFT
 10
0.0
 20
0.0
 30
0.0
  9
$PUCSORGRIGHT
 10
0.0
 20
0.0
 30
0.0
  9
$PUCSORGFRONT
 10
0.0
 20
0.0
 30
0.0
  9
$PUCSORGBACK
 10
0.0
 20
0.0
 30
0.0
  9
$USERI1
 70
     0
  9
$USERI2
 70
     0
  9
$USERI3
 70
     0
  9
$USERI4
 70
     0
  9
$USERI5
 70
     0
  9
$USERR1
 40
0.0
  9
$USERR2
 40
0.0
  9
$USERR3
 40
0.0
  9
$USERR4
 40
0.0
  9
$USERR5
 40
0.0
  9
$WORLDVIEW
 70
     1
  9
$SHADEDGE
 70
     3
  9
$SHADEDIF
 70
    70
  9
$TILEMODE
 70
     1
  9
$MAXACTVP
 70
    64
  9
$PINSBASE
 10
0.0
 20
0.0
 30
0.0
  9
$PLIMCHECK
 70
     0
  9
$PEXTMIN
 10
1.000000000000000E+20
 20
1.000000000000000E+20
 30
1.000000000000000E+20
  9
$PEXTMAX
 10
-1.000000000000000E+20
 20
-1.000000000000000E+20
 30
-1.000000000000000E+20
  9
$PLIMMIN
 10
0.0
 20
0.0
  9
$PLIMMAX
 10
12.0
 20
9.0
  9
$UNITMODE
 70
     0
  9
$VISRETAIN
 70
     1
  9
$PLINEGEN
 70
     0
  9
$PSLTSCALE
 70
     1
  9
$TREEDEPTH
 70
  3020
  9
$CMLSTYLE
  2
Standard
  9
$CMLJUST
 70
     0
  9
$CMLSCALE
 40
1.0
  9
$PROXYGRAPHICS
 70
     1
  9
$MEASUREMENT
 70
     0
  9
$CELWEIGHT
370
    -1
  9
$ENDCAPS
280
     0
  9
$JOINSTYLE
280
     0
  9
$LWDISPLAY
290
     1
  9
$INSUNITS
 70
     1
  9
$HYPERLINKBASE
  1

  9
$STYLESHEET
  1

  9
$XEDIT
290
     1
  9
$CEPSNTYPE
380
     0
  9
$PSTYLEMODE
290
     1
  9
$FINGERPRINTGUID
  2
{7DBFDB53-F990-E732-DCB0-D57BF985F0DB}
  9
$VERSIONGUID
  2
{FAEB1C32-E019-11D5-929B-00C0DF256EC4}
  9
$EXTNAMES
290
     1
  9
$PSVPSCALE
 40
0.0
  9
$OLESTARTUP
290
     0
  9
$SORTENTS
280
   127
  9
$INDEXCTL
280
     0
  9
$HIDETEXT
280
     1
  9
$XCLIPFRAME
280
     2
  9
$HALOGAP
280
     0
  9
$OBSCOLOR
 70
   257
  9
$OBSLTYPE
280
     0
  9
$INTERSECTIONDISPLAY
280
     0
  9
$INTERSECTIONCOLOR
 70
   257
  9
$DIMASSOC
280
     2
  9
$PROJECTNAME
  1

  9
$CAMERADISPLAY
290
     0
  9
$LENSLENGTH
 40
50.0
  9
$CAMERAHEIGHT
 40
0.0
  9
$STEPSPERSEC
 40
2.0
  9
$STEPSIZE
 40
6.0
  9
$3DDWFPREC
 40
2.0
  9
$PSOLWIDTH
 40
0.25
  9
$PSOLHEIGHT
 40
4.0
  9
$LOFTANG1
 40
1.570796326794897
  9
$LOFTANG2
 40
1.570796326794897
  9
$LOFTMAG1
 40
0.0
  9
$LOFTMAG2
 40
0.0
  9
$LOFTPARAM
 70
     7
  9
$LOFTNORMALS
280
     1
  9
$LATITUDE
 40
37.795
  9
$LONGITUDE
 40
-122.394
  9
$NORTHDIRECTION
 40
0.0
  9
$TIMEZONE
 70
 -8000
  9
$LIGHTGLYPHDISPLAY
280
     1
  9
$TILEMODELIGHTSYNCH
280
     1
  9
$CMATERIAL
347
3C
  9
$SOLIDHIST
280
     1
  9
$SHOWHIST
280
     1
  9
$DWFFRAME
280
     2
  9
$DGNFRAME
280
     2
  9
$REALWORLDSCALE
290
     1
  9
$INTERFERECOLOR
 62
   256
  9
$CSHADOW
280
     0
  9
$SHADOWPLANELOCATION
 40
0.0
  0
ENDSEC
  0
SECTION
  2
CLASSES
  0
CLASS
  1
ACDBDICTIONARYWDFLT
  2
AcDbDictionaryWithDefault
  3
ObjectDBX Classes
 90
        0
 91
        4
280
     0
281
     0
  0
CLASS
  1
VISUALSTYLE
  2
AcDbVisualStyle
  3
ObjectDBX Classes
 90
     4095
 91
        4
280
     0
281
     0
  0
CLASS
  1
MATERIAL
  2
AcDbMaterial
  3
ObjectDBX Classes
 90
     1153
 91
        4
280
     0
281
     0
  0
CLASS
  1
SUN
  2
AcDbSun
  3
SCENEOE
 90
     1024
 91
        4
280
     0
281
     0
  0
ENDSEC
  0
SECTION
  2
TABLES
  0
TABLE
  2
VPORT
  5
8
330
0
100
AcDbSymbolTable
 70
     1
  0
VPORT
  5
29
330
8
100
AcDbSymbolTableRecord
100
AcDbViewportTableRecord
  2
*Active
 70
     0
 10
0.0
 20
0.0
 11
1.0
 21
1.0
 12
0.0
 22
0.0
 13
0.0
 23
0.0
 14
0.5
 24
0.5
 15
0.5
 25
0.5
 16
0.0
 26
0.0
 36
1.0
 17
91.00082462281999
 27
-128.4993055234307
 37
0.0
 40
256.9986110468615
 41
0.7081814508812795
 42
50.0
 43
0.0
 44
0.0
 50
0.0
 51
0.0
 71
     0
 72
   100
 73
     1
 74
     3
 75
     0
 76
     0
 77
     0
 78
     0
281
     0
 65
     1
110
0.0
120
0.0
130
0.0
111
1.0
121
0.0
131
0.0
112
0.0
122
1.0
132
0.0
 79
     0
146
0.0
 60
     3
 61
     5
292
     1
282
     1
141
0.0
142
0.0
 63
   250
361
3F
  0
ENDTAB
  0
TABLE
  2
LTYPE
  5
5
330
0
100
AcDbSymbolTable
 70
     3
  0
LTYPE
  5
14
330
5
100
AcDbSymbolTableRecord
100
AcDbLinetypeTableRecord
  2
ByBlock
 70
     0
  3

 72
    65
 73
     0
 40
0.0
  0
LTYPE
  5
15
330
5
100
AcDbSymbolTableRecord
100
AcDbLinetypeTableRecord
  2
ByLayer
 70
     0
  3

 72
    65
 73
     0
 40
0.0
  0
LTYPE
  5
16
330
5
100
AcDbSymbolTableRecord
100
AcDbLinetypeTableRecord
  2
Continuous
 70
     0
  3
Solid line
 72
    65
 73
     0
 40
0.0
  0
LTYPE
  5
96
330
5
100
AcDbSymbolTableRecord
100
AcDbLinetypeTableRecord
  2
AI-Linetype-1
 70
     0
  3
Adobe Illustrator Linetype No. 1
 72
    65
 73
     2
 40
1.411111110758333
 49
0.7055555553791667
 74
     0
 49
-0.7055555553791667
 74
     0
  0
LTYPE
  5
9B
330
5
100
AcDbSymbolTableRecord
100
AcDbLinetypeTableRecord
  2
AI-Linetype-2
 70
     0
  3
Adobe Illustrator Linetype No. 2
 72
    65
 73
     2
 40
1.411111110758333
 49
0.7055555553791667
 74
     0
 49
-0.7055555553791667
 74
     0
  0
ENDTAB
  0
TABLE
  2
LAYER
  5
2
330
0
100
AcDbSymbolTable
 70
     2
  0
LAYER
  5
10
330
2
100
AcDbSymbolTableRecord
100
AcDbLayerTableRecord
  2
0
 70
     0
 62
     7
  6
Continuous
370
    -3
390
F
347
3E
  0
LAYER
  5
40
330
2
100
AcDbSymbolTableRecord
100
AcDbLayerTableRecord
  2
_U+30EC_U+30A4_U+30E4_U+30FC 1
 70
     0
 62
     7
  6
Continuous
370
    -3
390
F
347
3E
  0
ENDTAB
  0
TABLE
  2
STYLE
  5
3
330
0
100
AcDbSymbolTable
 70
     1
  0
STYLE
  5
11
330
3
100
AcDbSymbolTableRecord
100
AcDbTextStyleTableRecord
  2
Standard
 70
     0
 40
0.0
 41
1.0
 50
0.0
 71
     0
 42
0.2
  3
txt
  4

  0
ENDTAB
  0
TABLE
  2
VIEW
  5
6
330
0
100
AcDbSymbolTable
 70
     0
  0
ENDTAB
  0
TABLE
  2
UCS
  5
7
330
0
100
AcDbSymbolTable
 70
     0
  0
ENDTAB
  0
TABLE
  2
APPID
  5
9
330
0
100
AcDbSymbolTable
 70
     1
  0
APPID
  5
12
330
9
100
AcDbSymbolTableRecord
100
AcDbRegAppTableRecord
  2
ACAD
 70
     0
  0
ENDTAB
  0
TABLE
  2
DIMSTYLE
  5
A
330
0
100
AcDbSymbolTable
 70
     1
100
AcDbDimStyleTable
  0
DIMSTYLE
105
27
330
A
100
AcDbSymbolTableRecord
100
AcDbDimStyleTableRecord
  2
Standard
 70
     0
178
     0
340
11
  0
ENDTAB
  0
TABLE
  2
BLOCK_RECORD
  5
1
330
0
100
AcDbSymbolTable
 70
     7
  0
BLOCK_RECORD
  5
1F
330
1
100
AcDbSymbolTableRecord
100
AcDbBlockTableRecord
  2
*Model_Space
340
22
 70
     0
280
     1
281
     0
  0
BLOCK_RECORD
  5
1B
330
1
100
AcDbSymbolTableRecord
100
AcDbBlockTableRecord
  2
*Paper_Space
340
1E
 70
     0
280
     1
281
     0
  0
BLOCK_RECORD
  5
23
330
1
100
AcDbSymbolTableRecord
100
AcDbBlockTableRecord
  2
*Paper_Space0
340
26
 70
     0
280
     1
281
     0
  0
BLOCK_RECORD
  5
41
330
1
100
AcDbSymbolTableRecord
100
AcDbBlockTableRecord
  2
block 2
340
0
102
{BLKREFS
331
42
102
}
 70
     0
280
     1
281
     0
  0
BLOCK_RECORD
  5
66
330
1
100
AcDbSymbolTableRecord
100
AcDbBlockTableRecord
  2
block 3
340
0
102
{BLKREFS
331
67
102
}
 70
     0
280
     1
281
     0
  0
BLOCK_RECORD
  5
7C
330
1
100
AcDbSymbolTableRecord
100
AcDbBlockTableRecord
  2
block 4
340
0
102
{BLKREFS
331
7D
102
}
 70
     0
280
     1
281
     0
  0
BLOCK_RECORD
  5
9D
330
1
100
AcDbSymbolTableRecord
100
AcDbBlockTableRecord
  2
block 5
340
0
102
{BLKREFS
331
9E
102
}
 70
     0
280
     1
281
     0
  0
BLOCK_RECORD
  5
AD
330
1
100
AcDbSymbolTableRecord
100
AcDbBlockTableRecord
  2
block 6
340
0
102
{BLKREFS
331
AE
102
}
 70
     0
280
     1
281
     0
  0
BLOCK_RECORD
  5
D5
330
1
100
AcDbSymbolTableRecord
100
AcDbBlockTableRecord
  2
block 7
340
0
102
{BLKREFS
331
D6
102
}
 70
     0
280
     1
281
     0
  0
ENDTAB
  0
ENDSEC
  0
SECTION
  2
BLOCKS
  0
BLOCK
  5
20
330
1F
100
AcDbEntity
  8
0
100
AcDbBlockBegin
  2
*Model_Space
 70
     0
 10
0.0
 20
0.0
 30
0.0
  3
*Model_Space
  1

  0
ENDBLK
  5
21
330
1F
100
AcDbEntity
  8
0
100
AcDbBlockEnd
  0
BLOCK
  5
1C
330
1B
100
AcDbEntity
 67
     1
  8
0
100
AcDbBlockBegin
  2
*Paper_Space
 70
     0
 10
0.0
 20
0.0
 30
0.0
  3
*Paper_Space
  1

  0
ENDBLK
  5
1D
330
1B
100
AcDbEntity
 67
     1
  8
0
100
AcDbBlockEnd
  0
BLOCK
  5
24
330
23
100
AcDbEntity
  8
0
100
AcDbBlockBegin
  2
*Paper_Space0
 70
     0
 10
0.0
 20
0.0
 30
0.0
  3
*Paper_Space0
  1

  0
ENDBLK
  5
25
330
23
100
AcDbEntity
  8
0
100
AcDbBlockEnd
  0
BLOCK
  5
43
330
41
100
AcDbEntity
  8
0
100
AcDbBlockBegin
  2
block 2
 70
     0
 10
0.0
 20
0.0
 30
0.0
  3
block 2
  1

  0
SPLINE
  5
45
330
41
100
AcDbEntity
  8
_U+30EC_U+30A4_U+30E4_U+30FC 1
 62
   179
420
  2234388
370
    25
100
AcDbSpline
210
0.0
220
0.0
230
1.0
 70
    11
 71
     3
 72
    17
 73
    13
 74
     0
 42
0.0000000001
 43
0.0000000001
 12
1.0
 22
0.0
 32
0.0
 13
1.0
 23
0.0
 33
0.0
 40
0.0
 40
0.0
 40
0.0
 40
0.0
 40
1.0
 40
1.0
 40
1.0
 40
2.0
 40
2.0
 40
2.0
 40
3.0
 40
3.0
 40
3.0
 40
4.0
 40
4.0
 40
4.0
 40
4.0
 10
92.33062042222741
 20
-121.3446899696637
 30
0.0
 10
92.33062042222741
 20
-117.4248702484216
 30
0.0
 10
95.50837200782287
 20
-114.2471185825492
 30
0.0
 10
99.42822690781905
 20
-114.2471185825492
 30
0.0
 10
103.3487194186074
 20
-114.2471185825492
 30
0.0
 10
106.5257981156338
 20
-117.4248702484216
 30
0.0
 10
106.5257981156338
 20
-121.3446899696637
 30
0.0
 10
106.5257981156338
 20
-125.2645449686839
 30
0.0
 10
103.3487194186074
 20
-128.4429669123336
 30
0.0
 10
99.42822690781905
 20
-128.4429669123336
 30
0.0
 10
95.50837200782287
 20
-128.4429669123336
 30
0.0
 10
92.33062042222741
 20
-125.2645449686839
 30
0.0
 10
92.33062042222741
 20
-121.3446899696637
 30
0.0
  0
POLYLINE
  5
46
330
41
100
AcDbEntity
  8
_U+30EC_U+30A4_U+30E4_U+30FC 1
 62
   179
420
  2234388
370
    25
100
AcDb2dPolyline
 66
     1
 10
0.0
 20
0.0
 30
0.0
  0
VERTEX
  5
47
330
46
100
AcDbEntity
  8
_U+30EC_U+30A4_U+30E4_U+30FC 1
 62
   179
420
  2234388
370
    25
100
AcDbVertex
100
AcDb2dVertex
 10
92.42985680858456
 20
-121.0470513586272
 30
0.0
  0
VERTEX
  5
48
330
46
100
AcDbEntity
  8
_U+30EC_U+30A4_U+30E4_U+30FC 1
 62
   179
420
  2234388
370
    25
100
AcDbVertex
100
AcDb2dVertex
 10
99.13055553077292
 20
-114.2960488603149
 30
0.0
  0
SEQEND
  5
49
330
46
100
AcDbEntity
  8
_U+30EC_U+30A4_U+30E4_U+30FC 1
 62
   179
420
  2234388
370
    25
  0
POLYLINE
  5
4A
330
41
100
AcDbEntity
  8
_U+30EC_U+30A4_U+30E4_U+30FC 1
 62
   179
420
  2234388
370
    25
100
AcDb2dPolyline
 66
     1
 10
0.0
 20
0.0
 30
0.0
  0
VERTEX
  5
4B
330
4A
100
AcDbEntity
  8
_U+30EC_U+30A4_U+30E4_U+30FC 1
 62
   179
420
  2234388
370
    25
100
AcDbVertex
100
AcDb2dVertex
 10
98.78327859093972
 20
-128.3933663567906
 30
0.0
  0
VERTEX
  5
4C
330
4A
100
AcDbEntity
  8
_U+30EC_U+30A4_U+30E4_U+30FC 1
 62
   179
420
  2234388
370
    25
100
AcDbVertex
100
AcDb2dVertex
 10
106.3769638622944
 20
-120.7493774698125
 30
0.0
  0
SEQEND
  5
4D
330
4A
100
AcDbEntity
  8
_U+30EC_U+30A4_U+30E4_U+30FC 1
 62
   179
420
  2234388
370
    25
  0
SPLINE
  5
4E
330
41
100
AcDbEntity
  8
_U+30EC_U+30A4_U+30E4_U+30FC 1
 62
   179
420
  2234388
370
    25
100
AcDbSpline
210
0.0
220
0.0
230
1.0
 70
    11
 71
     3
 72
    17
 73
    13
 74
     0
 42
0.0000000001
 43
0.0000000001
 12
1.0
 22
0.0
 32
0.0
 13
1.0
 23
0.0
 33
0.0
 40
0.0
 40
0.0
 40
0.0
 40
0.0
 40
1.0
 40
1.0
 40
1.0
 40
2.0
 40
2.0
 40
2.0
 40
3.0
 40
3.0
 40
3.0
 40
4.0
 40
4.0
 40
4.0
 40
4.0
 10
96.92223474953
 20
-119.6076827478759
 30
0.0
 10
96.92223474953
 20
-119.2101374701974
 30
0.0
 10
97.24400335243212
 20
-118.8876633036113
 30
0.0
 10
97.64158389784455
 20
-118.8876633036113
 30
0.0
 10
98.03916444325698
 20
-118.8876633036113
 30
0.0
 10
98.36093304615909
 20
-119.2101374701974
 30
0.0
 10
98.36093304615909
 20
-119.6076827478759
 30
0.0
 10
98.36093304615909
 20
-120.0045577477766
 30
0.0
 10
98.03916444325698
 20
-120.3270319143627
 30
0.0
 10
97.64158389784455
 20
-120.3270319143627
 30
0.0
 10
97.24400335243212
 20
-120.3270319143627
 30
0.0
 10
96.92223474953
 20
-120.0045577477766
 30
0.0
 10
96.92223474953
 20
-119.6076827478759
 30
0.0
  0
SPLINE
  5
4F
330
41
100
AcDbEntity
  8
_U+30EC_U+30A4_U+30E4_U+30FC 1
 62
   179
420
  2234388
370
    25
100
AcDbSpline
210
0.0
220
0.0
230
1.0
 70
    11
 71
     3
 72
    17
 73
    13
 74
     0
 42
0.0000000001
 43
0.0000000001
 12
1.0
 22
0.0
 32
0.0
 13
1.0
 23
0.0
 33
0.0
 40
0.0
 40
0.0
 40
0.0
 40
0.0
 40
1.0
 40
1.0
 40
1.0
 40
2.0
 40
2.0
 40
2.0
 40
3.0
 40
3.0
 40
3.0
 40
4.0
 40
4.0
 40
4.0
 40
4.0
 10
99.75137134401939
 20
-116.7785813596941
 30
0.0
 10
99.75137134401939
 20
-116.3810008042381
 30
0.0
 10
100.0731399469215
 20
-116.0585619154299
 30
0.0
 10
100.4706852145571
 20
-116.0585619154299
 30
0.0
 10
100.8682657599695
 20
-116.0585619154299
 30
0.0
 10
101.1900343628716
 20
-116.3810008042381
 30
0.0
 10
101.1900343628716
 20
-116.7785813596941
 30
0.0
 10
101.1900343628716
 20
-117.1754563595949
 30
0.0
 10
100.8682657599695
 20
-117.4978952484034
 30
0.0
 10
100.4706852145571
 20
-117.4978952484034
 30
0.0
 10
100.0731399469215
 20
-117.4978952484034
 30
0.0
 10
99.75137134401939
 20
-117.1754563595949
 30
0.0
 10
99.75137134401939
 20
-116.7785813596941
 30
0.0
  0
SPLINE
  5
50
330
41
100
AcDbEntity
  8
_U+30EC_U+30A4_U+30E4_U+30FC 1
 62
   179
420
  2234388
370
    25
100
AcDbSpline
210
0.0
220
0.0
230
1.0
 70
    11
 71
     3
 72
    17
 73
    13
 74
     0
 42
0.0000000001
 43
0.0000000001
 12
1.0
 22
0.0
 32
0.0
 13
1.0
 23
0.0
 33
0.0
 40
0.0
 40
0.0
 40
0.0
 40
0.0
 40
1.0
 40
1.0
 40
1.0
 40
2.0
 40
2.0
 40
2.0
 40
3.0
 40
3.0
 40
3.0
 40
4.0
 40
4.0
 40
4.0
 40
4.0
 10
103.4741293045995
 20
-119.7565196922832
 30
0.0
 10
103.4741293045995
 20
-119.3589391368269
 30
0.0
 10
103.7958979075016
 20
-119.0371705257964
 30
0.0
 10
104.193478452914
 20
-119.0371705257964
 30
0.0
 10
104.5910237205496
 20
-119.0371705257964
 30
0.0
 10
104.9127923234517
 20
-119.3589391368269
 30
0.0
 10
104.9127923234517
 20
-119.7565196922832
 30
0.0
 10
104.9127923234517
 20
-120.1540649699613
 30
0.0
 10
104.5910237205496
 20
-120.4758335809922
 30
0.0
 10
104.193478452914
 20
-120.4758335809922
 30
0.0
 10
103.7958979075016
 20
-120.4758335809922
 30
0.0
 10
103.4741293045995
 20
-120.1540649699613
 30
0.0
 10
103.4741293045995
 20
-119.7565196922832
 30
0.0
  0
SPLINE
  5
51
330
41
100
AcDbEntity
  8
_U+30EC_U+30A4_U+30E4_U+30FC 1
 62
   179
420
  2234388
370
    25
100
AcDbSpline
210
0.0
220
0.0
230
1.0
 70
    11
 71
     3
 72
    17
 73
    13
 74
     0
 42
0.0000000001
 43
0.0000000001
 12
1.0
 22
0.0
 32
0.0
 13
1.0
 23
0.0
 33
0.0
 40
0.0
 40
0.0
 40
0.0
 40
0.0
 40
1.0
 40
1.0
 40
1.0
 40
2.0
 40
2.0
 40
2.0
 40
3.0
 40
3.0
 40
3.0
 40
4.0
 40
4.0
 40
4.0
 40
4.0
 10
103.1268548690147
 20
-116.8777824707806
 30
0.0
 10
103.1268548690147
 20
-116.4802371931021
 30
0.0
 10
103.4486234719168
 20
-116.1577630265161
 30
0.0
 10
103.8462040173293
 20
-116.1577630265161
 30
0.0
 10
104.2437492849648
 20
-116.1577630265161
 30
0.0
 10
104.5655531656438
 20
-116.4802371931021
 30
0.0
 10
104.5655531656438
 20
-116.8777824707806
 30
0.0
 10
104.5655531656438
 20
-117.2746574706813
 30
0.0
 10
104.2437492849648
 20
-117.5971316372674
 30
0.0
 10
103.8462040173293
 20
-117.5971316372674
 30
0.0
 10
103.4486234719168
 20
-117.5971316372674
 30
0.0
 10
103.1268548690147
 20
-117.2746574706813
 30
0.0
 10
103.1268548690147
 20
-116.8777824707806
 30
0.0
  0
SPLINE
  5
52
330
41
100
AcDbEntity
  8
_U+30EC_U+30A4_U+30E4_U+30FC 1
 62
   179
420
  2234388
370
    25
100
AcDbSpline
210
0.0
220
0.0
230
1.0
 70
    11
 71
     3
 72
    17
 73
    13
 74
     0
 42
0.0000000001
 43
0.0000000001
 12
1.0
 22
0.0
 32
0.0
 13
1.0
 23
0.0
 33
0.0
 40
0.0
 40
0.0
 40
0.0
 40
0.0
 40
1.0
 40
1.0
 40
1.0
 40
2.0
 40
2.0
 40
2.0
 40
3.0
 40
3.0
 40
3.0
 40
4.0
 40
4.0
 40
4.0
 40
4.0
 10
94.39080731411211
 20
-125.3155213575599
 30
0.0
 10
94.39080731411211
 20
-124.9179408021039
 30
0.0
 10
94.71257591701422
 20
-124.5961721910731
 30
0.0
 10
95.11012118464977
 20
-124.5961721910731
 30
0.0
 10
95.5077017300622
 20
-124.5961721910731
 30
0.0
 10
95.8294703329643
 20
-124.9179408021039
 30
0.0
 10
95.8294703329643
 20
-125.3155213575599
 30
0.0
 10
95.8294703329643
 20
-125.7131019130162
 30
0.0
 10
95.5077017300622
 20
-126.0348705240467
 30
0.0
 10
95.11012118464977
 20
-126.0348705240467
 30
0.0
 10
94.71257591701422
 20
-126.0348705240467
 30
0.0
 10
94.39080731411211
 20
-125.7131019130162
 30
0.0
 10
94.39080731411211
 20
-125.3155213575599
 30
0.0
  0
SPLINE
  5
53
330
41
100
AcDbEntity
  8
_U+30EC_U+30A4_U+30E4_U+30FC 1
 62
   179
420
  2234388
370
    25
100
AcDbSpline
210
0.0
220
0.0
230
1.0
 70
    11
 71
     3
 72
    17
 73
    13
 74
     0
 42
0.0000000001
 43
0.0000000001
 12
1.0
 22
0.0
 32
0.0
 13
1.0
 23
0.0
 33
0.0
 40
0.0
 40
0.0
 40
0.0
 40
0.0
 40
1.0
 40
1.0
 40
1.0
 40
2.0
 40
2.0
 40
2.0
 40
3.0
 40
3.0
 40
3.0
 40
4.0
 40
4.0
 40
4.0
 40
4.0
 10
97.66638417498962
 20
-125.5139588575103
 30
0.0
 10
97.66638417498962
 20
-125.1170838576095
 30
0.0
 10
97.98815277789173
 20
-124.7946096910235
 30
0.0
 10
98.38573332330417
 20
-124.7946096910235
 30
0.0
 10
98.78327859093972
 20
-124.7946096910235
 30
0.0
 10
99.10504719384183
 20
-125.1170838576095
 30
0.0
 10
99.10504719384183
 20
-125.5139588575103
 30
0.0
 10
99.10504719384183
 20
-125.9115394129666
 30
0.0
 10
98.78327859093972
 20
-126.2339783017748
 30
0.0
 10
98.38573332330417
 20
-126.2339783017748
 30
0.0
 10
97.98815277789173
 20
-126.2339783017748
 30
0.0
 10
97.66638417498962
 20
-125.9115394129666
 30
0.0
 10
97.66638417498962
 20
-125.5139588575103
 30
0.0
  0
SPLINE
  5
54
330
41
100
AcDbEntity
  8
_U+30EC_U+30A4_U+30E4_U+30FC 1
 62
   179
420
  2234388
370
    25
100
AcDbSpline
210
0.0
220
0.0
230
1.0
 70
    11
 71
     3
 72
    17
 73
    13
 74
     0
 42
0.0000000001
 43
0.0000000001
 12
1.0
 22
0.0
 32
0.0
 13
1.0
 23
0.0
 33
0.0
 40
0.0
 40
0.0
 40
0.0
 40
0.0
 40
1.0
 40
1.0
 40
1.0
 40
2.0
 40
2.0
 40
2.0
 40
3.0
 40
3.0
 40
3.0
 40
4.0
 40
4.0
 40
4.0
 40
4.0
 10
94.04282732298981
 20
-122.4864199693785
 30
0.0
 10
94.04282732298981
 20
-122.0888394139222
 30
0.0
 10
94.36459592589192
 20
-121.7670708028917
 30
0.0
 10
94.76284674906503
 20
-121.7670708028917
 30
0.0
 10
95.16042729447746
 20
-121.7670708028917
 30
0.0
 10
95.48219589737957
 20
-122.0888394139222
 30
0.0
 10
95.48219589737957
 20
-122.4864199693785
 30
0.0
 10
95.48219589737957
 20
-122.8839652470569
 30
0.0
 10
95.16042729447746
 20
-123.2057338580875
 30
0.0
 10
94.76284674906503
 20
-123.2057338580875
 30
0.0
 10
94.36459592589192
 20
-123.2057338580875
 30
0.0
 10
94.04282732298981
 20
-122.8839652470569
 30
0.0
 10
94.04282732298981
 20
-122.4864199693785
 30
0.0
  0
SPLINE
  5
55
330
41
100
AcDbEntity
  8
_U+30EC_U+30A4_U+30E4_U+30FC 1
 62
   179
420
  2234388
370
    25
100
AcDbSpline
210
0.0
220
0.0
230
1.0
 70
    11
 71
     3
 72
    17
 73
    13
 74
     0
 42
0.0000000001
 43
0.0000000001
 12
1.0
 22
0.0
 32
0.0
 13
1.0
 23
0.0
 33
0.0
 40
0.0
 40
0.0
 40
0.0
 40
0.0
 40
1.0
 40
1.0
 40
1.0
 40
2.0
 40
2.0
 40
2.0
 40
3.0
 40
3.0
 40
3.0
 40
4.0
 40
4.0
 40
4.0
 40
4.0
 10
97.3191097394049
 20
-122.5360205249215
 30
0.0
 10
97.3191097394049
 20
-122.1384399694652
 30
0.0
 10
97.64087834230699
 20
-121.8166713584347
 30
0.0
 10
98.03845888771943
 20
-121.8166713584347
 30
0.0
 10
98.43603943313185
 20
-121.8166713584347
 30
0.0
 10
98.75780803603396
 20
-122.1384399694652
 30
0.0
 10
98.75780803603396
 20
-122.5360205249215
 30
0.0
 10
98.75780803603396
 20
-122.9335658026
 30
0.0
 10
98.43603943313185
 20
-123.2553696914084
 30
0.0
 10
98.03845888771943
 20
-123.2553696914084
 30
0.0
 10
97.64087834230699
 20
-123.2553696914084
 30
0.0
 10
97.3191097394049
 20
-122.9335658026
 30
0.0
 10
97.3191097394049
 20
-122.5360205249215
 30
0.0
  0
SPLINE
  5
56
330
41
100
AcDbEntity
  8
_U+30EC_U+30A4_U+30E4_U+30FC 1
 62
   179
420
  2234388
370
    25
100
AcDbSpline
210
0.0
220
0.0
230
1.0
 70
    11
 71
     3
 72
    17
 73
    13
 74
     0
 42
0.0000000001
 43
0.0000000001
 12
1.0
 22
0.0
 32
0.0
 13
1.0
 23
0.0
 33
0.0
 40
0.0
 40
0.0
 40
0.0
 40
0.0
 40
1.0
 40
1.0
 40
1.0
 40
2.0
 40
2.0
 40
2.0
 40
3.0
 40
3.0
 40
3.0
 40
4.0
 40
4.0
 40
4.0
 40
4.0
 10
100.4961910472397
 20
-122.4864199693785
 30
0.0
 10
100.4961910472397
 20
-122.0895449694777
 30
0.0
 10
100.8179596501418
 20
-121.7670708028917
 30
0.0
 10
101.2155401955542
 20
-121.7670708028917
 30
0.0
 10
101.6130854631898
 20
-121.7670708028917
 30
0.0
 10
101.9348540660919
 20
-122.0895449694777
 30
0.0
 10
101.9348540660919
 20
-122.4864199693785
 30
0.0
 10
101.9348540660919
 20
-122.8839652470569
 30
0.0
 10
101.6130854631898
 20
-123.2057338580875
 30
0.0
 10
101.2155401955542
 20
-123.2057338580875
 30
0.0
 10
100.8179596501418
 20
-123.2057338580875
 30
0.0
 10
100.4961910472397
 20
-122.8839652470569
 30
0.0
 10
100.4961910472397
 20
-122.4864199693785
 30
0.0
  0
SPLINE
  5
57
330
41
100
AcDbEntity
  8
_U+30EC_U+30A4_U+30E4_U+30FC 1
 62
   179
420
  2234388
370
    25
100
AcDbSpline
210
0.0
220
0.0
230
1.0
 70
    11
 71
     3
 72
    17
 73
    13
 74
     0
 42
0.0000000001
 43
0.0000000001
 12
1.0
 22
0.0
 32
0.0
 13
1.0
 23
0.0
 33
0.0
 40
0.0
 40
0.0
 40
0.0
 40
0.0
 40
1.0
 40
1.0
 40
1.0
 40
2.0
 40
2.0
 40
2.0
 40
3.0
 40
3.0
 40
3.0
 40
4.0
 40
4.0
 40
4.0
 40
4.0
 10
100.1482463338943
 20
-119.5084816367894
 30
0.0
 10
100.1482463338943
 20
-119.1109010813334
 30
0.0
 10
100.4700149367964
 20
-118.7891324703026
 30
0.0
 10
100.8675602044319
 20
-118.7891324703026
 30
0.0
 10
101.2651407498444
 20
-118.7891324703026
 30
0.0
 10
101.5869093527465
 20
-119.1109010813334
 30
0.0
 10
101.5869093527465
 20
-119.5084816367894
 30
0.0
 10
101.5869093527465
 20
-119.9053566366902
 30
0.0
 10
101.2651407498444
 20
-120.2277955254987
 30
0.0
 10
100.8675602044319
 20
-120.2277955254987
 30
0.0
 10
100.4700149367964
 20
-120.2277955254987
 30
0.0
 10
100.1482463338943
 20
-119.9053566366902
 30
0.0
 10
100.1482463338943
 20
-119.5084816367894
 30
0.0
  0
SPLINE
  5
58
330
41
100
AcDbEntity
  8
_U+30EC_U+30A4_U+30E4_U+30FC 1
 62
   179
420
  2234388
370
     9
100
AcDbSpline
210
0.0
220
0.0
230
1.0
 70
    11
 71
     3
 72
    17
 73
    13
 74
     0
 42
0.0000000001
 43
0.0000000001
 12
1.0
 22
0.0
 32
0.0
 13
1.0
 23
0.0
 33
0.0
 40
0.0
 40
0.0
 40
0.0
 40
0.0
 40
1.0
 40
1.0
 40
1.0
 40
2.0
 40
2.0
 40
2.0
 40
3.0
 40
3.0
 40
3.0
 40
4.0
 40
4.0
 40
4.0
 40
4.0
 10
110.1769069113752
 20
-143.8006888529387
 30
0.0
 10
110.1769069113752
 20
-143.7455849640637
 30
0.0
 10
110.1321041347404
 20
-143.700782186297
 30
0.0
 10
110.0770002472573
 20
-143.700782186297
 30
0.0
 10
110.0218638613833
 20
-143.700782186297
 30
0.0
 10
109.9770935831395
 20
-143.7455849640637
 30
0.0
 10
109.9770935831395
 20
-143.8006888529387
 30
0.0
 10
109.9770935831395
 20
-143.8558280195917
 30
0.0
 10
110.0218638613833
 20
-143.9005955195803
 30
0.0
 10
110.0770002472573
 20
-143.9005955195803
 30
0.0
 10
110.1321041347404
 20
-143.9005955195803
 30
0.0
 10
110.1769069113752
 20
-143.8558280195917
 30
0.0
 10
110.1769069113752
 20
-143.8006888529387
 30
0.0
  0
SPLINE
  5
59
330
41
100
AcDbEntity
  8
_U+30EC_U+30A4_U+30E4_U+30FC 1
 62
   179
420
  2234388
370
     9
100
AcDbSpline
210
0.0
220
0.0
230
1.0
 70
    11
 71
     3
 72
    17
 73
    13
 74
     0
 42
0.0000000001
 43
0.0000000001
 12
1.0
 22
0.0
 32
0.0
 13
1.0
 23
0.0
 33
0.0
 40
0.0
 40
0.0
 40
0.0
 40
0.0
 40
1.0
 40
1.0
 40
1.0
 40
2.0
 40
2.0
 40
2.0
 40
3.0
 40
3.0
 40
3.0
 40
4.0
 40
4.0
 40
4.0
 40
4.0
 10
82.24353984623694
 20
-143.8006888529387
 30
0.0
 10
82.24353984623694
 20
-143.7455849640637
 30
0.0
 10
82.19877234737905
 20
-143.700782186297
 30
0.0
 10
82.1436331821191
 20
-143.700782186297
 30
0.0
 10
82.08852929463603
 20
-143.700782186297
 30
0.0
 10
82.04372651800126
 20
-143.7455849640637
 30
0.0
 10
82.04372651800126
 20
-143.8006888529387
 30
0.0
 10
82.04372651800126
 20
-143.8558280195917
 30
0.0
 10
82.08852929463603
 20
-143.9005955195803
 30
0.0
 10
82.1436331821191
 20
-143.9005955195803
 30
0.0
 10
82.19877234737905
 20
-143.9005955195803
 30
0.0
 10
82.24353984623694
 20
-143.8558280195917
 30
0.0
 10
82.24353984623694
 20
-143.8006888529387
 30
0.0
  0
POLYLINE
  5
5A
330
41
100
AcDbEntity
  8
_U+30EC_U+30A4_U+30E4_U+30FC 1
 62
   179
420
  2234388
370
     9
100
AcDb2dPolyline
 66
     1
 10
0.0
 20
0.0
 30
0.0
  0
VERTEX
  5
5B
330
5A
100
AcDbEntity
  8
_U+30EC_U+30A4_U+30E4_U+30FC 1
 62
   179
420
  2234388
370
     9
100
AcDbVertex
100
AcDb2dVertex
 10
82.07681707271261
 20
-143.8006888529387
 30
0.0
  0
VERTEX
  5
5C
330
5A
100
AcDbEntity
  8
_U+30EC_U+30A4_U+30E4_U+30FC 1
 62
   179
420
  2234388
370
     9
100
AcDbVertex
100
AcDb2dVertex
 10
110.0770002472573
 20
-143.8006888529387
 30
0.0
  0
SEQEND
  5
5D
330
5A
100
AcDbEntity
  8
_U+30EC_U+30A4_U+30E4_U+30FC 1
 62
   179
420
  2234388
370
     9
  0
POLYLINE
  5
5E
330
41
100
AcDbEntity
  8
_U+30EC_U+30A4_U+30E4_U+30FC 1
 62
   179
420
  2234388
370
     9
100
AcDb2dPolyline
 66
     1
 10
0.0
 20
0.0
 30
0.0
  0
VERTEX
  5
5F
330
5E
100
AcDbEntity
  8
_U+30EC_U+30A4_U+30E4_U+30FC 1
 62
   179
420
  2234388
370
     9
100
AcDbVertex
100
AcDb2dVertex
 10
82.1436331821191
 20
-145.2607302414624
 30
0.0
  0
VERTEX
  5
60
330
5E
100
AcDbEntity
  8
_U+30EC_U+30A4_U+30E4_U+30FC 1
 62
   179
420
  2234388
370
     9
100
AcDbVertex
100
AcDb2dVertex
 10
82.1436331821191
 20
-142.8009166309668
 30
0.0
  0
SEQEND
  5
61
330
5E
100
AcDbEntity
  8
_U+30EC_U+30A4_U+30E4_U+30FC 1
 62
   179
420
  2234388
370
     9
  0
POLYLINE
  5
62
330
41
100
AcDbEntity
  8
_U+30EC_U+30A4_U+30E4_U+30FC 1
 62
   179
420
  2234388
370
     9
100
AcDb2dPolyline
 66
     1
 10
0.0
 20
0.0
 30
0.0
  0
VERTEX
  5
63
330
62
100
AcDbEntity
  8
_U+30EC_U+30A4_U+30E4_U+30FC 1
 62
   179
420
  2234388
370
     9
100
AcDbVertex
100
AcDb2dVertex
 10
110.0770002472573
 20
-145.2607302414624
 30
0.0
  0
VERTEX
  5
64
330
62
100
AcDbEntity
  8
_U+30EC_U+30A4_U+30E4_U+30FC 1
 62
   179
420
  2234388
370
     9
100
AcDbVertex
100
AcDb2dVertex
 10
110.0770002472573
 20
-142.8009166309668
 30
0.0
  0
SEQEND
  5
65
330
62
100
AcDbEntity
  8
_U+30EC_U+30A4_U+30E4_U+30FC 1
 62
   179
420
  2234388
370
     9
  0
INSERT
  5
67
330
41
100
AcDbEntity
  8
_U+30EC_U+30A4_U+30E4_U+30FC 1
100
AcDbBlockReference
  2
block 3
 10
0.0
 20
0.0
 30
0.0
  0
POLYLINE
  5
70
330
41
100
AcDbEntity
  8
_U+30EC_U+30A4_U+30E4_U+30FC 1
 62
   179
420
  2234388
370
     9
100
AcDb2dPolyline
 66
     1
 10
0.0
 20
0.0
 30
0.0
  0
VERTEX
  5
71
330
70
100
AcDbEntity
  8
_U+30EC_U+30A4_U+30E4_U+30FC 1
 62
   179
420
  2234388
370
     9
100
AcDbVertex
100
AcDb2dVertex
 10
80.73943655127648
 20
-139.511898854011
 30
0.0
  0
VERTEX
  5
72
330
70
100
AcDbEntity
  8
_U+30EC_U+30A4_U+30E4_U+30FC 1
 62
   179
420
  2234388
370
     9
100
AcDbVertex
100
AcDb2dVertex
 10
79.87333185115043
 20
-140.0121377427747
 30
0.0
  0
SEQEND
  5
73
330
70
100
AcDbEntity
  8
_U+30EC_U+30A4_U+30E4_U+30FC 1
 62
   179
420
  2234388
370
     9
  0
POLYLINE
  5
74
330
41
100
AcDbEntity
  8
_U+30EC_U+30A4_U+30E4_U+30FC 1
 62
   179
420
  2234388
370
     9
100
AcDb2dPolyline
 66
     1
 10
0.0
 20
0.0
 30
0.0
  0
VERTEX
  5
75
330
74
100
AcDbEntity
  8
_U+30EC_U+30A4_U+30E4_U+30FC 1
 62
   179
420
  2234388
370
     9
100
AcDbVertex
100
AcDb2dVertex
 10
80.64090572045687
 20
-139.598011909545
 30
0.0
  0
VERTEX
  5
76
330
74
100
AcDbEntity
  8
_U+30EC_U+30A4_U+30E4_U+30FC 1
 62
   179
420
  2234388
370
     9
100
AcDbVertex
100
AcDb2dVertex
 10
76.64114665583256
 20
-143.5981238529896
 30
0.0
  0
SEQEND
  5
77
330
74
100
AcDbEntity
  8
_U+30EC_U+30A4_U+30E4_U+30FC 1
 62
   179
420
  2234388
370
     9
  0
POLYLINE
  5
78
330
41
100
AcDbEntity
  8
_U+30EC_U+30A4_U+30E4_U+30FC 1
 62
   179
420
  2234388
370
     9
100
AcDb2dPolyline
 66
     1
 10
0.0
 20
0.0
 30
0.0
  0
VERTEX
  5
79
330
78
100
AcDbEntity
  8
_U+30EC_U+30A4_U+30E4_U+30FC 1
 62
   179
420
  2234388
370
     9
100
AcDbVertex
100
AcDb2dVertex
 10
80.73943655127648
 20
-139.511898854011
 30
0.0
  0
VERTEX
  5
7A
330
78
100
AcDbEntity
  8
_U+30EC_U+30A4_U+30E4_U+30FC 1
 62
   179
420
  2234388
370
     9
100
AcDbVertex
100
AcDb2dVertex
 10
80.23919767514974
 20
-140.3780035760164
 30
0.0
  0
SEQEND
  5
7B
330
78
100
AcDbEntity
  8
_U+30EC_U+30A4_U+30E4_U+30FC 1
 62
   179
420
  2234388
370
     9
  0
INSERT
  5
7D
330
41
100
AcDbEntity
  8
_U+30EC_U+30A4_U+30E4_U+30FC 1
100
AcDbBlockReference
  2
block 4
 10
0.0
 20
0.0
 30
0.0
  0
SPLINE
  5
8F
330
41
100
AcDbEntity
  8
_U+30EC_U+30A4_U+30E4_U+30FC 1
 62
   179
420
  2234388
370
    25
100
AcDbSpline
210
0.0
220
0.0
230
1.0
 70
     8
 71
     3
 72
    14
 73
    10
 74
     0
 42
0.0000000001
 43
0.0000000001
 12
1.0
 22
0.0
 32
0.0
 13
1.0
 23
0.0
 33
0.0
 40
0.0
 40
0.0
 40
0.0
 40
0.0
 40
1.0
 40
1.0
 40
1.0
 40
2.0
 40
2.0
 40
2.0
 40
3.0
 40
3.0
 40
3.0
 40
3.0
 10
81.24793042719261
 20
-134.7218469107638
 30
0.0
 10
81.24793042719261
 20
-134.7218469107638
 30
0.0
 10
81.95002874261392
 20
-110.4933513612655
 30
0.0
 10
81.95002874261392
 20
-110.4933513612655
 30
0.0
 10
81.95002874261392
 20
-110.4933513612655
 30
0.0
 10
82.16568179266771
 20
-109.9648549725088
 30
0.0
 10
82.48265261791444
 20
-110.5036877501519
 30
0.0
 10
82.48265261791444
 20
-110.5036877501519
 30
0.0
 10
81.9300615209011
 20
-135.3908899661524
 30
0.0
 10
81.9300615209011
 20
-135.3908899661524
 30
0.0
  0
SPLINE
  5
90
330
41
100
AcDbEntity
  8
_U+30EC_U+30A4_U+30E4_U+30FC 1
 62
   179
420
  2234388
370
    25
100
AcDbSpline
210
0.0
220
0.0
230
1.0
 70
     8
 71
     3
 72
    14
 73
    10
 74
     0
 42
0.0000000001
 43
0.0000000001
 12
1.0
 22
0.0
 32
0.0
 13
1.0
 23
0.0
 33
0.0
 40
0.0
 40
0.0
 40
0.0
 40
0.0
 40
1.0
 40
1.0
 40
1.0
 40
2.0
 40
2.0
 40
2.0
 40
3.0
 40
3.0
 40
3.0
 40
3.0
 10
84.13217090916505
 20
-137.3187499656703
 30
0.0
 10
84.13217090916505
 20
-137.3187499656703
 30
0.0
 10
109.4541358187035
 20
-137.1437369101584
 30
0.0
 10
109.4541358187035
 20
-137.1437369101584
 30
0.0
 10
109.4541358187035
 20
-137.1437369101584
 30
0.0
 10
109.40174832004
 20
-137.7163305211266
 30
0.0
 10
109.0731005506467
 20
-137.7500913544515
 30
0.0
 10
108.7451230590141
 20
-137.7845224655537
 30
0.0
 10
84.7653717263441
 20
-137.9919205210575
 30
0.0
 10
84.7653717263441
 20
-137.9919205210575
 30
0.0
  0
SPLINE
  5
91
330
41
100
AcDbEntity
  8
_U+30EC_U+30A4_U+30E4_U+30FC 1
 62
   179
420
  2234388
370
    25
100
AcDbSpline
210
0.0
220
0.0
230
1.0
 70
     8
 71
     3
 72
    14
 73
    10
 74
     0
 42
0.0000000001
 43
0.0000000001
 12
1.0
 22
0.0
 32
0.0
 13
1.0
 23
0.0
 33
0.0
 40
0.0
 40
0.0
 40
0.0
 40
0.0
 40
1.0
 40
1.0
 40
1.0
 40
2.0
 40
2.0
 40
2.0
 40
3.0
 40
3.0
 40
3.0
 40
3.0
 10
84.08874396582853
 20
-137.3683505212137
 30
0.0
 10
83.8358749790412
 20
-137.8927194099714
 30
0.0
 10
83.2943237083181
 20
-138.2489191321041
 30
0.0
 10
82.6748833126647
 20
-138.2365366321075
 30
0.0
 10
81.8274031901868
 20
-138.2192857987786
 30
0.0
 10
81.15490292956594
 20
-137.5178930211762
 30
0.0
 10
81.17211848468229
 20
-136.67108524361
 30
0.0
 10
81.1838307066057
 20
-136.1171182993043
 30
0.0
 10
81.48771347663079
 20
-135.6375521883126
 30
0.0
 10
81.93210763196001
 20
-135.3770963550447
 30
0.0
  0
SPLINE
  5
92
330
41
100
AcDbEntity
  8
_U+30EC_U+30A4_U+30E4_U+30FC 1
 62
   179
420
  2234388
370
    25
100
AcDbSpline
210
0.0
220
0.0
230
1.0
 70
     8
 71
     3
 72
    14
 73
    10
 74
     0
 42
0.0000000001
 43
0.0000000001
 12
1.0
 22
0.0
 32
0.0
 13
1.0
 23
0.0
 33
0.0
 40
0.0
 40
0.0
 40
0.0
 40
0.0
 40
1.0
 40
1.0
 40
1.0
 40
2.0
 40
2.0
 40
2.0
 40
3.0
 40
3.0
 40
3.0
 40
3.0
 10
81.25135237154976
 20
-134.8038324662992
 30
0.0
 10
80.62781766523523
 20
-135.2337627439693
 30
0.0
 10
80.21231600916889
 20
-135.9482788549019
 30
0.0
 10
80.19580600959009
 20
-136.7634071880317
 30
0.0
 10
80.16821878807168
 20
-138.1104185765835
 30
0.0
 10
81.23759403856742
 20
-139.2245613540827
 30
0.0
 10
82.5846053930912
 20
-139.252148576298
 30
0.0
 10
83.4996403697467
 20
-139.2714455207378
 30
0.0
 10
84.30785423801633
 20
-138.7829188541933
 30
0.0
 10
84.74057144919902
 20
-138.0456485765996
 30
0.0
  0
POLYLINE
  5
93
330
41
100
AcDbEntity
  8
_U+30EC_U+30A4_U+30E4_U+30FC 1
  6
AI-Linetype-1
 62
   154
420
    23468
370
    25
100
AcDb2dPolyline
 66
     1
 10
0.0
 20
0.0
 30
0.0
  0
VERTEX
  5
94
330
93
100
AcDbEntity
  8
_U+30EC_U+30A4_U+30E4_U+30FC 1
  6
AI-Linetype-1
 62
   154
420
    23468
370
    25
100
AcDbVertex
100
AcDb2dVertex
 10
83.0228259374668
 20
-110.6142483056798
 30
0.0
  0
VERTEX
  5
95
330
93
100
AcDbEntity
  8
_U+30EC_U+30A4_U+30E4_U+30FC 1
  6
AI-Linetype-1
 62
   154
420
    23468
370
    25
100
AcDbVertex
100
AcDb2dVertex
 10
83.0228259374668
 20
-120.6139813587354
 30
0.0
  0
SEQEND
  5
97
330
93
100
AcDbEntity
  8
_U+30EC_U+30A4_U+30E4_U+30FC 1
  6
AI-Linetype-1
 62
   154
420
    23468
370
    25
  0
POLYLINE
  5
98
330
41
100
AcDbEntity
  8
_U+30EC_U+30A4_U+30E4_U+30FC 1
  6
AI-Linetype-2
 62
   154
420
    23468
370
    25
100
AcDb2dPolyline
 66
     1
 10
0.0
 20
0.0
 30
0.0
  0
VERTEX
  5
99
330
98
100
AcDbEntity
  8
_U+30EC_U+30A4_U+30E4_U+30FC 1
  6
AI-Linetype-2
 62
   154
420
    23468
370
    25
100
AcDbVertex
100
AcDb2dVertex
 10
99.45440553069184
 20
-136.6448738547276
 30
0.0
  0
VERTEX
  5
9A
330
98
100
AcDbEntity
  8
_U+30EC_U+30A4_U+30E4_U+30FC 1
  6
AI-Linetype-2
 62
   154
420
    23468
370
    25
100
AcDbVertex
100
AcDb2dVertex
 10
109.4541358187035
 20
-136.6448738547276
 30
0.0
  0
SEQEND
  5
9C
330
98
100
AcDbEntity
  8
_U+30EC_U+30A4_U+30E4_U+30FC 1
  6
AI-Linetype-2
 62
   154
420
    23468
370
    25
  0
INSERT
  5
9E
330
41
100
AcDbEntity
  8
_U+30EC_U+30A4_U+30E4_U+30FC 1
100
AcDbBlockReference
  2
block 5
 10
0.0
 20
0.0
 30
0.0
  0
INSERT
  5
AE
330
41
100
AcDbEntity
  8
_U+30EC_U+30A4_U+30E4_U+30FC 1
100
AcDbBlockReference
  2
block 6
 10
0.0
 20
0.0
 30
0.0
  0
INSERT
  5
D6
330
41
100
AcDbEntity
  8
_U+30EC_U+30A4_U+30E4_U+30FC 1
100
AcDbBlockReference
  2
block 7
 10
0.0
 20
0.0
 30
0.0
  0
ENDBLK
  5
44
330
41
100
AcDbEntity
  8
0
100
AcDbBlockEnd
  0
BLOCK
  5
68
330
66
100
AcDbEntity
  8
0
100
AcDbBlockBegin
  2
block 3
 70
     0
 10
0.0
 20
0.0
 30
0.0
  3
block 3
  1

  0
SPLINE
  5
6A
330
66
100
AcDbEntity
  8
_U+30EC_U+30A4_U+30E4_U+30FC 1
370
     0
100
AcDbSpline
210
0.0
220
0.0
230
1.0
 70
    11
 71
     3
 72
    44
 73
    40
 74
     0
 42
0.0000000001
 43
0.0000000001
 12
1.0
 22
0.0
 32
0.0
 13
1.0
 23
0.0
 33
0.0
 40
0.0
 40
0.0
 40
0.0
 40
0.0
 40
1.0
 40
1.0
 40
1.0
 40
2.0
 40
2.0
 40
2.0
 40
3.0
 40
3.0
 40
3.0
 40
4.0
 40
4.0
 40
4.0
 40
5.0
 40
5.0
 40
5.0
 40
6.0
 40
6.0
 40
6.0
 40
7.0
 40
7.0
 40
7.0
 40
8.0
 40
8.0
 40
8.0
 40
9.0
 40
9.0
 40
9.0
 40
10.0
 40
10.0
 40
10.0
 40
11.0
 40
11.0
 40
11.0
 40
12.0
 40
12.0
 40
12.0
 40
13.0
 40
13.0
 40
13.0
 40
13.0
 10
96.37034502799075
 20
-142.5725205806763
 30
0.0
 10
96.13745657318786
 20
-142.7313394825463
 30
0.0
 10
96.03823782321267
 20
-142.8054090354792
 30
0.0
 10
95.98621688138539
 20
-142.9494140267626
 30
0.0
 10
95.98621688138539
 20
-142.9494140267626
 30
0.0
 10
96.81820744107323
 20
-142.9494140267626
 30
0.0
 10
96.81820744107323
 20
-142.9494140267626
 30
0.0
 10
96.81820744107323
 20
-142.9494140267626
 30
0.0
 10
96.81820744107323
 20
-143.154397208135
 30
0.0
 10
96.81820744107323
 20
-143.154397208135
 30
0.0
 10
96.81820744107323
 20
-143.154397208135
 30
0.0
 10
95.71922198127854
 20
-143.154397208135
 30
0.0
 10
95.71922198127854
 20
-143.154397208135
 30
0.0
 10
95.7533284265825
 20
-142.7967962967661
 30
0.0
 10
95.82326386493308
 20
-142.7185926292509
 30
0.0
 10
96.23495277542044
 20
-142.4202473602283
 30
0.0
 10
96.50849335694927
 20
-142.2214653507294
 30
0.0
 10
96.57842879529984
 20
-142.1535969696699
 30
0.0
 10
96.57842879529984
 20
-142.016482169357
 30
0.0
 10
96.57842879529984
 20
-141.8979708846644
 30
0.0
 10
96.50160316597876
 20
-141.7667127466764
 30
0.0
 10
96.29145234137853
 20
-141.7667127466764
 30
0.0
 10
96.01308862617034
 20
-141.7667127466764
 30
0.0
 10
96.00413137790869
 20
-141.9971896346396
 30
0.0
 10
95.99965275377787
 20
-142.113633862041
 30
0.0
 10
95.99965275377787
 20
-142.113633862041
 30
0.0
 10
95.75987410800448
 20
-142.113633862041
 30
0.0
 10
95.75987410800448
 20
-142.113633862041
 30
0.0
 10
95.76917586581466
 20
-141.9868543481838
 30
0.0
 10
95.78054468091598
 20
-141.8745442353647
 30
0.0
 10
95.8663275584987
 20
-141.7560329506721
 30
0.0
 10
95.98380531454572
 20
-141.5954915010595
 30
0.0
 10
96.18293183359316
 20
-141.5613850557555
 30
0.0
 10
96.30729978061068
 20
-141.5613850557555
 30
0.0
 10
96.60323348279364
 20
-141.5613850557555
 30
0.0
 10
96.82475312249521
 20
-141.7456976642164
 30
0.0
 10
96.82475312249521
 20
-142.0185492266481
 30
0.0
 10
96.82475312249521
 20
-142.2466145477717
 30
0.0
 10
96.70038517547769
 20
-142.3465223168439
 30
0.0
 10
96.37034502799075
 20
-142.5725205806763
 30
0.0
  0
HATCH
  5
6B
330
66
100
AcDbEntity
  8
_U+30EC_U+30A4_U+30E4_U+30FC 1
 62
   179
420
  2234388
100
AcDbHatch
 10
0.0
 20
0.0
 30
0.0
210
0.0
220
0.0
230
1.0
  2
SOLID
 70
     1
 71
     0
 91
        1
 92
        1
 93
        1
 72
     4
 94
        3
 73
     0
 74
     1
 95
       44
 96
       40
 40
0.0
 40
0.0
 40
0.0
 40
0.0
 40
1.0
 40
1.0
 40
1.0
 40
2.0
 40
2.0
 40
2.0
 40
3.0
 40
3.0
 40
3.0
 40
4.0
 40
4.0
 40
4.0
 40
5.0
 40
5.0
 40
5.0
 40
6.0
 40
6.0
 40
6.0
 40
7.0
 40
7.0
 40
7.0
 40
8.0
 40
8.0
 40
8.0
 40
9.0
 40
9.0
 40
9.0
 40
10.0
 40
10.0
 40
10.0
 40
11.0
 40
11.0
 40
11.0
 40
12.0
 40
12.0
 40
12.0
 40
13.0
 40
13.0
 40
13.0
 40
13.0
 10
96.37034502799075
 20
-142.5725205806763
 10
96.13745657318786
 20
-142.7313394825463
 10
96.03823782321267
 20
-142.8054090354792
 10
95.98621688138539
 20
-142.9494140267626
 10
95.98621688138539
 20
-142.9494140267626
 10
96.81820744107323
 20
-142.9494140267626
 10
96.81820744107323
 20
-142.9494140267626
 10
96.81820744107323
 20
-142.9494140267626
 10
96.81820744107323
 20
-143.154397208135
 10
96.81820744107323
 20
-143.154397208135
 10
96.81820744107323
 20
-143.154397208135
 10
95.71922198127854
 20
-143.154397208135
 10
95.71922198127854
 20
-143.154397208135
 10
95.7533284265825
 20
-142.7967962967661
 10
95.82326386493308
 20
-142.7185926292509
 10
96.23495277542044
 20
-142.4202473602283
 10
96.50849335694927
 20
-142.2214653507294
 10
96.57842879529984
 20
-142.1535969696699
 10
96.57842879529984
 20
-142.016482169357
 10
96.57842879529984
 20
-141.8979708846644
 10
96.50160316597876
 20
-141.7667127466764
 10
96.29145234137853
 20
-141.7667127466764
 10
96.01308862617034
 20
-141.7667127466764
 10
96.00413137790869
 20
-141.9971896346396
 10
95.99965275377787
 20
-142.113633862041
 10
95.99965275377787
 20
-142.113633862041
 10
95.75987410800448
 20
-142.113633862041
 10
95.75987410800448
 20
-142.113633862041
 10
95.76917586581466
 20
-141.9868543481838
 10
95.78054468091598
 20
-141.8745442353647
 10
95.8663275584987
 20
-141.7560329506721
 10
95.98380531454572
 20
-141.5954915010595
 10
96.18293183359316
 20
-141.5613850557555
 10
96.30729978061068
 20
-141.5613850557555
 10
96.60323348279364
 20
-141.5613850557555
 10
96.82475312249521
 20
-141.7456976642164
 10
96.82475312249521
 20
-142.0185492266481
 10
96.82475312249521
 20
-142.2466145477717
 10
96.70038517547769
 20
-142.3465223168439
 10
96.37034502799075
 20
-142.5725205806763
 97
        0
 97
        0
 75
     2
 76
     1
 98
        0
  0
SPLINE
  5
6C
330
66
100
AcDbEntity
  8
_U+30EC_U+30A4_U+30E4_U+30FC 1
370
     0
100
AcDbSpline
210
0.0
220
0.0
230
1.0
 70
    11
 71
     3
 72
    29
 73
    25
 74
     0
 42
0.0000000001
 43
0.0000000001
 12
1.0
 22
0.0
 32
0.0
 13
1.0
 23
0.0
 33
0.0
 40
0.0
 40
0.0
 40
0.0
 40
0.0
 40
1.0
 40
1.0
 40
1.0
 40
2.0
 40
2.0
 40
2.0
 40
3.0
 40
3.0
 40
3.0
 40
4.0
 40
4.0
 40
4.0
 40
5.0
 40
5.0
 40
5.0
 40
6.0
 40
6.0
 40
6.0
 40
7.0
 40
7.0
 40
7.0
 40
8.0
 40
8.0
 40
8.0
 40
8.0
 10
97.52893063968027
 20
-143.2050401117682
 30
0.0
 10
97.24402124305011
 20
-143.2050401117682
 30
0.0
 10
96.97254771881242
 20
-143.0675808019067
 30
0.0
 10
96.97254771881242
 20
-142.7185926292509
 30
0.0
 10
96.97254771881242
 20
-142.4626220346969
 30
0.0
 10
97.12413192016342
 20
-142.3671928897554
 30
0.0
 10
97.2371310520796
 20
-142.305870190118
 30
0.0
 10
97.10380585680045
 20
-142.2466145477717
 30
0.0
 10
97.02250160334854
 20
-142.1325818872099
 30
0.0
 10
97.02250160334854
 20
-141.9716959280487
 30
0.0
 10
97.02250160334854
 20
-141.6967773083258
 30
0.0
 10
97.23471948523994
 20
-141.5613850557555
 30
0.0
 10
97.52893063968027
 20
-141.5613850557555
 30
0.0
 10
97.83175453283373
 20
-141.5613850557555
 30
0.0
 10
98.03535967601199
 20
-141.7050455374904
 30
0.0
 10
98.03535967601199
 20
-141.9716959280487
 30
0.0
 10
98.03535967601199
 20
-142.1325818872099
 30
0.0
 10
97.95164385572043
 20
-142.2466145477717
 30
0.0
 10
97.81831866044126
 20
-142.305870190118
 30
0.0
 10
97.91305878628563
 20
-142.3568576032997
 30
0.0
 10
98.08255748415992
 20
-142.4519422386926
 30
0.0
 10
98.08255748415992
 20
-142.7144585146686
 30
0.0
 10
98.08255748415992
 20
-143.0885958843668
 30
0.0
 10
97.78421221513729
 20
-143.2050401117682
 30
0.0
 10
97.52893063968027
 20
-143.2050401117682
 30
0.0
  0
SPLINE
  5
6D
330
66
100
AcDbEntity
  8
_U+30EC_U+30A4_U+30E4_U+30FC 1
370
     0
100
AcDbSpline
210
0.0
220
0.0
230
1.0
 70
    11
 71
     3
 72
    17
 73
    13
 74
     0
 42
0.0000000001
 43
0.0000000001
 12
1.0
 22
0.0
 32
0.0
 13
1.0
 23
0.0
 33
0.0
 40
0.0
 40
0.0
 40
0.0
 40
0.0
 40
1.0
 40
1.0
 40
1.0
 40
2.0
 40
2.0
 40
2.0
 40
3.0
 40
3.0
 40
3.0
 40
4.0
 40
4.0
 40
4.0
 40
4.0
 10
97.52893063968027
 20
-142.4140461883548
 30
0.0
 10
97.3749348714896
 20
-142.4140461883548
 30
0.0
 10
97.2123263645858
 20
-142.5008625945831
 30
0.0
 10
97.2123263645858
 20
-142.7037787186644
 30
0.0
 10
97.2123263645858
 20
-142.9087619000367
 30
0.0
 10
97.34806312670466
 20
-143.0107367264001
 30
0.0
 10
97.52893063968027
 20
-143.0107367264001
 30
0.0
 10
97.72771264917918
 20
-143.0107367264001
 30
0.0
 10
97.8451904052262
 20
-142.8880913271252
 30
0.0
 10
97.8451904052262
 20
-142.7103244000863
 30
0.0
 10
97.8451904052262
 20
-142.4877712317392
 30
0.0
 10
97.67121308322109
 20
-142.4140461883548
 30
0.0
 10
97.52893063968027
 20
-142.4140461883548
 30
0.0
  0
SPLINE
  5
6E
330
66
100
AcDbEntity
  8
_U+30EC_U+30A4_U+30E4_U+30FC 1
370
     0
100
AcDbSpline
210
0.0
220
0.0
230
1.0
 70
    11
 71
     3
 72
    17
 73
    13
 74
     0
 42
0.0000000001
 43
0.0000000001
 12
1.0
 22
0.0
 32
0.0
 13
1.0
 23
0.0
 33
0.0
 40
0.0
 40
0.0
 40
0.0
 40
0.0
 40
1.0
 40
1.0
 40
1.0
 40
2.0
 40
2.0
 40
2.0
 40
3.0
 40
3.0
 40
3.0
 40
4.0
 40
4.0
 40
4.0
 40
4.0
 10
97.52893063968027
 20
-141.753965893381
 30
0.0
 10
97.35254175083548
 20
-141.753965893381
 30
0.0
 10
97.2619357395734
 20
-141.8490505287739
 30
0.0
 10
97.2619357395734
 20
-141.9844427813442
 30
0.0
 10
97.2619357395734
 20
-142.1074326901676
 30
0.0
 10
97.33876136889448
 20
-142.2259439748602
 30
0.0
 10
97.52893063968027
 20
-142.2259439748602
 30
0.0
 10
97.71875540091754
 20
-142.2259439748602
 30
0.0
 10
97.79558103023861
 20
-142.1074326901676
 30
0.0
 10
97.79558103023861
 20
-141.9844427813442
 30
0.0
 10
97.79558103023861
 20
-141.8490505287739
 30
0.0
 10
97.70290796168538
 20
-141.753965893381
 30
0.0
 10
97.52893063968027
 20
-141.753965893381
 30
0.0
  0
HATCH
  5
6F
330
66
100
AcDbEntity
  8
_U+30EC_U+30A4_U+30E4_U+30FC 1
 62
   179
420
  2234388
100
AcDbHatch
 10
0.0
 20
0.0
 30
0.0
210
0.0
220
0.0
230
1.0
  2
SOLID
 70
     1
 71
     0
 91
        3
 92
        1
 93
        1
 72
     4
 94
        3
 73
     0
 74
     1
 95
       29
 96
       25
 40
0.0
 40
0.0
 40
0.0
 40
0.0
 40
1.0
 40
1.0
 40
1.0
 40
2.0
 40
2.0
 40
2.0
 40
3.0
 40
3.0
 40
3.0
 40
4.0
 40
4.0
 40
4.0
 40
5.0
 40
5.0
 40
5.0
 40
6.0
 40
6.0
 40
6.0
 40
7.0
 40
7.0
 40
7.0
 40
8.0
 40
8.0
 40
8.0
 40
8.0
 10
97.52893063968027
 20
-143.2050401117682
 10
97.24402124305011
 20
-143.2050401117682
 10
96.97254771881242
 20
-143.0675808019067
 10
96.97254771881242
 20
-142.7185926292509
 10
96.97254771881242
 20
-142.4626220346969
 10
97.12413192016342
 20
-142.3671928897554
 10
97.2371310520796
 20
-142.305870190118
 10
97.10380585680045
 20
-142.2466145477717
 10
97.02250160334854
 20
-142.1325818872099
 10
97.02250160334854
 20
-141.9716959280487
 10
97.02250160334854
 20
-141.6967773083258
 10
97.23471948523994
 20
-141.5613850557555
 10
97.52893063968027
 20
-141.5613850557555
 10
97.83175453283373
 20
-141.5613850557555
 10
98.03535967601199
 20
-141.7050455374904
 10
98.03535967601199
 20
-141.9716959280487
 10
98.03535967601199
 20
-142.1325818872099
 10
97.95164385572043
 20
-142.2466145477717
 10
97.81831866044126
 20
-142.305870190118
 10
97.91305878628563
 20
-142.3568576032997
 10
98.08255748415992
 20
-142.4519422386926
 10
98.08255748415992
 20
-142.7144585146686
 10
98.08255748415992
 20
-143.0885958843668
 10
97.78421221513729
 20
-143.2050401117682
 10
97.52893063968027
 20
-143.2050401117682
 97
        0
 97
        0
 92
        1
 93
        1
 72
     4
 94
        3
 73
     0
 74
     1
 95
       17
 96
       13
 40
0.0
 40
0.0
 40
0.0
 40
0.0
 40
1.0
 40
1.0
 40
1.0
 40
2.0
 40
2.0
 40
2.0
 40
3.0
 40
3.0
 40
3.0
 40
4.0
 40
4.0
 40
4.0
 40
4.0
 10
97.52893063968027
 20
-142.4140461883548
 10
97.3749348714896
 20
-142.4140461883548
 10
97.2123263645858
 20
-142.5008625945831
 10
97.2123263645858
 20
-142.7037787186644
 10
97.2123263645858
 20
-142.9087619000367
 10
97.34806312670466
 20
-143.0107367264001
 10
97.52893063968027
 20
-143.0107367264001
 10
97.72771264917918
 20
-143.0107367264001
 10
97.8451904052262
 20
-142.8880913271252
 10
97.8451904052262
 20
-142.7103244000863
 10
97.8451904052262
 20
-142.4877712317392
 10
97.67121308322109
 20
-142.4140461883548
 10
97.52893063968027
 20
-142.4140461883548
 97
        0
 97
        0
 92
        1
 93
        1
 72
     4
 94
        3
 73
     0
 74
     1
 95
       17
 96
       13
 40
0.0
 40
0.0
 40
0.0
 40
0.0
 40
1.0
 40
1.0
 40
1.0
 40
2.0
 40
2.0
 40
2.0
 40
3.0
 40
3.0
 40
3.0
 40
4.0
 40
4.0
 40
4.0
 40
4.0
 10
97.52893063968027
 20
-141.753965893381
 10
97.35254175083548
 20
-141.753965893381
 10
97.2619357395734
 20
-141.8490505287739
 10
97.2619357395734
 20
-141.9844427813442
 10
97.2619357395734
 20
-142.1074326901676
 10
97.33876136889448
 20
-142.2259439748602
 10
97.52893063968027
 20
-142.2259439748602
 10
97.71875540091754
 20
-142.2259439748602
 10
97.79558103023861
 20
-142.1074326901676
 10
97.79558103023861
 20
-141.9844427813442
 10
97.79558103023861
 20
-141.8490505287739
 10
97.70290796168538
 20
-141.753965893381
 10
97.52893063968027
 20
-141.753965893381
 97
        0
 97
        0
 75
     2
 76
     1
 98
        0
  0
ENDBLK
  5
69
330
66
100
AcDbEntity
  8
0
100
AcDbBlockEnd
  0
BLOCK
  5
7E
330
7C
100
AcDbEntity
  8
0
100
AcDbBlockBegin
  2
block 4
 70
     0
 10
0.0
 20
0.0
 30
0.0
  3
block 4
  1

  0
SPLINE
  5
80
330
7C
100
AcDbEntity
  8
_U+30EC_U+30A4_U+30E4_U+30FC 1
370
     0
100
AcDbSpline
210
0.0
220
0.0
230
1.0
 70
    11
 71
     3
 72
    44
 73
    40
 74
     0
 42
0.0000000001
 43
0.0000000001
 12
1.0
 22
0.0
 32
0.0
 13
1.0
 23
0.0
 33
0.0
 40
0.0
 40
0.0
 40
0.0
 40
0.0
 40
1.0
 40
1.0
 40
1.0
 40
2.0
 40
2.0
 40
2.0
 40
3.0
 40
3.0
 40
3.0
 40
4.0
 40
4.0
 40
4.0
 40
5.0
 40
5.0
 40
5.0
 40
6.0
 40
6.0
 40
6.0
 40
7.0
 40
7.0
 40
7.0
 40
8.0
 40
8.0
 40
8.0
 40
9.0
 40
9.0
 40
9.0
 40
10.0
 40
10.0
 40
10.0
 40
11.0
 40
11.0
 40
11.0
 40
12.0
 40
12.0
 40
12.0
 40
13.0
 40
13.0
 40
13.0
 40
13.0
 10
73.13851587798274
 20
-146.1195908922896
 30
0.0
 10
73.11543373823156
 20
-146.0751491605298
 30
0.0
 10
73.09407414622301
 20
-146.0224391996055
 30
0.0
 10
73.09200708893187
 20
-145.7916178020938
 30
0.0
 10
73.08787297434957
 20
-145.5483940608351
 30
0.0
 10
73.02861733200326
 20
-145.4788031320331
 30
0.0
 10
72.85085040496438
 20
-145.4788031320331
 30
0.0
 10
72.85085040496438
 20
-145.4788031320331
 30
0.0
 10
72.44260658996227
 20
-145.4788031320331
 30
0.0
 10
72.44260658996227
 20
-145.4788031320331
 30
0.0
 10
72.44260658996227
 20
-145.4788031320331
 30
0.0
 10
72.44260658996227
 20
-146.1195908922896
 30
0.0
 10
72.44260658996227
 20
-146.1195908922896
 30
0.0
 10
72.44260658996227
 20
-146.1195908922896
 30
0.0
 10
72.20765107786823
 20
-146.1195908922896
 30
0.0
 10
72.20765107786823
 20
-146.1195908922896
 30
0.0
 10
72.20765107786823
 20
-146.1195908922896
 30
0.0
 10
72.20765107786823
 20
-144.5754990958006
 30
0.0
 10
72.20765107786823
 20
-144.5754990958006
 30
0.0
 10
72.20765107786823
 20
-144.5754990958006
 30
0.0
 10
72.88254528342867
 20
-144.5754990958006
 30
0.0
 10
72.88254528342867
 20
-144.5754990958006
 30
0.0
 10
73.18950329116443
 20
-144.5754990958006
 30
0.0
 10
73.35659042219905
 20
-144.7467203414175
 30
0.0
 10
73.35659042219905
 20
-145.0026909359715
 30
0.0
 10
73.35659042219905
 20
-145.0533338396047
 30
0.0
 10
73.34797768348592
 20
-145.1360161312507
 30
0.0
 10
73.3035359517262
 20
-145.2162868560571
 30
0.0
 10
73.2442803093799
 20
-145.3199842301631
 30
0.0
 10
73.17882349516016
 20
-145.3389322553319
 30
0.0
 10
73.11750079552272
 20
-145.3558132232097
 30
0.0
 10
73.25496010538419
 20
-145.3981878976782
 30
0.0
 10
73.32248397689507
 20
-145.4471082535688
 30
0.0
 10
73.3269626010259
 20
-145.7619899809206
 30
0.0
 10
73.3310967156082
 20
-146.0327744860613
 30
0.0
 10
73.3669257086548
 20
-146.0648138740741
 30
0.0
 10
73.43479408971422
 20
-146.1195908922896
 30
0.0
 10
73.43479408971422
 20
-146.1195908922896
 30
0.0
 10
73.13851587798274
 20
-146.1195908922896
 30
0.0
 10
73.13851587798274
 20
-146.1195908922896
 30
0.0
  0
SPLINE
  5
81
330
7C
100
AcDbEntity
  8
_U+30EC_U+30A4_U+30E4_U+30FC 1
370
     0
100
AcDbSpline
210
0.0
220
0.0
230
1.0
 70
    11
 71
     3
 72
    20
 73
    16
 74
     0
 42
0.0000000001
 43
0.0000000001
 12
1.0
 22
0.0
 32
0.0
 13
1.0
 23
0.0
 33
0.0
 40
0.0
 40
0.0
 40
0.0
 40
0.0
 40
1.0
 40
1.0
 40
1.0
 40
2.0
 40
2.0
 40
2.0
 40
3.0
 40
3.0
 40
3.0
 40
4.0
 40
4.0
 40
4.0
 40
5.0
 40
5.0
 40
5.0
 40
5.0
 10
72.8870239075595
 20
-144.7870279585949
 30
0.0
 10
72.8870239075595
 20
-144.7870279585949
 30
0.0
 10
72.44260658996227
 20
-144.7870279585949
 30
0.0
 10
72.44260658996227
 20
-144.7870279585949
 30
0.0
 10
72.44260658996227
 20
-144.7870279585949
 30
0.0
 10
72.44260658996227
 20
-145.2672742692388
 30
0.0
 10
72.44260658996227
 20
-145.2672742692388
 30
0.0
 10
72.44260658996227
 20
-145.2672742692388
 30
0.0
 10
72.88461234071983
 20
-145.2672742692388
 30
0.0
 10
72.88461234071983
 20
-145.2672742692388
 30
0.0
 10
72.98417560024355
 20
-145.2672742692388
 30
0.0
 10
73.11956785281386
 20
-145.1911376590147
 30
0.0
 10
73.11956785281386
 20
-145.0195719038493
 30
0.0
 10
73.11956785281386
 20
-144.9413682363341
 30
0.0
 10
73.08580591705841
 20
-144.7870279585949
 30
0.0
 10
72.8870239075595
 20
-144.7870279585949
 30
0.0
  0
HATCH
  5
82
330
7C
100
AcDbEntity
  8
_U+30EC_U+30A4_U+30E4_U+30FC 1
 62
   179
420
  2234388
100
AcDbHatch
 10
0.0
 20
0.0
 30
0.0
210
0.0
220
0.0
230
1.0
  2
SOLID
 70
     1
 71
     0
 91
        2
 92
        1
 93
        1
 72
     4
 94
        3
 73
     0
 74
     1
 95
       44
 96
       40
 40
0.0
 40
0.0
 40
0.0
 40
0.0
 40
1.0
 40
1.0
 40
1.0
 40
2.0
 40
2.0
 40
2.0
 40
3.0
 40
3.0
 40
3.0
 40
4.0
 40
4.0
 40
4.0
 40
5.0
 40
5.0
 40
5.0
 40
6.0
 40
6.0
 40
6.0
 40
7.0
 40
7.0
 40
7.0
 40
8.0
 40
8.0
 40
8.0
 40
9.0
 40
9.0
 40
9.0
 40
10.0
 40
10.0
 40
10.0
 40
11.0
 40
11.0
 40
11.0
 40
12.0
 40
12.0
 40
12.0
 40
13.0
 40
13.0
 40
13.0
 40
13.0
 10
73.13851587798274
 20
-146.1195908922896
 10
73.11543373823156
 20
-146.0751491605298
 10
73.09407414622301
 20
-146.0224391996055
 10
73.09200708893187
 20
-145.7916178020938
 10
73.08787297434957
 20
-145.5483940608351
 10
73.02861733200326
 20
-145.4788031320331
 10
72.85085040496438
 20
-145.4788031320331
 10
72.85085040496438
 20
-145.4788031320331
 10
72.44260658996227
 20
-145.4788031320331
 10
72.44260658996227
 20
-145.4788031320331
 10
72.44260658996227
 20
-145.4788031320331
 10
72.44260658996227
 20
-146.1195908922896
 10
72.44260658996227
 20
-146.1195908922896
 10
72.44260658996227
 20
-146.1195908922896
 10
72.20765107786823
 20
-146.1195908922896
 10
72.20765107786823
 20
-146.1195908922896
 10
72.20765107786823
 20
-146.1195908922896
 10
72.20765107786823
 20
-144.5754990958006
 10
72.20765107786823
 20
-144.5754990958006
 10
72.20765107786823
 20
-144.5754990958006
 10
72.88254528342867
 20
-144.5754990958006
 10
72.88254528342867
 20
-144.5754990958006
 10
73.18950329116443
 20
-144.5754990958006
 10
73.35659042219905
 20
-144.7467203414175
 10
73.35659042219905
 20
-145.0026909359715
 10
73.35659042219905
 20
-145.0533338396047
 10
73.34797768348592
 20
-145.1360161312507
 10
73.3035359517262
 20
-145.2162868560571
 10
73.2442803093799
 20
-145.3199842301631
 10
73.17882349516016
 20
-145.3389322553319
 10
73.11750079552272
 20
-145.3558132232097
 10
73.25496010538419
 20
-145.3981878976782
 10
73.32248397689507
 20
-145.4471082535688
 10
73.3269626010259
 20
-145.7619899809206
 10
73.3310967156082
 20
-146.0327744860613
 10
73.3669257086548
 20
-146.0648138740741
 10
73.43479408971422
 20
-146.1195908922896
 10
73.43479408971422
 20
-146.1195908922896
 10
73.13851587798274
 20
-146.1195908922896
 10
73.13851587798274
 20
-146.1195908922896
 97
        0
 97
        0
 92
        1
 93
        1
 72
     4
 94
        3
 73
     0
 74
     1
 95
       20
 96
       16
 40
0.0
 40
0.0
 40
0.0
 40
0.0
 40
1.0
 40
1.0
 40
1.0
 40
2.0
 40
2.0
 40
2.0
 40
3.0
 40
3.0
 40
3.0
 40
4.0
 40
4.0
 40
4.0
 40
5.0
 40
5.0
 40
5.0
 40
5.0
 10
72.8870239075595
 20
-144.7870279585949
 10
72.8870239075595
 20
-144.7870279585949
 10
72.44260658996227
 20
-144.7870279585949
 10
72.44260658996227
 20
-144.7870279585949
 10
72.44260658996227
 20
-144.7870279585949
 10
72.44260658996227
 20
-145.2672742692388
 10
72.44260658996227
 20
-145.2672742692388
 10
72.44260658996227
 20
-145.2672742692388
 10
72.88461234071983
 20
-145.2672742692388
 10
72.88461234071983
 20
-145.2672742692388
 10
72.98417560024355
 20
-145.2672742692388
 10
73.11956785281386
 20
-145.1911376590147
 10
73.11956785281386
 20
-145.0195719038493
 10
73.11956785281386
 20
-144.9413682363341
 10
73.08580591705841
 20
-144.7870279585949
 10
72.8870239075595
 20
-144.7870279585949
 97
        0
 97
        0
 75
     2
 76
     1
 98
        0
  0
SPLINE
  5
83
330
7C
100
AcDbEntity
  8
_U+30EC_U+30A4_U+30E4_U+30FC 1
370
     0
100
AcDbSpline
210
0.0
220
0.0
230
1.0
 70
    11
 71
     3
 72
    44
 73
    40
 74
     0
 42
0.0000000001
 43
0.0000000001
 12
1.0
 22
0.0
 32
0.0
 13
1.0
 23
0.0
 33
0.0
 40
0.0
 40
0.0
 40
0.0
 40
0.0
 40
1.0
 40
1.0
 40
1.0
 40
2.0
 40
2.0
 40
2.0
 40
3.0
 40
3.0
 40
3.0
 40
4.0
 40
4.0
 40
4.0
 40
5.0
 40
5.0
 40
5.0
 40
6.0
 40
6.0
 40
6.0
 40
7.0
 40
7.0
 40
7.0
 40
8.0
 40
8.0
 40
8.0
 40
9.0
 40
9.0
 40
9.0
 40
10.0
 40
10.0
 40
10.0
 40
11.0
 40
11.0
 40
11.0
 40
12.0
 40
12.0
 40
12.0
 40
13.0
 40
13.0
 40
13.0
 40
13.0
 10
74.16756589942686
 20
-145.5380587743794
 30
0.0
 10
73.94983586475907
 20
-145.6965331667009
 30
0.0
 10
73.85681828665733
 20
-145.7706027196338
 30
0.0
 10
73.80789793076679
 20
-145.9146077109172
 30
0.0
 10
73.80789793076679
 20
-145.9146077109172
 30
0.0
 10
74.58648951043324
 20
-145.9146077109172
 30
0.0
 10
74.58648951043324
 20
-145.9146077109172
 30
0.0
 10
74.58648951043324
 20
-145.9146077109172
 30
0.0
 10
74.58648951043324
 20
-146.1195908922896
 30
0.0
 10
74.58648951043324
 20
-146.1195908922896
 30
0.0
 10
74.58648951043324
 20
-146.1195908922896
 30
0.0
 10
73.5584730176347
 20
-146.1195908922896
 30
0.0
 10
73.5584730176347
 20
-146.1195908922896
 30
0.0
 10
73.59016789609899
 20
-145.7619899809206
 30
0.0
 10
73.65562471031873
 20
-145.6837863134054
 30
0.0
 10
74.04078638556967
 20
-145.3854410443828
 30
0.0
 10
74.29675698012373
 20
-145.1866590348839
 30
0.0
 10
74.36221379434348
 20
-145.119135163373
 30
0.0
 10
74.36221379434348
 20
-144.9816758535115
 30
0.0
 10
74.36221379434348
 20
-144.8631645688189
 30
0.0
 10
74.29021129870176
 20
-144.7319064308309
 30
0.0
 10
74.09349634649399
 20
-144.7319064308309
 30
0.0
 10
73.83339163735762
 20
-144.7319064308309
 30
0.0
 10
73.82477889864451
 20
-144.9623833187941
 30
0.0
 10
73.8206447840622
 20
-145.0788275461956
 30
0.0
 10
73.8206447840622
 20
-145.0788275461956
 30
0.0
 10
73.59636906797243
 20
-145.0788275461956
 30
0.0
 10
73.59636906797243
 20
-145.0788275461956
 30
0.0
 10
73.60498180668556
 20
-144.9520480323384
 30
0.0
 10
73.61566160268984
 20
-144.8397379195193
 30
0.0
 10
73.69593232749617
 20
-144.7212266348266
 30
0.0
 10
73.80583087347563
 20
-144.560685185214
 30
0.0
 10
73.99221053922764
 20
-144.52657873991
 30
0.0
 10
74.10831025708056
 20
-144.52657873991
 30
0.0
 10
74.38564044364318
 20
-144.52657873991
 30
0.0
 10
74.59303519185522
 20
-144.7108913483709
 30
0.0
 10
74.59303519185522
 20
-144.9837429108027
 30
0.0
 10
74.59303519185522
 20
-145.2121527414747
 30
0.0
 10
74.47659096445378
 20
-145.3117160009985
 30
0.0
 10
74.16756589942686
 20
-145.5380587743794
 30
0.0
  0
HATCH
  5
84
330
7C
100
AcDbEntity
  8
_U+30EC_U+30A4_U+30E4_U+30FC 1
 62
   179
420
  2234388
100
AcDbHatch
 10
0.0
 20
0.0
 30
0.0
210
0.0
220
0.0
230
1.0
  2
SOLID
 70
     1
 71
     0
 91
        1
 92
        1
 93
        1
 72
     4
 94
        3
 73
     0
 74
     1
 95
       44
 96
       40
 40
0.0
 40
0.0
 40
0.0
 40
0.0
 40
1.0
 40
1.0
 40
1.0
 40
2.0
 40
2.0
 40
2.0
 40
3.0
 40
3.0
 40
3.0
 40
4.0
 40
4.0
 40
4.0
 40
5.0
 40
5.0
 40
5.0
 40
6.0
 40
6.0
 40
6.0
 40
7.0
 40
7.0
 40
7.0
 40
8.0
 40
8.0
 40
8.0
 40
9.0
 40
9.0
 40
9.0
 40
10.0
 40
10.0
 40
10.0
 40
11.0
 40
11.0
 40
11.0
 40
12.0
 40
12.0
 40
12.0
 40
13.0
 40
13.0
 40
13.0
 40
13.0
 10
74.16756589942686
 20
-145.5380587743794
 10
73.94983586475907
 20
-145.6965331667009
 10
73.85681828665733
 20
-145.7706027196338
 10
73.80789793076679
 20
-145.9146077109172
 10
73.80789793076679
 20
-145.9146077109172
 10
74.58648951043324
 20
-145.9146077109172
 10
74.58648951043324
 20
-145.9146077109172
 10
74.58648951043324
 20
-145.9146077109172
 10
74.58648951043324
 20
-146.1195908922896
 10
74.58648951043324
 20
-146.1195908922896
 10
74.58648951043324
 20
-146.1195908922896
 10
73.5584730176347
 20
-146.1195908922896
 10
73.5584730176347
 20
-146.1195908922896
 10
73.59016789609899
 20
-145.7619899809206
 10
73.65562471031873
 20
-145.6837863134054
 10
74.04078638556967
 20
-145.3854410443828
 10
74.29675698012373
 20
-145.1866590348839
 10
74.36221379434348
 20
-145.119135163373
 10
74.36221379434348
 20
-144.9816758535115
 10
74.36221379434348
 20
-144.8631645688189
 10
74.29021129870176
 20
-144.7319064308309
 10
74.09349634649399
 20
-144.7319064308309
 10
73.83339163735762
 20
-144.7319064308309
 10
73.82477889864451
 20
-144.9623833187941
 10
73.8206447840622
 20
-145.0788275461956
 10
73.8206447840622
 20
-145.0788275461956
 10
73.59636906797243
 20
-145.0788275461956
 10
73.59636906797243
 20
-145.0788275461956
 10
73.60498180668556
 20
-144.9520480323384
 10
73.61566160268984
 20
-144.8397379195193
 10
73.69593232749617
 20
-144.7212266348266
 10
73.80583087347563
 20
-144.560685185214
 10
73.99221053922764
 20
-144.52657873991
 10
74.10831025708056
 20
-144.52657873991
 10
74.38564044364318
 20
-144.52657873991
 10
74.59303519185522
 20
-144.7108913483709
 10
74.59303519185522
 20
-144.9837429108027
 10
74.59303519185522
 20
-145.2121527414747
 10
74.47659096445378
 20
-145.3117160009985
 10
74.16756589942686
 20
-145.5380587743794
 97
        0
 97
        0
 75
     2
 76
     1
 98
        0
  0
POLYLINE
  5
85
330
7C
100
AcDbEntity
  8
_U+30EC_U+30A4_U+30E4_U+30FC 1
370
     0
100
AcDb2dPolyline
 66
     1
 10
0.0
 20
0.0
 30
0.0
  0
VERTEX
  5
86
330
85
100
AcDbEntity
  8
_U+30EC_U+30A4_U+30E4_U+30FC 1
370
     0
100
AcDbVertex
100
AcDb2dVertex
 10
74.81145424562006
 20
-146.1195908922896
 30
0.0
  0
VERTEX
  5
87
330
85
100
AcDbEntity
  8
_U+30EC_U+30A4_U+30E4_U+30FC 1
370
     0
100
AcDbVertex
100
AcDb2dVertex
 10
74.81145424562006
 20
-145.8680989218663
 30
0.0
  0
VERTEX
  5
88
330
85
100
AcDbEntity
  8
_U+30EC_U+30A4_U+30E4_U+30FC 1
370
     0
100
AcDbVertex
100
AcDb2dVertex
 10
75.06329072559181
 20
-145.8680989218663
 30
0.0
  0
VERTEX
  5
89
330
85
100
AcDbEntity
  8
_U+30EC_U+30A4_U+30E4_U+30FC 1
370
     0
100
AcDbVertex
100
AcDb2dVertex
 10
75.06329072559181
 20
-146.1195908922896
 30
0.0
  0
VERTEX
  5
8A
330
85
100
AcDbEntity
  8
_U+30EC_U+30A4_U+30E4_U+30FC 1
370
     0
100
AcDbVertex
100
AcDb2dVertex
 10
74.81145424562006
 20
-146.1195908922896
 30
0.0
  0
SEQEND
  5
8B
330
85
100
AcDbEntity
  8
_U+30EC_U+30A4_U+30E4_U+30FC 1
370
     0
  0
HATCH
  5
8C
330
7C
100
AcDbEntity
  8
_U+30EC_U+30A4_U+30E4_U+30FC 1
 62
   179
420
  2234388
100
AcDbHatch
 10
0.0
 20
0.0
 30
0.0
210
0.0
220
0.0
230
1.0
  2
SOLID
 70
     1
 71
     0
 91
        1
 92
        1
 93
        4
 72
     1
 10
74.81145424562006
 20
-146.1195908922896
 11
74.81145424562006
 21
-145.8680989218663
 72
     1
 10
74.81145424562006
 20
-145.8680989218663
 11
75.06329072559181
 21
-145.8680989218663
 72
     1
 10
75.06329072559181
 20
-145.8680989218663
 11
75.06329072559181
 21
-146.1195908922896
 72
     1
 10
75.06329072559181
 20
-146.1195908922896
 11
74.81145424562006
 21
-146.1195908922896
 97
        0
 75
     2
 76
     1
 98
        0
  0
SPLINE
  5
8D
330
7C
100
AcDbEntity
  8
_U+30EC_U+30A4_U+30E4_U+30FC 1
370
     0
100
AcDbSpline
210
0.0
220
0.0
230
1.0
 70
    11
 71
     3
 72
    53
 73
    49
 74
     0
 42
0.0000000001
 43
0.0000000001
 12
1.0
 22
0.0
 32
0.0
 13
1.0
 23
0.0
 33
0.0
 40
0.0
 40
0.0
 40
0.0
 40
0.0
 40
1.0
 40
1.0
 40
1.0
 40
2.0
 40
2.0
 40
2.0
 40
3.0
 40
3.0
 40
3.0
 40
4.0
 40
4.0
 40
4.0
 40
5.0
 40
5.0
 40
5.0
 40
6.0
 40
6.0
 40
6.0
 40
7.0
 40
7.0
 40
7.0
 40
8.0
 40
8.0
 40
8.0
 40
9.0
 40
9.0
 40
9.0
 40
10.0
 40
10.0
 40
10.0
 40
11.0
 40
11.0
 40
11.0
 40
12.0
 40
12.0
 40
12.0
 40
13.0
 40
13.0
 40
13.0
 40
14.0
 40
14.0
 40
14.0
 40
15.0
 40
15.0
 40
15.0
 40
16.0
 40
16.0
 40
16.0
 40
16.0
 10
75.78055960562084
 20
-146.1705783054713
 30
0.0
 10
75.70235593810567
 20
-146.1705783054713
 30
0.0
 10
75.60072562129079
 20
-146.153352828045
 30
0.0
 10
75.49909530447593
 20
-146.0899630711164
 30
0.0
 10
75.32580700156785
 20
-145.9800645251369
 30
0.0
 10
75.3044474095593
 20
-145.8488063871489
 30
0.0
 10
75.28549938439043
 20
-145.7409748984606
 30
0.0
 10
75.28549938439043
 20
-145.7409748984606
 30
0.0
 10
75.50770804318906
 20
-145.7409748984606
 30
0.0
 10
75.50770804318906
 20
-145.7409748984606
 30
0.0
 10
75.56248506140452
 20
-145.9397569079595
 30
0.0
 10
75.68960908481024
 20
-145.9693847291327
 30
0.0
 10
75.78262666291198
 20
-145.9693847291327
 30
0.0
 10
75.9221530300646
 20
-145.9693847291327
 30
0.0
 10
76.07442625051264
 20
-145.8701659791575
 30
0.0
 10
76.07442625051264
 20
-145.6372775243546
 30
0.0
 10
76.07442625051264
 20
-145.3813069298005
 30
0.0
 10
75.8945922661826
 20
-145.3117160009985
 30
0.0
 10
75.77401392419885
 20
-145.3117160009985
 30
0.0
 10
75.74231904573456
 20
-145.3117160009985
 30
0.0
 10
75.60072562129079
 20
-145.3117160009985
 30
0.0
 10
75.51184215777135
 20
-145.4405625721468
 30
0.0
 10
75.51184215777135
 20
-145.4405625721468
 30
0.0
 10
75.33614228802361
 20
-145.4216145469779
 30
0.0
 10
75.33614228802361
 20
-145.4216145469779
 30
0.0
 10
75.33614228802361
 20
-145.4216145469779
 30
0.0
 10
75.45672063000735
 20
-144.5754990958006
 30
0.0
 10
75.45672063000735
 20
-144.5754990958006
 30
0.0
 10
75.45672063000735
 20
-144.5754990958006
 30
0.0
 10
76.23531220967381
 20
-144.5754990958006
 30
0.0
 10
76.23531220967381
 20
-144.5754990958006
 30
0.0
 10
76.23531220967381
 20
-144.5754990958006
 30
0.0
 10
76.23531220967381
 20
-144.7701469907172
 30
0.0
 10
76.23531220967381
 20
-144.7701469907172
 30
0.0
 10
76.23531220967381
 20
-144.7701469907172
 30
0.0
 10
75.61967364645967
 20
-144.7701469907172
 30
0.0
 10
75.61967364645967
 20
-144.7701469907172
 30
0.0
 10
75.61967364645967
 20
-144.7701469907172
 30
0.0
 10
75.55421683223992
 20
-145.1932047163059
 30
0.0
 10
75.55421683223992
 20
-145.1932047163059
 30
0.0
 10
75.61553953187737
 20
-145.1590982710019
 30
0.0
 10
75.69787731397484
 20
-145.119135163373
 30
0.0
 10
75.81638859866743
 20
-145.119135163373
 30
0.0
 10
76.07029213593034
 20
-145.119135163373
 30
0.0
 10
76.30731470531553
 20
-145.3051703195765
 30
0.0
 10
76.30731470531553
 20
-145.6183294991857
 30
0.0
 10
76.30731470531553
 20
-145.9356227933772
 30
0.0
 10
76.08303898922577
 20
-146.1705783054713
 30
0.0
 10
75.78055960562084
 20
-146.1705783054713
 30
0.0
  0
HATCH
  5
8E
330
7C
100
AcDbEntity
  8
_U+30EC_U+30A4_U+30E4_U+30FC 1
 62
   179
420
  2234388
100
AcDbHatch
 10
0.0
 20
0.0
 30
0.0
210
0.0
220
0.0
230
1.0
  2
SOLID
 70
     1
 71
     0
 91
        1
 92
        1
 93
        1
 72
     4
 94
        3
 73
     0
 74
     1
 95
       53
 96
       49
 40
0.0
 40
0.0
 40
0.0
 40
0.0
 40
1.0
 40
1.0
 40
1.0
 40
2.0
 40
2.0
 40
2.0
 40
3.0
 40
3.0
 40
3.0
 40
4.0
 40
4.0
 40
4.0
 40
5.0
 40
5.0
 40
5.0
 40
6.0
 40
6.0
 40
6.0
 40
7.0
 40
7.0
 40
7.0
 40
8.0
 40
8.0
 40
8.0
 40
9.0
 40
9.0
 40
9.0
 40
10.0
 40
10.0
 40
10.0
 40
11.0
 40
11.0
 40
11.0
 40
12.0
 40
12.0
 40
12.0
 40
13.0
 40
13.0
 40
13.0
 40
14.0
 40
14.0
 40
14.0
 40
15.0
 40
15.0
 40
15.0
 40
16.0
 40
16.0
 40
16.0
 40
16.0
 10
75.78055960562084
 20
-146.1705783054713
 10
75.70235593810567
 20
-146.1705783054713
 10
75.60072562129079
 20
-146.153352828045
 10
75.49909530447593
 20
-146.0899630711164
 10
75.32580700156785
 20
-145.9800645251369
 10
75.3044474095593
 20
-145.8488063871489
 10
75.28549938439043
 20
-145.7409748984606
 10
75.28549938439043
 20
-145.7409748984606
 10
75.50770804318906
 20
-145.7409748984606
 10
75.50770804318906
 20
-145.7409748984606
 10
75.56248506140452
 20
-145.9397569079595
 10
75.68960908481024
 20
-145.9693847291327
 10
75.78262666291198
 20
-145.9693847291327
 10
75.9221530300646
 20
-145.9693847291327
 10
76.07442625051264
 20
-145.8701659791575
 10
76.07442625051264
 20
-145.6372775243546
 10
76.07442625051264
 20
-145.3813069298005
 10
75.8945922661826
 20
-145.3117160009985
 10
75.77401392419885
 20
-145.3117160009985
 10
75.74231904573456
 20
-145.3117160009985
 10
75.60072562129079
 20
-145.3117160009985
 10
75.51184215777135
 20
-145.4405625721468
 10
75.51184215777135
 20
-145.4405625721468
 10
75.33614228802361
 20
-145.4216145469779
 10
75.33614228802361
 20
-145.4216145469779
 10
75.33614228802361
 20
-145.4216145469779
 10
75.45672063000735
 20
-144.5754990958006
 10
75.45672063000735
 20
-144.5754990958006
 10
75.45672063000735
 20
-144.5754990958006
 10
76.23531220967381
 20
-144.5754990958006
 10
76.23531220967381
 20
-144.5754990958006
 10
76.23531220967381
 20
-144.5754990958006
 10
76.23531220967381
 20
-144.7701469907172
 10
76.23531220967381
 20
-144.7701469907172
 10
76.23531220967381
 20
-144.7701469907172
 10
75.61967364645967
 20
-144.7701469907172
 10
75.61967364645967
 20
-144.7701469907172
 10
75.61967364645967
 20
-144.7701469907172
 10
75.55421683223992
 20
-145.1932047163059
 10
75.55421683223992
 20
-145.1932047163059
 10
75.61553953187737
 20
-145.1590982710019
 10
75.69787731397484
 20
-145.119135163373
 10
75.81638859866743
 20
-145.119135163373
 10
76.07029213593034
 20
-145.119135163373
 10
76.30731470531553
 20
-145.3051703195765
 10
76.30731470531553
 20
-145.6183294991857
 10
76.30731470531553
 20
-145.9356227933772
 10
76.08303898922577
 20
-146.1705783054713
 10
75.78055960562084
 20
-146.1705783054713
 97
        0
 97
        0
 75
     2
 76
     1
 98
        0
  0
ENDBLK
  5
7F
330
7C
100
AcDbEntity
  8
0
100
AcDbBlockEnd
  0
BLOCK
  5
9F
330
9D
100
AcDbEntity
  8
0
100
AcDbBlockBegin
  2
block 5
 70
     0
 10
0.0
 20
0.0
 30
0.0
  3
block 5
  1

  0
POLYLINE
  5
A1
330
9D
100
AcDbEntity
  8
_U+30EC_U+30A4_U+30E4_U+30FC 1
 62
     7
420
 16777215
370
     9
100
AcDb2dPolyline
 66
     1
 10
0.0
 20
0.0
 30
0.0
  0
VERTEX
  5
A2
330
A1
100
AcDbEntity
  8
_U+30EC_U+30A4_U+30E4_U+30FC 1
 62
     7
420
 16777215
370
     9
100
AcDbVertex
100
AcDb2dVertex
 10
83.52306481359354
 20
-119.8850013589177
 30
0.0
  0
VERTEX
  5
A3
330
A1
100
AcDbEntity
  8
_U+30EC_U+30A4_U+30E4_U+30FC 1
 62
     7
420
 16777215
370
     9
100
AcDbVertex
100
AcDb2dVertex
 10
89.4112432744847
 20
-128.502762745652
 30
0.0
  0
SEQEND
  5
A4
330
A1
100
AcDbEntity
  8
_U+30EC_U+30A4_U+30E4_U+30FC 1
 62
     7
420
 16777215
370
     9
  0
POLYLINE
  5
A5
330
9D
100
AcDbEntity
  8
_U+30EC_U+30A4_U+30E4_U+30FC 1
 62
     7
420
 16777215
370
     9
100
AcDb2dPolyline
 66
     1
 10
0.0
 20
0.0
 30
0.0
  0
VERTEX
  5
A6
330
A5
100
AcDbEntity
  8
_U+30EC_U+30A4_U+30E4_U+30FC 1
 62
     7
420
 16777215
370
     9
100
AcDbVertex
100
AcDb2dVertex
 10
83.52306481359354
 20
-119.8850013589177
 30
0.0
  0
VERTEX
  5
A7
330
A5
100
AcDbEntity
  8
_U+30EC_U+30A4_U+30E4_U+30FC 1
 62
     7
420
 16777215
370
     9
100
AcDbVertex
100
AcDb2dVertex
 10
84.2801259053904
 20
-120.5385574698655
 30
0.0
  0
SEQEND
  5
A8
330
A5
100
AcDbEntity
  8
_U+30EC_U+30A4_U+30E4_U+30FC 1
 62
     7
420
 16777215
370
     9
  0
POLYLINE
  5
A9
330
9D
100
AcDbEntity
  8
_U+30EC_U+30A4_U+30E4_U+30FC 1
 62
     7
420
 16777215
370
     9
100
AcDb2dPolyline
 66
     1
 10
0.0
 20
0.0
 30
0.0
  0
VERTEX
  5
AA
330
A9
100
AcDbEntity
  8
_U+30EC_U+30A4_U+30E4_U+30FC 1
 62
     7
420
 16777215
370
     9
100
AcDbVertex
100
AcDb2dVertex
 10
83.52306481359354
 20
-119.8850013589177
 30
0.0
  0
VERTEX
  5
AB
330
A9
100
AcDbEntity
  8
_U+30EC_U+30A4_U+30E4_U+30FC 1
 62
     7
420
 16777215
370
     9
100
AcDbVertex
100
AcDb2dVertex
 10
83.85206536075559
 20
-120.8293169142373
 30
0.0
  0
SEQEND
  5
AC
330
A9
100
AcDbEntity
  8
_U+30EC_U+30A4_U+30E4_U+30FC 1
 62
     7
420
 16777215
370
     9
  0
ENDBLK
  5
A0
330
9D
100
AcDbEntity
  8
0
100
AcDbBlockEnd
  0
BLOCK
  5
AF
330
AD
100
AcDbEntity
  8
0
100
AcDbBlockBegin
  2
block 6
 70
     0
 10
0.0
 20
0.0
 30
0.0
  3
block 6
  1

  0
SPLINE
  5
B1
330
AD
100
AcDbEntity
  8
_U+30EC_U+30A4_U+30E4_U+30FC 1
370
     0
100
AcDbSpline
210
0.0
220
0.0
230
1.0
 70
    11
 71
     3
 72
   242
 73
   238
 74
     0
 42
0.0000000001
 43
0.0000000001
 12
1.0
 22
0.0
 32
0.0
 13
1.0
 23
0.0
 33
0.0
 40
0.0
 40
0.0
 40
0.0
 40
0.0
 40
1.0
 40
1.0
 40
1.0
 40
2.0
 40
2.0
 40
2.0
 40
3.0
 40
3.0
 40
3.0
 40
4.0
 40
4.0
 40
4.0
 40
5.0
 40
5.0
 40
5.0
 40
6.0
 40
6.0
 40
6.0
 40
7.0
 40
7.0
 40
7.0
 40
8.0
 40
8.0
 40
8.0
 40
9.0
 40
9.0
 40
9.0
 40
10.0
 40
10.0
 40
10.0
 40
11.0
 40
11.0
 40
11.0
 40
12.0
 40
12.0
 40
12.0
 40
13.0
 40
13.0
 40
13.0
 40
14.0
 40
14.0
 40
14.0
 40
15.0
 40
15.0
 40
15.0
 40
16.0
 40
16.0
 40
16.0
 40
17.0
 40
17.0
 40
17.0
 40
18.0
 40
18.0
 40
18.0
 40
19.0
 40
19.0
 40
19.0
 40
20.0
 40
20.0
 40
20.0
 40
21.0
 40
21.0
 40
21.0
 40
22.0
 40
22.0
 40
22.0
 40
23.0
 40
23.0
 40
23.0
 40
24.0
 40
24.0
 40
24.0
 40
25.0
 40
25.0
 40
25.0
 40
26.0
 40
26.0
 40
26.0
 40
27.0
 40
27.0
 40
27.0
 40
28.0
 40
28.0
 40
28.0
 40
29.0
 40
29.0
 40
29.0
 40
30.0
 40
30.0
 40
30.0
 40
31.0
 40
31.0
 40
31.0
 40
32.0
 40
32.0
 40
32.0
 40
33.0
 40
33.0
 40
33.0
 40
34.0
 40
34.0
 40
34.0
 40
35.0
 40
35.0
 40
35.0
 40
36.0
 40
36.0
 40
36.0
 40
37.0
 40
37.0
 40
37.0
 40
38.0
 40
38.0
 40
38.0
 40
39.0
 40
39.0
 40
39.0
 40
40.0
 40
40.0
 40
40.0
 40
41.0
 40
41.0
 40
41.0
 40
42.0
 40
42.0
 40
42.0
 40
43.0
 40
43.0
 40
43.0
 40
44.0
 40
44.0
 40
44.0
 40
45.0
 40
45.0
 40
45.0
 40
46.0
 40
46.0
 40
46.0
 40
47.0
 40
47.0
 40
47.0
 40
48.0
 40
48.0
 40
48.0
 40
49.0
 40
49.0
 40
49.0
 40
50.0
 40
50.0
 40
50.0
 40
51.0
 40
51.0
 40
51.0
 40
52.0
 40
52.0
 40
52.0
 40
53.0
 40
53.0
 40
53.0
 40
54.0
 40
54.0
 40
54.0
 40
55.0
 40
55.0
 40
55.0
 40
56.0
 40
56.0
 40
56.0
 40
57.0
 40
57.0
 40
57.0
 40
58.0
 40
58.0
 40
58.0
 40
59.0
 40
59.0
 40
59.0
 40
60.0
 40
60.0
 40
60.0
 40
61.0
 40
61.0
 40
61.0
 40
62.0
 40
62.0
 40
62.0
 40
63.0
 40
63.0
 40
63.0
 40
64.0
 40
64.0
 40
64.0
 40
65.0
 40
65.0
 40
65.0
 40
66.0
 40
66.0
 40
66.0
 40
67.0
 40
67.0
 40
67.0
 40
68.0
 40
68.0
 40
68.0
 40
69.0
 40
69.0
 40
69.0
 40
70.0
 40
70.0
 40
70.0
 40
71.0
 40
71.0
 40
71.0
 40
72.0
 40
72.0
 40
72.0
 40
73.0
 40
73.0
 40
73.0
 40
74.0
 40
74.0
 40
74.0
 40
75.0
 40
75.0
 40
75.0
 40
76.0
 40
76.0
 40
76.0
 40
77.0
 40
77.0
 40
77.0
 40
78.0
 40
78.0
 40
78.0
 40
79.0
 40
79.0
 40
79.0
 40
79.0
 10
87.70713566600725
 20
-129.7326497071502
 30
0.0
 10
87.70713566600725
 20
-129.7326497071502
 30
0.0
 10
87.45323212874433
 20
-129.7326497071502
 30
0.0
 10
87.45323212874433
 20
-129.7326497071502
 30
0.0
 10
87.45323212874433
 20
-129.7326497071502
 30
0.0
 10
87.17624645173025
 20
-129.7326497071502
 30
0.0
 10
87.17624645173025
 20
-129.7326497071502
 30
0.0
 10
87.17624645173025
 20
-129.7326497071502
 30
0.0
 10
87.30302596558744
 20
-129.7750243816187
 30
0.0
 10
87.30302596558744
 20
-129.7750243816187
 30
0.0
 10
87.31370576159172
 20
-129.7791584962011
 30
0.0
 10
87.32610810533862
 20
-129.7853596680745
 30
0.0
 10
87.32610810533862
 20
-129.7981065213699
 30
0.0
 10
87.32610810533862
 20
-129.8194661133785
 30
0.0
 10
87.29441322687431
 20
-129.8256672852519
 30
0.0
 10
87.27339814441429
 20
-129.8298013998342
 30
0.0
 10
87.26271834841002
 20
-129.8532280491339
 30
0.0
 10
87.23309052723687
 20
-129.9186848633537
 30
0.0
 10
87.214142502068
 20
-129.9631265951134
 30
0.0
 10
87.214142502068
 20
-129.9631265951134
 30
0.0
 10
87.48492700720864
 20
-129.9631265951134
 30
0.0
 10
87.48492700720864
 20
-129.9631265951134
 30
0.0
 10
87.57587752801923
 20
-129.9631265951134
 30
0.0
 10
87.77259248022699
 20
-129.9589924805311
 30
0.0
 10
87.91453041421929
 20
-129.950379741818
 30
0.0
 10
87.91453041421929
 20
-129.950379741818
 30
0.0
 10
87.91453041421929
 20
-130.1281466688569
 30
0.0
 10
87.91453041421929
 20
-130.1281466688569
 30
0.0
 10
87.83184812257329
 20
-130.1240125542746
 30
0.0
 10
87.81083304011327
 20
-130.1240125542746
 30
0.0
 10
87.63099905578322
 20
-130.1198784396923
 30
0.0
 10
87.59930417731893
 20
-130.2742187174314
 30
0.0
 10
87.55486244555921
 20
-130.3544894422378
 30
0.0
 10
87.51042071379948
 20
-130.4244248805883
 30
0.0
 10
87.63099905578322
 20
-130.4836805229346
 30
0.0
 10
87.7367634871804
 20
-130.5512043944455
 30
0.0
 10
87.84046086128642
 20
-130.6338866860915
 30
0.0
 10
87.84046086128642
 20
-130.6338866860915
 30
0.0
 10
87.72194957659383
 20
-130.8009738171262
 30
0.0
 10
87.72194957659383
 20
-130.8009738171262
 30
0.0
 10
87.69852292729412
 20
-130.7820257919573
 30
0.0
 10
87.6857760739987
 20
-130.7734130532442
 30
0.0
 10
87.57381047072808
 20
-130.688663704307
 30
0.0
 10
87.52523462438606
 20
-130.6507676539693
 30
0.0
 10
87.46597898203976
 20
-130.6149386609227
 30
0.0
 10
87.38536374768492
 20
-130.5704969291629
 30
0.0
 10
87.17383488489057
 20
-130.7565320853664
 30
0.0
 10
86.96885170351821
 20
-130.7799587346661
 30
0.0
 10
86.67877466366018
 20
-130.8095865558393
 30
0.0
 10
86.67877466366018
 20
-130.8095865558393
 30
0.0
 10
86.57542179910267
 20
-130.6297525715092
 30
0.0
 10
86.57542179910267
 20
-130.6297525715092
 30
0.0
 10
86.89271509329419
 20
-130.6252739473784
 30
0.0
 10
87.0680704534934
 20
-130.6001247503361
 30
0.0
 10
87.22034367394144
 20
-130.4898816948081
 30
0.0
 10
87.10217689879738
 20
-130.4392387911749
 30
0.0
 10
87.01329343527793
 20
-130.4116780272929
 30
0.0
 10
86.97711993268281
 20
-130.3989311739975
 30
0.0
 10
86.95817190751393
 20
-130.4264919378795
 30
0.0
 10
86.94335799692736
 20
-130.4454399630484
 30
0.0
 10
86.91579723304535
 20
-130.4795464083523
 30
0.0
 10
86.91579723304535
 20
-130.4795464083523
 30
0.0
 10
86.7190822808376
 20
-130.3968641167064
 30
0.0
 10
86.7190822808376
 20
-130.3968641167064
 30
0.0
 10
86.80176457248359
 20
-130.3165933919
 30
0.0
 10
86.86308727212104
 20
-130.2211642469586
 30
0.0
 10
86.92027585717618
 20
-130.1198784396923
 30
0.0
 10
86.72976207684187
 20
-130.1240125542746
 30
0.0
 10
86.70840248483331
 20
-130.1240125542746
 30
0.0
 10
86.62606470273585
 20
-130.1281466688569
 30
0.0
 10
86.62606470273585
 20
-130.1281466688569
 30
0.0
 10
86.62606470273585
 20
-129.950379741818
 30
0.0
 10
86.62606470273585
 20
-129.950379741818
 30
0.0
 10
86.76559106988847
 20
-129.9569254232399
 30
0.0
 10
86.97505287539165
 20
-129.9610595378223
 30
0.0
 10
87.0005465819825
 20
-129.9610595378223
 30
0.0
 10
87.01742754986023
 20
-129.9272976020668
 30
0.0
 10
87.07254907762423
 20
-129.806719260083
 30
0.0
 10
87.0914971027931
 20
-129.7326497071502
 30
0.0
 10
87.07254907762423
 20
-129.7326497071502
 30
0.0
 10
86.89478215058534
 20
-129.7388508790236
 30
0.0
 10
86.70013425566871
 20
-129.7515977323191
 30
0.0
 10
86.70013425566871
 20
-129.7515977323191
 30
0.0
 10
86.70013425566871
 20
-129.8849229275982
 30
0.0
 10
86.70013425566871
 20
-129.8849229275982
 30
0.0
 10
86.6515584093267
 20
-129.9104166341891
 30
0.0
 10
86.5923027669804
 20
-129.9421115126534
 30
0.0
 10
86.45897757170123
 20
-130.0075683268731
 30
0.0
 10
86.45897757170123
 20
-130.0075683268731
 30
0.0
 10
86.45897757170123
 20
-130.1536403754477
 30
0.0
 10
86.45897757170123
 20
-130.1536403754477
 30
0.0
 10
86.45897757170123
 20
-130.1536403754477
 30
0.0
 10
86.45897757170123
 20
-130.6211398327961
 30
0.0
 10
86.45897757170123
 20
-130.6211398327961
 30
0.0
 10
86.45897757170123
 20
-130.7479193466533
 30
0.0
 10
86.4228040691061
 20
-130.8071749889996
 30
0.0
 10
86.13961722021857
 20
-130.798906759835
 30
0.0
 10
86.13961722021857
 20
-130.798906759835
 30
0.0
 10
86.03591984611255
 20
-130.591512011623
 30
0.0
 10
86.03591984611255
 20
-130.591512011623
 30
0.0
 10
86.09930960304115
 20
-130.6042588649184
 30
0.0
 10
86.14788544938317
 20
-130.6083929795007
 30
0.0
 10
86.1881930665606
 20
-130.6083929795007
 30
0.0
 10
86.26432967678461
 20
-130.6083929795007
 30
0.0
 10
86.2750094727889
 20
-130.5853108397495
 30
0.0
 10
86.2750094727889
 20
-130.5195095159812
 30
0.0
 10
86.2750094727889
 20
-130.5195095159812
 30
0.0
 10
86.2750094727889
 20
-130.0902506185191
 30
0.0
 10
86.2750094727889
 20
-130.0902506185191
 30
0.0
 10
86.17751327055632
 20
-130.130213726148
 30
0.0
 10
86.1606323026786
 20
-130.13675940757
 30
0.0
 10
86.11412351362772
 20
-130.1557074327389
 30
0.0
 10
86.10998939904542
 20
-130.1767225151989
 30
0.0
 10
86.10551077491459
 20
-130.206350336372
 30
0.0
 10
86.08656274974572
 20
-130.206350336372
 30
0.0
 10
86.07829452058112
 20
-130.206350336372
 30
0.0
 10
86.06761472457686
 20
-130.2022162217897
 30
0.0
 10
86.06106904315487
 20
-130.1791340820386
 30
0.0
 10
86.06106904315487
 20
-130.1791340820386
 30
0.0
 10
86.00835908223056
 20
-129.9865532444131
 30
0.0
 10
86.00835908223056
 20
-129.9865532444131
 30
0.0
 10
86.15443113080515
 20
-129.9400444553622
 30
0.0
 10
86.2198879450249
 20
-129.9166178060625
 30
0.0
 10
86.2750094727889
 20
-129.8956027236025
 30
0.0
 10
86.2750094727889
 20
-129.8956027236025
 30
0.0
 10
86.2750094727889
 20
-129.4828802844696
 30
0.0
 10
86.2750094727889
 20
-129.4828802844696
 30
0.0
 10
86.2750094727889
 20
-129.4828802844696
 30
0.0
 10
86.22195500231604
 20
-129.4828802844696
 30
0.0
 10
86.22195500231604
 20
-129.4828802844696
 30
0.0
 10
86.22195500231604
 20
-129.4828802844696
 30
0.0
 10
86.14375133480087
 20
-129.4828802844696
 30
0.0
 10
86.14375133480087
 20
-129.4828802844696
 30
0.0
 10
86.07588295374146
 20
-129.4828802844696
 30
0.0
 10
86.06761472457686
 20
-129.4828802844696
 30
0.0
 10
86.03144122198172
 20
-129.4894259658915
 30
0.0
 10
86.03144122198172
 20
-129.4894259658915
 30
0.0
 10
86.03144122198172
 20
-129.2947780709749
 30
0.0
 10
86.03144122198172
 20
-129.2947780709749
 30
0.0
 10
86.05900198586373
 20
-129.3009792428484
 30
0.0
 10
86.06761472457686
 20
-129.3009792428484
 30
0.0
 10
86.1372056533789
 20
-129.3009792428484
 30
0.0
 10
86.1372056533789
 20
-129.3009792428484
 30
0.0
 10
86.27053084865807
 20
-129.3009792428484
 30
0.0
 10
86.27053084865807
 20
-129.3009792428484
 30
0.0
 10
86.27053084865807
 20
-129.2313883140463
 30
0.0
 10
86.27053084865807
 20
-129.1487060224003
 30
0.0
 10
86.26846379136691
 20
-129.144571907818
 30
0.0
 10
86.26019556220231
 20
-128.964737923488
 30
0.0
 10
86.26019556220231
 20
-128.9457898983191
 30
0.0
 10
86.25778399536264
 20
-128.8992811092682
 30
0.0
 10
86.25778399536264
 20
-128.8992811092682
 30
0.0
 10
86.47379148228781
 20
-128.9075493384328
 30
0.0
 10
86.47379148228781
 20
-128.9075493384328
 30
0.0
 10
86.48447127829208
 20
-128.9075493384328
 30
0.0
 10
86.5054863607521
 20
-128.909616395724
 30
0.0
 10
86.5054863607521
 20
-128.9264973636017
 30
0.0
 10
86.5054863607521
 20
-128.9457898983191
 30
0.0
 10
86.49067245016553
 20
-128.9561251847749
 30
0.0
 10
86.46517874357468
 20
-128.9754177194923
 30
0.0
 10
86.46517874357468
 20
-129.0260606231254
 30
0.0
 10
86.45897757170123
 20
-129.2544704537975
 30
0.0
 10
86.46104462899238
 20
-129.3009792428484
 30
0.0
 10
86.59023570968925
 20
-129.3009792428484
 30
0.0
 10
86.60263805343615
 20
-129.3009792428484
 30
0.0
 10
86.70013425566871
 20
-129.2927110136838
 30
0.0
 10
86.70013425566871
 20
-129.2927110136838
 30
0.0
 10
86.70013425566871
 20
-129.4873589086004
 30
0.0
 10
86.70013425566871
 20
-129.4873589086004
 30
0.0
 10
86.66189369578245
 20
-129.4849473417607
 30
0.0
 10
86.59436982427155
 20
-129.4808132271784
 30
0.0
 10
86.45897757170123
 20
-129.4828802844696
 30
0.0
 10
86.45897757170123
 20
-129.4828802844696
 30
0.0
 10
86.45897757170123
 20
-129.8215331706696
 30
0.0
 10
86.45897757170123
 20
-129.8215331706696
 30
0.0
 10
86.5137545899167
 20
-129.7981065213699
 30
0.0
 10
86.57955591368497
 20
-129.7705457574879
 30
0.0
 10
86.628131760027
 20
-129.7474636177367
 30
0.0
 10
86.628131760027
 20
-129.7474636177367
 30
0.0
 10
86.628131760027
 20
-129.5696966906979
 30
0.0
 10
86.628131760027
 20
-129.5696966906979
 30
0.0
 10
86.74250893013729
 20
-129.5824435439933
 30
0.0
 10
86.86102021482989
 20
-129.5824435439933
 30
0.0
 10
86.97711993268281
 20
-129.5824435439933
 30
0.0
 10
86.95403779293163
 20
-129.4873589086004
 30
0.0
 10
86.92647702904964
 20
-129.4046766169544
 30
0.0
 10
86.86308727212104
 20
-129.2713514216752
 30
0.0
 10
86.81864554036132
 20
-129.2734184789664
 30
0.0
 10
86.73596324871532
 20
-129.2778971030972
 30
0.0
 10
86.69806719837757
 20
-129.2799641603883
 30
0.0
 10
86.69806719837757
 20
-129.2799641603883
 30
0.0
 10
86.69806719837757
 20
-129.1001301760583
 30
0.0
 10
86.69806719837757
 20
-129.1001301760583
 30
0.0
 10
86.82277965494362
 20
-129.1083984052229
 30
0.0
 10
86.9964124674002
 20
-129.1128770293537
 30
0.0
 10
87.07875024949767
 20
-129.1128770293537
 30
0.0
 10
87.07875024949767
 20
-129.1128770293537
 30
0.0
 10
87.16143254114367
 20
-129.1128770293537
 30
0.0
 10
87.16143254114367
 20
-129.1128770293537
 30
0.0
 10
87.16143254114367
 20
-128.9499240129014
 30
0.0
 10
87.16143254114367
 20
-128.9392442168972
 30
0.0
 10
87.159020974304
 20
-128.8844671986817
 30
0.0
 10
87.159020974304
 20
-128.8844671986817
 30
0.0
 10
87.38329669039376
 20
-128.909616395724
 30
0.0
 10
87.38329669039376
 20
-128.909616395724
 30
0.0
 10
87.38777531452459
 20
-128.909616395724
 30
0.0
 10
87.40879039698461
 20
-128.9116834530151
 30
0.0
 10
87.40879039698461
 20
-128.9285644208929
 30
0.0
 10
87.40879039698461
 20
-128.9433783314794
 30
0.0
 10
87.39811060098033
 20
-128.9519910701926
 30
0.0
 10
87.37054983709834
 20
-128.9668049807791
 30
0.0
 10
87.3643486652249
 20
-129.0322617949989
 30
0.0
 10
87.36228160793374
 20
-129.0536213870074
 30
0.0
 10
87.36228160793374
 20
-129.1128770293537
 30
0.0
 10
87.36228160793374
 20
-129.1128770293537
 30
0.0
 10
87.45736624332663
 20
-129.1128770293537
 30
0.0
 10
87.45736624332663
 20
-129.1128770293537
 30
0.0
 10
87.54004853497263
 20
-129.1128770293537
 30
0.0
 10
87.7133368378807
 20
-129.1083984052229
 30
0.0
 10
87.83839380399526
 20
-129.1001301760583
 30
0.0
 10
87.83839380399526
 20
-129.1001301760583
 30
0.0
 10
87.83839380399526
 20
-129.2799641603883
 30
0.0
 10
87.83839380399526
 20
-129.2799641603883
 30
0.0
 10
87.80876598282212
 20
-129.2778971030972
 30
0.0
 10
87.69025469812952
 20
-129.2734184789664
 30
0.0
 10
87.6499470809521
 20
-129.2713514216752
 30
0.0
 10
87.63513317036552
 20
-129.3223388348569
 30
0.0
 10
87.60137123461008
 20
-129.4343044381276
 30
0.0
 10
87.5355699108418
 20
-129.5738308052802
 30
0.0
 10
87.57794458531038
 20
-129.5738308052802
 30
0.0
 10
87.85527477187298
 20
-129.5548827801113
 30
0.0
 10
87.91659747151044
 20
-129.5528157228201
 30
0.0
 10
87.91659747151044
 20
-129.5528157228201
 30
0.0
 10
87.91659747151044
 20
-129.7367838217325
 30
0.0
 10
87.91659747151044
 20
-129.7367838217325
 30
0.0
 10
87.88696965033729
 20
-129.7367838217325
 30
0.0
 10
87.87008868245957
 20
-129.7326497071502
 30
0.0
 10
87.70713566600725
 20
-129.7326497071502
 30
0.0
  0
SPLINE
  5
B2
330
AD
100
AcDbEntity
  8
_U+30EC_U+30A4_U+30E4_U+30FC 1
370
     0
100
AcDbSpline
210
0.0
220
0.0
230
1.0
 70
    11
 71
     3
 72
    20
 73
    16
 74
     0
 42
0.0000000001
 43
0.0000000001
 12
1.0
 22
0.0
 32
0.0
 13
1.0
 23
0.0
 33
0.0
 40
0.0
 40
0.0
 40
0.0
 40
0.0
 40
1.0
 40
1.0
 40
1.0
 40
2.0
 40
2.0
 40
2.0
 40
3.0
 40
3.0
 40
3.0
 40
4.0
 40
4.0
 40
4.0
 40
5.0
 40
5.0
 40
5.0
 40
5.0
 10
87.07875024949767
 20
-129.2672173070929
 30
0.0
 10
87.07875024949767
 20
-129.2672173070929
 30
0.0
 10
87.04705537103338
 20
-129.2672173070929
 30
0.0
 10
87.04705537103338
 20
-129.2672173070929
 30
0.0
 10
87.09356416008426
 20
-129.3667805666167
 30
0.0
 10
87.12525903854855
 20
-129.447051291423
 30
0.0
 10
87.159020974304
 20
-129.5738308052802
 30
0.0
 10
87.159020974304
 20
-129.5738308052802
 30
0.0
 10
87.36641572251604
 20
-129.5738308052802
 30
0.0
 10
87.36641572251604
 20
-129.5738308052802
 30
0.0
 10
87.39811060098033
 20
-129.4808132271784
 30
0.0
 10
87.42153725028004
 20
-129.3964083877898
 30
0.0
 10
87.4446193900312
 20
-129.2672173070929
 30
0.0
 10
87.4446193900312
 20
-129.2672173070929
 30
0.0
 10
87.07875024949767
 20
-129.2672173070929
 30
0.0
 10
87.07875024949767
 20
-129.2672173070929
 30
0.0
  0
SPLINE
  5
B3
330
AD
100
AcDbEntity
  8
_U+30EC_U+30A4_U+30E4_U+30FC 1
370
     0
100
AcDbSpline
210
0.0
220
0.0
230
1.0
 70
    11
 71
     3
 72
    17
 73
    13
 74
     0
 42
0.0000000001
 43
0.0000000001
 12
1.0
 22
0.0
 32
0.0
 13
1.0
 23
0.0
 33
0.0
 40
0.0
 40
0.0
 40
0.0
 40
0.0
 40
1.0
 40
1.0
 40
1.0
 40
2.0
 40
2.0
 40
2.0
 40
3.0
 40
3.0
 40
3.0
 40
4.0
 40
4.0
 40
4.0
 40
4.0
 10
87.14214000642627
 20
-130.1178113824011
 30
0.0
 10
87.12525903854855
 20
-130.1470946940257
 30
0.0
 10
87.07461613491537
 20
-130.240456781676
 30
0.0
 10
87.0639363389111
 20
-130.2594048068449
 30
0.0
 10
87.25445011924542
 20
-130.3186604491912
 30
0.0
 10
87.27546520170544
 20
-130.3248616210646
 30
0.0
 10
87.34746769734717
 20
-130.3524223849466
 30
0.0
 10
87.40258922511116
 20
-130.2656059787183
 30
0.0
 10
87.42567136486234
 20
-130.1915364257854
 30
0.0
 10
87.4404852754489
 20
-130.1178113824011
 30
0.0
 10
87.4404852754489
 20
-130.1178113824011
 30
0.0
 10
87.14214000642627
 20
-130.1178113824011
 30
0.0
 10
87.14214000642627
 20
-130.1178113824011
 30
0.0
  0
HATCH
  5
B4
330
AD
100
AcDbEntity
  8
_U+30EC_U+30A4_U+30E4_U+30FC 1
 62
     7
420
 16777215
100
AcDbHatch
 10
0.0
 20
0.0
 30
0.0
210
0.0
220
0.0
230
1.0
  2
SOLID
 70
     1
 71
     0
 91
        3
 92
        1
 93
        1
 72
     4
 94
        3
 73
     0
 74
     1
 95
      242
 96
      238
 40
0.0
 40
0.0
 40
0.0
 40
0.0
 40
1.0
 40
1.0
 40
1.0
 40
2.0
 40
2.0
 40
2.0
 40
3.0
 40
3.0
 40
3.0
 40
4.0
 40
4.0
 40
4.0
 40
5.0
 40
5.0
 40
5.0
 40
6.0
 40
6.0
 40
6.0
 40
7.0
 40
7.0
 40
7.0
 40
8.0
 40
8.0
 40
8.0
 40
9.0
 40
9.0
 40
9.0
 40
10.0
 40
10.0
 40
10.0
 40
11.0
 40
11.0
 40
11.0
 40
12.0
 40
12.0
 40
12.0
 40
13.0
 40
13.0
 40
13.0
 40
14.0
 40
14.0
 40
14.0
 40
15.0
 40
15.0
 40
15.0
 40
16.0
 40
16.0
 40
16.0
 40
17.0
 40
17.0
 40
17.0
 40
18.0
 40
18.0
 40
18.0
 40
19.0
 40
19.0
 40
19.0
 40
20.0
 40
20.0
 40
20.0
 40
21.0
 40
21.0
 40
21.0
 40
22.0
 40
22.0
 40
22.0
 40
23.0
 40
23.0
 40
23.0
 40
24.0
 40
24.0
 40
24.0
 40
25.0
 40
25.0
 40
25.0
 40
26.0
 40
26.0
 40
26.0
 40
27.0
 40
27.0
 40
27.0
 40
28.0
 40
28.0
 40
28.0
 40
29.0
 40
29.0
 40
29.0
 40
30.0
 40
30.0
 40
30.0
 40
31.0
 40
31.0
 40
31.0
 40
32.0
 40
32.0
 40
32.0
 40
33.0
 40
33.0
 40
33.0
 40
34.0
 40
34.0
 40
34.0
 40
35.0
 40
35.0
 40
35.0
 40
36.0
 40
36.0
 40
36.0
 40
37.0
 40
37.0
 40
37.0
 40
38.0
 40
38.0
 40
38.0
 40
39.0
 40
39.0
 40
39.0
 40
40.0
 40
40.0
 40
40.0
 40
41.0
 40
41.0
 40
41.0
 40
42.0
 40
42.0
 40
42.0
 40
43.0
 40
43.0
 40
43.0
 40
44.0
 40
44.0
 40
44.0
 40
45.0
 40
45.0
 40
45.0
 40
46.0
 40
46.0
 40
46.0
 40
47.0
 40
47.0
 40
47.0
 40
48.0
 40
48.0
 40
48.0
 40
49.0
 40
49.0
 40
49.0
 40
50.0
 40
50.0
 40
50.0
 40
51.0
 40
51.0
 40
51.0
 40
52.0
 40
52.0
 40
52.0
 40
53.0
 40
53.0
 40
53.0
 40
54.0
 40
54.0
 40
54.0
 40
55.0
 40
55.0
 40
55.0
 40
56.0
 40
56.0
 40
56.0
 40
57.0
 40
57.0
 40
57.0
 40
58.0
 40
58.0
 40
58.0
 40
59.0
 40
59.0
 40
59.0
 40
60.0
 40
60.0
 40
60.0
 40
61.0
 40
61.0
 40
61.0
 40
62.0
 40
62.0
 40
62.0
 40
63.0
 40
63.0
 40
63.0
 40
64.0
 40
64.0
 40
64.0
 40
65.0
 40
65.0
 40
65.0
 40
66.0
 40
66.0
 40
66.0
 40
67.0
 40
67.0
 40
67.0
 40
68.0
 40
68.0
 40
68.0
 40
69.0
 40
69.0
 40
69.0
 40
70.0
 40
70.0
 40
70.0
 40
71.0
 40
71.0
 40
71.0
 40
72.0
 40
72.0
 40
72.0
 40
73.0
 40
73.0
 40
73.0
 40
74.0
 40
74.0
 40
74.0
 40
75.0
 40
75.0
 40
75.0
 40
76.0
 40
76.0
 40
76.0
 40
77.0
 40
77.0
 40
77.0
 40
78.0
 40
78.0
 40
78.0
 40
79.0
 40
79.0
 40
79.0
 40
79.0
 10
87.70713566600725
 20
-129.7326497071502
 10
87.70713566600725
 20
-129.7326497071502
 10
87.45323212874433
 20
-129.7326497071502
 10
87.45323212874433
 20
-129.7326497071502
 10
87.45323212874433
 20
-129.7326497071502
 10
87.17624645173025
 20
-129.7326497071502
 10
87.17624645173025
 20
-129.7326497071502
 10
87.17624645173025
 20
-129.7326497071502
 10
87.30302596558744
 20
-129.7750243816187
 10
87.30302596558744
 20
-129.7750243816187
 10
87.31370576159172
 20
-129.7791584962011
 10
87.32610810533862
 20
-129.7853596680745
 10
87.32610810533862
 20
-129.7981065213699
 10
87.32610810533862
 20
-129.8194661133785
 10
87.29441322687431
 20
-129.8256672852519
 10
87.27339814441429
 20
-129.8298013998342
 10
87.26271834841002
 20
-129.8532280491339
 10
87.23309052723687
 20
-129.9186848633537
 10
87.214142502068
 20
-129.9631265951134
 10
87.214142502068
 20
-129.9631265951134
 10
87.48492700720864
 20
-129.9631265951134
 10
87.48492700720864
 20
-129.9631265951134
 10
87.57587752801923
 20
-129.9631265951134
 10
87.77259248022699
 20
-129.9589924805311
 10
87.91453041421929
 20
-129.950379741818
 10
87.91453041421929
 20
-129.950379741818
 10
87.91453041421929
 20
-130.1281466688569
 10
87.91453041421929
 20
-130.1281466688569
 10
87.83184812257329
 20
-130.1240125542746
 10
87.81083304011327
 20
-130.1240125542746
 10
87.63099905578322
 20
-130.1198784396923
 10
87.59930417731893
 20
-130.2742187174314
 10
87.55486244555921
 20
-130.3544894422378
 10
87.51042071379948
 20
-130.4244248805883
 10
87.63099905578322
 20
-130.4836805229346
 10
87.7367634871804
 20
-130.5512043944455
 10
87.84046086128642
 20
-130.6338866860915
 10
87.84046086128642
 20
-130.6338866860915
 10
87.72194957659383
 20
-130.8009738171262
 10
87.72194957659383
 20
-130.8009738171262
 10
87.69852292729412
 20
-130.7820257919573
 10
87.6857760739987
 20
-130.7734130532442
 10
87.57381047072808
 20
-130.688663704307
 10
87.52523462438606
 20
-130.6507676539693
 10
87.46597898203976
 20
-130.6149386609227
 10
87.38536374768492
 20
-130.5704969291629
 10
87.17383488489057
 20
-130.7565320853664
 10
86.96885170351821
 20
-130.7799587346661
 10
86.67877466366018
 20
-130.8095865558393
 10
86.67877466366018
 20
-130.8095865558393
 10
86.57542179910267
 20
-130.6297525715092
 10
86.57542179910267
 20
-130.6297525715092
 10
86.89271509329419
 20
-130.6252739473784
 10
87.0680704534934
 20
-130.6001247503361
 10
87.22034367394144
 20
-130.4898816948081
 10
87.10217689879738
 20
-130.4392387911749
 10
87.01329343527793
 20
-130.4116780272929
 10
86.97711993268281
 20
-130.3989311739975
 10
86.95817190751393
 20
-130.4264919378795
 10
86.94335799692736
 20
-130.4454399630484
 10
86.91579723304535
 20
-130.4795464083523
 10
86.91579723304535
 20
-130.4795464083523
 10
86.7190822808376
 20
-130.3968641167064
 10
86.7190822808376
 20
-130.3968641167064
 10
86.80176457248359
 20
-130.3165933919
 10
86.86308727212104
 20
-130.2211642469586
 10
86.92027585717618
 20
-130.1198784396923
 10
86.72976207684187
 20
-130.1240125542746
 10
86.70840248483331
 20
-130.1240125542746
 10
86.62606470273585
 20
-130.1281466688569
 10
86.62606470273585
 20
-130.1281466688569
 10
86.62606470273585
 20
-129.950379741818
 10
86.62606470273585
 20
-129.950379741818
 10
86.76559106988847
 20
-129.9569254232399
 10
86.97505287539165
 20
-129.9610595378223
 10
87.0005465819825
 20
-129.9610595378223
 10
87.01742754986023
 20
-129.9272976020668
 10
87.07254907762423
 20
-129.806719260083
 10
87.0914971027931
 20
-129.7326497071502
 10
87.07254907762423
 20
-129.7326497071502
 10
86.89478215058534
 20
-129.7388508790236
 10
86.70013425566871
 20
-129.7515977323191
 10
86.70013425566871
 20
-129.7515977323191
 10
86.70013425566871
 20
-129.8849229275982
 10
86.70013425566871
 20
-129.8849229275982
 10
86.6515584093267
 20
-129.9104166341891
 10
86.5923027669804
 20
-129.9421115126534
 10
86.45897757170123
 20
-130.0075683268731
 10
86.45897757170123
 20
-130.0075683268731
 10
86.45897757170123
 20
-130.1536403754477
 10
86.45897757170123
 20
-130.1536403754477
 10
86.45897757170123
 20
-130.1536403754477
 10
86.45897757170123
 20
-130.6211398327961
 10
86.45897757170123
 20
-130.6211398327961
 10
86.45897757170123
 20
-130.7479193466533
 10
86.4228040691061
 20
-130.8071749889996
 10
86.13961722021857
 20
-130.798906759835
 10
86.13961722021857
 20
-130.798906759835
 10
86.03591984611255
 20
-130.591512011623
 10
86.03591984611255
 20
-130.591512011623
 10
86.09930960304115
 20
-130.6042588649184
 10
86.14788544938317
 20
-130.6083929795007
 10
86.1881930665606
 20
-130.6083929795007
 10
86.26432967678461
 20
-130.6083929795007
 10
86.2750094727889
 20
-130.5853108397495
 10
86.2750094727889
 20
-130.5195095159812
 10
86.2750094727889
 20
-130.5195095159812
 10
86.2750094727889
 20
-130.0902506185191
 10
86.2750094727889
 20
-130.0902506185191
 10
86.17751327055632
 20
-130.130213726148
 10
86.1606323026786
 20
-130.13675940757
 10
86.11412351362772
 20
-130.1557074327389
 10
86.10998939904542
 20
-130.1767225151989
 10
86.10551077491459
 20
-130.206350336372
 10
86.08656274974572
 20
-130.206350336372
 10
86.07829452058112
 20
-130.206350336372
 10
86.06761472457686
 20
-130.2022162217897
 10
86.06106904315487
 20
-130.1791340820386
 10
86.06106904315487
 20
-130.1791340820386
 10
86.00835908223056
 20
-129.9865532444131
 10
86.00835908223056
 20
-129.9865532444131
 10
86.15443113080515
 20
-129.9400444553622
 10
86.2198879450249
 20
-129.9166178060625
 10
86.2750094727889
 20
-129.8956027236025
 10
86.2750094727889
 20
-129.8956027236025
 10
86.2750094727889
 20
-129.4828802844696
 10
86.2750094727889
 20
-129.4828802844696
 10
86.2750094727889
 20
-129.4828802844696
 10
86.22195500231604
 20
-129.4828802844696
 10
86.22195500231604
 20
-129.4828802844696
 10
86.22195500231604
 20
-129.4828802844696
 10
86.14375133480087
 20
-129.4828802844696
 10
86.14375133480087
 20
-129.4828802844696
 10
86.07588295374146
 20
-129.4828802844696
 10
86.06761472457686
 20
-129.4828802844696
 10
86.03144122198172
 20
-129.4894259658915
 10
86.03144122198172
 20
-129.4894259658915
 10
86.03144122198172
 20
-129.2947780709749
 10
86.03144122198172
 20
-129.2947780709749
 10
86.05900198586373
 20
-129.3009792428484
 10
86.06761472457686
 20
-129.3009792428484
 10
86.1372056533789
 20
-129.3009792428484
 10
86.1372056533789
 20
-129.3009792428484
 10
86.27053084865807
 20
-129.3009792428484
 10
86.27053084865807
 20
-129.3009792428484
 10
86.27053084865807
 20
-129.2313883140463
 10
86.27053084865807
 20
-129.1487060224003
 10
86.26846379136691
 20
-129.144571907818
 10
86.26019556220231
 20
-128.964737923488
 10
86.26019556220231
 20
-128.9457898983191
 10
86.25778399536264
 20
-128.8992811092682
 10
86.25778399536264
 20
-128.8992811092682
 10
86.47379148228781
 20
-128.9075493384328
 10
86.47379148228781
 20
-128.9075493384328
 10
86.48447127829208
 20
-128.9075493384328
 10
86.5054863607521
 20
-128.909616395724
 10
86.5054863607521
 20
-128.9264973636017
 10
86.5054863607521
 20
-128.9457898983191
 10
86.49067245016553
 20
-128.9561251847749
 10
86.46517874357468
 20
-128.9754177194923
 10
86.46517874357468
 20
-129.0260606231254
 10
86.45897757170123
 20
-129.2544704537975
 10
86.46104462899238
 20
-129.3009792428484
 10
86.59023570968925
 20
-129.3009792428484
 10
86.60263805343615
 20
-129.3009792428484
 10
86.70013425566871
 20
-129.2927110136838
 10
86.70013425566871
 20
-129.2927110136838
 10
86.70013425566871
 20
-129.4873589086004
 10
86.70013425566871
 20
-129.4873589086004
 10
86.66189369578245
 20
-129.4849473417607
 10
86.59436982427155
 20
-129.4808132271784
 10
86.45897757170123
 20
-129.4828802844696
 10
86.45897757170123
 20
-129.4828802844696
 10
86.45897757170123
 20
-129.8215331706696
 10
86.45897757170123
 20
-129.8215331706696
 10
86.5137545899167
 20
-129.7981065213699
 10
86.57955591368497
 20
-129.7705457574879
 10
86.628131760027
 20
-129.7474636177367
 10
86.628131760027
 20
-129.7474636177367
 10
86.628131760027
 20
-129.5696966906979
 10
86.628131760027
 20
-129.5696966906979
 10
86.74250893013729
 20
-129.5824435439933
 10
86.86102021482989
 20
-129.5824435439933
 10
86.97711993268281
 20
-129.5824435439933
 10
86.95403779293163
 20
-129.4873589086004
 10
86.92647702904964
 20
-129.4046766169544
 10
86.86308727212104
 20
-129.2713514216752
 10
86.81864554036132
 20
-129.2734184789664
 10
86.73596324871532
 20
-129.2778971030972
 10
86.69806719837757
 20
-129.2799641603883
 10
86.69806719837757
 20
-129.2799641603883
 10
86.69806719837757
 20
-129.1001301760583
 10
86.69806719837757
 20
-129.1001301760583
 10
86.82277965494362
 20
-129.1083984052229
 10
86.9964124674002
 20
-129.1128770293537
 10
87.07875024949767
 20
-129.1128770293537
 10
87.07875024949767
 20
-129.1128770293537
 10
87.16143254114367
 20
-129.1128770293537
 10
87.16143254114367
 20
-129.1128770293537
 10
87.16143254114367
 20
-128.9499240129014
 10
87.16143254114367
 20
-128.9392442168972
 10
87.159020974304
 20
-128.8844671986817
 10
87.159020974304
 20
-128.8844671986817
 10
87.38329669039376
 20
-128.909616395724
 10
87.38329669039376
 20
-128.909616395724
 10
87.38777531452459
 20
-128.909616395724
 10
87.40879039698461
 20
-128.9116834530151
 10
87.40879039698461
 20
-128.9285644208929
 10
87.40879039698461
 20
-128.9433783314794
 10
87.39811060098033
 20
-128.9519910701926
 10
87.37054983709834
 20
-128.9668049807791
 10
87.3643486652249
 20
-129.0322617949989
 10
87.36228160793374
 20
-129.0536213870074
 10
87.36228160793374
 20
-129.1128770293537
 10
87.36228160793374
 20
-129.1128770293537
 10
87.45736624332663
 20
-129.1128770293537
 10
87.45736624332663
 20
-129.1128770293537
 10
87.54004853497263
 20
-129.1128770293537
 10
87.7133368378807
 20
-129.1083984052229
 10
87.83839380399526
 20
-129.1001301760583
 10
87.83839380399526
 20
-129.1001301760583
 10
87.83839380399526
 20
-129.2799641603883
 10
87.83839380399526
 20
-129.2799641603883
 10
87.80876598282212
 20
-129.2778971030972
 10
87.69025469812952
 20
-129.2734184789664
 10
87.6499470809521
 20
-129.2713514216752
 10
87.63513317036552
 20
-129.3223388348569
 10
87.60137123461008
 20
-129.4343044381276
 10
87.5355699108418
 20
-129.5738308052802
 10
87.57794458531038
 20
-129.5738308052802
 10
87.85527477187298
 20
-129.5548827801113
 10
87.91659747151044
 20
-129.5528157228201
 10
87.91659747151044
 20
-129.5528157228201
 10
87.91659747151044
 20
-129.7367838217325
 10
87.91659747151044
 20
-129.7367838217325
 10
87.88696965033729
 20
-129.7367838217325
 10
87.87008868245957
 20
-129.7326497071502
 10
87.70713566600725
 20
-129.7326497071502
 97
        0
 97
        0
 92
        1
 93
        1
 72
     4
 94
        3
 73
     0
 74
     1
 95
       20
 96
       16
 40
0.0
 40
0.0
 40
0.0
 40
0.0
 40
1.0
 40
1.0
 40
1.0
 40
2.0
 40
2.0
 40
2.0
 40
3.0
 40
3.0
 40
3.0
 40
4.0
 40
4.0
 40
4.0
 40
5.0
 40
5.0
 40
5.0
 40
5.0
 10
87.07875024949767
 20
-129.2672173070929
 10
87.07875024949767
 20
-129.2672173070929
 10
87.04705537103338
 20
-129.2672173070929
 10
87.04705537103338
 20
-129.2672173070929
 10
87.09356416008426
 20
-129.3667805666167
 10
87.12525903854855
 20
-129.447051291423
 10
87.159020974304
 20
-129.5738308052802
 10
87.159020974304
 20
-129.5738308052802
 10
87.36641572251604
 20
-129.5738308052802
 10
87.36641572251604
 20
-129.5738308052802
 10
87.39811060098033
 20
-129.4808132271784
 10
87.42153725028004
 20
-129.3964083877898
 10
87.4446193900312
 20
-129.2672173070929
 10
87.4446193900312
 20
-129.2672173070929
 10
87.07875024949767
 20
-129.2672173070929
 10
87.07875024949767
 20
-129.2672173070929
 97
        0
 97
        0
 92
        1
 93
        1
 72
     4
 94
        3
 73
     0
 74
     1
 95
       17
 96
       13
 40
0.0
 40
0.0
 40
0.0
 40
0.0
 40
1.0
 40
1.0
 40
1.0
 40
2.0
 40
2.0
 40
2.0
 40
3.0
 40
3.0
 40
3.0
 40
4.0
 40
4.0
 40
4.0
 40
4.0
 10
87.14214000642627
 20
-130.1178113824011
 10
87.12525903854855
 20
-130.1470946940257
 10
87.07461613491537
 20
-130.240456781676
 10
87.0639363389111
 20
-130.2594048068449
 10
87.25445011924542
 20
-130.3186604491912
 10
87.27546520170544
 20
-130.3248616210646
 10
87.34746769734717
 20
-130.3524223849466
 10
87.40258922511116
 20
-130.2656059787183
 10
87.42567136486234
 20
-130.1915364257854
 10
87.4404852754489
 20
-130.1178113824011
 10
87.4404852754489
 20
-130.1178113824011
 10
87.14214000642627
 20
-130.1178113824011
 10
87.14214000642627
 20
-130.1178113824011
 97
        0
 97
        0
 75
     2
 76
     1
 98
        0
  0
SPLINE
  5
B5
330
AD
100
AcDbEntity
  8
_U+30EC_U+30A4_U+30E4_U+30FC 1
370
     0
100
AcDbSpline
210
0.0
220
0.0
230
1.0
 70
    11
 71
     3
 72
   203
 73
   199
 74
     0
 42
0.0000000001
 43
0.0000000001
 12
1.0
 22
0.0
 32
0.0
 13
1.0
 23
0.0
 33
0.0
 40
0.0
 40
0.0
 40
0.0
 40
0.0
 40
1.0
 40
1.0
 40
1.0
 40
2.0
 40
2.0
 40
2.0
 40
3.0
 40
3.0
 40
3.0
 40
4.0
 40
4.0
 40
4.0
 40
5.0
 40
5.0
 40
5.0
 40
6.0
 40
6.0
 40
6.0
 40
7.0
 40
7.0
 40
7.0
 40
8.0
 40
8.0
 40
8.0
 40
9.0
 40
9.0
 40
9.0
 40
10.0
 40
10.0
 40
10.0
 40
11.0
 40
11.0
 40
11.0
 40
12.0
 40
12.0
 40
12.0
 40
13.0
 40
13.0
 40
13.0
 40
14.0
 40
14.0
 40
14.0
 40
15.0
 40
15.0
 40
15.0
 40
16.0
 40
16.0
 40
16.0
 40
17.0
 40
17.0
 40
17.0
 40
18.0
 40
18.0
 40
18.0
 40
19.0
 40
19.0
 40
19.0
 40
20.0
 40
20.0
 40
20.0
 40
21.0
 40
21.0
 40
21.0
 40
22.0
 40
22.0
 40
22.0
 40
23.0
 40
23.0
 40
23.0
 40
24.0
 40
24.0
 40
24.0
 40
25.0
 40
25.0
 40
25.0
 40
26.0
 40
26.0
 40
26.0
 40
27.0
 40
27.0
 40
27.0
 40
28.0
 40
28.0
 40
28.0
 40
29.0
 40
29.0
 40
29.0
 40
30.0
 40
30.0
 40
30.0
 40
31.0
 40
31.0
 40
31.0
 40
32.0
 40
32.0
 40
32.0
 40
33.0
 40
33.0
 40
33.0
 40
34.0
 40
34.0
 40
34.0
 40
35.0
 40
35.0
 40
35.0
 40
36.0
 40
36.0
 40
36.0
 40
37.0
 40
37.0
 40
37.0
 40
38.0
 40
38.0
 40
38.0
 40
39.0
 40
39.0
 40
39.0
 40
40.0
 40
40.0
 40
40.0
 40
41.0
 40
41.0
 40
41.0
 40
42.0
 40
42.0
 40
42.0
 40
43.0
 40
43.0
 40
43.0
 40
44.0
 40
44.0
 40
44.0
 40
45.0
 40
45.0
 40
45.0
 40
46.0
 40
46.0
 40
46.0
 40
47.0
 40
47.0
 40
47.0
 40
48.0
 40
48.0
 40
48.0
 40
49.0
 40
49.0
 40
49.0
 40
50.0
 40
50.0
 40
50.0
 40
51.0
 40
51.0
 40
51.0
 40
52.0
 40
52.0
 40
52.0
 40
53.0
 40
53.0
 40
53.0
 40
54.0
 40
54.0
 40
54.0
 40
55.0
 40
55.0
 40
55.0
 40
56.0
 40
56.0
 40
56.0
 40
57.0
 40
57.0
 40
57.0
 40
58.0
 40
58.0
 40
58.0
 40
59.0
 40
59.0
 40
59.0
 40
60.0
 40
60.0
 40
60.0
 40
61.0
 40
61.0
 40
61.0
 40
62.0
 40
62.0
 40
62.0
 40
63.0
 40
63.0
 40
63.0
 40
64.0
 40
64.0
 40
64.0
 40
65.0
 40
65.0
 40
65.0
 40
66.0
 40
66.0
 40
66.0
 40
66.0
 10
89.39867754926492
 20
-129.8001735786611
 30
0.0
 10
89.39867754926492
 20
-129.8001735786611
 30
0.0
 10
88.8398830615574
 20
-129.8001735786611
 30
0.0
 10
88.8398830615574
 20
-129.8001735786611
 30
0.0
 10
88.82954777510164
 20
-129.8446153104208
 30
0.0
 10
88.82093503638852
 20
-129.8763101888851
 30
0.0
 10
88.8081881830931
 20
-129.9145507487714
 30
0.0
 10
88.83368188968394
 20
-129.9145507487714
 30
0.0
 10
88.84849580027051
 20
-129.9166178060625
 30
0.0
 10
88.85469697214397
 20
-129.9166178060625
 30
0.0
 10
88.85469697214397
 20
-129.9166178060625
 30
0.0
 10
89.04314369518714
 20
-129.9166178060625
 30
0.0
 10
89.04314369518714
 20
-129.9166178060625
 30
0.0
 10
89.04314369518714
 20
-129.9166178060625
 30
0.0
 10
89.41762557443379
 20
-129.9166178060625
 30
0.0
 10
89.41762557443379
 20
-129.9166178060625
 30
0.0
 10
89.46826847806696
 20
-129.9166178060625
 30
0.0
 10
89.75179983650303
 20
-129.9038709527671
 30
0.0
 10
89.78349471496732
 20
-129.9038709527671
 30
0.0
 10
89.78142765767618
 20
-129.9314317166491
 30
0.0
 10
89.77936060038502
 20
-129.950379741818
 30
0.0
 10
89.77936060038502
 20
-129.9800075629911
 30
0.0
 10
89.77729354309388
 20
-130.0117024414554
 30
0.0
 10
89.77729354309388
 20
-130.1470946940257
 30
0.0
 10
89.77729354309388
 20
-130.1746554579077
 30
0.0
 10
89.77729354309388
 20
-130.1746554579077
 30
0.0
 10
89.77729354309388
 20
-130.420290766006
 30
0.0
 10
89.77729354309388
 20
-130.420290766006
 30
0.0
 10
89.77729354309388
 20
-130.4647324977658
 30
0.0
 10
89.78142765767618
 20
-130.6614474499735
 30
0.0
 10
89.78556177225848
 20
-130.8137206704216
 30
0.0
 10
89.78556177225848
 20
-130.8137206704216
 30
0.0
 10
89.55921899887755
 20
-130.8137206704216
 30
0.0
 10
89.55921899887755
 20
-130.8137206704216
 30
0.0
 10
89.55921899887755
 20
-130.8137206704216
 30
0.0
 10
89.56128605616871
 20
-130.7799587346661
 30
0.0
 10
89.56128605616871
 20
-130.7799587346661
 30
0.0
 10
89.56128605616871
 20
-130.7799587346661
 30
0.0
 10
88.8591755962748
 20
-130.7799587346661
 30
0.0
 10
88.8591755962748
 20
-130.7799587346661
 30
0.0
 10
88.8591755962748
 20
-130.7799587346661
 30
0.0
 10
88.86124265356594
 20
-130.8137206704216
 30
0.0
 10
88.86124265356594
 20
-130.8137206704216
 30
0.0
 10
88.86124265356594
 20
-130.8137206704216
 30
0.0
 10
88.64316810934963
 20
-130.8137206704216
 30
0.0
 10
88.64316810934963
 20
-130.8137206704216
 30
0.0
 10
88.64764673348046
 20
-130.7585991426576
 30
0.0
 10
88.64764673348046
 20
-130.7458522893621
 30
0.0
 10
88.6538479053539
 20
-130.6318196288004
 30
0.0
 10
88.65591496264506
 20
-130.6042588649184
 30
0.0
 10
88.6579820199362
 20
-130.4709336696392
 30
0.0
 10
88.6579820199362
 20
-130.4519856444703
 30
0.0
 10
88.6579820199362
 20
-130.4519856444703
 30
0.0
 10
88.6579820199362
 20
-130.2487250108406
 30
0.0
 10
88.6579820199362
 20
-130.2487250108406
 30
0.0
 10
88.51845565278359
 20
-130.4984944335212
 30
0.0
 10
88.34930146445782
 20
-130.6297525715092
 30
0.0
 10
88.24353703306065
 20
-130.695209385729
 30
0.0
 10
88.24353703306065
 20
-130.695209385729
 30
0.0
 10
88.06990422060406
 20
-130.5556830185764
 30
0.0
 10
88.06990422060406
 20
-130.5556830185764
 30
0.0
 10
88.1587876841235
 20
-130.5046956053947
 30
0.0
 10
88.30279267540695
 20
-130.4178791991664
 30
0.0
 10
88.44025198526842
 20
-130.2235758137983
 30
0.0
 10
88.53120250607901
 20
-130.0964517903926
 30
0.0
 10
88.59665932029876
 20
-129.9527913086577
 30
0.0
 10
88.6304212560542
 20
-129.8001735786611
 30
0.0
 10
88.40201142538214
 20
-129.8025851455008
 30
0.0
 10
88.2221774410521
 20
-129.8087863173742
 30
0.0
 10
88.1270928056592
 20
-129.8108533746654
 30
0.0
 10
88.1270928056592
 20
-129.8108533746654
 30
0.0
 10
88.1270928056592
 20
-129.6330864476265
 30
0.0
 10
88.1270928056592
 20
-129.6330864476265
 30
0.0
 10
88.32380775786697
 20
-129.6396321290484
 30
0.0
 10
88.60733911630302
 20
-129.6437662436307
 30
0.0
 10
88.75754527945992
 20
-129.6437662436307
 30
0.0
 10
88.75754527945992
 20
-129.6437662436307
 30
0.0
 10
88.97114119954541
 20
-129.6437662436307
 30
0.0
 10
88.97114119954541
 20
-129.6437662436307
 30
0.0
 10
88.97114119954541
 20
-129.6437662436307
 30
0.0
 10
88.97114119954541
 20
-129.5359347549424
 30
0.0
 10
88.97114119954541
 20
-129.5359347549424
 30
0.0
 10
88.97114119954541
 20
-129.5359347549424
 30
0.0
 10
88.82506915097082
 20
-129.5359347549424
 30
0.0
 10
88.82506915097082
 20
-129.5359347549424
 30
0.0
 10
88.65591496264506
 20
-129.5359347549424
 30
0.0
 10
88.48676077431928
 20
-129.5400688695247
 30
0.0
 10
88.31967364328467
 20
-129.5466145509467
 30
0.0
 10
88.31967364328467
 20
-129.5466145509467
 30
0.0
 10
88.31967364328467
 20
-129.3750487957813
 30
0.0
 10
88.31967364328467
 20
-129.3750487957813
 30
0.0
 10
88.47401392102387
 20
-129.3857285917855
 30
0.0
 10
88.66004907722736
 20
-129.3857285917855
 30
0.0
 10
88.82506915097082
 20
-129.3857285917855
 30
0.0
 10
88.82506915097082
 20
-129.3857285917855
 30
0.0
 10
88.97114119954541
 20
-129.3857285917855
 30
0.0
 10
88.97114119954541
 20
-129.3857285917855
 30
0.0
 10
88.97114119954541
 20
-129.3857285917855
 30
0.0
 10
88.97114119954541
 20
-129.2672173070929
 30
0.0
 10
88.97114119954541
 20
-129.2672173070929
 30
0.0
 10
88.97114119954541
 20
-129.2672173070929
 30
0.0
 10
88.8398830615574
 20
-129.2672173070929
 30
0.0
 10
88.8398830615574
 20
-129.2672173070929
 30
0.0
 10
88.79337427250653
 20
-129.2672173070929
 30
0.0
 10
88.59045814842531
 20
-129.2758300458061
 30
0.0
 10
88.54808347395674
 20
-129.2758300458061
 30
0.0
 10
88.34516734987552
 20
-129.2799641603883
 30
0.0
 10
88.26868623010297
 20
-129.2820312176795
 30
0.0
 10
88.1904825625878
 20
-129.2840982749707
 30
0.0
 10
88.1904825625878
 20
-129.2840982749707
 30
0.0
 10
88.1904825625878
 20
-129.1001301760583
 30
0.0
 10
88.1904825625878
 20
-129.1001301760583
 30
0.0
 10
88.30485973269809
 20
-129.1083984052229
 30
0.0
 10
88.34930146445782
 20
-129.1083984052229
 30
0.0
 10
88.73205157286907
 20
-129.117011143936
 30
0.0
 10
88.66866181594048
 20
-129.0219265085431
 30
0.0
 10
88.64110105205847
 20
-128.9943657446611
 30
0.0
 10
88.60527205901188
 20
-128.958192242066
 30
0.0
 10
88.60527205901188
 20
-128.958192242066
 30
0.0
 10
88.7806274192111
 20
-128.8758544599685
 30
0.0
 10
88.7806274192111
 20
-128.8758544599685
 30
0.0
 10
88.82093503638852
 20
-128.9116834530151
 30
0.0
 10
88.86537676814824
 20
-128.9540581274837
 30
0.0
 10
88.93944632108112
 20
-129.0639566734632
 30
0.0
 10
88.93944632108112
 20
-129.0639566734632
 30
0.0
 10
88.82506915097082
 20
-129.1190782012272
 30
0.0
 10
88.82506915097082
 20
-129.1190782012272
 30
0.0
 10
88.82506915097082
 20
-129.1190782012272
 30
0.0
 10
88.8357489469751
 20
-129.1190782012272
 30
0.0
 10
88.8357489469751
 20
-129.1190782012272
 30
0.0
 10
88.8357489469751
 20
-129.1190782012272
 30
0.0
 10
89.3583699320875
 20
-129.1190782012272
 30
0.0
 10
89.3583699320875
 20
-129.1190782012272
 30
0.0
 10
89.3583699320875
 20
-129.1190782012272
 30
0.0
 10
89.2632852966946
 20
-129.0746364694675
 30
0.0
 10
89.2632852966946
 20
-129.0746364694675
 30
0.0
 10
89.29050155102807
 20
-129.0367404191297
 30
0.0
 10
89.34769013608322
 20
-128.9561251847749
 30
0.0
 10
89.3625040466698
 20
-128.882055631842
 30
0.0
 10
89.3625040466698
 20
-128.882055631842
 30
0.0
 10
89.57609996675528
 20
-128.9457898983191
 30
0.0
 10
89.57609996675528
 20
-128.9457898983191
 30
0.0
 10
89.5847127054684
 20
-128.9478569556103
 30
0.0
 10
89.60572778792843
 20
-128.958192242066
 30
0.0
 10
89.60572778792843
 20
-128.9795518340746
 30
0.0
 10
89.60572778792843
 20
-129.0174478844123
 30
0.0
 10
89.54027097370869
 20
-129.0174478844123
 30
0.0
 10
89.52132294853982
 20
-129.0174478844123
 30
0.0
 10
89.51064315253554
 20
-129.0367404191297
 30
0.0
 10
89.48721650323584
 20
-129.0767035267586
 30
0.0
 10
89.45758868206269
 20
-129.117011143936
 30
0.0
 10
89.8575642679002
 20
-129.1108099720626
 30
0.0
 10
89.88719208907335
 20
-129.1083984052229
 30
0.0
 10
89.96332869929736
 20
-129.1021972333494
 30
0.0
 10
89.96332869929736
 20
-129.1021972333494
 30
0.0
 10
89.96332869929736
 20
-129.2840982749707
 30
0.0
 10
89.96332869929736
 20
-129.2840982749707
 30
0.0
 10
89.9443806741285
 20
-129.2840982749707
 30
0.0
 10
89.91888696753765
 20
-129.2820312176795
 30
0.0
 10
89.69908987557871
 20
-129.2734184789664
 30
0.0
 10
89.648102462397
 20
-129.2713514216752
 30
0.0
 10
89.42830537043807
 20
-129.2672173070929
 30
0.0
 10
89.38386363867835
 20
-129.2672173070929
 30
0.0
 10
89.38386363867835
 20
-129.2672173070929
 30
0.0
 10
89.16785615175318
 20
-129.2672173070929
 30
0.0
 10
89.16785615175318
 20
-129.2672173070929
 30
0.0
 10
89.16785615175318
 20
-129.2672173070929
 30
0.0
 10
89.16785615175318
 20
-129.3857285917855
 30
0.0
 10
89.16785615175318
 20
-129.3857285917855
 30
0.0
 10
89.16785615175318
 20
-129.3857285917855
 30
0.0
 10
89.34148896420977
 20
-129.3857285917855
 30
0.0
 10
89.34148896420977
 20
-129.3857285917855
 30
0.0
 10
89.5044419806621
 20
-129.3857285917855
 30
0.0
 10
89.69461125144788
 20
-129.3857285917855
 30
0.0
 10
89.85136309602674
 20
-129.3750487957813
 30
0.0
 10
89.85136309602674
 20
-129.3750487957813
 30
0.0
 10
89.85136309602674
 20
-129.5466145509467
 30
0.0
 10
89.85136309602674
 20
-129.5466145509467
 30
0.0
 10
89.64190129052356
 20
-129.5380018122336
 30
0.0
 10
89.44518633831579
 20
-129.5359347549424
 30
0.0
 10
89.34148896420977
 20
-129.5359347549424
 30
0.0
 10
89.34148896420977
 20
-129.5359347549424
 30
0.0
 10
89.16785615175318
 20
-129.5359347549424
 30
0.0
 10
89.16785615175318
 20
-129.5359347549424
 30
0.0
 10
89.16785615175318
 20
-129.5359347549424
 30
0.0
 10
89.16785615175318
 20
-129.6437662436307
 30
0.0
 10
89.16785615175318
 20
-129.6437662436307
 30
0.0
 10
89.16785615175318
 20
-129.6437662436307
 30
0.0
 10
89.39867754926492
 20
-129.6437662436307
 30
0.0
 10
89.39867754926492
 20
-129.6437662436307
 30
0.0
 10
89.53165823499556
 20
-129.6437662436307
 30
0.0
 10
89.81966821756245
 20
-129.6396321290484
 30
0.0
 10
90.02878551351711
 20
-129.6330864476265
 30
0.0
 10
90.02878551351711
 20
-129.6330864476265
 30
0.0
 10
90.02878551351711
 20
-129.8108533746654
 30
0.0
 10
90.02878551351711
 20
-129.8108533746654
 30
0.0
 10
89.83654918544018
 20
-129.8046522027919
 30
0.0
 10
89.52339000583096
 20
-129.8001735786611
 30
0.0
 10
89.39867754926492
 20
-129.8001735786611
 30
0.0
  0
POLYLINE
  5
B6
330
AD
100
AcDbEntity
  8
_U+30EC_U+30A4_U+30E4_U+30FC 1
370
     0
100
AcDb2dPolyline
 66
     1
 10
0.0
 20
0.0
 30
0.0
  0
VERTEX
  5
B7
330
B6
100
AcDbEntity
  8
_U+30EC_U+30A4_U+30E4_U+30FC 1
370
     0
100
AcDbVertex
100
AcDb2dVertex
 10
89.56369762300838
 20
-130.0561441732151
 30
0.0
  0
VERTEX
  5
B8
330
B6
100
AcDbEntity
  8
_U+30EC_U+30A4_U+30E4_U+30FC 1
370
     0
100
AcDbVertex
100
AcDb2dVertex
 10
88.85710853898364
 20
-130.0561441732151
 30
0.0
  0
VERTEX
  5
B9
330
B6
100
AcDbEntity
  8
_U+30EC_U+30A4_U+30E4_U+30FC 1
370
     0
100
AcDbVertex
100
AcDb2dVertex
 10
88.85710853898364
 20
-130.164320171452
 30
0.0
  0
VERTEX
  5
BA
330
B6
100
AcDbEntity
  8
_U+30EC_U+30A4_U+30E4_U+30FC 1
370
     0
100
AcDbVertex
100
AcDb2dVertex
 10
89.56369762300838
 20
-130.164320171452
 30
0.0
  0
VERTEX
  5
BB
330
B6
100
AcDbEntity
  8
_U+30EC_U+30A4_U+30E4_U+30FC 1
370
     0
100
AcDbVertex
100
AcDb2dVertex
 10
89.56369762300838
 20
-130.0561441732151
 30
0.0
  0
SEQEND
  5
BC
330
B6
100
AcDbEntity
  8
_U+30EC_U+30A4_U+30E4_U+30FC 1
370
     0
  0
POLYLINE
  5
BD
330
AD
100
AcDbEntity
  8
_U+30EC_U+30A4_U+30E4_U+30FC 1
370
     0
100
AcDb2dPolyline
 66
     1
 10
0.0
 20
0.0
 30
0.0
  0
VERTEX
  5
BE
330
BD
100
AcDbEntity
  8
_U+30EC_U+30A4_U+30E4_U+30FC 1
370
     0
100
AcDbVertex
100
AcDb2dVertex
 10
89.56369762300838
 20
-130.289032628018
 30
0.0
  0
VERTEX
  5
BF
330
BD
100
AcDbEntity
  8
_U+30EC_U+30A4_U+30E4_U+30FC 1
370
     0
100
AcDbVertex
100
AcDb2dVertex
 10
88.85710853898364
 20
-130.289032628018
 30
0.0
  0
VERTEX
  5
C0
330
BD
100
AcDbEntity
  8
_U+30EC_U+30A4_U+30E4_U+30FC 1
370
     0
100
AcDbVertex
100
AcDb2dVertex
 10
88.85710853898364
 20
-130.4034097981283
 30
0.0
  0
VERTEX
  5
C1
330
BD
100
AcDbEntity
  8
_U+30EC_U+30A4_U+30E4_U+30FC 1
370
     0
100
AcDbVertex
100
AcDb2dVertex
 10
89.56369762300838
 20
-130.4034097981283
 30
0.0
  0
VERTEX
  5
C2
330
BD
100
AcDbEntity
  8
_U+30EC_U+30A4_U+30E4_U+30FC 1
370
     0
100
AcDbVertex
100
AcDb2dVertex
 10
89.56369762300838
 20
-130.289032628018
 30
0.0
  0
SEQEND
  5
C3
330
BD
100
AcDbEntity
  8
_U+30EC_U+30A4_U+30E4_U+30FC 1
370
     0
  0
POLYLINE
  5
C4
330
AD
100
AcDbEntity
  8
_U+30EC_U+30A4_U+30E4_U+30FC 1
370
     0
100
AcDb2dPolyline
 66
     1
 10
0.0
 20
0.0
 30
0.0
  0
VERTEX
  5
C5
330
C4
100
AcDbEntity
  8
_U+30EC_U+30A4_U+30E4_U+30FC 1
370
     0
100
AcDbVertex
100
AcDb2dVertex
 10
89.56369762300838
 20
-130.5322563692767
 30
0.0
  0
VERTEX
  5
C6
330
C4
100
AcDbEntity
  8
_U+30EC_U+30A4_U+30E4_U+30FC 1
370
     0
100
AcDbVertex
100
AcDb2dVertex
 10
88.85710853898364
 20
-130.5322563692767
 30
0.0
  0
VERTEX
  5
C7
330
C4
100
AcDbEntity
  8
_U+30EC_U+30A4_U+30E4_U+30FC 1
370
     0
100
AcDbVertex
100
AcDb2dVertex
 10
88.85710853898364
 20
-130.646633539387
 30
0.0
  0
VERTEX
  5
C8
330
C4
100
AcDbEntity
  8
_U+30EC_U+30A4_U+30E4_U+30FC 1
370
     0
100
AcDbVertex
100
AcDb2dVertex
 10
89.56369762300838
 20
-130.646633539387
 30
0.0
  0
VERTEX
  5
C9
330
C4
100
AcDbEntity
  8
_U+30EC_U+30A4_U+30E4_U+30FC 1
370
     0
100
AcDbVertex
100
AcDb2dVertex
 10
89.56369762300838
 20
-130.5322563692767
 30
0.0
  0
SEQEND
  5
CA
330
C4
100
AcDbEntity
  8
_U+30EC_U+30A4_U+30E4_U+30FC 1
370
     0
  0
HATCH
  5
CB
330
AD
100
AcDbEntity
  8
_U+30EC_U+30A4_U+30E4_U+30FC 1
 62
     7
420
 16777215
100
AcDbHatch
 10
0.0
 20
0.0
 30
0.0
210
0.0
220
0.0
230
1.0
  2
SOLID
 70
     1
 71
     0
 91
        4
 92
        1
 93
        1
 72
     4
 94
        3
 73
     0
 74
     1
 95
      203
 96
      199
 40
0.0
 40
0.0
 40
0.0
 40
0.0
 40
1.0
 40
1.0
 40
1.0
 40
2.0
 40
2.0
 40
2.0
 40
3.0
 40
3.0
 40
3.0
 40
4.0
 40
4.0
 40
4.0
 40
5.0
 40
5.0
 40
5.0
 40
6.0
 40
6.0
 40
6.0
 40
7.0
 40
7.0
 40
7.0
 40
8.0
 40
8.0
 40
8.0
 40
9.0
 40
9.0
 40
9.0
 40
10.0
 40
10.0
 40
10.0
 40
11.0
 40
11.0
 40
11.0
 40
12.0
 40
12.0
 40
12.0
 40
13.0
 40
13.0
 40
13.0
 40
14.0
 40
14.0
 40
14.0
 40
15.0
 40
15.0
 40
15.0
 40
16.0
 40
16.0
 40
16.0
 40
17.0
 40
17.0
 40
17.0
 40
18.0
 40
18.0
 40
18.0
 40
19.0
 40
19.0
 40
19.0
 40
20.0
 40
20.0
 40
20.0
 40
21.0
 40
21.0
 40
21.0
 40
22.0
 40
22.0
 40
22.0
 40
23.0
 40
23.0
 40
23.0
 40
24.0
 40
24.0
 40
24.0
 40
25.0
 40
25.0
 40
25.0
 40
26.0
 40
26.0
 40
26.0
 40
27.0
 40
27.0
 40
27.0
 40
28.0
 40
28.0
 40
28.0
 40
29.0
 40
29.0
 40
29.0
 40
30.0
 40
30.0
 40
30.0
 40
31.0
 40
31.0
 40
31.0
 40
32.0
 40
32.0
 40
32.0
 40
33.0
 40
33.0
 40
33.0
 40
34.0
 40
34.0
 40
34.0
 40
35.0
 40
35.0
 40
35.0
 40
36.0
 40
36.0
 40
36.0
 40
37.0
 40
37.0
 40
37.0
 40
38.0
 40
38.0
 40
38.0
 40
39.0
 40
39.0
 40
39.0
 40
40.0
 40
40.0
 40
40.0
 40
41.0
 40
41.0
 40
41.0
 40
42.0
 40
42.0
 40
42.0
 40
43.0
 40
43.0
 40
43.0
 40
44.0
 40
44.0
 40
44.0
 40
45.0
 40
45.0
 40
45.0
 40
46.0
 40
46.0
 40
46.0
 40
47.0
 40
47.0
 40
47.0
 40
48.0
 40
48.0
 40
48.0
 40
49.0
 40
49.0
 40
49.0
 40
50.0
 40
50.0
 40
50.0
 40
51.0
 40
51.0
 40
51.0
 40
52.0
 40
52.0
 40
52.0
 40
53.0
 40
53.0
 40
53.0
 40
54.0
 40
54.0
 40
54.0
 40
55.0
 40
55.0
 40
55.0
 40
56.0
 40
56.0
 40
56.0
 40
57.0
 40
57.0
 40
57.0
 40
58.0
 40
58.0
 40
58.0
 40
59.0
 40
59.0
 40
59.0
 40
60.0
 40
60.0
 40
60.0
 40
61.0
 40
61.0
 40
61.0
 40
62.0
 40
62.0
 40
62.0
 40
63.0
 40
63.0
 40
63.0
 40
64.0
 40
64.0
 40
64.0
 40
65.0
 40
65.0
 40
65.0
 40
66.0
 40
66.0
 40
66.0
 40
66.0
 10
89.39867754926492
 20
-129.8001735786611
 10
89.39867754926492
 20
-129.8001735786611
 10
88.8398830615574
 20
-129.8001735786611
 10
88.8398830615574
 20
-129.8001735786611
 10
88.82954777510164
 20
-129.8446153104208
 10
88.82093503638852
 20
-129.8763101888851
 10
88.8081881830931
 20
-129.9145507487714
 10
88.83368188968394
 20
-129.9145507487714
 10
88.84849580027051
 20
-129.9166178060625
 10
88.85469697214397
 20
-129.9166178060625
 10
88.85469697214397
 20
-129.9166178060625
 10
89.04314369518714
 20
-129.9166178060625
 10
89.04314369518714
 20
-129.9166178060625
 10
89.04314369518714
 20
-129.9166178060625
 10
89.41762557443379
 20
-129.9166178060625
 10
89.41762557443379
 20
-129.9166178060625
 10
89.46826847806696
 20
-129.9166178060625
 10
89.75179983650303
 20
-129.9038709527671
 10
89.78349471496732
 20
-129.9038709527671
 10
89.78142765767618
 20
-129.9314317166491
 10
89.77936060038502
 20
-129.950379741818
 10
89.77936060038502
 20
-129.9800075629911
 10
89.77729354309388
 20
-130.0117024414554
 10
89.77729354309388
 20
-130.1470946940257
 10
89.77729354309388
 20
-130.1746554579077
 10
89.77729354309388
 20
-130.1746554579077
 10
89.77729354309388
 20
-130.420290766006
 10
89.77729354309388
 20
-130.420290766006
 10
89.77729354309388
 20
-130.4647324977658
 10
89.78142765767618
 20
-130.6614474499735
 10
89.78556177225848
 20
-130.8137206704216
 10
89.78556177225848
 20
-130.8137206704216
 10
89.55921899887755
 20
-130.8137206704216
 10
89.55921899887755
 20
-130.8137206704216
 10
89.55921899887755
 20
-130.8137206704216
 10
89.56128605616871
 20
-130.7799587346661
 10
89.56128605616871
 20
-130.7799587346661
 10
89.56128605616871
 20
-130.7799587346661
 10
88.8591755962748
 20
-130.7799587346661
 10
88.8591755962748
 20
-130.7799587346661
 10
88.8591755962748
 20
-130.7799587346661
 10
88.86124265356594
 20
-130.8137206704216
 10
88.86124265356594
 20
-130.8137206704216
 10
88.86124265356594
 20
-130.8137206704216
 10
88.64316810934963
 20
-130.8137206704216
 10
88.64316810934963
 20
-130.8137206704216
 10
88.64764673348046
 20
-130.7585991426576
 10
88.64764673348046
 20
-130.7458522893621
 10
88.6538479053539
 20
-130.6318196288004
 10
88.65591496264506
 20
-130.6042588649184
 10
88.6579820199362
 20
-130.4709336696392
 10
88.6579820199362
 20
-130.4519856444703
 10
88.6579820199362
 20
-130.4519856444703
 10
88.6579820199362
 20
-130.2487250108406
 10
88.6579820199362
 20
-130.2487250108406
 10
88.51845565278359
 20
-130.4984944335212
 10
88.34930146445782
 20
-130.6297525715092
 10
88.24353703306065
 20
-130.695209385729
 10
88.24353703306065
 20
-130.695209385729
 10
88.06990422060406
 20
-130.5556830185764
 10
88.06990422060406
 20
-130.5556830185764
 10
88.1587876841235
 20
-130.5046956053947
 10
88.30279267540695
 20
-130.4178791991664
 10
88.44025198526842
 20
-130.2235758137983
 10
88.53120250607901
 20
-130.0964517903926
 10
88.59665932029876
 20
-129.9527913086577
 10
88.6304212560542
 20
-129.8001735786611
 10
88.40201142538214
 20
-129.8025851455008
 10
88.2221774410521
 20
-129.8087863173742
 10
88.1270928056592
 20
-129.8108533746654
 10
88.1270928056592
 20
-129.8108533746654
 10
88.1270928056592
 20
-129.6330864476265
 10
88.1270928056592
 20
-129.6330864476265
 10
88.32380775786697
 20
-129.6396321290484
 10
88.60733911630302
 20
-129.6437662436307
 10
88.75754527945992
 20
-129.6437662436307
 10
88.75754527945992
 20
-129.6437662436307
 10
88.97114119954541
 20
-129.6437662436307
 10
88.97114119954541
 20
-129.6437662436307
 10
88.97114119954541
 20
-129.6437662436307
 10
88.97114119954541
 20
-129.5359347549424
 10
88.97114119954541
 20
-129.5359347549424
 10
88.97114119954541
 20
-129.5359347549424
 10
88.82506915097082
 20
-129.5359347549424
 10
88.82506915097082
 20
-129.5359347549424
 10
88.65591496264506
 20
-129.5359347549424
 10
88.48676077431928
 20
-129.5400688695247
 10
88.31967364328467
 20
-129.5466145509467
 10
88.31967364328467
 20
-129.5466145509467
 10
88.31967364328467
 20
-129.3750487957813
 10
88.31967364328467
 20
-129.3750487957813
 10
88.47401392102387
 20
-129.3857285917855
 10
88.66004907722736
 20
-129.3857285917855
 10
88.82506915097082
 20
-129.3857285917855
 10
88.82506915097082
 20
-129.3857285917855
 10
88.97114119954541
 20
-129.3857285917855
 10
88.97114119954541
 20
-129.3857285917855
 10
88.97114119954541
 20
-129.3857285917855
 10
88.97114119954541
 20
-129.2672173070929
 10
88.97114119954541
 20
-129.2672173070929
 10
88.97114119954541
 20
-129.2672173070929
 10
88.8398830615574
 20
-129.2672173070929
 10
88.8398830615574
 20
-129.2672173070929
 10
88.79337427250653
 20
-129.2672173070929
 10
88.59045814842531
 20
-129.2758300458061
 10
88.54808347395674
 20
-129.2758300458061
 10
88.34516734987552
 20
-129.2799641603883
 10
88.26868623010297
 20
-129.2820312176795
 10
88.1904825625878
 20
-129.2840982749707
 10
88.1904825625878
 20
-129.2840982749707
 10
88.1904825625878
 20
-129.1001301760583
 10
88.1904825625878
 20
-129.1001301760583
 10
88.30485973269809
 20
-129.1083984052229
 10
88.34930146445782
 20
-129.1083984052229
 10
88.73205157286907
 20
-129.117011143936
 10
88.66866181594048
 20
-129.0219265085431
 10
88.64110105205847
 20
-128.9943657446611
 10
88.60527205901188
 20
-128.958192242066
 10
88.60527205901188
 20
-128.958192242066
 10
88.7806274192111
 20
-128.8758544599685
 10
88.7806274192111
 20
-128.8758544599685
 10
88.82093503638852
 20
-128.9116834530151
 10
88.86537676814824
 20
-128.9540581274837
 10
88.93944632108112
 20
-129.0639566734632
 10
88.93944632108112
 20
-129.0639566734632
 10
88.82506915097082
 20
-129.1190782012272
 10
88.82506915097082
 20
-129.1190782012272
 10
88.82506915097082
 20
-129.1190782012272
 10
88.8357489469751
 20
-129.1190782012272
 10
88.8357489469751
 20
-129.1190782012272
 10
88.8357489469751
 20
-129.1190782012272
 10
89.3583699320875
 20
-129.1190782012272
 10
89.3583699320875
 20
-129.1190782012272
 10
89.3583699320875
 20
-129.1190782012272
 10
89.2632852966946
 20
-129.0746364694675
 10
89.2632852966946
 20
-129.0746364694675
 10
89.29050155102807
 20
-129.0367404191297
 10
89.34769013608322
 20
-128.9561251847749
 10
89.3625040466698
 20
-128.882055631842
 10
89.3625040466698
 20
-128.882055631842
 10
89.57609996675528
 20
-128.9457898983191
 10
89.57609996675528
 20
-128.9457898983191
 10
89.5847127054684
 20
-128.9478569556103
 10
89.60572778792843
 20
-128.958192242066
 10
89.60572778792843
 20
-128.9795518340746
 10
89.60572778792843
 20
-129.0174478844123
 10
89.54027097370869
 20
-129.0174478844123
 10
89.52132294853982
 20
-129.0174478844123
 10
89.51064315253554
 20
-129.0367404191297
 10
89.48721650323584
 20
-129.0767035267586
 10
89.45758868206269
 20
-129.117011143936
 10
89.8575642679002
 20
-129.1108099720626
 10
89.88719208907335
 20
-129.1083984052229
 10
89.96332869929736
 20
-129.1021972333494
 10
89.96332869929736
 20
-129.1021972333494
 10
89.96332869929736
 20
-129.2840982749707
 10
89.96332869929736
 20
-129.2840982749707
 10
89.9443806741285
 20
-129.2840982749707
 10
89.91888696753765
 20
-129.2820312176795
 10
89.69908987557871
 20
-129.2734184789664
 10
89.648102462397
 20
-129.2713514216752
 10
89.42830537043807
 20
-129.2672173070929
 10
89.38386363867835
 20
-129.2672173070929
 10
89.38386363867835
 20
-129.2672173070929
 10
89.16785615175318
 20
-129.2672173070929
 10
89.16785615175318
 20
-129.2672173070929
 10
89.16785615175318
 20
-129.2672173070929
 10
89.16785615175318
 20
-129.3857285917855
 10
89.16785615175318
 20
-129.3857285917855
 10
89.16785615175318
 20
-129.3857285917855
 10
89.34148896420977
 20
-129.3857285917855
 10
89.34148896420977
 20
-129.3857285917855
 10
89.5044419806621
 20
-129.3857285917855
 10
89.69461125144788
 20
-129.3857285917855
 10
89.85136309602674
 20
-129.3750487957813
 10
89.85136309602674
 20
-129.3750487957813
 10
89.85136309602674
 20
-129.5466145509467
 10
89.85136309602674
 20
-129.5466145509467
 10
89.64190129052356
 20
-129.5380018122336
 10
89.44518633831579
 20
-129.5359347549424
 10
89.34148896420977
 20
-129.5359347549424
 10
89.34148896420977
 20
-129.5359347549424
 10
89.16785615175318
 20
-129.5359347549424
 10
89.16785615175318
 20
-129.5359347549424
 10
89.16785615175318
 20
-129.5359347549424
 10
89.16785615175318
 20
-129.6437662436307
 10
89.16785615175318
 20
-129.6437662436307
 10
89.16785615175318
 20
-129.6437662436307
 10
89.39867754926492
 20
-129.6437662436307
 10
89.39867754926492
 20
-129.6437662436307
 10
89.53165823499556
 20
-129.6437662436307
 10
89.81966821756245
 20
-129.6396321290484
 10
90.02878551351711
 20
-129.6330864476265
 10
90.02878551351711
 20
-129.6330864476265
 10
90.02878551351711
 20
-129.8108533746654
 10
90.02878551351711
 20
-129.8108533746654
 10
89.83654918544018
 20
-129.8046522027919
 10
89.52339000583096
 20
-129.8001735786611
 10
89.39867754926492
 20
-129.8001735786611
 97
        0
 97
        0
 92
        1
 93
        4
 72
     1
 10
89.56369762300838
 20
-130.0561441732151
 11
88.85710853898364
 21
-130.0561441732151
 72
     1
 10
88.85710853898364
 20
-130.0561441732151
 11
88.85710853898364
 21
-130.164320171452
 72
     1
 10
88.85710853898364
 20
-130.164320171452
 11
89.56369762300838
 21
-130.164320171452
 72
     1
 10
89.56369762300838
 20
-130.164320171452
 11
89.56369762300838
 21
-130.0561441732151
 97
        0
 92
        1
 93
        4
 72
     1
 10
89.56369762300838
 20
-130.289032628018
 11
88.85710853898364
 21
-130.289032628018
 72
     1
 10
88.85710853898364
 20
-130.289032628018
 11
88.85710853898364
 21
-130.4034097981283
 72
     1
 10
88.85710853898364
 20
-130.4034097981283
 11
89.56369762300838
 21
-130.4034097981283
 72
     1
 10
89.56369762300838
 20
-130.4034097981283
 11
89.56369762300838
 21
-130.289032628018
 97
        0
 92
        1
 93
        4
 72
     1
 10
89.56369762300838
 20
-130.5322563692767
 11
88.85710853898364
 21
-130.5322563692767
 72
     1
 10
88.85710853898364
 20
-130.5322563692767
 11
88.85710853898364
 21
-130.646633539387
 72
     1
 10
88.85710853898364
 20
-130.646633539387
 11
89.56369762300838
 21
-130.646633539387
 72
     1
 10
89.56369762300838
 20
-130.646633539387
 11
89.56369762300838
 21
-130.5322563692767
 97
        0
 75
     2
 76
     1
 98
        0
  0
SPLINE
  5
CC
330
AD
100
AcDbEntity
  8
_U+30EC_U+30A4_U+30E4_U+30FC 1
370
     0
100
AcDbSpline
210
0.0
220
0.0
230
1.0
 70
    11
 71
     3
 72
    47
 73
    43
 74
     0
 42
0.0000000001
 43
0.0000000001
 12
1.0
 22
0.0
 32
0.0
 13
1.0
 23
0.0
 33
0.0
 40
0.0
 40
0.0
 40
0.0
 40
0.0
 40
1.0
 40
1.0
 40
1.0
 40
2.0
 40
2.0
 40
2.0
 40
3.0
 40
3.0
 40
3.0
 40
4.0
 40
4.0
 40
4.0
 40
5.0
 40
5.0
 40
5.0
 40
6.0
 40
6.0
 40
6.0
 40
7.0
 40
7.0
 40
7.0
 40
8.0
 40
8.0
 40
8.0
 40
9.0
 40
9.0
 40
9.0
 40
10.0
 40
10.0
 40
10.0
 40
11.0
 40
11.0
 40
11.0
 40
12.0
 40
12.0
 40
12.0
 40
13.0
 40
13.0
 40
13.0
 40
14.0
 40
14.0
 40
14.0
 40
14.0
 10
91.37530108392701
 20
-129.7770914389099
 30
0.0
 10
91.37530108392701
 20
-129.7770914389099
 30
0.0
 10
91.2738430218864
 20
-129.7770914389099
 30
0.0
 10
91.2738430218864
 20
-129.7770914389099
 30
0.0
 10
91.2738430218864
 20
-129.8639078451382
 30
0.0
 10
91.25282793942638
 20
-130.2532036349714
 30
0.0
 10
91.05576847767009
 20
-130.4730007269304
 30
0.0
 10
90.90349525722205
 20
-130.6421549152561
 30
0.0
 10
90.69644501855853
 20
-130.7120903536067
 30
0.0
 10
90.61169566962138
 20
-130.7396511174887
 30
0.0
 10
90.61169566962138
 20
-130.7396511174887
 30
0.0
 10
90.41704777470477
 20
-130.5725639864541
 30
0.0
 10
90.41704777470477
 20
-130.5725639864541
 30
0.0
 10
90.51419946738882
 20
-130.5598171331587
 30
0.0
 10
90.68989933713655
 20
-130.536390483859
 30
0.0
 10
90.87834606017972
 20
-130.3482882703643
 30
0.0
 10
90.95241561311259
 20
-130.2762857747226
 30
0.0
 10
91.05576847767009
 20
-130.13675940757
 30
0.0
 10
91.05576847767009
 20
-129.7770914389099
 30
0.0
 10
91.05576847767009
 20
-129.7770914389099
 30
0.0
 10
90.82529158970688
 20
-129.7770914389099
 30
0.0
 10
90.82529158970688
 20
-129.7770914389099
 30
0.0
 10
90.63925643350339
 20
-129.7770914389099
 30
0.0
 10
90.45287676775136
 20
-129.7812255534922
 30
0.0
 10
90.26684161154787
 20
-129.7960394640788
 30
0.0
 10
90.26684161154787
 20
-129.7960394640788
 30
0.0
 10
90.26684161154787
 20
-129.5762423721198
 30
0.0
 10
90.26684161154787
 20
-129.5762423721198
 30
0.0
 10
90.45528833459105
 20
-129.5910562827064
 30
0.0
 10
90.74088675031825
 20
-129.5951903972887
 30
0.0
 10
90.82529158970688
 20
-129.5951903972887
 30
0.0
 10
90.82529158970688
 20
-129.5951903972887
 30
0.0
 10
91.37530108392701
 20
-129.5951903972887
 30
0.0
 10
91.37530108392701
 20
-129.5951903972887
 30
0.0
 10
91.39424910909588
 20
-129.5951903972887
 30
0.0
 10
91.7115424032874
 20
-129.5951903972887
 30
0.0
 10
91.93995223395946
 20
-129.5762423721198
 30
0.0
 10
91.93995223395946
 20
-129.5762423721198
 30
0.0
 10
91.93995223395946
 20
-129.7960394640788
 30
0.0
 10
91.93995223395946
 20
-129.7960394640788
 30
0.0
 10
91.75185002046481
 20
-129.7812255534922
 30
0.0
 10
91.56340329742166
 20
-129.7770914389099
 30
0.0
 10
91.37530108392701
 20
-129.7770914389099
 30
0.0
  0
SPLINE
  5
CD
330
AD
100
AcDbEntity
  8
_U+30EC_U+30A4_U+30E4_U+30FC 1
370
     0
100
AcDbSpline
210
0.0
220
0.0
230
1.0
 70
    11
 71
     3
 72
    29
 73
    25
 74
     0
 42
0.0000000001
 43
0.0000000001
 12
1.0
 22
0.0
 32
0.0
 13
1.0
 23
0.0
 33
0.0
 40
0.0
 40
0.0
 40
0.0
 40
0.0
 40
1.0
 40
1.0
 40
1.0
 40
2.0
 40
2.0
 40
2.0
 40
3.0
 40
3.0
 40
3.0
 40
4.0
 40
4.0
 40
4.0
 40
5.0
 40
5.0
 40
5.0
 40
6.0
 40
6.0
 40
6.0
 40
7.0
 40
7.0
 40
7.0
 40
8.0
 40
8.0
 40
8.0
 40
8.0
 10
91.2738430218864
 20
-129.2482692819241
 30
0.0
 10
91.2738430218864
 20
-129.2482692819241
 30
0.0
 10
90.9207207346483
 20
-129.2482692819241
 30
0.0
 10
90.9207207346483
 20
-129.2482692819241
 30
0.0
 10
90.80841062182915
 20
-129.2482692819241
 30
0.0
 10
90.66888425467653
 20
-129.2544704537975
 30
0.0
 10
90.56105276598821
 20
-129.2672173070929
 30
0.0
 10
90.56105276598821
 20
-129.2672173070929
 30
0.0
 10
90.56105276598821
 20
-129.0322617949989
 30
0.0
 10
90.56105276598821
 20
-129.0322617949989
 30
0.0
 10
90.67921954113228
 20
-129.0470757055855
 30
0.0
 10
90.86353214959315
 20
-129.0515543297163
 30
0.0
 10
90.9207207346483
 20
-129.0515543297163
 30
0.0
 10
90.9207207346483
 20
-129.0515543297163
 30
0.0
 10
91.2738430218864
 20
-129.0515543297163
 30
0.0
 10
91.2738430218864
 20
-129.0515543297163
 30
0.0
 10
91.29279104705527
 20
-129.0515543297163
 30
0.0
 10
91.49587942591076
 20
-129.0515543297163
 30
0.0
 10
91.63747285035453
 20
-129.0322617949989
 30
0.0
 10
91.63747285035453
 20
-129.0322617949989
 30
0.0
 10
91.63747285035453
 20
-129.2672173070929
 30
0.0
 10
91.63747285035453
 20
-129.2672173070929
 30
0.0
 10
91.48106551532418
 20
-129.2482692819241
 30
0.0
 10
91.29072398976413
 20
-129.2482692819241
 30
0.0
 10
91.2738430218864
 20
-129.2482692819241
 30
0.0
  0
HATCH
  5
CE
330
AD
100
AcDbEntity
  8
_U+30EC_U+30A4_U+30E4_U+30FC 1
 62
     7
420
 16777215
100
AcDbHatch
 10
0.0
 20
0.0
 30
0.0
210
0.0
220
0.0
230
1.0
  2
SOLID
 70
     1
 71
     0
 91
        2
 92
        1
 93
        1
 72
     4
 94
        3
 73
     0
 74
     1
 95
       47
 96
       43
 40
0.0
 40
0.0
 40
0.0
 40
0.0
 40
1.0
 40
1.0
 40
1.0
 40
2.0
 40
2.0
 40
2.0
 40
3.0
 40
3.0
 40
3.0
 40
4.0
 40
4.0
 40
4.0
 40
5.0
 40
5.0
 40
5.0
 40
6.0
 40
6.0
 40
6.0
 40
7.0
 40
7.0
 40
7.0
 40
8.0
 40
8.0
 40
8.0
 40
9.0
 40
9.0
 40
9.0
 40
10.0
 40
10.0
 40
10.0
 40
11.0
 40
11.0
 40
11.0
 40
12.0
 40
12.0
 40
12.0
 40
13.0
 40
13.0
 40
13.0
 40
14.0
 40
14.0
 40
14.0
 40
14.0
 10
91.37530108392701
 20
-129.7770914389099
 10
91.37530108392701
 20
-129.7770914389099
 10
91.2738430218864
 20
-129.7770914389099
 10
91.2738430218864
 20
-129.7770914389099
 10
91.2738430218864
 20
-129.8639078451382
 10
91.25282793942638
 20
-130.2532036349714
 10
91.05576847767009
 20
-130.4730007269304
 10
90.90349525722205
 20
-130.6421549152561
 10
90.69644501855853
 20
-130.7120903536067
 10
90.61169566962138
 20
-130.7396511174887
 10
90.61169566962138
 20
-130.7396511174887
 10
90.41704777470477
 20
-130.5725639864541
 10
90.41704777470477
 20
-130.5725639864541
 10
90.51419946738882
 20
-130.5598171331587
 10
90.68989933713655
 20
-130.536390483859
 10
90.87834606017972
 20
-130.3482882703643
 10
90.95241561311259
 20
-130.2762857747226
 10
91.05576847767009
 20
-130.13675940757
 10
91.05576847767009
 20
-129.7770914389099
 10
91.05576847767009
 20
-129.7770914389099
 10
90.82529158970688
 20
-129.7770914389099
 10
90.82529158970688
 20
-129.7770914389099
 10
90.63925643350339
 20
-129.7770914389099
 10
90.45287676775136
 20
-129.7812255534922
 10
90.26684161154787
 20
-129.7960394640788
 10
90.26684161154787
 20
-129.7960394640788
 10
90.26684161154787
 20
-129.5762423721198
 10
90.26684161154787
 20
-129.5762423721198
 10
90.45528833459105
 20
-129.5910562827064
 10
90.74088675031825
 20
-129.5951903972887
 10
90.82529158970688
 20
-129.5951903972887
 10
90.82529158970688
 20
-129.5951903972887
 10
91.37530108392701
 20
-129.5951903972887
 10
91.37530108392701
 20
-129.5951903972887
 10
91.39424910909588
 20
-129.5951903972887
 10
91.7115424032874
 20
-129.5951903972887
 10
91.93995223395946
 20
-129.5762423721198
 10
91.93995223395946
 20
-129.5762423721198
 10
91.93995223395946
 20
-129.7960394640788
 10
91.93995223395946
 20
-129.7960394640788
 10
91.75185002046481
 20
-129.7812255534922
 10
91.56340329742166
 20
-129.7770914389099
 10
91.37530108392701
 20
-129.7770914389099
 97
        0
 97
        0
 92
        1
 93
        1
 72
     4
 94
        3
 73
     0
 74
     1
 95
       29
 96
       25
 40
0.0
 40
0.0
 40
0.0
 40
0.0
 40
1.0
 40
1.0
 40
1.0
 40
2.0
 40
2.0
 40
2.0
 40
3.0
 40
3.0
 40
3.0
 40
4.0
 40
4.0
 40
4.0
 40
5.0
 40
5.0
 40
5.0
 40
6.0
 40
6.0
 40
6.0
 40
7.0
 40
7.0
 40
7.0
 40
8.0
 40
8.0
 40
8.0
 40
8.0
 10
91.2738430218864
 20
-129.2482692819241
 10
91.2738430218864
 20
-129.2482692819241
 10
90.9207207346483
 20
-129.2482692819241
 10
90.9207207346483
 20
-129.2482692819241
 10
90.80841062182915
 20
-129.2482692819241
 10
90.66888425467653
 20
-129.2544704537975
 10
90.56105276598821
 20
-129.2672173070929
 10
90.56105276598821
 20
-129.2672173070929
 10
90.56105276598821
 20
-129.0322617949989
 10
90.56105276598821
 20
-129.0322617949989
 10
90.67921954113228
 20
-129.0470757055855
 10
90.86353214959315
 20
-129.0515543297163
 10
90.9207207346483
 20
-129.0515543297163
 10
90.9207207346483
 20
-129.0515543297163
 10
91.2738430218864
 20
-129.0515543297163
 10
91.2738430218864
 20
-129.0515543297163
 10
91.29279104705527
 20
-129.0515543297163
 10
91.49587942591076
 20
-129.0515543297163
 10
91.63747285035453
 20
-129.0322617949989
 10
91.63747285035453
 20
-129.0322617949989
 10
91.63747285035453
 20
-129.2672173070929
 10
91.63747285035453
 20
-129.2672173070929
 10
91.48106551532418
 20
-129.2482692819241
 10
91.29072398976413
 20
-129.2482692819241
 10
91.2738430218864
 20
-129.2482692819241
 97
        0
 97
        0
 75
     2
 76
     1
 98
        0
  0
SPLINE
  5
CF
330
AD
100
AcDbEntity
  8
_U+30EC_U+30A4_U+30E4_U+30FC 1
370
     0
100
AcDbSpline
210
0.0
220
0.0
230
1.0
 70
    11
 71
     3
 72
    29
 73
    25
 74
     0
 42
0.0000000001
 43
0.0000000001
 12
1.0
 22
0.0
 32
0.0
 13
1.0
 23
0.0
 33
0.0
 40
0.0
 40
0.0
 40
0.0
 40
0.0
 40
1.0
 40
1.0
 40
1.0
 40
2.0
 40
2.0
 40
2.0
 40
3.0
 40
3.0
 40
3.0
 40
4.0
 40
4.0
 40
4.0
 40
5.0
 40
5.0
 40
5.0
 40
6.0
 40
6.0
 40
6.0
 40
7.0
 40
7.0
 40
7.0
 40
8.0
 40
8.0
 40
8.0
 40
8.0
 10
93.22118324492388
 20
-129.9400444553622
 30
0.0
 10
93.22118324492388
 20
-129.9400444553622
 30
0.0
 10
92.73680281969774
 20
-129.9400444553622
 30
0.0
 10
92.73680281969774
 20
-129.9400444553622
 30
0.0
 10
92.70924205581575
 20
-129.9400444553622
 30
0.0
 10
92.39194876162423
 20
-129.9400444553622
 30
0.0
 10
92.1804198988299
 20
-129.9651936524045
 30
0.0
 10
92.1804198988299
 20
-129.9651936524045
 30
0.0
 10
92.1804198988299
 20
-129.7347167644413
 30
0.0
 10
92.1804198988299
 20
-129.7347167644413
 30
0.0
 10
92.33889429115139
 20
-129.758143413741
 30
0.0
 10
92.5294080714857
 20
-129.7602104710322
 30
0.0
 10
92.73680281969774
 20
-129.7602104710322
 30
0.0
 10
92.73680281969774
 20
-129.7602104710322
 30
0.0
 10
93.22118324492388
 20
-129.7602104710322
 30
0.0
 10
93.22118324492388
 20
-129.7602104710322
 30
0.0
 10
93.40721840112737
 20
-129.7602104710322
 30
0.0
 10
93.59359806687938
 20
-129.758143413741
 30
0.0
 10
93.77756616579173
 20
-129.7347167644413
 30
0.0
 10
93.77756616579173
 20
-129.7347167644413
 30
0.0
 10
93.77756616579173
 20
-129.9651936524045
 30
0.0
 10
93.77756616579173
 20
-129.9651936524045
 30
0.0
 10
93.59359806687938
 20
-129.9421115126534
 30
0.0
 10
93.34589570148992
 20
-129.9400444553622
 30
0.0
 10
93.22118324492388
 20
-129.9400444553622
 30
0.0
  0
HATCH
  5
D0
330
AD
100
AcDbEntity
  8
_U+30EC_U+30A4_U+30E4_U+30FC 1
 62
     7
420
 16777215
100
AcDbHatch
 10
0.0
 20
0.0
 30
0.0
210
0.0
220
0.0
230
1.0
  2
SOLID
 70
     1
 71
     0
 91
        1
 92
        1
 93
        1
 72
     4
 94
        3
 73
     0
 74
     1
 95
       29
 96
       25
 40
0.0
 40
0.0
 40
0.0
 40
0.0
 40
1.0
 40
1.0
 40
1.0
 40
2.0
 40
2.0
 40
2.0
 40
3.0
 40
3.0
 40
3.0
 40
4.0
 40
4.0
 40
4.0
 40
5.0
 40
5.0
 40
5.0
 40
6.0
 40
6.0
 40
6.0
 40
7.0
 40
7.0
 40
7.0
 40
8.0
 40
8.0
 40
8.0
 40
8.0
 10
93.22118324492388
 20
-129.9400444553622
 10
93.22118324492388
 20
-129.9400444553622
 10
92.73680281969774
 20
-129.9400444553622
 10
92.73680281969774
 20
-129.9400444553622
 10
92.70924205581575
 20
-129.9400444553622
 10
92.39194876162423
 20
-129.9400444553622
 10
92.1804198988299
 20
-129.9651936524045
 10
92.1804198988299
 20
-129.9651936524045
 10
92.1804198988299
 20
-129.7347167644413
 10
92.1804198988299
 20
-129.7347167644413
 10
92.33889429115139
 20
-129.758143413741
 10
92.5294080714857
 20
-129.7602104710322
 10
92.73680281969774
 20
-129.7602104710322
 10
92.73680281969774
 20
-129.7602104710322
 10
93.22118324492388
 20
-129.7602104710322
 10
93.22118324492388
 20
-129.7602104710322
 10
93.40721840112737
 20
-129.7602104710322
 10
93.59359806687938
 20
-129.758143413741
 10
93.77756616579173
 20
-129.7347167644413
 10
93.77756616579173
 20
-129.7347167644413
 10
93.77756616579173
 20
-129.9651936524045
 10
93.77756616579173
 20
-129.9651936524045
 10
93.59359806687938
 20
-129.9421115126534
 10
93.34589570148992
 20
-129.9400444553622
 10
93.22118324492388
 20
-129.9400444553622
 97
        0
 97
        0
 75
     2
 76
     1
 98
        0
  0
SPLINE
  5
D1
330
AD
100
AcDbEntity
  8
_U+30EC_U+30A4_U+30E4_U+30FC 1
370
     0
100
AcDbSpline
210
0.0
220
0.0
230
1.0
 70
    11
 71
     3
 72
    44
 73
    40
 74
     0
 42
0.0000000001
 43
0.0000000001
 12
1.0
 22
0.0
 32
0.0
 13
1.0
 23
0.0
 33
0.0
 40
0.0
 40
0.0
 40
0.0
 40
0.0
 40
1.0
 40
1.0
 40
1.0
 40
2.0
 40
2.0
 40
2.0
 40
3.0
 40
3.0
 40
3.0
 40
4.0
 40
4.0
 40
4.0
 40
5.0
 40
5.0
 40
5.0
 40
6.0
 40
6.0
 40
6.0
 40
7.0
 40
7.0
 40
7.0
 40
8.0
 40
8.0
 40
8.0
 40
9.0
 40
9.0
 40
9.0
 40
10.0
 40
10.0
 40
10.0
 40
11.0
 40
11.0
 40
11.0
 40
12.0
 40
12.0
 40
12.0
 40
13.0
 40
13.0
 40
13.0
 40
13.0
 10
95.43259003690575
 20
-129.502172819187
 30
0.0
 10
95.32062443363513
 20
-129.8701090170117
 30
0.0
 10
95.26998153000196
 20
-130.0289279188817
 30
0.0
 10
95.07326657779419
 20
-130.2783528320138
 30
0.0
 10
94.88895396933331
 20
-130.5091742295255
 30
0.0
 10
94.65227590949665
 20
-130.695209385729
 30
0.0
 10
94.3728786656429
 20
-130.7882269638307
 30
0.0
 10
94.3728786656429
 20
-130.7882269638307
 30
0.0
 10
94.18029782801743
 20
-130.6083929795007
 30
0.0
 10
94.18029782801743
 20
-130.6083929795007
 30
0.0
 10
94.82143009782243
 20
-130.4561197590527
 30
0.0
 10
95.15147024530935
 20
-129.8997368381848
 30
0.0
 10
95.21486000223796
 20
-129.4597981447184
 30
0.0
 10
95.21486000223796
 20
-129.4597981447184
 30
0.0
 10
94.44901527586691
 20
-129.4597981447184
 30
0.0
 10
94.44901527586691
 20
-129.4597981447184
 30
0.0
 10
94.35599769776518
 20
-129.4597981447184
 30
0.0
 10
94.17202959885283
 20
-129.4639322593007
 30
0.0
 10
94.01527775427397
 20
-129.4828802844696
 30
0.0
 10
94.01527775427397
 20
-129.4828802844696
 30
0.0
 10
94.01527775427397
 20
-129.2630831925106
 30
0.0
 10
94.01527775427397
 20
-129.2630831925106
 30
0.0
 10
94.10209416050226
 20
-129.2840982749707
 30
0.0
 10
94.35393064047402
 20
-129.2840982749707
 30
0.0
 10
94.45314939044921
 20
-129.2840982749707
 30
0.0
 10
94.45314939044921
 20
-129.2840982749707
 30
0.0
 10
94.88481985475102
 20
-129.2840982749707
 30
0.0
 10
94.88481985475102
 20
-129.2840982749707
 30
0.0
 10
94.92719452921959
 20
-129.2840982749707
 30
0.0
 10
95.16180553176511
 20
-129.2820312176795
 30
0.0
 10
95.20004609165139
 20
-129.2758300458061
 30
0.0
 10
95.24242076611995
 20
-129.2692843643841
 30
0.0
 10
95.2444878234111
 20
-129.2672173070929
 30
0.0
 10
95.30581052304855
 20
-129.2269096899155
 30
0.0
 10
95.30581052304855
 20
-129.2269096899155
 30
0.0
 10
95.49425724609172
 20
-129.3815944772032
 30
0.0
 10
95.49425724609172
 20
-129.3815944772032
 30
0.0
 10
95.46462942491857
 20
-129.4112222983764
 30
0.0
 10
95.449815514332
 20
-129.4429171768407
 30
0.0
 10
95.43259003690575
 20
-129.502172819187
 30
0.0
  0
SPLINE
  5
D2
330
AD
100
AcDbEntity
  8
_U+30EC_U+30A4_U+30E4_U+30FC 1
370
     0
100
AcDbSpline
210
0.0
220
0.0
230
1.0
 70
    11
 71
     3
 72
    17
 73
    13
 74
     0
 42
0.0000000001
 43
0.0000000001
 12
1.0
 22
0.0
 32
0.0
 13
1.0
 23
0.0
 33
0.0
 40
0.0
 40
0.0
 40
0.0
 40
0.0
 40
1.0
 40
1.0
 40
1.0
 40
2.0
 40
2.0
 40
2.0
 40
3.0
 40
3.0
 40
3.0
 40
4.0
 40
4.0
 40
4.0
 40
4.0
 10
95.64205184240893
 20
-129.3030463001395
 30
0.0
 10
95.51527232855175
 20
-129.3030463001395
 30
0.0
 10
95.41364201173687
 20
-129.2017604928732
 30
0.0
 10
95.41364201173687
 20
-129.0746364694675
 30
0.0
 10
95.41364201173687
 20
-128.9478569556103
 30
0.0
 10
95.51527232855175
 20
-128.8441595815042
 30
0.0
 10
95.64205184240893
 20
-128.8441595815042
 30
0.0
 10
95.76917586581466
 20
-128.8441595815042
 30
0.0
 10
95.87287323992068
 20
-128.9478569556103
 30
0.0
 10
95.87287323992068
 20
-129.0746364694675
 30
0.0
 10
95.87287323992068
 20
-129.2017604928732
 30
0.0
 10
95.76917586581466
 20
-129.3030463001395
 30
0.0
 10
95.64205184240893
 20
-129.3030463001395
 30
0.0
  0
SPLINE
  5
D3
330
AD
100
AcDbEntity
  8
_U+30EC_U+30A4_U+30E4_U+30FC 1
370
     0
100
AcDbSpline
210
0.0
220
0.0
230
1.0
 70
    11
 71
     3
 72
    17
 73
    13
 74
     0
 42
0.0000000001
 43
0.0000000001
 12
1.0
 22
0.0
 32
0.0
 13
1.0
 23
0.0
 33
0.0
 40
0.0
 40
0.0
 40
0.0
 40
0.0
 40
1.0
 40
1.0
 40
1.0
 40
2.0
 40
2.0
 40
2.0
 40
3.0
 40
3.0
 40
3.0
 40
4.0
 40
4.0
 40
4.0
 40
4.0
 10
95.63998478511779
 20
-128.9730061526526
 30
0.0
 10
95.58520776690231
 20
-128.9730061526526
 30
0.0
 10
95.5407660351426
 20
-129.0174478844123
 30
0.0
 10
95.5407660351426
 20
-129.0725694121763
 30
0.0
 10
95.5407660351426
 20
-129.1297579972315
 30
0.0
 10
95.58520776690231
 20
-129.1783338435735
 30
0.0
 10
95.64411889970009
 20
-129.1783338435735
 30
0.0
 10
95.70337454204638
 20
-129.1783338435735
 30
0.0
 10
95.74368215922381
 20
-129.1276909399403
 30
0.0
 10
95.74368215922381
 20
-129.0746364694675
 30
0.0
 10
95.74368215922381
 20
-129.0174478844123
 30
0.0
 10
95.69717337017293
 20
-128.9730061526526
 30
0.0
 10
95.63998478511779
 20
-128.9730061526526
 30
0.0
  0
HATCH
  5
D4
330
AD
100
AcDbEntity
  8
_U+30EC_U+30A4_U+30E4_U+30FC 1
 62
     7
420
 16777215
100
AcDbHatch
 10
0.0
 20
0.0
 30
0.0
210
0.0
220
0.0
230
1.0
  2
SOLID
 70
     1
 71
     0
 91
        3
 92
        1
 93
        1
 72
     4
 94
        3
 73
     0
 74
     1
 95
       44
 96
       40
 40
0.0
 40
0.0
 40
0.0
 40
0.0
 40
1.0
 40
1.0
 40
1.0
 40
2.0
 40
2.0
 40
2.0
 40
3.0
 40
3.0
 40
3.0
 40
4.0
 40
4.0
 40
4.0
 40
5.0
 40
5.0
 40
5.0
 40
6.0
 40
6.0
 40
6.0
 40
7.0
 40
7.0
 40
7.0
 40
8.0
 40
8.0
 40
8.0
 40
9.0
 40
9.0
 40
9.0
 40
10.0
 40
10.0
 40
10.0
 40
11.0
 40
11.0
 40
11.0
 40
12.0
 40
12.0
 40
12.0
 40
13.0
 40
13.0
 40
13.0
 40
13.0
 10
95.43259003690575
 20
-129.502172819187
 10
95.32062443363513
 20
-129.8701090170117
 10
95.26998153000196
 20
-130.0289279188817
 10
95.07326657779419
 20
-130.2783528320138
 10
94.88895396933331
 20
-130.5091742295255
 10
94.65227590949665
 20
-130.695209385729
 10
94.3728786656429
 20
-130.7882269638307
 10
94.3728786656429
 20
-130.7882269638307
 10
94.18029782801743
 20
-130.6083929795007
 10
94.18029782801743
 20
-130.6083929795007
 10
94.82143009782243
 20
-130.4561197590527
 10
95.15147024530935
 20
-129.8997368381848
 10
95.21486000223796
 20
-129.4597981447184
 10
95.21486000223796
 20
-129.4597981447184
 10
94.44901527586691
 20
-129.4597981447184
 10
94.44901527586691
 20
-129.4597981447184
 10
94.35599769776518
 20
-129.4597981447184
 10
94.17202959885283
 20
-129.4639322593007
 10
94.01527775427397
 20
-129.4828802844696
 10
94.01527775427397
 20
-129.4828802844696
 10
94.01527775427397
 20
-129.2630831925106
 10
94.01527775427397
 20
-129.2630831925106
 10
94.10209416050226
 20
-129.2840982749707
 10
94.35393064047402
 20
-129.2840982749707
 10
94.45314939044921
 20
-129.2840982749707
 10
94.45314939044921
 20
-129.2840982749707
 10
94.88481985475102
 20
-129.2840982749707
 10
94.88481985475102
 20
-129.2840982749707
 10
94.92719452921959
 20
-129.2840982749707
 10
95.16180553176511
 20
-129.2820312176795
 10
95.20004609165139
 20
-129.2758300458061
 10
95.24242076611995
 20
-129.2692843643841
 10
95.2444878234111
 20
-129.2672173070929
 10
95.30581052304855
 20
-129.2269096899155
 10
95.30581052304855
 20
-129.2269096899155
 10
95.49425724609172
 20
-129.3815944772032
 10
95.49425724609172
 20
-129.3815944772032
 10
95.46462942491857
 20
-129.4112222983764
 10
95.449815514332
 20
-129.4429171768407
 10
95.43259003690575
 20
-129.502172819187
 97
        0
 97
        0
 92
        1
 93
        1
 72
     4
 94
        3
 73
     0
 74
     1
 95
       17
 96
       13
 40
0.0
 40
0.0
 40
0.0
 40
0.0
 40
1.0
 40
1.0
 40
1.0
 40
2.0
 40
2.0
 40
2.0
 40
3.0
 40
3.0
 40
3.0
 40
4.0
 40
4.0
 40
4.0
 40
4.0
 10
95.64205184240893
 20
-129.3030463001395
 10
95.51527232855175
 20
-129.3030463001395
 10
95.41364201173687
 20
-129.2017604928732
 10
95.41364201173687
 20
-129.0746364694675
 10
95.41364201173687
 20
-128.9478569556103
 10
95.51527232855175
 20
-128.8441595815042
 10
95.64205184240893
 20
-128.8441595815042
 10
95.76917586581466
 20
-128.8441595815042
 10
95.87287323992068
 20
-128.9478569556103
 10
95.87287323992068
 20
-129.0746364694675
 10
95.87287323992068
 20
-129.2017604928732
 10
95.76917586581466
 20
-129.3030463001395
 10
95.64205184240893
 20
-129.3030463001395
 97
        0
 97
        0
 92
        1
 93
        1
 72
     4
 94
        3
 73
     0
 74
     1
 95
       17
 96
       13
 40
0.0
 40
0.0
 40
0.0
 40
0.0
 40
1.0
 40
1.0
 40
1.0
 40
2.0
 40
2.0
 40
2.0
 40
3.0
 40
3.0
 40
3.0
 40
4.0
 40
4.0
 40
4.0
 40
4.0
 10
95.63998478511779
 20
-128.9730061526526
 10
95.58520776690231
 20
-128.9730061526526
 10
95.5407660351426
 20
-129.0174478844123
 10
95.5407660351426
 20
-129.0725694121763
 10
95.5407660351426
 20
-129.1297579972315
 10
95.58520776690231
 20
-129.1783338435735
 10
95.64411889970009
 20
-129.1783338435735
 10
95.70337454204638
 20
-129.1783338435735
 10
95.74368215922381
 20
-129.1276909399403
 10
95.74368215922381
 20
-129.0746364694675
 10
95.74368215922381
 20
-129.0174478844123
 10
95.69717337017293
 20
-128.9730061526526
 10
95.63998478511779
 20
-128.9730061526526
 97
        0
 97
        0
 75
     2
 76
     1
 98
        0
  0
ENDBLK
  5
B0
330
AD
100
AcDbEntity
  8
0
100
AcDbBlockEnd
  0
BLOCK
  5
D7
330
D5
100
AcDbEntity
  8
0
100
AcDbBlockBegin
  2
block 7
 70
     0
 10
0.0
 20
0.0
 30
0.0
  3
block 7
  1

  0
POLYLINE
  5
D9
330
D5
100
AcDbEntity
  8
_U+30EC_U+30A4_U+30E4_U+30FC 1
 62
     7
420
 16777215
370
     9
100
AcDb2dPolyline
 66
     1
 10
0.0
 20
0.0
 30
0.0
  0
VERTEX
  5
DA
330
D9
100
AcDbEntity
  8
_U+30EC_U+30A4_U+30E4_U+30FC 1
 62
     7
420
 16777215
370
     9
100
AcDbVertex
100
AcDb2dVertex
 10
100.6229793773384
 20
-136.276961910375
 30
0.0
  0
VERTEX
  5
DB
330
D9
100
AcDbEntity
  8
_U+30EC_U+30A4_U+30E4_U+30FC 1
 62
     7
420
 16777215
370
     9
100
AcDbVertex
100
AcDb2dVertex
 10
94.48242370066366
 20
-131.3249849671687
 30
0.0
  0
SEQEND
  5
DC
330
D9
100
AcDbEntity
  8
_U+30EC_U+30A4_U+30E4_U+30FC 1
 62
     7
420
 16777215
370
     9
  0
POLYLINE
  5
DD
330
D5
100
AcDbEntity
  8
_U+30EC_U+30A4_U+30E4_U+30FC 1
 62
     7
420
 16777215
370
     9
100
AcDb2dPolyline
 66
     1
 10
0.0
 20
0.0
 30
0.0
  0
VERTEX
  5
DE
330
DD
100
AcDbEntity
  8
_U+30EC_U+30A4_U+30E4_U+30FC 1
 62
     7
420
 16777215
370
     9
100
AcDbVertex
100
AcDb2dVertex
 10
100.6229793773384
 20
-136.276961910375
 30
0.0
  0
VERTEX
  5
DF
330
DD
100
AcDbEntity
  8
_U+30EC_U+30A4_U+30E4_U+30FC 1
 62
     7
420
 16777215
370
     9
100
AcDbVertex
100
AcDb2dVertex
 10
100.0307713368913
 20
-135.4707941327987
 30
0.0
  0
SEQEND
  5
E0
330
DD
100
AcDbEntity
  8
_U+30EC_U+30A4_U+30E4_U+30FC 1
 62
     7
420
 16777215
370
     9
  0
POLYLINE
  5
E1
330
D5
100
AcDbEntity
  8
_U+30EC_U+30A4_U+30E4_U+30FC 1
 62
     7
420
 16777215
370
     9
100
AcDb2dPolyline
 66
     1
 10
0.0
 20
0.0
 30
0.0
  0
VERTEX
  5
E2
330
E1
100
AcDbEntity
  8
_U+30EC_U+30A4_U+30E4_U+30FC 1
 62
     7
420
 16777215
370
     9
100
AcDbVertex
100
AcDb2dVertex
 10
100.6229793773384
 20
-136.276961910375
 30
0.0
  0
VERTEX
  5
E3
330
E1
100
AcDbEntity
  8
_U+30EC_U+30A4_U+30E4_U+30FC 1
 62
     7
420
 16777215
370
     9
100
AcDbVertex
100
AcDb2dVertex
 10
99.70727412292219
 20
-135.8745835771427
 30
0.0
  0
SEQEND
  5
E4
330
E1
100
AcDbEntity
  8
_U+30EC_U+30A4_U+30E4_U+30FC 1
 62
     7
420
 16777215
370
     9
  0
ENDBLK
  5
D8
330
D5
100
AcDbEntity
  8
0
100
AcDbBlockEnd
  0
ENDSEC
  0
SECTION
  2
ENTITIES
  0
INSERT
  5
42
330
1F
100
AcDbEntity
  8
_U+30EC_U+30A4_U+30E4_U+30FC 1
100
AcDbBlockReference
  2
block 2
 10
0.0
 20
0.0
 30
0.0
  0
ENDSEC
  0
SECTION
  2
OBJECTS
  0
DICTIONARY
  5
C
330
0
100
AcDbDictionary
281
     1
  3
ACAD_GROUP
350
D
  3
ACAD_LAYOUT
350
1A
  3
ACAD_MATERIAL
350
3B
  3
ACAD_MLEADERSTYLE
350
E6
  3
ACAD_MLINESTYLE
350
17
  3
ACAD_PLOTSETTINGS
350
19
  3
ACAD_PLOTSTYLENAME
350
E
  3
ACAD_TABLESTYLE
350
E5
  3
ACAD_VISUALSTYLE
350
2A
  0
SUN
  5
3F
330
29
100
AcDbSun
 90
        1
290
     0
 63
     7
421
 16777215
 40
1.0
291
     1
 91
  2455826
 92
 54000000
292
     0
 70
     2
 71
   256
280
     1
  0
DICTIONARY
  5
D
102
{ACAD_REACTORS
330
C
102
}
330
C
100
AcDbDictionary
281
     1
  0
DICTIONARY
  5
1A
102
{ACAD_REACTORS
330
C
102
}
330
C
100
AcDbDictionary
281
     1
  3
Layout1
350
1E
  3
Layout2
350
26
  3
Model
350
22
  0
DICTIONARY
  5
3B
102
{ACAD_REACTORS
330
C
102
}
330
C
100
AcDbDictionary
281
     1
  3
ByBlock
350
3D
  3
ByLayer
350
3C
  3
Global
350
3E
  0
DICTIONARY
  5
E6
102
{ACAD_REACTORS
330
C
102
}
330
C
100
AcDbDictionary
281
     1
  0
DICTIONARY
  5
17
102
{ACAD_REACTORS
330
C
102
}
330
C
100
AcDbDictionary
281
     1
  3
Standard
350
18
  0
DICTIONARY
  5
19
102
{ACAD_REACTORS
330
C
102
}
330
C
100
AcDbDictionary
281
     1
  0
ACDBDICTIONARYWDFLT
  5
E
102
{ACAD_REACTORS
330
C
102
}
330
C
100
AcDbDictionary
281
     1
  3
Normal
350
F
100
AcDbDictionaryWithDefault
340
F
  0
DICTIONARY
  5
E5
102
{ACAD_REACTORS
330
C
102
}
330
C
100
AcDbDictionary
281
     1
  0
DICTIONARY
  5
2A
102
{ACAD_REACTORS
330
C
102
}
330
C
100
AcDbDictionary
281
     1
  3
2dWireframe
350
2F
  3
3D Hidden
350
31
  3
3dWireframe
350
30
  3
Basic
350
32
  3
Brighten
350
36
  3
ColorChange
350
3A
  3
Conceptual
350
34
  3
Dim
350
35
  3
Facepattern
350
39
  3
Flat
350
2B
  3
FlatWithEdges
350
2C
  3
Gouraud
350
2D
  3
GouraudWithEdges
350
2E
  3
Linepattern
350
38
  3
Realistic
350
33
  3
Thicken
350
37
  0
LAYOUT
  5
1E
102
{ACAD_REACTORS
330
1A
102
}
330
1A
100
AcDbPlotSettings
  1

  2
none_device
  4

  6

 40
0.0
 41
0.0
 42
0.0
 43
0.0
 44
0.0
 45
0.0
 46
0.0
 47
0.0
 48
0.0
 49
0.0
140
0.0
141
0.0
142
1.0
143
1.0
 70
   688
 72
     0
 73
     0
 74
     5
  7

 75
    16
 76
     0
 77
     2
 78
   300
147
1.0
148
0.0
149
0.0
100
AcDbLayout
  1
Layout1
 70
     1
 71
     1
 10
0.0
 20
0.0
 11
12.0
 21
9.0
 12
0.0
 22
0.0
 32
0.0
 14
1.000000000000000E+20
 24
1.000000000000000E+20
 34
1.000000000000000E+20
 15
-1.000000000000000E+20
 25
-1.000000000000000E+20
 35
-1.000000000000000E+20
146
0.0
 13
0.0
 23
0.0
 33
0.0
 16
1.0
 26
0.0
 36
0.0
 17
0.0
 27
1.0
 37
0.0
 76
     0
330
1B
  0
LAYOUT
  5
26
102
{ACAD_REACTORS
330
1A
102
}
330
1A
100
AcDbPlotSettings
  1

  2
none_device
  4

  6

 40
0.0
 41
0.0
 42
0.0
 43
0.0
 44
0.0
 45
0.0
 46
0.0
 47
0.0
 48
0.0
 49
0.0
140
0.0
141
0.0
142
1.0
143
1.0
 70
   688
 72
     0
 73
     0
 74
     5
  7

 75
    16
 76
     0
 77
     2
 78
   300
147
1.0
148
0.0
149
0.0
100
AcDbLayout
  1
Layout2
 70
     1
 71
     2
 10
0.0
 20
0.0
 11
0.0
 21
0.0
 12
0.0
 22
0.0
 32
0.0
 14
0.0
 24
0.0
 34
0.0
 15
0.0
 25
0.0
 35
0.0
146
0.0
 13
0.0
 23
0.0
 33
0.0
 16
1.0
 26
0.0
 36
0.0
 17
0.0
 27
1.0
 37
0.0
 76
     0
330
23
  0
LAYOUT
  5
22
102
{ACAD_REACTORS
330
1A
102
}
330
1A
100
AcDbPlotSettings
  1

  2
none_device
  4

  6

 40
0.0
 41
0.0
 42
0.0
 43
0.0
 44
0.0
 45
0.0
 46
0.0
 47
0.0
 48
0.0
 49
0.0
140
0.0
141
0.0
142
1.0
143
1.0
 70
  1712
 72
     0
 73
     0
 74
     0
  7

 75
     0
 76
     0
 77
     2
 78
   300
147
1.0
148
0.0
149
0.0
100
AcDbLayout
  1
Model
 70
     1
 71
     0
 10
0.0
 20
0.0
 11
12.0
 21
9.0
 12
0.0
 22
0.0
 32
0.0
 14
1.000000000000000E+20
 24
1.000000000000000E+20
 34
1.000000000000000E+20
 15
-1.000000000000000E+20
 25
-1.000000000000000E+20
 35
-1.000000000000000E+20
146
0.0
 13
0.0
 23
0.0
 33
0.0
 16
1.0
 26
0.0
 36
0.0
 17
0.0
 27
1.0
 37
0.0
 76
     0
330
1F
331
29
  0
MATERIAL
  5
3D
102
{ACAD_REACTORS
330
3B
102
}
330
3B
100
AcDbMaterial
  1
ByBlock
 72
     1
 94
      127
  0
MATERIAL
  5
3C
102
{ACAD_REACTORS
330
3B
102
}
330
3B
100
AcDbMaterial
  1
ByLayer
 72
     1
 94
      127
  0
MATERIAL
  5
3E
102
{ACAD_REACTORS
330
3B
102
}
330
3B
100
AcDbMaterial
  1
Global
 72
     1
 94
      127
  0
MLINESTYLE
  5
18
102
{ACAD_REACTORS
330
17
102
}
330
17
100
AcDbMlineStyle
  2
Standard
 70
     0
  3

 62
   256
 51
90.0
 52
90.0
 71
     2
 49
0.5
 62
   256
  6
BYLAYER
 49
-0.5
 62
   256
  6
BYLAYER
  0
ACDBPLACEHOLDER
  5
F
102
{ACAD_REACTORS
330
E
102
}
330
E
  0
VISUALSTYLE
  5
2F
102
{ACAD_REACTORS
330
2A
102
}
330
2A
100
AcDbVisualStyle
  2
2dWireframe
 70
     4
177
     2
291
     0
 71
     0
176
     1
 72
     2
176
     1
 73
     0
176
     1
 90
        0
176
     1
 40
-0.6
176
     1
 41
-30.0
176
     1
 62
     5
 63
     7
421
 16777215
176
     1
 74
     1
176
     1
 91
        4
176
     1
 64
     7
176
     1
 65
   257
176
     1
 75
     1
176
     1
175
     1
176
     1
 42
1.0
176
     1
 92
        0
176
     1
 66
   257
176
     1
 43
1.0
176
     1
 76
     1
176
     1
 77
     6
176
     1
 78
     2
176
     1
 67
     7
176
     1
 79
     5
176
     1
170
     0
176
     1
171
     0
176
     1
290
     0
176
     1
 93
        1
176
     1
 44
0.0
176
     1
173
     0
176
     1
  0
VISUALSTYLE
  5
31
102
{ACAD_REACTORS
330
2A
102
}
330
2A
100
AcDbVisualStyle
  2
3D Hidden
 70
     6
177
     2
291
     0
 71
     1
176
     1
 72
     2
176
     1
 73
     2
176
     1
 90
        0
176
     1
 40
-0.6
176
     1
 41
-30.0
176
     1
 62
     5
 63
     7
421
 16777215
176
     1
 74
     2
176
     1
 91
        2
176
     1
 64
     7
176
     1
 65
   257
176
     1
 75
     2
176
     1
175
     1
176
     1
 42
40.0
176
     1
 92
        0
176
     1
 66
   257
176
     1
 43
1.0
176
     1
 76
     1
176
     1
 77
     6
176
     1
 78
     2
176
     1
 67
     7
176
     1
 79
     3
176
     1
170
     0
176
     1
171
     0
176
     1
290
     0
176
     1
 93
        1
176
     1
 44
0.0
176
     1
173
     0
176
     1
  0
VISUALSTYLE
  5
30
102
{ACAD_REACTORS
330
2A
102
}
330
2A
100
AcDbVisualStyle
  2
3dWireframe
 70
     5
177
     2
291
     0
 71
     0
176
     1
 72
     2
176
     1
 73
     0
176
     1
 90
        0
176
     1
 40
-0.6
176
     1
 41
-30.0
176
     1
 62
     5
 63
     7
421
 16777215
176
     1
 74
     1
176
     1
 91
        4
176
     1
 64
     7
176
     1
 65
   257
176
     1
 75
     1
176
     1
175
     1
176
     1
 42
1.0
176
     1
 92
        0
176
     1
 66
   257
176
     1
 43
1.0
176
     1
 76
     1
176
     1
 77
     6
176
     1
 78
     2
176
     1
 67
     7
176
     1
 79
     5
176
     1
170
     0
176
     1
171
     0
176
     1
290
     0
176
     1
 93
        1
176
     1
 44
0.0
176
     1
173
     0
176
     1
  0
VISUALSTYLE
  5
32
102
{ACAD_REACTORS
330
2A
102
}
330
2A
100
AcDbVisualStyle
  2
Basic
 70
     7
177
     2
291
     1
 71
     1
176
     1
 72
     0
176
     1
 73
     1
176
     1
 90
        0
176
     1
 40
-0.6
176
     1
 41
-30.0
176
     1
 62
     5
 63
     7
421
 16777215
176
     1
 74
     0
176
     1
 91
        4
176
     1
 64
     7
176
     1
 65
   257
176
     1
 75
     1
176
     1
175
     1
176
     1
 42
1.0
176
     1
 92
        8
176
     1
 66
     7
176
     1
 43
1.0
176
     1
 76
     1
176
     1
 77
     6
176
     1
 78
     2
176
     1
 67
     7
176
     1
 79
     5
176
     1
170
     0
176
     1
171
     0
176
     1
290
     0
176
     1
 93
        1
176
     1
 44
0.0
176
     1
173
     0
176
     1
  0
VISUALSTYLE
  5
36
102
{ACAD_REACTORS
330
2A
102
}
330
2A
100
AcDbVisualStyle
  2
Brighten
 70
    12
177
     2
291
     1
 71
     2
176
     1
 72
     2
176
     1
 73
     0
176
     1
 90
        0
176
     1
 40
-0.6
176
     1
 41
-30.0
176
     1
 62
     5
 63
     7
421
 16777215
176
     1
 74
     1
176
     1
 91
        4
176
     1
 64
     7
176
     1
 65
   257
176
     1
 75
     1
176
     1
175
     1
176
     1
 42
1.0
176
     1
 92
        8
176
     1
 66
     7
176
     1
 43
1.0
176
     1
 76
     1
176
     1
 77
     6
176
     1
 78
     2
176
     1
 67
     7
176
     1
 79
     5
176
     1
170
     0
176
     1
171
     0
176
     1
290
     0
176
     1
 93
        1
176
     1
 44
50.0
176
     1
173
     0
176
     1
  0
VISUALSTYLE
  5
3A
102
{ACAD_REACTORS
330
2A
102
}
330
2A
100
AcDbVisualStyle
  2
ColorChange
 70
    16
177
     2
291
     1
 71
     2
176
     1
 72
     2
176
     1
 73
     3
176
     1
 90
        0
176
     1
 40
-0.6
176
     1
 41
-30.0
176
     1
 62
     5
 63
     8
421
  8421504
176
     1
 74
     1
176
     1
 91
        4
176
     1
 64
     7
176
     1
 65
   257
176
     1
 75
     1
176
     1
175
     1
176
     1
 42
1.0
176
     1
 92
        8
176
     1
 66
     8
424
  8421504
176
     1
 43
1.0
176
     1
 76
     1
176
     1
 77
     6
176
     1
 78
     2
176
     1
 67
     7
176
     1
 79
     5
176
     1
170
     0
176
     1
171
     0
176
     1
290
     0
176
     1
 93
        1
176
     1
 44
0.0
176
     1
173
     0
176
     1
  0
VISUALSTYLE
  5
34
102
{ACAD_REACTORS
330
2A
102
}
330
2A
100
AcDbVisualStyle
  2
Conceptual
 70
     9
177
     2
291
     0
 71
     3
176
     1
 72
     2
176
     1
 73
     0
176
     1
 90
        0
176
     1
 40
-0.6
176
     1
 41
-30.0
176
     1
 62
     5
 63
     7
421
 16777215
176
     1
 74
     2
176
     1
 91
        2
176
     1
 64
     7
176
     1
 65
   257
176
     1
 75
     1
176
     1
175
     1
176
     1
 42
40.0
176
     1
 92
        8
176
     1
 66
     7
176
     1
 43
1.0
176
     1
 76
     1
176
     1
 77
     6
176
     1
 78
     2
176
     1
 67
     7
176
     1
 79
     3
176
     1
170
     0
176
     1
171
     0
176
     1
290
     0
176
     1
 93
        1
176
     1
 44
0.0
176
     1
173
     0
176
     1
  0
VISUALSTYLE
  5
35
102
{ACAD_REACTORS
330
2A
102
}
330
2A
100
AcDbVisualStyle
  2
Dim
 70
    11
177
     2
291
     1
 71
     2
176
     1
 72
     2
176
     1
 73
     0
176
     1
 90
        0
176
     1
 40
-0.6
176
     1
 41
-30.0
176
     1
 62
     5
 63
     7
421
 16777215
176
     1
 74
     1
176
     1
 91
        4
176
     1
 64
     7
176
     1
 65
   257
176
     1
 75
     1
176
     1
175
     1
176
     1
 42
1.0
176
     1
 92
        8
176
     1
 66
     7
176
     1
 43
1.0
176
     1
 76
     1
176
     1
 77
     6
176
     1
 78
     2
176
     1
 67
     7
176
     1
 79
     5
176
     1
170
     0
176
     1
171
     0
176
     1
290
     0
176
     1
 93
        1
176
     1
 44
-50.0
176
     1
173
     0
176
     1
  0
VISUALSTYLE
  5
39
102
{ACAD_REACTORS
330
2A
102
}
330
2A
100
AcDbVisualStyle
  2
Facepattern
 70
    15
177
     2
291
     1
 71
     2
176
     1
 72
     2
176
     1
 73
     0
176
     1
 90
        0
176
     1
 40
-0.6
176
     1
 41
-30.0
176
     1
 62
     5
 63
     7
421
 16777215
176
     1
 74
     1
176
     1
 91
        4
176
     1
 64
     7
176
     1
 65
   257
176
     1
 75
     1
176
     1
175
     1
176
     1
 42
1.0
176
     1
 92
        8
176
     1
 66
     7
176
     1
 43
1.0
176
     1
 76
     1
176
     1
 77
     6
176
     1
 78
     2
176
     1
 67
     7
176
     1
 79
     5
176
     1
170
     0
176
     1
171
     0
176
     1
290
     0
176
     1
 93
        1
176
     1
 44
0.0
176
     1
173
     0
176
     1
  0
VISUALSTYLE
  5
2B
102
{ACAD_REACTORS
330
2A
102
}
330
2A
100
AcDbVisualStyle
  2
Flat
 70
     0
177
     2
291
     1
 71
     2
176
     1
 72
     1
176
     1
 73
     1
176
     1
 90
        2
176
     1
 40
-0.6
176
     1
 41
30.0
176
     1
 62
     5
 63
     7
421
 16777215
176
     1
 74
     0
176
     1
 91
        4
176
     1
 64
     7
176
     1
 65
   257
176
     1
 75
     1
176
     1
175
     1
176
     1
 42
1.0
176
     1
 92
        8
176
     1
 66
     7
176
     1
 43
1.0
176
     1
 76
     1
176
     1
 77
     6
176
     1
 78
     2
176
     1
 67
     7
176
     1
 79
     5
176
     1
170
     0
176
     1
171
     0
176
     1
290
     0
176
     1
 93
       13
176
     1
 44
0.0
176
     1
173
     0
176
     1
  0
VISUALSTYLE
  5
2C
102
{ACAD_REACTORS
330
2A
102
}
330
2A
100
AcDbVisualStyle
  2
FlatWithEdges
 70
     1
177
     2
291
     1
 71
     2
176
     1
 72
     1
176
     1
 73
     1
176
     1
 90
        2
176
     1
 40
-0.6
176
     1
 41
30.0
176
     1
 62
     5
 63
     7
421
 16777215
176
     1
 74
     1
176
     1
 91
        4
176
     1
 64
     7
176
     1
 65
   257
176
     1
 75
     1
176
     1
175
     1
176
     1
 42
1.0
176
     1
 92
        0
176
     1
 66
   257
176
     1
 43
1.0
176
     1
 76
     1
176
     1
 77
     6
176
     1
 78
     2
176
     1
 67
     7
176
     1
 79
     5
176
     1
170
     0
176
     1
171
     0
176
     1
290
     0
176
     1
 93
       13
176
     1
 44
0.0
176
     1
173
     0
176
     1
  0
VISUALSTYLE
  5
2D
102
{ACAD_REACTORS
330
2A
102
}
330
2A
100
AcDbVisualStyle
  2
Gouraud
 70
     2
177
     2
291
     1
 71
     2
176
     1
 72
     2
176
     1
 73
     1
176
     1
 90
        2
176
     1
 40
-0.6
176
     1
 41
30.0
176
     1
 62
     5
 63
     7
421
 16777215
176
     1
 74
     0
176
     1
 91
        4
176
     1
 64
     7
176
     1
 65
   257
176
     1
 75
     1
176
     1
175
     1
176
     1
 42
1.0
176
     1
 92
        0
176
     1
 66
     7
176
     1
 43
1.0
176
     1
 76
     1
176
     1
 77
     6
176
     1
 78
     2
176
     1
 67
     7
176
     1
 79
     5
176
     1
170
     0
176
     1
171
     0
176
     1
290
     0
176
     1
 93
       13
176
     1
 44
0.0
176
     1
173
     0
176
     1
  0
VISUALSTYLE
  5
2E
102
{ACAD_REACTORS
330
2A
102
}
330
2A
100
AcDbVisualStyle
  2
GouraudWithEdges
 70
     3
177
     2
291
     1
 71
     2
176
     1
 72
     2
176
     1
 73
     1
176
     1
 90
        2
176
     1
 40
-0.6
176
     1
 41
30.0
176
     1
 62
     5
 63
     7
421
 16777215
176
     1
 74
     1
176
     1
 91
        4
176
     1
 64
     7
176
     1
 65
   257
176
     1
 75
     1
176
     1
175
     1
176
     1
 42
1.0
176
     1
 92
        0
176
     1
 66
   257
176
     1
 43
1.0
176
     1
 76
     1
176
     1
 77
     6
176
     1
 78
     2
176
     1
 67
     7
176
     1
 79
     5
176
     1
170
     0
176
     1
171
     0
176
     1
290
     0
176
     1
 93
       13
176
     1
 44
0.0
176
     1
173
     0
176
     1
  0
VISUALSTYLE
  5
38
102
{ACAD_REACTORS
330
2A
102
}
330
2A
100
AcDbVisualStyle
  2
Linepattern
 70
    14
177
     2
291
     1
 71
     2
176
     1
 72
     2
176
     1
 73
     0
176
     1
 90
        0
176
     1
 40
-0.6
176
     1
 41
-30.0
176
     1
 62
     5
 63
     7
421
 16777215
176
     1
 74
     1
176
     1
 91
        4
176
     1
 64
     7
176
     1
 65
   257
176
     1
 75
     7
176
     1
175
     7
176
     1
 42
1.0
176
     1
 92
        8
176
     1
 66
     7
176
     1
 43
1.0
176
     1
 76
     1
176
     1
 77
     6
176
     1
 78
     2
176
     1
 67
     7
176
     1
 79
     5
176
     1
170
     0
176
     1
171
     0
176
     1
290
     0
176
     1
 93
        1
176
     1
 44
0.0
176
     1
173
     0
176
     1
  0
VISUALSTYLE
  5
33
102
{ACAD_REACTORS
330
2A
102
}
330
2A
100
AcDbVisualStyle
  2
Realistic
 70
     8
177
     2
291
     0
 71
     2
176
     1
 72
     2
176
     1
 73
     0
176
     1
 90
        0
176
     1
 40
-0.6
176
     1
 41
-30.0
176
     1
 62
     5
 63
     7
421
 16777215
176
     1
 74
     1
176
     1
 91
        0
176
     1
 64
     7
176
     1
 65
   257
176
     1
 75
     1
176
     1
175
     1
176
     1
 42
1.0
176
     1
 92
        8
176
     1
 66
     8
424
  7895160
176
     1
 43
1.0
176
     1
 76
     1
176
     1
 77
     6
176
     1
 78
     2
176
     1
 67
     7
176
     1
 79
     5
176
     1
170
     0
176
     1
171
     0
176
     1
290
     0
176
     1
 93
       13
176
     1
 44
0.0
176
     1
173
     0
176
     1
  0
VISUALSTYLE
  5
37
102
{ACAD_REACTORS
330
2A
102
}
330
2A
100
AcDbVisualStyle
  2
Thicken
 70
    13
177
     2
291
     1
 71
     2
176
     1
 72
     2
176
     1
 73
     0
176
     1
 90
        0
176
     1
 40
-0.6
176
     1
 41
-30.0
176
     1
 62
     5
 63
     7
421
 16777215
176
     1
 74
     1
176
     1
 91
        4
176
     1
 64
     7
176
     1
 65
   257
176
     1
 75
     1
176
     1
175
     1
176
     1
 42
1.0
176
     1
 92
       12
176
     1
 66
     7
176
     1
 43
1.0
176
     1
 76
     1
176
     1
 77
     6
176
     1
 78
     2
176
     1
 67
     7
176
     1
 79
     5
176
     1
170
     0
176
     1
171
     0
176
     1
290
     0
176
     1
 93
        1
176
     1
 44
0.0
176
     1
173
     0
176
     1
  0
ENDSEC
  0
EOF
