  0
SECTION
  2
HEADER
  9
$ACADVER
  1
AC1024
  9
$ACADMAINTVER
 70
     6
  9
$DWGCODEPAGE
  3
UNDEFINED
  9
$INSBASE
 10
0.0
 20
0.0
 30
0.0
  9
$EXTMIN
 10
1.000000000000000E+20
 20
1.000000000000000E+20
 30
1.000000000000000E+20
  9
$EXTMAX
 10
-1.000000000000000E+20
 20
-1.000000000000000E+20
 30
-1.000000000000000E+20
  9
$LIMMIN
 10
0.0
 20
0.0
  9
$LIMMAX
 10
12.0
 20
9.0
  9
$ORTHOMODE
 70
     0
  9
$REGENMODE
 70
     1
  9
$FILLMODE
 70
     1
  9
$QTEXTMODE
 70
     0
  9
$MIRRTEXT
 70
     1
  9
$LTSCALE
 40
1.0
  9
$ATTMODE
 70
     1
  9
$TEXTSIZE
 40
0.2
  9
$TRACEWID
 40
0.05
  9
$TEXTSTYLE
  7
Standard
  9
$CLAYER
  8
0
  9
$CELTYPE
  6
ByLayer
  9
$CECOLOR
 62
   256
  9
$CELTSCALE
 40
1.0
  9
$DISPSILH
 70
     0
  9
$DIMSCALE
 40
1.0
  9
$DIMASZ
 40
0.18
  9
$DIMEXO
 40
0.0625
  9
$DIMDLI
 40
0.38
  9
$DIMRND
 40
0.0
  9
$DIMDLE
 40
0.0
  9
$DIMEXE
 40
0.18
  9
$DIMTP
 40
0.0
  9
$DIMTM
 40
0.0
  9
$DIMTXT
 40
0.18
  9
$DIMCEN
 40
0.09
  9
$DIMTSZ
 40
0.0
  9
$DIMTOL
 70
     0
  9
$DIMLIM
 70
     0
  9
$DIMTIH
 70
     1
  9
$DIMTOH
 70
     1
  9
$DIMSE1
 70
     0
  9
$DIMSE2
 70
     0
  9
$DIMTAD
 70
     0
  9
$DIMZIN
 70
     0
  9
$DIMBLK
  1

  9
$DIMASO
 70
     1
  9
$DIMSHO
 70
     1
  9
$DIMPOST
  1

  9
$DIMAPOST
  1

  9
$DIMALT
 70
     0
  9
$DIMALTD
 70
     2
  9
$DIMALTF
 40
25.4
  9
$DIMLFAC
 40
1.0
  9
$DIMTOFL
 70
     0
  9
$DIMTVP
 40
0.0
  9
$DIMTIX
 70
     0
  9
$DIMSOXD
 70
     0
  9
$DIMSAH
 70
     0
  9
$DIMBLK1
  1

  9
$DIMBLK2
  1

  9
$DIMSTYLE
  2
Standard
  9
$DIMCLRD
 70
     0
  9
$DIMCLRE
 70
     0
  9
$DIMCLRT
 70
     0
  9
$DIMTFAC
 40
1.0
  9
$DIMGAP
 40
0.09
  9
$DIMJUST
 70
     0
  9
$DIMSD1
 70
     0
  9
$DIMSD2
 70
     0
  9
$DIMTOLJ
 70
     1
  9
$DIMTZIN
 70
     0
  9
$DIMALTZ
 70
     0
  9
$DIMALTTZ
 70
     0
  9
$DIMUPT
 70
     0
  9
$DIMDEC
 70
     4
  9
$DIMTDEC
 70
     4
  9
$DIMALTU
 70
     2
  9
$DIMALTTD
 70
     2
  9
$DIMTXSTY
  7
Standard
  9
$DIMAUNIT
 70
     0
  9
$DIMADEC
 70
     0
  9
$DIMALTRND
 40
0.0
  9
$DIMAZIN
 70
     0
  9
$DIMDSEP
 70
    46
  9
$DIMATFIT
 70
     3
  9
$DIMFRAC
 70
     0
  9
$DIMLDRBLK
  1

  9
$DIMLUNIT
 70
     2
  9
$DIMLWD
 70
    -2
  9
$DIMLWE
 70
    -2
  9
$DIMTMOVE
 70
     0
  9
$DIMFXL
 40
1.0
  9
$DIMFXLON
 70
     0
  9
$DIMJOGANG
 40
0.7853981633974483
  9
$DIMTFILL
 70
     0
  9
$DIMTFILLCLR
 70
     0
  9
$DIMARCSYM
 70
     0
  9
$DIMLTYPE
  6

  9
$DIMLTEX1
  6

  9
$DIMLTEX2
  6

  9
$DIMTXTDIRECTION
 70
     0
  9
$LUNITS
 70
     2
  9
$LUPREC
 70
     4
  9
$SKETCHINC
 40
0.1
  9
$FILLETRAD
 40
0.5
  9
$AUNITS
 70
     0
  9
$AUPREC
 70
     0
  9
$MENU
  1
.
  9
$ELEVATION
 40
0.0
  9
$PELEVATION
 40
0.0
  9
$THICKNESS
 40
0.0
  9
$LIMCHECK
 70
     0
  9
$CHAMFERA
 40
0.5
  9
$CHAMFERB
 40
0.5
  9
$CHAMFERC
 40
1.0
  9
$CHAMFERD
 40
0.0
  9
$SKPOLY
 70
     0
  9
$TDCREATE
 40
2457917.584479155
  9
$TDUCREATE
 40
2457917.209479167
  9
$TDUPDATE
 40
2457917.584479155
  9
$TDUUPDATE
 40
2457917.209479167
  9
$TDINDWG
 40
0.0000000116
  9
$TDUSRTIMER
 40
0.0000000116
  9
$USRTIMER
 70
     1
  9
$ANGBASE
 50
0.0
  9
$ANGDIR
 70
     0
  9
$PDMODE
 70
     0
  9
$PDSIZE
 40
0.0
  9
$PLINEWID
 40
0.0
  9
$SPLFRAME
 70
     0
  9
$SPLINETYPE
 70
     6
  9
$SPLINESEGS
 70
     8
  9
$HANDSEED
  5
28D
  9
$SURFTAB1
 70
     6
  9
$SURFTAB2
 70
     6
  9
$SURFTYPE
 70
     6
  9
$SURFU
 70
     6
  9
$SURFV
 70
     6
  9
$UCSBASE
  2

  9
$UCSNAME
  2

  9
$UCSORG
 10
0.0
 20
0.0
 30
0.0
  9
$UCSXDIR
 10
1.0
 20
0.0
 30
0.0
  9
$UCSYDIR
 10
0.0
 20
1.0
 30
0.0
  9
$UCSORTHOREF
  2

  9
$UCSORTHOVIEW
 70
     0
  9
$UCSORGTOP
 10
0.0
 20
0.0
 30
0.0
  9
$UCSORGBOTTOM
 10
0.0
 20
0.0
 30
0.0
  9
$UCSORGLEFT
 10
0.0
 20
0.0
 30
0.0
  9
$UCSORGRIGHT
 10
0.0
 20
0.0
 30
0.0
  9
$UCSORGFRONT
 10
0.0
 20
0.0
 30
0.0
  9
$UCSORGBACK
 10
0.0
 20
0.0
 30
0.0
  9
$PUCSBASE
  2

  9
$PUCSNAME
  2

  9
$PUCSORG
 10
0.0
 20
0.0
 30
0.0
  9
$PUCSXDIR
 10
1.0
 20
0.0
 30
0.0
  9
$PUCSYDIR
 10
0.0
 20
1.0
 30
0.0
  9
$PUCSORTHOREF
  2

  9
$PUCSORTHOVIEW
 70
     0
  9
$PUCSORGTOP
 10
0.0
 20
0.0
 30
0.0
  9
$PUCSORGBOTTOM
 10
0.0
 20
0.0
 30
0.0
  9
$PUCSORGLEFT
 10
0.0
 20
0.0
 30
0.0
  9
$PUCSORGRIGHT
 10
0.0
 20
0.0
 30
0.0
  9
$PUCSORGFRONT
 10
0.0
 20
0.0
 30
0.0
  9
$PUCSORGBACK
 10
0.0
 20
0.0
 30
0.0
  9
$USERI1
 70
     0
  9
$USERI2
 70
     0
  9
$USERI3
 70
     0
  9
$USERI4
 70
     0
  9
$USERI5
 70
     0
  9
$USERR1
 40
0.0
  9
$USERR2
 40
0.0
  9
$USERR3
 40
0.0
  9
$USERR4
 40
0.0
  9
$USERR5
 40
0.0
  9
$WORLDVIEW
 70
     1
  9
$SHADEDGE
 70
     3
  9
$SHADEDIF
 70
    70
  9
$TILEMODE
 70
     1
  9
$MAXACTVP
 70
    64
  9
$PINSBASE
 10
0.0
 20
0.0
 30
0.0
  9
$PLIMCHECK
 70
     0
  9
$PEXTMIN
 10
1.000000000000000E+20
 20
1.000000000000000E+20
 30
1.000000000000000E+20
  9
$PEXTMAX
 10
-1.000000000000000E+20
 20
-1.000000000000000E+20
 30
-1.000000000000000E+20
  9
$PLIMMIN
 10
0.0
 20
0.0
  9
$PLIMMAX
 10
12.0
 20
9.0
  9
$UNITMODE
 70
     0
  9
$VISRETAIN
 70
     1
  9
$PLINEGEN
 70
     0
  9
$PSLTSCALE
 70
     1
  9
$TREEDEPTH
 70
  3020
  9
$CMLSTYLE
  2
Standard
  9
$CMLJUST
 70
     0
  9
$CMLSCALE
 40
1.0
  9
$PROXYGRAPHICS
 70
     1
  9
$MEASUREMENT
 70
     0
  9
$CELWEIGHT
370
    -1
  9
$ENDCAPS
280
     0
  9
$JOINSTYLE
280
     0
  9
$LWDISPLAY
290
     1
  9
$INSUNITS
 70
     1
  9
$HYPERLINKBASE
  1

  9
$STYLESHEET
  1

  9
$XEDIT
290
     1
  9
$CEPSNTYPE
380
     0
  9
$PSTYLEMODE
290
     1
  9
$FINGERPRINTGUID
  2
{3209D47B-0EC1-A73A-8994-3FDBDA9B1464}
  9
$VERSIONGUID
  2
{FAEB1C32-E019-11D5-929B-00C0DF256EC4}
  9
$EXTNAMES
290
     1
  9
$PSVPSCALE
 40
0.0
  9
$OLESTARTUP
290
     0
  9
$SORTENTS
280
   127
  9
$INDEXCTL
280
     0
  9
$HIDETEXT
280
     1
  9
$XCLIPFRAME
280
     2
  9
$HALOGAP
280
     0
  9
$OBSCOLOR
 70
   257
  9
$OBSLTYPE
280
     0
  9
$INTERSECTIONDISPLAY
280
     0
  9
$INTERSECTIONCOLOR
 70
   257
  9
$DIMASSOC
280
     2
  9
$PROJECTNAME
  1

  9
$CAMERADISPLAY
290
     0
  9
$LENSLENGTH
 40
50.0
  9
$CAMERAHEIGHT
 40
0.0
  9
$STEPSPERSEC
 40
2.0
  9
$STEPSIZE
 40
6.0
  9
$3DDWFPREC
 40
2.0
  9
$PSOLWIDTH
 40
0.25
  9
$PSOLHEIGHT
 40
4.0
  9
$LOFTANG1
 40
1.570796326794897
  9
$LOFTANG2
 40
1.570796326794897
  9
$LOFTMAG1
 40
0.0
  9
$LOFTMAG2
 40
0.0
  9
$LOFTPARAM
 70
     7
  9
$LOFTNORMALS
280
     1
  9
$LATITUDE
 40
37.795
  9
$LONGITUDE
 40
-122.394
  9
$NORTHDIRECTION
 40
0.0
  9
$TIMEZONE
 70
 -8000
  9
$LIGHTGLYPHDISPLAY
280
     1
  9
$TILEMODELIGHTSYNCH
280
     1
  9
$CMATERIAL
347
3C
  9
$SOLIDHIST
280
     1
  9
$SHOWHIST
280
     1
  9
$DWFFRAME
280
     2
  9
$DGNFRAME
280
     2
  9
$REALWORLDSCALE
290
     1
  9
$INTERFERECOLOR
 62
   256
  9
$CSHADOW
280
     0
  9
$SHADOWPLANELOCATION
 40
0.0
  0
ENDSEC
  0
SECTION
  2
CLASSES
  0
CLASS
  1
ACDBDICTIONARYWDFLT
  2
AcDbDictionaryWithDefault
  3
ObjectDBX Classes
 90
        0
 91
        4
280
     0
281
     0
  0
CLASS
  1
VISUALSTYLE
  2
AcDbVisualStyle
  3
ObjectDBX Classes
 90
     4095
 91
        4
280
     0
281
     0
  0
CLASS
  1
MATERIAL
  2
AcDbMaterial
  3
ObjectDBX Classes
 90
     1153
 91
        4
280
     0
281
     0
  0
CLASS
  1
SUN
  2
AcDbSun
  3
SCENEOE
 90
     1024
 91
        4
280
     0
281
     0
  0
ENDSEC
  0
SECTION
  2
TABLES
  0
TABLE
  2
VPORT
  5
8
330
0
100
AcDbSymbolTable
 70
     1
  0
VPORT
  5
29
330
8
100
AcDbSymbolTableRecord
100
AcDbViewportTableRecord
  2
*Active
 70
     0
 10
0.0
 20
0.0
 11
1.0
 21
1.0
 12
0.0
 22
0.0
 13
0.0
 23
0.0
 14
0.5
 24
0.5
 15
0.5
 25
0.5
 16
0.0
 26
0.0
 36
1.0
 17
63.499999984125
 27
-89.00059456108309
 37
0.0
 40
178.0011891221662
 41
0.7134783795241226
 42
50.0
 43
0.0
 44
0.0
 50
0.0
 51
0.0
 71
     0
 72
   100
 73
     1
 74
     3
 75
     0
 76
     0
 77
     0
 78
     0
281
     0
 65
     1
110
0.0
120
0.0
130
0.0
111
1.0
121
0.0
131
0.0
112
0.0
122
1.0
132
0.0
 79
     0
146
0.0
 60
     3
 61
     5
292
     1
282
     1
141
0.0
142
0.0
 63
   250
361
3F
  0
ENDTAB
  0
TABLE
  2
LTYPE
  5
5
330
0
100
AcDbSymbolTable
 70
     1
  0
LTYPE
  5
14
330
5
100
AcDbSymbolTableRecord
100
AcDbLinetypeTableRecord
  2
ByBlock
 70
     0
  3

 72
    65
 73
     0
 40
0.0
  0
LTYPE
  5
15
330
5
100
AcDbSymbolTableRecord
100
AcDbLinetypeTableRecord
  2
ByLayer
 70
     0
  3

 72
    65
 73
     0
 40
0.0
  0
LTYPE
  5
16
330
5
100
AcDbSymbolTableRecord
100
AcDbLinetypeTableRecord
  2
Continuous
 70
     0
  3
Solid line
 72
    65
 73
     0
 40
0.0
  0
ENDTAB
  0
TABLE
  2
LAYER
  5
2
330
0
100
AcDbSymbolTable
 70
     2
  0
LAYER
  5
10
330
2
100
AcDbSymbolTableRecord
100
AcDbLayerTableRecord
  2
0
 70
     0
 62
     7
  6
Continuous
370
    -3
390
F
347
3E
  0
LAYER
  5
40
330
2
100
AcDbSymbolTableRecord
100
AcDbLayerTableRecord
  2
_U+30EC_U+30A4_U+30E4_U+30FC 1
 70
     0
 62
     7
  6
Continuous
370
    -3
390
F
347
3E
  0
ENDTAB
  0
TABLE
  2
STYLE
  5
3
330
0
100
AcDbSymbolTable
 70
     1
  0
STYLE
  5
11
330
3
100
AcDbSymbolTableRecord
100
AcDbTextStyleTableRecord
  2
Standard
 70
     0
 40
0.0
 41
1.0
 50
0.0
 71
     0
 42
0.2
  3
txt
  4

  0
ENDTAB
  0
TABLE
  2
VIEW
  5
6
330
0
100
AcDbSymbolTable
 70
     0
  0
ENDTAB
  0
TABLE
  2
UCS
  5
7
330
0
100
AcDbSymbolTable
 70
     0
  0
ENDTAB
  0
TABLE
  2
APPID
  5
9
330
0
100
AcDbSymbolTable
 70
     1
  0
APPID
  5
12
330
9
100
AcDbSymbolTableRecord
100
AcDbRegAppTableRecord
  2
ACAD
 70
     0
  0
ENDTAB
  0
TABLE
  2
DIMSTYLE
  5
A
330
0
100
AcDbSymbolTable
 70
     1
100
AcDbDimStyleTable
  0
DIMSTYLE
105
27
330
A
100
AcDbSymbolTableRecord
100
AcDbDimStyleTableRecord
  2
Standard
 70
     0
178
     0
340
11
  0
ENDTAB
  0
TABLE
  2
BLOCK_RECORD
  5
1
330
0
100
AcDbSymbolTable
 70
    55
  0
BLOCK_RECORD
  5
1F
330
1
100
AcDbSymbolTableRecord
100
AcDbBlockTableRecord
  2
*Model_Space
340
22
 70
     0
280
     1
281
     0
  0
BLOCK_RECORD
  5
1B
330
1
100
AcDbSymbolTableRecord
100
AcDbBlockTableRecord
  2
*Paper_Space
340
1E
 70
     0
280
     1
281
     0
  0
BLOCK_RECORD
  5
23
330
1
100
AcDbSymbolTableRecord
100
AcDbBlockTableRecord
  2
*Paper_Space0
340
26
 70
     0
280
     1
281
     0
  0
BLOCK_RECORD
  5
C7
330
1
100
AcDbSymbolTableRecord
100
AcDbBlockTableRecord
  2
block 2
340
0
102
{BLKREFS
331
C8
102
}
 70
     0
280
     1
281
     0
  0
BLOCK_RECORD
  5
103
330
1
100
AcDbSymbolTableRecord
100
AcDbBlockTableRecord
  2
block 3
340
0
102
{BLKREFS
331
104
102
}
 70
     0
280
     1
281
     0
  0
BLOCK_RECORD
  5
113
330
1
100
AcDbSymbolTableRecord
100
AcDbBlockTableRecord
  2
block 4
340
0
102
{BLKREFS
331
114
102
}
 70
     0
280
     1
281
     0
  0
BLOCK_RECORD
  5
11B
330
1
100
AcDbSymbolTableRecord
100
AcDbBlockTableRecord
  2
block 5
340
0
102
{BLKREFS
331
11C
102
}
 70
     0
280
     1
281
     0
  0
BLOCK_RECORD
  5
120
330
1
100
AcDbSymbolTableRecord
100
AcDbBlockTableRecord
  2
block 6
340
0
102
{BLKREFS
331
121
102
}
 70
     0
280
     1
281
     0
  0
BLOCK_RECORD
  5
125
330
1
100
AcDbSymbolTableRecord
100
AcDbBlockTableRecord
  2
block 7
340
0
102
{BLKREFS
331
126
102
}
 70
     0
280
     1
281
     0
  0
BLOCK_RECORD
  5
12A
330
1
100
AcDbSymbolTableRecord
100
AcDbBlockTableRecord
  2
block 8
340
0
102
{BLKREFS
331
12B
102
}
 70
     0
280
     1
281
     0
  0
BLOCK_RECORD
  5
136
330
1
100
AcDbSymbolTableRecord
100
AcDbBlockTableRecord
  2
block 9
340
0
102
{BLKREFS
331
137
102
}
 70
     0
280
     1
281
     0
  0
BLOCK_RECORD
  5
13F
330
1
100
AcDbSymbolTableRecord
100
AcDbBlockTableRecord
  2
block 10
340
0
102
{BLKREFS
331
140
102
}
 70
     0
280
     1
281
     0
  0
BLOCK_RECORD
  5
144
330
1
100
AcDbSymbolTableRecord
100
AcDbBlockTableRecord
  2
block 11
340
0
102
{BLKREFS
331
145
102
}
 70
     0
280
     1
281
     0
  0
BLOCK_RECORD
  5
149
330
1
100
AcDbSymbolTableRecord
100
AcDbBlockTableRecord
  2
block 12
340
0
102
{BLKREFS
331
14A
102
}
 70
     0
280
     1
281
     0
  0
BLOCK_RECORD
  5
14E
330
1
100
AcDbSymbolTableRecord
100
AcDbBlockTableRecord
  2
block 13
340
0
102
{BLKREFS
331
14F
102
}
 70
     0
280
     1
281
     0
  0
BLOCK_RECORD
  5
15A
330
1
100
AcDbSymbolTableRecord
100
AcDbBlockTableRecord
  2
block 14
340
0
102
{BLKREFS
331
15B
102
}
 70
     0
280
     1
281
     0
  0
BLOCK_RECORD
  5
162
330
1
100
AcDbSymbolTableRecord
100
AcDbBlockTableRecord
  2
block 15
340
0
102
{BLKREFS
331
163
102
}
 70
     0
280
     1
281
     0
  0
BLOCK_RECORD
  5
167
330
1
100
AcDbSymbolTableRecord
100
AcDbBlockTableRecord
  2
block 16
340
0
102
{BLKREFS
331
168
102
}
 70
     0
280
     1
281
     0
  0
BLOCK_RECORD
  5
16C
330
1
100
AcDbSymbolTableRecord
100
AcDbBlockTableRecord
  2
block 17
340
0
102
{BLKREFS
331
16D
102
}
 70
     0
280
     1
281
     0
  0
BLOCK_RECORD
  5
171
330
1
100
AcDbSymbolTableRecord
100
AcDbBlockTableRecord
  2
block 18
340
0
102
{BLKREFS
331
172
102
}
 70
     0
280
     1
281
     0
  0
BLOCK_RECORD
  5
185
330
1
100
AcDbSymbolTableRecord
100
AcDbBlockTableRecord
  2
block 19
340
0
102
{BLKREFS
331
186
102
}
 70
     0
280
     1
281
     0
  0
BLOCK_RECORD
  5
195
330
1
100
AcDbSymbolTableRecord
100
AcDbBlockTableRecord
  2
block 20
340
0
102
{BLKREFS
331
196
102
}
 70
     0
280
     1
281
     0
  0
BLOCK_RECORD
  5
19A
330
1
100
AcDbSymbolTableRecord
100
AcDbBlockTableRecord
  2
block 21
340
0
102
{BLKREFS
331
19B
102
}
 70
     0
280
     1
281
     0
  0
BLOCK_RECORD
  5
19F
330
1
100
AcDbSymbolTableRecord
100
AcDbBlockTableRecord
  2
block 22
340
0
102
{BLKREFS
331
1A0
102
}
 70
     0
280
     1
281
     0
  0
BLOCK_RECORD
  5
1A4
330
1
100
AcDbSymbolTableRecord
100
AcDbBlockTableRecord
  2
block 23
340
0
102
{BLKREFS
331
1A5
102
}
 70
     0
280
     1
281
     0
  0
BLOCK_RECORD
  5
1B4
330
1
100
AcDbSymbolTableRecord
100
AcDbBlockTableRecord
  2
block 24
340
0
102
{BLKREFS
331
1B5
102
}
 70
     0
280
     1
281
     0
  0
BLOCK_RECORD
  5
1BC
330
1
100
AcDbSymbolTableRecord
100
AcDbBlockTableRecord
  2
block 25
340
0
102
{BLKREFS
331
1BD
102
}
 70
     0
280
     1
281
     0
  0
BLOCK_RECORD
  5
1C1
330
1
100
AcDbSymbolTableRecord
100
AcDbBlockTableRecord
  2
block 26
340
0
102
{BLKREFS
331
1C2
102
}
 70
     0
280
     1
281
     0
  0
BLOCK_RECORD
  5
1C6
330
1
100
AcDbSymbolTableRecord
100
AcDbBlockTableRecord
  2
block 27
340
0
102
{BLKREFS
331
1C7
102
}
 70
     0
280
     1
281
     0
  0
BLOCK_RECORD
  5
1CB
330
1
100
AcDbSymbolTableRecord
100
AcDbBlockTableRecord
  2
block 28
340
0
102
{BLKREFS
331
1CC
102
}
 70
     0
280
     1
281
     0
  0
BLOCK_RECORD
  5
1D7
330
1
100
AcDbSymbolTableRecord
100
AcDbBlockTableRecord
  2
block 29
340
0
102
{BLKREFS
331
1D8
102
}
 70
     0
280
     1
281
     0
  0
BLOCK_RECORD
  5
1DE
330
1
100
AcDbSymbolTableRecord
100
AcDbBlockTableRecord
  2
block 30
340
0
102
{BLKREFS
331
1DF
102
}
 70
     0
280
     1
281
     0
  0
BLOCK_RECORD
  5
1E3
330
1
100
AcDbSymbolTableRecord
100
AcDbBlockTableRecord
  2
block 31
340
0
102
{BLKREFS
331
1E4
102
}
 70
     0
280
     1
281
     0
  0
BLOCK_RECORD
  5
1E8
330
1
100
AcDbSymbolTableRecord
100
AcDbBlockTableRecord
  2
block 32
340
0
102
{BLKREFS
331
1E9
102
}
 70
     0
280
     1
281
     0
  0
BLOCK_RECORD
  5
1ED
330
1
100
AcDbSymbolTableRecord
100
AcDbBlockTableRecord
  2
block 33
340
0
102
{BLKREFS
331
1EE
102
}
 70
     0
280
     1
281
     0
  0
BLOCK_RECORD
  5
1F9
330
1
100
AcDbSymbolTableRecord
100
AcDbBlockTableRecord
  2
block 34
340
0
102
{BLKREFS
331
1FA
102
}
 70
     0
280
     1
281
     0
  0
BLOCK_RECORD
  5
200
330
1
100
AcDbSymbolTableRecord
100
AcDbBlockTableRecord
  2
block 35
340
0
102
{BLKREFS
331
201
102
}
 70
     0
280
     1
281
     0
  0
BLOCK_RECORD
  5
205
330
1
100
AcDbSymbolTableRecord
100
AcDbBlockTableRecord
  2
block 36
340
0
102
{BLKREFS
331
206
102
}
 70
     0
280
     1
281
     0
  0
BLOCK_RECORD
  5
20A
330
1
100
AcDbSymbolTableRecord
100
AcDbBlockTableRecord
  2
block 37
340
0
102
{BLKREFS
331
20B
102
}
 70
     0
280
     1
281
     0
  0
BLOCK_RECORD
  5
20F
330
1
100
AcDbSymbolTableRecord
100
AcDbBlockTableRecord
  2
block 38
340
0
102
{BLKREFS
331
210
102
}
 70
     0
280
     1
281
     0
  0
BLOCK_RECORD
  5
21F
330
1
100
AcDbSymbolTableRecord
100
AcDbBlockTableRecord
  2
block 39
340
0
102
{BLKREFS
331
220
102
}
 70
     0
280
     1
281
     0
  0
BLOCK_RECORD
  5
225
330
1
100
AcDbSymbolTableRecord
100
AcDbBlockTableRecord
  2
block 40
340
0
102
{BLKREFS
331
226
102
}
 70
     0
280
     1
281
     0
  0
BLOCK_RECORD
  5
22A
330
1
100
AcDbSymbolTableRecord
100
AcDbBlockTableRecord
  2
block 41
340
0
102
{BLKREFS
331
22B
102
}
 70
     0
280
     1
281
     0
  0
BLOCK_RECORD
  5
22F
330
1
100
AcDbSymbolTableRecord
100
AcDbBlockTableRecord
  2
block 42
340
0
102
{BLKREFS
331
230
102
}
 70
     0
280
     1
281
     0
  0
BLOCK_RECORD
  5
234
330
1
100
AcDbSymbolTableRecord
100
AcDbBlockTableRecord
  2
block 43
340
0
102
{BLKREFS
331
235
102
}
 70
     0
280
     1
281
     0
  0
BLOCK_RECORD
  5
244
330
1
100
AcDbSymbolTableRecord
100
AcDbBlockTableRecord
  2
block 44
340
0
102
{BLKREFS
331
245
102
}
 70
     0
280
     1
281
     0
  0
BLOCK_RECORD
  5
24A
330
1
100
AcDbSymbolTableRecord
100
AcDbBlockTableRecord
  2
block 45
340
0
102
{BLKREFS
331
24B
102
}
 70
     0
280
     1
281
     0
  0
BLOCK_RECORD
  5
24F
330
1
100
AcDbSymbolTableRecord
100
AcDbBlockTableRecord
  2
block 46
340
0
102
{BLKREFS
331
250
102
}
 70
     0
280
     1
281
     0
  0
BLOCK_RECORD
  5
254
330
1
100
AcDbSymbolTableRecord
100
AcDbBlockTableRecord
  2
block 47
340
0
102
{BLKREFS
331
255
102
}
 70
     0
280
     1
281
     0
  0
BLOCK_RECORD
  5
259
330
1
100
AcDbSymbolTableRecord
100
AcDbBlockTableRecord
  2
block 48
340
0
102
{BLKREFS
331
25A
102
}
 70
     0
280
     1
281
     0
  0
BLOCK_RECORD
  5
25D
330
1
100
AcDbSymbolTableRecord
100
AcDbBlockTableRecord
  2
block 49
340
0
102
{BLKREFS
331
25E
102
}
 70
     0
280
     1
281
     0
  0
BLOCK_RECORD
  5
262
330
1
100
AcDbSymbolTableRecord
100
AcDbBlockTableRecord
  2
block 50
340
0
102
{BLKREFS
331
263
102
}
 70
     0
280
     1
281
     0
  0
BLOCK_RECORD
  5
267
330
1
100
AcDbSymbolTableRecord
100
AcDbBlockTableRecord
  2
block 51
340
0
102
{BLKREFS
331
268
102
}
 70
     0
280
     1
281
     0
  0
BLOCK_RECORD
  5
273
330
1
100
AcDbSymbolTableRecord
100
AcDbBlockTableRecord
  2
block 52
340
0
102
{BLKREFS
331
274
102
}
 70
     0
280
     1
281
     0
  0
BLOCK_RECORD
  5
27C
330
1
100
AcDbSymbolTableRecord
100
AcDbBlockTableRecord
  2
block 53
340
0
102
{BLKREFS
331
27D
102
}
 70
     0
280
     1
281
     0
  0
BLOCK_RECORD
  5
281
330
1
100
AcDbSymbolTableRecord
100
AcDbBlockTableRecord
  2
block 54
340
0
102
{BLKREFS
331
282
102
}
 70
     0
280
     1
281
     0
  0
BLOCK_RECORD
  5
286
330
1
100
AcDbSymbolTableRecord
100
AcDbBlockTableRecord
  2
block 55
340
0
102
{BLKREFS
331
287
102
}
 70
     0
280
     1
281
     0
  0
ENDTAB
  0
ENDSEC
  0
SECTION
  2
BLOCKS
  0
BLOCK
  5
20
330
1F
100
AcDbEntity
  8
0
100
AcDbBlockBegin
  2
*Model_Space
 70
     0
 10
0.0
 20
0.0
 30
0.0
  3
*Model_Space
  1

  0
ENDBLK
  5
21
330
1F
100
AcDbEntity
  8
0
100
AcDbBlockEnd
  0
BLOCK
  5
1C
330
1B
100
AcDbEntity
 67
     1
  8
0
100
AcDbBlockBegin
  2
*Paper_Space
 70
     0
 10
0.0
 20
0.0
 30
0.0
  3
*Paper_Space
  1

  0
ENDBLK
  5
1D
330
1B
100
AcDbEntity
 67
     1
  8
0
100
AcDbBlockEnd
  0
BLOCK
  5
24
330
23
100
AcDbEntity
  8
0
100
AcDbBlockBegin
  2
*Paper_Space0
 70
     0
 10
0.0
 20
0.0
 30
0.0
  3
*Paper_Space0
  1

  0
ENDBLK
  5
25
330
23
100
AcDbEntity
  8
0
100
AcDbBlockEnd
  0
BLOCK
  5
C9
330
C7
100
AcDbEntity
  8
0
100
AcDbBlockBegin
  2
block 2
 70
     0
 10
0.0
 20
0.0
 30
0.0
  3
block 2
  1

  0
SPLINE
  5
CB
330
C7
100
AcDbEntity
  8
_U+30EC_U+30A4_U+30E4_U+30FC 1
370
     0
100
AcDbSpline
210
0.0
220
0.0
230
1.0
 70
    11
 71
     3
 72
   197
 73
   193
 74
     0
 42
0.0000000001
 43
0.0000000001
 12
1.0
 22
0.0
 32
0.0
 13
1.0
 23
0.0
 33
0.0
 40
0.0
 40
0.0
 40
0.0
 40
0.0
 40
1.0
 40
1.0
 40
1.0
 40
2.0
 40
2.0
 40
2.0
 40
3.0
 40
3.0
 40
3.0
 40
4.0
 40
4.0
 40
4.0
 40
5.0
 40
5.0
 40
5.0
 40
6.0
 40
6.0
 40
6.0
 40
7.0
 40
7.0
 40
7.0
 40
8.0
 40
8.0
 40
8.0
 40
9.0
 40
9.0
 40
9.0
 40
10.0
 40
10.0
 40
10.0
 40
11.0
 40
11.0
 40
11.0
 40
12.0
 40
12.0
 40
12.0
 40
13.0
 40
13.0
 40
13.0
 40
14.0
 40
14.0
 40
14.0
 40
15.0
 40
15.0
 40
15.0
 40
16.0
 40
16.0
 40
16.0
 40
17.0
 40
17.0
 40
17.0
 40
18.0
 40
18.0
 40
18.0
 40
19.0
 40
19.0
 40
19.0
 40
20.0
 40
20.0
 40
20.0
 40
21.0
 40
21.0
 40
21.0
 40
22.0
 40
22.0
 40
22.0
 40
23.0
 40
23.0
 40
23.0
 40
24.0
 40
24.0
 40
24.0
 40
25.0
 40
25.0
 40
25.0
 40
26.0
 40
26.0
 40
26.0
 40
27.0
 40
27.0
 40
27.0
 40
28.0
 40
28.0
 40
28.0
 40
29.0
 40
29.0
 40
29.0
 40
30.0
 40
30.0
 40
30.0
 40
31.0
 40
31.0
 40
31.0
 40
32.0
 40
32.0
 40
32.0
 40
33.0
 40
33.0
 40
33.0
 40
34.0
 40
34.0
 40
34.0
 40
35.0
 40
35.0
 40
35.0
 40
36.0
 40
36.0
 40
36.0
 40
37.0
 40
37.0
 40
37.0
 40
38.0
 40
38.0
 40
38.0
 40
39.0
 40
39.0
 40
39.0
 40
40.0
 40
40.0
 40
40.0
 40
41.0
 40
41.0
 40
41.0
 40
42.0
 40
42.0
 40
42.0
 40
43.0
 40
43.0
 40
43.0
 40
44.0
 40
44.0
 40
44.0
 40
45.0
 40
45.0
 40
45.0
 40
46.0
 40
46.0
 40
46.0
 40
47.0
 40
47.0
 40
47.0
 40
48.0
 40
48.0
 40
48.0
 40
49.0
 40
49.0
 40
49.0
 40
50.0
 40
50.0
 40
50.0
 40
51.0
 40
51.0
 40
51.0
 40
52.0
 40
52.0
 40
52.0
 40
53.0
 40
53.0
 40
53.0
 40
54.0
 40
54.0
 40
54.0
 40
55.0
 40
55.0
 40
55.0
 40
56.0
 40
56.0
 40
56.0
 40
57.0
 40
57.0
 40
57.0
 40
58.0
 40
58.0
 40
58.0
 40
59.0
 40
59.0
 40
59.0
 40
60.0
 40
60.0
 40
60.0
 40
61.0
 40
61.0
 40
61.0
 40
62.0
 40
62.0
 40
62.0
 40
63.0
 40
63.0
 40
63.0
 40
64.0
 40
64.0
 40
64.0
 40
64.0
 10
62.76963974125204
 20
-88.82851424645607
 30
0.0
 10
62.75827092615071
 20
-88.85814206762922
 30
0.0
 10
62.73346623865692
 20
-88.90465085668009
 30
0.0
 10
62.72209742355559
 20
-88.93221162056209
 30
0.0
 10
62.72209742355559
 20
-88.93221162056209
 30
0.0
 10
62.65646835456158
 20
-89.08448484101014
 30
0.0
 10
62.65646835456158
 20
-89.08448484101014
 30
0.0
 10
62.64527179423452
 20
-89.10980629282672
 30
0.0
 10
62.59325085240724
 20
-89.22194415087161
 30
0.0
 10
62.57964272524051
 20
-89.24519854539703
 30
0.0
 10
62.5774034131751
 20
-89.25157197204474
 30
0.0
 10
62.57292478904427
 20
-89.26001245598361
 30
0.0
 10
62.57068547697886
 20
-89.26621362785706
 30
0.0
 10
62.57068547697886
 20
-89.26621362785706
 30
0.0
 10
62.34675427043762
 20
-89.21350366693274
 30
0.0
 10
62.34675427043762
 20
-89.21350366693274
 30
0.0
 10
62.43047009072919
 20
-89.103432866179
 30
0.0
 10
62.49592690494894
 20
-88.9680406136087
 30
0.0
 10
62.52986109547865
 20
-88.85814206762922
 30
0.0
 10
62.52986109547865
 20
-88.85814206762922
 30
0.0
 10
62.03256156218283
 20
-88.85814206762922
 30
0.0
 10
62.03256156218283
 20
-88.85814206762922
 30
0.0
 10
61.94660642982585
 20
-89.02316214137268
 30
0.0
 10
61.8742594246356
 20
-89.10136580888786
 30
0.0
 10
61.83808592204048
 20
-89.14150117129101
 30
0.0
 10
61.83808592204048
 20
-89.14150117129101
 30
0.0
 10
61.70700003882673
 20
-89.07604435707127
 30
0.0
 10
61.70700003882673
 20
-89.07604435707127
 30
0.0
 10
61.70700003882673
 20
-89.07604435707127
 30
0.0
 10
61.70700003882673
 20
-89.24726560268819
 30
0.0
 10
61.70700003882673
 20
-89.24726560268819
 30
0.0
 10
61.70700003882673
 20
-89.3550970913765
 30
0.0
 10
61.70923935089214
 20
-89.40401744726705
 30
0.0
 10
61.72060816599346
 20
-89.50978187866423
 30
0.0
 10
61.64361028189813
 20
-89.50771482137307
 30
0.0
 10
61.62104490646974
 20
-89.50771482137307
 30
0.0
 10
61.40176457883359
 20
-89.50771482137307
 30
0.0
 10
61.40176457883359
 20
-89.50771482137307
 30
0.0
 10
61.34302570081008
 20
-89.50771482137307
 30
0.0
 10
61.34302570081008
 20
-89.50771482137307
 30
0.0
 10
61.34302570081008
 20
-89.50771482137307
 30
0.0
 10
61.34302570081008
 20
-89.6431070739434
 30
0.0
 10
61.34302570081008
 20
-89.6431070739434
 30
0.0
 10
61.34302570081008
 20
-89.6431070739434
 30
0.0
 10
61.41985133013115
 20
-89.6431070739434
 30
0.0
 10
61.41985133013115
 20
-89.6431070739434
 30
0.0
 10
61.48995902325598
 20
-89.6431070739434
 30
0.0
 10
61.64584959396354
 20
-89.63862844981257
 30
0.0
 10
61.759020980654
 20
-89.63036022064797
 30
0.0
 10
61.759020980654
 20
-89.63036022064797
 30
0.0
 10
61.759020980654
 20
-89.80778263813833
 30
0.0
 10
61.759020980654
 20
-89.80778263813833
 30
0.0
 10
61.65497909699945
 20
-89.80158146626489
 30
0.0
 10
61.48548039912516
 20
-89.79744735168259
 30
0.0
 10
61.41985133013115
 20
-89.79744735168259
 30
0.0
 10
61.41985133013115
 20
-89.79744735168259
 30
0.0
 10
61.34302570081008
 20
-89.79744735168259
 30
0.0
 10
61.34302570081008
 20
-89.79744735168259
 30
0.0
 10
61.34526501287549
 20
-89.88633081520203
 30
0.0
 10
61.34974363700632
 20
-90.12542044187838
 30
0.0
 10
61.35198294907173
 20
-90.19948999481124
 30
0.0
 10
61.35198294907173
 20
-90.19948999481124
 30
0.0
 10
61.1371812455664
 20
-90.19948999481124
 30
0.0
 10
61.1371812455664
 20
-90.19948999481124
 30
0.0
 10
61.15078937273314
 20
-89.98554956517722
 30
0.0
 10
61.15078937273314
 20
-89.95592174400407
 30
0.0
 10
61.15526799686396
 20
-89.79744735168259
 30
0.0
 10
61.15526799686396
 20
-89.79744735168259
 30
0.0
 10
61.0806816796083
 20
-89.79744735168259
 30
0.0
 10
61.0806816796083
 20
-89.79744735168259
 30
0.0
 10
61.01970348951938
 20
-89.79744735168259
 30
0.0
 10
60.85692272784133
 20
-89.80158146626489
 30
0.0
 10
60.73927271702004
 20
-89.80778263813833
 30
0.0
 10
60.73927271702004
 20
-89.80778263813833
 30
0.0
 10
60.73927271702004
 20
-89.63036022064797
 30
0.0
 10
60.73927271702004
 20
-89.63036022064797
 30
0.0
 10
60.8524441037105
 20
-89.63862844981257
 30
0.0
 10
61.00609536235265
 20
-89.6431070739434
 30
0.0
 10
61.0806816796083
 20
-89.6431070739434
 30
0.0
 10
61.0806816796083
 20
-89.6431070739434
 30
0.0
 10
61.15991887576905
 20
-89.6431070739434
 30
0.0
 10
61.15991887576905
 20
-89.6431070739434
 30
0.0
 10
61.15991887576905
 20
-89.6431070739434
 30
0.0
 10
61.15991887576905
 20
-89.50771482137307
 30
0.0
 10
61.15991887576905
 20
-89.50771482137307
 30
0.0
 10
61.15991887576905
 20
-89.50771482137307
 30
0.0
 10
61.1123765580726
 20
-89.50771482137307
 30
0.0
 10
61.1123765580726
 20
-89.50771482137307
 30
0.0
 10
61.03090004984644
 20
-89.50771482137307
 30
0.0
 10
60.82522784937703
 20
-89.50978187866423
 30
0.0
 10
60.7890543467819
 20
-89.50978187866423
 30
0.0
 10
60.79577228297814
 20
-89.4377793830225
 30
0.0
 10
60.80490178601406
 20
-89.35750865821618
 30
0.0
 10
60.80490178601406
 20
-89.23675806145818
 30
0.0
 10
60.80490178601406
 20
-89.23675806145818
 30
0.0
 10
60.80490178601406
 20
-89.06329750377584
 30
0.0
 10
60.80490178601406
 20
-89.06329750377584
 30
0.0
 10
60.80490178601406
 20
-88.99129500813413
 30
0.0
 10
60.79577228297814
 20
-88.87071666615039
 30
0.0
 10
60.7890543467819
 20
-88.79044594134406
 30
0.0
 10
60.87277016707348
 20
-88.79458005592636
 30
0.0
 10
60.91342229379943
 20
-88.79681936799177
 30
0.0
 10
61.048986801144
 20
-88.79681936799177
 30
0.0
 10
61.048986801144
 20
-88.79681936799177
 30
0.0
 10
61.15991887576905
 20
-88.79681936799177
 30
0.0
 10
61.15991887576905
 20
-88.79681936799177
 30
0.0
 10
61.15991887576905
 20
-88.79681936799177
 30
0.0
 10
61.15991887576905
 20
-88.65074731941718
 30
0.0
 10
61.15991887576905
 20
-88.65074731941718
 30
0.0
 10
61.15991887576905
 20
-88.65074731941718
 30
0.0
 10
61.07620305547748
 20
-88.65074731941718
 30
0.0
 10
61.07620305547748
 20
-88.65074731941718
 30
0.0
 10
61.01746417745397
 20
-88.65074731941718
 30
0.0
 10
60.83435735241294
 20
-88.65505368877373
 30
0.0
 10
60.74392359592513
 20
-88.66142711542145
 30
0.0
 10
60.74392359592513
 20
-88.66142711542145
 30
0.0
 10
60.74392359592513
 20
-88.48366018838256
 30
0.0
 10
60.74392359592513
 20
-88.48366018838256
 30
0.0
 10
60.83194578557327
 20
-88.49003361503027
 30
0.0
 10
61.00609536235265
 20
-88.49416772961257
 30
0.0
 10
61.07620305547748
 20
-88.49416772961257
 30
0.0
 10
61.07620305547748
 20
-88.49416772961257
 30
0.0
 10
61.15991887576905
 20
-88.49416772961257
 30
0.0
 10
61.15991887576905
 20
-88.49416772961257
 30
0.0
 10
61.15991887576905
 20
-88.46040579385712
 30
0.0
 10
61.15526799686396
 20
-88.30589326134367
 30
0.0
 10
61.15526799686396
 20
-88.27419838287938
 30
0.0
 10
61.15526799686396
 20
-88.27419838287938
 30
0.0
 10
61.36559107623847
 20
-88.2910793507571
 30
0.0
 10
61.36559107623847
 20
-88.2910793507571
 30
0.0
 10
61.38367782753603
 20
-88.29331866282251
 30
0.0
 10
61.40624320296441
 20
-88.29538572011366
 30
0.0
 10
61.40624320296441
 20
-88.31657305734794
 30
0.0
 10
61.40624320296441
 20
-88.33982745187338
 30
0.0
 10
61.38367782753603
 20
-88.34826793581225
 30
0.0
 10
61.35422226113714
 20
-88.36101478910767
 30
0.0
 10
61.35422226113714
 20
-88.3820298715677
 30
0.0
 10
61.35198294907173
 20
-88.47728676173485
 30
0.0
 10
61.35198294907173
 20
-88.49416772961257
 30
0.0
 10
61.35198294907173
 20
-88.49416772961257
 30
0.0
 10
61.41537270600033
 20
-88.49416772961257
 30
0.0
 10
61.41537270600033
 20
-88.49416772961257
 30
0.0
 10
61.48771971119057
 20
-88.49416772961257
 30
0.0
 10
61.64137096983271
 20
-88.49003361503027
 30
0.0
 10
61.75437010174891
 20
-88.48366018838256
 30
0.0
 10
61.75437010174891
 20
-88.48366018838256
 30
0.0
 10
61.75437010174891
 20
-88.66142711542145
 30
0.0
 10
61.75437010174891
 20
-88.66142711542145
 30
0.0
 10
61.65050047286863
 20
-88.65505368877373
 30
0.0
 10
61.48306883228548
 20
-88.65074731941718
 30
0.0
 10
61.41537270600033
 20
-88.65074731941718
 30
0.0
 10
61.41537270600033
 20
-88.65074731941718
 30
0.0
 10
61.34302570081008
 20
-88.65074731941718
 30
0.0
 10
61.34302570081008
 20
-88.65074731941718
 30
0.0
 10
61.34302570081008
 20
-88.65074731941718
 30
0.0
 10
61.34302570081008
 20
-88.79681936799177
 30
0.0
 10
61.34302570081008
 20
-88.79681936799177
 30
0.0
 10
61.34302570081008
 20
-88.79681936799177
 30
0.0
 10
61.41761201806574
 20
-88.79681936799177
 30
0.0
 10
61.41761201806574
 20
-88.79681936799177
 30
0.0
 10
61.57815346767838
 20
-88.79681936799177
 30
0.0
 10
61.65497909699945
 20
-88.7925129986352
 30
0.0
 10
61.72060816599346
 20
-88.79044594134406
 30
0.0
 10
61.71147866295755
 20
-88.88553057673695
 30
0.0
 10
61.70923935089214
 20
-88.9639064990264
 30
0.0
 10
61.70700003882673
 20
-89.0019748041384
 30
0.0
 10
61.87202011257019
 20
-88.79044594134406
 30
0.0
 10
61.98501924448639
 20
-88.54291583072886
 30
0.0
 10
62.00310599578395
 20
-88.28057180952709
 30
0.0
 10
62.00310599578395
 20
-88.28057180952709
 30
0.0
 10
62.23375513852142
 20
-88.33138696793452
 30
0.0
 10
62.23375513852142
 20
-88.33138696793452
 30
0.0
 10
62.24960257775358
 20
-88.33552108251682
 30
0.0
 10
62.26545001698572
 20
-88.34189450916453
 30
0.0
 10
62.26545001698572
 20
-88.35877547704226
 30
0.0
 10
62.26545001698572
 20
-88.37582869969424
 30
0.0
 10
62.26079913808064
 20
-88.3778957569854
 30
0.0
 10
62.20653888418795
 20
-88.39908309421968
 30
0.0
 10
62.18845213289039
 20
-88.4752197044437
 30
0.0
 10
62.16140813333118
 20
-88.5661702252543
 30
0.0
 10
62.10938719150391
 20
-88.69312199388575
 30
0.0
 10
62.10938719150391
 20
-88.69312199388575
 30
0.0
 10
62.47112221745514
 20
-88.69312199388575
 30
0.0
 10
62.47112221745514
 20
-88.69312199388575
 30
0.0
 10
62.51177434418108
 20
-88.69312199388575
 30
0.0
 10
62.64975041836534
 20
-88.68881562452918
 30
0.0
 10
62.70177136019262
 20
-88.68244219788147
 30
0.0
 10
62.70177136019262
 20
-88.68244219788147
 30
0.0
 10
62.80116236494207
 20
-88.75237763623205
 30
0.0
 10
62.80116236494207
 20
-88.75237763623205
 30
0.0
 10
62.79220511668042
 20
-88.77339271869208
 30
0.0
 10
62.78531492570993
 20
-88.7925129986352
 30
0.0
 10
62.76963974125204
 20
-88.82851424645607
 30
0.0
  0
POLYLINE
  5
CC
330
C7
100
AcDbEntity
  8
_U+30EC_U+30A4_U+30E4_U+30FC 1
370
     0
100
AcDb2dPolyline
 66
     1
 10
0.0
 20
0.0
 30
0.0
  0
VERTEX
  5
CD
330
CC
100
AcDbEntity
  8
_U+30EC_U+30A4_U+30E4_U+30FC 1
370
     0
100
AcDbVertex
100
AcDb2dVertex
 10
61.15991887576905
 20
-88.95322670302211
 30
0.0
  0
VERTEX
  5
CE
330
CC
100
AcDbEntity
  8
_U+30EC_U+30A4_U+30E4_U+30FC 1
370
     0
100
AcDbVertex
100
AcDb2dVertex
 10
60.9902479231205
 20
-88.95322670302211
 30
0.0
  0
VERTEX
  5
CF
330
CC
100
AcDbEntity
  8
_U+30EC_U+30A4_U+30E4_U+30FC 1
370
     0
100
AcDbVertex
100
AcDb2dVertex
 10
60.9902479231205
 20
-89.08224552894472
 30
0.0
  0
VERTEX
  5
D0
330
CC
100
AcDbEntity
  8
_U+30EC_U+30A4_U+30E4_U+30FC 1
370
     0
100
AcDbVertex
100
AcDb2dVertex
 10
61.15991887576905
 20
-89.08224552894472
 30
0.0
  0
VERTEX
  5
D1
330
CC
100
AcDbEntity
  8
_U+30EC_U+30A4_U+30E4_U+30FC 1
370
     0
100
AcDbVertex
100
AcDb2dVertex
 10
61.15991887576905
 20
-88.95322670302211
 30
0.0
  0
SEQEND
  5
D2
330
CC
100
AcDbEntity
  8
_U+30EC_U+30A4_U+30E4_U+30FC 1
370
     0
  0
POLYLINE
  5
D3
330
C7
100
AcDbEntity
  8
_U+30EC_U+30A4_U+30E4_U+30FC 1
370
     0
100
AcDb2dPolyline
 66
     1
 10
0.0
 20
0.0
 30
0.0
  0
VERTEX
  5
D4
330
D3
100
AcDbEntity
  8
_U+30EC_U+30A4_U+30E4_U+30FC 1
370
     0
100
AcDbVertex
100
AcDb2dVertex
 10
61.15991887576905
 20
-89.22625052022816
 30
0.0
  0
VERTEX
  5
D5
330
D3
100
AcDbEntity
  8
_U+30EC_U+30A4_U+30E4_U+30FC 1
370
     0
100
AcDbVertex
100
AcDb2dVertex
 10
60.9902479231205
 20
-89.22625052022816
 30
0.0
  0
VERTEX
  5
D6
330
D3
100
AcDbEntity
  8
_U+30EC_U+30A4_U+30E4_U+30FC 1
370
     0
100
AcDbVertex
100
AcDb2dVertex
 10
60.9902479231205
 20
-89.3550970913765
 30
0.0
  0
VERTEX
  5
D7
330
D3
100
AcDbEntity
  8
_U+30EC_U+30A4_U+30E4_U+30FC 1
370
     0
100
AcDbVertex
100
AcDb2dVertex
 10
61.15991887576905
 20
-89.3550970913765
 30
0.0
  0
VERTEX
  5
D8
330
D3
100
AcDbEntity
  8
_U+30EC_U+30A4_U+30E4_U+30FC 1
370
     0
100
AcDbVertex
100
AcDb2dVertex
 10
61.15991887576905
 20
-89.22625052022816
 30
0.0
  0
SEQEND
  5
D9
330
D3
100
AcDbEntity
  8
_U+30EC_U+30A4_U+30E4_U+30FC 1
370
     0
  0
POLYLINE
  5
DA
330
C7
100
AcDbEntity
  8
_U+30EC_U+30A4_U+30E4_U+30FC 1
370
     0
100
AcDb2dPolyline
 66
     1
 10
0.0
 20
0.0
 30
0.0
  0
VERTEX
  5
DB
330
DA
100
AcDbEntity
  8
_U+30EC_U+30A4_U+30E4_U+30FC 1
370
     0
100
AcDbVertex
100
AcDb2dVertex
 10
61.51476371074978
 20
-88.95322670302211
 30
0.0
  0
VERTEX
  5
DC
330
DA
100
AcDbEntity
  8
_U+30EC_U+30A4_U+30E4_U+30FC 1
370
     0
100
AcDbVertex
100
AcDb2dVertex
 10
61.34302570081008
 20
-88.95322670302211
 30
0.0
  0
VERTEX
  5
DD
330
DA
100
AcDbEntity
  8
_U+30EC_U+30A4_U+30E4_U+30FC 1
370
     0
100
AcDbVertex
100
AcDb2dVertex
 10
61.34302570081008
 20
-89.08224552894472
 30
0.0
  0
VERTEX
  5
DE
330
DA
100
AcDbEntity
  8
_U+30EC_U+30A4_U+30E4_U+30FC 1
370
     0
100
AcDbVertex
100
AcDb2dVertex
 10
61.51476371074978
 20
-89.08224552894472
 30
0.0
  0
VERTEX
  5
DF
330
DA
100
AcDbEntity
  8
_U+30EC_U+30A4_U+30E4_U+30FC 1
370
     0
100
AcDbVertex
100
AcDb2dVertex
 10
61.51476371074978
 20
-88.95322670302211
 30
0.0
  0
SEQEND
  5
E0
330
DA
100
AcDbEntity
  8
_U+30EC_U+30A4_U+30E4_U+30FC 1
370
     0
  0
POLYLINE
  5
E1
330
C7
100
AcDbEntity
  8
_U+30EC_U+30A4_U+30E4_U+30FC 1
370
     0
100
AcDb2dPolyline
 66
     1
 10
0.0
 20
0.0
 30
0.0
  0
VERTEX
  5
E2
330
E1
100
AcDbEntity
  8
_U+30EC_U+30A4_U+30E4_U+30FC 1
370
     0
100
AcDbVertex
100
AcDb2dVertex
 10
61.51476371074978
 20
-89.22625052022816
 30
0.0
  0
VERTEX
  5
E3
330
E1
100
AcDbEntity
  8
_U+30EC_U+30A4_U+30E4_U+30FC 1
370
     0
100
AcDbVertex
100
AcDb2dVertex
 10
61.34302570081008
 20
-89.22625052022816
 30
0.0
  0
VERTEX
  5
E4
330
E1
100
AcDbEntity
  8
_U+30EC_U+30A4_U+30E4_U+30FC 1
370
     0
100
AcDbVertex
100
AcDb2dVertex
 10
61.34302570081008
 20
-89.3550970913765
 30
0.0
  0
VERTEX
  5
E5
330
E1
100
AcDbEntity
  8
_U+30EC_U+30A4_U+30E4_U+30FC 1
370
     0
100
AcDbVertex
100
AcDb2dVertex
 10
61.51476371074978
 20
-89.3550970913765
 30
0.0
  0
VERTEX
  5
E6
330
E1
100
AcDbEntity
  8
_U+30EC_U+30A4_U+30E4_U+30FC 1
370
     0
100
AcDbVertex
100
AcDb2dVertex
 10
61.51476371074978
 20
-89.22625052022816
 30
0.0
  0
SEQEND
  5
E7
330
E1
100
AcDbEntity
  8
_U+30EC_U+30A4_U+30E4_U+30FC 1
370
     0
  0
SPLINE
  5
E8
330
C7
100
AcDbEntity
  8
_U+30EC_U+30A4_U+30E4_U+30FC 1
370
     0
100
AcDbSpline
210
0.0
220
0.0
230
1.0
 70
    11
 71
     3
 72
    41
 73
    37
 74
     0
 42
0.0000000001
 43
0.0000000001
 12
1.0
 22
0.0
 32
0.0
 13
1.0
 23
0.0
 33
0.0
 40
0.0
 40
0.0
 40
0.0
 40
0.0
 40
1.0
 40
1.0
 40
1.0
 40
2.0
 40
2.0
 40
2.0
 40
3.0
 40
3.0
 40
3.0
 40
4.0
 40
4.0
 40
4.0
 40
5.0
 40
5.0
 40
5.0
 40
6.0
 40
6.0
 40
6.0
 40
7.0
 40
7.0
 40
7.0
 40
8.0
 40
8.0
 40
8.0
 40
9.0
 40
9.0
 40
9.0
 40
10.0
 40
10.0
 40
10.0
 40
11.0
 40
11.0
 40
11.0
 40
12.0
 40
12.0
 40
12.0
 40
12.0
 10
62.67920598476423
 20
-90.18467608422466
 30
0.0
 10
62.42134058769328
 20
-90.04928383165435
 30
0.0
 10
62.23151582645601
 20
-89.75300561992286
 30
0.0
 10
62.18845213289039
 20
-89.62381453922599
 30
0.0
 10
62.05960556174205
 20
-89.88839787249319
 30
0.0
 10
61.88562823973693
 20
-90.06616479953207
 30
0.0
 10
61.69115259959457
 20
-90.18019746009385
 30
0.0
 10
61.69115259959457
 20
-90.18019746009385
 30
0.0
 10
61.48082952022008
 20
-90.04273815023238
 30
0.0
 10
61.48082952022008
 20
-90.04273815023238
 30
0.0
 10
61.55541583747573
 20
-90.01724444364153
 30
0.0
 10
61.71147866295755
 20
-89.95592174400407
 30
0.0
 10
61.8425645461713
 20
-89.80158146626489
 30
0.0
 10
61.97606199622474
 20
-89.64517413123454
 30
0.0
 10
62.07097437684337
 20
-89.41228567643165
 30
0.0
 10
62.07097437684337
 20
-89.1521809672953
 30
0.0
 10
62.07097437684337
 20
-89.05055065048042
 30
0.0
 10
62.05736624967663
 20
-88.97872040961296
 30
0.0
 10
62.04616968934957
 20
-88.93221162056209
 30
0.0
 10
62.04616968934957
 20
-88.93221162056209
 30
0.0
 10
62.26545001698572
 20
-88.95322670302211
 30
0.0
 10
62.26545001698572
 20
-88.95322670302211
 30
0.0
 10
62.28801539241411
 20
-88.95546601508752
 30
0.0
 10
62.3105807678425
 20
-88.95753307237868
 30
0.0
 10
62.3105807678425
 20
-88.97872040961296
 30
0.0
 10
62.3105807678425
 20
-88.99766843478184
 30
0.0
 10
62.29938420751544
 20
-89.0061089187207
 30
0.0
 10
62.26321070492031
 20
-89.02729625595498
 30
0.0
 10
62.2540812018844
 20
-89.22831757751932
 30
0.0
 10
62.31505939197332
 20
-89.47154131877795
 30
0.0
 10
62.38068846096733
 20
-89.5921196607617
 30
0.0
 10
62.47784015365138
 20
-89.76781953050944
 30
0.0
 10
62.68592392096047
 20
-89.94765351483947
 30
0.0
 10
62.83061793134096
 20
-90.00484209989463
 30
0.0
 10
62.83061793134096
 20
-90.00484209989463
 30
0.0
 10
62.67920598476423
 20
-90.18467608422466
 30
0.0
 10
62.67920598476423
 20
-90.18467608422466
 30
0.0
  0
HATCH
  5
E9
330
C7
100
AcDbEntity
  8
_U+30EC_U+30A4_U+30E4_U+30FC 1
 62
   179
420
  2234388
100
AcDbHatch
 10
0.0
 20
0.0
 30
0.0
210
0.0
220
0.0
230
1.0
  2
SOLID
 70
     1
 71
     0
 91
        6
 92
        1
 93
        1
 72
     4
 94
        3
 73
     0
 74
     1
 95
      197
 96
      193
 40
0.0
 40
0.0
 40
0.0
 40
0.0
 40
1.0
 40
1.0
 40
1.0
 40
2.0
 40
2.0
 40
2.0
 40
3.0
 40
3.0
 40
3.0
 40
4.0
 40
4.0
 40
4.0
 40
5.0
 40
5.0
 40
5.0
 40
6.0
 40
6.0
 40
6.0
 40
7.0
 40
7.0
 40
7.0
 40
8.0
 40
8.0
 40
8.0
 40
9.0
 40
9.0
 40
9.0
 40
10.0
 40
10.0
 40
10.0
 40
11.0
 40
11.0
 40
11.0
 40
12.0
 40
12.0
 40
12.0
 40
13.0
 40
13.0
 40
13.0
 40
14.0
 40
14.0
 40
14.0
 40
15.0
 40
15.0
 40
15.0
 40
16.0
 40
16.0
 40
16.0
 40
17.0
 40
17.0
 40
17.0
 40
18.0
 40
18.0
 40
18.0
 40
19.0
 40
19.0
 40
19.0
 40
20.0
 40
20.0
 40
20.0
 40
21.0
 40
21.0
 40
21.0
 40
22.0
 40
22.0
 40
22.0
 40
23.0
 40
23.0
 40
23.0
 40
24.0
 40
24.0
 40
24.0
 40
25.0
 40
25.0
 40
25.0
 40
26.0
 40
26.0
 40
26.0
 40
27.0
 40
27.0
 40
27.0
 40
28.0
 40
28.0
 40
28.0
 40
29.0
 40
29.0
 40
29.0
 40
30.0
 40
30.0
 40
30.0
 40
31.0
 40
31.0
 40
31.0
 40
32.0
 40
32.0
 40
32.0
 40
33.0
 40
33.0
 40
33.0
 40
34.0
 40
34.0
 40
34.0
 40
35.0
 40
35.0
 40
35.0
 40
36.0
 40
36.0
 40
36.0
 40
37.0
 40
37.0
 40
37.0
 40
38.0
 40
38.0
 40
38.0
 40
39.0
 40
39.0
 40
39.0
 40
40.0
 40
40.0
 40
40.0
 40
41.0
 40
41.0
 40
41.0
 40
42.0
 40
42.0
 40
42.0
 40
43.0
 40
43.0
 40
43.0
 40
44.0
 40
44.0
 40
44.0
 40
45.0
 40
45.0
 40
45.0
 40
46.0
 40
46.0
 40
46.0
 40
47.0
 40
47.0
 40
47.0
 40
48.0
 40
48.0
 40
48.0
 40
49.0
 40
49.0
 40
49.0
 40
50.0
 40
50.0
 40
50.0
 40
51.0
 40
51.0
 40
51.0
 40
52.0
 40
52.0
 40
52.0
 40
53.0
 40
53.0
 40
53.0
 40
54.0
 40
54.0
 40
54.0
 40
55.0
 40
55.0
 40
55.0
 40
56.0
 40
56.0
 40
56.0
 40
57.0
 40
57.0
 40
57.0
 40
58.0
 40
58.0
 40
58.0
 40
59.0
 40
59.0
 40
59.0
 40
60.0
 40
60.0
 40
60.0
 40
61.0
 40
61.0
 40
61.0
 40
62.0
 40
62.0
 40
62.0
 40
63.0
 40
63.0
 40
63.0
 40
64.0
 40
64.0
 40
64.0
 40
64.0
 10
62.76963974125204
 20
-88.82851424645607
 10
62.75827092615071
 20
-88.85814206762922
 10
62.73346623865692
 20
-88.90465085668009
 10
62.72209742355559
 20
-88.93221162056209
 10
62.72209742355559
 20
-88.93221162056209
 10
62.65646835456158
 20
-89.08448484101014
 10
62.65646835456158
 20
-89.08448484101014
 10
62.64527179423452
 20
-89.10980629282672
 10
62.59325085240724
 20
-89.22194415087161
 10
62.57964272524051
 20
-89.24519854539703
 10
62.5774034131751
 20
-89.25157197204474
 10
62.57292478904427
 20
-89.26001245598361
 10
62.57068547697886
 20
-89.26621362785706
 10
62.57068547697886
 20
-89.26621362785706
 10
62.34675427043762
 20
-89.21350366693274
 10
62.34675427043762
 20
-89.21350366693274
 10
62.43047009072919
 20
-89.103432866179
 10
62.49592690494894
 20
-88.9680406136087
 10
62.52986109547865
 20
-88.85814206762922
 10
62.52986109547865
 20
-88.85814206762922
 10
62.03256156218283
 20
-88.85814206762922
 10
62.03256156218283
 20
-88.85814206762922
 10
61.94660642982585
 20
-89.02316214137268
 10
61.8742594246356
 20
-89.10136580888786
 10
61.83808592204048
 20
-89.14150117129101
 10
61.83808592204048
 20
-89.14150117129101
 10
61.70700003882673
 20
-89.07604435707127
 10
61.70700003882673
 20
-89.07604435707127
 10
61.70700003882673
 20
-89.07604435707127
 10
61.70700003882673
 20
-89.24726560268819
 10
61.70700003882673
 20
-89.24726560268819
 10
61.70700003882673
 20
-89.3550970913765
 10
61.70923935089214
 20
-89.40401744726705
 10
61.72060816599346
 20
-89.50978187866423
 10
61.64361028189813
 20
-89.50771482137307
 10
61.62104490646974
 20
-89.50771482137307
 10
61.40176457883359
 20
-89.50771482137307
 10
61.40176457883359
 20
-89.50771482137307
 10
61.34302570081008
 20
-89.50771482137307
 10
61.34302570081008
 20
-89.50771482137307
 10
61.34302570081008
 20
-89.50771482137307
 10
61.34302570081008
 20
-89.6431070739434
 10
61.34302570081008
 20
-89.6431070739434
 10
61.34302570081008
 20
-89.6431070739434
 10
61.41985133013115
 20
-89.6431070739434
 10
61.41985133013115
 20
-89.6431070739434
 10
61.48995902325598
 20
-89.6431070739434
 10
61.64584959396354
 20
-89.63862844981257
 10
61.759020980654
 20
-89.63036022064797
 10
61.759020980654
 20
-89.63036022064797
 10
61.759020980654
 20
-89.80778263813833
 10
61.759020980654
 20
-89.80778263813833
 10
61.65497909699945
 20
-89.80158146626489
 10
61.48548039912516
 20
-89.79744735168259
 10
61.41985133013115
 20
-89.79744735168259
 10
61.41985133013115
 20
-89.79744735168259
 10
61.34302570081008
 20
-89.79744735168259
 10
61.34302570081008
 20
-89.79744735168259
 10
61.34526501287549
 20
-89.88633081520203
 10
61.34974363700632
 20
-90.12542044187838
 10
61.35198294907173
 20
-90.19948999481124
 10
61.35198294907173
 20
-90.19948999481124
 10
61.1371812455664
 20
-90.19948999481124
 10
61.1371812455664
 20
-90.19948999481124
 10
61.15078937273314
 20
-89.98554956517722
 10
61.15078937273314
 20
-89.95592174400407
 10
61.15526799686396
 20
-89.79744735168259
 10
61.15526799686396
 20
-89.79744735168259
 10
61.0806816796083
 20
-89.79744735168259
 10
61.0806816796083
 20
-89.79744735168259
 10
61.01970348951938
 20
-89.79744735168259
 10
60.85692272784133
 20
-89.80158146626489
 10
60.73927271702004
 20
-89.80778263813833
 10
60.73927271702004
 20
-89.80778263813833
 10
60.73927271702004
 20
-89.63036022064797
 10
60.73927271702004
 20
-89.63036022064797
 10
60.8524441037105
 20
-89.63862844981257
 10
61.00609536235265
 20
-89.6431070739434
 10
61.0806816796083
 20
-89.6431070739434
 10
61.0806816796083
 20
-89.6431070739434
 10
61.15991887576905
 20
-89.6431070739434
 10
61.15991887576905
 20
-89.6431070739434
 10
61.15991887576905
 20
-89.6431070739434
 10
61.15991887576905
 20
-89.50771482137307
 10
61.15991887576905
 20
-89.50771482137307
 10
61.15991887576905
 20
-89.50771482137307
 10
61.1123765580726
 20
-89.50771482137307
 10
61.1123765580726
 20
-89.50771482137307
 10
61.03090004984644
 20
-89.50771482137307
 10
60.82522784937703
 20
-89.50978187866423
 10
60.7890543467819
 20
-89.50978187866423
 10
60.79577228297814
 20
-89.4377793830225
 10
60.80490178601406
 20
-89.35750865821618
 10
60.80490178601406
 20
-89.23675806145818
 10
60.80490178601406
 20
-89.23675806145818
 10
60.80490178601406
 20
-89.06329750377584
 10
60.80490178601406
 20
-89.06329750377584
 10
60.80490178601406
 20
-88.99129500813413
 10
60.79577228297814
 20
-88.87071666615039
 10
60.7890543467819
 20
-88.79044594134406
 10
60.87277016707348
 20
-88.79458005592636
 10
60.91342229379943
 20
-88.79681936799177
 10
61.048986801144
 20
-88.79681936799177
 10
61.048986801144
 20
-88.79681936799177
 10
61.15991887576905
 20
-88.79681936799177
 10
61.15991887576905
 20
-88.79681936799177
 10
61.15991887576905
 20
-88.79681936799177
 10
61.15991887576905
 20
-88.65074731941718
 10
61.15991887576905
 20
-88.65074731941718
 10
61.15991887576905
 20
-88.65074731941718
 10
61.07620305547748
 20
-88.65074731941718
 10
61.07620305547748
 20
-88.65074731941718
 10
61.01746417745397
 20
-88.65074731941718
 10
60.83435735241294
 20
-88.65505368877373
 10
60.74392359592513
 20
-88.66142711542145
 10
60.74392359592513
 20
-88.66142711542145
 10
60.74392359592513
 20
-88.48366018838256
 10
60.74392359592513
 20
-88.48366018838256
 10
60.83194578557327
 20
-88.49003361503027
 10
61.00609536235265
 20
-88.49416772961257
 10
61.07620305547748
 20
-88.49416772961257
 10
61.07620305547748
 20
-88.49416772961257
 10
61.15991887576905
 20
-88.49416772961257
 10
61.15991887576905
 20
-88.49416772961257
 10
61.15991887576905
 20
-88.46040579385712
 10
61.15526799686396
 20
-88.30589326134367
 10
61.15526799686396
 20
-88.27419838287938
 10
61.15526799686396
 20
-88.27419838287938
 10
61.36559107623847
 20
-88.2910793507571
 10
61.36559107623847
 20
-88.2910793507571
 10
61.38367782753603
 20
-88.29331866282251
 10
61.40624320296441
 20
-88.29538572011366
 10
61.40624320296441
 20
-88.31657305734794
 10
61.40624320296441
 20
-88.33982745187338
 10
61.38367782753603
 20
-88.34826793581225
 10
61.35422226113714
 20
-88.36101478910767
 10
61.35422226113714
 20
-88.3820298715677
 10
61.35198294907173
 20
-88.47728676173485
 10
61.35198294907173
 20
-88.49416772961257
 10
61.35198294907173
 20
-88.49416772961257
 10
61.41537270600033
 20
-88.49416772961257
 10
61.41537270600033
 20
-88.49416772961257
 10
61.48771971119057
 20
-88.49416772961257
 10
61.64137096983271
 20
-88.49003361503027
 10
61.75437010174891
 20
-88.48366018838256
 10
61.75437010174891
 20
-88.48366018838256
 10
61.75437010174891
 20
-88.66142711542145
 10
61.75437010174891
 20
-88.66142711542145
 10
61.65050047286863
 20
-88.65505368877373
 10
61.48306883228548
 20
-88.65074731941718
 10
61.41537270600033
 20
-88.65074731941718
 10
61.41537270600033
 20
-88.65074731941718
 10
61.34302570081008
 20
-88.65074731941718
 10
61.34302570081008
 20
-88.65074731941718
 10
61.34302570081008
 20
-88.65074731941718
 10
61.34302570081008
 20
-88.79681936799177
 10
61.34302570081008
 20
-88.79681936799177
 10
61.34302570081008
 20
-88.79681936799177
 10
61.41761201806574
 20
-88.79681936799177
 10
61.41761201806574
 20
-88.79681936799177
 10
61.57815346767838
 20
-88.79681936799177
 10
61.65497909699945
 20
-88.7925129986352
 10
61.72060816599346
 20
-88.79044594134406
 10
61.71147866295755
 20
-88.88553057673695
 10
61.70923935089214
 20
-88.9639064990264
 10
61.70700003882673
 20
-89.0019748041384
 10
61.87202011257019
 20
-88.79044594134406
 10
61.98501924448639
 20
-88.54291583072886
 10
62.00310599578395
 20
-88.28057180952709
 10
62.00310599578395
 20
-88.28057180952709
 10
62.23375513852142
 20
-88.33138696793452
 10
62.23375513852142
 20
-88.33138696793452
 10
62.24960257775358
 20
-88.33552108251682
 10
62.26545001698572
 20
-88.34189450916453
 10
62.26545001698572
 20
-88.35877547704226
 10
62.26545001698572
 20
-88.37582869969424
 10
62.26079913808064
 20
-88.3778957569854
 10
62.20653888418795
 20
-88.39908309421968
 10
62.18845213289039
 20
-88.4752197044437
 10
62.16140813333118
 20
-88.5661702252543
 10
62.10938719150391
 20
-88.69312199388575
 10
62.10938719150391
 20
-88.69312199388575
 10
62.47112221745514
 20
-88.69312199388575
 10
62.47112221745514
 20
-88.69312199388575
 10
62.51177434418108
 20
-88.69312199388575
 10
62.64975041836534
 20
-88.68881562452918
 10
62.70177136019262
 20
-88.68244219788147
 10
62.70177136019262
 20
-88.68244219788147
 10
62.80116236494207
 20
-88.75237763623205
 10
62.80116236494207
 20
-88.75237763623205
 10
62.79220511668042
 20
-88.77339271869208
 10
62.78531492570993
 20
-88.7925129986352
 10
62.76963974125204
 20
-88.82851424645607
 97
        0
 97
        0
 92
        1
 93
        4
 72
     1
 10
61.15991887576905
 20
-88.95322670302211
 11
60.9902479231205
 21
-88.95322670302211
 72
     1
 10
60.9902479231205
 20
-88.95322670302211
 11
60.9902479231205
 21
-89.08224552894472
 72
     1
 10
60.9902479231205
 20
-89.08224552894472
 11
61.15991887576905
 21
-89.08224552894472
 72
     1
 10
61.15991887576905
 20
-89.08224552894472
 11
61.15991887576905
 21
-88.95322670302211
 97
        0
 92
        1
 93
        4
 72
     1
 10
61.15991887576905
 20
-89.22625052022816
 11
60.9902479231205
 21
-89.22625052022816
 72
     1
 10
60.9902479231205
 20
-89.22625052022816
 11
60.9902479231205
 21
-89.3550970913765
 72
     1
 10
60.9902479231205
 20
-89.3550970913765
 11
61.15991887576905
 21
-89.3550970913765
 72
     1
 10
61.15991887576905
 20
-89.3550970913765
 11
61.15991887576905
 21
-89.22625052022816
 97
        0
 92
        1
 93
        4
 72
     1
 10
61.51476371074978
 20
-88.95322670302211
 11
61.34302570081008
 21
-88.95322670302211
 72
     1
 10
61.34302570081008
 20
-88.95322670302211
 11
61.34302570081008
 21
-89.08224552894472
 72
     1
 10
61.34302570081008
 20
-89.08224552894472
 11
61.51476371074978
 21
-89.08224552894472
 72
     1
 10
61.51476371074978
 20
-89.08224552894472
 11
61.51476371074978
 21
-88.95322670302211
 97
        0
 92
        1
 93
        4
 72
     1
 10
61.51476371074978
 20
-89.22625052022816
 11
61.34302570081008
 21
-89.22625052022816
 72
     1
 10
61.34302570081008
 20
-89.22625052022816
 11
61.34302570081008
 21
-89.3550970913765
 72
     1
 10
61.34302570081008
 20
-89.3550970913765
 11
61.51476371074978
 21
-89.3550970913765
 72
     1
 10
61.51476371074978
 20
-89.3550970913765
 11
61.51476371074978
 21
-89.22625052022816
 97
        0
 92
        1
 93
        1
 72
     4
 94
        3
 73
     0
 74
     1
 95
       41
 96
       37
 40
0.0
 40
0.0
 40
0.0
 40
0.0
 40
1.0
 40
1.0
 40
1.0
 40
2.0
 40
2.0
 40
2.0
 40
3.0
 40
3.0
 40
3.0
 40
4.0
 40
4.0
 40
4.0
 40
5.0
 40
5.0
 40
5.0
 40
6.0
 40
6.0
 40
6.0
 40
7.0
 40
7.0
 40
7.0
 40
8.0
 40
8.0
 40
8.0
 40
9.0
 40
9.0
 40
9.0
 40
10.0
 40
10.0
 40
10.0
 40
11.0
 40
11.0
 40
11.0
 40
12.0
 40
12.0
 40
12.0
 40
12.0
 10
62.67920598476423
 20
-90.18467608422466
 10
62.42134058769328
 20
-90.04928383165435
 10
62.23151582645601
 20
-89.75300561992286
 10
62.18845213289039
 20
-89.62381453922599
 10
62.05960556174205
 20
-89.88839787249319
 10
61.88562823973693
 20
-90.06616479953207
 10
61.69115259959457
 20
-90.18019746009385
 10
61.69115259959457
 20
-90.18019746009385
 10
61.48082952022008
 20
-90.04273815023238
 10
61.48082952022008
 20
-90.04273815023238
 10
61.55541583747573
 20
-90.01724444364153
 10
61.71147866295755
 20
-89.95592174400407
 10
61.8425645461713
 20
-89.80158146626489
 10
61.97606199622474
 20
-89.64517413123454
 10
62.07097437684337
 20
-89.41228567643165
 10
62.07097437684337
 20
-89.1521809672953
 10
62.07097437684337
 20
-89.05055065048042
 10
62.05736624967663
 20
-88.97872040961296
 10
62.04616968934957
 20
-88.93221162056209
 10
62.04616968934957
 20
-88.93221162056209
 10
62.26545001698572
 20
-88.95322670302211
 10
62.26545001698572
 20
-88.95322670302211
 10
62.28801539241411
 20
-88.95546601508752
 10
62.3105807678425
 20
-88.95753307237868
 10
62.3105807678425
 20
-88.97872040961296
 10
62.3105807678425
 20
-88.99766843478184
 10
62.29938420751544
 20
-89.0061089187207
 10
62.26321070492031
 20
-89.02729625595498
 10
62.2540812018844
 20
-89.22831757751932
 10
62.31505939197332
 20
-89.47154131877795
 10
62.38068846096733
 20
-89.5921196607617
 10
62.47784015365138
 20
-89.76781953050944
 10
62.68592392096047
 20
-89.94765351483947
 10
62.83061793134096
 20
-90.00484209989463
 10
62.83061793134096
 20
-90.00484209989463
 10
62.67920598476423
 20
-90.18467608422466
 10
62.67920598476423
 20
-90.18467608422466
 97
        0
 97
        0
 75
     2
 76
     1
 98
        0
  0
SPLINE
  5
EA
330
C7
100
AcDbEntity
  8
_U+30EC_U+30A4_U+30E4_U+30FC 1
370
     0
100
AcDbSpline
210
0.0
220
0.0
230
1.0
 70
    11
 71
     3
 72
    71
 73
    67
 74
     0
 42
0.0000000001
 43
0.0000000001
 12
1.0
 22
0.0
 32
0.0
 13
1.0
 23
0.0
 33
0.0
 40
0.0
 40
0.0
 40
0.0
 40
0.0
 40
1.0
 40
1.0
 40
1.0
 40
2.0
 40
2.0
 40
2.0
 40
3.0
 40
3.0
 40
3.0
 40
4.0
 40
4.0
 40
4.0
 40
5.0
 40
5.0
 40
5.0
 40
6.0
 40
6.0
 40
6.0
 40
7.0
 40
7.0
 40
7.0
 40
8.0
 40
8.0
 40
8.0
 40
9.0
 40
9.0
 40
9.0
 40
10.0
 40
10.0
 40
10.0
 40
11.0
 40
11.0
 40
11.0
 40
12.0
 40
12.0
 40
12.0
 40
13.0
 40
13.0
 40
13.0
 40
14.0
 40
14.0
 40
14.0
 40
15.0
 40
15.0
 40
15.0
 40
16.0
 40
16.0
 40
16.0
 40
17.0
 40
17.0
 40
17.0
 40
18.0
 40
18.0
 40
18.0
 40
19.0
 40
19.0
 40
19.0
 40
20.0
 40
20.0
 40
20.0
 40
21.0
 40
21.0
 40
21.0
 40
22.0
 40
22.0
 40
22.0
 40
22.0
 10
63.95544160727503
 20
-88.45196530991826
 30
0.0
 10
63.93959416804288
 20
-88.45196530991826
 30
0.0
 10
63.92615829565041
 20
-88.4476589405617
 30
0.0
 10
63.89894204131694
 20
-88.43921845662284
 30
0.0
 10
63.74753009474021
 20
-88.48572724567371
 30
0.0
 10
63.56218395763376
 20
-88.50260821355144
 30
0.0
 10
63.41301132312245
 20
-88.506914582908
 30
0.0
 10
63.41301132312245
 20
-88.506914582908
 30
0.0
 10
63.41077201105703
 20
-88.59579804642745
 30
0.0
 10
63.41077201105703
 20
-88.59579804642745
 30
0.0
 10
63.41077201105703
 20
-88.59579804642745
 30
0.0
 10
63.68879121671669
 20
-88.59579804642745
 30
0.0
 10
63.68879121671669
 20
-88.59579804642745
 30
0.0
 10
63.74529078267479
 20
-88.59579804642745
 30
0.0
 10
63.93959416804288
 20
-88.58735756248858
 30
0.0
 10
63.98713648573933
 20
-88.58098413584086
 30
0.0
 10
63.98713648573933
 20
-88.58098413584086
 30
0.0
 10
63.98713648573933
 20
-88.74169784022777
 30
0.0
 10
63.98713648573933
 20
-88.74169784022777
 30
0.0
 10
63.92856986249009
 20
-88.73532441358006
 30
0.0
 10
63.79507241243665
 20
-88.73325735628892
 30
0.0
 10
63.7544202857107
 20
-88.73532441358006
 30
0.0
 10
63.7544202857107
 20
-88.73532441358006
 30
0.0
 10
63.7544202857107
 20
-88.84539521433379
 30
0.0
 10
63.7544202857107
 20
-88.84539521433379
 30
0.0
 10
63.7544202857107
 20
-88.89190400338467
 30
0.0
 10
63.75665959777611
 20
-88.95546601508752
 30
0.0
 10
63.76337753397235
 20
-88.99353432019954
 30
0.0
 10
63.76337753397235
 20
-88.99353432019954
 30
0.0
 10
63.55770533350294
 20
-88.99353432019954
 30
0.0
 10
63.55770533350294
 20
-88.99353432019954
 30
0.0
 10
63.56442326969918
 20
-88.95322670302211
 30
0.0
 10
63.57131346066967
 20
-88.87071666615039
 30
0.0
 10
63.57131346066967
 20
-88.8559027555638
 30
0.0
 10
63.57131346066967
 20
-88.8559027555638
 30
0.0
 10
63.57131346066967
 20
-88.73532441358006
 30
0.0
 10
63.57131346066967
 20
-88.73532441358006
 30
0.0
 10
63.57131346066967
 20
-88.73532441358006
 30
0.0
 10
63.39492457182488
 20
-88.73532441358006
 30
0.0
 10
63.39492457182488
 20
-88.73532441358006
 30
0.0
 10
63.34962156619385
 20
-88.95546601508752
 30
0.0
 10
63.29088268817033
 20
-89.03573673989385
 30
0.0
 10
63.17788355625414
 20
-89.13529999941757
 30
0.0
 10
63.17788355625414
 20
-89.13529999941757
 30
0.0
 10
62.99925535534394
 20
-89.02092282930727
 30
0.0
 10
62.99925535534394
 20
-89.02092282930727
 30
0.0
 10
63.06712373640336
 20
-88.97234698296525
 30
0.0
 10
63.227665186016
 20
-88.86020912492037
 30
0.0
 10
63.227665186016
 20
-88.51122095226457
 30
0.0
 10
63.227665186016
 20
-88.42871091539283
 30
0.0
 10
63.21853568298009
 20
-88.3820298715677
 30
0.0
 10
63.20957843471844
 20
-88.33345402522566
 30
0.0
 10
63.365469005426
 20
-88.34826793581225
 30
0.0
 10
63.38131644465815
 20
-88.34826793581225
 30
0.0
 10
63.41972925931868
 20
-88.34826793581225
 30
0.0
 10
63.53513995807455
 20
-88.34826793581225
 30
0.0
 10
63.68655190465128
 20
-88.33138696793452
 30
0.0
 10
63.85828991459098
 20
-88.2698920135228
 30
0.0
 10
63.85828991459098
 20
-88.2698920135228
 30
0.0
 10
63.98059080431735
 20
-88.40115015151083
 30
0.0
 10
63.98059080431735
 20
-88.40115015151083
 30
0.0
 10
63.98713648573933
 20
-88.40752357815855
 30
0.0
 10
63.99161510987015
 20
-88.4159640620974
 30
0.0
 10
63.99161510987015
 20
-88.42440454603626
 30
0.0
 10
63.99161510987015
 20
-88.4476589405617
 30
0.0
 10
63.97128904650718
 20
-88.45196530991826
 30
0.0
 10
63.95544160727503
 20
-88.45196530991826
 30
0.0
  0
SPLINE
  5
EB
330
C7
100
AcDbEntity
  8
_U+30EC_U+30A4_U+30E4_U+30FC 1
370
     0
100
AcDbSpline
210
0.0
220
0.0
230
1.0
 70
    11
 71
     3
 72
    74
 73
    70
 74
     0
 42
0.0000000001
 43
0.0000000001
 12
1.0
 22
0.0
 32
0.0
 13
1.0
 23
0.0
 33
0.0
 40
0.0
 40
0.0
 40
0.0
 40
0.0
 40
1.0
 40
1.0
 40
1.0
 40
2.0
 40
2.0
 40
2.0
 40
3.0
 40
3.0
 40
3.0
 40
4.0
 40
4.0
 40
4.0
 40
5.0
 40
5.0
 40
5.0
 40
6.0
 40
6.0
 40
6.0
 40
7.0
 40
7.0
 40
7.0
 40
8.0
 40
8.0
 40
8.0
 40
9.0
 40
9.0
 40
9.0
 40
10.0
 40
10.0
 40
10.0
 40
11.0
 40
11.0
 40
11.0
 40
12.0
 40
12.0
 40
12.0
 40
13.0
 40
13.0
 40
13.0
 40
14.0
 40
14.0
 40
14.0
 40
15.0
 40
15.0
 40
15.0
 40
16.0
 40
16.0
 40
16.0
 40
17.0
 40
17.0
 40
17.0
 40
18.0
 40
18.0
 40
18.0
 40
19.0
 40
19.0
 40
19.0
 40
20.0
 40
20.0
 40
20.0
 40
21.0
 40
21.0
 40
21.0
 40
22.0
 40
22.0
 40
22.0
 40
23.0
 40
23.0
 40
23.0
 40
23.0
 10
64.85082192389146
 20
-90.21843801998011
 30
0.0
 10
64.6224120932194
 20
-90.20775822397584
 30
0.0
 10
64.40778264448834
 20
-90.12094181774755
 30
0.0
 10
64.22002494054222
 20
-90.0003634757638
 30
0.0
 10
64.22002494054222
 20
-90.0003634757638
 30
0.0
 10
64.32406682419676
 20
-89.91389157908404
 30
0.0
 10
64.32406682419676
 20
-89.91389157908404
 30
0.0
 10
64.32406682419676
 20
-89.91389157908404
 30
0.0
 10
63.73409422234773
 20
-89.91389157908404
 30
0.0
 10
63.73409422234773
 20
-89.91389157908404
 30
0.0
 10
63.73409422234773
 20
-89.91389157908404
 30
0.0
 10
63.81987709993045
 20
-89.97728133601262
 30
0.0
 10
63.81987709993045
 20
-89.97728133601262
 30
0.0
 10
63.82676729090095
 20
-89.98141545059492
 30
0.0
 10
63.83796385122801
 20
-89.9920952465992
 30
0.0
 10
63.83796385122801
 20
-90.00690915718577
 30
0.0
 10
63.83796385122801
 20
-90.04687226481468
 30
0.0
 10
63.75889890984153
 20
-90.04067109294122
 30
0.0
 10
63.74305147060938
 20
-90.03860403565008
 30
0.0
 10
63.49655488863975
 20
-90.1781304028027
 30
0.0
 10
63.34290362999761
 20
-90.20982528126699
 30
0.0
 10
63.23214381014683
 20
-90.22670624914471
 30
0.0
 10
63.23214381014683
 20
-90.22670624914471
 30
0.0
 10
63.09416773596257
 20
-90.04928383165435
 30
0.0
 10
63.09416773596257
 20
-90.04928383165435
 30
0.0
 10
63.35875106922976
 20
-90.01724444364153
 30
0.0
 10
63.46727157701513
 20
-89.97073565459065
 30
0.0
 10
63.56218395763376
 20
-89.91802569366634
 30
0.0
 10
63.48311901624728
 20
-89.92009275095748
 30
0.0
 10
63.36099038129517
 20
-89.92215980824864
 30
0.0
 10
63.32705619076546
 20
-89.92422686553978
 30
0.0
 10
63.34290362999761
 20
-89.83534340202033
 30
0.0
 10
63.34514294206302
 20
-89.70649683087198
 30
0.0
 10
63.34514294206302
 20
-89.63242727793912
 30
0.0
 10
63.34514294206302
 20
-89.63242727793912
 30
0.0
 10
63.34514294206302
 20
-89.33201495162534
 30
0.0
 10
63.34514294206302
 20
-89.33201495162534
 30
0.0
 10
63.34514294206302
 20
-89.23245169210162
 30
0.0
 10
63.33842500586679
 20
-89.13306068735216
 30
0.0
 10
63.32705619076546
 20
-89.03573673989385
 30
0.0
 10
63.43557669855083
 20
-89.04211016654156
 30
0.0
 10
63.68207328052046
 20
-89.04848359318927
 30
0.0
 10
63.79731172450207
 20
-89.04848359318927
 30
0.0
 10
63.79731172450207
 20
-89.04848359318927
 30
0.0
 10
64.24965276171537
 20
-89.04848359318927
 30
0.0
 10
64.24965276171537
 20
-89.04848359318927
 30
0.0
 10
64.37608776602404
 20
-89.04848359318927
 30
0.0
 10
64.42121851688081
 20
-89.04848359318927
 30
0.0
 10
64.50941296130321
 20
-89.0441772238327
 30
0.0
 10
64.66788735362469
 20
-89.03797605195926
 30
0.0
 10
64.685801850148
 20
-89.03797605195926
 30
0.0
 10
64.73541122513559
 20
-89.03573673989385
 30
0.0
 10
64.72645397687394
 20
-89.11617971947443
 30
0.0
 10
64.72197535274312
 20
-89.27482636657018
 30
0.0
 10
64.72197535274312
 20
-89.35750865821618
 30
0.0
 10
64.72197535274312
 20
-89.35750865821618
 30
0.0
 10
64.72197535274312
 20
-89.6431070739434
 30
0.0
 10
64.72197535274312
 20
-89.6431070739434
 30
0.0
 10
64.72197535274312
 20
-89.71476506003658
 30
0.0
 10
64.7243869195828
 20
-89.84602319802461
 30
0.0
 10
64.73541122513559
 20
-89.92422686553978
 30
0.0
 10
64.65858559581453
 20
-89.92009275095748
 30
0.0
 10
64.52767196737503
 20
-89.91802569366634
 30
0.0
 10
64.44395614708345
 20
-89.91595863637518
 30
0.0
 10
64.56143390313048
 20
-89.98348250788608
 30
0.0
 10
64.7243869195828
 20
-90.03446992106778
 30
0.0
 10
64.95038518341518
 20
-90.03860403565008
 30
0.0
 10
64.95038518341518
 20
-90.03860403565008
 30
0.0
 10
64.85082192389146
 20
-90.21843801998011
 30
0.0
 10
64.85082192389146
 20
-90.21843801998011
 30
0.0
  0
POLYLINE
  5
EC
330
C7
100
AcDbEntity
  8
_U+30EC_U+30A4_U+30E4_U+30FC 1
370
     0
100
AcDb2dPolyline
 66
     1
 10
0.0
 20
0.0
 30
0.0
  0
VERTEX
  5
ED
330
EC
100
AcDbEntity
  8
_U+30EC_U+30A4_U+30E4_U+30FC 1
370
     0
100
AcDbVertex
100
AcDb2dVertex
 10
64.52526040053536
 20
-89.18387584575959
 30
0.0
  0
VERTEX
  5
EE
330
EC
100
AcDbEntity
  8
_U+30EC_U+30A4_U+30E4_U+30FC 1
370
     0
100
AcDbVertex
100
AcDb2dVertex
 10
63.55081514253244
 20
-89.18387584575959
 30
0.0
  0
VERTEX
  5
EF
330
EC
100
AcDbEntity
  8
_U+30EC_U+30A4_U+30E4_U+30FC 1
370
     0
100
AcDbVertex
100
AcDb2dVertex
 10
63.55081514253244
 20
-89.2958414490302
 30
0.0
  0
VERTEX
  5
F0
330
EC
100
AcDbEntity
  8
_U+30EC_U+30A4_U+30E4_U+30FC 1
370
     0
100
AcDbVertex
100
AcDb2dVertex
 10
64.52526040053536
 20
-89.2958414490302
 30
0.0
  0
VERTEX
  5
F1
330
EC
100
AcDbEntity
  8
_U+30EC_U+30A4_U+30E4_U+30FC 1
370
     0
100
AcDbVertex
100
AcDb2dVertex
 10
64.52526040053536
 20
-89.18387584575959
 30
0.0
  0
SEQEND
  5
F2
330
EC
100
AcDbEntity
  8
_U+30EC_U+30A4_U+30E4_U+30FC 1
370
     0
  0
POLYLINE
  5
F3
330
C7
100
AcDbEntity
  8
_U+30EC_U+30A4_U+30E4_U+30FC 1
370
     0
100
AcDb2dPolyline
 66
     1
 10
0.0
 20
0.0
 30
0.0
  0
VERTEX
  5
F4
330
F3
100
AcDbEntity
  8
_U+30EC_U+30A4_U+30E4_U+30FC 1
370
     0
100
AcDbVertex
100
AcDb2dVertex
 10
64.52526040053536
 20
-89.42916664430938
 30
0.0
  0
VERTEX
  5
F5
330
F3
100
AcDbEntity
  8
_U+30EC_U+30A4_U+30E4_U+30FC 1
370
     0
100
AcDbVertex
100
AcDb2dVertex
 10
63.55081514253244
 20
-89.42916664430938
 30
0.0
  0
VERTEX
  5
F6
330
F3
100
AcDbEntity
  8
_U+30EC_U+30A4_U+30E4_U+30FC 1
370
     0
100
AcDbVertex
100
AcDb2dVertex
 10
63.55081514253244
 20
-89.53940969983738
 30
0.0
  0
VERTEX
  5
F7
330
F3
100
AcDbEntity
  8
_U+30EC_U+30A4_U+30E4_U+30FC 1
370
     0
100
AcDbVertex
100
AcDb2dVertex
 10
64.52526040053536
 20
-89.53940969983738
 30
0.0
  0
VERTEX
  5
F8
330
F3
100
AcDbEntity
  8
_U+30EC_U+30A4_U+30E4_U+30FC 1
370
     0
100
AcDbVertex
100
AcDb2dVertex
 10
64.52526040053536
 20
-89.42916664430938
 30
0.0
  0
SEQEND
  5
F9
330
F3
100
AcDbEntity
  8
_U+30EC_U+30A4_U+30E4_U+30FC 1
370
     0
  0
POLYLINE
  5
FA
330
C7
100
AcDbEntity
  8
_U+30EC_U+30A4_U+30E4_U+30FC 1
370
     0
100
AcDb2dPolyline
 66
     1
 10
0.0
 20
0.0
 30
0.0
  0
VERTEX
  5
FB
330
FA
100
AcDbEntity
  8
_U+30EC_U+30A4_U+30E4_U+30FC 1
370
     0
100
AcDbVertex
100
AcDb2dVertex
 10
64.52526040053536
 20
-89.67480195240769
 30
0.0
  0
VERTEX
  5
FC
330
FA
100
AcDbEntity
  8
_U+30EC_U+30A4_U+30E4_U+30FC 1
370
     0
100
AcDbVertex
100
AcDb2dVertex
 10
63.55081514253244
 20
-89.67480195240769
 30
0.0
  0
VERTEX
  5
FD
330
FA
100
AcDbEntity
  8
_U+30EC_U+30A4_U+30E4_U+30FC 1
370
     0
100
AcDbVertex
100
AcDb2dVertex
 10
63.55081514253244
 20
-89.78263344109601
 30
0.0
  0
VERTEX
  5
FE
330
FA
100
AcDbEntity
  8
_U+30EC_U+30A4_U+30E4_U+30FC 1
370
     0
100
AcDbVertex
100
AcDb2dVertex
 10
64.52526040053536
 20
-89.78263344109601
 30
0.0
  0
VERTEX
  5
FF
330
FA
100
AcDbEntity
  8
_U+30EC_U+30A4_U+30E4_U+30FC 1
370
     0
100
AcDbVertex
100
AcDb2dVertex
 10
64.52526040053536
 20
-89.67480195240769
 30
0.0
  0
SEQEND
  5
100
330
FA
100
AcDbEntity
  8
_U+30EC_U+30A4_U+30E4_U+30FC 1
370
     0
  0
SPLINE
  5
101
330
C7
100
AcDbEntity
  8
_U+30EC_U+30A4_U+30E4_U+30FC 1
370
     0
100
AcDbSpline
210
0.0
220
0.0
230
1.0
 70
    11
 71
     3
 72
    74
 73
    70
 74
     0
 42
0.0000000001
 43
0.0000000001
 12
1.0
 22
0.0
 32
0.0
 13
1.0
 23
0.0
 33
0.0
 40
0.0
 40
0.0
 40
0.0
 40
0.0
 40
1.0
 40
1.0
 40
1.0
 40
2.0
 40
2.0
 40
2.0
 40
3.0
 40
3.0
 40
3.0
 40
4.0
 40
4.0
 40
4.0
 40
5.0
 40
5.0
 40
5.0
 40
6.0
 40
6.0
 40
6.0
 40
7.0
 40
7.0
 40
7.0
 40
8.0
 40
8.0
 40
8.0
 40
9.0
 40
9.0
 40
9.0
 40
10.0
 40
10.0
 40
10.0
 40
11.0
 40
11.0
 40
11.0
 40
12.0
 40
12.0
 40
12.0
 40
13.0
 40
13.0
 40
13.0
 40
14.0
 40
14.0
 40
14.0
 40
15.0
 40
15.0
 40
15.0
 40
16.0
 40
16.0
 40
16.0
 40
17.0
 40
17.0
 40
17.0
 40
18.0
 40
18.0
 40
18.0
 40
19.0
 40
19.0
 40
19.0
 40
20.0
 40
20.0
 40
20.0
 40
21.0
 40
21.0
 40
21.0
 40
22.0
 40
22.0
 40
22.0
 40
23.0
 40
23.0
 40
23.0
 40
23.0
 10
64.86460230583246
 20
-88.73119029899776
 30
0.0
 10
64.86460230583246
 20
-88.73119029899776
 30
0.0
 10
64.69269204111849
 20
-88.73119029899776
 30
0.0
 10
64.69269204111849
 20
-88.73119029899776
 30
0.0
 10
64.69269204111849
 20
-88.73119029899776
 30
0.0
 10
64.69269204111849
 20
-88.84539521433379
 30
0.0
 10
64.69269204111849
 20
-88.84539521433379
 30
0.0
 10
64.69269204111849
 20
-88.88553057673695
 30
0.0
 10
64.69923772254047
 20
-88.95960012966982
 30
0.0
 10
64.70406085621983
 20
-88.98509383626067
 30
0.0
 10
64.70406085621983
 20
-88.98509383626067
 30
0.0
 10
64.4777180828389
 20
-88.98509383626067
 30
0.0
 10
64.4777180828389
 20
-88.98509383626067
 30
0.0
 10
64.48908689794023
 20
-88.91946476726666
 30
0.0
 10
64.49149846477991
 20
-88.86020912492037
 30
0.0
 10
64.49149846477991
 20
-88.85814206762922
 30
0.0
 10
64.49149846477991
 20
-88.85814206762922
 30
0.0
 10
64.49149846477991
 20
-88.73532441358006
 30
0.0
 10
64.49149846477991
 20
-88.73532441358006
 30
0.0
 10
64.49149846477991
 20
-88.73532441358006
 30
0.0
 10
64.29926213670296
 20
-88.73532441358006
 30
0.0
 10
64.29926213670296
 20
-88.73532441358006
 30
0.0
 10
64.27893607333999
 20
-88.79458005592636
 30
0.0
 10
64.22898218880387
 20
-88.94065210450096
 30
0.0
 10
64.10702580862602
 20
-89.02316214137268
 30
0.0
 10
64.10702580862602
 20
-89.02316214137268
 30
0.0
 10
63.93959416804288
 20
-88.91739770997552
 30
0.0
 10
63.93959416804288
 20
-88.91739770997552
 30
0.0
 10
64.01883136420363
 20
-88.87071666615039
 30
0.0
 10
64.14319931122115
 20
-88.79681936799177
 30
0.0
 10
64.14319931122115
 20
-88.4752197044437
 30
0.0
 10
64.14319931122115
 20
-88.4200981766797
 30
0.0
 10
64.13872068709033
 20
-88.37582869969424
 30
0.0
 10
64.13630912025064
 20
-88.33776039458223
 30
0.0
 10
64.21795788325107
 20
-88.34620087852109
 30
0.0
 10
64.2968505698633
 20
-88.35240205039455
 30
0.0
 10
64.36471895092271
 20
-88.35240205039455
 30
0.0
 10
64.55454371215998
 20
-88.35240205039455
 30
0.0
 10
64.76710610359989
 20
-88.29331866282251
 30
0.0
 10
64.83290742736817
 20
-88.26369084164936
 30
0.0
 10
64.83290742736817
 20
-88.26369084164936
 30
0.0
 10
64.96829967993848
 20
-88.39908309421968
 30
0.0
 10
64.96829967993848
 20
-88.39908309421968
 30
0.0
 10
64.97312281361783
 20
-88.40321720880198
 30
0.0
 10
64.97518987090898
 20
-88.41165769274085
 30
0.0
 10
64.97518987090898
 20
-88.41803111938856
 30
0.0
 10
64.97518987090898
 20
-88.43921845662284
 30
0.0
 10
64.95934243167683
 20
-88.44559188327055
 30
0.0
 10
64.94142793515354
 20
-88.44559188327055
 30
0.0
 10
64.91869030495089
 20
-88.44559188327055
 30
0.0
 10
64.90284286571874
 20
-88.43715139933168
 30
0.0
 10
64.88251680235577
 20
-88.42647160332741
 30
0.0
 10
64.69717066524932
 20
-88.48366018838256
 30
0.0
 10
64.46428221044643
 20
-88.50898164019915
 30
0.0
 10
64.32199976690562
 20
-88.51122095226457
 30
0.0
 10
64.32199976690562
 20
-88.51122095226457
 30
0.0
 10
64.31717663322627
 20
-88.59373098913629
 30
0.0
 10
64.31717663322627
 20
-88.59373098913629
 30
0.0
 10
64.31717663322627
 20
-88.59373098913629
 30
0.0
 10
64.60897622082693
 20
-88.59373098913629
 30
0.0
 10
64.60897622082693
 20
-88.59373098913629
 30
0.0
 10
64.66995441091585
 20
-88.59373098913629
 30
0.0
 10
64.95038518341518
 20
-88.57461070919315
 30
0.0
 10
64.99792750111163
 20
-88.56823728254544
 30
0.0
 10
64.99792750111163
 20
-88.56823728254544
 30
0.0
 10
64.99792750111163
 20
-88.73756372564547
 30
0.0
 10
64.99792750111163
 20
-88.73756372564547
 30
0.0
 10
64.96175399851651
 20
-88.73325735628892
 30
0.0
 10
64.94797361657551
 20
-88.73119029899776
 30
0.0
 10
64.86460230583246
 20
-88.73119029899776
 30
0.0
  0
HATCH
  5
102
330
C7
100
AcDbEntity
  8
_U+30EC_U+30A4_U+30E4_U+30FC 1
 62
   179
420
  2234388
100
AcDbHatch
 10
0.0
 20
0.0
 30
0.0
210
0.0
220
0.0
230
1.0
  2
SOLID
 70
     1
 71
     0
 91
        6
 92
        1
 93
        1
 72
     4
 94
        3
 73
     0
 74
     1
 95
       71
 96
       67
 40
0.0
 40
0.0
 40
0.0
 40
0.0
 40
1.0
 40
1.0
 40
1.0
 40
2.0
 40
2.0
 40
2.0
 40
3.0
 40
3.0
 40
3.0
 40
4.0
 40
4.0
 40
4.0
 40
5.0
 40
5.0
 40
5.0
 40
6.0
 40
6.0
 40
6.0
 40
7.0
 40
7.0
 40
7.0
 40
8.0
 40
8.0
 40
8.0
 40
9.0
 40
9.0
 40
9.0
 40
10.0
 40
10.0
 40
10.0
 40
11.0
 40
11.0
 40
11.0
 40
12.0
 40
12.0
 40
12.0
 40
13.0
 40
13.0
 40
13.0
 40
14.0
 40
14.0
 40
14.0
 40
15.0
 40
15.0
 40
15.0
 40
16.0
 40
16.0
 40
16.0
 40
17.0
 40
17.0
 40
17.0
 40
18.0
 40
18.0
 40
18.0
 40
19.0
 40
19.0
 40
19.0
 40
20.0
 40
20.0
 40
20.0
 40
21.0
 40
21.0
 40
21.0
 40
22.0
 40
22.0
 40
22.0
 40
22.0
 10
63.95544160727503
 20
-88.45196530991826
 10
63.93959416804288
 20
-88.45196530991826
 10
63.92615829565041
 20
-88.4476589405617
 10
63.89894204131694
 20
-88.43921845662284
 10
63.74753009474021
 20
-88.48572724567371
 10
63.56218395763376
 20
-88.50260821355144
 10
63.41301132312245
 20
-88.506914582908
 10
63.41301132312245
 20
-88.506914582908
 10
63.41077201105703
 20
-88.59579804642745
 10
63.41077201105703
 20
-88.59579804642745
 10
63.41077201105703
 20
-88.59579804642745
 10
63.68879121671669
 20
-88.59579804642745
 10
63.68879121671669
 20
-88.59579804642745
 10
63.74529078267479
 20
-88.59579804642745
 10
63.93959416804288
 20
-88.58735756248858
 10
63.98713648573933
 20
-88.58098413584086
 10
63.98713648573933
 20
-88.58098413584086
 10
63.98713648573933
 20
-88.74169784022777
 10
63.98713648573933
 20
-88.74169784022777
 10
63.92856986249009
 20
-88.73532441358006
 10
63.79507241243665
 20
-88.73325735628892
 10
63.7544202857107
 20
-88.73532441358006
 10
63.7544202857107
 20
-88.73532441358006
 10
63.7544202857107
 20
-88.84539521433379
 10
63.7544202857107
 20
-88.84539521433379
 10
63.7544202857107
 20
-88.89190400338467
 10
63.75665959777611
 20
-88.95546601508752
 10
63.76337753397235
 20
-88.99353432019954
 10
63.76337753397235
 20
-88.99353432019954
 10
63.55770533350294
 20
-88.99353432019954
 10
63.55770533350294
 20
-88.99353432019954
 10
63.56442326969918
 20
-88.95322670302211
 10
63.57131346066967
 20
-88.87071666615039
 10
63.57131346066967
 20
-88.8559027555638
 10
63.57131346066967
 20
-88.8559027555638
 10
63.57131346066967
 20
-88.73532441358006
 10
63.57131346066967
 20
-88.73532441358006
 10
63.57131346066967
 20
-88.73532441358006
 10
63.39492457182488
 20
-88.73532441358006
 10
63.39492457182488
 20
-88.73532441358006
 10
63.34962156619385
 20
-88.95546601508752
 10
63.29088268817033
 20
-89.03573673989385
 10
63.17788355625414
 20
-89.13529999941757
 10
63.17788355625414
 20
-89.13529999941757
 10
62.99925535534394
 20
-89.02092282930727
 10
62.99925535534394
 20
-89.02092282930727
 10
63.06712373640336
 20
-88.97234698296525
 10
63.227665186016
 20
-88.86020912492037
 10
63.227665186016
 20
-88.51122095226457
 10
63.227665186016
 20
-88.42871091539283
 10
63.21853568298009
 20
-88.3820298715677
 10
63.20957843471844
 20
-88.33345402522566
 10
63.365469005426
 20
-88.34826793581225
 10
63.38131644465815
 20
-88.34826793581225
 10
63.41972925931868
 20
-88.34826793581225
 10
63.53513995807455
 20
-88.34826793581225
 10
63.68655190465128
 20
-88.33138696793452
 10
63.85828991459098
 20
-88.2698920135228
 10
63.85828991459098
 20
-88.2698920135228
 10
63.98059080431735
 20
-88.40115015151083
 10
63.98059080431735
 20
-88.40115015151083
 10
63.98713648573933
 20
-88.40752357815855
 10
63.99161510987015
 20
-88.4159640620974
 10
63.99161510987015
 20
-88.42440454603626
 10
63.99161510987015
 20
-88.4476589405617
 10
63.97128904650718
 20
-88.45196530991826
 10
63.95544160727503
 20
-88.45196530991826
 97
        0
 97
        0
 92
        1
 93
        1
 72
     4
 94
        3
 73
     0
 74
     1
 95
       74
 96
       70
 40
0.0
 40
0.0
 40
0.0
 40
0.0
 40
1.0
 40
1.0
 40
1.0
 40
2.0
 40
2.0
 40
2.0
 40
3.0
 40
3.0
 40
3.0
 40
4.0
 40
4.0
 40
4.0
 40
5.0
 40
5.0
 40
5.0
 40
6.0
 40
6.0
 40
6.0
 40
7.0
 40
7.0
 40
7.0
 40
8.0
 40
8.0
 40
8.0
 40
9.0
 40
9.0
 40
9.0
 40
10.0
 40
10.0
 40
10.0
 40
11.0
 40
11.0
 40
11.0
 40
12.0
 40
12.0
 40
12.0
 40
13.0
 40
13.0
 40
13.0
 40
14.0
 40
14.0
 40
14.0
 40
15.0
 40
15.0
 40
15.0
 40
16.0
 40
16.0
 40
16.0
 40
17.0
 40
17.0
 40
17.0
 40
18.0
 40
18.0
 40
18.0
 40
19.0
 40
19.0
 40
19.0
 40
20.0
 40
20.0
 40
20.0
 40
21.0
 40
21.0
 40
21.0
 40
22.0
 40
22.0
 40
22.0
 40
23.0
 40
23.0
 40
23.0
 40
23.0
 10
64.85082192389146
 20
-90.21843801998011
 10
64.6224120932194
 20
-90.20775822397584
 10
64.40778264448834
 20
-90.12094181774755
 10
64.22002494054222
 20
-90.0003634757638
 10
64.22002494054222
 20
-90.0003634757638
 10
64.32406682419676
 20
-89.91389157908404
 10
64.32406682419676
 20
-89.91389157908404
 10
64.32406682419676
 20
-89.91389157908404
 10
63.73409422234773
 20
-89.91389157908404
 10
63.73409422234773
 20
-89.91389157908404
 10
63.73409422234773
 20
-89.91389157908404
 10
63.81987709993045
 20
-89.97728133601262
 10
63.81987709993045
 20
-89.97728133601262
 10
63.82676729090095
 20
-89.98141545059492
 10
63.83796385122801
 20
-89.9920952465992
 10
63.83796385122801
 20
-90.00690915718577
 10
63.83796385122801
 20
-90.04687226481468
 10
63.75889890984153
 20
-90.04067109294122
 10
63.74305147060938
 20
-90.03860403565008
 10
63.49655488863975
 20
-90.1781304028027
 10
63.34290362999761
 20
-90.20982528126699
 10
63.23214381014683
 20
-90.22670624914471
 10
63.23214381014683
 20
-90.22670624914471
 10
63.09416773596257
 20
-90.04928383165435
 10
63.09416773596257
 20
-90.04928383165435
 10
63.35875106922976
 20
-90.01724444364153
 10
63.46727157701513
 20
-89.97073565459065
 10
63.56218395763376
 20
-89.91802569366634
 10
63.48311901624728
 20
-89.92009275095748
 10
63.36099038129517
 20
-89.92215980824864
 10
63.32705619076546
 20
-89.92422686553978
 10
63.34290362999761
 20
-89.83534340202033
 10
63.34514294206302
 20
-89.70649683087198
 10
63.34514294206302
 20
-89.63242727793912
 10
63.34514294206302
 20
-89.63242727793912
 10
63.34514294206302
 20
-89.33201495162534
 10
63.34514294206302
 20
-89.33201495162534
 10
63.34514294206302
 20
-89.23245169210162
 10
63.33842500586679
 20
-89.13306068735216
 10
63.32705619076546
 20
-89.03573673989385
 10
63.43557669855083
 20
-89.04211016654156
 10
63.68207328052046
 20
-89.04848359318927
 10
63.79731172450207
 20
-89.04848359318927
 10
63.79731172450207
 20
-89.04848359318927
 10
64.24965276171537
 20
-89.04848359318927
 10
64.24965276171537
 20
-89.04848359318927
 10
64.37608776602404
 20
-89.04848359318927
 10
64.42121851688081
 20
-89.04848359318927
 10
64.50941296130321
 20
-89.0441772238327
 10
64.66788735362469
 20
-89.03797605195926
 10
64.685801850148
 20
-89.03797605195926
 10
64.73541122513559
 20
-89.03573673989385
 10
64.72645397687394
 20
-89.11617971947443
 10
64.72197535274312
 20
-89.27482636657018
 10
64.72197535274312
 20
-89.35750865821618
 10
64.72197535274312
 20
-89.35750865821618
 10
64.72197535274312
 20
-89.6431070739434
 10
64.72197535274312
 20
-89.6431070739434
 10
64.72197535274312
 20
-89.71476506003658
 10
64.7243869195828
 20
-89.84602319802461
 10
64.73541122513559
 20
-89.92422686553978
 10
64.65858559581453
 20
-89.92009275095748
 10
64.52767196737503
 20
-89.91802569366634
 10
64.44395614708345
 20
-89.91595863637518
 10
64.56143390313048
 20
-89.98348250788608
 10
64.7243869195828
 20
-90.03446992106778
 10
64.95038518341518
 20
-90.03860403565008
 10
64.95038518341518
 20
-90.03860403565008
 10
64.85082192389146
 20
-90.21843801998011
 10
64.85082192389146
 20
-90.21843801998011
 97
        0
 97
        0
 92
        1
 93
        4
 72
     1
 10
64.52526040053536
 20
-89.18387584575959
 11
63.55081514253244
 21
-89.18387584575959
 72
     1
 10
63.55081514253244
 20
-89.18387584575959
 11
63.55081514253244
 21
-89.2958414490302
 72
     1
 10
63.55081514253244
 20
-89.2958414490302
 11
64.52526040053536
 21
-89.2958414490302
 72
     1
 10
64.52526040053536
 20
-89.2958414490302
 11
64.52526040053536
 21
-89.18387584575959
 97
        0
 92
        1
 93
        4
 72
     1
 10
64.52526040053536
 20
-89.42916664430938
 11
63.55081514253244
 21
-89.42916664430938
 72
     1
 10
63.55081514253244
 20
-89.42916664430938
 11
63.55081514253244
 21
-89.53940969983738
 72
     1
 10
63.55081514253244
 20
-89.53940969983738
 11
64.52526040053536
 21
-89.53940969983738
 72
     1
 10
64.52526040053536
 20
-89.53940969983738
 11
64.52526040053536
 21
-89.42916664430938
 97
        0
 92
        1
 93
        4
 72
     1
 10
64.52526040053536
 20
-89.67480195240769
 11
63.55081514253244
 21
-89.67480195240769
 72
     1
 10
63.55081514253244
 20
-89.67480195240769
 11
63.55081514253244
 21
-89.78263344109601
 72
     1
 10
63.55081514253244
 20
-89.78263344109601
 11
64.52526040053536
 21
-89.78263344109601
 72
     1
 10
64.52526040053536
 20
-89.78263344109601
 11
64.52526040053536
 21
-89.67480195240769
 97
        0
 92
        1
 93
        1
 72
     4
 94
        3
 73
     0
 74
     1
 95
       74
 96
       70
 40
0.0
 40
0.0
 40
0.0
 40
0.0
 40
1.0
 40
1.0
 40
1.0
 40
2.0
 40
2.0
 40
2.0
 40
3.0
 40
3.0
 40
3.0
 40
4.0
 40
4.0
 40
4.0
 40
5.0
 40
5.0
 40
5.0
 40
6.0
 40
6.0
 40
6.0
 40
7.0
 40
7.0
 40
7.0
 40
8.0
 40
8.0
 40
8.0
 40
9.0
 40
9.0
 40
9.0
 40
10.0
 40
10.0
 40
10.0
 40
11.0
 40
11.0
 40
11.0
 40
12.0
 40
12.0
 40
12.0
 40
13.0
 40
13.0
 40
13.0
 40
14.0
 40
14.0
 40
14.0
 40
15.0
 40
15.0
 40
15.0
 40
16.0
 40
16.0
 40
16.0
 40
17.0
 40
17.0
 40
17.0
 40
18.0
 40
18.0
 40
18.0
 40
19.0
 40
19.0
 40
19.0
 40
20.0
 40
20.0
 40
20.0
 40
21.0
 40
21.0
 40
21.0
 40
22.0
 40
22.0
 40
22.0
 40
23.0
 40
23.0
 40
23.0
 40
23.0
 10
64.86460230583246
 20
-88.73119029899776
 10
64.86460230583246
 20
-88.73119029899776
 10
64.69269204111849
 20
-88.73119029899776
 10
64.69269204111849
 20
-88.73119029899776
 10
64.69269204111849
 20
-88.73119029899776
 10
64.69269204111849
 20
-88.84539521433379
 10
64.69269204111849
 20
-88.84539521433379
 10
64.69269204111849
 20
-88.88553057673695
 10
64.69923772254047
 20
-88.95960012966982
 10
64.70406085621983
 20
-88.98509383626067
 10
64.70406085621983
 20
-88.98509383626067
 10
64.4777180828389
 20
-88.98509383626067
 10
64.4777180828389
 20
-88.98509383626067
 10
64.48908689794023
 20
-88.91946476726666
 10
64.49149846477991
 20
-88.86020912492037
 10
64.49149846477991
 20
-88.85814206762922
 10
64.49149846477991
 20
-88.85814206762922
 10
64.49149846477991
 20
-88.73532441358006
 10
64.49149846477991
 20
-88.73532441358006
 10
64.49149846477991
 20
-88.73532441358006
 10
64.29926213670296
 20
-88.73532441358006
 10
64.29926213670296
 20
-88.73532441358006
 10
64.27893607333999
 20
-88.79458005592636
 10
64.22898218880387
 20
-88.94065210450096
 10
64.10702580862602
 20
-89.02316214137268
 10
64.10702580862602
 20
-89.02316214137268
 10
63.93959416804288
 20
-88.91739770997552
 10
63.93959416804288
 20
-88.91739770997552
 10
64.01883136420363
 20
-88.87071666615039
 10
64.14319931122115
 20
-88.79681936799177
 10
64.14319931122115
 20
-88.4752197044437
 10
64.14319931122115
 20
-88.4200981766797
 10
64.13872068709033
 20
-88.37582869969424
 10
64.13630912025064
 20
-88.33776039458223
 10
64.21795788325107
 20
-88.34620087852109
 10
64.2968505698633
 20
-88.35240205039455
 10
64.36471895092271
 20
-88.35240205039455
 10
64.55454371215998
 20
-88.35240205039455
 10
64.76710610359989
 20
-88.29331866282251
 10
64.83290742736817
 20
-88.26369084164936
 10
64.83290742736817
 20
-88.26369084164936
 10
64.96829967993848
 20
-88.39908309421968
 10
64.96829967993848
 20
-88.39908309421968
 10
64.97312281361783
 20
-88.40321720880198
 10
64.97518987090898
 20
-88.41165769274085
 10
64.97518987090898
 20
-88.41803111938856
 10
64.97518987090898
 20
-88.43921845662284
 10
64.95934243167683
 20
-88.44559188327055
 10
64.94142793515354
 20
-88.44559188327055
 10
64.91869030495089
 20
-88.44559188327055
 10
64.90284286571874
 20
-88.43715139933168
 10
64.88251680235577
 20
-88.42647160332741
 10
64.69717066524932
 20
-88.48366018838256
 10
64.46428221044643
 20
-88.50898164019915
 10
64.32199976690562
 20
-88.51122095226457
 10
64.32199976690562
 20
-88.51122095226457
 10
64.31717663322627
 20
-88.59373098913629
 10
64.31717663322627
 20
-88.59373098913629
 10
64.31717663322627
 20
-88.59373098913629
 10
64.60897622082693
 20
-88.59373098913629
 10
64.60897622082693
 20
-88.59373098913629
 10
64.66995441091585
 20
-88.59373098913629
 10
64.95038518341518
 20
-88.57461070919315
 10
64.99792750111163
 20
-88.56823728254544
 10
64.99792750111163
 20
-88.56823728254544
 10
64.99792750111163
 20
-88.73756372564547
 10
64.99792750111163
 20
-88.73756372564547
 10
64.96175399851651
 20
-88.73325735628892
 10
64.94797361657551
 20
-88.73119029899776
 10
64.86460230583246
 20
-88.73119029899776
 97
        0
 97
        0
 75
     2
 76
     1
 98
        0
  0
ENDBLK
  5
CA
330
C7
100
AcDbEntity
  8
0
100
AcDbBlockEnd
  0
BLOCK
  5
105
330
103
100
AcDbEntity
  8
0
100
AcDbBlockBegin
  2
block 3
 70
     0
 10
0.0
 20
0.0
 30
0.0
  3
block 3
  1

  0
POLYLINE
  5
107
330
103
100
AcDbEntity
  8
_U+30EC_U+30A4_U+30E4_U+30FC 1
 62
   179
420
  2234388
370
     9
100
AcDb2dPolyline
 66
     1
 10
0.0
 20
0.0
 30
0.0
  0
VERTEX
  5
108
330
107
100
AcDbEntity
  8
_U+30EC_U+30A4_U+30E4_U+30FC 1
 62
   179
420
  2234388
370
     9
100
AcDbVertex
100
AcDb2dVertex
 10
55.33580358826604
 20
-76.8979708141089
 30
0.0
  0
VERTEX
  5
109
330
107
100
AcDbEntity
  8
_U+30EC_U+30A4_U+30E4_U+30FC 1
 62
   179
420
  2234388
370
     9
100
AcDbVertex
100
AcDb2dVertex
 10
33.3355949916661
 20
-76.8979708141089
 30
0.0
  0
SEQEND
  5
10A
330
107
100
AcDbEntity
  8
_U+30EC_U+30A4_U+30E4_U+30FC 1
 62
   179
420
  2234388
370
     9
  0
POLYLINE
  5
10B
330
103
100
AcDbEntity
  8
_U+30EC_U+30A4_U+30E4_U+30FC 1
 62
   179
420
  2234388
370
     9
100
AcDb2dPolyline
 66
     1
 10
0.0
 20
0.0
 30
0.0
  0
VERTEX
  5
10C
330
10B
100
AcDbEntity
  8
_U+30EC_U+30A4_U+30E4_U+30FC 1
 62
   179
420
  2234388
370
     9
100
AcDbVertex
100
AcDb2dVertex
 10
55.33580358826604
 20
-78.35801220263261
 30
0.0
  0
VERTEX
  5
10D
330
10B
100
AcDbEntity
  8
_U+30EC_U+30A4_U+30E4_U+30FC 1
 62
   179
420
  2234388
370
     9
100
AcDbVertex
100
AcDb2dVertex
 10
55.33580358826604
 20
-75.89788109213676
 30
0.0
  0
SEQEND
  5
10E
330
10B
100
AcDbEntity
  8
_U+30EC_U+30A4_U+30E4_U+30FC 1
 62
   179
420
  2234388
370
     9
  0
POLYLINE
  5
10F
330
103
100
AcDbEntity
  8
_U+30EC_U+30A4_U+30E4_U+30FC 1
 62
   179
420
  2234388
370
     9
100
AcDb2dPolyline
 66
     1
 10
0.0
 20
0.0
 30
0.0
  0
VERTEX
  5
110
330
10F
100
AcDbEntity
  8
_U+30EC_U+30A4_U+30E4_U+30FC 1
 62
   179
420
  2234388
370
     9
100
AcDbVertex
100
AcDb2dVertex
 10
33.3355949916661
 20
-78.35801220263261
 30
0.0
  0
VERTEX
  5
111
330
10F
100
AcDbEntity
  8
_U+30EC_U+30A4_U+30E4_U+30FC 1
 62
   179
420
  2234388
370
     9
100
AcDbVertex
100
AcDb2dVertex
 10
33.3355949916661
 20
-75.89788109213676
 30
0.0
  0
SEQEND
  5
112
330
10F
100
AcDbEntity
  8
_U+30EC_U+30A4_U+30E4_U+30FC 1
 62
   179
420
  2234388
370
     9
  0
INSERT
  5
114
330
103
100
AcDbEntity
  8
_U+30EC_U+30A4_U+30E4_U+30FC 1
100
AcDbBlockReference
  2
block 4
 10
0.0
 20
0.0
 30
0.0
  0
INSERT
  5
11C
330
103
100
AcDbEntity
  8
_U+30EC_U+30A4_U+30E4_U+30FC 1
100
AcDbBlockReference
  2
block 5
 10
0.0
 20
0.0
 30
0.0
  0
INSERT
  5
121
330
103
100
AcDbEntity
  8
_U+30EC_U+30A4_U+30E4_U+30FC 1
100
AcDbBlockReference
  2
block 6
 10
0.0
 20
0.0
 30
0.0
  0
INSERT
  5
126
330
103
100
AcDbEntity
  8
_U+30EC_U+30A4_U+30E4_U+30FC 1
100
AcDbBlockReference
  2
block 7
 10
0.0
 20
0.0
 30
0.0
  0
ENDBLK
  5
106
330
103
100
AcDbEntity
  8
0
100
AcDbBlockEnd
  0
BLOCK
  5
115
330
113
100
AcDbEntity
  8
0
100
AcDbBlockBegin
  2
block 4
 70
     0
 10
0.0
 20
0.0
 30
0.0
  3
block 4
  1

  0
SPLINE
  5
117
330
113
100
AcDbEntity
  8
_U+30EC_U+30A4_U+30E4_U+30FC 1
370
     0
100
AcDbSpline
210
0.0
220
0.0
230
1.0
 70
    11
 71
     3
 72
    44
 73
    40
 74
     0
 42
0.0000000001
 43
0.0000000001
 12
1.0
 22
0.0
 32
0.0
 13
1.0
 23
0.0
 33
0.0
 40
0.0
 40
0.0
 40
0.0
 40
0.0
 40
1.0
 40
1.0
 40
1.0
 40
2.0
 40
2.0
 40
2.0
 40
3.0
 40
3.0
 40
3.0
 40
4.0
 40
4.0
 40
4.0
 40
5.0
 40
5.0
 40
5.0
 40
6.0
 40
6.0
 40
6.0
 40
7.0
 40
7.0
 40
7.0
 40
8.0
 40
8.0
 40
8.0
 40
9.0
 40
9.0
 40
9.0
 40
10.0
 40
10.0
 40
10.0
 40
11.0
 40
11.0
 40
11.0
 40
12.0
 40
12.0
 40
12.0
 40
13.0
 40
13.0
 40
13.0
 40
13.0
 10
43.8061116426943
 20
-75.94351262207316
 30
0.0
 10
43.57322318789141
 20
-76.10215926916891
 30
0.0
 10
43.47383218314196
 20
-76.17622882210178
 30
0.0
 10
43.42181124131469
 20
-76.32006155861096
 30
0.0
 10
43.42181124131469
 20
-76.32006155861096
 30
0.0
 10
44.25380180100252
 20
-76.32006155861096
 30
0.0
 10
44.25380180100252
 20
-76.32006155861096
 30
0.0
 10
44.25380180100252
 20
-76.32006155861096
 30
0.0
 10
44.25380180100252
 20
-76.52521699475759
 30
0.0
 10
44.25380180100252
 20
-76.52521699475759
 30
0.0
 10
44.25380180100252
 20
-76.52521699475759
 30
0.0
 10
43.15498859598209
 20
-76.52521699475759
 30
0.0
 10
43.15498859598209
 20
-76.52521699475759
 30
0.0
 10
43.1889227865118
 20
-76.16778833816292
 30
0.0
 10
43.25903047963664
 20
-76.08941241587348
 30
0.0
 10
43.67037488057547
 20
-75.7912394016251
 30
0.0
 10
43.94408771687856
 20
-75.59228513735194
 30
0.0
 10
44.01402315522913
 20
-75.52458901106677
 30
0.0
 10
44.01402315522913
 20
-75.38712970120531
 30
0.0
 10
44.01402315522913
 20
-75.26861841651271
 30
0.0
 10
43.93719752590806
 20
-75.13753253329895
 30
0.0
 10
43.72704670130782
 20
-75.13753253329895
 30
0.0
 10
43.4488552408739
 20
-75.13753253329895
 30
0.0
 10
43.43989799261225
 20
-75.36800942126217
 30
0.0
 10
43.43524711370716
 20
-75.48445364866362
 30
0.0
 10
43.43524711370716
 20
-75.48445364866362
 30
0.0
 10
43.19564072270803
 20
-75.48445364866362
 30
0.0
 10
43.19564072270803
 20
-75.48445364866362
 30
0.0
 10
43.20477022574395
 20
-75.35750188003216
 30
0.0
 10
43.21596678607101
 20
-75.24536402198727
 30
0.0
 10
43.30192191842799
 20
-75.12685273729468
 30
0.0
 10
43.41957192924927
 20
-74.96613903290778
 30
0.0
 10
43.61852619352246
 20
-74.93220484237807
 30
0.0
 10
43.74272188576571
 20
-74.93220484237807
 30
0.0
 10
44.03900009749719
 20
-74.93220484237807
 30
0.0
 10
44.26051973719876
 20
-75.11634519606467
 30
0.0
 10
44.26051973719876
 20
-75.38919675849645
 30
0.0
 10
44.26051973719876
 20
-75.61777884394279
 30
0.0
 10
44.13615179018124
 20
-75.71716984869224
 30
0.0
 10
43.8061116426943
 20
-75.94351262207316
 30
0.0
  0
HATCH
  5
118
330
113
100
AcDbEntity
  8
_U+30EC_U+30A4_U+30E4_U+30FC 1
 62
   179
420
  2234388
100
AcDbHatch
 10
0.0
 20
0.0
 30
0.0
210
0.0
220
0.0
230
1.0
  2
SOLID
 70
     1
 71
     0
 91
        1
 92
        1
 93
        1
 72
     4
 94
        3
 73
     0
 74
     1
 95
       44
 96
       40
 40
0.0
 40
0.0
 40
0.0
 40
0.0
 40
1.0
 40
1.0
 40
1.0
 40
2.0
 40
2.0
 40
2.0
 40
3.0
 40
3.0
 40
3.0
 40
4.0
 40
4.0
 40
4.0
 40
5.0
 40
5.0
 40
5.0
 40
6.0
 40
6.0
 40
6.0
 40
7.0
 40
7.0
 40
7.0
 40
8.0
 40
8.0
 40
8.0
 40
9.0
 40
9.0
 40
9.0
 40
10.0
 40
10.0
 40
10.0
 40
11.0
 40
11.0
 40
11.0
 40
12.0
 40
12.0
 40
12.0
 40
13.0
 40
13.0
 40
13.0
 40
13.0
 10
43.8061116426943
 20
-75.94351262207316
 10
43.57322318789141
 20
-76.10215926916891
 10
43.47383218314196
 20
-76.17622882210178
 10
43.42181124131469
 20
-76.32006155861096
 10
43.42181124131469
 20
-76.32006155861096
 10
44.25380180100252
 20
-76.32006155861096
 10
44.25380180100252
 20
-76.32006155861096
 10
44.25380180100252
 20
-76.32006155861096
 10
44.25380180100252
 20
-76.52521699475759
 10
44.25380180100252
 20
-76.52521699475759
 10
44.25380180100252
 20
-76.52521699475759
 10
43.15498859598209
 20
-76.52521699475759
 10
43.15498859598209
 20
-76.52521699475759
 10
43.1889227865118
 20
-76.16778833816292
 10
43.25903047963664
 20
-76.08941241587348
 10
43.67037488057547
 20
-75.7912394016251
 10
43.94408771687856
 20
-75.59228513735194
 10
44.01402315522913
 20
-75.52458901106677
 10
44.01402315522913
 20
-75.38712970120531
 10
44.01402315522913
 20
-75.26861841651271
 10
43.93719752590806
 20
-75.13753253329895
 10
43.72704670130782
 20
-75.13753253329895
 10
43.4488552408739
 20
-75.13753253329895
 10
43.43989799261225
 20
-75.36800942126217
 10
43.43524711370716
 20
-75.48445364866362
 10
43.43524711370716
 20
-75.48445364866362
 10
43.19564072270803
 20
-75.48445364866362
 10
43.19564072270803
 20
-75.48445364866362
 10
43.20477022574395
 20
-75.35750188003216
 10
43.21596678607101
 20
-75.24536402198727
 10
43.30192191842799
 20
-75.12685273729468
 10
43.41957192924927
 20
-74.96613903290778
 10
43.61852619352246
 20
-74.93220484237807
 10
43.74272188576571
 20
-74.93220484237807
 10
44.03900009749719
 20
-74.93220484237807
 10
44.26051973719876
 20
-75.11634519606467
 10
44.26051973719876
 20
-75.38919675849645
 10
44.26051973719876
 20
-75.61777884394279
 10
44.13615179018124
 20
-75.71716984869224
 10
43.8061116426943
 20
-75.94351262207316
 97
        0
 97
        0
 75
     2
 76
     1
 98
        0
  0
SPLINE
  5
119
330
113
100
AcDbEntity
  8
_U+30EC_U+30A4_U+30E4_U+30FC 1
370
     0
100
AcDbSpline
210
0.0
220
0.0
230
1.0
 70
    11
 71
     3
 72
    44
 73
    40
 74
     0
 42
0.0000000001
 43
0.0000000001
 12
1.0
 22
0.0
 32
0.0
 13
1.0
 23
0.0
 33
0.0
 40
0.0
 40
0.0
 40
0.0
 40
0.0
 40
1.0
 40
1.0
 40
1.0
 40
2.0
 40
2.0
 40
2.0
 40
3.0
 40
3.0
 40
3.0
 40
4.0
 40
4.0
 40
4.0
 40
5.0
 40
5.0
 40
5.0
 40
6.0
 40
6.0
 40
6.0
 40
7.0
 40
7.0
 40
7.0
 40
8.0
 40
8.0
 40
8.0
 40
9.0
 40
9.0
 40
9.0
 40
10.0
 40
10.0
 40
10.0
 40
11.0
 40
11.0
 40
11.0
 40
12.0
 40
12.0
 40
12.0
 40
13.0
 40
13.0
 40
13.0
 40
13.0
 10
45.06391600435902
 20
-75.94351262207316
 30
0.0
 10
44.83102754955613
 20
-76.10215926916891
 30
0.0
 10
44.73146429003241
 20
-76.17622882210178
 30
0.0
 10
44.67944334820514
 20
-76.32006155861096
 30
0.0
 10
44.67944334820514
 20
-76.32006155861096
 30
0.0
 10
45.51143390789298
 20
-76.32006155861096
 30
0.0
 10
45.51143390789298
 20
-76.32006155861096
 30
0.0
 10
45.51143390789298
 20
-76.32006155861096
 30
0.0
 10
45.51143390789298
 20
-76.52521699475759
 30
0.0
 10
45.51143390789298
 20
-76.52521699475759
 30
0.0
 10
45.51143390789298
 20
-76.52521699475759
 30
0.0
 10
44.4127929576468
 20
-76.52521699475759
 30
0.0
 10
44.4127929576468
 20
-76.52521699475759
 30
0.0
 10
44.44672714817651
 20
-76.16778833816292
 30
0.0
 10
44.51683484130135
 20
-76.08941241587348
 30
0.0
 10
44.92817924224018
 20
-75.7912394016251
 30
0.0
 10
45.20171982376902
 20
-75.59228513735194
 30
0.0
 10
45.27182751689385
 20
-75.52458901106677
 30
0.0
 10
45.27182751689385
 20
-75.38712970120531
 30
0.0
 10
45.27182751689385
 20
-75.26861841651271
 30
0.0
 10
45.19500188757278
 20
-75.13753253329895
 30
0.0
 10
44.98467880819828
 20
-75.13753253329895
 30
0.0
 10
44.70665960253861
 20
-75.13753253329895
 30
0.0
 10
44.69770235427696
 20
-75.36800942126217
 30
0.0
 10
44.69305147537188
 20
-75.48445364866362
 30
0.0
 10
44.69305147537188
 20
-75.48445364866362
 30
0.0
 10
44.45344508437275
 20
-75.48445364866362
 30
0.0
 10
44.45344508437275
 20
-75.48445364866362
 30
0.0
 10
44.4624023326344
 20
-75.35750188003216
 30
0.0
 10
44.47377114773573
 20
-75.24536402198727
 30
0.0
 10
44.55972628009271
 20
-75.12685273729468
 30
0.0
 10
44.67720403613973
 20
-74.96613903290778
 30
0.0
 10
44.8761583004129
 20
-74.93220484237807
 30
0.0
 10
45.00052624743043
 20
-74.93220484237807
 30
0.0
 10
45.29680445916191
 20
-74.93220484237807
 30
0.0
 10
45.51832409886347
 20
-75.11634519606467
 30
0.0
 10
45.51832409886347
 20
-75.38919675849645
 30
0.0
 10
45.51832409886347
 20
-75.61777884394279
 30
0.0
 10
45.39395615184596
 20
-75.71716984869224
 30
0.0
 10
45.06391600435902
 20
-75.94351262207316
 30
0.0
  0
HATCH
  5
11A
330
113
100
AcDbEntity
  8
_U+30EC_U+30A4_U+30E4_U+30FC 1
 62
   179
420
  2234388
100
AcDbHatch
 10
0.0
 20
0.0
 30
0.0
210
0.0
220
0.0
230
1.0
  2
SOLID
 70
     1
 71
     0
 91
        1
 92
        1
 93
        1
 72
     4
 94
        3
 73
     0
 74
     1
 95
       44
 96
       40
 40
0.0
 40
0.0
 40
0.0
 40
0.0
 40
1.0
 40
1.0
 40
1.0
 40
2.0
 40
2.0
 40
2.0
 40
3.0
 40
3.0
 40
3.0
 40
4.0
 40
4.0
 40
4.0
 40
5.0
 40
5.0
 40
5.0
 40
6.0
 40
6.0
 40
6.0
 40
7.0
 40
7.0
 40
7.0
 40
8.0
 40
8.0
 40
8.0
 40
9.0
 40
9.0
 40
9.0
 40
10.0
 40
10.0
 40
10.0
 40
11.0
 40
11.0
 40
11.0
 40
12.0
 40
12.0
 40
12.0
 40
13.0
 40
13.0
 40
13.0
 40
13.0
 10
45.06391600435902
 20
-75.94351262207316
 10
44.83102754955613
 20
-76.10215926916891
 10
44.73146429003241
 20
-76.17622882210178
 10
44.67944334820514
 20
-76.32006155861096
 10
44.67944334820514
 20
-76.32006155861096
 10
45.51143390789298
 20
-76.32006155861096
 10
45.51143390789298
 20
-76.32006155861096
 10
45.51143390789298
 20
-76.32006155861096
 10
45.51143390789298
 20
-76.52521699475759
 10
45.51143390789298
 20
-76.52521699475759
 10
45.51143390789298
 20
-76.52521699475759
 10
44.4127929576468
 20
-76.52521699475759
 10
44.4127929576468
 20
-76.52521699475759
 10
44.44672714817651
 20
-76.16778833816292
 10
44.51683484130135
 20
-76.08941241587348
 10
44.92817924224018
 20
-75.7912394016251
 10
45.20171982376902
 20
-75.59228513735194
 10
45.27182751689385
 20
-75.52458901106677
 10
45.27182751689385
 20
-75.38712970120531
 10
45.27182751689385
 20
-75.26861841651271
 10
45.19500188757278
 20
-75.13753253329895
 10
44.98467880819828
 20
-75.13753253329895
 10
44.70665960253861
 20
-75.13753253329895
 10
44.69770235427696
 20
-75.36800942126217
 10
44.69305147537188
 20
-75.48445364866362
 10
44.69305147537188
 20
-75.48445364866362
 10
44.45344508437275
 20
-75.48445364866362
 10
44.45344508437275
 20
-75.48445364866362
 10
44.4624023326344
 20
-75.35750188003216
 10
44.47377114773573
 20
-75.24536402198727
 10
44.55972628009271
 20
-75.12685273729468
 10
44.67720403613973
 20
-74.96613903290778
 10
44.8761583004129
 20
-74.93220484237807
 10
45.00052624743043
 20
-74.93220484237807
 10
45.29680445916191
 20
-74.93220484237807
 10
45.51832409886347
 20
-75.11634519606467
 10
45.51832409886347
 20
-75.38919675849645
 10
45.51832409886347
 20
-75.61777884394279
 10
45.39395615184596
 20
-75.71716984869224
 10
45.06391600435902
 20
-75.94351262207316
 97
        0
 97
        0
 75
     2
 76
     1
 98
        0
  0
ENDBLK
  5
116
330
113
100
AcDbEntity
  8
0
100
AcDbBlockEnd
  0
BLOCK
  5
11D
330
11B
100
AcDbEntity
  8
0
100
AcDbBlockBegin
  2
block 5
 70
     0
 10
0.0
 20
0.0
 30
0.0
  3
block 5
  1

  0
SPLINE
  5
11F
330
11B
100
AcDbEntity
  8
_U+30EC_U+30A4_U+30E4_U+30FC 1
 62
   179
420
  2234388
370
    25
100
AcDbSpline
210
0.0
220
0.0
230
1.0
 70
    11
 71
     3
 72
    17
 73
    13
 74
     0
 42
0.0000000001
 43
0.0000000001
 12
1.0
 22
0.0
 32
0.0
 13
1.0
 23
0.0
 33
0.0
 40
0.0
 40
0.0
 40
0.0
 40
0.0
 40
1.0
 40
1.0
 40
1.0
 40
2.0
 40
2.0
 40
2.0
 40
3.0
 40
3.0
 40
3.0
 40
4.0
 40
4.0
 40
4.0
 40
4.0
 10
55.37094165282405
 20
-80.89808275755323
 30
0.0
 10
55.37094165282405
 20
-80.91737970199274
 30
0.0
 10
55.35510053221817
 20
-80.93321942421127
 30
0.0
 10
55.33580358826604
 20
-80.93321942421127
 30
0.0
 10
55.3165066443139
 20
-80.93321942421127
 30
0.0
 10
55.30066692249578
 20
-80.91737970199274
 30
0.0
 10
55.30066692249578
 20
-80.89808275755323
 30
0.0
 10
55.30066692249578
 20
-80.87843303533596
 30
0.0
 10
55.3165066443139
 20
-80.86259331311774
 30
0.0
 10
55.33580358826604
 20
-80.86259331311774
 30
0.0
 10
55.35510053221817
 20
-80.86259331311774
 30
0.0
 10
55.37094165282405
 20
-80.87843303533596
 30
0.0
 10
55.37094165282405
 20
-80.89808275755323
 30
0.0
  0
ENDBLK
  5
11E
330
11B
100
AcDbEntity
  8
0
100
AcDbBlockEnd
  0
BLOCK
  5
122
330
120
100
AcDbEntity
  8
0
100
AcDbBlockBegin
  2
block 6
 70
     0
 10
0.0
 20
0.0
 30
0.0
  3
block 6
  1

  0
SPLINE
  5
124
330
120
100
AcDbEntity
  8
_U+30EC_U+30A4_U+30E4_U+30FC 1
 62
   179
420
  2234388
370
    25
100
AcDbSpline
210
0.0
220
0.0
230
1.0
 70
    11
 71
     3
 72
    17
 73
    13
 74
     0
 42
0.0000000001
 43
0.0000000001
 12
1.0
 22
0.0
 32
0.0
 13
1.0
 23
0.0
 33
0.0
 40
0.0
 40
0.0
 40
0.0
 40
0.0
 40
1.0
 40
1.0
 40
1.0
 40
2.0
 40
2.0
 40
2.0
 40
3.0
 40
3.0
 40
3.0
 40
4.0
 40
4.0
 40
4.0
 40
4.0
 10
33.37143721387935
 20
-80.89808275755323
 30
0.0
 10
33.37143721387935
 20
-80.91737970199274
 30
0.0
 10
33.35559749166113
 20
-80.93321942421127
 30
0.0
 10
33.3355949916661
 20
-80.93321942421127
 30
0.0
 10
33.31629804722659
 20
-80.93321942421127
 30
0.0
 10
33.30045832500837
 20
-80.91737970199274
 30
0.0
 10
33.30045832500837
 20
-80.89808275755323
 30
0.0
 10
33.30045832500837
 20
-80.87843303533596
 30
0.0
 10
33.31629804722659
 20
-80.86259331311774
 30
0.0
 10
33.3355949916661
 20
-80.86259331311774
 30
0.0
 10
33.35559749166113
 20
-80.86259331311774
 30
0.0
 10
33.37143721387935
 20
-80.87843303533596
 30
0.0
 10
33.37143721387935
 20
-80.89808275755323
 30
0.0
  0
ENDBLK
  5
123
330
120
100
AcDbEntity
  8
0
100
AcDbBlockEnd
  0
BLOCK
  5
127
330
125
100
AcDbEntity
  8
0
100
AcDbBlockBegin
  2
block 7
 70
     0
 10
0.0
 20
0.0
 30
0.0
  3
block 7
  1

  0
SPLINE
  5
129
330
125
100
AcDbEntity
  8
_U+30EC_U+30A4_U+30E4_U+30FC 1
 62
   179
420
  2234388
370
     9
100
AcDbSpline
210
0.0
220
0.0
230
1.0
 70
    11
 71
     3
 72
    17
 73
    13
 74
     0
 42
0.0000000001
 43
0.0000000001
 12
1.0
 22
0.0
 32
0.0
 13
1.0
 23
0.0
 33
0.0
 40
0.0
 40
0.0
 40
0.0
 40
0.0
 40
1.0
 40
1.0
 40
1.0
 40
2.0
 40
2.0
 40
2.0
 40
3.0
 40
3.0
 40
3.0
 40
4.0
 40
4.0
 40
4.0
 40
4.0
 10
33.37143721387935
 20
-76.8979708141089
 30
0.0
 10
33.37143721387935
 20
-76.91762053632617
 30
0.0
 10
33.35559749166113
 20
-76.93310748076662
 30
0.0
 10
33.3355949916661
 20
-76.93310748076662
 30
0.0
 10
33.31629804722659
 20
-76.93310748076662
 30
0.0
 10
33.30045832500837
 20
-76.91762053632617
 30
0.0
 10
33.30045832500837
 20
-76.8979708141089
 30
0.0
 10
33.30045832500837
 20
-76.87835636966915
 30
0.0
 10
33.31629804722659
 20
-76.86283414745085
 30
0.0
 10
33.3355949916661
 20
-76.86283414745085
 30
0.0
 10
33.35559749166113
 20
-76.86283414745085
 30
0.0
 10
33.37143721387935
 20
-76.87835636966915
 30
0.0
 10
33.37143721387935
 20
-76.8979708141089
 30
0.0
  0
ENDBLK
  5
128
330
125
100
AcDbEntity
  8
0
100
AcDbBlockEnd
  0
BLOCK
  5
12C
330
12A
100
AcDbEntity
  8
0
100
AcDbBlockBegin
  2
block 8
 70
     0
 10
0.0
 20
0.0
 30
0.0
  3
block 8
  1

  0
POLYLINE
  5
12E
330
12A
100
AcDbEntity
  8
_U+30EC_U+30A4_U+30E4_U+30FC 1
 62
   179
420
  2234388
370
     9
100
AcDb2dPolyline
 66
     1
 10
0.0
 20
0.0
 30
0.0
  0
VERTEX
  5
12F
330
12E
100
AcDbEntity
  8
_U+30EC_U+30A4_U+30E4_U+30FC 1
 62
   179
420
  2234388
370
     9
100
AcDbVertex
100
AcDb2dVertex
 10
55.33580358826604
 20
-76.8979708141089
 30
0.0
  0
VERTEX
  5
130
330
12E
100
AcDbEntity
  8
_U+30EC_U+30A4_U+30E4_U+30FC 1
 62
   179
420
  2234388
370
     9
100
AcDbVertex
100
AcDb2dVertex
 10
65.3362419442447
 20
-76.8979708141089
 30
0.0
  0
SEQEND
  5
131
330
12E
100
AcDbEntity
  8
_U+30EC_U+30A4_U+30E4_U+30FC 1
 62
   179
420
  2234388
370
     9
  0
POLYLINE
  5
132
330
12A
100
AcDbEntity
  8
_U+30EC_U+30A4_U+30E4_U+30FC 1
 62
   179
420
  2234388
370
     9
100
AcDb2dPolyline
 66
     1
 10
0.0
 20
0.0
 30
0.0
  0
VERTEX
  5
133
330
132
100
AcDbEntity
  8
_U+30EC_U+30A4_U+30E4_U+30FC 1
 62
   179
420
  2234388
370
     9
100
AcDbVertex
100
AcDb2dVertex
 10
65.3362419442447
 20
-78.35801220263261
 30
0.0
  0
VERTEX
  5
134
330
132
100
AcDbEntity
  8
_U+30EC_U+30A4_U+30E4_U+30FC 1
 62
   179
420
  2234388
370
     9
100
AcDbVertex
100
AcDb2dVertex
 10
65.3362419442447
 20
-75.89788109213676
 30
0.0
  0
SEQEND
  5
135
330
132
100
AcDbEntity
  8
_U+30EC_U+30A4_U+30E4_U+30FC 1
 62
   179
420
  2234388
370
     9
  0
INSERT
  5
137
330
12A
100
AcDbEntity
  8
_U+30EC_U+30A4_U+30E4_U+30FC 1
100
AcDbBlockReference
  2
block 9
 10
0.0
 20
0.0
 30
0.0
  0
INSERT
  5
140
330
12A
100
AcDbEntity
  8
_U+30EC_U+30A4_U+30E4_U+30FC 1
100
AcDbBlockReference
  2
block 10
 10
0.0
 20
0.0
 30
0.0
  0
INSERT
  5
145
330
12A
100
AcDbEntity
  8
_U+30EC_U+30A4_U+30E4_U+30FC 1
100
AcDbBlockReference
  2
block 11
 10
0.0
 20
0.0
 30
0.0
  0
INSERT
  5
14A
330
12A
100
AcDbEntity
  8
_U+30EC_U+30A4_U+30E4_U+30FC 1
100
AcDbBlockReference
  2
block 12
 10
0.0
 20
0.0
 30
0.0
  0
ENDBLK
  5
12D
330
12A
100
AcDbEntity
  8
0
100
AcDbBlockEnd
  0
BLOCK
  5
138
330
136
100
AcDbEntity
  8
0
100
AcDbBlockBegin
  2
block 9
 70
     0
 10
0.0
 20
0.0
 30
0.0
  3
block 9
  1

  0
SPLINE
  5
13A
330
136
100
AcDbEntity
  8
_U+30EC_U+30A4_U+30E4_U+30FC 1
370
     0
100
AcDbSpline
210
0.0
220
0.0
230
1.0
 70
    11
 71
     3
 72
    26
 73
    22
 74
     0
 42
0.0000000001
 43
0.0000000001
 12
1.0
 22
0.0
 32
0.0
 13
1.0
 23
0.0
 33
0.0
 40
0.0
 40
0.0
 40
0.0
 40
0.0
 40
1.0
 40
1.0
 40
1.0
 40
2.0
 40
2.0
 40
2.0
 40
3.0
 40
3.0
 40
3.0
 40
4.0
 40
4.0
 40
4.0
 40
5.0
 40
5.0
 40
5.0
 40
6.0
 40
6.0
 40
6.0
 40
7.0
 40
7.0
 40
7.0
 40
7.0
 10
59.65441214871487
 20
-76.52521699475759
 30
0.0
 10
59.65441214871487
 20
-76.52521699475759
 30
0.0
 10
59.65441214871487
 20
-75.42089163696075
 30
0.0
 10
59.65441214871487
 20
-75.42089163696075
 30
0.0
 10
59.65441214871487
 20
-75.42089163696075
 30
0.0
 10
59.30163437102529
 20
-75.42089163696075
 30
0.0
 10
59.30163437102529
 20
-75.42089163696075
 30
0.0
 10
59.30163437102529
 20
-75.42089163696075
 30
0.0
 10
59.30163437102529
 20
-75.27292478586928
 30
0.0
 10
59.30163437102529
 20
-75.27292478586928
 30
0.0
 10
59.65665146078028
 20
-75.2581108752827
 30
0.0
 10
59.70626083576789
 20
-75.09515785883038
 30
0.0
 10
59.73795571423218
 20
-74.98095294349434
 30
0.0
 10
59.73795571423218
 20
-74.98095294349434
 30
0.0
 10
59.894018539714
 20
-74.98095294349434
 30
0.0
 10
59.894018539714
 20
-74.98095294349434
 30
0.0
 10
59.894018539714
 20
-74.98095294349434
 30
0.0
 10
59.894018539714
 20
-76.52521699475759
 30
0.0
 10
59.894018539714
 20
-76.52521699475759
 30
0.0
 10
59.894018539714
 20
-76.52521699475759
 30
0.0
 10
59.65441214871487
 20
-76.52521699475759
 30
0.0
 10
59.65441214871487
 20
-76.52521699475759
 30
0.0
  0
HATCH
  5
13B
330
136
100
AcDbEntity
  8
_U+30EC_U+30A4_U+30E4_U+30FC 1
 62
   179
420
  2234388
100
AcDbHatch
 10
0.0
 20
0.0
 30
0.0
210
0.0
220
0.0
230
1.0
  2
SOLID
 70
     1
 71
     0
 91
        1
 92
        1
 93
        1
 72
     4
 94
        3
 73
     0
 74
     1
 95
       26
 96
       22
 40
0.0
 40
0.0
 40
0.0
 40
0.0
 40
1.0
 40
1.0
 40
1.0
 40
2.0
 40
2.0
 40
2.0
 40
3.0
 40
3.0
 40
3.0
 40
4.0
 40
4.0
 40
4.0
 40
5.0
 40
5.0
 40
5.0
 40
6.0
 40
6.0
 40
6.0
 40
7.0
 40
7.0
 40
7.0
 40
7.0
 10
59.65441214871487
 20
-76.52521699475759
 10
59.65441214871487
 20
-76.52521699475759
 10
59.65441214871487
 20
-75.42089163696075
 10
59.65441214871487
 20
-75.42089163696075
 10
59.65441214871487
 20
-75.42089163696075
 10
59.30163437102529
 20
-75.42089163696075
 10
59.30163437102529
 20
-75.42089163696075
 10
59.30163437102529
 20
-75.42089163696075
 10
59.30163437102529
 20
-75.27292478586928
 10
59.30163437102529
 20
-75.27292478586928
 10
59.65665146078028
 20
-75.2581108752827
 10
59.70626083576789
 20
-75.09515785883038
 10
59.73795571423218
 20
-74.98095294349434
 10
59.73795571423218
 20
-74.98095294349434
 10
59.894018539714
 20
-74.98095294349434
 10
59.894018539714
 20
-74.98095294349434
 10
59.894018539714
 20
-74.98095294349434
 10
59.894018539714
 20
-76.52521699475759
 10
59.894018539714
 20
-76.52521699475759
 10
59.894018539714
 20
-76.52521699475759
 10
59.65441214871487
 20
-76.52521699475759
 10
59.65441214871487
 20
-76.52521699475759
 97
        0
 97
        0
 75
     2
 76
     1
 98
        0
  0
SPLINE
  5
13C
330
136
100
AcDbEntity
  8
_U+30EC_U+30A4_U+30E4_U+30FC 1
370
     0
100
AcDbSpline
210
0.0
220
0.0
230
1.0
 70
    11
 71
     3
 72
    29
 73
    25
 74
     0
 42
0.0000000001
 43
0.0000000001
 12
1.0
 22
0.0
 32
0.0
 13
1.0
 23
0.0
 33
0.0
 40
0.0
 40
0.0
 40
0.0
 40
0.0
 40
1.0
 40
1.0
 40
1.0
 40
2.0
 40
2.0
 40
2.0
 40
3.0
 40
3.0
 40
3.0
 40
4.0
 40
4.0
 40
4.0
 40
5.0
 40
5.0
 40
5.0
 40
6.0
 40
6.0
 40
6.0
 40
7.0
 40
7.0
 40
7.0
 40
8.0
 40
8.0
 40
8.0
 40
8.0
 10
61.38918998031243
 20
-76.34762232249295
 30
0.0
 10
61.27377928155656
 20
-76.55691187322189
 30
0.0
 10
61.08843314445011
 20
-76.57603215316502
 30
0.0
 10
60.9640651974326
 20
-76.57603215316502
 30
0.0
 10
60.79232718749289
 20
-76.57603215316502
 30
0.0
 10
60.6407429861419
 20
-76.52952336411416
 30
0.0
 10
60.53911266932703
 20
-76.34762232249295
 30
0.0
 10
60.42835284947625
 20
-76.15297442757634
 30
0.0
 10
60.40802678611328
 20
-75.91595185819115
 30
0.0
 10
60.40802678611328
 20
-75.7531710965131
 30
0.0
 10
60.40802678611328
 20
-75.60916610522966
 30
0.0
 10
60.42594128263657
 20
-75.35750188003216
 30
0.0
 10
60.53911266932703
 20
-75.15854761575898
 30
0.0
 10
60.65435111330864
 20
-74.95563149167776
 30
0.0
 10
60.82626137802261
 20
-74.93220484237807
 30
0.0
 10
60.9640651974326
 20
-74.93220484237807
 30
0.0
 10
61.13373615008116
 20
-74.93220484237807
 30
0.0
 10
61.2873874087233
 20
-74.97664657413779
 30
0.0
 10
61.38918998031243
 20
-75.15854761575898
 30
0.0
 10
61.49547117603238
 20
-75.35112845338445
 30
0.0
 10
61.52027586352619
 20
-75.57953828405651
 30
0.0
 10
61.52027586352619
 20
-75.7531710965131
 30
0.0
 10
61.52027586352619
 20
-75.92439234213002
 30
0.0
 10
61.49771048809779
 20
-76.1550414848675
 30
0.0
 10
61.38918998031243
 20
-76.34762232249295
 30
0.0
  0
SPLINE
  5
13D
330
136
100
AcDbEntity
  8
_U+30EC_U+30A4_U+30E4_U+30FC 1
370
     0
100
AcDbSpline
210
0.0
220
0.0
230
1.0
 70
    11
 71
     3
 72
    17
 73
    13
 74
     0
 42
0.0000000001
 43
0.0000000001
 12
1.0
 22
0.0
 32
0.0
 13
1.0
 23
0.0
 33
0.0
 40
0.0
 40
0.0
 40
0.0
 40
0.0
 40
1.0
 40
1.0
 40
1.0
 40
2.0
 40
2.0
 40
2.0
 40
3.0
 40
3.0
 40
3.0
 40
4.0
 40
4.0
 40
4.0
 40
4.0
 10
60.9640651974326
 20
-75.12478568000353
 30
0.0
 10
60.69741480687426
 20
-75.12478568000353
 30
0.0
 10
60.6476331771124
 20
-75.40831703843959
 30
0.0
 10
60.6476331771124
 20
-75.7531710965131
 30
0.0
 10
60.6476331771124
 20
-76.07253144799576
 30
0.0
 10
60.68604599177294
 20
-76.3813842582484
 30
0.0
 10
60.9640651974326
 20
-76.3813842582484
 30
0.0
 10
61.22864853069979
 20
-76.3813842582484
 30
0.0
 10
61.28066947252706
 20
-76.10009221187777
 30
0.0
 10
61.28066947252706
 20
-75.7531710965131
 30
0.0
 10
61.28066947252706
 20
-75.43363849025617
 30
0.0
 10
61.24001734580111
 20
-75.12478568000353
 30
0.0
 10
60.9640651974326
 20
-75.12478568000353
 30
0.0
  0
HATCH
  5
13E
330
136
100
AcDbEntity
  8
_U+30EC_U+30A4_U+30E4_U+30FC 1
 62
   179
420
  2234388
100
AcDbHatch
 10
0.0
 20
0.0
 30
0.0
210
0.0
220
0.0
230
1.0
  2
SOLID
 70
     1
 71
     0
 91
        2
 92
        1
 93
        1
 72
     4
 94
        3
 73
     0
 74
     1
 95
       29
 96
       25
 40
0.0
 40
0.0
 40
0.0
 40
0.0
 40
1.0
 40
1.0
 40
1.0
 40
2.0
 40
2.0
 40
2.0
 40
3.0
 40
3.0
 40
3.0
 40
4.0
 40
4.0
 40
4.0
 40
5.0
 40
5.0
 40
5.0
 40
6.0
 40
6.0
 40
6.0
 40
7.0
 40
7.0
 40
7.0
 40
8.0
 40
8.0
 40
8.0
 40
8.0
 10
61.38918998031243
 20
-76.34762232249295
 10
61.27377928155656
 20
-76.55691187322189
 10
61.08843314445011
 20
-76.57603215316502
 10
60.9640651974326
 20
-76.57603215316502
 10
60.79232718749289
 20
-76.57603215316502
 10
60.6407429861419
 20
-76.52952336411416
 10
60.53911266932703
 20
-76.34762232249295
 10
60.42835284947625
 20
-76.15297442757634
 10
60.40802678611328
 20
-75.91595185819115
 10
60.40802678611328
 20
-75.7531710965131
 10
60.40802678611328
 20
-75.60916610522966
 10
60.42594128263657
 20
-75.35750188003216
 10
60.53911266932703
 20
-75.15854761575898
 10
60.65435111330864
 20
-74.95563149167776
 10
60.82626137802261
 20
-74.93220484237807
 10
60.9640651974326
 20
-74.93220484237807
 10
61.13373615008116
 20
-74.93220484237807
 10
61.2873874087233
 20
-74.97664657413779
 10
61.38918998031243
 20
-75.15854761575898
 10
61.49547117603238
 20
-75.35112845338445
 10
61.52027586352619
 20
-75.57953828405651
 10
61.52027586352619
 20
-75.7531710965131
 10
61.52027586352619
 20
-75.92439234213002
 10
61.49771048809779
 20
-76.1550414848675
 10
61.38918998031243
 20
-76.34762232249295
 97
        0
 97
        0
 92
        1
 93
        1
 72
     4
 94
        3
 73
     0
 74
     1
 95
       17
 96
       13
 40
0.0
 40
0.0
 40
0.0
 40
0.0
 40
1.0
 40
1.0
 40
1.0
 40
2.0
 40
2.0
 40
2.0
 40
3.0
 40
3.0
 40
3.0
 40
4.0
 40
4.0
 40
4.0
 40
4.0
 10
60.9640651974326
 20
-75.12478568000353
 10
60.69741480687426
 20
-75.12478568000353
 10
60.6476331771124
 20
-75.40831703843959
 10
60.6476331771124
 20
-75.7531710965131
 10
60.6476331771124
 20
-76.07253144799576
 10
60.68604599177294
 20
-76.3813842582484
 10
60.9640651974326
 20
-76.3813842582484
 10
61.22864853069979
 20
-76.3813842582484
 10
61.28066947252706
 20
-76.10009221187777
 10
61.28066947252706
 20
-75.7531710965131
 10
61.28066947252706
 20
-75.43363849025617
 10
61.24001734580111
 20
-75.12478568000353
 10
60.9640651974326
 20
-75.12478568000353
 97
        0
 97
        0
 75
     2
 76
     1
 98
        0
  0
ENDBLK
  5
139
330
136
100
AcDbEntity
  8
0
100
AcDbBlockEnd
  0
BLOCK
  5
141
330
13F
100
AcDbEntity
  8
0
100
AcDbBlockBegin
  2
block 10
 70
     0
 10
0.0
 20
0.0
 30
0.0
  3
block 10
  1

  0
SPLINE
  5
143
330
13F
100
AcDbEntity
  8
_U+30EC_U+30A4_U+30E4_U+30FC 1
 62
   179
420
  2234388
370
    25
100
AcDbSpline
210
0.0
220
0.0
230
1.0
 70
    11
 71
     3
 72
    17
 73
    13
 74
     0
 42
0.0000000001
 43
0.0000000001
 12
1.0
 22
0.0
 32
0.0
 13
1.0
 23
0.0
 33
0.0
 40
0.0
 40
0.0
 40
0.0
 40
0.0
 40
1.0
 40
1.0
 40
1.0
 40
2.0
 40
2.0
 40
2.0
 40
3.0
 40
3.0
 40
3.0
 40
4.0
 40
4.0
 40
4.0
 40
4.0
 10
55.37094165282405
 20
-80.89808275755323
 30
0.0
 10
55.37094165282405
 20
-80.91737970199274
 30
0.0
 10
55.35510053221817
 20
-80.93321942421127
 30
0.0
 10
55.33580358826604
 20
-80.93321942421127
 30
0.0
 10
55.3165066443139
 20
-80.93321942421127
 30
0.0
 10
55.30066692249578
 20
-80.91737970199274
 30
0.0
 10
55.30066692249578
 20
-80.89808275755323
 30
0.0
 10
55.30066692249578
 20
-80.87843303533596
 30
0.0
 10
55.3165066443139
 20
-80.86259331311774
 30
0.0
 10
55.33580358826604
 20
-80.86259331311774
 30
0.0
 10
55.35510053221817
 20
-80.86259331311774
 30
0.0
 10
55.37094165282405
 20
-80.87843303533596
 30
0.0
 10
55.37094165282405
 20
-80.89808275755323
 30
0.0
  0
ENDBLK
  5
142
330
13F
100
AcDbEntity
  8
0
100
AcDbBlockEnd
  0
BLOCK
  5
146
330
144
100
AcDbEntity
  8
0
100
AcDbBlockBegin
  2
block 11
 70
     0
 10
0.0
 20
0.0
 30
0.0
  3
block 11
  1

  0
SPLINE
  5
148
330
144
100
AcDbEntity
  8
_U+30EC_U+30A4_U+30E4_U+30FC 1
 62
   179
420
  2234388
370
    25
100
AcDbSpline
210
0.0
220
0.0
230
1.0
 70
    11
 71
     3
 72
    17
 73
    13
 74
     0
 42
0.0000000001
 43
0.0000000001
 12
1.0
 22
0.0
 32
0.0
 13
1.0
 23
0.0
 33
0.0
 40
0.0
 40
0.0
 40
0.0
 40
0.0
 40
1.0
 40
1.0
 40
1.0
 40
2.0
 40
2.0
 40
2.0
 40
3.0
 40
3.0
 40
3.0
 40
4.0
 40
4.0
 40
4.0
 40
4.0
 10
65.37137861001497
 20
-80.89808275755323
 30
0.0
 10
65.37137861001497
 20
-80.91737970199274
 30
0.0
 10
65.35553888819685
 20
-80.93321942421127
 30
0.0
 10
65.3362419442447
 20
-80.93321942421127
 30
0.0
 10
65.31623944475501
 20
-80.93321942421127
 30
0.0
 10
65.3003997229369
 20
-80.91737970199274
 30
0.0
 10
65.3003997229369
 20
-80.89808275755323
 30
0.0
 10
65.3003997229369
 20
-80.87843303533596
 30
0.0
 10
65.31623944475501
 20
-80.86259331311774
 30
0.0
 10
65.3362419442447
 20
-80.86259331311774
 30
0.0
 10
65.35553888819685
 20
-80.86259331311774
 30
0.0
 10
65.37137861001497
 20
-80.87843303533596
 30
0.0
 10
65.37137861001497
 20
-80.89808275755323
 30
0.0
  0
ENDBLK
  5
147
330
144
100
AcDbEntity
  8
0
100
AcDbBlockEnd
  0
BLOCK
  5
14B
330
149
100
AcDbEntity
  8
0
100
AcDbBlockBegin
  2
block 12
 70
     0
 10
0.0
 20
0.0
 30
0.0
  3
block 12
  1

  0
SPLINE
  5
14D
330
149
100
AcDbEntity
  8
_U+30EC_U+30A4_U+30E4_U+30FC 1
 62
   179
420
  2234388
370
     9
100
AcDbSpline
210
0.0
220
0.0
230
1.0
 70
    11
 71
     3
 72
    17
 73
    13
 74
     0
 42
0.0000000001
 43
0.0000000001
 12
1.0
 22
0.0
 32
0.0
 13
1.0
 23
0.0
 33
0.0
 40
0.0
 40
0.0
 40
0.0
 40
0.0
 40
1.0
 40
1.0
 40
1.0
 40
2.0
 40
2.0
 40
2.0
 40
3.0
 40
3.0
 40
3.0
 40
4.0
 40
4.0
 40
4.0
 40
4.0
 10
65.37137861001497
 20
-76.8979708141089
 30
0.0
 10
65.37137861001497
 20
-76.91762053632617
 30
0.0
 10
65.35553888819685
 20
-76.93310748076662
 30
0.0
 10
65.3362419442447
 20
-76.93310748076662
 30
0.0
 10
65.31623944475501
 20
-76.93310748076662
 30
0.0
 10
65.3003997229369
 20
-76.91762053632617
 30
0.0
 10
65.3003997229369
 20
-76.8979708141089
 30
0.0
 10
65.3003997229369
 20
-76.87835636966915
 30
0.0
 10
65.31623944475501
 20
-76.86283414745085
 30
0.0
 10
65.3362419442447
 20
-76.86283414745085
 30
0.0
 10
65.35553888819685
 20
-76.86283414745085
 30
0.0
 10
65.37137861001497
 20
-76.87835636966915
 30
0.0
 10
65.37137861001497
 20
-76.8979708141089
 30
0.0
  0
ENDBLK
  5
14C
330
149
100
AcDbEntity
  8
0
100
AcDbBlockEnd
  0
BLOCK
  5
150
330
14E
100
AcDbEntity
  8
0
100
AcDbBlockBegin
  2
block 13
 70
     0
 10
0.0
 20
0.0
 30
0.0
  3
block 13
  1

  0
POLYLINE
  5
152
330
14E
100
AcDbEntity
  8
_U+30EC_U+30A4_U+30E4_U+30FC 1
 62
   179
420
  2234388
370
     9
100
AcDb2dPolyline
 66
     1
 10
0.0
 20
0.0
 30
0.0
  0
VERTEX
  5
153
330
152
100
AcDbEntity
  8
_U+30EC_U+30A4_U+30E4_U+30FC 1
 62
   179
420
  2234388
370
     9
100
AcDbVertex
100
AcDb2dVertex
 10
65.3362419442447
 20
-76.8979708141089
 30
0.0
  0
VERTEX
  5
154
330
152
100
AcDbEntity
  8
_U+30EC_U+30A4_U+30E4_U+30FC 1
 62
   179
420
  2234388
370
     9
100
AcDbVertex
100
AcDb2dVertex
 10
87.33592221631945
 20
-76.8979708141089
 30
0.0
  0
SEQEND
  5
155
330
152
100
AcDbEntity
  8
_U+30EC_U+30A4_U+30E4_U+30FC 1
 62
   179
420
  2234388
370
     9
  0
POLYLINE
  5
156
330
14E
100
AcDbEntity
  8
_U+30EC_U+30A4_U+30E4_U+30FC 1
 62
   179
420
  2234388
370
     9
100
AcDb2dPolyline
 66
     1
 10
0.0
 20
0.0
 30
0.0
  0
VERTEX
  5
157
330
156
100
AcDbEntity
  8
_U+30EC_U+30A4_U+30E4_U+30FC 1
 62
   179
420
  2234388
370
     9
100
AcDbVertex
100
AcDb2dVertex
 10
87.33592221631945
 20
-78.35801220263261
 30
0.0
  0
VERTEX
  5
158
330
156
100
AcDbEntity
  8
_U+30EC_U+30A4_U+30E4_U+30FC 1
 62
   179
420
  2234388
370
     9
100
AcDbVertex
100
AcDb2dVertex
 10
87.33592221631945
 20
-75.89788109213676
 30
0.0
  0
SEQEND
  5
159
330
156
100
AcDbEntity
  8
_U+30EC_U+30A4_U+30E4_U+30FC 1
 62
   179
420
  2234388
370
     9
  0
INSERT
  5
15B
330
14E
100
AcDbEntity
  8
_U+30EC_U+30A4_U+30E4_U+30FC 1
100
AcDbBlockReference
  2
block 14
 10
0.0
 20
0.0
 30
0.0
  0
INSERT
  5
163
330
14E
100
AcDbEntity
  8
_U+30EC_U+30A4_U+30E4_U+30FC 1
100
AcDbBlockReference
  2
block 15
 10
0.0
 20
0.0
 30
0.0
  0
INSERT
  5
168
330
14E
100
AcDbEntity
  8
_U+30EC_U+30A4_U+30E4_U+30FC 1
100
AcDbBlockReference
  2
block 16
 10
0.0
 20
0.0
 30
0.0
  0
INSERT
  5
16D
330
14E
100
AcDbEntity
  8
_U+30EC_U+30A4_U+30E4_U+30FC 1
100
AcDbBlockReference
  2
block 17
 10
0.0
 20
0.0
 30
0.0
  0
ENDBLK
  5
151
330
14E
100
AcDbEntity
  8
0
100
AcDbBlockEnd
  0
BLOCK
  5
15C
330
15A
100
AcDbEntity
  8
0
100
AcDbBlockBegin
  2
block 14
 70
     0
 10
0.0
 20
0.0
 30
0.0
  3
block 14
  1

  0
SPLINE
  5
15E
330
15A
100
AcDbEntity
  8
_U+30EC_U+30A4_U+30E4_U+30FC 1
370
     0
100
AcDbSpline
210
0.0
220
0.0
230
1.0
 70
    11
 71
     3
 72
    44
 73
    40
 74
     0
 42
0.0000000001
 43
0.0000000001
 12
1.0
 22
0.0
 32
0.0
 13
1.0
 23
0.0
 33
0.0
 40
0.0
 40
0.0
 40
0.0
 40
0.0
 40
1.0
 40
1.0
 40
1.0
 40
2.0
 40
2.0
 40
2.0
 40
3.0
 40
3.0
 40
3.0
 40
4.0
 40
4.0
 40
4.0
 40
5.0
 40
5.0
 40
5.0
 40
6.0
 40
6.0
 40
6.0
 40
7.0
 40
7.0
 40
7.0
 40
8.0
 40
8.0
 40
8.0
 40
9.0
 40
9.0
 40
9.0
 40
10.0
 40
10.0
 40
10.0
 40
11.0
 40
11.0
 40
11.0
 40
12.0
 40
12.0
 40
12.0
 40
13.0
 40
13.0
 40
13.0
 40
13.0
 10
75.80553654788889
 20
-75.94351262207316
 30
0.0
 10
75.572648093086
 20
-76.10215926916891
 30
0.0
 10
75.47308483356228
 20
-76.17622882210178
 30
0.0
 10
75.42106389173502
 20
-76.32006155861096
 30
0.0
 10
75.42106389173502
 20
-76.32006155861096
 30
0.0
 10
76.25305445142286
 20
-76.32006155861096
 30
0.0
 10
76.25305445142286
 20
-76.32006155861096
 30
0.0
 10
76.25305445142286
 20
-76.32006155861096
 30
0.0
 10
76.25305445142286
 20
-76.52521699475759
 30
0.0
 10
76.25305445142286
 20
-76.52521699475759
 30
0.0
 10
76.25305445142286
 20
-76.52521699475759
 30
0.0
 10
75.15441350117668
 20
-76.52521699475759
 30
0.0
 10
75.15441350117668
 20
-76.52521699475759
 30
0.0
 10
75.18817543693213
 20
-76.16778833816292
 30
0.0
 10
75.25845538483122
 20
-76.08941241587348
 30
0.0
 10
75.66979978577005
 20
-75.7912394016251
 30
0.0
 10
75.94334036729889
 20
-75.59228513735194
 30
0.0
 10
76.01327580564946
 20
-75.52458901106677
 30
0.0
 10
76.01327580564946
 20
-75.38712970120531
 30
0.0
 10
76.01327580564946
 20
-75.26861841651271
 30
0.0
 10
75.93645017632839
 20
-75.13753253329895
 30
0.0
 10
75.72629935172814
 20
-75.13753253329895
 30
0.0
 10
75.44828014606848
 20
-75.13753253329895
 30
0.0
 10
75.43932289780685
 20
-75.36800942126217
 30
0.0
 10
75.4344997641275
 20
-75.48445364866362
 30
0.0
 10
75.4344997641275
 20
-75.48445364866362
 30
0.0
 10
75.19506562790262
 20
-75.48445364866362
 30
0.0
 10
75.19506562790262
 20
-75.48445364866362
 30
0.0
 10
75.20402287616427
 20
-75.35750188003216
 30
0.0
 10
75.2153916912656
 20
-75.24536402198727
 30
0.0
 10
75.30117456884832
 20
-75.12685273729468
 30
0.0
 10
75.41899683444386
 20
-74.96613903290778
 30
0.0
 10
75.61777884394279
 20
-74.93220484237807
 30
0.0
 10
75.7421467909603
 20
-74.93220484237807
 30
0.0
 10
76.03842500269178
 20
-74.93220484237807
 30
0.0
 10
76.25994464239335
 20
-75.11634519606467
 30
0.0
 10
76.25994464239335
 20
-75.38919675849645
 30
0.0
 10
76.25994464239335
 20
-75.61777884394279
 30
0.0
 10
76.13557669537583
 20
-75.71716984869224
 30
0.0
 10
75.80553654788889
 20
-75.94351262207316
 30
0.0
  0
HATCH
  5
15F
330
15A
100
AcDbEntity
  8
_U+30EC_U+30A4_U+30E4_U+30FC 1
 62
   179
420
  2234388
100
AcDbHatch
 10
0.0
 20
0.0
 30
0.0
210
0.0
220
0.0
230
1.0
  2
SOLID
 70
     1
 71
     0
 91
        1
 92
        1
 93
        1
 72
     4
 94
        3
 73
     0
 74
     1
 95
       44
 96
       40
 40
0.0
 40
0.0
 40
0.0
 40
0.0
 40
1.0
 40
1.0
 40
1.0
 40
2.0
 40
2.0
 40
2.0
 40
3.0
 40
3.0
 40
3.0
 40
4.0
 40
4.0
 40
4.0
 40
5.0
 40
5.0
 40
5.0
 40
6.0
 40
6.0
 40
6.0
 40
7.0
 40
7.0
 40
7.0
 40
8.0
 40
8.0
 40
8.0
 40
9.0
 40
9.0
 40
9.0
 40
10.0
 40
10.0
 40
10.0
 40
11.0
 40
11.0
 40
11.0
 40
12.0
 40
12.0
 40
12.0
 40
13.0
 40
13.0
 40
13.0
 40
13.0
 10
75.80553654788889
 20
-75.94351262207316
 10
75.572648093086
 20
-76.10215926916891
 10
75.47308483356228
 20
-76.17622882210178
 10
75.42106389173502
 20
-76.32006155861096
 10
75.42106389173502
 20
-76.32006155861096
 10
76.25305445142286
 20
-76.32006155861096
 10
76.25305445142286
 20
-76.32006155861096
 10
76.25305445142286
 20
-76.32006155861096
 10
76.25305445142286
 20
-76.52521699475759
 10
76.25305445142286
 20
-76.52521699475759
 10
76.25305445142286
 20
-76.52521699475759
 10
75.15441350117668
 20
-76.52521699475759
 10
75.15441350117668
 20
-76.52521699475759
 10
75.18817543693213
 20
-76.16778833816292
 10
75.25845538483122
 20
-76.08941241587348
 10
75.66979978577005
 20
-75.7912394016251
 10
75.94334036729889
 20
-75.59228513735194
 10
76.01327580564946
 20
-75.52458901106677
 10
76.01327580564946
 20
-75.38712970120531
 10
76.01327580564946
 20
-75.26861841651271
 10
75.93645017632839
 20
-75.13753253329895
 10
75.72629935172814
 20
-75.13753253329895
 10
75.44828014606848
 20
-75.13753253329895
 10
75.43932289780685
 20
-75.36800942126217
 10
75.4344997641275
 20
-75.48445364866362
 10
75.4344997641275
 20
-75.48445364866362
 10
75.19506562790262
 20
-75.48445364866362
 10
75.19506562790262
 20
-75.48445364866362
 10
75.20402287616427
 20
-75.35750188003216
 10
75.2153916912656
 20
-75.24536402198727
 10
75.30117456884832
 20
-75.12685273729468
 10
75.41899683444386
 20
-74.96613903290778
 10
75.61777884394279
 20
-74.93220484237807
 10
75.7421467909603
 20
-74.93220484237807
 10
76.03842500269178
 20
-74.93220484237807
 10
76.25994464239335
 20
-75.11634519606467
 10
76.25994464239335
 20
-75.38919675849645
 10
76.25994464239335
 20
-75.61777884394279
 10
76.13557669537583
 20
-75.71716984869224
 10
75.80553654788889
 20
-75.94351262207316
 97
        0
 97
        0
 75
     2
 76
     1
 98
        0
  0
SPLINE
  5
160
330
15A
100
AcDbEntity
  8
_U+30EC_U+30A4_U+30E4_U+30FC 1
370
     0
100
AcDbSpline
210
0.0
220
0.0
230
1.0
 70
    11
 71
     3
 72
    44
 73
    40
 74
     0
 42
0.0000000001
 43
0.0000000001
 12
1.0
 22
0.0
 32
0.0
 13
1.0
 23
0.0
 33
0.0
 40
0.0
 40
0.0
 40
0.0
 40
0.0
 40
1.0
 40
1.0
 40
1.0
 40
2.0
 40
2.0
 40
2.0
 40
3.0
 40
3.0
 40
3.0
 40
4.0
 40
4.0
 40
4.0
 40
5.0
 40
5.0
 40
5.0
 40
6.0
 40
6.0
 40
6.0
 40
7.0
 40
7.0
 40
7.0
 40
8.0
 40
8.0
 40
8.0
 40
9.0
 40
9.0
 40
9.0
 40
10.0
 40
10.0
 40
10.0
 40
11.0
 40
11.0
 40
11.0
 40
12.0
 40
12.0
 40
12.0
 40
13.0
 40
13.0
 40
13.0
 40
13.0
 10
77.06334090955362
 20
-75.94351262207316
 30
0.0
 10
76.83045245475073
 20
-76.10215926916891
 30
0.0
 10
76.73088919522701
 20
-76.17622882210178
 30
0.0
 10
76.67886825339973
 20
-76.32006155861096
 30
0.0
 10
76.67886825339973
 20
-76.32006155861096
 30
0.0
 10
77.51085881308757
 20
-76.32006155861096
 30
0.0
 10
77.51085881308757
 20
-76.32006155861096
 30
0.0
 10
77.51085881308757
 20
-76.32006155861096
 30
0.0
 10
77.51085881308757
 20
-76.52521699475759
 30
0.0
 10
77.51085881308757
 20
-76.52521699475759
 30
0.0
 10
77.51085881308757
 20
-76.52521699475759
 30
0.0
 10
76.41221786284139
 20
-76.52521699475759
 30
0.0
 10
76.41221786284139
 20
-76.52521699475759
 30
0.0
 10
76.44597979859684
 20
-76.16778833816292
 30
0.0
 10
76.51625974649593
 20
-76.08941241587348
 30
0.0
 10
76.92760414743476
 20
-75.7912394016251
 30
0.0
 10
77.20114472896361
 20
-75.59228513735194
 30
0.0
 10
77.27108016731418
 20
-75.52458901106677
 30
0.0
 10
77.27108016731418
 20
-75.38712970120531
 30
0.0
 10
77.27108016731418
 20
-75.26861841651271
 30
0.0
 10
77.1942545379931
 20
-75.13753253329895
 30
0.0
 10
76.98410371339287
 20
-75.13753253329895
 30
0.0
 10
76.70608450773321
 20
-75.13753253329895
 30
0.0
 10
76.69678274992303
 20
-75.36800942126217
 30
0.0
 10
76.6923041257922
 20
-75.48445364866362
 30
0.0
 10
76.6923041257922
 20
-75.48445364866362
 30
0.0
 10
76.45286998956735
 20
-75.48445364866362
 30
0.0
 10
76.45286998956735
 20
-75.48445364866362
 30
0.0
 10
76.46182723782898
 20
-75.35750188003216
 30
0.0
 10
76.47319605293032
 20
-75.24536402198727
 30
0.0
 10
76.55897893051304
 20
-75.12685273729468
 30
0.0
 10
76.67645668656006
 20
-74.96613903290778
 30
0.0
 10
76.8755832056075
 20
-74.93220484237807
 30
0.0
 10
76.99995115262502
 20
-74.93220484237807
 30
0.0
 10
77.2962293643565
 20
-74.93220484237807
 30
0.0
 10
77.51774900405806
 20
-75.11634519606467
 30
0.0
 10
77.51774900405806
 20
-75.38919675849645
 30
0.0
 10
77.51774900405806
 20
-75.61777884394279
 30
0.0
 10
77.39338105704054
 20
-75.71716984869224
 30
0.0
 10
77.06334090955362
 20
-75.94351262207316
 30
0.0
  0
HATCH
  5
161
330
15A
100
AcDbEntity
  8
_U+30EC_U+30A4_U+30E4_U+30FC 1
 62
   179
420
  2234388
100
AcDbHatch
 10
0.0
 20
0.0
 30
0.0
210
0.0
220
0.0
230
1.0
  2
SOLID
 70
     1
 71
     0
 91
        1
 92
        1
 93
        1
 72
     4
 94
        3
 73
     0
 74
     1
 95
       44
 96
       40
 40
0.0
 40
0.0
 40
0.0
 40
0.0
 40
1.0
 40
1.0
 40
1.0
 40
2.0
 40
2.0
 40
2.0
 40
3.0
 40
3.0
 40
3.0
 40
4.0
 40
4.0
 40
4.0
 40
5.0
 40
5.0
 40
5.0
 40
6.0
 40
6.0
 40
6.0
 40
7.0
 40
7.0
 40
7.0
 40
8.0
 40
8.0
 40
8.0
 40
9.0
 40
9.0
 40
9.0
 40
10.0
 40
10.0
 40
10.0
 40
11.0
 40
11.0
 40
11.0
 40
12.0
 40
12.0
 40
12.0
 40
13.0
 40
13.0
 40
13.0
 40
13.0
 10
77.06334090955362
 20
-75.94351262207316
 10
76.83045245475073
 20
-76.10215926916891
 10
76.73088919522701
 20
-76.17622882210178
 10
76.67886825339973
 20
-76.32006155861096
 10
76.67886825339973
 20
-76.32006155861096
 10
77.51085881308757
 20
-76.32006155861096
 10
77.51085881308757
 20
-76.32006155861096
 10
77.51085881308757
 20
-76.32006155861096
 10
77.51085881308757
 20
-76.52521699475759
 10
77.51085881308757
 20
-76.52521699475759
 10
77.51085881308757
 20
-76.52521699475759
 10
76.41221786284139
 20
-76.52521699475759
 10
76.41221786284139
 20
-76.52521699475759
 10
76.44597979859684
 20
-76.16778833816292
 10
76.51625974649593
 20
-76.08941241587348
 10
76.92760414743476
 20
-75.7912394016251
 10
77.20114472896361
 20
-75.59228513735194
 10
77.27108016731418
 20
-75.52458901106677
 10
77.27108016731418
 20
-75.38712970120531
 10
77.27108016731418
 20
-75.26861841651271
 10
77.1942545379931
 20
-75.13753253329895
 10
76.98410371339287
 20
-75.13753253329895
 10
76.70608450773321
 20
-75.13753253329895
 10
76.69678274992303
 20
-75.36800942126217
 10
76.6923041257922
 20
-75.48445364866362
 10
76.6923041257922
 20
-75.48445364866362
 10
76.45286998956735
 20
-75.48445364866362
 10
76.45286998956735
 20
-75.48445364866362
 10
76.46182723782898
 20
-75.35750188003216
 10
76.47319605293032
 20
-75.24536402198727
 10
76.55897893051304
 20
-75.12685273729468
 10
76.67645668656006
 20
-74.96613903290778
 10
76.8755832056075
 20
-74.93220484237807
 10
76.99995115262502
 20
-74.93220484237807
 10
77.2962293643565
 20
-74.93220484237807
 10
77.51774900405806
 20
-75.11634519606467
 10
77.51774900405806
 20
-75.38919675849645
 10
77.51774900405806
 20
-75.61777884394279
 10
77.39338105704054
 20
-75.71716984869224
 10
77.06334090955362
 20
-75.94351262207316
 97
        0
 97
        0
 75
     2
 76
     1
 98
        0
  0
ENDBLK
  5
15D
330
15A
100
AcDbEntity
  8
0
100
AcDbBlockEnd
  0
BLOCK
  5
164
330
162
100
AcDbEntity
  8
0
100
AcDbBlockBegin
  2
block 15
 70
     0
 10
0.0
 20
0.0
 30
0.0
  3
block 15
  1

  0
SPLINE
  5
166
330
162
100
AcDbEntity
  8
_U+30EC_U+30A4_U+30E4_U+30FC 1
 62
   179
420
  2234388
370
    25
100
AcDbSpline
210
0.0
220
0.0
230
1.0
 70
    11
 71
     3
 72
    17
 73
    13
 74
     0
 42
0.0000000001
 43
0.0000000001
 12
1.0
 22
0.0
 32
0.0
 13
1.0
 23
0.0
 33
0.0
 40
0.0
 40
0.0
 40
0.0
 40
0.0
 40
1.0
 40
1.0
 40
1.0
 40
2.0
 40
2.0
 40
2.0
 40
3.0
 40
3.0
 40
3.0
 40
4.0
 40
4.0
 40
4.0
 40
4.0
 10
65.37137861001497
 20
-80.89808275755323
 30
0.0
 10
65.37137861001497
 20
-80.91737970199274
 30
0.0
 10
65.35553888819685
 20
-80.93321942421127
 30
0.0
 10
65.3362419442447
 20
-80.93321942421127
 30
0.0
 10
65.31623944475501
 20
-80.93321942421127
 30
0.0
 10
65.3003997229369
 20
-80.91737970199274
 30
0.0
 10
65.3003997229369
 20
-80.89808275755323
 30
0.0
 10
65.3003997229369
 20
-80.87843303533596
 30
0.0
 10
65.31623944475501
 20
-80.86259331311774
 30
0.0
 10
65.3362419442447
 20
-80.86259331311774
 30
0.0
 10
65.35553888819685
 20
-80.86259331311774
 30
0.0
 10
65.37137861001497
 20
-80.87843303533596
 30
0.0
 10
65.37137861001497
 20
-80.89808275755323
 30
0.0
  0
ENDBLK
  5
165
330
162
100
AcDbEntity
  8
0
100
AcDbBlockEnd
  0
BLOCK
  5
169
330
167
100
AcDbEntity
  8
0
100
AcDbBlockBegin
  2
block 16
 70
     0
 10
0.0
 20
0.0
 30
0.0
  3
block 16
  1

  0
SPLINE
  5
16B
330
167
100
AcDbEntity
  8
_U+30EC_U+30A4_U+30E4_U+30FC 1
 62
   179
420
  2234388
370
    25
100
AcDbSpline
210
0.0
220
0.0
230
1.0
 70
    11
 71
     3
 72
    17
 73
    13
 74
     0
 42
0.0000000001
 43
0.0000000001
 12
1.0
 22
0.0
 32
0.0
 13
1.0
 23
0.0
 33
0.0
 40
0.0
 40
0.0
 40
0.0
 40
0.0
 40
1.0
 40
1.0
 40
1.0
 40
2.0
 40
2.0
 40
2.0
 40
3.0
 40
3.0
 40
3.0
 40
4.0
 40
4.0
 40
4.0
 40
4.0
 10
87.37106108926808
 20
-80.89808275755323
 30
0.0
 10
87.37106108926808
 20
-80.91737970199274
 30
0.0
 10
87.35521916027157
 20
-80.93321942421127
 30
0.0
 10
87.33592221631945
 20
-80.93321942421127
 30
0.0
 10
87.3166252723673
 20
-80.93321942421127
 30
0.0
 10
87.3007855505492
 20
-80.91737970199274
 30
0.0
 10
87.3007855505492
 20
-80.89808275755323
 30
0.0
 10
87.3007855505492
 20
-80.87843303533596
 30
0.0
 10
87.3166252723673
 20
-80.86259331311774
 30
0.0
 10
87.33592221631945
 20
-80.86259331311774
 30
0.0
 10
87.35521916027157
 20
-80.86259331311774
 30
0.0
 10
87.37106108926808
 20
-80.87843303533596
 30
0.0
 10
87.37106108926808
 20
-80.89808275755323
 30
0.0
  0
ENDBLK
  5
16A
330
167
100
AcDbEntity
  8
0
100
AcDbBlockEnd
  0
BLOCK
  5
16E
330
16C
100
AcDbEntity
  8
0
100
AcDbBlockBegin
  2
block 17
 70
     0
 10
0.0
 20
0.0
 30
0.0
  3
block 17
  1

  0
SPLINE
  5
170
330
16C
100
AcDbEntity
  8
_U+30EC_U+30A4_U+30E4_U+30FC 1
 62
   179
420
  2234388
370
     9
100
AcDbSpline
210
0.0
220
0.0
230
1.0
 70
    11
 71
     3
 72
    17
 73
    13
 74
     0
 42
0.0000000001
 43
0.0000000001
 12
1.0
 22
0.0
 32
0.0
 13
1.0
 23
0.0
 33
0.0
 40
0.0
 40
0.0
 40
0.0
 40
0.0
 40
1.0
 40
1.0
 40
1.0
 40
2.0
 40
2.0
 40
2.0
 40
3.0
 40
3.0
 40
3.0
 40
4.0
 40
4.0
 40
4.0
 40
4.0
 10
87.37106108926808
 20
-76.8979708141089
 30
0.0
 10
87.37106108926808
 20
-76.91762053632617
 30
0.0
 10
87.35521916027157
 20
-76.93310748076662
 30
0.0
 10
87.33592221631945
 20
-76.93310748076662
 30
0.0
 10
87.3166252723673
 20
-76.93310748076662
 30
0.0
 10
87.3007855505492
 20
-76.91762053632617
 30
0.0
 10
87.3007855505492
 20
-76.8979708141089
 30
0.0
 10
87.3007855505492
 20
-76.87835636966915
 30
0.0
 10
87.3166252723673
 20
-76.86283414745085
 30
0.0
 10
87.33592221631945
 20
-76.86283414745085
 30
0.0
 10
87.35521916027157
 20
-76.86283414745085
 30
0.0
 10
87.37106108926808
 20
-76.87835636966915
 30
0.0
 10
87.37106108926808
 20
-76.8979708141089
 30
0.0
  0
ENDBLK
  5
16F
330
16C
100
AcDbEntity
  8
0
100
AcDbBlockEnd
  0
BLOCK
  5
173
330
171
100
AcDbEntity
  8
0
100
AcDbBlockBegin
  2
block 18
 70
     0
 10
0.0
 20
0.0
 30
0.0
  3
block 18
  1

  0
POLYLINE
  5
175
330
171
100
AcDbEntity
  8
_U+30EC_U+30A4_U+30E4_U+30FC 1
 62
   179
420
  2234388
370
     9
100
AcDb2dPolyline
 66
     1
 10
0.0
 20
0.0
 30
0.0
  0
VERTEX
  5
176
330
175
100
AcDbEntity
  8
_U+30EC_U+30A4_U+30E4_U+30FC 1
 62
   179
420
  2234388
370
     9
100
AcDbVertex
100
AcDb2dVertex
 10
58.58590989423781
 20
-98.89800441971992
 30
0.0
  0
VERTEX
  5
177
330
175
100
AcDbEntity
  8
_U+30EC_U+30A4_U+30E4_U+30FC 1
 62
   179
420
  2234388
370
     9
100
AcDbVertex
100
AcDb2dVertex
 10
48.92103375192045
 20
-98.89800441971992
 30
0.0
  0
SEQEND
  5
178
330
175
100
AcDbEntity
  8
_U+30EC_U+30A4_U+30E4_U+30FC 1
 62
   179
420
  2234388
370
     9
  0
POLYLINE
  5
179
330
171
100
AcDbEntity
  8
_U+30EC_U+30A4_U+30E4_U+30FC 1
 62
   179
420
  2234388
370
     9
100
AcDb2dPolyline
 66
     1
 10
0.0
 20
0.0
 30
0.0
  0
VERTEX
  5
17A
330
179
100
AcDbEntity
  8
_U+30EC_U+30A4_U+30E4_U+30FC 1
 62
   179
420
  2234388
370
     9
100
AcDbVertex
100
AcDb2dVertex
 10
58.58590989423781
 20
-98.89800441971992
 30
0.0
  0
VERTEX
  5
17B
330
179
100
AcDbEntity
  8
_U+30EC_U+30A4_U+30E4_U+30FC 1
 62
   179
420
  2234388
370
     9
100
AcDbVertex
100
AcDb2dVertex
 10
62.08613563827294
 20
-98.89800441971992
 30
0.0
  0
SEQEND
  5
17C
330
179
100
AcDbEntity
  8
_U+30EC_U+30A4_U+30E4_U+30FC 1
 62
   179
420
  2234388
370
     9
  0
POLYLINE
  5
17D
330
171
100
AcDbEntity
  8
_U+30EC_U+30A4_U+30E4_U+30FC 1
 62
   179
420
  2234388
370
     9
100
AcDb2dPolyline
 66
     1
 10
0.0
 20
0.0
 30
0.0
  0
VERTEX
  5
17E
330
17D
100
AcDbEntity
  8
_U+30EC_U+30A4_U+30E4_U+30FC 1
 62
   179
420
  2234388
370
     9
100
AcDbVertex
100
AcDb2dVertex
 10
58.58590989423781
 20
-97.43796303119622
 30
0.0
  0
VERTEX
  5
17F
330
17D
100
AcDbEntity
  8
_U+30EC_U+30A4_U+30E4_U+30FC 1
 62
   179
420
  2234388
370
     9
100
AcDbVertex
100
AcDb2dVertex
 10
58.58590989423781
 20
-99.89812941947024
 30
0.0
  0
SEQEND
  5
180
330
17D
100
AcDbEntity
  8
_U+30EC_U+30A4_U+30E4_U+30FC 1
 62
   179
420
  2234388
370
     9
  0
POLYLINE
  5
181
330
171
100
AcDbEntity
  8
_U+30EC_U+30A4_U+30E4_U+30FC 1
 62
   179
420
  2234388
370
     9
100
AcDb2dPolyline
 66
     1
 10
0.0
 20
0.0
 30
0.0
  0
VERTEX
  5
182
330
181
100
AcDbEntity
  8
_U+30EC_U+30A4_U+30E4_U+30FC 1
 62
   179
420
  2234388
370
     9
100
AcDbVertex
100
AcDb2dVertex
 10
62.08613563827294
 20
-97.43796303119622
 30
0.0
  0
VERTEX
  5
183
330
181
100
AcDbEntity
  8
_U+30EC_U+30A4_U+30E4_U+30FC 1
 62
   179
420
  2234388
370
     9
100
AcDbVertex
100
AcDb2dVertex
 10
62.08613563827294
 20
-99.89812941947024
 30
0.0
  0
SEQEND
  5
184
330
181
100
AcDbEntity
  8
_U+30EC_U+30A4_U+30E4_U+30FC 1
 62
   179
420
  2234388
370
     9
  0
INSERT
  5
186
330
171
100
AcDbEntity
  8
_U+30EC_U+30A4_U+30E4_U+30FC 1
100
AcDbBlockReference
  2
block 19
 10
0.0
 20
0.0
 30
0.0
  0
INSERT
  5
196
330
171
100
AcDbEntity
  8
_U+30EC_U+30A4_U+30E4_U+30FC 1
100
AcDbBlockReference
  2
block 20
 10
0.0
 20
0.0
 30
0.0
  0
INSERT
  5
19B
330
171
100
AcDbEntity
  8
_U+30EC_U+30A4_U+30E4_U+30FC 1
100
AcDbBlockReference
  2
block 21
 10
0.0
 20
0.0
 30
0.0
  0
INSERT
  5
1A0
330
171
100
AcDbEntity
  8
_U+30EC_U+30A4_U+30E4_U+30FC 1
100
AcDbBlockReference
  2
block 22
 10
0.0
 20
0.0
 30
0.0
  0
ENDBLK
  5
174
330
171
100
AcDbEntity
  8
0
100
AcDbBlockEnd
  0
BLOCK
  5
187
330
185
100
AcDbEntity
  8
0
100
AcDbBlockBegin
  2
block 19
 70
     0
 10
0.0
 20
0.0
 30
0.0
  3
block 19
  1

  0
SPLINE
  5
189
330
185
100
AcDbEntity
  8
_U+30EC_U+30A4_U+30E4_U+30FC 1
370
     0
100
AcDbSpline
210
0.0
220
0.0
230
1.0
 70
    11
 71
     3
 72
    62
 73
    58
 74
     0
 42
0.0000000001
 43
0.0000000001
 12
1.0
 22
0.0
 32
0.0
 13
1.0
 23
0.0
 33
0.0
 40
0.0
 40
0.0
 40
0.0
 40
0.0
 40
1.0
 40
1.0
 40
1.0
 40
2.0
 40
2.0
 40
2.0
 40
3.0
 40
3.0
 40
3.0
 40
4.0
 40
4.0
 40
4.0
 40
5.0
 40
5.0
 40
5.0
 40
6.0
 40
6.0
 40
6.0
 40
7.0
 40
7.0
 40
7.0
 40
8.0
 40
8.0
 40
8.0
 40
9.0
 40
9.0
 40
9.0
 40
10.0
 40
10.0
 40
10.0
 40
11.0
 40
11.0
 40
11.0
 40
12.0
 40
12.0
 40
12.0
 40
13.0
 40
13.0
 40
13.0
 40
14.0
 40
14.0
 40
14.0
 40
15.0
 40
15.0
 40
15.0
 40
16.0
 40
16.0
 40
16.0
 40
17.0
 40
17.0
 40
17.0
 40
18.0
 40
18.0
 40
18.0
 40
19.0
 40
19.0
 40
19.0
 40
19.0
 10
59.41997340094362
 20
-98.57623966719622
 30
0.0
 10
59.31817082935449
 20
-98.57623966719622
 30
0.0
 10
59.0852823745516
 20
-98.5552245847362
 30
0.0
 10
58.95195717927243
 20
-98.36884491898418
 30
0.0
 10
58.87289223788595
 20
-98.25687931571356
 30
0.0
 10
58.86824135898086
 20
-98.15731605618984
 30
0.0
 10
58.86376273485003
 20
-98.07291121680122
 30
0.0
 10
58.86376273485003
 20
-98.07291121680122
 30
0.0
 10
59.09889050171834
 20
-98.07291121680122
 30
0.0
 10
59.09889050171834
 20
-98.07291121680122
 30
0.0
 10
59.10112981378375
 20
-98.14663626018557
 30
0.0
 10
59.11249862888507
 20
-98.3815917722796
 30
0.0
 10
59.41549477681279
 20
-98.3815917722796
 30
0.0
 10
59.5624280992587
 20
-98.3815917722796
 30
0.0
 10
59.72520886093675
 20
-98.31165633392904
 30
0.0
 10
59.72520886093675
 20
-98.08324650325697
 30
0.0
 10
59.72520886093675
 20
-97.96680227585553
 30
0.0
 10
59.68438447943655
 20
-97.91822642951351
 30
0.0
 10
59.6506225436811
 20
-97.8865315510492
 30
0.0
 10
59.57138534752035
 20
-97.81246199811633
 30
0.0
 10
59.44701740050283
 20
-97.79971514482091
 30
0.0
 10
59.38827852247933
 20
-97.79971514482091
 30
0.0
 10
59.36795245911635
 20
-97.79971514482091
 30
0.0
 10
59.32953964445581
 20
-97.80212671166058
 30
0.0
 10
59.30008407805693
 20
-97.80626082624288
 30
0.0
 10
59.30008407805693
 20
-97.80626082624288
 30
0.0
 10
59.30008407805693
 20
-97.61161293132626
 30
0.0
 10
59.30008407805693
 20
-97.61161293132626
 30
0.0
 10
59.34073620478287
 20
-97.61781410319972
 30
0.0
 10
59.38603921041391
 20
-97.61988116049086
 30
0.0
 10
59.39275714661014
 20
-97.61988116049086
 30
0.0
 10
59.46286483973498
 20
-97.61988116049086
 30
0.0
 10
59.67542723117489
 20
-97.59886607803084
 30
0.0
 10
59.67542723117489
 20
-97.36184350864565
 30
0.0
 10
59.67542723117489
 20
-97.18407658160676
 30
0.0
 10
59.53521184492523
 20
-97.12929956339129
 30
0.0
 10
59.41773408887821
 20
-97.12929956339129
 30
0.0
 10
59.13506400431346
 20
-97.12929956339129
 30
0.0
 10
59.12610675605181
 20
-97.36184350864565
 30
0.0
 10
59.12145587714672
 20
-97.43384600428737
 30
0.0
 10
59.12145587714672
 20
-97.43384600428737
 30
0.0
 10
58.90441486157598
 20
-97.43384600428737
 30
0.0
 10
58.90441486157598
 20
-97.43384600428737
 30
0.0
 10
58.91354436461189
 20
-97.30913354772133
 30
0.0
 10
58.94282767623652
 20
-96.93258461118353
 30
0.0
 10
59.43116996127068
 20
-96.93258461118353
 30
0.0
 10
59.67094860704407
 20
-96.93258461118353
 30
0.0
 10
59.92864174934076
 20
-97.05936412504072
 30
0.0
 10
59.92864174934076
 20
-97.3556423367722
 30
0.0
 10
59.92864174934076
 20
-97.5416774929757
 30
0.0
 10
59.82683917775162
 20
-97.62435978462169
 30
0.0
 10
59.72055798203167
 20
-97.68568248425915
 30
0.0
 10
59.78618705102568
 20
-97.71324324814114
 30
0.0
 10
59.98066269116803
 20
-97.79351397294747
 30
0.0
 10
59.98066269116803
 20
-98.07049964996155
 30
0.0
 10
59.98066269116803
 20
-98.4091525361616
 30
0.0
 10
59.71607935790085
 20
-98.57623966719622
 30
0.0
 10
59.41997340094362
 20
-98.57623966719622
 30
0.0
  0
HATCH
  5
18A
330
185
100
AcDbEntity
  8
_U+30EC_U+30A4_U+30E4_U+30FC 1
 62
   179
420
  2234388
100
AcDbHatch
 10
0.0
 20
0.0
 30
0.0
210
0.0
220
0.0
230
1.0
  2
SOLID
 70
     1
 71
     0
 91
        1
 92
        1
 93
        1
 72
     4
 94
        3
 73
     0
 74
     1
 95
       62
 96
       58
 40
0.0
 40
0.0
 40
0.0
 40
0.0
 40
1.0
 40
1.0
 40
1.0
 40
2.0
 40
2.0
 40
2.0
 40
3.0
 40
3.0
 40
3.0
 40
4.0
 40
4.0
 40
4.0
 40
5.0
 40
5.0
 40
5.0
 40
6.0
 40
6.0
 40
6.0
 40
7.0
 40
7.0
 40
7.0
 40
8.0
 40
8.0
 40
8.0
 40
9.0
 40
9.0
 40
9.0
 40
10.0
 40
10.0
 40
10.0
 40
11.0
 40
11.0
 40
11.0
 40
12.0
 40
12.0
 40
12.0
 40
13.0
 40
13.0
 40
13.0
 40
14.0
 40
14.0
 40
14.0
 40
15.0
 40
15.0
 40
15.0
 40
16.0
 40
16.0
 40
16.0
 40
17.0
 40
17.0
 40
17.0
 40
18.0
 40
18.0
 40
18.0
 40
19.0
 40
19.0
 40
19.0
 40
19.0
 10
59.41997340094362
 20
-98.57623966719622
 10
59.31817082935449
 20
-98.57623966719622
 10
59.0852823745516
 20
-98.5552245847362
 10
58.95195717927243
 20
-98.36884491898418
 10
58.87289223788595
 20
-98.25687931571356
 10
58.86824135898086
 20
-98.15731605618984
 10
58.86376273485003
 20
-98.07291121680122
 10
58.86376273485003
 20
-98.07291121680122
 10
59.09889050171834
 20
-98.07291121680122
 10
59.09889050171834
 20
-98.07291121680122
 10
59.10112981378375
 20
-98.14663626018557
 10
59.11249862888507
 20
-98.3815917722796
 10
59.41549477681279
 20
-98.3815917722796
 10
59.5624280992587
 20
-98.3815917722796
 10
59.72520886093675
 20
-98.31165633392904
 10
59.72520886093675
 20
-98.08324650325697
 10
59.72520886093675
 20
-97.96680227585553
 10
59.68438447943655
 20
-97.91822642951351
 10
59.6506225436811
 20
-97.8865315510492
 10
59.57138534752035
 20
-97.81246199811633
 10
59.44701740050283
 20
-97.79971514482091
 10
59.38827852247933
 20
-97.79971514482091
 10
59.36795245911635
 20
-97.79971514482091
 10
59.32953964445581
 20
-97.80212671166058
 10
59.30008407805693
 20
-97.80626082624288
 10
59.30008407805693
 20
-97.80626082624288
 10
59.30008407805693
 20
-97.61161293132626
 10
59.30008407805693
 20
-97.61161293132626
 10
59.34073620478287
 20
-97.61781410319972
 10
59.38603921041391
 20
-97.61988116049086
 10
59.39275714661014
 20
-97.61988116049086
 10
59.46286483973498
 20
-97.61988116049086
 10
59.67542723117489
 20
-97.59886607803084
 10
59.67542723117489
 20
-97.36184350864565
 10
59.67542723117489
 20
-97.18407658160676
 10
59.53521184492523
 20
-97.12929956339129
 10
59.41773408887821
 20
-97.12929956339129
 10
59.13506400431346
 20
-97.12929956339129
 10
59.12610675605181
 20
-97.36184350864565
 10
59.12145587714672
 20
-97.43384600428737
 10
59.12145587714672
 20
-97.43384600428737
 10
58.90441486157598
 20
-97.43384600428737
 10
58.90441486157598
 20
-97.43384600428737
 10
58.91354436461189
 20
-97.30913354772133
 10
58.94282767623652
 20
-96.93258461118353
 10
59.43116996127068
 20
-96.93258461118353
 10
59.67094860704407
 20
-96.93258461118353
 10
59.92864174934076
 20
-97.05936412504072
 10
59.92864174934076
 20
-97.3556423367722
 10
59.92864174934076
 20
-97.5416774929757
 10
59.82683917775162
 20
-97.62435978462169
 10
59.72055798203167
 20
-97.68568248425915
 10
59.78618705102568
 20
-97.71324324814114
 10
59.98066269116803
 20
-97.79351397294747
 10
59.98066269116803
 20
-98.07049964996155
 10
59.98066269116803
 20
-98.4091525361616
 10
59.71607935790085
 20
-98.57623966719622
 10
59.41997340094362
 20
-98.57623966719622
 97
        0
 97
        0
 75
     2
 76
     1
 98
        0
  0
POLYLINE
  5
18B
330
185
100
AcDbEntity
  8
_U+30EC_U+30A4_U+30E4_U+30FC 1
370
     0
100
AcDb2dPolyline
 66
     1
 10
0.0
 20
0.0
 30
0.0
  0
VERTEX
  5
18C
330
18B
100
AcDbEntity
  8
_U+30EC_U+30A4_U+30E4_U+30FC 1
370
     0
100
AcDbVertex
100
AcDb2dVertex
 10
60.21647947713338
 20
-98.52559676356304
 30
0.0
  0
VERTEX
  5
18D
330
18B
100
AcDbEntity
  8
_U+30EC_U+30A4_U+30E4_U+30FC 1
370
     0
100
AcDbVertex
100
AcDb2dVertex
 10
60.21647947713338
 20
-98.27376028359129
 30
0.0
  0
VERTEX
  5
18E
330
18B
100
AcDbEntity
  8
_U+30EC_U+30A4_U+30E4_U+30FC 1
370
     0
100
AcDbVertex
100
AcDb2dVertex
 10
60.48554143453139
 20
-98.27376028359129
 30
0.0
  0
VERTEX
  5
18F
330
18B
100
AcDbEntity
  8
_U+30EC_U+30A4_U+30E4_U+30FC 1
370
     0
100
AcDbVertex
100
AcDb2dVertex
 10
60.48554143453139
 20
-98.52559676356304
 30
0.0
  0
VERTEX
  5
190
330
18B
100
AcDbEntity
  8
_U+30EC_U+30A4_U+30E4_U+30FC 1
370
     0
100
AcDbVertex
100
AcDb2dVertex
 10
60.21647947713338
 20
-98.52559676356304
 30
0.0
  0
SEQEND
  5
191
330
18B
100
AcDbEntity
  8
_U+30EC_U+30A4_U+30E4_U+30FC 1
370
     0
  0
HATCH
  5
192
330
185
100
AcDbEntity
  8
_U+30EC_U+30A4_U+30E4_U+30FC 1
 62
   179
420
  2234388
100
AcDbHatch
 10
0.0
 20
0.0
 30
0.0
210
0.0
220
0.0
230
1.0
  2
SOLID
 70
     1
 71
     0
 91
        1
 92
        1
 93
        4
 72
     1
 10
60.21647947713338
 20
-98.52559676356304
 11
60.21647947713338
 21
-98.27376028359129
 72
     1
 10
60.21647947713338
 20
-98.27376028359129
 11
60.48554143453139
 21
-98.27376028359129
 72
     1
 10
60.48554143453139
 20
-98.27376028359129
 11
60.48554143453139
 21
-98.52559676356304
 72
     1
 10
60.48554143453139
 20
-98.52559676356304
 11
60.21647947713338
 21
-98.52559676356304
 97
        0
 75
     2
 76
     1
 98
        0
  0
SPLINE
  5
193
330
185
100
AcDbEntity
  8
_U+30EC_U+30A4_U+30E4_U+30FC 1
370
     0
100
AcDbSpline
210
0.0
220
0.0
230
1.0
 70
    11
 71
     3
 72
    53
 73
    49
 74
     0
 42
0.0000000001
 43
0.0000000001
 12
1.0
 22
0.0
 32
0.0
 13
1.0
 23
0.0
 33
0.0
 40
0.0
 40
0.0
 40
0.0
 40
0.0
 40
1.0
 40
1.0
 40
1.0
 40
2.0
 40
2.0
 40
2.0
 40
3.0
 40
3.0
 40
3.0
 40
4.0
 40
4.0
 40
4.0
 40
5.0
 40
5.0
 40
5.0
 40
6.0
 40
6.0
 40
6.0
 40
7.0
 40
7.0
 40
7.0
 40
8.0
 40
8.0
 40
8.0
 40
9.0
 40
9.0
 40
9.0
 40
10.0
 40
10.0
 40
10.0
 40
11.0
 40
11.0
 40
11.0
 40
12.0
 40
12.0
 40
12.0
 40
13.0
 40
13.0
 40
13.0
 40
14.0
 40
14.0
 40
14.0
 40
15.0
 40
15.0
 40
15.0
 40
16.0
 40
16.0
 40
16.0
 40
16.0
 10
61.25224743477375
 20
-98.57623966719622
 30
0.0
 10
61.16870386925644
 20
-98.57623966719622
 30
0.0
 10
61.06018336147107
 20
-98.5593586993185
 30
0.0
 10
60.9516628536857
 20
-98.49596894238991
 30
0.0
 10
60.76614446180499
 20
-98.3857258868619
 30
0.0
 10
60.74357908637661
 20
-98.25481225842242
 30
0.0
 10
60.72325302301363
 20
-98.14663626018557
 30
0.0
 10
60.72325302301363
 20
-98.14663626018557
 30
0.0
 10
60.96062010194735
 20
-98.14663626018557
 30
0.0
 10
60.96062010194735
 20
-98.14663626018557
 30
0.0
 10
61.01935897997086
 20
-98.34576277923301
 30
0.0
 10
61.1550957420897
 20
-98.37539060040616
 30
0.0
 10
61.25448674683916
 20
-98.37539060040616
 30
0.0
 10
61.40383163612474
 20
-98.37539060040616
 30
0.0
 10
61.56661239780279
 20
-98.27582734088243
 30
0.0
 10
61.56661239780279
 20
-98.04328339562807
 30
0.0
 10
61.56661239780279
 20
-97.78731280107401
 30
0.0
 10
61.37437606972586
 20
-97.71737736272344
 30
0.0
 10
61.24552949857751
 20
-97.71737736272344
 30
0.0
 10
61.2115953080478
 20
-97.71737736272344
 30
0.0
 10
61.06018336147107
 20
-97.71737736272344
 30
0.0
 10
60.96509872607817
 20
-97.84622393387178
 30
0.0
 10
60.96509872607817
 20
-97.84622393387178
 30
0.0
 10
60.77751327690632
 20
-97.8272759087029
 30
0.0
 10
60.77751327690632
 20
-97.8272759087029
 30
0.0
 10
60.77751327690632
 20
-97.8272759087029
 30
0.0
 10
60.90635984805466
 20
-96.98116045752555
 30
0.0
 10
60.90635984805466
 20
-96.98116045752555
 30
0.0
 10
60.90635984805466
 20
-96.98116045752555
 30
0.0
 10
61.7383504077425
 20
-96.98116045752555
 30
0.0
 10
61.7383504077425
 20
-96.98116045752555
 30
0.0
 10
61.7383504077425
 20
-96.98116045752555
 30
0.0
 10
61.7383504077425
 20
-97.17580835244216
 30
0.0
 10
61.7383504077425
 20
-97.17580835244216
 30
0.0
 10
61.7383504077425
 20
-97.17580835244216
 30
0.0
 10
61.08050942483404
 20
-97.17580835244216
 30
0.0
 10
61.08050942483404
 20
-97.17580835244216
 30
0.0
 10
61.08050942483404
 20
-97.17580835244216
 30
0.0
 10
61.01040173170921
 20
-97.59886607803084
 30
0.0
 10
61.01040173170921
 20
-97.59886607803084
 30
0.0
 10
61.07585854592895
 20
-97.5651041422754
 30
0.0
 10
61.16405299035135
 20
-97.52479652509797
 30
0.0
 10
61.29066024943428
 20
-97.52479652509797
 30
0.0
 10
61.5619615188977
 20
-97.52479652509797
 30
0.0
 10
61.81517603706357
 20
-97.71083168130146
 30
0.0
 10
61.81517603706357
 20
-98.02399086091067
 30
0.0
 10
61.81517603706357
 20
-98.34128415510219
 30
0.0
 10
61.57556964606444
 20
-98.57623966719622
 30
0.0
 10
61.25224743477375
 20
-98.57623966719622
 30
0.0
  0
HATCH
  5
194
330
185
100
AcDbEntity
  8
_U+30EC_U+30A4_U+30E4_U+30FC 1
 62
   179
420
  2234388
100
AcDbHatch
 10
0.0
 20
0.0
 30
0.0
210
0.0
220
0.0
230
1.0
  2
SOLID
 70
     1
 71
     0
 91
        1
 92
        1
 93
        1
 72
     4
 94
        3
 73
     0
 74
     1
 95
       53
 96
       49
 40
0.0
 40
0.0
 40
0.0
 40
0.0
 40
1.0
 40
1.0
 40
1.0
 40
2.0
 40
2.0
 40
2.0
 40
3.0
 40
3.0
 40
3.0
 40
4.0
 40
4.0
 40
4.0
 40
5.0
 40
5.0
 40
5.0
 40
6.0
 40
6.0
 40
6.0
 40
7.0
 40
7.0
 40
7.0
 40
8.0
 40
8.0
 40
8.0
 40
9.0
 40
9.0
 40
9.0
 40
10.0
 40
10.0
 40
10.0
 40
11.0
 40
11.0
 40
11.0
 40
12.0
 40
12.0
 40
12.0
 40
13.0
 40
13.0
 40
13.0
 40
14.0
 40
14.0
 40
14.0
 40
15.0
 40
15.0
 40
15.0
 40
16.0
 40
16.0
 40
16.0
 40
16.0
 10
61.25224743477375
 20
-98.57623966719622
 10
61.16870386925644
 20
-98.57623966719622
 10
61.06018336147107
 20
-98.5593586993185
 10
60.9516628536857
 20
-98.49596894238991
 10
60.76614446180499
 20
-98.3857258868619
 10
60.74357908637661
 20
-98.25481225842242
 10
60.72325302301363
 20
-98.14663626018557
 10
60.72325302301363
 20
-98.14663626018557
 10
60.96062010194735
 20
-98.14663626018557
 10
60.96062010194735
 20
-98.14663626018557
 10
61.01935897997086
 20
-98.34576277923301
 10
61.1550957420897
 20
-98.37539060040616
 10
61.25448674683916
 20
-98.37539060040616
 10
61.40383163612474
 20
-98.37539060040616
 10
61.56661239780279
 20
-98.27582734088243
 10
61.56661239780279
 20
-98.04328339562807
 10
61.56661239780279
 20
-97.78731280107401
 10
61.37437606972586
 20
-97.71737736272344
 10
61.24552949857751
 20
-97.71737736272344
 10
61.2115953080478
 20
-97.71737736272344
 10
61.06018336147107
 20
-97.71737736272344
 10
60.96509872607817
 20
-97.84622393387178
 10
60.96509872607817
 20
-97.84622393387178
 10
60.77751327690632
 20
-97.8272759087029
 10
60.77751327690632
 20
-97.8272759087029
 10
60.77751327690632
 20
-97.8272759087029
 10
60.90635984805466
 20
-96.98116045752555
 10
60.90635984805466
 20
-96.98116045752555
 10
60.90635984805466
 20
-96.98116045752555
 10
61.7383504077425
 20
-96.98116045752555
 10
61.7383504077425
 20
-96.98116045752555
 10
61.7383504077425
 20
-96.98116045752555
 10
61.7383504077425
 20
-97.17580835244216
 10
61.7383504077425
 20
-97.17580835244216
 10
61.7383504077425
 20
-97.17580835244216
 10
61.08050942483404
 20
-97.17580835244216
 10
61.08050942483404
 20
-97.17580835244216
 10
61.08050942483404
 20
-97.17580835244216
 10
61.01040173170921
 20
-97.59886607803084
 10
61.01040173170921
 20
-97.59886607803084
 10
61.07585854592895
 20
-97.5651041422754
 10
61.16405299035135
 20
-97.52479652509797
 10
61.29066024943428
 20
-97.52479652509797
 10
61.5619615188977
 20
-97.52479652509797
 10
61.81517603706357
 20
-97.71083168130146
 10
61.81517603706357
 20
-98.02399086091067
 10
61.81517603706357
 20
-98.34128415510219
 10
61.57556964606444
 20
-98.57623966719622
 10
61.25224743477375
 20
-98.57623966719622
 97
        0
 97
        0
 75
     2
 76
     1
 98
        0
  0
ENDBLK
  5
188
330
185
100
AcDbEntity
  8
0
100
AcDbBlockEnd
  0
BLOCK
  5
197
330
195
100
AcDbEntity
  8
0
100
AcDbBlockBegin
  2
block 20
 70
     0
 10
0.0
 20
0.0
 30
0.0
  3
block 20
  1

  0
SPLINE
  5
199
330
195
100
AcDbEntity
  8
_U+30EC_U+30A4_U+30E4_U+30FC 1
 62
   179
420
  2234388
370
    25
100
AcDbSpline
210
0.0
220
0.0
230
1.0
 70
    11
 71
     3
 72
    17
 73
    13
 74
     0
 42
0.0000000001
 43
0.0000000001
 12
1.0
 22
0.0
 32
0.0
 13
1.0
 23
0.0
 33
0.0
 40
0.0
 40
0.0
 40
0.0
 40
0.0
 40
1.0
 40
1.0
 40
1.0
 40
2.0
 40
2.0
 40
2.0
 40
3.0
 40
3.0
 40
3.0
 40
4.0
 40
4.0
 40
4.0
 40
4.0
 10
58.62104656000806
 20
-94.89792775405344
 30
0.0
 10
58.62104656000806
 20
-94.91754219849287
 30
0.0
 10
58.60520831868203
 20
-94.93338192071141
 30
0.0
 10
58.58590989423781
 20
-94.93338192071141
 30
0.0
 10
58.56594267252499
 20
-94.93338192071141
 30
0.0
 10
58.55077322846755
 20
-94.91754219849287
 30
0.0
 10
58.55077322846755
 20
-94.89792775405344
 30
0.0
 10
58.55077322846755
 20
-94.87863080961361
 30
0.0
 10
58.56594267252499
 20
-94.86275580961755
 30
0.0
 10
58.58590989423781
 20
-94.86275580961755
 30
0.0
 10
58.60520831868203
 20
-94.86275580961755
 30
0.0
 10
58.62104656000806
 20
-94.87863080961361
 30
0.0
 10
58.62104656000806
 20
-94.89792775405344
 30
0.0
  0
ENDBLK
  5
198
330
195
100
AcDbEntity
  8
0
100
AcDbBlockEnd
  0
BLOCK
  5
19C
330
19A
100
AcDbEntity
  8
0
100
AcDbBlockBegin
  2
block 21
 70
     0
 10
0.0
 20
0.0
 30
0.0
  3
block 21
  1

  0
SPLINE
  5
19E
330
19A
100
AcDbEntity
  8
_U+30EC_U+30A4_U+30E4_U+30FC 1
 62
   179
420
  2234388
370
    25
100
AcDbSpline
210
0.0
220
0.0
230
1.0
 70
    11
 71
     3
 72
    17
 73
    13
 74
     0
 42
0.0000000001
 43
0.0000000001
 12
1.0
 22
0.0
 32
0.0
 13
1.0
 23
0.0
 33
0.0
 40
0.0
 40
0.0
 40
0.0
 40
0.0
 40
1.0
 40
1.0
 40
1.0
 40
2.0
 40
2.0
 40
2.0
 40
3.0
 40
3.0
 40
3.0
 40
4.0
 40
4.0
 40
4.0
 40
4.0
 10
62.1212723040432
 20
-94.89792775405344
 30
0.0
 10
62.1212723040432
 20
-94.91754219849287
 30
0.0
 10
62.10543258222508
 20
-94.93338192071141
 30
0.0
 10
62.08613563827294
 20
-94.93338192071141
 30
0.0
 10
62.06613313878325
 20
-94.93338192071141
 30
0.0
 10
62.05029341696513
 20
-94.91754219849287
 30
0.0
 10
62.05029341696513
 20
-94.89792775405344
 30
0.0
 10
62.05029341696513
 20
-94.87863080961361
 30
0.0
 10
62.06613313878325
 20
-94.86275580961755
 30
0.0
 10
62.08613563827294
 20
-94.86275580961755
 30
0.0
 10
62.10543258222508
 20
-94.86275580961755
 30
0.0
 10
62.1212723040432
 20
-94.87863080961361
 30
0.0
 10
62.1212723040432
 20
-94.89792775405344
 30
0.0
  0
ENDBLK
  5
19D
330
19A
100
AcDbEntity
  8
0
100
AcDbBlockEnd
  0
BLOCK
  5
1A1
330
19F
100
AcDbEntity
  8
0
100
AcDbBlockBegin
  2
block 22
 70
     0
 10
0.0
 20
0.0
 30
0.0
  3
block 22
  1

  0
SPLINE
  5
1A3
330
19F
100
AcDbEntity
  8
_U+30EC_U+30A4_U+30E4_U+30FC 1
 62
   179
420
  2234388
370
     9
100
AcDbSpline
210
0.0
220
0.0
230
1.0
 70
    11
 71
     3
 72
    17
 73
    13
 74
     0
 42
0.0000000001
 43
0.0000000001
 12
1.0
 22
0.0
 32
0.0
 13
1.0
 23
0.0
 33
0.0
 40
0.0
 40
0.0
 40
0.0
 40
0.0
 40
1.0
 40
1.0
 40
1.0
 40
2.0
 40
2.0
 40
2.0
 40
3.0
 40
3.0
 40
3.0
 40
4.0
 40
4.0
 40
4.0
 40
4.0
 10
62.1212723040432
 20
-98.89800441971992
 30
0.0
 10
62.1212723040432
 20
-98.91730136415975
 30
0.0
 10
62.10543258222508
 20
-98.93314108637766
 30
0.0
 10
62.08613563827294
 20
-98.93314108637766
 30
0.0
 10
62.06613313878325
 20
-98.93314108637766
 30
0.0
 10
62.05029341696513
 20
-98.91730136415975
 30
0.0
 10
62.05029341696513
 20
-98.89800441971992
 30
0.0
 10
62.05029341696513
 20
-98.8783899752805
 30
0.0
 10
62.06613313878325
 20
-98.86251497528444
 30
0.0
 10
62.08613563827294
 20
-98.86251497528444
 30
0.0
 10
62.10543258222508
 20
-98.86251497528444
 30
0.0
 10
62.1212723040432
 20
-98.8783899752805
 30
0.0
 10
62.1212723040432
 20
-98.89800441971992
 30
0.0
  0
ENDBLK
  5
1A2
330
19F
100
AcDbEntity
  8
0
100
AcDbBlockEnd
  0
BLOCK
  5
1A6
330
1A4
100
AcDbEntity
  8
0
100
AcDbBlockBegin
  2
block 23
 70
     0
 10
0.0
 20
0.0
 30
0.0
  3
block 23
  1

  0
POLYLINE
  5
1A8
330
1A4
100
AcDbEntity
  8
_U+30EC_U+30A4_U+30E4_U+30FC 1
 62
   179
420
  2234388
370
     9
100
AcDb2dPolyline
 66
     1
 10
0.0
 20
0.0
 30
0.0
  0
VERTEX
  5
1A9
330
1A8
100
AcDbEntity
  8
_U+30EC_U+30A4_U+30E4_U+30FC 1
 62
   179
420
  2234388
370
     9
100
AcDbVertex
100
AcDb2dVertex
 10
54.33603139155013
 20
-102.8981163631646
 30
0.0
  0
VERTEX
  5
1AA
330
1A8
100
AcDbEntity
  8
_U+30EC_U+30A4_U+30E4_U+30FC 1
 62
   179
420
  2234388
370
     9
100
AcDbVertex
100
AcDb2dVertex
 10
66.33601414096061
 20
-102.8981163631646
 30
0.0
  0
SEQEND
  5
1AB
330
1A8
100
AcDbEntity
  8
_U+30EC_U+30A4_U+30E4_U+30FC 1
 62
   179
420
  2234388
370
     9
  0
POLYLINE
  5
1AC
330
1A4
100
AcDbEntity
  8
_U+30EC_U+30A4_U+30E4_U+30FC 1
 62
   179
420
  2234388
370
     9
100
AcDb2dPolyline
 66
     1
 10
0.0
 20
0.0
 30
0.0
  0
VERTEX
  5
1AD
330
1AC
100
AcDbEntity
  8
_U+30EC_U+30A4_U+30E4_U+30FC 1
 62
   179
420
  2234388
370
     9
100
AcDbVertex
100
AcDb2dVertex
 10
54.33603139155013
 20
-96.43787330922407
 30
0.0
  0
VERTEX
  5
1AE
330
1AC
100
AcDbEntity
  8
_U+30EC_U+30A4_U+30E4_U+30FC 1
 62
   179
420
  2234388
370
     9
100
AcDbVertex
100
AcDb2dVertex
 10
54.33603139155013
 20
-103.8978885851365
 30
0.0
  0
SEQEND
  5
1AF
330
1AC
100
AcDbEntity
  8
_U+30EC_U+30A4_U+30E4_U+30FC 1
 62
   179
420
  2234388
370
     9
  0
POLYLINE
  5
1B0
330
1A4
100
AcDbEntity
  8
_U+30EC_U+30A4_U+30E4_U+30FC 1
 62
   179
420
  2234388
370
     9
100
AcDb2dPolyline
 66
     1
 10
0.0
 20
0.0
 30
0.0
  0
VERTEX
  5
1B1
330
1B0
100
AcDbEntity
  8
_U+30EC_U+30A4_U+30E4_U+30FC 1
 62
   179
420
  2234388
370
     9
100
AcDbVertex
100
AcDb2dVertex
 10
66.33601414096061
 20
-96.43787330922407
 30
0.0
  0
VERTEX
  5
1B2
330
1B0
100
AcDbEntity
  8
_U+30EC_U+30A4_U+30E4_U+30FC 1
 62
   179
420
  2234388
370
     9
100
AcDbVertex
100
AcDb2dVertex
 10
66.33601414096061
 20
-103.8978885851365
 30
0.0
  0
SEQEND
  5
1B3
330
1B0
100
AcDbEntity
  8
_U+30EC_U+30A4_U+30E4_U+30FC 1
 62
   179
420
  2234388
370
     9
  0
INSERT
  5
1B5
330
1A4
100
AcDbEntity
  8
_U+30EC_U+30A4_U+30E4_U+30FC 1
100
AcDbBlockReference
  2
block 24
 10
0.0
 20
0.0
 30
0.0
  0
INSERT
  5
1BD
330
1A4
100
AcDbEntity
  8
_U+30EC_U+30A4_U+30E4_U+30FC 1
100
AcDbBlockReference
  2
block 25
 10
0.0
 20
0.0
 30
0.0
  0
INSERT
  5
1C2
330
1A4
100
AcDbEntity
  8
_U+30EC_U+30A4_U+30E4_U+30FC 1
100
AcDbBlockReference
  2
block 26
 10
0.0
 20
0.0
 30
0.0
  0
INSERT
  5
1C7
330
1A4
100
AcDbEntity
  8
_U+30EC_U+30A4_U+30E4_U+30FC 1
100
AcDbBlockReference
  2
block 27
 10
0.0
 20
0.0
 30
0.0
  0
ENDBLK
  5
1A7
330
1A4
100
AcDbEntity
  8
0
100
AcDbBlockEnd
  0
BLOCK
  5
1B6
330
1B4
100
AcDbEntity
  8
0
100
AcDbBlockBegin
  2
block 24
 70
     0
 10
0.0
 20
0.0
 30
0.0
  3
block 24
  1

  0
SPLINE
  5
1B8
330
1B4
100
AcDbEntity
  8
_U+30EC_U+30A4_U+30E4_U+30FC 1
370
     0
100
AcDbSpline
210
0.0
220
0.0
230
1.0
 70
    11
 71
     3
 72
    26
 73
    22
 74
     0
 42
0.0000000001
 43
0.0000000001
 12
1.0
 22
0.0
 32
0.0
 13
1.0
 23
0.0
 33
0.0
 40
0.0
 40
0.0
 40
0.0
 40
0.0
 40
1.0
 40
1.0
 40
1.0
 40
2.0
 40
2.0
 40
2.0
 40
3.0
 40
3.0
 40
3.0
 40
4.0
 40
4.0
 40
4.0
 40
5.0
 40
5.0
 40
5.0
 40
6.0
 40
6.0
 40
6.0
 40
7.0
 40
7.0
 40
7.0
 40
7.0
 10
59.65441214871487
 20
-102.5253526219381
 30
0.0
 10
59.65441214871487
 20
-102.5253526219381
 30
0.0
 10
59.65441214871487
 20
-101.420855009367
 30
0.0
 10
59.65441214871487
 20
-101.420855009367
 30
0.0
 10
59.65441214871487
 20
-101.420855009367
 30
0.0
 10
59.30163437102529
 20
-101.420855009367
 30
0.0
 10
59.30163437102529
 20
-101.420855009367
 30
0.0
 10
59.30163437102529
 20
-101.420855009367
 30
0.0
 10
59.30163437102529
 20
-101.2727159035013
 30
0.0
 10
59.30163437102529
 20
-101.2727159035013
 30
0.0
 10
59.65665146078028
 20
-101.2579019929147
 30
0.0
 10
59.70626083576789
 20
-101.0952934860109
 30
0.0
 10
59.73795571423218
 20
-100.9809163159006
 30
0.0
 10
59.73795571423218
 20
-100.9809163159006
 30
0.0
 10
59.894018539714
 20
-100.9809163159006
 30
0.0
 10
59.894018539714
 20
-100.9809163159006
 30
0.0
 10
59.894018539714
 20
-100.9809163159006
 30
0.0
 10
59.894018539714
 20
-102.5253526219381
 30
0.0
 10
59.894018539714
 20
-102.5253526219381
 30
0.0
 10
59.894018539714
 20
-102.5253526219381
 30
0.0
 10
59.65441214871487
 20
-102.5253526219381
 30
0.0
 10
59.65441214871487
 20
-102.5253526219381
 30
0.0
  0
HATCH
  5
1B9
330
1B4
100
AcDbEntity
  8
_U+30EC_U+30A4_U+30E4_U+30FC 1
 62
   179
420
  2234388
100
AcDbHatch
 10
0.0
 20
0.0
 30
0.0
210
0.0
220
0.0
230
1.0
  2
SOLID
 70
     1
 71
     0
 91
        1
 92
        1
 93
        1
 72
     4
 94
        3
 73
     0
 74
     1
 95
       26
 96
       22
 40
0.0
 40
0.0
 40
0.0
 40
0.0
 40
1.0
 40
1.0
 40
1.0
 40
2.0
 40
2.0
 40
2.0
 40
3.0
 40
3.0
 40
3.0
 40
4.0
 40
4.0
 40
4.0
 40
5.0
 40
5.0
 40
5.0
 40
6.0
 40
6.0
 40
6.0
 40
7.0
 40
7.0
 40
7.0
 40
7.0
 10
59.65441214871487
 20
-102.5253526219381
 10
59.65441214871487
 20
-102.5253526219381
 10
59.65441214871487
 20
-101.420855009367
 10
59.65441214871487
 20
-101.420855009367
 10
59.65441214871487
 20
-101.420855009367
 10
59.30163437102529
 20
-101.420855009367
 10
59.30163437102529
 20
-101.420855009367
 10
59.30163437102529
 20
-101.420855009367
 10
59.30163437102529
 20
-101.2727159035013
 10
59.30163437102529
 20
-101.2727159035013
 10
59.65665146078028
 20
-101.2579019929147
 10
59.70626083576789
 20
-101.0952934860109
 10
59.73795571423218
 20
-100.9809163159006
 10
59.73795571423218
 20
-100.9809163159006
 10
59.894018539714
 20
-100.9809163159006
 10
59.894018539714
 20
-100.9809163159006
 10
59.894018539714
 20
-100.9809163159006
 10
59.894018539714
 20
-102.5253526219381
 10
59.894018539714
 20
-102.5253526219381
 10
59.894018539714
 20
-102.5253526219381
 10
59.65441214871487
 20
-102.5253526219381
 10
59.65441214871487
 20
-102.5253526219381
 97
        0
 97
        0
 75
     2
 76
     1
 98
        0
  0
SPLINE
  5
1BA
330
1B4
100
AcDbEntity
  8
_U+30EC_U+30A4_U+30E4_U+30FC 1
370
     0
100
AcDbSpline
210
0.0
220
0.0
230
1.0
 70
    11
 71
     3
 72
    44
 73
    40
 74
     0
 42
0.0000000001
 43
0.0000000001
 12
1.0
 22
0.0
 32
0.0
 13
1.0
 23
0.0
 33
0.0
 40
0.0
 40
0.0
 40
0.0
 40
0.0
 40
1.0
 40
1.0
 40
1.0
 40
2.0
 40
2.0
 40
2.0
 40
3.0
 40
3.0
 40
3.0
 40
4.0
 40
4.0
 40
4.0
 40
5.0
 40
5.0
 40
5.0
 40
6.0
 40
6.0
 40
6.0
 40
7.0
 40
7.0
 40
7.0
 40
8.0
 40
8.0
 40
8.0
 40
9.0
 40
9.0
 40
9.0
 40
10.0
 40
10.0
 40
10.0
 40
11.0
 40
11.0
 40
11.0
 40
12.0
 40
12.0
 40
12.0
 40
13.0
 40
13.0
 40
13.0
 40
13.0
 10
61.06362845695632
 20
-101.9434759944794
 30
0.0
 10
60.83074000215343
 20
-102.1019503868009
 30
0.0
 10
60.73117674262971
 20
-102.1760199397338
 30
0.0
 10
60.67915580080243
 20
-102.3200249310172
 30
0.0
 10
60.67915580080243
 20
-102.3200249310172
 30
0.0
 10
61.51114636049027
 20
-102.3200249310172
 30
0.0
 10
61.51114636049027
 20
-102.3200249310172
 30
0.0
 10
61.51114636049027
 20
-102.3200249310172
 30
0.0
 10
61.51114636049027
 20
-102.5253526219381
 30
0.0
 10
61.51114636049027
 20
-102.5253526219381
 30
0.0
 10
61.51114636049027
 20
-102.5253526219381
 30
0.0
 10
60.4125054102441
 20
-102.5253526219381
 30
0.0
 10
60.4125054102441
 20
-102.5253526219381
 30
0.0
 10
60.44643960077381
 20
-102.1677517105692
 30
0.0
 10
60.51654729389865
 20
-102.089548043054
 30
0.0
 10
60.92789169483748
 20
-101.7912027740314
 30
0.0
 10
61.20143227636631
 20
-101.5924207645324
 30
0.0
 10
61.27153996949114
 20
-101.524552383473
 30
0.0
 10
61.27153996949114
 20
-101.3870930736116
 30
0.0
 10
61.27153996949114
 20
-101.268581788919
 30
0.0
 10
61.19471434017007
 20
-101.137323650931
 30
0.0
 10
60.98439126079557
 20
-101.137323650931
 30
0.0
 10
60.70637205513591
 20
-101.137323650931
 30
0.0
 10
60.69741480687426
 20
-101.3681450484427
 30
0.0
 10
60.69276392796917
 20
-101.4842447662956
 30
0.0
 10
60.69276392796917
 20
-101.4842447662956
 30
0.0
 10
60.45315753697005
 20
-101.4842447662956
 30
0.0
 10
60.45315753697005
 20
-101.4842447662956
 30
0.0
 10
60.4621147852317
 20
-101.3574652524384
 30
0.0
 10
60.47348360033302
 20
-101.2454996491678
 30
0.0
 10
60.55943873269
 20
-101.1269883644752
 30
0.0
 10
60.67691648873702
 20
-100.966102405314
 30
0.0
 10
60.8758707530102
 20
-100.9323404695586
 30
0.0
 10
61.00023870002772
 20
-100.9323404695586
 30
0.0
 10
61.29651691175921
 20
-100.9323404695586
 30
0.0
 10
61.51803655146077
 20
-101.1163085684709
 30
0.0
 10
61.51803655146077
 20
-101.3891601309027
 30
0.0
 10
61.51803655146077
 20
-101.6175699615748
 30
0.0
 10
61.39366860444325
 20
-101.7171332210985
 30
0.0
 10
61.06362845695632
 20
-101.9434759944794
 30
0.0
  0
HATCH
  5
1BB
330
1B4
100
AcDbEntity
  8
_U+30EC_U+30A4_U+30E4_U+30FC 1
 62
   179
420
  2234388
100
AcDbHatch
 10
0.0
 20
0.0
 30
0.0
210
0.0
220
0.0
230
1.0
  2
SOLID
 70
     1
 71
     0
 91
        1
 92
        1
 93
        1
 72
     4
 94
        3
 73
     0
 74
     1
 95
       44
 96
       40
 40
0.0
 40
0.0
 40
0.0
 40
0.0
 40
1.0
 40
1.0
 40
1.0
 40
2.0
 40
2.0
 40
2.0
 40
3.0
 40
3.0
 40
3.0
 40
4.0
 40
4.0
 40
4.0
 40
5.0
 40
5.0
 40
5.0
 40
6.0
 40
6.0
 40
6.0
 40
7.0
 40
7.0
 40
7.0
 40
8.0
 40
8.0
 40
8.0
 40
9.0
 40
9.0
 40
9.0
 40
10.0
 40
10.0
 40
10.0
 40
11.0
 40
11.0
 40
11.0
 40
12.0
 40
12.0
 40
12.0
 40
13.0
 40
13.0
 40
13.0
 40
13.0
 10
61.06362845695632
 20
-101.9434759944794
 10
60.83074000215343
 20
-102.1019503868009
 10
60.73117674262971
 20
-102.1760199397338
 10
60.67915580080243
 20
-102.3200249310172
 10
60.67915580080243
 20
-102.3200249310172
 10
61.51114636049027
 20
-102.3200249310172
 10
61.51114636049027
 20
-102.3200249310172
 10
61.51114636049027
 20
-102.3200249310172
 10
61.51114636049027
 20
-102.5253526219381
 10
61.51114636049027
 20
-102.5253526219381
 10
61.51114636049027
 20
-102.5253526219381
 10
60.4125054102441
 20
-102.5253526219381
 10
60.4125054102441
 20
-102.5253526219381
 10
60.44643960077381
 20
-102.1677517105692
 10
60.51654729389865
 20
-102.089548043054
 10
60.92789169483748
 20
-101.7912027740314
 10
61.20143227636631
 20
-101.5924207645324
 10
61.27153996949114
 20
-101.524552383473
 10
61.27153996949114
 20
-101.3870930736116
 10
61.27153996949114
 20
-101.268581788919
 10
61.19471434017007
 20
-101.137323650931
 10
60.98439126079557
 20
-101.137323650931
 10
60.70637205513591
 20
-101.137323650931
 10
60.69741480687426
 20
-101.3681450484427
 10
60.69276392796917
 20
-101.4842447662956
 10
60.69276392796917
 20
-101.4842447662956
 10
60.45315753697005
 20
-101.4842447662956
 10
60.45315753697005
 20
-101.4842447662956
 10
60.4621147852317
 20
-101.3574652524384
 10
60.47348360033302
 20
-101.2454996491678
 10
60.55943873269
 20
-101.1269883644752
 10
60.67691648873702
 20
-100.966102405314
 10
60.8758707530102
 20
-100.9323404695586
 10
61.00023870002772
 20
-100.9323404695586
 10
61.29651691175921
 20
-100.9323404695586
 10
61.51803655146077
 20
-101.1163085684709
 10
61.51803655146077
 20
-101.3891601309027
 10
61.51803655146077
 20
-101.6175699615748
 10
61.39366860444325
 20
-101.7171332210985
 10
61.06362845695632
 20
-101.9434759944794
 97
        0
 97
        0
 75
     2
 76
     1
 98
        0
  0
ENDBLK
  5
1B7
330
1B4
100
AcDbEntity
  8
0
100
AcDbBlockEnd
  0
BLOCK
  5
1BE
330
1BC
100
AcDbEntity
  8
0
100
AcDbBlockBegin
  2
block 25
 70
     0
 10
0.0
 20
0.0
 30
0.0
  3
block 25
  1

  0
SPLINE
  5
1C0
330
1BC
100
AcDbEntity
  8
_U+30EC_U+30A4_U+30E4_U+30FC 1
 62
   179
420
  2234388
370
    25
100
AcDbSpline
210
0.0
220
0.0
230
1.0
 70
    11
 71
     3
 72
    17
 73
    13
 74
     0
 42
0.0000000001
 43
0.0000000001
 12
1.0
 22
0.0
 32
0.0
 13
1.0
 23
0.0
 33
0.0
 40
0.0
 40
0.0
 40
0.0
 40
0.0
 40
1.0
 40
1.0
 40
1.0
 40
2.0
 40
2.0
 40
2.0
 40
3.0
 40
3.0
 40
3.0
 40
4.0
 40
4.0
 40
4.0
 40
4.0
 10
54.37116943085151
 20
-93.89780275430314
 30
0.0
 10
54.37116943085151
 20
-93.91745247652074
 30
0.0
 10
54.35532833550226
 20
-93.93329219873863
 30
0.0
 10
54.33603139155013
 20
-93.93329219873863
 30
0.0
 10
54.31606416983731
 20
-93.93329219873863
 30
0.0
 10
54.30022444801919
 20
-93.91745247652074
 30
0.0
 10
54.30022444801919
 20
-93.89780275430314
 30
0.0
 10
54.30022444801919
 20
-93.87850580986395
 30
0.0
 10
54.31606416983731
 20
-93.86266608764542
 30
0.0
 10
54.33603139155013
 20
-93.86266608764542
 30
0.0
 10
54.35532833550226
 20
-93.86266608764542
 30
0.0
 10
54.37116943085151
 20
-93.87850580986395
 30
0.0
 10
54.37116943085151
 20
-93.89780275430314
 30
0.0
  0
ENDBLK
  5
1BF
330
1BC
100
AcDbEntity
  8
0
100
AcDbBlockEnd
  0
BLOCK
  5
1C3
330
1C1
100
AcDbEntity
  8
0
100
AcDbBlockBegin
  2
block 26
 70
     0
 10
0.0
 20
0.0
 30
0.0
  3
block 26
  1

  0
SPLINE
  5
1C5
330
1C1
100
AcDbEntity
  8
_U+30EC_U+30A4_U+30E4_U+30FC 1
 62
   179
420
  2234388
370
    25
100
AcDbSpline
210
0.0
220
0.0
230
1.0
 70
    11
 71
     3
 72
    17
 73
    13
 74
     0
 42
0.0000000001
 43
0.0000000001
 12
1.0
 22
0.0
 32
0.0
 13
1.0
 23
0.0
 33
0.0
 40
0.0
 40
0.0
 40
0.0
 40
0.0
 40
1.0
 40
1.0
 40
1.0
 40
2.0
 40
2.0
 40
2.0
 40
3.0
 40
3.0
 40
3.0
 40
4.0
 40
4.0
 40
4.0
 40
4.0
 10
66.37115080673088
 20
-93.89780275430314
 30
0.0
 10
66.37115080673088
 20
-93.91745247652074
 30
0.0
 10
66.35531108491276
 20
-93.93329219873863
 30
0.0
 10
66.33601414096061
 20
-93.93329219873863
 30
0.0
 10
66.31671719700849
 20
-93.93329219873863
 30
0.0
 10
66.30087747519036
 20
-93.91745247652074
 30
0.0
 10
66.30087747519036
 20
-93.89780275430314
 30
0.0
 10
66.30087747519036
 20
-93.87850580986395
 30
0.0
 10
66.31671719700849
 20
-93.86266608764542
 30
0.0
 10
66.33601414096061
 20
-93.86266608764542
 30
0.0
 10
66.35531108491276
 20
-93.86266608764542
 30
0.0
 10
66.37115080673088
 20
-93.87850580986395
 30
0.0
 10
66.37115080673088
 20
-93.89780275430314
 30
0.0
  0
ENDBLK
  5
1C4
330
1C1
100
AcDbEntity
  8
0
100
AcDbBlockEnd
  0
BLOCK
  5
1C8
330
1C6
100
AcDbEntity
  8
0
100
AcDbBlockBegin
  2
block 27
 70
     0
 10
0.0
 20
0.0
 30
0.0
  3
block 27
  1

  0
SPLINE
  5
1CA
330
1C6
100
AcDbEntity
  8
_U+30EC_U+30A4_U+30E4_U+30FC 1
 62
   179
420
  2234388
370
     9
100
AcDbSpline
210
0.0
220
0.0
230
1.0
 70
    11
 71
     3
 72
    17
 73
    13
 74
     0
 42
0.0000000001
 43
0.0000000001
 12
1.0
 22
0.0
 32
0.0
 13
1.0
 23
0.0
 33
0.0
 40
0.0
 40
0.0
 40
0.0
 40
0.0
 40
1.0
 40
1.0
 40
1.0
 40
2.0
 40
2.0
 40
2.0
 40
3.0
 40
3.0
 40
3.0
 40
4.0
 40
4.0
 40
4.0
 40
4.0
 10
66.37115080673088
 20
-102.8981163631646
 30
0.0
 10
66.37115080673088
 20
-102.9174133076038
 30
0.0
 10
66.35531108491276
 20
-102.9332530298223
 30
0.0
 10
66.33601414096061
 20
-102.9332530298223
 30
0.0
 10
66.31671719700849
 20
-102.9332530298223
 30
0.0
 10
66.30087747519036
 20
-102.9174133076038
 30
0.0
 10
66.30087747519036
 20
-102.8981163631646
 30
0.0
 10
66.30087747519036
 20
-102.878466640947
 30
0.0
 10
66.31671719700849
 20
-102.8626269187291
 30
0.0
 10
66.33601414096061
 20
-102.8626269187291
 30
0.0
 10
66.35531108491276
 20
-102.8626269187291
 30
0.0
 10
66.37115080673088
 20
-102.878466640947
 30
0.0
 10
66.37115080673088
 20
-102.8981163631646
 30
0.0
  0
ENDBLK
  5
1C9
330
1C6
100
AcDbEntity
  8
0
100
AcDbBlockEnd
  0
BLOCK
  5
1CD
330
1CB
100
AcDbEntity
  8
0
100
AcDbBlockBegin
  2
block 28
 70
     0
 10
0.0
 20
0.0
 30
0.0
  3
block 28
  1

  0
POLYLINE
  5
1CF
330
1CB
100
AcDbEntity
  8
_U+30EC_U+30A4_U+30E4_U+30FC 1
 62
   179
420
  2234388
370
     9
100
AcDb2dPolyline
 66
     1
 10
0.0
 20
0.0
 30
0.0
  0
VERTEX
  5
1D0
330
1CF
100
AcDbEntity
  8
_U+30EC_U+30A4_U+30E4_U+30FC 1
 62
   179
420
  2234388
370
     9
100
AcDbVertex
100
AcDb2dVertex
 10
66.33601414096061
 20
-102.8981163631646
 30
0.0
  0
VERTEX
  5
1D1
330
1CF
100
AcDbEntity
  8
_U+30EC_U+30A4_U+30E4_U+30FC 1
 62
   179
420
  2234388
370
     9
100
AcDbVertex
100
AcDb2dVertex
 10
75.33597474468583
 20
-102.8981163631646
 30
0.0
  0
SEQEND
  5
1D2
330
1CF
100
AcDbEntity
  8
_U+30EC_U+30A4_U+30E4_U+30FC 1
 62
   179
420
  2234388
370
     9
  0
POLYLINE
  5
1D3
330
1CB
100
AcDbEntity
  8
_U+30EC_U+30A4_U+30E4_U+30FC 1
 62
   179
420
  2234388
370
     9
100
AcDb2dPolyline
 66
     1
 10
0.0
 20
0.0
 30
0.0
  0
VERTEX
  5
1D4
330
1D3
100
AcDbEntity
  8
_U+30EC_U+30A4_U+30E4_U+30FC 1
 62
   179
420
  2234388
370
     9
100
AcDbVertex
100
AcDb2dVertex
 10
75.33597474468583
 20
-97.43796303119622
 30
0.0
  0
VERTEX
  5
1D5
330
1D3
100
AcDbEntity
  8
_U+30EC_U+30A4_U+30E4_U+30FC 1
 62
   179
420
  2234388
370
     9
100
AcDbVertex
100
AcDb2dVertex
 10
75.33597474468583
 20
-103.8978885851365
 30
0.0
  0
SEQEND
  5
1D6
330
1D3
100
AcDbEntity
  8
_U+30EC_U+30A4_U+30E4_U+30FC 1
 62
   179
420
  2234388
370
     9
  0
INSERT
  5
1D8
330
1CB
100
AcDbEntity
  8
_U+30EC_U+30A4_U+30E4_U+30FC 1
100
AcDbBlockReference
  2
block 29
 10
0.0
 20
0.0
 30
0.0
  0
INSERT
  5
1DF
330
1CB
100
AcDbEntity
  8
_U+30EC_U+30A4_U+30E4_U+30FC 1
100
AcDbBlockReference
  2
block 30
 10
0.0
 20
0.0
 30
0.0
  0
INSERT
  5
1E4
330
1CB
100
AcDbEntity
  8
_U+30EC_U+30A4_U+30E4_U+30FC 1
100
AcDbBlockReference
  2
block 31
 10
0.0
 20
0.0
 30
0.0
  0
INSERT
  5
1E9
330
1CB
100
AcDbEntity
  8
_U+30EC_U+30A4_U+30E4_U+30FC 1
100
AcDbBlockReference
  2
block 32
 10
0.0
 20
0.0
 30
0.0
  0
ENDBLK
  5
1CE
330
1CB
100
AcDbEntity
  8
0
100
AcDbBlockEnd
  0
BLOCK
  5
1D9
330
1D7
100
AcDbEntity
  8
0
100
AcDbBlockBegin
  2
block 29
 70
     0
 10
0.0
 20
0.0
 30
0.0
  3
block 29
  1

  0
SPLINE
  5
1DB
330
1D7
100
AcDbEntity
  8
_U+30EC_U+30A4_U+30E4_U+30FC 1
370
     0
100
AcDbSpline
210
0.0
220
0.0
230
1.0
 70
    11
 71
     3
 72
    32
 73
    28
 74
     0
 42
0.0000000001
 43
0.0000000001
 12
1.0
 22
0.0
 32
0.0
 13
1.0
 23
0.0
 33
0.0
 40
0.0
 40
0.0
 40
0.0
 40
0.0
 40
1.0
 40
1.0
 40
1.0
 40
2.0
 40
2.0
 40
2.0
 40
3.0
 40
3.0
 40
3.0
 40
4.0
 40
4.0
 40
4.0
 40
5.0
 40
5.0
 40
5.0
 40
6.0
 40
6.0
 40
6.0
 40
7.0
 40
7.0
 40
7.0
 40
8.0
 40
8.0
 40
8.0
 40
9.0
 40
9.0
 40
9.0
 40
9.0
 10
70.78947752136513
 20
-102.5759955255713
 30
0.0
 10
70.6041313842587
 20
-102.5759955255713
 30
0.0
 10
70.34195961783118
 20
-102.5060600872207
 30
0.0
 10
70.30130749110523
 20
-102.1739528824426
 30
0.0
 10
70.30130749110523
 20
-102.1739528824426
 30
0.0
 10
70.52937281222877
 20
-102.1739528824426
 30
0.0
 10
70.52937281222877
 20
-102.1739528824426
 30
0.0
 10
70.54074162733009
 20
-102.2332085247889
 30
0.0
 10
70.57484807263407
 20
-102.3813476306547
 30
0.0
 10
70.79188908820481
 20
-102.3813476306547
 30
0.0
 10
71.10367022961992
 20
-102.3813476306547
 30
0.0
 10
71.14432235634587
 20
-102.0513074831677
 30
0.0
 10
71.15810273828687
 20
-101.8459797922468
 30
0.0
 10
71.06095104560282
 20
-101.9265950266017
 30
0.0
 10
70.98860404041257
 20
-101.9837836116568
 30
0.0
 10
70.79395614549595
 20
-101.9837836116568
 30
0.0
 10
70.60171981741902
 20
-101.9837836116568
 30
0.0
 10
70.27856986090258
 20
-101.8780191802597
 30
0.0
 10
70.27856986090258
 20
-101.4718424225487
 30
0.0
 10
70.27856986090258
 20
-101.1521375615175
 30
0.0
 10
70.4911322523425
 20
-100.9323404695586
 30
0.0
 10
70.83012964809109
 20
-100.9323404695586
 30
0.0
 10
71.37962237798843
 20
-100.9323404695586
 30
0.0
 10
71.39099119308976
 20
-101.4866563331353
 30
0.0
 10
71.39099119308976
 20
-101.7002522532208
 30
0.0
 10
71.39099119308976
 20
-101.930729141184
 30
0.0
 10
71.37066512972679
 20
-102.5759955255713
 30
0.0
 10
70.78947752136513
 20
-102.5759955255713
 30
0.0
  0
SPLINE
  5
1DC
330
1D7
100
AcDbEntity
  8
_U+30EC_U+30A4_U+30E4_U+30FC 1
370
     0
100
AcDbSpline
210
0.0
220
0.0
230
1.0
 70
    11
 71
     3
 72
    17
 73
    13
 74
     0
 42
0.0000000001
 43
0.0000000001
 12
1.0
 22
0.0
 32
0.0
 13
1.0
 23
0.0
 33
0.0
 40
0.0
 40
0.0
 40
0.0
 40
0.0
 40
1.0
 40
1.0
 40
1.0
 40
2.0
 40
2.0
 40
2.0
 40
3.0
 40
3.0
 40
3.0
 40
4.0
 40
4.0
 40
4.0
 40
4.0
 10
70.83254121493076
 20
-101.1245767976355
 30
0.0
 10
70.70576170107357
 20
-101.1245767976355
 30
0.0
 10
70.51834850667598
 20
-101.1817653826907
 30
0.0
 10
70.51834850667598
 20
-101.4673637984179
 30
0.0
 10
70.51834850667598
 20
-101.6937065717988
 30
0.0
 10
70.6675211411873
 20
-101.7891357167402
 30
0.0
 10
70.81221515156778
 20
-101.7891357167402
 30
0.0
 10
71.09264592406711
 20
-101.7891357167402
 30
0.0
 10
71.13329805079307
 20
-101.579673911237
 30
0.0
 10
71.13329805079307
 20
-101.4632296838356
 30
0.0
 10
71.13329805079307
 20
-101.2875298140878
 30
0.0
 10
71.03132322442967
 20
-101.1245767976355
 30
0.0
 10
70.83254121493076
 20
-101.1245767976355
 30
0.0
  0
HATCH
  5
1DD
330
1D7
100
AcDbEntity
  8
_U+30EC_U+30A4_U+30E4_U+30FC 1
 62
   179
420
  2234388
100
AcDbHatch
 10
0.0
 20
0.0
 30
0.0
210
0.0
220
0.0
230
1.0
  2
SOLID
 70
     1
 71
     0
 91
        2
 92
        1
 93
        1
 72
     4
 94
        3
 73
     0
 74
     1
 95
       32
 96
       28
 40
0.0
 40
0.0
 40
0.0
 40
0.0
 40
1.0
 40
1.0
 40
1.0
 40
2.0
 40
2.0
 40
2.0
 40
3.0
 40
3.0
 40
3.0
 40
4.0
 40
4.0
 40
4.0
 40
5.0
 40
5.0
 40
5.0
 40
6.0
 40
6.0
 40
6.0
 40
7.0
 40
7.0
 40
7.0
 40
8.0
 40
8.0
 40
8.0
 40
9.0
 40
9.0
 40
9.0
 40
9.0
 10
70.78947752136513
 20
-102.5759955255713
 10
70.6041313842587
 20
-102.5759955255713
 10
70.34195961783118
 20
-102.5060600872207
 10
70.30130749110523
 20
-102.1739528824426
 10
70.30130749110523
 20
-102.1739528824426
 10
70.52937281222877
 20
-102.1739528824426
 10
70.52937281222877
 20
-102.1739528824426
 10
70.54074162733009
 20
-102.2332085247889
 10
70.57484807263407
 20
-102.3813476306547
 10
70.79188908820481
 20
-102.3813476306547
 10
71.10367022961992
 20
-102.3813476306547
 10
71.14432235634587
 20
-102.0513074831677
 10
71.15810273828687
 20
-101.8459797922468
 10
71.06095104560282
 20
-101.9265950266017
 10
70.98860404041257
 20
-101.9837836116568
 10
70.79395614549595
 20
-101.9837836116568
 10
70.60171981741902
 20
-101.9837836116568
 10
70.27856986090258
 20
-101.8780191802597
 10
70.27856986090258
 20
-101.4718424225487
 10
70.27856986090258
 20
-101.1521375615175
 10
70.4911322523425
 20
-100.9323404695586
 10
70.83012964809109
 20
-100.9323404695586
 10
71.37962237798843
 20
-100.9323404695586
 10
71.39099119308976
 20
-101.4866563331353
 10
71.39099119308976
 20
-101.7002522532208
 10
71.39099119308976
 20
-101.930729141184
 10
71.37066512972679
 20
-102.5759955255713
 10
70.78947752136513
 20
-102.5759955255713
 97
        0
 97
        0
 92
        1
 93
        1
 72
     4
 94
        3
 73
     0
 74
     1
 95
       17
 96
       13
 40
0.0
 40
0.0
 40
0.0
 40
0.0
 40
1.0
 40
1.0
 40
1.0
 40
2.0
 40
2.0
 40
2.0
 40
3.0
 40
3.0
 40
3.0
 40
4.0
 40
4.0
 40
4.0
 40
4.0
 10
70.83254121493076
 20
-101.1245767976355
 10
70.70576170107357
 20
-101.1245767976355
 10
70.51834850667598
 20
-101.1817653826907
 10
70.51834850667598
 20
-101.4673637984179
 10
70.51834850667598
 20
-101.6937065717988
 10
70.6675211411873
 20
-101.7891357167402
 10
70.81221515156778
 20
-101.7891357167402
 10
71.09264592406711
 20
-101.7891357167402
 10
71.13329805079307
 20
-101.579673911237
 10
71.13329805079307
 20
-101.4632296838356
 10
71.13329805079307
 20
-101.2875298140878
 10
71.03132322442967
 20
-101.1245767976355
 10
70.83254121493076
 20
-101.1245767976355
 97
        0
 97
        0
 75
     2
 76
     1
 98
        0
  0
ENDBLK
  5
1DA
330
1D7
100
AcDbEntity
  8
0
100
AcDbBlockEnd
  0
BLOCK
  5
1E0
330
1DE
100
AcDbEntity
  8
0
100
AcDbBlockBegin
  2
block 30
 70
     0
 10
0.0
 20
0.0
 30
0.0
  3
block 30
  1

  0
SPLINE
  5
1E2
330
1DE
100
AcDbEntity
  8
_U+30EC_U+30A4_U+30E4_U+30FC 1
 62
   179
420
  2234388
370
    25
100
AcDbSpline
210
0.0
220
0.0
230
1.0
 70
    11
 71
     3
 72
    17
 73
    13
 74
     0
 42
0.0000000001
 43
0.0000000001
 12
1.0
 22
0.0
 32
0.0
 13
1.0
 23
0.0
 33
0.0
 40
0.0
 40
0.0
 40
0.0
 40
0.0
 40
1.0
 40
1.0
 40
1.0
 40
2.0
 40
2.0
 40
2.0
 40
3.0
 40
3.0
 40
3.0
 40
4.0
 40
4.0
 40
4.0
 40
4.0
 10
66.37115080673088
 20
-93.89780275430314
 30
0.0
 10
66.37115080673088
 20
-93.91745247652074
 30
0.0
 10
66.35531108491276
 20
-93.93329219873863
 30
0.0
 10
66.33601414096061
 20
-93.93329219873863
 30
0.0
 10
66.31671719700849
 20
-93.93329219873863
 30
0.0
 10
66.30087747519036
 20
-93.91745247652074
 30
0.0
 10
66.30087747519036
 20
-93.89780275430314
 30
0.0
 10
66.30087747519036
 20
-93.87850580986395
 30
0.0
 10
66.31671719700849
 20
-93.86266608764542
 30
0.0
 10
66.33601414096061
 20
-93.86266608764542
 30
0.0
 10
66.35531108491276
 20
-93.86266608764542
 30
0.0
 10
66.37115080673088
 20
-93.87850580986395
 30
0.0
 10
66.37115080673088
 20
-93.89780275430314
 30
0.0
  0
ENDBLK
  5
1E1
330
1DE
100
AcDbEntity
  8
0
100
AcDbBlockEnd
  0
BLOCK
  5
1E5
330
1E3
100
AcDbEntity
  8
0
100
AcDbBlockBegin
  2
block 31
 70
     0
 10
0.0
 20
0.0
 30
0.0
  3
block 31
  1

  0
SPLINE
  5
1E7
330
1E3
100
AcDbEntity
  8
_U+30EC_U+30A4_U+30E4_U+30FC 1
 62
   179
420
  2234388
370
    25
100
AcDbSpline
210
0.0
220
0.0
230
1.0
 70
    11
 71
     3
 72
    17
 73
    13
 74
     0
 42
0.0000000001
 43
0.0000000001
 12
1.0
 22
0.0
 32
0.0
 13
1.0
 23
0.0
 33
0.0
 40
0.0
 40
0.0
 40
0.0
 40
0.0
 40
1.0
 40
1.0
 40
1.0
 40
2.0
 40
2.0
 40
2.0
 40
3.0
 40
3.0
 40
3.0
 40
4.0
 40
4.0
 40
4.0
 40
4.0
 10
75.37111141045608
 20
-94.89792775405344
 30
0.0
 10
75.37111141045608
 20
-94.91754219849287
 30
0.0
 10
75.35527168863797
 20
-94.93338192071141
 30
0.0
 10
75.33597474468583
 20
-94.93338192071141
 30
0.0
 10
75.31667780073369
 20
-94.93338192071141
 30
0.0
 10
75.30083807891558
 20
-94.91754219849287
 30
0.0
 10
75.30083807891558
 20
-94.89792775405344
 30
0.0
 10
75.30083807891558
 20
-94.87863080961361
 30
0.0
 10
75.31667780073369
 20
-94.86275580961755
 30
0.0
 10
75.33597474468583
 20
-94.86275580961755
 30
0.0
 10
75.35527168863797
 20
-94.86275580961755
 30
0.0
 10
75.37111141045608
 20
-94.87863080961361
 30
0.0
 10
75.37111141045608
 20
-94.89792775405344
 30
0.0
  0
ENDBLK
  5
1E6
330
1E3
100
AcDbEntity
  8
0
100
AcDbBlockEnd
  0
BLOCK
  5
1EA
330
1E8
100
AcDbEntity
  8
0
100
AcDbBlockBegin
  2
block 32
 70
     0
 10
0.0
 20
0.0
 30
0.0
  3
block 32
  1

  0
SPLINE
  5
1EC
330
1E8
100
AcDbEntity
  8
_U+30EC_U+30A4_U+30E4_U+30FC 1
 62
   179
420
  2234388
370
     9
100
AcDbSpline
210
0.0
220
0.0
230
1.0
 70
    11
 71
     3
 72
    17
 73
    13
 74
     0
 42
0.0000000001
 43
0.0000000001
 12
1.0
 22
0.0
 32
0.0
 13
1.0
 23
0.0
 33
0.0
 40
0.0
 40
0.0
 40
0.0
 40
0.0
 40
1.0
 40
1.0
 40
1.0
 40
2.0
 40
2.0
 40
2.0
 40
3.0
 40
3.0
 40
3.0
 40
4.0
 40
4.0
 40
4.0
 40
4.0
 10
75.37111141045608
 20
-102.8981163631646
 30
0.0
 10
75.37111141045608
 20
-102.9174133076038
 30
0.0
 10
75.35527168863797
 20
-102.9332530298223
 30
0.0
 10
75.33597474468583
 20
-102.9332530298223
 30
0.0
 10
75.31667780073369
 20
-102.9332530298223
 30
0.0
 10
75.30083807891558
 20
-102.9174133076038
 30
0.0
 10
75.30083807891558
 20
-102.8981163631646
 30
0.0
 10
75.30083807891558
 20
-102.878466640947
 30
0.0
 10
75.31667780073369
 20
-102.8626269187291
 30
0.0
 10
75.33597474468583
 20
-102.8626269187291
 30
0.0
 10
75.35527168863797
 20
-102.8626269187291
 30
0.0
 10
75.37111141045608
 20
-102.878466640947
 30
0.0
 10
75.37111141045608
 20
-102.8981163631646
 30
0.0
  0
ENDBLK
  5
1EB
330
1E8
100
AcDbEntity
  8
0
100
AcDbBlockEnd
  0
BLOCK
  5
1EF
330
1ED
100
AcDbEntity
  8
0
100
AcDbBlockBegin
  2
block 33
 70
     0
 10
0.0
 20
0.0
 30
0.0
  3
block 33
  1

  0
POLYLINE
  5
1F1
330
1ED
100
AcDbEntity
  8
_U+30EC_U+30A4_U+30E4_U+30FC 1
 62
   179
420
  2234388
370
     9
100
AcDb2dPolyline
 66
     1
 10
0.0
 20
0.0
 30
0.0
  0
VERTEX
  5
1F2
330
1F1
100
AcDbEntity
  8
_U+30EC_U+30A4_U+30E4_U+30FC 1
 62
   179
420
  2234388
370
     9
100
AcDbVertex
100
AcDb2dVertex
 10
54.33603139155013
 20
-102.8981163631646
 30
0.0
  0
VERTEX
  5
1F3
330
1F1
100
AcDbEntity
  8
_U+30EC_U+30A4_U+30E4_U+30FC 1
 62
   179
420
  2234388
370
     9
100
AcDbVertex
100
AcDb2dVertex
 10
45.33607078782492
 20
-102.8981163631646
 30
0.0
  0
SEQEND
  5
1F4
330
1F1
100
AcDbEntity
  8
_U+30EC_U+30A4_U+30E4_U+30FC 1
 62
   179
420
  2234388
370
     9
  0
POLYLINE
  5
1F5
330
1ED
100
AcDbEntity
  8
_U+30EC_U+30A4_U+30E4_U+30FC 1
 62
   179
420
  2234388
370
     9
100
AcDb2dPolyline
 66
     1
 10
0.0
 20
0.0
 30
0.0
  0
VERTEX
  5
1F6
330
1F5
100
AcDbEntity
  8
_U+30EC_U+30A4_U+30E4_U+30FC 1
 62
   179
420
  2234388
370
     9
100
AcDbVertex
100
AcDb2dVertex
 10
45.33607078782492
 20
-97.43796303119622
 30
0.0
  0
VERTEX
  5
1F7
330
1F5
100
AcDbEntity
  8
_U+30EC_U+30A4_U+30E4_U+30FC 1
 62
   179
420
  2234388
370
     9
100
AcDbVertex
100
AcDb2dVertex
 10
45.33607078782492
 20
-103.8978885851365
 30
0.0
  0
SEQEND
  5
1F8
330
1F5
100
AcDbEntity
  8
_U+30EC_U+30A4_U+30E4_U+30FC 1
 62
   179
420
  2234388
370
     9
  0
INSERT
  5
1FA
330
1ED
100
AcDbEntity
  8
_U+30EC_U+30A4_U+30E4_U+30FC 1
100
AcDbBlockReference
  2
block 34
 10
0.0
 20
0.0
 30
0.0
  0
INSERT
  5
201
330
1ED
100
AcDbEntity
  8
_U+30EC_U+30A4_U+30E4_U+30FC 1
100
AcDbBlockReference
  2
block 35
 10
0.0
 20
0.0
 30
0.0
  0
INSERT
  5
206
330
1ED
100
AcDbEntity
  8
_U+30EC_U+30A4_U+30E4_U+30FC 1
100
AcDbBlockReference
  2
block 36
 10
0.0
 20
0.0
 30
0.0
  0
INSERT
  5
20B
330
1ED
100
AcDbEntity
  8
_U+30EC_U+30A4_U+30E4_U+30FC 1
100
AcDbBlockReference
  2
block 37
 10
0.0
 20
0.0
 30
0.0
  0
ENDBLK
  5
1F0
330
1ED
100
AcDbEntity
  8
0
100
AcDbBlockEnd
  0
BLOCK
  5
1FB
330
1F9
100
AcDbEntity
  8
0
100
AcDbBlockBegin
  2
block 34
 70
     0
 10
0.0
 20
0.0
 30
0.0
  3
block 34
  1

  0
SPLINE
  5
1FD
330
1F9
100
AcDbEntity
  8
_U+30EC_U+30A4_U+30E4_U+30FC 1
370
     0
100
AcDbSpline
210
0.0
220
0.0
230
1.0
 70
    11
 71
     3
 72
    32
 73
    28
 74
     0
 42
0.0000000001
 43
0.0000000001
 12
1.0
 22
0.0
 32
0.0
 13
1.0
 23
0.0
 33
0.0
 40
0.0
 40
0.0
 40
0.0
 40
0.0
 40
1.0
 40
1.0
 40
1.0
 40
2.0
 40
2.0
 40
2.0
 40
3.0
 40
3.0
 40
3.0
 40
4.0
 40
4.0
 40
4.0
 40
5.0
 40
5.0
 40
5.0
 40
6.0
 40
6.0
 40
6.0
 40
7.0
 40
7.0
 40
7.0
 40
8.0
 40
8.0
 40
8.0
 40
9.0
 40
9.0
 40
9.0
 40
9.0
 10
49.79041475534753
 20
-102.5759955255713
 30
0.0
 10
49.6050686182411
 20
-102.5759955255713
 30
0.0
 10
49.34272459703932
 20
-102.5060600872207
 30
0.0
 10
49.30207247031337
 20
-102.1739528824426
 30
0.0
 10
49.30207247031337
 20
-102.1739528824426
 30
0.0
 10
49.53031004621118
 20
-102.1739528824426
 30
0.0
 10
49.53031004621118
 20
-102.1739528824426
 30
0.0
 10
49.5416788613125
 20
-102.2332085247889
 30
0.0
 10
49.57561305184221
 20
-102.3813476306547
 30
0.0
 10
49.79265406741295
 20
-102.3813476306547
 30
0.0
 10
50.10460746360232
 20
-102.3813476306547
 30
0.0
 10
50.14525959032827
 20
-102.0513074831677
 30
0.0
 10
50.15886771749501
 20
-101.8459797922468
 30
0.0
 10
50.06171602481096
 20
-101.9265950266017
 30
0.0
 10
49.98936901962072
 20
-101.9837836116568
 30
0.0
 10
49.79489337947836
 20
-101.9837836116568
 30
0.0
 10
49.60265705140142
 20
-101.9837836116568
 30
0.0
 10
49.27950709488498
 20
-101.8780191802597
 30
0.0
 10
49.27950709488498
 20
-101.4718424225487
 30
0.0
 10
49.27950709488498
 20
-101.1521375615175
 30
0.0
 10
49.49189723155064
 20
-100.9323404695586
 30
0.0
 10
49.83106688207349
 20
-100.9323404695586
 30
0.0
 10
50.38038735719658
 20
-100.9323404695586
 30
0.0
 10
50.3917561722979
 20
-101.4866563331353
 30
0.0
 10
50.3917561722979
 20
-101.7002522532208
 30
0.0
 10
50.3917561722979
 20
-101.930729141184
 30
0.0
 10
50.37143010893492
 20
-102.5759955255713
 30
0.0
 10
49.79041475534753
 20
-102.5759955255713
 30
0.0
  0
SPLINE
  5
1FE
330
1F9
100
AcDbEntity
  8
_U+30EC_U+30A4_U+30E4_U+30FC 1
370
     0
100
AcDbSpline
210
0.0
220
0.0
230
1.0
 70
    11
 71
     3
 72
    17
 73
    13
 74
     0
 42
0.0000000001
 43
0.0000000001
 12
1.0
 22
0.0
 32
0.0
 13
1.0
 23
0.0
 33
0.0
 40
0.0
 40
0.0
 40
0.0
 40
0.0
 40
1.0
 40
1.0
 40
1.0
 40
2.0
 40
2.0
 40
2.0
 40
3.0
 40
3.0
 40
3.0
 40
4.0
 40
4.0
 40
4.0
 40
4.0
 10
49.8333061941389
 20
-101.1245767976355
 30
0.0
 10
49.70669893505597
 20
-101.1245767976355
 30
0.0
 10
49.51911348588411
 20
-101.1817653826907
 30
0.0
 10
49.51911348588411
 20
-101.4673637984179
 30
0.0
 10
49.51911348588411
 20
-101.6937065717988
 30
0.0
 10
49.66828612039543
 20
-101.7891357167402
 30
0.0
 10
49.81298013077593
 20
-101.7891357167402
 30
0.0
 10
50.09341090327526
 20
-101.7891357167402
 30
0.0
 10
50.13406303000121
 20
-101.579673911237
 30
0.0
 10
50.13406303000121
 20
-101.4632296838356
 30
0.0
 10
50.13406303000121
 20
-101.2875298140878
 30
0.0
 10
50.03226045841208
 20
-101.1245767976355
 30
0.0
 10
49.8333061941389
 20
-101.1245767976355
 30
0.0
  0
HATCH
  5
1FF
330
1F9
100
AcDbEntity
  8
_U+30EC_U+30A4_U+30E4_U+30FC 1
 62
   179
420
  2234388
100
AcDbHatch
 10
0.0
 20
0.0
 30
0.0
210
0.0
220
0.0
230
1.0
  2
SOLID
 70
     1
 71
     0
 91
        2
 92
        1
 93
        1
 72
     4
 94
        3
 73
     0
 74
     1
 95
       32
 96
       28
 40
0.0
 40
0.0
 40
0.0
 40
0.0
 40
1.0
 40
1.0
 40
1.0
 40
2.0
 40
2.0
 40
2.0
 40
3.0
 40
3.0
 40
3.0
 40
4.0
 40
4.0
 40
4.0
 40
5.0
 40
5.0
 40
5.0
 40
6.0
 40
6.0
 40
6.0
 40
7.0
 40
7.0
 40
7.0
 40
8.0
 40
8.0
 40
8.0
 40
9.0
 40
9.0
 40
9.0
 40
9.0
 10
49.79041475534753
 20
-102.5759955255713
 10
49.6050686182411
 20
-102.5759955255713
 10
49.34272459703932
 20
-102.5060600872207
 10
49.30207247031337
 20
-102.1739528824426
 10
49.30207247031337
 20
-102.1739528824426
 10
49.53031004621118
 20
-102.1739528824426
 10
49.53031004621118
 20
-102.1739528824426
 10
49.5416788613125
 20
-102.2332085247889
 10
49.57561305184221
 20
-102.3813476306547
 10
49.79265406741295
 20
-102.3813476306547
 10
50.10460746360232
 20
-102.3813476306547
 10
50.14525959032827
 20
-102.0513074831677
 10
50.15886771749501
 20
-101.8459797922468
 10
50.06171602481096
 20
-101.9265950266017
 10
49.98936901962072
 20
-101.9837836116568
 10
49.79489337947836
 20
-101.9837836116568
 10
49.60265705140142
 20
-101.9837836116568
 10
49.27950709488498
 20
-101.8780191802597
 10
49.27950709488498
 20
-101.4718424225487
 10
49.27950709488498
 20
-101.1521375615175
 10
49.49189723155064
 20
-100.9323404695586
 10
49.83106688207349
 20
-100.9323404695586
 10
50.38038735719658
 20
-100.9323404695586
 10
50.3917561722979
 20
-101.4866563331353
 10
50.3917561722979
 20
-101.7002522532208
 10
50.3917561722979
 20
-101.930729141184
 10
50.37143010893492
 20
-102.5759955255713
 10
49.79041475534753
 20
-102.5759955255713
 97
        0
 97
        0
 92
        1
 93
        1
 72
     4
 94
        3
 73
     0
 74
     1
 95
       17
 96
       13
 40
0.0
 40
0.0
 40
0.0
 40
0.0
 40
1.0
 40
1.0
 40
1.0
 40
2.0
 40
2.0
 40
2.0
 40
3.0
 40
3.0
 40
3.0
 40
4.0
 40
4.0
 40
4.0
 40
4.0
 10
49.8333061941389
 20
-101.1245767976355
 10
49.70669893505597
 20
-101.1245767976355
 10
49.51911348588411
 20
-101.1817653826907
 10
49.51911348588411
 20
-101.4673637984179
 10
49.51911348588411
 20
-101.6937065717988
 10
49.66828612039543
 20
-101.7891357167402
 10
49.81298013077593
 20
-101.7891357167402
 10
50.09341090327526
 20
-101.7891357167402
 10
50.13406303000121
 20
-101.579673911237
 10
50.13406303000121
 20
-101.4632296838356
 10
50.13406303000121
 20
-101.2875298140878
 10
50.03226045841208
 20
-101.1245767976355
 10
49.8333061941389
 20
-101.1245767976355
 97
        0
 97
        0
 75
     2
 76
     1
 98
        0
  0
ENDBLK
  5
1FC
330
1F9
100
AcDbEntity
  8
0
100
AcDbBlockEnd
  0
BLOCK
  5
202
330
200
100
AcDbEntity
  8
0
100
AcDbBlockBegin
  2
block 35
 70
     0
 10
0.0
 20
0.0
 30
0.0
  3
block 35
  1

  0
SPLINE
  5
204
330
200
100
AcDbEntity
  8
_U+30EC_U+30A4_U+30E4_U+30FC 1
 62
   179
420
  2234388
370
    25
100
AcDbSpline
210
0.0
220
0.0
230
1.0
 70
    11
 71
     3
 72
    17
 73
    13
 74
     0
 42
0.0000000001
 43
0.0000000001
 12
1.0
 22
0.0
 32
0.0
 13
1.0
 23
0.0
 33
0.0
 40
0.0
 40
0.0
 40
0.0
 40
0.0
 40
1.0
 40
1.0
 40
1.0
 40
2.0
 40
2.0
 40
2.0
 40
3.0
 40
3.0
 40
3.0
 40
4.0
 40
4.0
 40
4.0
 40
4.0
 10
54.37116943085151
 20
-93.89780275430314
 30
0.0
 10
54.37116943085151
 20
-93.91745247652074
 30
0.0
 10
54.35532833550226
 20
-93.93329219873863
 30
0.0
 10
54.33603139155013
 20
-93.93329219873863
 30
0.0
 10
54.31606416983731
 20
-93.93329219873863
 30
0.0
 10
54.30022444801919
 20
-93.91745247652074
 30
0.0
 10
54.30022444801919
 20
-93.89780275430314
 30
0.0
 10
54.30022444801919
 20
-93.87850580986395
 30
0.0
 10
54.31606416983731
 20
-93.86266608764542
 30
0.0
 10
54.33603139155013
 20
-93.86266608764542
 30
0.0
 10
54.35532833550226
 20
-93.86266608764542
 30
0.0
 10
54.37116943085151
 20
-93.87850580986395
 30
0.0
 10
54.37116943085151
 20
-93.89780275430314
 30
0.0
  0
ENDBLK
  5
203
330
200
100
AcDbEntity
  8
0
100
AcDbBlockEnd
  0
BLOCK
  5
207
330
205
100
AcDbEntity
  8
0
100
AcDbBlockBegin
  2
block 36
 70
     0
 10
0.0
 20
0.0
 30
0.0
  3
block 36
  1

  0
SPLINE
  5
209
330
205
100
AcDbEntity
  8
_U+30EC_U+30A4_U+30E4_U+30FC 1
 62
   179
420
  2234388
370
    25
100
AcDbSpline
210
0.0
220
0.0
230
1.0
 70
    11
 71
     3
 72
    17
 73
    13
 74
     0
 42
0.0000000001
 43
0.0000000001
 12
1.0
 22
0.0
 32
0.0
 13
1.0
 23
0.0
 33
0.0
 40
0.0
 40
0.0
 40
0.0
 40
0.0
 40
1.0
 40
1.0
 40
1.0
 40
2.0
 40
2.0
 40
2.0
 40
3.0
 40
3.0
 40
3.0
 40
4.0
 40
4.0
 40
4.0
 40
4.0
 10
45.37120745359518
 20
-94.89792775405344
 30
0.0
 10
45.37120745359518
 20
-94.91754219849287
 30
0.0
 10
45.35536773177706
 20
-94.93338192071141
 30
0.0
 10
45.33607078782492
 20
-94.93338192071141
 30
0.0
 10
45.3161035661121
 20
-94.93338192071141
 30
0.0
 10
45.30026384429399
 20
-94.91754219849287
 30
0.0
 10
45.30026384429399
 20
-94.89792775405344
 30
0.0
 10
45.30026384429399
 20
-94.87863080961361
 30
0.0
 10
45.3161035661121
 20
-94.86275580961755
 30
0.0
 10
45.33607078782492
 20
-94.86275580961755
 30
0.0
 10
45.35536773177706
 20
-94.86275580961755
 30
0.0
 10
45.37120745359518
 20
-94.87863080961361
 30
0.0
 10
45.37120745359518
 20
-94.89792775405344
 30
0.0
  0
ENDBLK
  5
208
330
205
100
AcDbEntity
  8
0
100
AcDbBlockEnd
  0
BLOCK
  5
20C
330
20A
100
AcDbEntity
  8
0
100
AcDbBlockBegin
  2
block 37
 70
     0
 10
0.0
 20
0.0
 30
0.0
  3
block 37
  1

  0
SPLINE
  5
20E
330
20A
100
AcDbEntity
  8
_U+30EC_U+30A4_U+30E4_U+30FC 1
 62
   179
420
  2234388
370
     9
100
AcDbSpline
210
0.0
220
0.0
230
1.0
 70
    11
 71
     3
 72
    17
 73
    13
 74
     0
 42
0.0000000001
 43
0.0000000001
 12
1.0
 22
0.0
 32
0.0
 13
1.0
 23
0.0
 33
0.0
 40
0.0
 40
0.0
 40
0.0
 40
0.0
 40
1.0
 40
1.0
 40
1.0
 40
2.0
 40
2.0
 40
2.0
 40
3.0
 40
3.0
 40
3.0
 40
4.0
 40
4.0
 40
4.0
 40
4.0
 10
45.37120745359518
 20
-102.8981163631646
 30
0.0
 10
45.37120745359518
 20
-102.9174133076038
 30
0.0
 10
45.35536773177706
 20
-102.9332530298223
 30
0.0
 10
45.33607078782492
 20
-102.9332530298223
 30
0.0
 10
45.3161035661121
 20
-102.9332530298223
 30
0.0
 10
45.30026384429399
 20
-102.9174133076038
 30
0.0
 10
45.30026384429399
 20
-102.8981163631646
 30
0.0
 10
45.30026384429399
 20
-102.878466640947
 30
0.0
 10
45.3161035661121
 20
-102.8626269187291
 30
0.0
 10
45.33607078782492
 20
-102.8626269187291
 30
0.0
 10
45.35536773177706
 20
-102.8626269187291
 30
0.0
 10
45.37120745359518
 20
-102.878466640947
 30
0.0
 10
45.37120745359518
 20
-102.8981163631646
 30
0.0
  0
ENDBLK
  5
20D
330
20A
100
AcDbEntity
  8
0
100
AcDbBlockEnd
  0
BLOCK
  5
211
330
20F
100
AcDbEntity
  8
0
100
AcDbBlockBegin
  2
block 38
 70
     0
 10
0.0
 20
0.0
 30
0.0
  3
block 38
  1

  0
POLYLINE
  5
213
330
20F
100
AcDbEntity
  8
_U+30EC_U+30A4_U+30E4_U+30FC 1
 62
   179
420
  2234388
370
     9
100
AcDb2dPolyline
 66
     1
 10
0.0
 20
0.0
 30
0.0
  0
VERTEX
  5
214
330
213
100
AcDbEntity
  8
_U+30EC_U+30A4_U+30E4_U+30FC 1
 62
   179
420
  2234388
370
     9
100
AcDbVertex
100
AcDb2dVertex
 10
91.33568128094376
 20
-91.89790553258094
 30
0.0
  0
VERTEX
  5
215
330
213
100
AcDbEntity
  8
_U+30EC_U+30A4_U+30E4_U+30FC 1
 62
   179
420
  2234388
370
     9
100
AcDbVertex
100
AcDb2dVertex
 10
91.33568128094376
 20
-94.89792775405344
 30
0.0
  0
SEQEND
  5
216
330
213
100
AcDbEntity
  8
_U+30EC_U+30A4_U+30E4_U+30FC 1
 62
   179
420
  2234388
370
     9
  0
POLYLINE
  5
217
330
20F
100
AcDbEntity
  8
_U+30EC_U+30A4_U+30E4_U+30FC 1
 62
   179
420
  2234388
370
     9
100
AcDb2dPolyline
 66
     1
 10
0.0
 20
0.0
 30
0.0
  0
VERTEX
  5
218
330
217
100
AcDbEntity
  8
_U+30EC_U+30A4_U+30E4_U+30FC 1
 62
   179
420
  2234388
370
     9
100
AcDbVertex
100
AcDb2dVertex
 10
77.87569442497552
 20
-91.89790553258094
 30
0.0
  0
VERTEX
  5
219
330
217
100
AcDbEntity
  8
_U+30EC_U+30A4_U+30E4_U+30FC 1
 62
   179
420
  2234388
370
     9
100
AcDbVertex
100
AcDb2dVertex
 10
92.33612375542035
 20
-91.89790553258094
 30
0.0
  0
SEQEND
  5
21A
330
217
100
AcDbEntity
  8
_U+30EC_U+30A4_U+30E4_U+30FC 1
 62
   179
420
  2234388
370
     9
  0
POLYLINE
  5
21B
330
20F
100
AcDbEntity
  8
_U+30EC_U+30A4_U+30E4_U+30FC 1
 62
   179
420
  2234388
370
     9
100
AcDb2dPolyline
 66
     1
 10
0.0
 20
0.0
 30
0.0
  0
VERTEX
  5
21C
330
21B
100
AcDbEntity
  8
_U+30EC_U+30A4_U+30E4_U+30FC 1
 62
   179
420
  2234388
370
     9
100
AcDbVertex
100
AcDb2dVertex
 10
77.87569442497552
 20
-94.89792775405344
 30
0.0
  0
VERTEX
  5
21D
330
21B
100
AcDbEntity
  8
_U+30EC_U+30A4_U+30E4_U+30FC 1
 62
   179
420
  2234388
370
     9
100
AcDbVertex
100
AcDb2dVertex
 10
92.33612375542035
 20
-94.89792775405344
 30
0.0
  0
SEQEND
  5
21E
330
21B
100
AcDbEntity
  8
_U+30EC_U+30A4_U+30E4_U+30FC 1
 62
   179
420
  2234388
370
     9
  0
INSERT
  5
220
330
20F
100
AcDbEntity
  8
_U+30EC_U+30A4_U+30E4_U+30FC 1
100
AcDbBlockReference
  2
block 39
 10
0.0
 20
0.0
 30
0.0
  0
INSERT
  5
226
330
20F
100
AcDbEntity
  8
_U+30EC_U+30A4_U+30E4_U+30FC 1
100
AcDbBlockReference
  2
block 40
 10
0.0
 20
0.0
 30
0.0
  0
INSERT
  5
22B
330
20F
100
AcDbEntity
  8
_U+30EC_U+30A4_U+30E4_U+30FC 1
100
AcDbBlockReference
  2
block 41
 10
0.0
 20
0.0
 30
0.0
  0
INSERT
  5
230
330
20F
100
AcDbEntity
  8
_U+30EC_U+30A4_U+30E4_U+30FC 1
100
AcDbBlockReference
  2
block 42
 10
0.0
 20
0.0
 30
0.0
  0
ENDBLK
  5
212
330
20F
100
AcDbEntity
  8
0
100
AcDbBlockEnd
  0
BLOCK
  5
221
330
21F
100
AcDbEntity
  8
0
100
AcDbBlockBegin
  2
block 39
 70
     0
 10
0.0
 20
0.0
 30
0.0
  3
block 39
  1

  0
SPLINE
  5
223
330
21F
100
AcDbEntity
  8
_U+30EC_U+30A4_U+30E4_U+30FC 1
370
     0
100
AcDbSpline
210
0.0
220
0.0
230
1.0
 70
    11
 71
     3
 72
    62
 73
    58
 74
     0
 42
0.0000000001
 43
0.0000000001
 12
1.0
 22
0.0
 32
0.0
 13
1.0
 23
0.0
 33
0.0
 40
0.0
 40
0.0
 40
0.0
 40
0.0
 40
1.0
 40
1.0
 40
1.0
 40
2.0
 40
2.0
 40
2.0
 40
3.0
 40
3.0
 40
3.0
 40
4.0
 40
4.0
 40
4.0
 40
5.0
 40
5.0
 40
5.0
 40
6.0
 40
6.0
 40
6.0
 40
7.0
 40
7.0
 40
7.0
 40
8.0
 40
8.0
 40
8.0
 40
9.0
 40
9.0
 40
9.0
 40
10.0
 40
10.0
 40
10.0
 40
11.0
 40
11.0
 40
11.0
 40
12.0
 40
12.0
 40
12.0
 40
13.0
 40
13.0
 40
13.0
 40
14.0
 40
14.0
 40
14.0
 40
15.0
 40
15.0
 40
15.0
 40
16.0
 40
16.0
 40
16.0
 40
17.0
 40
17.0
 40
17.0
 40
18.0
 40
18.0
 40
18.0
 40
19.0
 40
19.0
 40
19.0
 40
19.0
 10
91.01356605797578
 20
-93.40756291067589
 30
0.0
 10
91.01356605797578
 20
-93.50919322749075
 30
0.0
 10
90.99255097551575
 20
-93.74208168229364
 30
0.0
 10
90.80617130976374
 20
-93.87540687757281
 30
0.0
 10
90.69420570649312
 20
-93.95464407373356
 30
0.0
 10
90.5946424469694
 20
-93.95912269786439
 30
0.0
 10
90.51023760758078
 20
-93.96360132199521
 30
0.0
 10
90.51023760758078
 20
-93.96360132199521
 30
0.0
 10
90.51023760758078
 20
-93.72830130035265
 30
0.0
 10
90.51023760758078
 20
-93.72830130035265
 30
0.0
 10
90.58396265096512
 20
-93.7262342430615
 30
0.0
 10
90.81891816305917
 20
-93.71486542796018
 30
0.0
 10
90.81891816305917
 20
-93.41204153480672
 30
0.0
 10
90.81891816305917
 20
-93.26493595758654
 30
0.0
 10
90.7489827247086
 20
-93.10232745068275
 30
0.0
 10
90.52057289403653
 20
-93.10232745068275
 30
0.0
 10
90.40412866663509
 20
-93.10232745068275
 30
0.0
 10
90.35555282029306
 20
-93.14297957740871
 30
0.0
 10
90.32385794182876
 20
-93.17674151316415
 30
0.0
 10
90.2497883888959
 20
-93.25597870932489
 30
0.0
 10
90.23704153560047
 20
-93.38034665634241
 30
0.0
 10
90.23704153560047
 20
-93.43891327959166
 30
0.0
 10
90.23704153560047
 20
-93.45958385250316
 30
0.0
 10
90.23945310244014
 20
-93.49782441238943
 30
0.0
 10
90.24358721702244
 20
-93.52710772401406
 30
0.0
 10
90.24358721702244
 20
-93.52710772401406
 30
0.0
 10
90.04893932210582
 20
-93.52710772401406
 30
0.0
 10
90.04893932210582
 20
-93.52710772401406
 30
0.0
 10
90.05514049397928
 20
-93.48645559728811
 30
0.0
 10
90.05720755127042
 20
-93.44132484643134
 30
0.0
 10
90.05720755127042
 20
-93.43443465546083
 30
0.0
 10
90.05720755127042
 20
-93.36449921711026
 30
0.0
 10
90.0361924688104
 20
-93.15193682567035
 30
0.0
 10
89.79916989942521
 20
-93.15193682567035
 30
0.0
 10
89.62140297238632
 20
-93.15193682567035
 30
0.0
 10
89.56662595417085
 20
-93.29215221192003
 30
0.0
 10
89.56662595417085
 20
-93.40962996796704
 30
0.0
 10
89.56662595417085
 20
-93.69212779775752
 30
0.0
 10
89.79916989942521
 20
-93.7014295555677
 30
0.0
 10
89.87117239506694
 20
-93.70590817969853
 30
0.0
 10
89.87117239506694
 20
-93.70590817969853
 30
0.0
 10
89.87117239506694
 20
-93.92294919526927
 30
0.0
 10
89.87117239506694
 20
-93.92294919526927
 30
0.0
 10
89.74645993850089
 20
-93.91399194700762
 30
0.0
 10
89.36991100196308
 20
-93.88436412583447
 30
0.0
 10
89.36991100196308
 20
-93.39619409557457
 30
0.0
 10
89.36991100196308
 20
-93.15641544980117
 30
0.0
 10
89.49669051582028
 20
-92.89872230750449
 30
0.0
 10
89.79296872755177
 20
-92.89872230750449
 30
0.0
 10
89.97900388375525
 20
-92.89872230750449
 30
0.0
 10
90.06168617540125
 20
-93.00035262431936
 30
0.0
 10
90.12300887503869
 20
-93.10680607481358
 30
0.0
 10
90.1505696389207
 20
-93.0410047510453
 30
0.0
 10
90.23084036372701
 20
-92.84670136567722
 30
0.0
 10
90.50782604074111
 20
-92.84670136567722
 30
0.0
 10
90.84647892694116
 20
-92.84670136567722
 30
0.0
 10
91.01356605797578
 20
-93.1112846989444
 30
0.0
 10
91.01356605797578
 20
-93.40756291067589
 30
0.0
  0
HATCH
  5
224
330
21F
100
AcDbEntity
  8
_U+30EC_U+30A4_U+30E4_U+30FC 1
 62
   179
420
  2234388
100
AcDbHatch
 10
0.0
 20
0.0
 30
0.0
210
0.0
220
0.0
230
1.0
  2
SOLID
 70
     1
 71
     0
 91
        1
 92
        1
 93
        1
 72
     4
 94
        3
 73
     0
 74
     1
 95
       62
 96
       58
 40
0.0
 40
0.0
 40
0.0
 40
0.0
 40
1.0
 40
1.0
 40
1.0
 40
2.0
 40
2.0
 40
2.0
 40
3.0
 40
3.0
 40
3.0
 40
4.0
 40
4.0
 40
4.0
 40
5.0
 40
5.0
 40
5.0
 40
6.0
 40
6.0
 40
6.0
 40
7.0
 40
7.0
 40
7.0
 40
8.0
 40
8.0
 40
8.0
 40
9.0
 40
9.0
 40
9.0
 40
10.0
 40
10.0
 40
10.0
 40
11.0
 40
11.0
 40
11.0
 40
12.0
 40
12.0
 40
12.0
 40
13.0
 40
13.0
 40
13.0
 40
14.0
 40
14.0
 40
14.0
 40
15.0
 40
15.0
 40
15.0
 40
16.0
 40
16.0
 40
16.0
 40
17.0
 40
17.0
 40
17.0
 40
18.0
 40
18.0
 40
18.0
 40
19.0
 40
19.0
 40
19.0
 40
19.0
 10
91.01356605797578
 20
-93.40756291067589
 10
91.01356605797578
 20
-93.50919322749075
 10
90.99255097551575
 20
-93.74208168229364
 10
90.80617130976374
 20
-93.87540687757281
 10
90.69420570649312
 20
-93.95464407373356
 10
90.5946424469694
 20
-93.95912269786439
 10
90.51023760758078
 20
-93.96360132199521
 10
90.51023760758078
 20
-93.96360132199521
 10
90.51023760758078
 20
-93.72830130035265
 10
90.51023760758078
 20
-93.72830130035265
 10
90.58396265096512
 20
-93.7262342430615
 10
90.81891816305917
 20
-93.71486542796018
 10
90.81891816305917
 20
-93.41204153480672
 10
90.81891816305917
 20
-93.26493595758654
 10
90.7489827247086
 20
-93.10232745068275
 10
90.52057289403653
 20
-93.10232745068275
 10
90.40412866663509
 20
-93.10232745068275
 10
90.35555282029306
 20
-93.14297957740871
 10
90.32385794182876
 20
-93.17674151316415
 10
90.2497883888959
 20
-93.25597870932489
 10
90.23704153560047
 20
-93.38034665634241
 10
90.23704153560047
 20
-93.43891327959166
 10
90.23704153560047
 20
-93.45958385250316
 10
90.23945310244014
 20
-93.49782441238943
 10
90.24358721702244
 20
-93.52710772401406
 10
90.24358721702244
 20
-93.52710772401406
 10
90.04893932210582
 20
-93.52710772401406
 10
90.04893932210582
 20
-93.52710772401406
 10
90.05514049397928
 20
-93.48645559728811
 10
90.05720755127042
 20
-93.44132484643134
 10
90.05720755127042
 20
-93.43443465546083
 10
90.05720755127042
 20
-93.36449921711026
 10
90.0361924688104
 20
-93.15193682567035
 10
89.79916989942521
 20
-93.15193682567035
 10
89.62140297238632
 20
-93.15193682567035
 10
89.56662595417085
 20
-93.29215221192003
 10
89.56662595417085
 20
-93.40962996796704
 10
89.56662595417085
 20
-93.69212779775752
 10
89.79916989942521
 20
-93.7014295555677
 10
89.87117239506694
 20
-93.70590817969853
 10
89.87117239506694
 20
-93.70590817969853
 10
89.87117239506694
 20
-93.92294919526927
 10
89.87117239506694
 20
-93.92294919526927
 10
89.74645993850089
 20
-93.91399194700762
 10
89.36991100196308
 20
-93.88436412583447
 10
89.36991100196308
 20
-93.39619409557457
 10
89.36991100196308
 20
-93.15641544980117
 10
89.49669051582028
 20
-92.89872230750449
 10
89.79296872755177
 20
-92.89872230750449
 10
89.97900388375525
 20
-92.89872230750449
 10
90.06168617540125
 20
-93.00035262431936
 10
90.12300887503869
 20
-93.10680607481358
 10
90.1505696389207
 20
-93.0410047510453
 10
90.23084036372701
 20
-92.84670136567722
 10
90.50782604074111
 20
-92.84670136567722
 10
90.84647892694116
 20
-92.84670136567722
 10
91.01356605797578
 20
-93.1112846989444
 10
91.01356605797578
 20
-93.40756291067589
 97
        0
 97
        0
 75
     2
 76
     1
 98
        0
  0
ENDBLK
  5
222
330
21F
100
AcDbEntity
  8
0
100
AcDbBlockEnd
  0
BLOCK
  5
227
330
225
100
AcDbEntity
  8
0
100
AcDbBlockBegin
  2
block 40
 70
     0
 10
0.0
 20
0.0
 30
0.0
  3
block 40
  1

  0
SPLINE
  5
229
330
225
100
AcDbEntity
  8
_U+30EC_U+30A4_U+30E4_U+30FC 1
 62
   179
420
  2234388
370
    25
100
AcDbSpline
210
0.0
220
0.0
230
1.0
 70
    11
 71
     3
 72
    17
 73
    13
 74
     0
 42
0.0000000001
 43
0.0000000001
 12
1.0
 22
0.0
 32
0.0
 13
1.0
 23
0.0
 33
0.0
 40
0.0
 40
0.0
 40
0.0
 40
0.0
 40
1.0
 40
1.0
 40
1.0
 40
2.0
 40
2.0
 40
2.0
 40
3.0
 40
3.0
 40
3.0
 40
4.0
 40
4.0
 40
4.0
 40
4.0
 10
75.37111141045608
 20
-91.89790553258094
 30
0.0
 10
75.37111141045608
 20
-91.91755525479853
 30
0.0
 10
75.35527168863797
 20
-91.93339497701642
 30
0.0
 10
75.33597474468583
 20
-91.93339497701642
 30
0.0
 10
75.31667780073369
 20
-91.93339497701642
 30
0.0
 10
75.30083807891558
 20
-91.91755525479853
 30
0.0
 10
75.30083807891558
 20
-91.89790553258094
 30
0.0
 10
75.30083807891558
 20
-91.87864386591927
 30
0.0
 10
75.31667780073369
 20
-91.86276886592321
 30
0.0
 10
75.33597474468583
 20
-91.86276886592321
 30
0.0
 10
75.35527168863797
 20
-91.86276886592321
 30
0.0
 10
75.37111141045608
 20
-91.87864386591927
 30
0.0
 10
75.37111141045608
 20
-91.89790553258094
 30
0.0
  0
ENDBLK
  5
228
330
225
100
AcDbEntity
  8
0
100
AcDbBlockEnd
  0
BLOCK
  5
22C
330
22A
100
AcDbEntity
  8
0
100
AcDbBlockBegin
  2
block 41
 70
     0
 10
0.0
 20
0.0
 30
0.0
  3
block 41
  1

  0
SPLINE
  5
22E
330
22A
100
AcDbEntity
  8
_U+30EC_U+30A4_U+30E4_U+30FC 1
 62
   179
420
  2234388
370
    25
100
AcDbSpline
210
0.0
220
0.0
230
1.0
 70
    11
 71
     3
 72
    17
 73
    13
 74
     0
 42
0.0000000001
 43
0.0000000001
 12
1.0
 22
0.0
 32
0.0
 13
1.0
 23
0.0
 33
0.0
 40
0.0
 40
0.0
 40
0.0
 40
0.0
 40
1.0
 40
1.0
 40
1.0
 40
2.0
 40
2.0
 40
2.0
 40
3.0
 40
3.0
 40
3.0
 40
4.0
 40
4.0
 40
4.0
 40
4.0
 10
75.37111141045608
 20
-94.89792775405344
 30
0.0
 10
75.37111141045608
 20
-94.91754219849287
 30
0.0
 10
75.35527168863797
 20
-94.93338192071141
 30
0.0
 10
75.33597474468583
 20
-94.93338192071141
 30
0.0
 10
75.31667780073369
 20
-94.93338192071141
 30
0.0
 10
75.30083807891558
 20
-94.91754219849287
 30
0.0
 10
75.30083807891558
 20
-94.89792775405344
 30
0.0
 10
75.30083807891558
 20
-94.87863080961361
 30
0.0
 10
75.31667780073369
 20
-94.86275580961755
 30
0.0
 10
75.33597474468583
 20
-94.86275580961755
 30
0.0
 10
75.35527168863797
 20
-94.86275580961755
 30
0.0
 10
75.37111141045608
 20
-94.87863080961361
 30
0.0
 10
75.37111141045608
 20
-94.89792775405344
 30
0.0
  0
ENDBLK
  5
22D
330
22A
100
AcDbEntity
  8
0
100
AcDbBlockEnd
  0
BLOCK
  5
231
330
22F
100
AcDbEntity
  8
0
100
AcDbBlockBegin
  2
block 42
 70
     0
 10
0.0
 20
0.0
 30
0.0
  3
block 42
  1

  0
SPLINE
  5
233
330
22F
100
AcDbEntity
  8
_U+30EC_U+30A4_U+30E4_U+30FC 1
 62
   179
420
  2234388
370
     9
100
AcDbSpline
210
0.0
220
0.0
230
1.0
 70
    11
 71
     3
 72
    17
 73
    13
 74
     0
 42
0.0000000001
 43
0.0000000001
 12
1.0
 22
0.0
 32
0.0
 13
1.0
 23
0.0
 33
0.0
 40
0.0
 40
0.0
 40
0.0
 40
0.0
 40
1.0
 40
1.0
 40
1.0
 40
2.0
 40
2.0
 40
2.0
 40
3.0
 40
3.0
 40
3.0
 40
4.0
 40
4.0
 40
4.0
 40
4.0
 10
91.37152350225156
 20
-94.89792775405344
 30
0.0
 10
91.37152350225156
 20
-94.91754219849287
 30
0.0
 10
91.35564850265656
 20
-94.93338192071141
 30
0.0
 10
91.33568128094376
 20
-94.93338192071141
 30
0.0
 10
91.31638433699162
 20
-94.93338192071141
 30
0.0
 10
91.3005446151735
 20
-94.91754219849287
 30
0.0
 10
91.3005446151735
 20
-94.89792775405344
 30
0.0
 10
91.3005446151735
 20
-94.87863080961361
 30
0.0
 10
91.31638433699162
 20
-94.86275580961755
 30
0.0
 10
91.33568128094376
 20
-94.86275580961755
 30
0.0
 10
91.35564850265656
 20
-94.86275580961755
 30
0.0
 10
91.37152350225156
 20
-94.87863080961361
 30
0.0
 10
91.37152350225156
 20
-94.89792775405344
 30
0.0
  0
ENDBLK
  5
232
330
22F
100
AcDbEntity
  8
0
100
AcDbBlockEnd
  0
BLOCK
  5
236
330
234
100
AcDbEntity
  8
0
100
AcDbBlockBegin
  2
block 43
 70
     0
 10
0.0
 20
0.0
 30
0.0
  3
block 43
  1

  0
POLYLINE
  5
238
330
234
100
AcDbEntity
  8
_U+30EC_U+30A4_U+30E4_U+30FC 1
 62
   179
420
  2234388
370
     9
100
AcDb2dPolyline
 66
     1
 10
0.0
 20
0.0
 30
0.0
  0
VERTEX
  5
239
330
238
100
AcDbEntity
  8
_U+30EC_U+30A4_U+30E4_U+30FC 1
 62
   179
420
  2234388
370
     9
100
AcDbVertex
100
AcDb2dVertex
 10
91.33568128094376
 20
-80.89808275755323
 30
0.0
  0
VERTEX
  5
23A
330
238
100
AcDbEntity
  8
_U+30EC_U+30A4_U+30E4_U+30FC 1
 62
   179
420
  2234388
370
     9
100
AcDbVertex
100
AcDb2dVertex
 10
91.33568128094376
 20
-77.1277702584958
 30
0.0
  0
SEQEND
  5
23B
330
238
100
AcDbEntity
  8
_U+30EC_U+30A4_U+30E4_U+30FC 1
 62
   179
420
  2234388
370
     9
  0
POLYLINE
  5
23C
330
234
100
AcDbEntity
  8
_U+30EC_U+30A4_U+30E4_U+30FC 1
 62
   179
420
  2234388
370
     9
100
AcDb2dPolyline
 66
     1
 10
0.0
 20
0.0
 30
0.0
  0
VERTEX
  5
23D
330
23C
100
AcDbEntity
  8
_U+30EC_U+30A4_U+30E4_U+30FC 1
 62
   179
420
  2234388
370
     9
100
AcDbVertex
100
AcDb2dVertex
 10
91.33568128094376
 20
-81.89785497952545
 30
0.0
  0
VERTEX
  5
23E
330
23C
100
AcDbEntity
  8
_U+30EC_U+30A4_U+30E4_U+30FC 1
 62
   179
420
  2234388
370
     9
100
AcDbVertex
100
AcDb2dVertex
 10
91.33568128094376
 20
-80.89808275755323
 30
0.0
  0
SEQEND
  5
23F
330
23C
100
AcDbEntity
  8
_U+30EC_U+30A4_U+30E4_U+30FC 1
 62
   179
420
  2234388
370
     9
  0
POLYLINE
  5
240
330
234
100
AcDbEntity
  8
_U+30EC_U+30A4_U+30E4_U+30FC 1
 62
   179
420
  2234388
370
     9
100
AcDb2dPolyline
 66
     1
 10
0.0
 20
0.0
 30
0.0
  0
VERTEX
  5
241
330
240
100
AcDbEntity
  8
_U+30EC_U+30A4_U+30E4_U+30FC 1
 62
   179
420
  2234388
370
     9
100
AcDbVertex
100
AcDb2dVertex
 10
89.87563992930362
 20
-80.89808275755323
 30
0.0
  0
VERTEX
  5
242
330
240
100
AcDbEntity
  8
_U+30EC_U+30A4_U+30E4_U+30FC 1
 62
   179
420
  2234388
370
     9
100
AcDbVertex
100
AcDb2dVertex
 10
92.33612375542035
 20
-80.89808275755323
 30
0.0
  0
SEQEND
  5
243
330
240
100
AcDbEntity
  8
_U+30EC_U+30A4_U+30E4_U+30FC 1
 62
   179
420
  2234388
370
     9
  0
INSERT
  5
245
330
234
100
AcDbEntity
  8
_U+30EC_U+30A4_U+30E4_U+30FC 1
100
AcDbBlockReference
  2
block 44
 10
0.0
 20
0.0
 30
0.0
  0
INSERT
  5
24B
330
234
100
AcDbEntity
  8
_U+30EC_U+30A4_U+30E4_U+30FC 1
100
AcDbBlockReference
  2
block 45
 10
0.0
 20
0.0
 30
0.0
  0
INSERT
  5
250
330
234
100
AcDbEntity
  8
_U+30EC_U+30A4_U+30E4_U+30FC 1
100
AcDbBlockReference
  2
block 46
 10
0.0
 20
0.0
 30
0.0
  0
INSERT
  5
255
330
234
100
AcDbEntity
  8
_U+30EC_U+30A4_U+30E4_U+30FC 1
100
AcDbBlockReference
  2
block 47
 10
0.0
 20
0.0
 30
0.0
  0
ENDBLK
  5
237
330
234
100
AcDbEntity
  8
0
100
AcDbBlockEnd
  0
BLOCK
  5
246
330
244
100
AcDbEntity
  8
0
100
AcDbBlockBegin
  2
block 44
 70
     0
 10
0.0
 20
0.0
 30
0.0
  3
block 44
  1

  0
SPLINE
  5
248
330
244
100
AcDbEntity
  8
_U+30EC_U+30A4_U+30E4_U+30FC 1
370
     0
100
AcDbSpline
210
0.0
220
0.0
230
1.0
 70
    11
 71
     3
 72
    26
 73
    22
 74
     0
 42
0.0000000001
 43
0.0000000001
 12
1.0
 22
0.0
 32
0.0
 13
1.0
 23
0.0
 33
0.0
 40
0.0
 40
0.0
 40
0.0
 40
0.0
 40
1.0
 40
1.0
 40
1.0
 40
2.0
 40
2.0
 40
2.0
 40
3.0
 40
3.0
 40
3.0
 40
4.0
 40
4.0
 40
4.0
 40
5.0
 40
5.0
 40
5.0
 40
6.0
 40
6.0
 40
6.0
 40
7.0
 40
7.0
 40
7.0
 40
7.0
 10
90.96223413524555
 20
-77.95045299700544
 30
0.0
 10
90.96223413524555
 20
-77.95045299700544
 30
0.0
 10
89.85773652267446
 20
-77.95045299700544
 30
0.0
 10
89.85773652267446
 20
-77.95045299700544
 30
0.0
 10
89.85773652267446
 20
-77.95045299700544
 30
0.0
 10
89.85773652267446
 20
-78.30305851992077
 30
0.0
 10
89.85773652267446
 20
-78.30305851992077
 30
0.0
 10
89.85773652267446
 20
-78.30305851992077
 30
0.0
 10
89.70959741680872
 20
-78.30305851992077
 30
0.0
 10
89.70959741680872
 20
-78.30305851992077
 30
0.0
 10
89.69478350622214
 20
-77.94804143016577
 30
0.0
 10
89.53217499931834
 20
-77.89843205517818
 30
0.0
 10
89.41779782920806
 20
-77.86673717671387
 30
0.0
 10
89.41779782920806
 20
-77.86673717671387
 30
0.0
 10
89.41779782920806
 20
-77.71067435123206
 30
0.0
 10
89.41779782920806
 20
-77.71067435123206
 30
0.0
 10
89.41779782920806
 20
-77.71067435123206
 30
0.0
 10
90.96223413524555
 20
-77.71067435123206
 30
0.0
 10
90.96223413524555
 20
-77.71067435123206
 30
0.0
 10
90.96223413524555
 20
-77.71067435123206
 30
0.0
 10
90.96223413524555
 20
-77.95045299700544
 30
0.0
 10
90.96223413524555
 20
-77.95045299700544
 30
0.0
  0
HATCH
  5
249
330
244
100
AcDbEntity
  8
_U+30EC_U+30A4_U+30E4_U+30FC 1
 62
   179
420
  2234388
100
AcDbHatch
 10
0.0
 20
0.0
 30
0.0
210
0.0
220
0.0
230
1.0
  2
SOLID
 70
     1
 71
     0
 91
        1
 92
        1
 93
        1
 72
     4
 94
        3
 73
     0
 74
     1
 95
       26
 96
       22
 40
0.0
 40
0.0
 40
0.0
 40
0.0
 40
1.0
 40
1.0
 40
1.0
 40
2.0
 40
2.0
 40
2.0
 40
3.0
 40
3.0
 40
3.0
 40
4.0
 40
4.0
 40
4.0
 40
5.0
 40
5.0
 40
5.0
 40
6.0
 40
6.0
 40
6.0
 40
7.0
 40
7.0
 40
7.0
 40
7.0
 10
90.96223413524555
 20
-77.95045299700544
 10
90.96223413524555
 20
-77.95045299700544
 10
89.85773652267446
 20
-77.95045299700544
 10
89.85773652267446
 20
-77.95045299700544
 10
89.85773652267446
 20
-77.95045299700544
 10
89.85773652267446
 20
-78.30305851992077
 10
89.85773652267446
 20
-78.30305851992077
 10
89.85773652267446
 20
-78.30305851992077
 10
89.70959741680872
 20
-78.30305851992077
 10
89.70959741680872
 20
-78.30305851992077
 10
89.69478350622214
 20
-77.94804143016577
 10
89.53217499931834
 20
-77.89843205517818
 10
89.41779782920806
 20
-77.86673717671387
 10
89.41779782920806
 20
-77.86673717671387
 10
89.41779782920806
 20
-77.71067435123206
 10
89.41779782920806
 20
-77.71067435123206
 10
89.41779782920806
 20
-77.71067435123206
 10
90.96223413524555
 20
-77.71067435123206
 10
90.96223413524555
 20
-77.71067435123206
 10
90.96223413524555
 20
-77.71067435123206
 10
90.96223413524555
 20
-77.95045299700544
 10
90.96223413524555
 20
-77.95045299700544
 97
        0
 97
        0
 75
     2
 76
     1
 98
        0
  0
ENDBLK
  5
247
330
244
100
AcDbEntity
  8
0
100
AcDbBlockEnd
  0
BLOCK
  5
24C
330
24A
100
AcDbEntity
  8
0
100
AcDbBlockBegin
  2
block 45
 70
     0
 10
0.0
 20
0.0
 30
0.0
  3
block 45
  1

  0
SPLINE
  5
24E
330
24A
100
AcDbEntity
  8
_U+30EC_U+30A4_U+30E4_U+30FC 1
 62
   179
420
  2234388
370
    25
100
AcDbSpline
210
0.0
220
0.0
230
1.0
 70
    11
 71
     3
 72
    17
 73
    13
 74
     0
 42
0.0000000001
 43
0.0000000001
 12
1.0
 22
0.0
 32
0.0
 13
1.0
 23
0.0
 33
0.0
 40
0.0
 40
0.0
 40
0.0
 40
0.0
 40
1.0
 40
1.0
 40
1.0
 40
2.0
 40
2.0
 40
2.0
 40
3.0
 40
3.0
 40
3.0
 40
4.0
 40
4.0
 40
4.0
 40
4.0
 10
87.37106108926808
 20
-81.89785497952545
 30
0.0
 10
87.37106108926808
 20
-81.9174694239652
 30
0.0
 10
87.35521916027157
 20
-81.93334442396126
 30
0.0
 10
87.33592221631945
 20
-81.93334442396126
 30
0.0
 10
87.3166252723673
 20
-81.93334442396126
 30
0.0
 10
87.3007855505492
 20
-81.9174694239652
 30
0.0
 10
87.3007855505492
 20
-81.89785497952545
 30
0.0
 10
87.3007855505492
 20
-81.87855803508594
 30
0.0
 10
87.3166252723673
 20
-81.86271831286773
 30
0.0
 10
87.33592221631945
 20
-81.86271831286773
 30
0.0
 10
87.35521916027157
 20
-81.86271831286773
 30
0.0
 10
87.37106108926808
 20
-81.87855803508594
 30
0.0
 10
87.37106108926808
 20
-81.89785497952545
 30
0.0
  0
ENDBLK
  5
24D
330
24A
100
AcDbEntity
  8
0
100
AcDbBlockEnd
  0
BLOCK
  5
251
330
24F
100
AcDbEntity
  8
0
100
AcDbBlockBegin
  2
block 46
 70
     0
 10
0.0
 20
0.0
 30
0.0
  3
block 46
  1

  0
SPLINE
  5
253
330
24F
100
AcDbEntity
  8
_U+30EC_U+30A4_U+30E4_U+30FC 1
 62
   179
420
  2234388
370
    25
100
AcDbSpline
210
0.0
220
0.0
230
1.0
 70
    11
 71
     3
 72
    17
 73
    13
 74
     0
 42
0.0000000001
 43
0.0000000001
 12
1.0
 22
0.0
 32
0.0
 13
1.0
 23
0.0
 33
0.0
 40
0.0
 40
0.0
 40
0.0
 40
0.0
 40
1.0
 40
1.0
 40
1.0
 40
2.0
 40
2.0
 40
2.0
 40
3.0
 40
3.0
 40
3.0
 40
4.0
 40
4.0
 40
4.0
 40
4.0
 10
87.37106108926808
 20
-80.89808275755323
 30
0.0
 10
87.37106108926808
 20
-80.91737970199274
 30
0.0
 10
87.35521916027157
 20
-80.93321942421127
 30
0.0
 10
87.33592221631945
 20
-80.93321942421127
 30
0.0
 10
87.3166252723673
 20
-80.93321942421127
 30
0.0
 10
87.3007855505492
 20
-80.91737970199274
 30
0.0
 10
87.3007855505492
 20
-80.89808275755323
 30
0.0
 10
87.3007855505492
 20
-80.87843303533596
 30
0.0
 10
87.3166252723673
 20
-80.86259331311774
 30
0.0
 10
87.33592221631945
 20
-80.86259331311774
 30
0.0
 10
87.35521916027157
 20
-80.86259331311774
 30
0.0
 10
87.37106108926808
 20
-80.87843303533596
 30
0.0
 10
87.37106108926808
 20
-80.89808275755323
 30
0.0
  0
ENDBLK
  5
252
330
24F
100
AcDbEntity
  8
0
100
AcDbBlockEnd
  0
BLOCK
  5
256
330
254
100
AcDbEntity
  8
0
100
AcDbBlockBegin
  2
block 47
 70
     0
 10
0.0
 20
0.0
 30
0.0
  3
block 47
  1

  0
SPLINE
  5
258
330
254
100
AcDbEntity
  8
_U+30EC_U+30A4_U+30E4_U+30FC 1
 62
   179
420
  2234388
370
     9
100
AcDbSpline
210
0.0
220
0.0
230
1.0
 70
    11
 71
     3
 72
    17
 73
    13
 74
     0
 42
0.0000000001
 43
0.0000000001
 12
1.0
 22
0.0
 32
0.0
 13
1.0
 23
0.0
 33
0.0
 40
0.0
 40
0.0
 40
0.0
 40
0.0
 40
1.0
 40
1.0
 40
1.0
 40
2.0
 40
2.0
 40
2.0
 40
3.0
 40
3.0
 40
3.0
 40
4.0
 40
4.0
 40
4.0
 40
4.0
 10
91.37152350225156
 20
-80.89808275755323
 30
0.0
 10
91.37152350225156
 20
-80.91737970199274
 30
0.0
 10
91.35564850265656
 20
-80.93321942421127
 30
0.0
 10
91.33568128094376
 20
-80.93321942421127
 30
0.0
 10
91.31638433699162
 20
-80.93321942421127
 30
0.0
 10
91.3005446151735
 20
-80.91737970199274
 30
0.0
 10
91.3005446151735
 20
-80.89808275755323
 30
0.0
 10
91.3005446151735
 20
-80.87843303533596
 30
0.0
 10
91.31638433699162
 20
-80.86259331311774
 30
0.0
 10
91.33568128094376
 20
-80.86259331311774
 30
0.0
 10
91.35564850265656
 20
-80.86259331311774
 30
0.0
 10
91.37152350225156
 20
-80.87843303533596
 30
0.0
 10
91.37152350225156
 20
-80.89808275755323
 30
0.0
  0
ENDBLK
  5
257
330
254
100
AcDbEntity
  8
0
100
AcDbBlockEnd
  0
BLOCK
  5
25B
330
259
100
AcDbEntity
  8
0
100
AcDbBlockBegin
  2
block 48
 70
     0
 10
0.0
 20
0.0
 30
0.0
  3
block 48
  1

  0
INSERT
  5
25E
330
259
100
AcDbEntity
  8
_U+30EC_U+30A4_U+30E4_U+30FC 1
100
AcDbBlockReference
  2
block 49
 10
0.0
 20
0.0
 30
0.0
  0
INSERT
  5
263
330
259
100
AcDbEntity
  8
_U+30EC_U+30A4_U+30E4_U+30FC 1
100
AcDbBlockReference
  2
block 50
 10
0.0
 20
0.0
 30
0.0
  0
ENDBLK
  5
25C
330
259
100
AcDbEntity
  8
0
100
AcDbBlockEnd
  0
BLOCK
  5
25F
330
25D
100
AcDbEntity
  8
0
100
AcDbBlockBegin
  2
block 49
 70
     0
 10
0.0
 20
0.0
 30
0.0
  3
block 49
  1

  0
SPLINE
  5
261
330
25D
100
AcDbEntity
  8
_U+30EC_U+30A4_U+30E4_U+30FC 1
 62
   179
420
  2234388
370
    25
100
AcDbSpline
210
0.0
220
0.0
230
1.0
 70
    11
 71
     3
 72
    17
 73
    13
 74
     0
 42
0.0000000001
 43
0.0000000001
 12
1.0
 22
0.0
 32
0.0
 13
1.0
 23
0.0
 33
0.0
 40
0.0
 40
0.0
 40
0.0
 40
0.0
 40
1.0
 40
1.0
 40
1.0
 40
2.0
 40
2.0
 40
2.0
 40
3.0
 40
3.0
 40
3.0
 40
4.0
 40
4.0
 40
4.0
 40
4.0
 10
75.37111141045608
 20
-91.89790553258094
 30
0.0
 10
75.37111141045608
 20
-91.91755525479853
 30
0.0
 10
75.35527168863797
 20
-91.93339497701642
 30
0.0
 10
75.33597474468583
 20
-91.93339497701642
 30
0.0
 10
75.31667780073369
 20
-91.93339497701642
 30
0.0
 10
75.30083807891558
 20
-91.91755525479853
 30
0.0
 10
75.30083807891558
 20
-91.89790553258094
 30
0.0
 10
75.30083807891558
 20
-91.87864386591927
 30
0.0
 10
75.31667780073369
 20
-91.86276886592321
 30
0.0
 10
75.33597474468583
 20
-91.86276886592321
 30
0.0
 10
75.35527168863797
 20
-91.86276886592321
 30
0.0
 10
75.37111141045608
 20
-91.87864386591927
 30
0.0
 10
75.37111141045608
 20
-91.89790553258094
 30
0.0
  0
ENDBLK
  5
260
330
25D
100
AcDbEntity
  8
0
100
AcDbBlockEnd
  0
BLOCK
  5
264
330
262
100
AcDbEntity
  8
0
100
AcDbBlockBegin
  2
block 50
 70
     0
 10
0.0
 20
0.0
 30
0.0
  3
block 50
  1

  0
SPLINE
  5
266
330
262
100
AcDbEntity
  8
_U+30EC_U+30A4_U+30E4_U+30FC 1
 62
   179
420
  2234388
370
    25
100
AcDbSpline
210
0.0
220
0.0
230
1.0
 70
    11
 71
     3
 72
    17
 73
    13
 74
     0
 42
0.0000000001
 43
0.0000000001
 12
1.0
 22
0.0
 32
0.0
 13
1.0
 23
0.0
 33
0.0
 40
0.0
 40
0.0
 40
0.0
 40
0.0
 40
1.0
 40
1.0
 40
1.0
 40
2.0
 40
2.0
 40
2.0
 40
3.0
 40
3.0
 40
3.0
 40
4.0
 40
4.0
 40
4.0
 40
4.0
 10
71.37135234583177
 20
-91.89790553258094
 30
0.0
 10
71.37135234583177
 20
-91.91755525479853
 30
0.0
 10
71.35551262401366
 20
-91.93339497701642
 30
0.0
 10
71.33621568006151
 20
-91.93339497701642
 30
0.0
 10
71.3162484583487
 20
-91.93339497701642
 30
0.0
 10
71.30037345875371
 20
-91.91755525479853
 30
0.0
 10
71.30037345875371
 20
-91.89790553258094
 30
0.0
 10
71.30037345875371
 20
-91.87864386591927
 30
0.0
 10
71.3162484583487
 20
-91.86276886592321
 30
0.0
 10
71.33621568006151
 20
-91.86276886592321
 30
0.0
 10
71.35551262401366
 20
-91.86276886592321
 30
0.0
 10
71.37135234583177
 20
-91.87864386591927
 30
0.0
 10
71.37135234583177
 20
-91.89790553258094
 30
0.0
  0
ENDBLK
  5
265
330
262
100
AcDbEntity
  8
0
100
AcDbBlockEnd
  0
BLOCK
  5
269
330
267
100
AcDbEntity
  8
0
100
AcDbBlockBegin
  2
block 51
 70
     0
 10
0.0
 20
0.0
 30
0.0
  3
block 51
  1

  0
POLYLINE
  5
26B
330
267
100
AcDbEntity
  8
_U+30EC_U+30A4_U+30E4_U+30FC 1
 62
   179
420
  2234388
370
     9
100
AcDb2dPolyline
 66
     1
 10
0.0
 20
0.0
 30
0.0
  0
VERTEX
  5
26C
330
26B
100
AcDbEntity
  8
_U+30EC_U+30A4_U+30E4_U+30FC 1
 62
   179
420
  2234388
370
     9
100
AcDbVertex
100
AcDb2dVertex
 10
91.33568128094376
 20
-81.89785497952545
 30
0.0
  0
VERTEX
  5
26D
330
26B
100
AcDbEntity
  8
_U+30EC_U+30A4_U+30E4_U+30FC 1
 62
   179
420
  2234388
370
     9
100
AcDbVertex
100
AcDb2dVertex
 10
91.33568128094376
 20
-91.89790553258094
 30
0.0
  0
SEQEND
  5
26E
330
26B
100
AcDbEntity
  8
_U+30EC_U+30A4_U+30E4_U+30FC 1
 62
   179
420
  2234388
370
     9
  0
POLYLINE
  5
26F
330
267
100
AcDbEntity
  8
_U+30EC_U+30A4_U+30E4_U+30FC 1
 62
   179
420
  2234388
370
     9
100
AcDb2dPolyline
 66
     1
 10
0.0
 20
0.0
 30
0.0
  0
VERTEX
  5
270
330
26F
100
AcDbEntity
  8
_U+30EC_U+30A4_U+30E4_U+30FC 1
 62
   179
420
  2234388
370
     9
100
AcDbVertex
100
AcDb2dVertex
 10
89.87563992930362
 20
-81.89785497952545
 30
0.0
  0
VERTEX
  5
271
330
26F
100
AcDbEntity
  8
_U+30EC_U+30A4_U+30E4_U+30FC 1
 62
   179
420
  2234388
370
     9
100
AcDbVertex
100
AcDb2dVertex
 10
92.33612375542035
 20
-81.89785497952545
 30
0.0
  0
SEQEND
  5
272
330
26F
100
AcDbEntity
  8
_U+30EC_U+30A4_U+30E4_U+30FC 1
 62
   179
420
  2234388
370
     9
  0
INSERT
  5
274
330
267
100
AcDbEntity
  8
_U+30EC_U+30A4_U+30E4_U+30FC 1
100
AcDbBlockReference
  2
block 52
 10
0.0
 20
0.0
 30
0.0
  0
INSERT
  5
27D
330
267
100
AcDbEntity
  8
_U+30EC_U+30A4_U+30E4_U+30FC 1
100
AcDbBlockReference
  2
block 53
 10
0.0
 20
0.0
 30
0.0
  0
INSERT
  5
282
330
267
100
AcDbEntity
  8
_U+30EC_U+30A4_U+30E4_U+30FC 1
100
AcDbBlockReference
  2
block 54
 10
0.0
 20
0.0
 30
0.0
  0
INSERT
  5
287
330
267
100
AcDbEntity
  8
_U+30EC_U+30A4_U+30E4_U+30FC 1
100
AcDbBlockReference
  2
block 55
 10
0.0
 20
0.0
 30
0.0
  0
ENDBLK
  5
26A
330
267
100
AcDbEntity
  8
0
100
AcDbBlockEnd
  0
BLOCK
  5
275
330
273
100
AcDbEntity
  8
0
100
AcDbBlockBegin
  2
block 52
 70
     0
 10
0.0
 20
0.0
 30
0.0
  3
block 52
  1

  0
SPLINE
  5
277
330
273
100
AcDbEntity
  8
_U+30EC_U+30A4_U+30E4_U+30FC 1
370
     0
100
AcDbSpline
210
0.0
220
0.0
230
1.0
 70
    11
 71
     3
 72
    26
 73
    22
 74
     0
 42
0.0000000001
 43
0.0000000001
 12
1.0
 22
0.0
 32
0.0
 13
1.0
 23
0.0
 33
0.0
 40
0.0
 40
0.0
 40
0.0
 40
0.0
 40
1.0
 40
1.0
 40
1.0
 40
2.0
 40
2.0
 40
2.0
 40
3.0
 40
3.0
 40
3.0
 40
4.0
 40
4.0
 40
4.0
 40
5.0
 40
5.0
 40
5.0
 40
6.0
 40
6.0
 40
6.0
 40
7.0
 40
7.0
 40
7.0
 40
7.0
 10
90.96223413524555
 20
-87.57949487827874
 30
0.0
 10
90.96223413524555
 20
-87.57949487827874
 30
0.0
 10
89.85773652267446
 20
-87.57949487827874
 30
0.0
 10
89.85773652267446
 20
-87.57949487827874
 30
0.0
 10
89.85773652267446
 20
-87.57949487827874
 30
0.0
 10
89.85773652267446
 20
-87.93210040119406
 30
0.0
 10
89.85773652267446
 20
-87.93210040119406
 30
0.0
 10
89.85773652267446
 20
-87.93210040119406
 30
0.0
 10
89.70959741680872
 20
-87.93210040119406
 30
0.0
 10
89.70959741680872
 20
-87.93210040119406
 30
0.0
 10
89.69478350622214
 20
-87.57725556621332
 30
0.0
 10
89.53217499931834
 20
-87.52747393645147
 30
0.0
 10
89.41779782920806
 20
-87.49577905798716
 30
0.0
 10
89.41779782920806
 20
-87.49577905798716
 30
0.0
 10
89.41779782920806
 20
-87.33988848727961
 30
0.0
 10
89.41779782920806
 20
-87.33988848727961
 30
0.0
 10
89.41779782920806
 20
-87.33988848727961
 30
0.0
 10
90.96223413524555
 20
-87.33988848727961
 30
0.0
 10
90.96223413524555
 20
-87.33988848727961
 30
0.0
 10
90.96223413524555
 20
-87.33988848727961
 30
0.0
 10
90.96223413524555
 20
-87.57949487827874
 30
0.0
 10
90.96223413524555
 20
-87.57949487827874
 30
0.0
  0
HATCH
  5
278
330
273
100
AcDbEntity
  8
_U+30EC_U+30A4_U+30E4_U+30FC 1
 62
   179
420
  2234388
100
AcDbHatch
 10
0.0
 20
0.0
 30
0.0
210
0.0
220
0.0
230
1.0
  2
SOLID
 70
     1
 71
     0
 91
        1
 92
        1
 93
        1
 72
     4
 94
        3
 73
     0
 74
     1
 95
       26
 96
       22
 40
0.0
 40
0.0
 40
0.0
 40
0.0
 40
1.0
 40
1.0
 40
1.0
 40
2.0
 40
2.0
 40
2.0
 40
3.0
 40
3.0
 40
3.0
 40
4.0
 40
4.0
 40
4.0
 40
5.0
 40
5.0
 40
5.0
 40
6.0
 40
6.0
 40
6.0
 40
7.0
 40
7.0
 40
7.0
 40
7.0
 10
90.96223413524555
 20
-87.57949487827874
 10
90.96223413524555
 20
-87.57949487827874
 10
89.85773652267446
 20
-87.57949487827874
 10
89.85773652267446
 20
-87.57949487827874
 10
89.85773652267446
 20
-87.57949487827874
 10
89.85773652267446
 20
-87.93210040119406
 10
89.85773652267446
 20
-87.93210040119406
 10
89.85773652267446
 20
-87.93210040119406
 10
89.70959741680872
 20
-87.93210040119406
 10
89.70959741680872
 20
-87.93210040119406
 10
89.69478350622214
 20
-87.57725556621332
 10
89.53217499931834
 20
-87.52747393645147
 10
89.41779782920806
 20
-87.49577905798716
 10
89.41779782920806
 20
-87.49577905798716
 10
89.41779782920806
 20
-87.33988848727961
 10
89.41779782920806
 20
-87.33988848727961
 10
89.41779782920806
 20
-87.33988848727961
 10
90.96223413524555
 20
-87.33988848727961
 10
90.96223413524555
 20
-87.33988848727961
 10
90.96223413524555
 20
-87.33988848727961
 10
90.96223413524555
 20
-87.57949487827874
 10
90.96223413524555
 20
-87.57949487827874
 97
        0
 97
        0
 75
     2
 76
     1
 98
        0
  0
SPLINE
  5
279
330
273
100
AcDbEntity
  8
_U+30EC_U+30A4_U+30E4_U+30FC 1
370
     0
100
AcDbSpline
210
0.0
220
0.0
230
1.0
 70
    11
 71
     3
 72
    29
 73
    25
 74
     0
 42
0.0000000001
 43
0.0000000001
 12
1.0
 22
0.0
 32
0.0
 13
1.0
 23
0.0
 33
0.0
 40
0.0
 40
0.0
 40
0.0
 40
0.0
 40
1.0
 40
1.0
 40
1.0
 40
2.0
 40
2.0
 40
2.0
 40
3.0
 40
3.0
 40
3.0
 40
4.0
 40
4.0
 40
4.0
 40
5.0
 40
5.0
 40
5.0
 40
6.0
 40
6.0
 40
6.0
 40
7.0
 40
7.0
 40
7.0
 40
8.0
 40
8.0
 40
8.0
 40
8.0
 10
90.78446720820666
 20
-85.84471704668118
 30
0.0
 10
90.99392901370986
 20
-85.9599554906628
 30
0.0
 10
91.01287703887873
 20
-86.14530162776923
 30
0.0
 10
91.01287703887873
 20
-86.26966957478675
 30
0.0
 10
91.01287703887873
 20
-86.44157983950072
 30
0.0
 10
90.96636824982785
 20
-86.59299178607745
 30
0.0
 10
90.78446720820666
 20
-86.69479435766658
 30
0.0
 10
90.58981931329005
 20
-86.80555417751737
 30
0.0
 10
90.35279674390486
 20
-86.82588024088034
 30
0.0
 10
90.18984372745254
 20
-86.82588024088034
 30
0.0
 10
90.04618324571763
 20
-86.82588024088034
 30
0.0
 10
89.79434676574586
 20
-86.80779348958278
 30
0.0
 10
89.59556475624694
 20
-86.69479435766658
 30
0.0
 10
89.3923041226172
 20
-86.57938365891071
 30
0.0
 10
89.36922198286604
 20
-86.40764564897101
 30
0.0
 10
89.36922198286604
 20
-86.26966957478675
 30
0.0
 10
89.36922198286604
 20
-86.10017087691246
 30
0.0
 10
89.41366371462576
 20
-85.94634736349606
 30
0.0
 10
89.59556475624694
 20
-85.84471704668118
 30
0.0
 10
89.78814559387241
 20
-85.73843585096122
 30
0.0
 10
90.01655542454448
 20
-85.71363116346743
 30
0.0
 10
90.18984372745254
 20
-85.71363116346743
 30
0.0
 10
90.36140948261799
 20
-85.71363116346743
 30
0.0
 10
90.5918863705812
 20
-85.73619653889581
 30
0.0
 10
90.78446720820666
 20
-85.84471704668118
 30
0.0
  0
SPLINE
  5
27A
330
273
100
AcDbEntity
  8
_U+30EC_U+30A4_U+30E4_U+30FC 1
370
     0
100
AcDbSpline
210
0.0
220
0.0
230
1.0
 70
    11
 71
     3
 72
    17
 73
    13
 74
     0
 42
0.0000000001
 43
0.0000000001
 12
1.0
 22
0.0
 32
0.0
 13
1.0
 23
0.0
 33
0.0
 40
0.0
 40
0.0
 40
0.0
 40
0.0
 40
1.0
 40
1.0
 40
1.0
 40
2.0
 40
2.0
 40
2.0
 40
3.0
 40
3.0
 40
3.0
 40
4.0
 40
4.0
 40
4.0
 40
4.0
 10
89.56145831094297
 20
-86.26966957478675
 30
0.0
 10
89.56145831094297
 20
-86.53649222011936
 30
0.0
 10
89.84498966937903
 20
-86.58627384988121
 30
0.0
 10
90.18984372745254
 20
-86.58627384988121
 30
0.0
 10
90.50954858848372
 20
-86.58627384988121
 30
0.0
 10
90.81822914396211
 20
-86.54786103522068
 30
0.0
 10
90.81822914396211
 20
-86.26966957478675
 30
0.0
 10
90.81822914396211
 20
-86.00525849629383
 30
0.0
 10
90.5367648428172
 20
-85.95323755446655
 30
0.0
 10
90.18984372745254
 20
-85.95323755446655
 30
0.0
 10
89.87048337596988
 20
-85.95323755446655
 30
0.0
 10
89.56145831094297
 20
-85.9938896811925
 30
0.0
 10
89.56145831094297
 20
-86.26966957478675
 30
0.0
  0
HATCH
  5
27B
330
273
100
AcDbEntity
  8
_U+30EC_U+30A4_U+30E4_U+30FC 1
 62
   179
420
  2234388
100
AcDbHatch
 10
0.0
 20
0.0
 30
0.0
210
0.0
220
0.0
230
1.0
  2
SOLID
 70
     1
 71
     0
 91
        2
 92
        1
 93
        1
 72
     4
 94
        3
 73
     0
 74
     1
 95
       29
 96
       25
 40
0.0
 40
0.0
 40
0.0
 40
0.0
 40
1.0
 40
1.0
 40
1.0
 40
2.0
 40
2.0
 40
2.0
 40
3.0
 40
3.0
 40
3.0
 40
4.0
 40
4.0
 40
4.0
 40
5.0
 40
5.0
 40
5.0
 40
6.0
 40
6.0
 40
6.0
 40
7.0
 40
7.0
 40
7.0
 40
8.0
 40
8.0
 40
8.0
 40
8.0
 10
90.78446720820666
 20
-85.84471704668118
 10
90.99392901370986
 20
-85.9599554906628
 10
91.01287703887873
 20
-86.14530162776923
 10
91.01287703887873
 20
-86.26966957478675
 10
91.01287703887873
 20
-86.44157983950072
 10
90.96636824982785
 20
-86.59299178607745
 10
90.78446720820666
 20
-86.69479435766658
 10
90.58981931329005
 20
-86.80555417751737
 10
90.35279674390486
 20
-86.82588024088034
 10
90.18984372745254
 20
-86.82588024088034
 10
90.04618324571763
 20
-86.82588024088034
 10
89.79434676574586
 20
-86.80779348958278
 10
89.59556475624694
 20
-86.69479435766658
 10
89.3923041226172
 20
-86.57938365891071
 10
89.36922198286604
 20
-86.40764564897101
 10
89.36922198286604
 20
-86.26966957478675
 10
89.36922198286604
 20
-86.10017087691246
 10
89.41366371462576
 20
-85.94634736349606
 10
89.59556475624694
 20
-85.84471704668118
 10
89.78814559387241
 20
-85.73843585096122
 10
90.01655542454448
 20
-85.71363116346743
 10
90.18984372745254
 20
-85.71363116346743
 10
90.36140948261799
 20
-85.71363116346743
 10
90.5918863705812
 20
-85.73619653889581
 10
90.78446720820666
 20
-85.84471704668118
 97
        0
 97
        0
 92
        1
 93
        1
 72
     4
 94
        3
 73
     0
 74
     1
 95
       17
 96
       13
 40
0.0
 40
0.0
 40
0.0
 40
0.0
 40
1.0
 40
1.0
 40
1.0
 40
2.0
 40
2.0
 40
2.0
 40
3.0
 40
3.0
 40
3.0
 40
4.0
 40
4.0
 40
4.0
 40
4.0
 10
89.56145831094297
 20
-86.26966957478675
 10
89.56145831094297
 20
-86.53649222011936
 10
89.84498966937903
 20
-86.58627384988121
 10
90.18984372745254
 20
-86.58627384988121
 10
90.50954858848372
 20
-86.58627384988121
 10
90.81822914396211
 20
-86.54786103522068
 10
90.81822914396211
 20
-86.26966957478675
 10
90.81822914396211
 20
-86.00525849629383
 10
90.5367648428172
 20
-85.95323755446655
 10
90.18984372745254
 20
-85.95323755446655
 10
89.87048337596988
 20
-85.95323755446655
 10
89.56145831094297
 20
-85.9938896811925
 10
89.56145831094297
 20
-86.26966957478675
 97
        0
 97
        0
 75
     2
 76
     1
 98
        0
  0
ENDBLK
  5
276
330
273
100
AcDbEntity
  8
0
100
AcDbBlockEnd
  0
BLOCK
  5
27E
330
27C
100
AcDbEntity
  8
0
100
AcDbBlockBegin
  2
block 53
 70
     0
 10
0.0
 20
0.0
 30
0.0
  3
block 53
  1

  0
SPLINE
  5
280
330
27C
100
AcDbEntity
  8
_U+30EC_U+30A4_U+30E4_U+30FC 1
 62
   179
420
  2234388
370
    25
100
AcDbSpline
210
0.0
220
0.0
230
1.0
 70
    11
 71
     3
 72
    17
 73
    13
 74
     0
 42
0.0000000001
 43
0.0000000001
 12
1.0
 22
0.0
 32
0.0
 13
1.0
 23
0.0
 33
0.0
 40
0.0
 40
0.0
 40
0.0
 40
0.0
 40
1.0
 40
1.0
 40
1.0
 40
2.0
 40
2.0
 40
2.0
 40
3.0
 40
3.0
 40
3.0
 40
4.0
 40
4.0
 40
4.0
 40
4.0
 10
87.37106108926808
 20
-81.89785497952545
 30
0.0
 10
87.37106108926808
 20
-81.9174694239652
 30
0.0
 10
87.35521916027157
 20
-81.93334442396126
 30
0.0
 10
87.33592221631945
 20
-81.93334442396126
 30
0.0
 10
87.3166252723673
 20
-81.93334442396126
 30
0.0
 10
87.3007855505492
 20
-81.9174694239652
 30
0.0
 10
87.3007855505492
 20
-81.89785497952545
 30
0.0
 10
87.3007855505492
 20
-81.87855803508594
 30
0.0
 10
87.3166252723673
 20
-81.86271831286773
 30
0.0
 10
87.33592221631945
 20
-81.86271831286773
 30
0.0
 10
87.35521916027157
 20
-81.86271831286773
 30
0.0
 10
87.37106108926808
 20
-81.87855803508594
 30
0.0
 10
87.37106108926808
 20
-81.89785497952545
 30
0.0
  0
ENDBLK
  5
27F
330
27C
100
AcDbEntity
  8
0
100
AcDbBlockEnd
  0
BLOCK
  5
283
330
281
100
AcDbEntity
  8
0
100
AcDbBlockBegin
  2
block 54
 70
     0
 10
0.0
 20
0.0
 30
0.0
  3
block 54
  1

  0
SPLINE
  5
285
330
281
100
AcDbEntity
  8
_U+30EC_U+30A4_U+30E4_U+30FC 1
 62
   179
420
  2234388
370
    25
100
AcDbSpline
210
0.0
220
0.0
230
1.0
 70
    11
 71
     3
 72
    17
 73
    13
 74
     0
 42
0.0000000001
 43
0.0000000001
 12
1.0
 22
0.0
 32
0.0
 13
1.0
 23
0.0
 33
0.0
 40
0.0
 40
0.0
 40
0.0
 40
0.0
 40
1.0
 40
1.0
 40
1.0
 40
2.0
 40
2.0
 40
2.0
 40
3.0
 40
3.0
 40
3.0
 40
4.0
 40
4.0
 40
4.0
 40
4.0
 10
75.37111141045608
 20
-91.89790553258094
 30
0.0
 10
75.37111141045608
 20
-91.91755525479853
 30
0.0
 10
75.35527168863797
 20
-91.93339497701642
 30
0.0
 10
75.33597474468583
 20
-91.93339497701642
 30
0.0
 10
75.31667780073369
 20
-91.93339497701642
 30
0.0
 10
75.30083807891558
 20
-91.91755525479853
 30
0.0
 10
75.30083807891558
 20
-91.89790553258094
 30
0.0
 10
75.30083807891558
 20
-91.87864386591927
 30
0.0
 10
75.31667780073369
 20
-91.86276886592321
 30
0.0
 10
75.33597474468583
 20
-91.86276886592321
 30
0.0
 10
75.35527168863797
 20
-91.86276886592321
 30
0.0
 10
75.37111141045608
 20
-91.87864386591927
 30
0.0
 10
75.37111141045608
 20
-91.89790553258094
 30
0.0
  0
ENDBLK
  5
284
330
281
100
AcDbEntity
  8
0
100
AcDbBlockEnd
  0
BLOCK
  5
288
330
286
100
AcDbEntity
  8
0
100
AcDbBlockBegin
  2
block 55
 70
     0
 10
0.0
 20
0.0
 30
0.0
  3
block 55
  1

  0
SPLINE
  5
28A
330
286
100
AcDbEntity
  8
_U+30EC_U+30A4_U+30E4_U+30FC 1
 62
   179
420
  2234388
370
     9
100
AcDbSpline
210
0.0
220
0.0
230
1.0
 70
    11
 71
     3
 72
    17
 73
    13
 74
     0
 42
0.0000000001
 43
0.0000000001
 12
1.0
 22
0.0
 32
0.0
 13
1.0
 23
0.0
 33
0.0
 40
0.0
 40
0.0
 40
0.0
 40
0.0
 40
1.0
 40
1.0
 40
1.0
 40
2.0
 40
2.0
 40
2.0
 40
3.0
 40
3.0
 40
3.0
 40
4.0
 40
4.0
 40
4.0
 40
4.0
 10
91.37152350225156
 20
-91.89790553258094
 30
0.0
 10
91.37152350225156
 20
-91.91755525479853
 30
0.0
 10
91.35564850265656
 20
-91.93339497701642
 30
0.0
 10
91.33568128094376
 20
-91.93339497701642
 30
0.0
 10
91.31638433699162
 20
-91.93339497701642
 30
0.0
 10
91.3005446151735
 20
-91.91755525479853
 30
0.0
 10
91.3005446151735
 20
-91.89790553258094
 30
0.0
 10
91.3005446151735
 20
-91.87864386591927
 30
0.0
 10
91.31638433699162
 20
-91.86276886592321
 30
0.0
 10
91.33568128094376
 20
-91.86276886592321
 30
0.0
 10
91.35564850265656
 20
-91.86276886592321
 30
0.0
 10
91.37152350225156
 20
-91.87864386591927
 30
0.0
 10
91.37152350225156
 20
-91.89790553258094
 30
0.0
  0
ENDBLK
  5
289
330
286
100
AcDbEntity
  8
0
100
AcDbBlockEnd
  0
ENDSEC
  0
SECTION
  2
ENTITIES
  0
POLYLINE
  5
41
330
1F
100
AcDbEntity
  8
_U+30EC_U+30A4_U+30E4_U+30FC 1
 62
   179
420
  2234388
370
    25
100
AcDb2dPolyline
 66
     1
 10
0.0
 20
0.0
 30
0.0
  0
VERTEX
  5
42
330
41
100
AcDbEntity
  8
_U+30EC_U+30A4_U+30E4_U+30FC 1
 62
   179
420
  2234388
370
    25
100
AcDbVertex
100
AcDb2dVertex
 10
45.33607078782492
 20
-94.89792775405344
 30
0.0
  0
VERTEX
  5
43
330
41
100
AcDbEntity
  8
_U+30EC_U+30A4_U+30E4_U+30FC 1
 62
   179
420
  2234388
370
    25
100
AcDbVertex
100
AcDb2dVertex
 10
75.33597474468583
 20
-94.89792775405344
 30
0.0
  0
SEQEND
  5
44
330
41
100
AcDbEntity
  8
_U+30EC_U+30A4_U+30E4_U+30FC 1
 62
   179
420
  2234388
370
    25
  0
POLYLINE
  5
45
330
1F
100
AcDbEntity
  8
_U+30EC_U+30A4_U+30E4_U+30FC 1
 62
   179
420
  2234388
370
     9
100
AcDb2dPolyline
 66
     1
 10
0.0
 20
0.0
 30
0.0
  0
VERTEX
  5
46
330
45
100
AcDbEntity
  8
_U+30EC_U+30A4_U+30E4_U+30FC 1
 62
   179
420
  2234388
370
     9
100
AcDbVertex
100
AcDb2dVertex
 10
61.09669983018222
 20
-90.55879636624934
 30
0.0
  0
VERTEX
  5
47
330
45
100
AcDbEntity
  8
_U+30EC_U+30A4_U+30E4_U+30FC 1
 62
   179
420
  2234388
370
     9
100
AcDbVertex
100
AcDb2dVertex
 10
64.73401665048303
 20
-90.55879636624934
 30
0.0
  0
SEQEND
  5
48
330
45
100
AcDbEntity
  8
_U+30EC_U+30A4_U+30E4_U+30FC 1
 62
   179
420
  2234388
370
     9
  0
POLYLINE
  5
49
330
1F
100
AcDbEntity
  8
_U+30EC_U+30A4_U+30E4_U+30FC 1
 62
   179
420
  2234388
370
     9
100
AcDb2dPolyline
 66
     1
 10
0.0
 20
0.0
 30
0.0
  0
VERTEX
  5
4A
330
49
100
AcDbEntity
  8
_U+30EC_U+30A4_U+30E4_U+30FC 1
 62
   179
420
  2234388
370
     9
100
AcDbVertex
100
AcDb2dVertex
 10
60.33604040514381
 20
-93.39791664331719
 30
0.0
  0
VERTEX
  5
4B
330
49
100
AcDbEntity
  8
_U+30EC_U+30A4_U+30E4_U+30FC 1
 62
   179
420
  2234388
370
     9
100
AcDbVertex
100
AcDb2dVertex
 10
60.83557372573299
 20
-92.53181192131177
 30
0.0
  0
SEQEND
  5
4C
330
49
100
AcDbEntity
  8
_U+30EC_U+30A4_U+30E4_U+30FC 1
 62
   179
420
  2234388
370
     9
  0
POLYLINE
  5
4D
330
1F
100
AcDbEntity
  8
_U+30EC_U+30A4_U+30E4_U+30FC 1
 62
   179
420
  2234388
370
     9
100
AcDb2dPolyline
 66
     1
 10
0.0
 20
0.0
 30
0.0
  0
VERTEX
  5
4E
330
4D
100
AcDbEntity
  8
_U+30EC_U+30A4_U+30E4_U+30FC 1
 62
   179
420
  2234388
370
     9
100
AcDbVertex
100
AcDb2dVertex
 10
60.33604040514381
 20
-93.39791664331719
 30
0.0
  0
VERTEX
  5
4F
330
4D
100
AcDbEntity
  8
_U+30EC_U+30A4_U+30E4_U+30FC 1
 62
   179
420
  2234388
370
     9
100
AcDbVertex
100
AcDb2dVertex
 10
60.33604040514381
 20
-92.39779164356753
 30
0.0
  0
SEQEND
  5
50
330
4D
100
AcDbEntity
  8
_U+30EC_U+30A4_U+30E4_U+30FC 1
 62
   179
420
  2234388
370
     9
  0
POLYLINE
  5
51
330
1F
100
AcDbEntity
  8
_U+30EC_U+30A4_U+30E4_U+30FC 1
 62
   179
420
  2234388
370
     9
100
AcDb2dPolyline
 66
     1
 10
0.0
 20
0.0
 30
0.0
  0
VERTEX
  5
52
330
51
100
AcDbEntity
  8
_U+30EC_U+30A4_U+30E4_U+30FC 1
 62
   179
420
  2234388
370
     9
100
AcDbVertex
100
AcDb2dVertex
 10
60.33604040514381
 20
-93.39791664331719
 30
0.0
  0
VERTEX
  5
53
330
51
100
AcDbEntity
  8
_U+30EC_U+30A4_U+30E4_U+30FC 1
 62
   179
420
  2234388
370
     9
100
AcDbVertex
100
AcDb2dVertex
 10
61.09669983018222
 20
-90.55879636624934
 30
0.0
  0
SEQEND
  5
54
330
51
100
AcDbEntity
  8
_U+30EC_U+30A4_U+30E4_U+30FC 1
 62
   179
420
  2234388
370
     9
  0
POLYLINE
  5
55
330
1F
100
AcDbEntity
  8
_U+30EC_U+30A4_U+30E4_U+30FC 1
 62
   179
420
  2234388
370
    25
100
AcDb2dPolyline
 66
     1
 10
0.0
 20
0.0
 30
0.0
  0
VERTEX
  5
56
330
55
100
AcDbEntity
  8
_U+30EC_U+30A4_U+30E4_U+30FC 1
 62
   179
420
  2234388
370
    25
100
AcDbVertex
100
AcDb2dVertex
 10
55.33580358826604
 20
-80.89808275755323
 30
0.0
  0
VERTEX
  5
57
330
55
100
AcDbEntity
  8
_U+30EC_U+30A4_U+30E4_U+30FC 1
 62
   179
420
  2234388
370
    25
100
AcDbVertex
100
AcDb2dVertex
 10
55.33580358826604
 20
-93.89780275430314
 30
0.0
  0
SEQEND
  5
58
330
55
100
AcDbEntity
  8
_U+30EC_U+30A4_U+30E4_U+30FC 1
 62
   179
420
  2234388
370
    25
  0
POLYLINE
  5
59
330
1F
100
AcDbEntity
  8
_U+30EC_U+30A4_U+30E4_U+30FC 1
 62
   179
420
  2234388
370
    25
100
AcDb2dPolyline
 66
     1
 10
0.0
 20
0.0
 30
0.0
  0
VERTEX
  5
5A
330
59
100
AcDbEntity
  8
_U+30EC_U+30A4_U+30E4_U+30FC 1
 62
   179
420
  2234388
370
    25
100
AcDbVertex
100
AcDb2dVertex
 10
33.3355949916661
 20
-80.89808275755323
 30
0.0
  0
VERTEX
  5
5B
330
59
100
AcDbEntity
  8
_U+30EC_U+30A4_U+30E4_U+30FC 1
 62
   179
420
  2234388
370
    25
100
AcDbVertex
100
AcDb2dVertex
 10
33.3355949916661
 20
-81.89785497952545
 30
0.0
  0
SEQEND
  5
5C
330
59
100
AcDbEntity
  8
_U+30EC_U+30A4_U+30E4_U+30FC 1
 62
   179
420
  2234388
370
    25
  0
POLYLINE
  5
5D
330
1F
100
AcDbEntity
  8
_U+30EC_U+30A4_U+30E4_U+30FC 1
 62
   179
420
  2234388
370
    25
100
AcDb2dPolyline
 66
     1
 10
0.0
 20
0.0
 30
0.0
  0
VERTEX
  5
5E
330
5D
100
AcDbEntity
  8
_U+30EC_U+30A4_U+30E4_U+30FC 1
 62
   179
420
  2234388
370
    25
100
AcDbVertex
100
AcDb2dVertex
 10
45.33607078782492
 20
-91.89790553258094
 30
0.0
  0
VERTEX
  5
5F
330
5D
100
AcDbEntity
  8
_U+30EC_U+30A4_U+30E4_U+30FC 1
 62
   179
420
  2234388
370
    25
100
AcDbVertex
100
AcDb2dVertex
 10
49.33582985244923
 20
-91.89790553258094
 30
0.0
  0
SEQEND
  5
60
330
5D
100
AcDbEntity
  8
_U+30EC_U+30A4_U+30E4_U+30FC 1
 62
   179
420
  2234388
370
    25
  0
POLYLINE
  5
61
330
1F
100
AcDbEntity
  8
_U+30EC_U+30A4_U+30E4_U+30FC 1
 62
   179
420
  2234388
370
    25
100
AcDb2dPolyline
 66
     1
 10
0.0
 20
0.0
 30
0.0
  0
VERTEX
  5
62
330
61
100
AcDbEntity
  8
_U+30EC_U+30A4_U+30E4_U+30FC 1
 62
   179
420
  2234388
370
    25
100
AcDbVertex
100
AcDb2dVertex
 10
33.3355949916661
 20
-81.89785497952545
 30
0.0
  0
VERTEX
  5
63
330
61
100
AcDbEntity
  8
_U+30EC_U+30A4_U+30E4_U+30FC 1
 62
   179
420
  2234388
370
    25
100
AcDbVertex
100
AcDb2dVertex
 10
54.33603139155013
 20
-81.89785497952545
 30
0.0
  0
SEQEND
  5
64
330
61
100
AcDbEntity
  8
_U+30EC_U+30A4_U+30E4_U+30FC 1
 62
   179
420
  2234388
370
    25
  0
POLYLINE
  5
65
330
1F
100
AcDbEntity
  8
_U+30EC_U+30A4_U+30E4_U+30FC 1
 62
   179
420
  2234388
370
    25
100
AcDb2dPolyline
 66
     1
 10
0.0
 20
0.0
 30
0.0
  0
VERTEX
  5
66
330
65
100
AcDbEntity
  8
_U+30EC_U+30A4_U+30E4_U+30FC 1
 62
   179
420
  2234388
370
    25
100
AcDbVertex
100
AcDb2dVertex
 10
33.3355949916661
 20
-80.89808275755323
 30
0.0
  0
VERTEX
  5
67
330
65
100
AcDbEntity
  8
_U+30EC_U+30A4_U+30E4_U+30FC 1
 62
   179
420
  2234388
370
    25
100
AcDbVertex
100
AcDb2dVertex
 10
55.33580358826604
 20
-80.89808275755323
 30
0.0
  0
SEQEND
  5
68
330
65
100
AcDbEntity
  8
_U+30EC_U+30A4_U+30E4_U+30FC 1
 62
   179
420
  2234388
370
    25
  0
POLYLINE
  5
69
330
1F
100
AcDbEntity
  8
_U+30EC_U+30A4_U+30E4_U+30FC 1
 62
   179
420
  2234388
370
    25
100
AcDb2dPolyline
 66
     1
 10
0.0
 20
0.0
 30
0.0
  0
VERTEX
  5
6A
330
69
100
AcDbEntity
  8
_U+30EC_U+30A4_U+30E4_U+30FC 1
 62
   179
420
  2234388
370
    25
100
AcDbVertex
100
AcDb2dVertex
 10
45.33607078782492
 20
-91.89790553258094
 30
0.0
  0
VERTEX
  5
6B
330
69
100
AcDbEntity
  8
_U+30EC_U+30A4_U+30E4_U+30FC 1
 62
   179
420
  2234388
370
    25
100
AcDbVertex
100
AcDb2dVertex
 10
45.33607078782492
 20
-94.89792775405344
 30
0.0
  0
SEQEND
  5
6C
330
69
100
AcDbEntity
  8
_U+30EC_U+30A4_U+30E4_U+30FC 1
 62
   179
420
  2234388
370
    25
  0
POLYLINE
  5
6D
330
1F
100
AcDbEntity
  8
_U+30EC_U+30A4_U+30E4_U+30FC 1
 62
   179
420
  2234388
370
    25
100
AcDb2dPolyline
 66
     1
 10
0.0
 20
0.0
 30
0.0
  0
VERTEX
  5
6E
330
6D
100
AcDbEntity
  8
_U+30EC_U+30A4_U+30E4_U+30FC 1
 62
   179
420
  2234388
370
    25
100
AcDbVertex
100
AcDb2dVertex
 10
54.33603139155013
 20
-81.89785497952545
 30
0.0
  0
VERTEX
  5
6F
330
6D
100
AcDbEntity
  8
_U+30EC_U+30A4_U+30E4_U+30FC 1
 62
   179
420
  2234388
370
    25
100
AcDbVertex
100
AcDb2dVertex
 10
54.33603139155013
 20
-93.89780275430314
 30
0.0
  0
SEQEND
  5
70
330
6D
100
AcDbEntity
  8
_U+30EC_U+30A4_U+30E4_U+30FC 1
 62
   179
420
  2234388
370
    25
  0
POLYLINE
  5
71
330
1F
100
AcDbEntity
  8
_U+30EC_U+30A4_U+30E4_U+30FC 1
 62
   179
420
  2234388
370
    25
100
AcDb2dPolyline
 66
     1
 10
0.0
 20
0.0
 30
0.0
  0
VERTEX
  5
72
330
71
100
AcDbEntity
  8
_U+30EC_U+30A4_U+30E4_U+30FC 1
 62
   179
420
  2234388
370
    25
100
AcDbVertex
100
AcDb2dVertex
 10
46.33584298454083
 20
-93.89780275430314
 30
0.0
  0
VERTEX
  5
73
330
71
100
AcDbEntity
  8
_U+30EC_U+30A4_U+30E4_U+30FC 1
 62
   179
420
  2234388
370
    25
100
AcDbVertex
100
AcDb2dVertex
 10
54.33603139155013
 20
-93.89780275430314
 30
0.0
  0
SEQEND
  5
74
330
71
100
AcDbEntity
  8
_U+30EC_U+30A4_U+30E4_U+30FC 1
 62
   179
420
  2234388
370
    25
  0
POLYLINE
  5
75
330
1F
100
AcDbEntity
  8
_U+30EC_U+30A4_U+30E4_U+30FC 1
 62
   179
420
  2234388
370
    25
100
AcDb2dPolyline
 66
     1
 10
0.0
 20
0.0
 30
0.0
  0
VERTEX
  5
76
330
75
100
AcDbEntity
  8
_U+30EC_U+30A4_U+30E4_U+30FC 1
 62
   179
420
  2234388
370
    25
100
AcDbVertex
100
AcDb2dVertex
 10
46.33584298454083
 20
-92.89803053233125
 30
0.0
  0
VERTEX
  5
77
330
75
100
AcDbEntity
  8
_U+30EC_U+30A4_U+30E4_U+30FC 1
 62
   179
420
  2234388
370
    25
100
AcDbVertex
100
AcDb2dVertex
 10
49.33582985244923
 20
-92.89803053233125
 30
0.0
  0
SEQEND
  5
78
330
75
100
AcDbEntity
  8
_U+30EC_U+30A4_U+30E4_U+30FC 1
 62
   179
420
  2234388
370
    25
  0
POLYLINE
  5
79
330
1F
100
AcDbEntity
  8
_U+30EC_U+30A4_U+30E4_U+30FC 1
 62
   179
420
  2234388
370
    25
100
AcDb2dPolyline
 66
     1
 10
0.0
 20
0.0
 30
0.0
  0
VERTEX
  5
7A
330
79
100
AcDbEntity
  8
_U+30EC_U+30A4_U+30E4_U+30FC 1
 62
   179
420
  2234388
370
    25
100
AcDbVertex
100
AcDb2dVertex
 10
46.33584298454083
 20
-92.89803053233125
 30
0.0
  0
VERTEX
  5
7B
330
79
100
AcDbEntity
  8
_U+30EC_U+30A4_U+30E4_U+30FC 1
 62
   179
420
  2234388
370
    25
100
AcDbVertex
100
AcDb2dVertex
 10
46.33584298454083
 20
-93.89780275430314
 30
0.0
  0
SEQEND
  5
7C
330
79
100
AcDbEntity
  8
_U+30EC_U+30A4_U+30E4_U+30FC 1
 62
   179
420
  2234388
370
    25
  0
POLYLINE
  5
7D
330
1F
100
AcDbEntity
  8
_U+30EC_U+30A4_U+30E4_U+30FC 1
 62
   179
420
  2234388
370
    25
100
AcDb2dPolyline
 66
     1
 10
0.0
 20
0.0
 30
0.0
  0
VERTEX
  5
7E
330
7D
100
AcDbEntity
  8
_U+30EC_U+30A4_U+30E4_U+30FC 1
 62
   179
420
  2234388
370
    25
100
AcDbVertex
100
AcDb2dVertex
 10
49.33582985244923
 20
-91.89790553258094
 30
0.0
  0
VERTEX
  5
7F
330
7D
100
AcDbEntity
  8
_U+30EC_U+30A4_U+30E4_U+30FC 1
 62
   179
420
  2234388
370
    25
100
AcDbVertex
100
AcDb2dVertex
 10
49.33582985244923
 20
-92.89803053233125
 30
0.0
  0
SEQEND
  5
80
330
7D
100
AcDbEntity
  8
_U+30EC_U+30A4_U+30E4_U+30FC 1
 62
   179
420
  2234388
370
    25
  0
POLYLINE
  5
81
330
1F
100
AcDbEntity
  8
_U+30EC_U+30A4_U+30E4_U+30FC 1
 62
   179
420
  2234388
370
    25
100
AcDb2dPolyline
 66
     1
 10
0.0
 20
0.0
 30
0.0
  0
VERTEX
  5
82
330
81
100
AcDbEntity
  8
_U+30EC_U+30A4_U+30E4_U+30FC 1
 62
   179
420
  2234388
370
    25
100
AcDbVertex
100
AcDb2dVertex
 10
55.33580358826604
 20
-93.89780275430314
 30
0.0
  0
VERTEX
  5
83
330
81
100
AcDbEntity
  8
_U+30EC_U+30A4_U+30E4_U+30FC 1
 62
   179
420
  2234388
370
    25
100
AcDbVertex
100
AcDb2dVertex
 10
65.3362419442447
 20
-93.89780275430314
 30
0.0
  0
SEQEND
  5
84
330
81
100
AcDbEntity
  8
_U+30EC_U+30A4_U+30E4_U+30FC 1
 62
   179
420
  2234388
370
    25
  0
POLYLINE
  5
85
330
1F
100
AcDbEntity
  8
_U+30EC_U+30A4_U+30E4_U+30FC 1
 62
   179
420
  2234388
370
    25
100
AcDb2dPolyline
 66
     1
 10
0.0
 20
0.0
 30
0.0
  0
VERTEX
  5
86
330
85
100
AcDbEntity
  8
_U+30EC_U+30A4_U+30E4_U+30FC 1
 62
   179
420
  2234388
370
    25
100
AcDbVertex
100
AcDb2dVertex
 10
58.58590989423781
 20
-93.89780275430314
 30
0.0
  0
VERTEX
  5
87
330
85
100
AcDbEntity
  8
_U+30EC_U+30A4_U+30E4_U+30FC 1
 62
   179
420
  2234388
370
    25
100
AcDbVertex
100
AcDb2dVertex
 10
58.58590989423781
 20
-94.89792775405344
 30
0.0
  0
SEQEND
  5
88
330
85
100
AcDbEntity
  8
_U+30EC_U+30A4_U+30E4_U+30FC 1
 62
   179
420
  2234388
370
    25
  0
POLYLINE
  5
89
330
1F
100
AcDbEntity
  8
_U+30EC_U+30A4_U+30E4_U+30FC 1
 62
   179
420
  2234388
370
    25
100
AcDb2dPolyline
 66
     1
 10
0.0
 20
0.0
 30
0.0
  0
VERTEX
  5
8A
330
89
100
AcDbEntity
  8
_U+30EC_U+30A4_U+30E4_U+30FC 1
 62
   179
420
  2234388
370
    25
100
AcDbVertex
100
AcDb2dVertex
 10
62.08613563827294
 20
-93.89780275430314
 30
0.0
  0
VERTEX
  5
8B
330
89
100
AcDbEntity
  8
_U+30EC_U+30A4_U+30E4_U+30FC 1
 62
   179
420
  2234388
370
    25
100
AcDbVertex
100
AcDb2dVertex
 10
62.08613563827294
 20
-94.89792775405344
 30
0.0
  0
SEQEND
  5
8C
330
89
100
AcDbEntity
  8
_U+30EC_U+30A4_U+30E4_U+30FC 1
 62
   179
420
  2234388
370
    25
  0
POLYLINE
  5
8D
330
1F
100
AcDbEntity
  8
_U+30EC_U+30A4_U+30E4_U+30FC 1
 62
   179
420
  2234388
370
    25
100
AcDb2dPolyline
 66
     1
 10
0.0
 20
0.0
 30
0.0
  0
VERTEX
  5
8E
330
8D
100
AcDbEntity
  8
_U+30EC_U+30A4_U+30E4_U+30FC 1
 62
   179
420
  2234388
370
    25
100
AcDbVertex
100
AcDb2dVertex
 10
74.33620254796992
 20
-92.89803053233125
 30
0.0
  0
VERTEX
  5
8F
330
8D
100
AcDbEntity
  8
_U+30EC_U+30A4_U+30E4_U+30FC 1
 62
   179
420
  2234388
370
    25
100
AcDbVertex
100
AcDb2dVertex
 10
74.33620254796992
 20
-93.89780275430314
 30
0.0
  0
SEQEND
  5
90
330
8D
100
AcDbEntity
  8
_U+30EC_U+30A4_U+30E4_U+30FC 1
 62
   179
420
  2234388
370
    25
  0
POLYLINE
  5
91
330
1F
100
AcDbEntity
  8
_U+30EC_U+30A4_U+30E4_U+30FC 1
 62
   179
420
  2234388
370
    25
100
AcDb2dPolyline
 66
     1
 10
0.0
 20
0.0
 30
0.0
  0
VERTEX
  5
92
330
91
100
AcDbEntity
  8
_U+30EC_U+30A4_U+30E4_U+30FC 1
 62
   179
420
  2234388
370
    25
100
AcDbVertex
100
AcDb2dVertex
 10
71.33621568006151
 20
-91.89790553258094
 30
0.0
  0
VERTEX
  5
93
330
91
100
AcDbEntity
  8
_U+30EC_U+30A4_U+30E4_U+30FC 1
 62
   179
420
  2234388
370
    25
100
AcDbVertex
100
AcDb2dVertex
 10
71.33621568006151
 20
-92.89803053233125
 30
0.0
  0
SEQEND
  5
94
330
91
100
AcDbEntity
  8
_U+30EC_U+30A4_U+30E4_U+30FC 1
 62
   179
420
  2234388
370
    25
  0
POLYLINE
  5
95
330
1F
100
AcDbEntity
  8
_U+30EC_U+30A4_U+30E4_U+30FC 1
 62
   179
420
  2234388
370
    25
100
AcDb2dPolyline
 66
     1
 10
0.0
 20
0.0
 30
0.0
  0
VERTEX
  5
96
330
95
100
AcDbEntity
  8
_U+30EC_U+30A4_U+30E4_U+30FC 1
 62
   179
420
  2234388
370
    25
100
AcDbVertex
100
AcDb2dVertex
 10
74.33620254796992
 20
-92.89803053233125
 30
0.0
  0
VERTEX
  5
97
330
95
100
AcDbEntity
  8
_U+30EC_U+30A4_U+30E4_U+30FC 1
 62
   179
420
  2234388
370
    25
100
AcDbVertex
100
AcDb2dVertex
 10
71.33621568006151
 20
-92.89803053233125
 30
0.0
  0
SEQEND
  5
98
330
95
100
AcDbEntity
  8
_U+30EC_U+30A4_U+30E4_U+30FC 1
 62
   179
420
  2234388
370
    25
  0
POLYLINE
  5
99
330
1F
100
AcDbEntity
  8
_U+30EC_U+30A4_U+30E4_U+30FC 1
 62
   179
420
  2234388
370
    25
100
AcDb2dPolyline
 66
     1
 10
0.0
 20
0.0
 30
0.0
  0
VERTEX
  5
9A
330
99
100
AcDbEntity
  8
_U+30EC_U+30A4_U+30E4_U+30FC 1
 62
   179
420
  2234388
370
    25
100
AcDbVertex
100
AcDb2dVertex
 10
74.33620254796992
 20
-93.89780275430314
 30
0.0
  0
VERTEX
  5
9B
330
99
100
AcDbEntity
  8
_U+30EC_U+30A4_U+30E4_U+30FC 1
 62
   179
420
  2234388
370
    25
100
AcDbVertex
100
AcDb2dVertex
 10
66.33601414096061
 20
-93.89780275430314
 30
0.0
  0
SEQEND
  5
9C
330
99
100
AcDbEntity
  8
_U+30EC_U+30A4_U+30E4_U+30FC 1
 62
   179
420
  2234388
370
    25
  0
POLYLINE
  5
9D
330
1F
100
AcDbEntity
  8
_U+30EC_U+30A4_U+30E4_U+30FC 1
 62
   179
420
  2234388
370
    25
100
AcDb2dPolyline
 66
     1
 10
0.0
 20
0.0
 30
0.0
  0
VERTEX
  5
9E
330
9D
100
AcDbEntity
  8
_U+30EC_U+30A4_U+30E4_U+30FC 1
 62
   179
420
  2234388
370
    25
100
AcDbVertex
100
AcDb2dVertex
 10
66.33601414096061
 20
-81.89785497952545
 30
0.0
  0
VERTEX
  5
9F
330
9D
100
AcDbEntity
  8
_U+30EC_U+30A4_U+30E4_U+30FC 1
 62
   179
420
  2234388
370
    25
100
AcDbVertex
100
AcDb2dVertex
 10
66.33601414096061
 20
-93.89780275430314
 30
0.0
  0
SEQEND
  5
A0
330
9D
100
AcDbEntity
  8
_U+30EC_U+30A4_U+30E4_U+30FC 1
 62
   179
420
  2234388
370
    25
  0
POLYLINE
  5
A1
330
1F
100
AcDbEntity
  8
_U+30EC_U+30A4_U+30E4_U+30FC 1
 62
   179
420
  2234388
370
    25
100
AcDb2dPolyline
 66
     1
 10
0.0
 20
0.0
 30
0.0
  0
VERTEX
  5
A2
330
A1
100
AcDbEntity
  8
_U+30EC_U+30A4_U+30E4_U+30FC 1
 62
   179
420
  2234388
370
    25
100
AcDbVertex
100
AcDb2dVertex
 10
75.33597474468583
 20
-91.89790553258094
 30
0.0
  0
VERTEX
  5
A3
330
A1
100
AcDbEntity
  8
_U+30EC_U+30A4_U+30E4_U+30FC 1
 62
   179
420
  2234388
370
    25
100
AcDbVertex
100
AcDb2dVertex
 10
71.33621568006151
 20
-91.89790553258094
 30
0.0
  0
SEQEND
  5
A4
330
A1
100
AcDbEntity
  8
_U+30EC_U+30A4_U+30E4_U+30FC 1
 62
   179
420
  2234388
370
    25
  0
POLYLINE
  5
A5
330
1F
100
AcDbEntity
  8
_U+30EC_U+30A4_U+30E4_U+30FC 1
 62
   179
420
  2234388
370
    25
100
AcDb2dPolyline
 66
     1
 10
0.0
 20
0.0
 30
0.0
  0
VERTEX
  5
A6
330
A5
100
AcDbEntity
  8
_U+30EC_U+30A4_U+30E4_U+30FC 1
 62
   179
420
  2234388
370
    25
100
AcDbVertex
100
AcDb2dVertex
 10
87.33592221631945
 20
-81.89785497952545
 30
0.0
  0
VERTEX
  5
A7
330
A5
100
AcDbEntity
  8
_U+30EC_U+30A4_U+30E4_U+30FC 1
 62
   179
420
  2234388
370
    25
100
AcDbVertex
100
AcDb2dVertex
 10
66.33601414096061
 20
-81.89785497952545
 30
0.0
  0
SEQEND
  5
A8
330
A5
100
AcDbEntity
  8
_U+30EC_U+30A4_U+30E4_U+30FC 1
 62
   179
420
  2234388
370
    25
  0
POLYLINE
  5
A9
330
1F
100
AcDbEntity
  8
_U+30EC_U+30A4_U+30E4_U+30FC 1
 62
   179
420
  2234388
370
    25
100
AcDb2dPolyline
 66
     1
 10
0.0
 20
0.0
 30
0.0
  0
VERTEX
  5
AA
330
A9
100
AcDbEntity
  8
_U+30EC_U+30A4_U+30E4_U+30FC 1
 62
   179
420
  2234388
370
    25
100
AcDbVertex
100
AcDb2dVertex
 10
87.33592221631945
 20
-80.89808275755323
 30
0.0
  0
VERTEX
  5
AB
330
A9
100
AcDbEntity
  8
_U+30EC_U+30A4_U+30E4_U+30FC 1
 62
   179
420
  2234388
370
    25
100
AcDbVertex
100
AcDb2dVertex
 10
65.3362419442447
 20
-80.89808275755323
 30
0.0
  0
SEQEND
  5
AC
330
A9
100
AcDbEntity
  8
_U+30EC_U+30A4_U+30E4_U+30FC 1
 62
   179
420
  2234388
370
    25
  0
POLYLINE
  5
AD
330
1F
100
AcDbEntity
  8
_U+30EC_U+30A4_U+30E4_U+30FC 1
 62
   179
420
  2234388
370
    25
100
AcDb2dPolyline
 66
     1
 10
0.0
 20
0.0
 30
0.0
  0
VERTEX
  5
AE
330
AD
100
AcDbEntity
  8
_U+30EC_U+30A4_U+30E4_U+30FC 1
 62
   179
420
  2234388
370
    25
100
AcDbVertex
100
AcDb2dVertex
 10
75.33597474468583
 20
-91.89790553258094
 30
0.0
  0
VERTEX
  5
AF
330
AD
100
AcDbEntity
  8
_U+30EC_U+30A4_U+30E4_U+30FC 1
 62
   179
420
  2234388
370
    25
100
AcDbVertex
100
AcDb2dVertex
 10
75.33597474468583
 20
-94.89792775405344
 30
0.0
  0
SEQEND
  5
B0
330
AD
100
AcDbEntity
  8
_U+30EC_U+30A4_U+30E4_U+30FC 1
 62
   179
420
  2234388
370
    25
  0
POLYLINE
  5
B1
330
1F
100
AcDbEntity
  8
_U+30EC_U+30A4_U+30E4_U+30FC 1
 62
   179
420
  2234388
370
    25
100
AcDb2dPolyline
 66
     1
 10
0.0
 20
0.0
 30
0.0
  0
VERTEX
  5
B2
330
B1
100
AcDbEntity
  8
_U+30EC_U+30A4_U+30E4_U+30FC 1
 62
   179
420
  2234388
370
    25
100
AcDbVertex
100
AcDb2dVertex
 10
87.33592221631945
 20
-80.89808275755323
 30
0.0
  0
VERTEX
  5
B3
330
B1
100
AcDbEntity
  8
_U+30EC_U+30A4_U+30E4_U+30FC 1
 62
   179
420
  2234388
370
    25
100
AcDbVertex
100
AcDb2dVertex
 10
87.33592221631945
 20
-81.89785497952545
 30
0.0
  0
SEQEND
  5
B4
330
B1
100
AcDbEntity
  8
_U+30EC_U+30A4_U+30E4_U+30FC 1
 62
   179
420
  2234388
370
    25
  0
POLYLINE
  5
B5
330
1F
100
AcDbEntity
  8
_U+30EC_U+30A4_U+30E4_U+30FC 1
 62
   179
420
  2234388
370
    25
100
AcDb2dPolyline
 66
     1
 10
0.0
 20
0.0
 30
0.0
  0
VERTEX
  5
B6
330
B5
100
AcDbEntity
  8
_U+30EC_U+30A4_U+30E4_U+30FC 1
 62
   179
420
  2234388
370
    25
100
AcDbVertex
100
AcDb2dVertex
 10
65.3362419442447
 20
-80.89808275755323
 30
0.0
  0
VERTEX
  5
B7
330
B5
100
AcDbEntity
  8
_U+30EC_U+30A4_U+30E4_U+30FC 1
 62
   179
420
  2234388
370
    25
100
AcDbVertex
100
AcDb2dVertex
 10
65.3362419442447
 20
-93.89780275430314
 30
0.0
  0
SEQEND
  5
B8
330
B5
100
AcDbEntity
  8
_U+30EC_U+30A4_U+30E4_U+30FC 1
 62
   179
420
  2234388
370
    25
  0
SPLINE
  5
B9
330
1F
100
AcDbEntity
  8
_U+30EC_U+30A4_U+30E4_U+30FC 1
 62
   179
420
  2234388
370
     9
100
AcDbSpline
210
0.0
220
0.0
230
1.0
 70
    11
 71
     3
 72
    17
 73
    13
 74
     0
 42
0.0000000001
 43
0.0000000001
 12
1.0
 22
0.0
 32
0.0
 13
1.0
 23
0.0
 33
0.0
 40
0.0
 40
0.0
 40
0.0
 40
0.0
 40
1.0
 40
1.0
 40
1.0
 40
2.0
 40
2.0
 40
2.0
 40
3.0
 40
3.0
 40
3.0
 40
4.0
 40
4.0
 40
4.0
 40
4.0
 10
33.43620721386326
 20
-76.8979708141089
 30
0.0
 10
33.43620721386326
 20
-76.84286692523366
 30
0.0
 10
33.39140443609654
 20
-76.79806414746727
 30
0.0
 10
33.3355949916661
 20
-76.79806414746727
 30
0.0
 10
33.28049110279086
 20
-76.79806414746727
 30
0.0
 10
33.23568832502446
 20
-76.84286692523366
 30
0.0
 10
33.23568832502446
 20
-76.8979708141089
 30
0.0
 10
33.23568832502446
 20
-76.95310998076167
 30
0.0
 10
33.28049110279086
 20
-76.99787748075055
 30
0.0
 10
33.3355949916661
 20
-76.99787748075055
 30
0.0
 10
33.39140443609654
 20
-76.99787748075055
 30
0.0
 10
33.43620721386326
 20
-76.95310998076167
 30
0.0
 10
33.43620721386326
 20
-76.8979708141089
 30
0.0
  0
SPLINE
  5
BA
330
1F
100
AcDbEntity
  8
_U+30EC_U+30A4_U+30E4_U+30FC 1
 62
   179
420
  2234388
370
     9
100
AcDbSpline
210
0.0
220
0.0
230
1.0
 70
    11
 71
     3
 72
    17
 73
    13
 74
     0
 42
0.0000000001
 43
0.0000000001
 12
1.0
 22
0.0
 32
0.0
 13
1.0
 23
0.0
 33
0.0
 40
0.0
 40
0.0
 40
0.0
 40
0.0
 40
1.0
 40
1.0
 40
1.0
 40
2.0
 40
2.0
 40
2.0
 40
3.0
 40
3.0
 40
3.0
 40
4.0
 40
4.0
 40
4.0
 40
4.0
 10
55.43571025238387
 20
-76.8979708141089
 30
0.0
 10
55.43571025238387
 20
-76.84286692523366
 30
0.0
 10
55.39094275352598
 20
-76.79806414746727
 30
0.0
 10
55.33580358826604
 20
-76.79806414746727
 30
0.0
 10
55.28069970078297
 20
-76.79806414746727
 30
0.0
 10
55.2358969241482
 20
-76.84286692523366
 30
0.0
 10
55.2358969241482
 20
-76.8979708141089
 30
0.0
 10
55.2358969241482
 20
-76.95310998076167
 30
0.0
 10
55.28069970078297
 20
-76.99787748075055
 30
0.0
 10
55.33580358826604
 20
-76.99787748075055
 30
0.0
 10
55.39094275352598
 20
-76.99787748075055
 30
0.0
 10
55.43571025238387
 20
-76.95310998076167
 30
0.0
 10
55.43571025238387
 20
-76.8979708141089
 30
0.0
  0
SPLINE
  5
BB
330
1F
100
AcDbEntity
  8
_U+30EC_U+30A4_U+30E4_U+30FC 1
 62
   179
420
  2234388
370
     9
100
AcDbSpline
210
0.0
220
0.0
230
1.0
 70
    11
 71
     3
 72
    17
 73
    13
 74
     0
 42
0.0000000001
 43
0.0000000001
 12
1.0
 22
0.0
 32
0.0
 13
1.0
 23
0.0
 33
0.0
 40
0.0
 40
0.0
 40
0.0
 40
0.0
 40
1.0
 40
1.0
 40
1.0
 40
2.0
 40
2.0
 40
2.0
 40
3.0
 40
3.0
 40
3.0
 40
4.0
 40
4.0
 40
4.0
 40
4.0
 10
65.43614860836254
 20
-76.8979708141089
 30
0.0
 10
65.43614860836254
 20
-76.84286692523366
 30
0.0
 10
65.39134583172778
 20
-76.79806414746727
 30
0.0
 10
65.3362419442447
 20
-76.79806414746727
 30
0.0
 10
65.28043250122408
 20
-76.79806414746727
 30
0.0
 10
65.23562972458932
 20
-76.84286692523366
 30
0.0
 10
65.23562972458932
 20
-76.8979708141089
 30
0.0
 10
65.23562972458932
 20
-76.95310998076167
 30
0.0
 10
65.28043250122408
 20
-76.99787748075055
 30
0.0
 10
65.3362419442447
 20
-76.99787748075055
 30
0.0
 10
65.39134583172778
 20
-76.99787748075055
 30
0.0
 10
65.43614860836254
 20
-76.95310998076167
 30
0.0
 10
65.43614860836254
 20
-76.8979708141089
 30
0.0
  0
SPLINE
  5
BC
330
1F
100
AcDbEntity
  8
_U+30EC_U+30A4_U+30E4_U+30FC 1
 62
   179
420
  2234388
370
     9
100
AcDbSpline
210
0.0
220
0.0
230
1.0
 70
    11
 71
     3
 72
    17
 73
    13
 74
     0
 42
0.0000000001
 43
0.0000000001
 12
1.0
 22
0.0
 32
0.0
 13
1.0
 23
0.0
 33
0.0
 40
0.0
 40
0.0
 40
0.0
 40
0.0
 40
1.0
 40
1.0
 40
1.0
 40
2.0
 40
2.0
 40
2.0
 40
3.0
 40
3.0
 40
3.0
 40
4.0
 40
4.0
 40
4.0
 40
4.0
 10
87.43582888043727
 20
-76.8979708141089
 30
0.0
 10
87.43582888043727
 20
-76.84286692523366
 30
0.0
 10
87.39106138157939
 20
-76.79806414746727
 30
0.0
 10
87.33592221631945
 20
-76.79806414746727
 30
0.0
 10
87.28081832883638
 20
-76.79806414746727
 30
0.0
 10
87.23601555220161
 20
-76.84286692523366
 30
0.0
 10
87.23601555220161
 20
-76.8979708141089
 30
0.0
 10
87.23601555220161
 20
-76.95310998076167
 30
0.0
 10
87.28081832883638
 20
-76.99787748075055
 30
0.0
 10
87.33592221631945
 20
-76.99787748075055
 30
0.0
 10
87.39106138157939
 20
-76.99787748075055
 30
0.0
 10
87.43582888043727
 20
-76.95310998076167
 30
0.0
 10
87.43582888043727
 20
-76.8979708141089
 30
0.0
  0
SPLINE
  5
BD
330
1F
100
AcDbEntity
  8
_U+30EC_U+30A4_U+30E4_U+30FC 1
 62
   179
420
  2234388
370
     9
100
AcDbSpline
210
0.0
220
0.0
230
1.0
 70
    11
 71
     3
 72
    17
 73
    13
 74
     0
 42
0.0000000001
 43
0.0000000001
 12
1.0
 22
0.0
 32
0.0
 13
1.0
 23
0.0
 33
0.0
 40
0.0
 40
0.0
 40
0.0
 40
0.0
 40
1.0
 40
1.0
 40
1.0
 40
2.0
 40
2.0
 40
2.0
 40
3.0
 40
3.0
 40
3.0
 40
4.0
 40
4.0
 40
4.0
 40
4.0
 10
91.43558794506158
 20
-80.89808275755323
 30
0.0
 10
91.43558794506158
 20
-80.84262609090055
 30
0.0
 10
91.39078516842683
 20
-80.79782331313383
 30
0.0
 10
91.33568128094376
 20
-80.79782331313383
 30
0.0
 10
91.28054442162417
 20
-80.79782331313383
 30
0.0
 10
91.23577461682592
 20
-80.84262609090055
 30
0.0
 10
91.23577461682592
 20
-80.89808275755323
 30
0.0
 10
91.23577461682592
 20
-80.95318664642846
 30
0.0
 10
91.28054442162417
 20
-80.99798942419487
 30
0.0
 10
91.33568128094376
 20
-80.99798942419487
 30
0.0
 10
91.39078516842683
 20
-80.99798942419487
 30
0.0
 10
91.43558794506158
 20
-80.95318664642846
 30
0.0
 10
91.43558794506158
 20
-80.89808275755323
 30
0.0
  0
SPLINE
  5
BE
330
1F
100
AcDbEntity
  8
_U+30EC_U+30A4_U+30E4_U+30FC 1
 62
   179
420
  2234388
370
     9
100
AcDbSpline
210
0.0
220
0.0
230
1.0
 70
    11
 71
     3
 72
    17
 73
    13
 74
     0
 42
0.0000000001
 43
0.0000000001
 12
1.0
 22
0.0
 32
0.0
 13
1.0
 23
0.0
 33
0.0
 40
0.0
 40
0.0
 40
0.0
 40
0.0
 40
1.0
 40
1.0
 40
1.0
 40
2.0
 40
2.0
 40
2.0
 40
3.0
 40
3.0
 40
3.0
 40
4.0
 40
4.0
 40
4.0
 40
4.0
 10
91.43558794506158
 20
-81.89785497952545
 30
0.0
 10
91.43558794506158
 20
-81.8427158128727
 30
0.0
 10
91.39078516842683
 20
-81.7979483128838
 30
0.0
 10
91.33568128094376
 20
-81.7979483128838
 30
0.0
 10
91.28054442162417
 20
-81.7979483128838
 30
0.0
 10
91.23577461682592
 20
-81.8427158128727
 30
0.0
 10
91.23577461682592
 20
-81.89785497952545
 30
0.0
 10
91.23577461682592
 20
-81.95331164617845
 30
0.0
 10
91.28054442162417
 20
-81.998079146167
 30
0.0
 10
91.33568128094376
 20
-81.998079146167
 30
0.0
 10
91.39078516842683
 20
-81.998079146167
 30
0.0
 10
91.43558794506158
 20
-81.95331164617845
 30
0.0
 10
91.43558794506158
 20
-81.89785497952545
 30
0.0
  0
SPLINE
  5
BF
330
1F
100
AcDbEntity
  8
_U+30EC_U+30A4_U+30E4_U+30FC 1
 62
   179
420
  2234388
370
     9
100
AcDbSpline
210
0.0
220
0.0
230
1.0
 70
    11
 71
     3
 72
    17
 73
    13
 74
     0
 42
0.0000000001
 43
0.0000000001
 12
1.0
 22
0.0
 32
0.0
 13
1.0
 23
0.0
 33
0.0
 40
0.0
 40
0.0
 40
0.0
 40
0.0
 40
1.0
 40
1.0
 40
1.0
 40
2.0
 40
2.0
 40
2.0
 40
3.0
 40
3.0
 40
3.0
 40
4.0
 40
4.0
 40
4.0
 40
4.0
 10
91.43558794506158
 20
-91.89790553258094
 30
0.0
 10
91.43558794506158
 20
-91.84280164370603
 30
0.0
 10
91.39078516842683
 20
-91.7979988659393
 30
0.0
 10
91.33568128094376
 20
-91.7979988659393
 30
0.0
 10
91.28054442162417
 20
-91.7979988659393
 30
0.0
 10
91.23577461682592
 20
-91.84280164370603
 30
0.0
 10
91.23577461682592
 20
-91.89790553258094
 30
0.0
 10
91.23577461682592
 20
-91.95304469923401
 30
0.0
 10
91.28054442162417
 20
-91.99784747700073
 30
0.0
 10
91.33568128094376
 20
-91.99784747700073
 30
0.0
 10
91.39078516842683
 20
-91.99784747700073
 30
0.0
 10
91.43558794506158
 20
-91.95304469923401
 30
0.0
 10
91.43558794506158
 20
-91.89790553258094
 30
0.0
  0
SPLINE
  5
C0
330
1F
100
AcDbEntity
  8
_U+30EC_U+30A4_U+30E4_U+30FC 1
 62
   179
420
  2234388
370
     9
100
AcDbSpline
210
0.0
220
0.0
230
1.0
 70
    11
 71
     3
 72
    17
 73
    13
 74
     0
 42
0.0000000001
 43
0.0000000001
 12
1.0
 22
0.0
 32
0.0
 13
1.0
 23
0.0
 33
0.0
 40
0.0
 40
0.0
 40
0.0
 40
0.0
 40
1.0
 40
1.0
 40
1.0
 40
2.0
 40
2.0
 40
2.0
 40
3.0
 40
3.0
 40
3.0
 40
4.0
 40
4.0
 40
4.0
 40
4.0
 10
91.43558794506158
 20
-94.89792775405344
 30
0.0
 10
91.43558794506158
 20
-94.84278858740036
 30
0.0
 10
91.39078516842683
 20
-94.79802108741181
 30
0.0
 10
91.33568128094376
 20
-94.79802108741181
 30
0.0
 10
91.28054442162417
 20
-94.79802108741181
 30
0.0
 10
91.23577461682592
 20
-94.84278858740036
 30
0.0
 10
91.23577461682592
 20
-94.89792775405344
 30
0.0
 10
91.23577461682592
 20
-94.95303164292837
 30
0.0
 10
91.28054442162417
 20
-94.99783442069509
 30
0.0
 10
91.33568128094376
 20
-94.99783442069509
 30
0.0
 10
91.39078516842683
 20
-94.99783442069509
 30
0.0
 10
91.43558794506158
 20
-94.95303164292837
 30
0.0
 10
91.43558794506158
 20
-94.89792775405344
 30
0.0
  0
SPLINE
  5
C1
330
1F
100
AcDbEntity
  8
_U+30EC_U+30A4_U+30E4_U+30FC 1
 62
   179
420
  2234388
370
     9
100
AcDbSpline
210
0.0
220
0.0
230
1.0
 70
    11
 71
     3
 72
    17
 73
    13
 74
     0
 42
0.0000000001
 43
0.0000000001
 12
1.0
 22
0.0
 32
0.0
 13
1.0
 23
0.0
 33
0.0
 40
0.0
 40
0.0
 40
0.0
 40
0.0
 40
1.0
 40
1.0
 40
1.0
 40
2.0
 40
2.0
 40
2.0
 40
3.0
 40
3.0
 40
3.0
 40
4.0
 40
4.0
 40
4.0
 40
4.0
 10
75.43588331447462
 20
-102.8981163631646
 30
0.0
 10
75.43588331447462
 20
-102.8426596965112
 30
0.0
 10
75.3910805367079
 20
-102.7978569187452
 30
0.0
 10
75.33597474468583
 20
-102.7978569187452
 30
0.0
 10
75.28083557942588
 20
-102.7978569187452
 30
0.0
 10
75.23606808056799
 20
-102.8426596965112
 30
0.0
 10
75.23606808056799
 20
-102.8981163631646
 30
0.0
 10
75.23606808056799
 20
-102.9532202520395
 30
0.0
 10
75.28083557942588
 20
-102.9980230298062
 30
0.0
 10
75.33597474468583
 20
-102.9980230298062
 30
0.0
 10
75.3910805367079
 20
-102.9980230298062
 30
0.0
 10
75.43588331447462
 20
-102.9532202520395
 30
0.0
 10
75.43588331447462
 20
-102.8981163631646
 30
0.0
  0
SPLINE
  5
C2
330
1F
100
AcDbEntity
  8
_U+30EC_U+30A4_U+30E4_U+30FC 1
 62
   179
420
  2234388
370
     9
100
AcDbSpline
210
0.0
220
0.0
230
1.0
 70
    11
 71
     3
 72
    17
 73
    13
 74
     0
 42
0.0000000001
 43
0.0000000001
 12
1.0
 22
0.0
 32
0.0
 13
1.0
 23
0.0
 33
0.0
 40
0.0
 40
0.0
 40
0.0
 40
0.0
 40
1.0
 40
1.0
 40
1.0
 40
2.0
 40
2.0
 40
2.0
 40
3.0
 40
3.0
 40
3.0
 40
4.0
 40
4.0
 40
4.0
 40
4.0
 10
66.43592080507845
 20
-102.8981163631646
 30
0.0
 10
66.43592080507845
 20
-102.8426596965112
 30
0.0
 10
66.39111802844369
 20
-102.7978569187452
 30
0.0
 10
66.33601414096061
 20
-102.7978569187452
 30
0.0
 10
66.28087497570067
 20
-102.7978569187452
 30
0.0
 10
66.23610747684279
 20
-102.8426596965112
 30
0.0
 10
66.23610747684279
 20
-102.8981163631646
 30
0.0
 10
66.23610747684279
 20
-102.9532202520395
 30
0.0
 10
66.28087497570067
 20
-102.9980230298062
 30
0.0
 10
66.33601414096061
 20
-102.9980230298062
 30
0.0
 10
66.39111802844369
 20
-102.9980230298062
 30
0.0
 10
66.43592080507845
 20
-102.9532202520395
 30
0.0
 10
66.43592080507845
 20
-102.8981163631646
 30
0.0
  0
SPLINE
  5
C3
330
1F
100
AcDbEntity
  8
_U+30EC_U+30A4_U+30E4_U+30FC 1
 62
   179
420
  2234388
370
     9
100
AcDbSpline
210
0.0
220
0.0
230
1.0
 70
    11
 71
     3
 72
    17
 73
    13
 74
     0
 42
0.0000000001
 43
0.0000000001
 12
1.0
 22
0.0
 32
0.0
 13
1.0
 23
0.0
 33
0.0
 40
0.0
 40
0.0
 40
0.0
 40
0.0
 40
1.0
 40
1.0
 40
1.0
 40
2.0
 40
2.0
 40
2.0
 40
3.0
 40
3.0
 40
3.0
 40
4.0
 40
4.0
 40
4.0
 40
4.0
 10
54.43593805566796
 20
-102.8981163631646
 30
0.0
 10
54.43593805566796
 20
-102.8426596965112
 30
0.0
 10
54.39117055681008
 20
-102.7978569187452
 30
0.0
 10
54.33603139155013
 20
-102.7978569187452
 30
0.0
 10
54.2802219485295
 20
-102.7978569187452
 30
0.0
 10
54.23545444967161
 20
-102.8426596965112
 30
0.0
 10
54.23545444967161
 20
-102.8981163631646
 30
0.0
 10
54.23545444967161
 20
-102.9532202520395
 30
0.0
 10
54.2802219485295
 20
-102.9980230298062
 30
0.0
 10
54.33603139155013
 20
-102.9980230298062
 30
0.0
 10
54.39117055681008
 20
-102.9980230298062
 30
0.0
 10
54.43593805566796
 20
-102.9532202520395
 30
0.0
 10
54.43593805566796
 20
-102.8981163631646
 30
0.0
  0
SPLINE
  5
C4
330
1F
100
AcDbEntity
  8
_U+30EC_U+30A4_U+30E4_U+30FC 1
 62
   179
420
  2234388
370
     9
100
AcDbSpline
210
0.0
220
0.0
230
1.0
 70
    11
 71
     3
 72
    17
 73
    13
 74
     0
 42
0.0000000001
 43
0.0000000001
 12
1.0
 22
0.0
 32
0.0
 13
1.0
 23
0.0
 33
0.0
 40
0.0
 40
0.0
 40
0.0
 40
0.0
 40
1.0
 40
1.0
 40
1.0
 40
2.0
 40
2.0
 40
2.0
 40
3.0
 40
3.0
 40
3.0
 40
4.0
 40
4.0
 40
4.0
 40
4.0
 10
45.43597745194275
 20
-102.8981163631646
 30
0.0
 10
45.43597745194275
 20
-102.8426596965112
 30
0.0
 10
45.39121109976319
 20
-102.7978569187452
 30
0.0
 10
45.33607078782492
 20
-102.7978569187452
 30
0.0
 10
45.28026134480429
 20
-102.7978569187452
 30
0.0
 10
45.23549384594641
 20
-102.8426596965112
 30
0.0
 10
45.23549384594641
 20
-102.8981163631646
 30
0.0
 10
45.23549384594641
 20
-102.9532202520395
 30
0.0
 10
45.28026134480429
 20
-102.9980230298062
 30
0.0
 10
45.33607078782492
 20
-102.9980230298062
 30
0.0
 10
45.39121109976319
 20
-102.9980230298062
 30
0.0
 10
45.43597745194275
 20
-102.9532202520395
 30
0.0
 10
45.43597745194275
 20
-102.8981163631646
 30
0.0
  0
SPLINE
  5
C5
330
1F
100
AcDbEntity
  8
_U+30EC_U+30A4_U+30E4_U+30FC 1
 62
   179
420
  2234388
370
     9
100
AcDbSpline
210
0.0
220
0.0
230
1.0
 70
    11
 71
     3
 72
    17
 73
    13
 74
     0
 42
0.0000000001
 43
0.0000000001
 12
1.0
 22
0.0
 32
0.0
 13
1.0
 23
0.0
 33
0.0
 40
0.0
 40
0.0
 40
0.0
 40
0.0
 40
1.0
 40
1.0
 40
1.0
 40
2.0
 40
2.0
 40
2.0
 40
3.0
 40
3.0
 40
3.0
 40
4.0
 40
4.0
 40
4.0
 40
4.0
 10
58.68581655835564
 20
-98.89800441971992
 30
0.0
 10
58.68581655835564
 20
-98.84290053084501
 30
0.0
 10
58.64104905949775
 20
-98.7980977530783
 30
0.0
 10
58.58590989423781
 20
-98.7980977530783
 30
0.0
 10
58.53080600675474
 20
-98.7980977530783
 30
0.0
 10
58.48600323011997
 20
-98.84290053084501
 30
0.0
 10
58.48600323011997
 20
-98.89800441971992
 30
0.0
 10
58.48600323011997
 20
-98.953143586373
 30
0.0
 10
58.53080600675474
 20
-98.99791108636157
 30
0.0
 10
58.58590989423781
 20
-98.99791108636157
 30
0.0
 10
58.64104905949775
 20
-98.99791108636157
 30
0.0
 10
58.68581655835564
 20
-98.953143586373
 30
0.0
 10
58.68581655835564
 20
-98.89800441971992
 30
0.0
  0
SPLINE
  5
C6
330
1F
100
AcDbEntity
  8
_U+30EC_U+30A4_U+30E4_U+30FC 1
 62
   179
420
  2234388
370
     9
100
AcDbSpline
210
0.0
220
0.0
230
1.0
 70
    11
 71
     3
 72
    17
 73
    13
 74
     0
 42
0.0000000001
 43
0.0000000001
 12
1.0
 22
0.0
 32
0.0
 13
1.0
 23
0.0
 33
0.0
 40
0.0
 40
0.0
 40
0.0
 40
0.0
 40
1.0
 40
1.0
 40
1.0
 40
2.0
 40
2.0
 40
2.0
 40
3.0
 40
3.0
 40
3.0
 40
4.0
 40
4.0
 40
4.0
 40
4.0
 10
62.18604230239077
 20
-98.89800441971992
 30
0.0
 10
62.18604230239077
 20
-98.84290053084501
 30
0.0
 10
62.14123952575601
 20
-98.7980977530783
 30
0.0
 10
62.08613563827294
 20
-98.7980977530783
 30
0.0
 10
62.03099647301299
 20
-98.7980977530783
 30
0.0
 10
61.98623054005894
 20
-98.84290053084501
 30
0.0
 10
61.98623054005894
 20
-98.89800441971992
 30
0.0
 10
61.98623054005894
 20
-98.953143586373
 30
0.0
 10
62.03099647301299
 20
-98.99791108636157
 30
0.0
 10
62.08613563827294
 20
-98.99791108636157
 30
0.0
 10
62.14123952575601
 20
-98.99791108636157
 30
0.0
 10
62.18604230239077
 20
-98.953143586373
 30
0.0
 10
62.18604230239077
 20
-98.89800441971992
 30
0.0
  0
INSERT
  5
C8
330
1F
100
AcDbEntity
  8
_U+30EC_U+30A4_U+30E4_U+30FC 1
100
AcDbBlockReference
  2
block 2
 10
0.0
 20
0.0
 30
0.0
  0
INSERT
  5
104
330
1F
100
AcDbEntity
  8
_U+30EC_U+30A4_U+30E4_U+30FC 1
100
AcDbBlockReference
  2
block 3
 10
0.0
 20
0.0
 30
0.0
  0
INSERT
  5
12B
330
1F
100
AcDbEntity
  8
_U+30EC_U+30A4_U+30E4_U+30FC 1
100
AcDbBlockReference
  2
block 8
 10
0.0
 20
0.0
 30
0.0
  0
INSERT
  5
14F
330
1F
100
AcDbEntity
  8
_U+30EC_U+30A4_U+30E4_U+30FC 1
100
AcDbBlockReference
  2
block 13
 10
0.0
 20
0.0
 30
0.0
  0
INSERT
  5
172
330
1F
100
AcDbEntity
  8
_U+30EC_U+30A4_U+30E4_U+30FC 1
100
AcDbBlockReference
  2
block 18
 10
0.0
 20
0.0
 30
0.0
  0
INSERT
  5
1A5
330
1F
100
AcDbEntity
  8
_U+30EC_U+30A4_U+30E4_U+30FC 1
100
AcDbBlockReference
  2
block 23
 10
0.0
 20
0.0
 30
0.0
  0
INSERT
  5
1CC
330
1F
100
AcDbEntity
  8
_U+30EC_U+30A4_U+30E4_U+30FC 1
100
AcDbBlockReference
  2
block 28
 10
0.0
 20
0.0
 30
0.0
  0
INSERT
  5
1EE
330
1F
100
AcDbEntity
  8
_U+30EC_U+30A4_U+30E4_U+30FC 1
100
AcDbBlockReference
  2
block 33
 10
0.0
 20
0.0
 30
0.0
  0
INSERT
  5
210
330
1F
100
AcDbEntity
  8
_U+30EC_U+30A4_U+30E4_U+30FC 1
100
AcDbBlockReference
  2
block 38
 10
0.0
 20
0.0
 30
0.0
  0
INSERT
  5
235
330
1F
100
AcDbEntity
  8
_U+30EC_U+30A4_U+30E4_U+30FC 1
100
AcDbBlockReference
  2
block 43
 10
0.0
 20
0.0
 30
0.0
  0
INSERT
  5
25A
330
1F
100
AcDbEntity
  8
_U+30EC_U+30A4_U+30E4_U+30FC 1
100
AcDbBlockReference
  2
block 48
 10
0.0
 20
0.0
 30
0.0
  0
INSERT
  5
268
330
1F
100
AcDbEntity
  8
_U+30EC_U+30A4_U+30E4_U+30FC 1
100
AcDbBlockReference
  2
block 51
 10
0.0
 20
0.0
 30
0.0
  0
ENDSEC
  0
SECTION
  2
OBJECTS
  0
DICTIONARY
  5
C
330
0
100
AcDbDictionary
281
     1
  3
ACAD_GROUP
350
D
  3
ACAD_LAYOUT
350
1A
  3
ACAD_MATERIAL
350
3B
  3
ACAD_MLEADERSTYLE
350
28C
  3
ACAD_MLINESTYLE
350
17
  3
ACAD_PLOTSETTINGS
350
19
  3
ACAD_PLOTSTYLENAME
350
E
  3
ACAD_TABLESTYLE
350
28B
  3
ACAD_VISUALSTYLE
350
2A
  0
SUN
  5
3F
330
29
100
AcDbSun
 90
        1
290
     0
 63
     7
421
 16777215
 40
1.0
291
     1
 91
  2455826
 92
 54000000
292
     0
 70
     2
 71
   256
280
     1
  0
DICTIONARY
  5
D
102
{ACAD_REACTORS
330
C
102
}
330
C
100
AcDbDictionary
281
     1
  0
DICTIONARY
  5
1A
102
{ACAD_REACTORS
330
C
102
}
330
C
100
AcDbDictionary
281
     1
  3
Layout1
350
1E
  3
Layout2
350
26
  3
Model
350
22
  0
DICTIONARY
  5
3B
102
{ACAD_REACTORS
330
C
102
}
330
C
100
AcDbDictionary
281
     1
  3
ByBlock
350
3D
  3
ByLayer
350
3C
  3
Global
350
3E
  0
DICTIONARY
  5
28C
102
{ACAD_REACTORS
330
C
102
}
330
C
100
AcDbDictionary
281
     1
  0
DICTIONARY
  5
17
102
{ACAD_REACTORS
330
C
102
}
330
C
100
AcDbDictionary
281
     1
  3
Standard
350
18
  0
DICTIONARY
  5
19
102
{ACAD_REACTORS
330
C
102
}
330
C
100
AcDbDictionary
281
     1
  0
ACDBDICTIONARYWDFLT
  5
E
102
{ACAD_REACTORS
330
C
102
}
330
C
100
AcDbDictionary
281
     1
  3
Normal
350
F
100
AcDbDictionaryWithDefault
340
F
  0
DICTIONARY
  5
28B
102
{ACAD_REACTORS
330
C
102
}
330
C
100
AcDbDictionary
281
     1
  0
DICTIONARY
  5
2A
102
{ACAD_REACTORS
330
C
102
}
330
C
100
AcDbDictionary
281
     1
  3
2dWireframe
350
2F
  3
3D Hidden
350
31
  3
3dWireframe
350
30
  3
Basic
350
32
  3
Brighten
350
36
  3
ColorChange
350
3A
  3
Conceptual
350
34
  3
Dim
350
35
  3
Facepattern
350
39
  3
Flat
350
2B
  3
FlatWithEdges
350
2C
  3
Gouraud
350
2D
  3
GouraudWithEdges
350
2E
  3
Linepattern
350
38
  3
Realistic
350
33
  3
Thicken
350
37
  0
LAYOUT
  5
1E
102
{ACAD_REACTORS
330
1A
102
}
330
1A
100
AcDbPlotSettings
  1

  2
none_device
  4

  6

 40
0.0
 41
0.0
 42
0.0
 43
0.0
 44
0.0
 45
0.0
 46
0.0
 47
0.0
 48
0.0
 49
0.0
140
0.0
141
0.0
142
1.0
143
1.0
 70
   688
 72
     0
 73
     0
 74
     5
  7

 75
    16
 76
     0
 77
     2
 78
   300
147
1.0
148
0.0
149
0.0
100
AcDbLayout
  1
Layout1
 70
     1
 71
     1
 10
0.0
 20
0.0
 11
12.0
 21
9.0
 12
0.0
 22
0.0
 32
0.0
 14
1.000000000000000E+20
 24
1.000000000000000E+20
 34
1.000000000000000E+20
 15
-1.000000000000000E+20
 25
-1.000000000000000E+20
 35
-1.000000000000000E+20
146
0.0
 13
0.0
 23
0.0
 33
0.0
 16
1.0
 26
0.0
 36
0.0
 17
0.0
 27
1.0
 37
0.0
 76
     0
330
1B
  0
LAYOUT
  5
26
102
{ACAD_REACTORS
330
1A
102
}
330
1A
100
AcDbPlotSettings
  1

  2
none_device
  4

  6

 40
0.0
 41
0.0
 42
0.0
 43
0.0
 44
0.0
 45
0.0
 46
0.0
 47
0.0
 48
0.0
 49
0.0
140
0.0
141
0.0
142
1.0
143
1.0
 70
   688
 72
     0
 73
     0
 74
     5
  7

 75
    16
 76
     0
 77
     2
 78
   300
147
1.0
148
0.0
149
0.0
100
AcDbLayout
  1
Layout2
 70
     1
 71
     2
 10
0.0
 20
0.0
 11
0.0
 21
0.0
 12
0.0
 22
0.0
 32
0.0
 14
0.0
 24
0.0
 34
0.0
 15
0.0
 25
0.0
 35
0.0
146
0.0
 13
0.0
 23
0.0
 33
0.0
 16
1.0
 26
0.0
 36
0.0
 17
0.0
 27
1.0
 37
0.0
 76
     0
330
23
  0
LAYOUT
  5
22
102
{ACAD_REACTORS
330
1A
102
}
330
1A
100
AcDbPlotSettings
  1

  2
none_device
  4

  6

 40
0.0
 41
0.0
 42
0.0
 43
0.0
 44
0.0
 45
0.0
 46
0.0
 47
0.0
 48
0.0
 49
0.0
140
0.0
141
0.0
142
1.0
143
1.0
 70
  1712
 72
     0
 73
     0
 74
     0
  7

 75
     0
 76
     0
 77
     2
 78
   300
147
1.0
148
0.0
149
0.0
100
AcDbLayout
  1
Model
 70
     1
 71
     0
 10
0.0
 20
0.0
 11
12.0
 21
9.0
 12
0.0
 22
0.0
 32
0.0
 14
1.000000000000000E+20
 24
1.000000000000000E+20
 34
1.000000000000000E+20
 15
-1.000000000000000E+20
 25
-1.000000000000000E+20
 35
-1.000000000000000E+20
146
0.0
 13
0.0
 23
0.0
 33
0.0
 16
1.0
 26
0.0
 36
0.0
 17
0.0
 27
1.0
 37
0.0
 76
     0
330
1F
331
29
  0
MATERIAL
  5
3D
102
{ACAD_REACTORS
330
3B
102
}
330
3B
100
AcDbMaterial
  1
ByBlock
 72
     1
 94
      127
  0
MATERIAL
  5
3C
102
{ACAD_REACTORS
330
3B
102
}
330
3B
100
AcDbMaterial
  1
ByLayer
 72
     1
 94
      127
  0
MATERIAL
  5
3E
102
{ACAD_REACTORS
330
3B
102
}
330
3B
100
AcDbMaterial
  1
Global
 72
     1
 94
      127
  0
MLINESTYLE
  5
18
102
{ACAD_REACTORS
330
17
102
}
330
17
100
AcDbMlineStyle
  2
Standard
 70
     0
  3

 62
   256
 51
90.0
 52
90.0
 71
     2
 49
0.5
 62
   256
  6
BYLAYER
 49
-0.5
 62
   256
  6
BYLAYER
  0
ACDBPLACEHOLDER
  5
F
102
{ACAD_REACTORS
330
E
102
}
330
E
  0
VISUALSTYLE
  5
2F
102
{ACAD_REACTORS
330
2A
102
}
330
2A
100
AcDbVisualStyle
  2
2dWireframe
 70
     4
177
     2
291
     0
 71
     0
176
     1
 72
     2
176
     1
 73
     0
176
     1
 90
        0
176
     1
 40
-0.6
176
     1
 41
-30.0
176
     1
 62
     5
 63
     7
421
 16777215
176
     1
 74
     1
176
     1
 91
        4
176
     1
 64
     7
176
     1
 65
   257
176
     1
 75
     1
176
     1
175
     1
176
     1
 42
1.0
176
     1
 92
        0
176
     1
 66
   257
176
     1
 43
1.0
176
     1
 76
     1
176
     1
 77
     6
176
     1
 78
     2
176
     1
 67
     7
176
     1
 79
     5
176
     1
170
     0
176
     1
171
     0
176
     1
290
     0
176
     1
 93
        1
176
     1
 44
0.0
176
     1
173
     0
176
     1
  0
VISUALSTYLE
  5
31
102
{ACAD_REACTORS
330
2A
102
}
330
2A
100
AcDbVisualStyle
  2
3D Hidden
 70
     6
177
     2
291
     0
 71
     1
176
     1
 72
     2
176
     1
 73
     2
176
     1
 90
        0
176
     1
 40
-0.6
176
     1
 41
-30.0
176
     1
 62
     5
 63
     7
421
 16777215
176
     1
 74
     2
176
     1
 91
        2
176
     1
 64
     7
176
     1
 65
   257
176
     1
 75
     2
176
     1
175
     1
176
     1
 42
40.0
176
     1
 92
        0
176
     1
 66
   257
176
     1
 43
1.0
176
     1
 76
     1
176
     1
 77
     6
176
     1
 78
     2
176
     1
 67
     7
176
     1
 79
     3
176
     1
170
     0
176
     1
171
     0
176
     1
290
     0
176
     1
 93
        1
176
     1
 44
0.0
176
     1
173
     0
176
     1
  0
VISUALSTYLE
  5
30
102
{ACAD_REACTORS
330
2A
102
}
330
2A
100
AcDbVisualStyle
  2
3dWireframe
 70
     5
177
     2
291
     0
 71
     0
176
     1
 72
     2
176
     1
 73
     0
176
     1
 90
        0
176
     1
 40
-0.6
176
     1
 41
-30.0
176
     1
 62
     5
 63
     7
421
 16777215
176
     1
 74
     1
176
     1
 91
        4
176
     1
 64
     7
176
     1
 65
   257
176
     1
 75
     1
176
     1
175
     1
176
     1
 42
1.0
176
     1
 92
        0
176
     1
 66
   257
176
     1
 43
1.0
176
     1
 76
     1
176
     1
 77
     6
176
     1
 78
     2
176
     1
 67
     7
176
     1
 79
     5
176
     1
170
     0
176
     1
171
     0
176
     1
290
     0
176
     1
 93
        1
176
     1
 44
0.0
176
     1
173
     0
176
     1
  0
VISUALSTYLE
  5
32
102
{ACAD_REACTORS
330
2A
102
}
330
2A
100
AcDbVisualStyle
  2
Basic
 70
     7
177
     2
291
     1
 71
     1
176
     1
 72
     0
176
     1
 73
     1
176
     1
 90
        0
176
     1
 40
-0.6
176
     1
 41
-30.0
176
     1
 62
     5
 63
     7
421
 16777215
176
     1
 74
     0
176
     1
 91
        4
176
     1
 64
     7
176
     1
 65
   257
176
     1
 75
     1
176
     1
175
     1
176
     1
 42
1.0
176
     1
 92
        8
176
     1
 66
     7
176
     1
 43
1.0
176
     1
 76
     1
176
     1
 77
     6
176
     1
 78
     2
176
     1
 67
     7
176
     1
 79
     5
176
     1
170
     0
176
     1
171
     0
176
     1
290
     0
176
     1
 93
        1
176
     1
 44
0.0
176
     1
173
     0
176
     1
  0
VISUALSTYLE
  5
36
102
{ACAD_REACTORS
330
2A
102
}
330
2A
100
AcDbVisualStyle
  2
Brighten
 70
    12
177
     2
291
     1
 71
     2
176
     1
 72
     2
176
     1
 73
     0
176
     1
 90
        0
176
     1
 40
-0.6
176
     1
 41
-30.0
176
     1
 62
     5
 63
     7
421
 16777215
176
     1
 74
     1
176
     1
 91
        4
176
     1
 64
     7
176
     1
 65
   257
176
     1
 75
     1
176
     1
175
     1
176
     1
 42
1.0
176
     1
 92
        8
176
     1
 66
     7
176
     1
 43
1.0
176
     1
 76
     1
176
     1
 77
     6
176
     1
 78
     2
176
     1
 67
     7
176
     1
 79
     5
176
     1
170
     0
176
     1
171
     0
176
     1
290
     0
176
     1
 93
        1
176
     1
 44
50.0
176
     1
173
     0
176
     1
  0
VISUALSTYLE
  5
3A
102
{ACAD_REACTORS
330
2A
102
}
330
2A
100
AcDbVisualStyle
  2
ColorChange
 70
    16
177
     2
291
     1
 71
     2
176
     1
 72
     2
176
     1
 73
     3
176
     1
 90
        0
176
     1
 40
-0.6
176
     1
 41
-30.0
176
     1
 62
     5
 63
     8
421
  8421504
176
     1
 74
     1
176
     1
 91
        4
176
     1
 64
     7
176
     1
 65
   257
176
     1
 75
     1
176
     1
175
     1
176
     1
 42
1.0
176
     1
 92
        8
176
     1
 66
     8
424
  8421504
176
     1
 43
1.0
176
     1
 76
     1
176
     1
 77
     6
176
     1
 78
     2
176
     1
 67
     7
176
     1
 79
     5
176
     1
170
     0
176
     1
171
     0
176
     1
290
     0
176
     1
 93
        1
176
     1
 44
0.0
176
     1
173
     0
176
     1
  0
VISUALSTYLE
  5
34
102
{ACAD_REACTORS
330
2A
102
}
330
2A
100
AcDbVisualStyle
  2
Conceptual
 70
     9
177
     2
291
     0
 71
     3
176
     1
 72
     2
176
     1
 73
     0
176
     1
 90
        0
176
     1
 40
-0.6
176
     1
 41
-30.0
176
     1
 62
     5
 63
     7
421
 16777215
176
     1
 74
     2
176
     1
 91
        2
176
     1
 64
     7
176
     1
 65
   257
176
     1
 75
     1
176
     1
175
     1
176
     1
 42
40.0
176
     1
 92
        8
176
     1
 66
     7
176
     1
 43
1.0
176
     1
 76
     1
176
     1
 77
     6
176
     1
 78
     2
176
     1
 67
     7
176
     1
 79
     3
176
     1
170
     0
176
     1
171
     0
176
     1
290
     0
176
     1
 93
        1
176
     1
 44
0.0
176
     1
173
     0
176
     1
  0
VISUALSTYLE
  5
35
102
{ACAD_REACTORS
330
2A
102
}
330
2A
100
AcDbVisualStyle
  2
Dim
 70
    11
177
     2
291
     1
 71
     2
176
     1
 72
     2
176
     1
 73
     0
176
     1
 90
        0
176
     1
 40
-0.6
176
     1
 41
-30.0
176
     1
 62
     5
 63
     7
421
 16777215
176
     1
 74
     1
176
     1
 91
        4
176
     1
 64
     7
176
     1
 65
   257
176
     1
 75
     1
176
     1
175
     1
176
     1
 42
1.0
176
     1
 92
        8
176
     1
 66
     7
176
     1
 43
1.0
176
     1
 76
     1
176
     1
 77
     6
176
     1
 78
     2
176
     1
 67
     7
176
     1
 79
     5
176
     1
170
     0
176
     1
171
     0
176
     1
290
     0
176
     1
 93
        1
176
     1
 44
-50.0
176
     1
173
     0
176
     1
  0
VISUALSTYLE
  5
39
102
{ACAD_REACTORS
330
2A
102
}
330
2A
100
AcDbVisualStyle
  2
Facepattern
 70
    15
177
     2
291
     1
 71
     2
176
     1
 72
     2
176
     1
 73
     0
176
     1
 90
        0
176
     1
 40
-0.6
176
     1
 41
-30.0
176
     1
 62
     5
 63
     7
421
 16777215
176
     1
 74
     1
176
     1
 91
        4
176
     1
 64
     7
176
     1
 65
   257
176
     1
 75
     1
176
     1
175
     1
176
     1
 42
1.0
176
     1
 92
        8
176
     1
 66
     7
176
     1
 43
1.0
176
     1
 76
     1
176
     1
 77
     6
176
     1
 78
     2
176
     1
 67
     7
176
     1
 79
     5
176
     1
170
     0
176
     1
171
     0
176
     1
290
     0
176
     1
 93
        1
176
     1
 44
0.0
176
     1
173
     0
176
     1
  0
VISUALSTYLE
  5
2B
102
{ACAD_REACTORS
330
2A
102
}
330
2A
100
AcDbVisualStyle
  2
Flat
 70
     0
177
     2
291
     1
 71
     2
176
     1
 72
     1
176
     1
 73
     1
176
     1
 90
        2
176
     1
 40
-0.6
176
     1
 41
30.0
176
     1
 62
     5
 63
     7
421
 16777215
176
     1
 74
     0
176
     1
 91
        4
176
     1
 64
     7
176
     1
 65
   257
176
     1
 75
     1
176
     1
175
     1
176
     1
 42
1.0
176
     1
 92
        8
176
     1
 66
     7
176
     1
 43
1.0
176
     1
 76
     1
176
     1
 77
     6
176
     1
 78
     2
176
     1
 67
     7
176
     1
 79
     5
176
     1
170
     0
176
     1
171
     0
176
     1
290
     0
176
     1
 93
       13
176
     1
 44
0.0
176
     1
173
     0
176
     1
  0
VISUALSTYLE
  5
2C
102
{ACAD_REACTORS
330
2A
102
}
330
2A
100
AcDbVisualStyle
  2
FlatWithEdges
 70
     1
177
     2
291
     1
 71
     2
176
     1
 72
     1
176
     1
 73
     1
176
     1
 90
        2
176
     1
 40
-0.6
176
     1
 41
30.0
176
     1
 62
     5
 63
     7
421
 16777215
176
     1
 74
     1
176
     1
 91
        4
176
     1
 64
     7
176
     1
 65
   257
176
     1
 75
     1
176
     1
175
     1
176
     1
 42
1.0
176
     1
 92
        0
176
     1
 66
   257
176
     1
 43
1.0
176
     1
 76
     1
176
     1
 77
     6
176
     1
 78
     2
176
     1
 67
     7
176
     1
 79
     5
176
     1
170
     0
176
     1
171
     0
176
     1
290
     0
176
     1
 93
       13
176
     1
 44
0.0
176
     1
173
     0
176
     1
  0
VISUALSTYLE
  5
2D
102
{ACAD_REACTORS
330
2A
102
}
330
2A
100
AcDbVisualStyle
  2
Gouraud
 70
     2
177
     2
291
     1
 71
     2
176
     1
 72
     2
176
     1
 73
     1
176
     1
 90
        2
176
     1
 40
-0.6
176
     1
 41
30.0
176
     1
 62
     5
 63
     7
421
 16777215
176
     1
 74
     0
176
     1
 91
        4
176
     1
 64
     7
176
     1
 65
   257
176
     1
 75
     1
176
     1
175
     1
176
     1
 42
1.0
176
     1
 92
        0
176
     1
 66
     7
176
     1
 43
1.0
176
     1
 76
     1
176
     1
 77
     6
176
     1
 78
     2
176
     1
 67
     7
176
     1
 79
     5
176
     1
170
     0
176
     1
171
     0
176
     1
290
     0
176
     1
 93
       13
176
     1
 44
0.0
176
     1
173
     0
176
     1
  0
VISUALSTYLE
  5
2E
102
{ACAD_REACTORS
330
2A
102
}
330
2A
100
AcDbVisualStyle
  2
GouraudWithEdges
 70
     3
177
     2
291
     1
 71
     2
176
     1
 72
     2
176
     1
 73
     1
176
     1
 90
        2
176
     1
 40
-0.6
176
     1
 41
30.0
176
     1
 62
     5
 63
     7
421
 16777215
176
     1
 74
     1
176
     1
 91
        4
176
     1
 64
     7
176
     1
 65
   257
176
     1
 75
     1
176
     1
175
     1
176
     1
 42
1.0
176
     1
 92
        0
176
     1
 66
   257
176
     1
 43
1.0
176
     1
 76
     1
176
     1
 77
     6
176
     1
 78
     2
176
     1
 67
     7
176
     1
 79
     5
176
     1
170
     0
176
     1
171
     0
176
     1
290
     0
176
     1
 93
       13
176
     1
 44
0.0
176
     1
173
     0
176
     1
  0
VISUALSTYLE
  5
38
102
{ACAD_REACTORS
330
2A
102
}
330
2A
100
AcDbVisualStyle
  2
Linepattern
 70
    14
177
     2
291
     1
 71
     2
176
     1
 72
     2
176
     1
 73
     0
176
     1
 90
        0
176
     1
 40
-0.6
176
     1
 41
-30.0
176
     1
 62
     5
 63
     7
421
 16777215
176
     1
 74
     1
176
     1
 91
        4
176
     1
 64
     7
176
     1
 65
   257
176
     1
 75
     7
176
     1
175
     7
176
     1
 42
1.0
176
     1
 92
        8
176
     1
 66
     7
176
     1
 43
1.0
176
     1
 76
     1
176
     1
 77
     6
176
     1
 78
     2
176
     1
 67
     7
176
     1
 79
     5
176
     1
170
     0
176
     1
171
     0
176
     1
290
     0
176
     1
 93
        1
176
     1
 44
0.0
176
     1
173
     0
176
     1
  0
VISUALSTYLE
  5
33
102
{ACAD_REACTORS
330
2A
102
}
330
2A
100
AcDbVisualStyle
  2
Realistic
 70
     8
177
     2
291
     0
 71
     2
176
     1
 72
     2
176
     1
 73
     0
176
     1
 90
        0
176
     1
 40
-0.6
176
     1
 41
-30.0
176
     1
 62
     5
 63
     7
421
 16777215
176
     1
 74
     1
176
     1
 91
        0
176
     1
 64
     7
176
     1
 65
   257
176
     1
 75
     1
176
     1
175
     1
176
     1
 42
1.0
176
     1
 92
        8
176
     1
 66
     8
424
  7895160
176
     1
 43
1.0
176
     1
 76
     1
176
     1
 77
     6
176
     1
 78
     2
176
     1
 67
     7
176
     1
 79
     5
176
     1
170
     0
176
     1
171
     0
176
     1
290
     0
176
     1
 93
       13
176
     1
 44
0.0
176
     1
173
     0
176
     1
  0
VISUALSTYLE
  5
37
102
{ACAD_REACTORS
330
2A
102
}
330
2A
100
AcDbVisualStyle
  2
Thicken
 70
    13
177
     2
291
     1
 71
     2
176
     1
 72
     2
176
     1
 73
     0
176
     1
 90
        0
176
     1
 40
-0.6
176
     1
 41
-30.0
176
     1
 62
     5
 63
     7
421
 16777215
176
     1
 74
     1
176
     1
 91
        4
176
     1
 64
     7
176
     1
 65
   257
176
     1
 75
     1
176
     1
175
     1
176
     1
 42
1.0
176
     1
 92
       12
176
     1
 66
     7
176
     1
 43
1.0
176
     1
 76
     1
176
     1
 77
     6
176
     1
 78
     2
176
     1
 67
     7
176
     1
 79
     5
176
     1
170
     0
176
     1
171
     0
176
     1
290
     0
176
     1
 93
        1
176
     1
 44
0.0
176
     1
173
     0
176
     1
  0
ENDSEC
  0
EOF
