  0
SECTION
  2
HEADER
  9
$ACADVER
  1
AC1024
  9
$ACADMAINTVER
 70
     6
  9
$DWGCODEPAGE
  3
UNDEFINED
  9
$INSBASE
 10
0.0
 20
0.0
 30
0.0
  9
$EXTMIN
 10
1.000000000000000E+20
 20
1.000000000000000E+20
 30
1.000000000000000E+20
  9
$EXTMAX
 10
-1.000000000000000E+20
 20
-1.000000000000000E+20
 30
-1.000000000000000E+20
  9
$LIMMIN
 10
0.0
 20
0.0
  9
$LIMMAX
 10
12.0
 20
9.0
  9
$ORTHOMODE
 70
     0
  9
$REGENMODE
 70
     1
  9
$FILLMODE
 70
     1
  9
$QTEXTMODE
 70
     0
  9
$MIRRTEXT
 70
     1
  9
$LTSCALE
 40
1.0
  9
$ATTMODE
 70
     1
  9
$TEXTSIZE
 40
0.2
  9
$TRACEWID
 40
0.05
  9
$TEXTSTYLE
  7
Standard
  9
$CLAYER
  8
0
  9
$CELTYPE
  6
ByLayer
  9
$CECOLOR
 62
   256
  9
$CELTSCALE
 40
1.0
  9
$DISPSILH
 70
     0
  9
$DIMSCALE
 40
1.0
  9
$DIMASZ
 40
0.18
  9
$DIMEXO
 40
0.0625
  9
$DIMDLI
 40
0.38
  9
$DIMRND
 40
0.0
  9
$DIMDLE
 40
0.0
  9
$DIMEXE
 40
0.18
  9
$DIMTP
 40
0.0
  9
$DIMTM
 40
0.0
  9
$DIMTXT
 40
0.18
  9
$DIMCEN
 40
0.09
  9
$DIMTSZ
 40
0.0
  9
$DIMTOL
 70
     0
  9
$DIMLIM
 70
     0
  9
$DIMTIH
 70
     1
  9
$DIMTOH
 70
     1
  9
$DIMSE1
 70
     0
  9
$DIMSE2
 70
     0
  9
$DIMTAD
 70
     0
  9
$DIMZIN
 70
     0
  9
$DIMBLK
  1

  9
$DIMASO
 70
     1
  9
$DIMSHO
 70
     1
  9
$DIMPOST
  1

  9
$DIMAPOST
  1

  9
$DIMALT
 70
     0
  9
$DIMALTD
 70
     2
  9
$DIMALTF
 40
25.4
  9
$DIMLFAC
 40
1.0
  9
$DIMTOFL
 70
     0
  9
$DIMTVP
 40
0.0
  9
$DIMTIX
 70
     0
  9
$DIMSOXD
 70
     0
  9
$DIMSAH
 70
     0
  9
$DIMBLK1
  1

  9
$DIMBLK2
  1

  9
$DIMSTYLE
  2
Standard
  9
$DIMCLRD
 70
     0
  9
$DIMCLRE
 70
     0
  9
$DIMCLRT
 70
     0
  9
$DIMTFAC
 40
1.0
  9
$DIMGAP
 40
0.09
  9
$DIMJUST
 70
     0
  9
$DIMSD1
 70
     0
  9
$DIMSD2
 70
     0
  9
$DIMTOLJ
 70
     1
  9
$DIMTZIN
 70
     0
  9
$DIMALTZ
 70
     0
  9
$DIMALTTZ
 70
     0
  9
$DIMUPT
 70
     0
  9
$DIMDEC
 70
     4
  9
$DIMTDEC
 70
     4
  9
$DIMALTU
 70
     2
  9
$DIMALTTD
 70
     2
  9
$DIMTXSTY
  7
Standard
  9
$DIMAUNIT
 70
     0
  9
$DIMADEC
 70
     0
  9
$DIMALTRND
 40
0.0
  9
$DIMAZIN
 70
     0
  9
$DIMDSEP
 70
    46
  9
$DIMATFIT
 70
     3
  9
$DIMFRAC
 70
     0
  9
$DIMLDRBLK
  1

  9
$DIMLUNIT
 70
     2
  9
$DIMLWD
 70
    -2
  9
$DIMLWE
 70
    -2
  9
$DIMTMOVE
 70
     0
  9
$DIMFXL
 40
1.0
  9
$DIMFXLON
 70
     0
  9
$DIMJOGANG
 40
0.7853981633974483
  9
$DIMTFILL
 70
     0
  9
$DIMTFILLCLR
 70
     0
  9
$DIMARCSYM
 70
     0
  9
$DIMLTYPE
  6

  9
$DIMLTEX1
  6

  9
$DIMLTEX2
  6

  9
$DIMTXTDIRECTION
 70
     0
  9
$LUNITS
 70
     2
  9
$LUPREC
 70
     4
  9
$SKETCHINC
 40
0.1
  9
$FILLETRAD
 40
0.5
  9
$AUNITS
 70
     0
  9
$AUPREC
 70
     0
  9
$MENU
  1
.
  9
$ELEVATION
 40
0.0
  9
$PELEVATION
 40
0.0
  9
$THICKNESS
 40
0.0
  9
$LIMCHECK
 70
     0
  9
$CHAMFERA
 40
0.5
  9
$CHAMFERB
 40
0.5
  9
$CHAMFERC
 40
1.0
  9
$CHAMFERD
 40
0.0
  9
$SKPOLY
 70
     0
  9
$TDCREATE
 40
2457917.584444445
  9
$TDUCREATE
 40
2457917.209444445
  9
$TDUPDATE
 40
2457917.584444445
  9
$TDUUPDATE
 40
2457917.209444445
  9
$TDINDWG
 40
0.0000000116
  9
$TDUSRTIMER
 40
0.0000000116
  9
$USRTIMER
 70
     1
  9
$ANGBASE
 50
0.0
  9
$ANGDIR
 70
     0
  9
$PDMODE
 70
     0
  9
$PDSIZE
 40
0.0
  9
$PLINEWID
 40
0.0
  9
$SPLFRAME
 70
     0
  9
$SPLINETYPE
 70
     6
  9
$SPLINESEGS
 70
     8
  9
$HANDSEED
  5
19C
  9
$SURFTAB1
 70
     6
  9
$SURFTAB2
 70
     6
  9
$SURFTYPE
 70
     6
  9
$SURFU
 70
     6
  9
$SURFV
 70
     6
  9
$UCSBASE
  2

  9
$UCSNAME
  2

  9
$UCSORG
 10
0.0
 20
0.0
 30
0.0
  9
$UCSXDIR
 10
1.0
 20
0.0
 30
0.0
  9
$UCSYDIR
 10
0.0
 20
1.0
 30
0.0
  9
$UCSORTHOREF
  2

  9
$UCSORTHOVIEW
 70
     0
  9
$UCSORGTOP
 10
0.0
 20
0.0
 30
0.0
  9
$UCSORGBOTTOM
 10
0.0
 20
0.0
 30
0.0
  9
$UCSORGLEFT
 10
0.0
 20
0.0
 30
0.0
  9
$UCSORGRIGHT
 10
0.0
 20
0.0
 30
0.0
  9
$UCSORGFRONT
 10
0.0
 20
0.0
 30
0.0
  9
$UCSORGBACK
 10
0.0
 20
0.0
 30
0.0
  9
$PUCSBASE
  2

  9
$PUCSNAME
  2

  9
$PUCSORG
 10
0.0
 20
0.0
 30
0.0
  9
$PUCSXDIR
 10
1.0
 20
0.0
 30
0.0
  9
$PUCSYDIR
 10
0.0
 20
1.0
 30
0.0
  9
$PUCSORTHOREF
  2

  9
$PUCSORTHOVIEW
 70
     0
  9
$PUCSORGTOP
 10
0.0
 20
0.0
 30
0.0
  9
$PUCSORGBOTTOM
 10
0.0
 20
0.0
 30
0.0
  9
$PUCSORGLEFT
 10
0.0
 20
0.0
 30
0.0
  9
$PUCSORGRIGHT
 10
0.0
 20
0.0
 30
0.0
  9
$PUCSORGFRONT
 10
0.0
 20
0.0
 30
0.0
  9
$PUCSORGBACK
 10
0.0
 20
0.0
 30
0.0
  9
$USERI1
 70
     0
  9
$USERI2
 70
     0
  9
$USERI3
 70
     0
  9
$USERI4
 70
     0
  9
$USERI5
 70
     0
  9
$USERR1
 40
0.0
  9
$USERR2
 40
0.0
  9
$USERR3
 40
0.0
  9
$USERR4
 40
0.0
  9
$USERR5
 40
0.0
  9
$WORLDVIEW
 70
     1
  9
$SHADEDGE
 70
     3
  9
$SHADEDIF
 70
    70
  9
$TILEMODE
 70
     1
  9
$MAXACTVP
 70
    64
  9
$PINSBASE
 10
0.0
 20
0.0
 30
0.0
  9
$PLIMCHECK
 70
     0
  9
$PEXTMIN
 10
1.000000000000000E+20
 20
1.000000000000000E+20
 30
1.000000000000000E+20
  9
$PEXTMAX
 10
-1.000000000000000E+20
 20
-1.000000000000000E+20
 30
-1.000000000000000E+20
  9
$PLIMMIN
 10
0.0
 20
0.0
  9
$PLIMMAX
 10
12.0
 20
9.0
  9
$UNITMODE
 70
     0
  9
$VISRETAIN
 70
     1
  9
$PLINEGEN
 70
     0
  9
$PSLTSCALE
 70
     1
  9
$TREEDEPTH
 70
  3020
  9
$CMLSTYLE
  2
Standard
  9
$CMLJUST
 70
     0
  9
$CMLSCALE
 40
1.0
  9
$PROXYGRAPHICS
 70
     1
  9
$MEASUREMENT
 70
     0
  9
$CELWEIGHT
370
    -1
  9
$ENDCAPS
280
     0
  9
$JOINSTYLE
280
     0
  9
$LWDISPLAY
290
     1
  9
$INSUNITS
 70
     1
  9
$HYPERLINKBASE
  1

  9
$STYLESHEET
  1

  9
$XEDIT
290
     1
  9
$CEPSNTYPE
380
     0
  9
$PSTYLEMODE
290
     1
  9
$FINGERPRINTGUID
  2
{C7D6F327-AB47-B650-B955-5F31D6DC80D3}
  9
$VERSIONGUID
  2
{FAEB1C32-E019-11D5-929B-00C0DF256EC4}
  9
$EXTNAMES
290
     1
  9
$PSVPSCALE
 40
0.0
  9
$OLESTARTUP
290
     0
  9
$SORTENTS
280
   127
  9
$INDEXCTL
280
     0
  9
$HIDETEXT
280
     1
  9
$XCLIPFRAME
280
     2
  9
$HALOGAP
280
     0
  9
$OBSCOLOR
 70
   257
  9
$OBSLTYPE
280
     0
  9
$INTERSECTIONDISPLAY
280
     0
  9
$INTERSECTIONCOLOR
 70
   257
  9
$DIMASSOC
280
     2
  9
$PROJECTNAME
  1

  9
$CAMERADISPLAY
290
     0
  9
$LENSLENGTH
 40
50.0
  9
$CAMERAHEIGHT
 40
0.0
  9
$STEPSPERSEC
 40
2.0
  9
$STEPSIZE
 40
6.0
  9
$3DDWFPREC
 40
2.0
  9
$PSOLWIDTH
 40
0.25
  9
$PSOLHEIGHT
 40
4.0
  9
$LOFTANG1
 40
1.570796326794897
  9
$LOFTANG2
 40
1.570796326794897
  9
$LOFTMAG1
 40
0.0
  9
$LOFTMAG2
 40
0.0
  9
$LOFTPARAM
 70
     7
  9
$LOFTNORMALS
280
     1
  9
$LATITUDE
 40
37.795
  9
$LONGITUDE
 40
-122.394
  9
$NORTHDIRECTION
 40
0.0
  9
$TIMEZONE
 70
 -8000
  9
$LIGHTGLYPHDISPLAY
280
     1
  9
$TILEMODELIGHTSYNCH
280
     1
  9
$CMATERIAL
347
3C
  9
$SOLIDHIST
280
     1
  9
$SHOWHIST
280
     1
  9
$DWFFRAME
280
     2
  9
$DGNFRAME
280
     2
  9
$REALWORLDSCALE
290
     1
  9
$INTERFERECOLOR
 62
   256
  9
$CSHADOW
280
     0
  9
$SHADOWPLANELOCATION
 40
0.0
  0
ENDSEC
  0
SECTION
  2
CLASSES
  0
CLASS
  1
ACDBDICTIONARYWDFLT
  2
AcDbDictionaryWithDefault
  3
ObjectDBX Classes
 90
        0
 91
        4
280
     0
281
     0
  0
CLASS
  1
VISUALSTYLE
  2
AcDbVisualStyle
  3
ObjectDBX Classes
 90
     4095
 91
        4
280
     0
281
     0
  0
CLASS
  1
MATERIAL
  2
AcDbMaterial
  3
ObjectDBX Classes
 90
     1153
 91
        4
280
     0
281
     0
  0
CLASS
  1
SUN
  2
AcDbSun
  3
SCENEOE
 90
     1024
 91
        4
280
     0
281
     0
  0
ENDSEC
  0
SECTION
  2
TABLES
  0
TABLE
  2
VPORT
  5
8
330
0
100
AcDbSymbolTable
 70
     1
  0
VPORT
  5
29
330
8
100
AcDbSymbolTableRecord
100
AcDbViewportTableRecord
  2
*Active
 70
     0
 10
0.0
 20
0.0
 11
1.0
 21
1.0
 12
0.0
 22
0.0
 13
0.0
 23
0.0
 14
0.5
 24
0.5
 15
0.5
 25
0.5
 16
0.0
 26
0.0
 36
1.0
 17
91.00082462281999
 27
-128.4993055234307
 37
0.0
 40
256.9986110468615
 41
0.7081814508812795
 42
50.0
 43
0.0
 44
0.0
 50
0.0
 51
0.0
 71
     0
 72
   100
 73
     1
 74
     3
 75
     0
 76
     0
 77
     0
 78
     0
281
     0
 65
     1
110
0.0
120
0.0
130
0.0
111
1.0
121
0.0
131
0.0
112
0.0
122
1.0
132
0.0
 79
     0
146
0.0
 60
     3
 61
     5
292
     1
282
     1
141
0.0
142
0.0
 63
   250
361
3F
  0
ENDTAB
  0
TABLE
  2
LTYPE
  5
5
330
0
100
AcDbSymbolTable
 70
    10
  0
LTYPE
  5
14
330
5
100
AcDbSymbolTableRecord
100
AcDbLinetypeTableRecord
  2
ByBlock
 70
     0
  3

 72
    65
 73
     0
 40
0.0
  0
LTYPE
  5
15
330
5
100
AcDbSymbolTableRecord
100
AcDbLinetypeTableRecord
  2
ByLayer
 70
     0
  3

 72
    65
 73
     0
 40
0.0
  0
LTYPE
  5
16
330
5
100
AcDbSymbolTableRecord
100
AcDbLinetypeTableRecord
  2
Continuous
 70
     0
  3
Solid line
 72
    65
 73
     0
 40
0.0
  0
LTYPE
  5
C4
330
5
100
AcDbSymbolTableRecord
100
AcDbLinetypeTableRecord
  2
AI-Linetype-1
 70
     0
  3
Adobe Illustrator Linetype No. 1
 72
    65
 73
     2
 40
3.500014142644928
 49
2.000003083046956
 74
     0
 49
-1.500011059597972
 74
     0
  0
LTYPE
  5
C9
330
5
100
AcDbSymbolTableRecord
100
AcDbLinetypeTableRecord
  2
AI-Linetype-2
 70
     0
  3
Adobe Illustrator Linetype No. 2
 72
    65
 73
     2
 40
3.500014142644928
 49
2.000003083046956
 74
     0
 49
-1.500011059597972
 74
     0
  0
LTYPE
  5
CE
330
5
100
AcDbSymbolTableRecord
100
AcDbLinetypeTableRecord
  2
AI-Linetype-3
 70
     0
  3
Adobe Illustrator Linetype No. 3
 72
    65
 73
     2
 40
3.500014142644928
 49
2.000003083046956
 74
     0
 49
-1.500011059597972
 74
     0
  0
LTYPE
  5
D3
330
5
100
AcDbSymbolTableRecord
100
AcDbLinetypeTableRecord
  2
AI-Linetype-4
 70
     0
  3
Adobe Illustrator Linetype No. 4
 72
    65
 73
     2
 40
3.500014142644928
 49
2.000003083046956
 74
     0
 49
-1.500011059597972
 74
     0
  0
LTYPE
  5
D8
330
5
100
AcDbSymbolTableRecord
100
AcDbLinetypeTableRecord
  2
AI-Linetype-5
 70
     0
  3
Adobe Illustrator Linetype No. 5
 72
    65
 73
     2
 40
3.500014142644928
 49
2.000003083046956
 74
     0
 49
-1.500011059597972
 74
     0
  0
LTYPE
  5
DD
330
5
100
AcDbSymbolTableRecord
100
AcDbLinetypeTableRecord
  2
AI-Linetype-6
 70
     0
  3
Adobe Illustrator Linetype No. 6
 72
    65
 73
     2
 40
3.500014142644928
 49
2.000003083046956
 74
     0
 49
-1.500011059597972
 74
     0
  0
LTYPE
  5
E2
330
5
100
AcDbSymbolTableRecord
100
AcDbLinetypeTableRecord
  2
AI-Linetype-7
 70
     0
  3
Adobe Illustrator Linetype No. 7
 72
    65
 73
     2
 40
3.500014142644928
 49
2.000003083046956
 74
     0
 49
-1.500011059597972
 74
     0
  0
LTYPE
  5
E7
330
5
100
AcDbSymbolTableRecord
100
AcDbLinetypeTableRecord
  2
AI-Linetype-8
 70
     0
  3
Adobe Illustrator Linetype No. 8
 72
    65
 73
     2
 40
3.500014142644928
 49
2.000003083046956
 74
     0
 49
-1.500011059597972
 74
     0
  0
LTYPE
  5
EC
330
5
100
AcDbSymbolTableRecord
100
AcDbLinetypeTableRecord
  2
AI-Linetype-9
 70
     0
  3
Adobe Illustrator Linetype No. 9
 72
    65
 73
     2
 40
3.500014142644928
 49
2.000003083046956
 74
     0
 49
-1.500011059597972
 74
     0
  0
ENDTAB
  0
TABLE
  2
LAYER
  5
2
330
0
100
AcDbSymbolTable
 70
     2
  0
LAYER
  5
10
330
2
100
AcDbSymbolTableRecord
100
AcDbLayerTableRecord
  2
0
 70
     0
 62
     7
  6
Continuous
370
    -3
390
F
347
3E
  0
LAYER
  5
40
330
2
100
AcDbSymbolTableRecord
100
AcDbLayerTableRecord
  2
_U+30EC_U+30A4_U+30E4_U+30FC 1
 70
     0
 62
     7
  6
Continuous
370
    -3
390
F
347
3E
  0
ENDTAB
  0
TABLE
  2
STYLE
  5
3
330
0
100
AcDbSymbolTable
 70
     1
  0
STYLE
  5
11
330
3
100
AcDbSymbolTableRecord
100
AcDbTextStyleTableRecord
  2
Standard
 70
     0
 40
0.0
 41
1.0
 50
0.0
 71
     0
 42
0.2
  3
txt
  4

  0
ENDTAB
  0
TABLE
  2
VIEW
  5
6
330
0
100
AcDbSymbolTable
 70
     0
  0
ENDTAB
  0
TABLE
  2
UCS
  5
7
330
0
100
AcDbSymbolTable
 70
     0
  0
ENDTAB
  0
TABLE
  2
APPID
  5
9
330
0
100
AcDbSymbolTable
 70
     1
  0
APPID
  5
12
330
9
100
AcDbSymbolTableRecord
100
AcDbRegAppTableRecord
  2
ACAD
 70
     0
  0
ENDTAB
  0
TABLE
  2
DIMSTYLE
  5
A
330
0
100
AcDbSymbolTable
 70
     1
100
AcDbDimStyleTable
  0
DIMSTYLE
105
27
330
A
100
AcDbSymbolTableRecord
100
AcDbDimStyleTableRecord
  2
Standard
 70
     0
178
     0
340
11
  0
ENDTAB
  0
TABLE
  2
BLOCK_RECORD
  5
1
330
0
100
AcDbSymbolTable
 70
     8
  0
BLOCK_RECORD
  5
1F
330
1
100
AcDbSymbolTableRecord
100
AcDbBlockTableRecord
  2
*Model_Space
340
22
 70
     0
280
     1
281
     0
  0
BLOCK_RECORD
  5
1B
330
1
100
AcDbSymbolTableRecord
100
AcDbBlockTableRecord
  2
*Paper_Space
340
1E
 70
     0
280
     1
281
     0
  0
BLOCK_RECORD
  5
23
330
1
100
AcDbSymbolTableRecord
100
AcDbBlockTableRecord
  2
*Paper_Space0
340
26
 70
     0
280
     1
281
     0
  0
BLOCK_RECORD
  5
51
330
1
100
AcDbSymbolTableRecord
100
AcDbBlockTableRecord
  2
block 2
340
0
102
{BLKREFS
331
52
102
}
 70
     0
280
     1
281
     0
  0
BLOCK_RECORD
  5
F6
330
1
100
AcDbSymbolTableRecord
100
AcDbBlockTableRecord
  2
block 3
340
0
102
{BLKREFS
331
F7
102
}
 70
     0
280
     1
281
     0
  0
BLOCK_RECORD
  5
13E
330
1
100
AcDbSymbolTableRecord
100
AcDbBlockTableRecord
  2
block 4
340
0
102
{BLKREFS
331
13F
102
}
 70
     0
280
     1
281
     0
  0
BLOCK_RECORD
  5
15C
330
1
100
AcDbSymbolTableRecord
100
AcDbBlockTableRecord
  2
block 5
340
0
102
{BLKREFS
331
15D
102
}
 70
     0
280
     1
281
     0
  0
BLOCK_RECORD
  5
170
330
1
100
AcDbSymbolTableRecord
100
AcDbBlockTableRecord
  2
block 6
340
0
102
{BLKREFS
331
171
102
}
 70
     0
280
     1
281
     0
  0
BLOCK_RECORD
  5
17A
330
1
100
AcDbSymbolTableRecord
100
AcDbBlockTableRecord
  2
block 7
340
0
102
{BLKREFS
331
17B
102
}
 70
     0
280
     1
281
     0
  0
BLOCK_RECORD
  5
194
330
1
100
AcDbSymbolTableRecord
100
AcDbBlockTableRecord
  2
block 8
340
0
102
{BLKREFS
331
195
102
}
 70
     0
280
     1
281
     0
  0
ENDTAB
  0
ENDSEC
  0
SECTION
  2
BLOCKS
  0
BLOCK
  5
20
330
1F
100
AcDbEntity
  8
0
100
AcDbBlockBegin
  2
*Model_Space
 70
     0
 10
0.0
 20
0.0
 30
0.0
  3
*Model_Space
  1

  0
ENDBLK
  5
21
330
1F
100
AcDbEntity
  8
0
100
AcDbBlockEnd
  0
BLOCK
  5
1C
330
1B
100
AcDbEntity
 67
     1
  8
0
100
AcDbBlockBegin
  2
*Paper_Space
 70
     0
 10
0.0
 20
0.0
 30
0.0
  3
*Paper_Space
  1

  0
ENDBLK
  5
1D
330
1B
100
AcDbEntity
 67
     1
  8
0
100
AcDbBlockEnd
  0
BLOCK
  5
24
330
23
100
AcDbEntity
  8
0
100
AcDbBlockBegin
  2
*Paper_Space0
 70
     0
 10
0.0
 20
0.0
 30
0.0
  3
*Paper_Space0
  1

  0
ENDBLK
  5
25
330
23
100
AcDbEntity
  8
0
100
AcDbBlockEnd
  0
BLOCK
  5
53
330
51
100
AcDbEntity
  8
0
100
AcDbBlockBegin
  2
block 2
 70
     0
 10
0.0
 20
0.0
 30
0.0
  3
block 2
  1

  0
POLYLINE
  5
55
330
51
100
AcDbEntity
  8
_U+30EC_U+30A4_U+30E4_U+30FC 1
 62
   179
420
  2234388
370
    25
100
AcDb2dPolyline
 66
     1
 10
0.0
 20
0.0
 30
0.0
  0
VERTEX
  5
56
330
55
100
AcDbEntity
  8
_U+30EC_U+30A4_U+30E4_U+30FC 1
 62
   179
420
  2234388
370
    25
100
AcDbVertex
100
AcDb2dVertex
 10
65.84491387242764
 20
-129.6099910787086
 30
0.0
  0
VERTEX
  5
57
330
55
100
AcDbEntity
  8
_U+30EC_U+30A4_U+30E4_U+30FC 1
 62
   179
420
  2234388
370
    25
100
AcDbVertex
100
AcDb2dVertex
 10
110.9541116137692
 20
-129.6099910787086
 30
0.0
  0
SEQEND
  5
58
330
55
100
AcDbEntity
  8
_U+30EC_U+30A4_U+30E4_U+30FC 1
 62
   179
420
  2234388
370
    25
  0
POLYLINE
  5
59
330
51
100
AcDbEntity
  8
_U+30EC_U+30A4_U+30E4_U+30FC 1
 62
   179
420
  2234388
370
    25
100
AcDb2dPolyline
 66
     1
 10
0.0
 20
0.0
 30
0.0
  0
VERTEX
  5
5A
330
59
100
AcDbEntity
  8
_U+30EC_U+30A4_U+30E4_U+30FC 1
 62
   179
420
  2234388
370
    25
100
AcDbVertex
100
AcDb2dVertex
 10
76.3445311078443
 20
-128.1098388568613
 30
0.0
  0
VERTEX
  5
5B
330
59
100
AcDbEntity
  8
_U+30EC_U+30A4_U+30E4_U+30FC 1
 62
   179
420
  2234388
370
    25
100
AcDbVertex
100
AcDb2dVertex
 10
100.3446024399959
 20
-128.1098388568613
 30
0.0
  0
SEQEND
  5
5C
330
59
100
AcDbEntity
  8
_U+30EC_U+30A4_U+30E4_U+30FC 1
 62
   179
420
  2234388
370
    25
  0
POLYLINE
  5
5D
330
51
100
AcDbEntity
  8
_U+30EC_U+30A4_U+30E4_U+30FC 1
 62
   179
420
  2234388
370
    25
100
AcDb2dPolyline
 66
     1
 10
0.0
 20
0.0
 30
0.0
  0
VERTEX
  5
5E
330
5D
100
AcDbEntity
  8
_U+30EC_U+30A4_U+30E4_U+30FC 1
 62
   179
420
  2234388
370
    25
100
AcDbVertex
100
AcDb2dVertex
 10
76.3445311078443
 20
-114.6098799713474
 30
0.0
  0
VERTEX
  5
5F
330
5D
100
AcDbEntity
  8
_U+30EC_U+30A4_U+30E4_U+30FC 1
 62
   179
420
  2234388
370
    25
100
AcDbVertex
100
AcDb2dVertex
 10
76.3445311078443
 20
-128.1098388568613
 30
0.0
  0
SEQEND
  5
60
330
5D
100
AcDbEntity
  8
_U+30EC_U+30A4_U+30E4_U+30FC 1
 62
   179
420
  2234388
370
    25
  0
POLYLINE
  5
61
330
51
100
AcDbEntity
  8
_U+30EC_U+30A4_U+30E4_U+30FC 1
 62
   179
420
  2234388
370
    25
100
AcDb2dPolyline
 66
     1
 10
0.0
 20
0.0
 30
0.0
  0
VERTEX
  5
62
330
61
100
AcDbEntity
  8
_U+30EC_U+30A4_U+30E4_U+30FC 1
 62
   179
420
  2234388
370
    25
100
AcDbVertex
100
AcDb2dVertex
 10
64.84443609489989
 20
-128.6100777456254
 30
0.0
  0
VERTEX
  5
63
330
61
100
AcDbEntity
  8
_U+30EC_U+30A4_U+30E4_U+30FC 1
 62
   179
420
  2234388
370
    25
100
AcDbVertex
100
AcDb2dVertex
 10
75.3447589111284
 20
-128.6100777456254
 30
0.0
  0
SEQEND
  5
64
330
61
100
AcDbEntity
  8
_U+30EC_U+30A4_U+30E4_U+30FC 1
 62
   179
420
  2234388
370
    25
  0
POLYLINE
  5
65
330
51
100
AcDbEntity
  8
_U+30EC_U+30A4_U+30E4_U+30FC 1
 62
   179
420
  2234388
370
    25
100
AcDb2dPolyline
 66
     1
 10
0.0
 20
0.0
 30
0.0
  0
VERTEX
  5
66
330
65
100
AcDbEntity
  8
_U+30EC_U+30A4_U+30E4_U+30FC 1
 62
   179
420
  2234388
370
    25
100
AcDbVertex
100
AcDb2dVertex
 10
64.84443609489989
 20
-128.6100777456254
 30
0.0
  0
VERTEX
  5
67
330
65
100
AcDbEntity
  8
_U+30EC_U+30A4_U+30E4_U+30FC 1
 62
   179
420
  2234388
370
    25
100
AcDbVertex
100
AcDb2dVertex
 10
65.84491387242764
 20
-129.6099910787086
 30
0.0
  0
SEQEND
  5
68
330
65
100
AcDbEntity
  8
_U+30EC_U+30A4_U+30E4_U+30FC 1
 62
   179
420
  2234388
370
    25
  0
POLYLINE
  5
69
330
51
100
AcDbEntity
  8
_U+30EC_U+30A4_U+30E4_U+30FC 1
 62
   179
420
  2234388
370
    25
100
AcDb2dPolyline
 66
     1
 10
0.0
 20
0.0
 30
0.0
  0
VERTEX
  5
6A
330
69
100
AcDbEntity
  8
_U+30EC_U+30A4_U+30E4_U+30FC 1
 62
   179
420
  2234388
370
    25
100
AcDbVertex
100
AcDb2dVertex
 10
75.3447589111284
 20
-115.6103577488751
 30
0.0
  0
VERTEX
  5
6B
330
69
100
AcDbEntity
  8
_U+30EC_U+30A4_U+30E4_U+30FC 1
 62
   179
420
  2234388
370
    25
100
AcDbVertex
100
AcDb2dVertex
 10
75.3447589111284
 20
-128.6100777456254
 30
0.0
  0
SEQEND
  5
6C
330
69
100
AcDbEntity
  8
_U+30EC_U+30A4_U+30E4_U+30FC 1
 62
   179
420
  2234388
370
    25
  0
POLYLINE
  5
6D
330
51
100
AcDbEntity
  8
_U+30EC_U+30A4_U+30E4_U+30FC 1
 62
   179
420
  2234388
370
    25
100
AcDb2dPolyline
 66
     1
 10
0.0
 20
0.0
 30
0.0
  0
VERTEX
  5
6E
330
6D
100
AcDbEntity
  8
_U+30EC_U+30A4_U+30E4_U+30FC 1
 62
   179
420
  2234388
370
    25
100
AcDbVertex
100
AcDb2dVertex
 10
54.34467444688518
 20
-115.6103577488751
 30
0.0
  0
VERTEX
  5
6F
330
6D
100
AcDbEntity
  8
_U+30EC_U+30A4_U+30E4_U+30FC 1
 62
   179
420
  2234388
370
    25
100
AcDbVertex
100
AcDb2dVertex
 10
75.3447589111284
 20
-115.6103577488751
 30
0.0
  0
SEQEND
  5
70
330
6D
100
AcDbEntity
  8
_U+30EC_U+30A4_U+30E4_U+30FC 1
 62
   179
420
  2234388
370
    25
  0
POLYLINE
  5
71
330
51
100
AcDbEntity
  8
_U+30EC_U+30A4_U+30E4_U+30FC 1
 62
   179
420
  2234388
370
    25
100
AcDb2dPolyline
 66
     1
 10
0.0
 20
0.0
 30
0.0
  0
VERTEX
  5
72
330
71
100
AcDbEntity
  8
_U+30EC_U+30A4_U+30E4_U+30FC 1
 62
   179
420
  2234388
370
    25
100
AcDbVertex
100
AcDb2dVertex
 10
53.34472586128489
 20
-114.6098799713474
 30
0.0
  0
VERTEX
  5
73
330
71
100
AcDbEntity
  8
_U+30EC_U+30A4_U+30E4_U+30FC 1
 62
   179
420
  2234388
370
    25
100
AcDbVertex
100
AcDb2dVertex
 10
76.3445311078443
 20
-114.6098799713474
 30
0.0
  0
SEQEND
  5
74
330
71
100
AcDbEntity
  8
_U+30EC_U+30A4_U+30E4_U+30FC 1
 62
   179
420
  2234388
370
    25
  0
POLYLINE
  5
75
330
51
100
AcDbEntity
  8
_U+30EC_U+30A4_U+30E4_U+30FC 1
 62
   179
420
  2234388
370
    25
100
AcDb2dPolyline
 66
     1
 10
0.0
 20
0.0
 30
0.0
  0
VERTEX
  5
76
330
75
100
AcDbEntity
  8
_U+30EC_U+30A4_U+30E4_U+30FC 1
 62
   179
420
  2234388
370
    25
100
AcDbVertex
100
AcDb2dVertex
 10
53.34472586128489
 20
-114.6098799713474
 30
0.0
  0
VERTEX
  5
77
330
75
100
AcDbEntity
  8
_U+30EC_U+30A4_U+30E4_U+30FC 1
 62
   179
420
  2234388
370
    25
100
AcDbVertex
100
AcDb2dVertex
 10
54.34467444688518
 20
-115.6103577488751
 30
0.0
  0
SEQEND
  5
78
330
75
100
AcDbEntity
  8
_U+30EC_U+30A4_U+30E4_U+30FC 1
 62
   179
420
  2234388
370
    25
  0
POLYLINE
  5
79
330
51
100
AcDbEntity
  8
_U+30EC_U+30A4_U+30E4_U+30FC 1
 62
   179
420
  2234388
370
    25
100
AcDb2dPolyline
 66
     1
 10
0.0
 20
0.0
 30
0.0
  0
VERTEX
  5
7A
330
79
100
AcDbEntity
  8
_U+30EC_U+30A4_U+30E4_U+30FC 1
 62
   179
420
  2234388
370
    25
100
AcDbVertex
100
AcDb2dVertex
 10
86.34458140827732
 20
-128.1098388568613
 30
0.0
  0
VERTEX
  5
7B
330
79
100
AcDbEntity
  8
_U+30EC_U+30A4_U+30E4_U+30FC 1
 62
   179
420
  2234388
370
    25
100
AcDbVertex
100
AcDb2dVertex
 10
86.34458140827732
 20
-129.6099910787086
 30
0.0
  0
SEQEND
  5
7C
330
79
100
AcDbEntity
  8
_U+30EC_U+30A4_U+30E4_U+30FC 1
 62
   179
420
  2234388
370
    25
  0
POLYLINE
  5
7D
330
51
100
AcDbEntity
  8
_U+30EC_U+30A4_U+30E4_U+30FC 1
 62
   179
420
  2234388
370
    25
100
AcDb2dPolyline
 66
     1
 10
0.0
 20
0.0
 30
0.0
  0
VERTEX
  5
7E
330
7D
100
AcDbEntity
  8
_U+30EC_U+30A4_U+30E4_U+30FC 1
 62
   179
420
  2234388
370
    25
100
AcDbVertex
100
AcDb2dVertex
 10
90.3446932506704
 20
-128.1098388568613
 30
0.0
  0
VERTEX
  5
7F
330
7D
100
AcDbEntity
  8
_U+30EC_U+30A4_U+30E4_U+30FC 1
 62
   179
420
  2234388
370
    25
100
AcDbVertex
100
AcDb2dVertex
 10
90.3446932506704
 20
-129.6099910787086
 30
0.0
  0
SEQEND
  5
80
330
7D
100
AcDbEntity
  8
_U+30EC_U+30A4_U+30E4_U+30FC 1
 62
   179
420
  2234388
370
    25
  0
POLYLINE
  5
81
330
51
100
AcDbEntity
  8
_U+30EC_U+30A4_U+30E4_U+30FC 1
 62
   179
420
  2234388
370
    25
100
AcDb2dPolyline
 66
     1
 10
0.0
 20
0.0
 30
0.0
  0
VERTEX
  5
82
330
81
100
AcDbEntity
  8
_U+30EC_U+30A4_U+30E4_U+30FC 1
 62
   179
420
  2234388
370
    25
100
AcDbVertex
100
AcDb2dVertex
 10
111.9545893660227
 20
-128.6100777456254
 30
0.0
  0
VERTEX
  5
83
330
81
100
AcDbEntity
  8
_U+30EC_U+30A4_U+30E4_U+30FC 1
 62
   179
420
  2234388
370
    25
100
AcDbVertex
100
AcDb2dVertex
 10
101.3443746367118
 20
-128.6100777456254
 30
0.0
  0
SEQEND
  5
84
330
81
100
AcDbEntity
  8
_U+30EC_U+30A4_U+30E4_U+30FC 1
 62
   179
420
  2234388
370
    25
  0
POLYLINE
  5
85
330
51
100
AcDbEntity
  8
_U+30EC_U+30A4_U+30E4_U+30FC 1
 62
   179
420
  2234388
370
     9
100
AcDb2dPolyline
 66
     1
 10
0.0
 20
0.0
 30
0.0
  0
VERTEX
  5
86
330
85
100
AcDbEntity
  8
_U+30EC_U+30A4_U+30E4_U+30FC 1
 62
   179
420
  2234388
370
     9
100
AcDbVertex
100
AcDb2dVertex
 10
88.34447857947791
 20
-127.1100666348891
 30
0.0
  0
VERTEX
  5
87
330
85
100
AcDbEntity
  8
_U+30EC_U+30A4_U+30E4_U+30FC 1
 62
   179
420
  2234388
370
     9
100
AcDbVertex
100
AcDb2dVertex
 10
89.1054907822851
 20
-124.2712991355987
 30
0.0
  0
SEQEND
  5
88
330
85
100
AcDbEntity
  8
_U+30EC_U+30A4_U+30E4_U+30FC 1
 62
   179
420
  2234388
370
     9
  0
POLYLINE
  5
89
330
51
100
AcDbEntity
  8
_U+30EC_U+30A4_U+30E4_U+30FC 1
 62
   179
420
  2234388
370
     9
100
AcDb2dPolyline
 66
     1
 10
0.0
 20
0.0
 30
0.0
  0
VERTEX
  5
8A
330
89
100
AcDbEntity
  8
_U+30EC_U+30A4_U+30E4_U+30FC 1
 62
   179
420
  2234388
370
     9
100
AcDbVertex
100
AcDb2dVertex
 10
89.1054907822851
 20
-124.2712991355987
 30
0.0
  0
VERTEX
  5
8B
330
89
100
AcDbEntity
  8
_U+30EC_U+30A4_U+30E4_U+30FC 1
 62
   179
420
  2234388
370
     9
100
AcDbVertex
100
AcDb2dVertex
 10
93.30421650850002
 20
-124.2712991355987
 30
0.0
  0
SEQEND
  5
8C
330
89
100
AcDbEntity
  8
_U+30EC_U+30A4_U+30E4_U+30FC 1
 62
   179
420
  2234388
370
     9
  0
POLYLINE
  5
8D
330
51
100
AcDbEntity
  8
_U+30EC_U+30A4_U+30E4_U+30FC 1
 62
   179
420
  2234388
370
     9
100
AcDb2dPolyline
 66
     1
 10
0.0
 20
0.0
 30
0.0
  0
VERTEX
  5
8E
330
8D
100
AcDbEntity
  8
_U+30EC_U+30A4_U+30E4_U+30FC 1
 62
   179
420
  2234388
370
     9
100
AcDbVertex
100
AcDb2dVertex
 10
88.34447857947791
 20
-127.1100666348891
 30
0.0
  0
VERTEX
  5
8F
330
8D
100
AcDbEntity
  8
_U+30EC_U+30A4_U+30E4_U+30FC 1
 62
   179
420
  2234388
370
     9
100
AcDbVertex
100
AcDb2dVertex
 10
88.84471745560465
 20
-126.2439619128834
 30
0.0
  0
SEQEND
  5
90
330
8D
100
AcDbEntity
  8
_U+30EC_U+30A4_U+30E4_U+30FC 1
 62
   179
420
  2234388
370
     9
  0
POLYLINE
  5
91
330
51
100
AcDbEntity
  8
_U+30EC_U+30A4_U+30E4_U+30FC 1
 62
   179
420
  2234388
370
     9
100
AcDb2dPolyline
 66
     1
 10
0.0
 20
0.0
 30
0.0
  0
VERTEX
  5
92
330
91
100
AcDbEntity
  8
_U+30EC_U+30A4_U+30E4_U+30FC 1
 62
   179
420
  2234388
370
     9
100
AcDbVertex
100
AcDb2dVertex
 10
88.34447857947791
 20
-127.1100666348891
 30
0.0
  0
VERTEX
  5
93
330
91
100
AcDbEntity
  8
_U+30EC_U+30A4_U+30E4_U+30FC 1
 62
   179
420
  2234388
370
     9
100
AcDbVertex
100
AcDb2dVertex
 10
88.34447857947791
 20
-126.1102944129169
 30
0.0
  0
SEQEND
  5
94
330
91
100
AcDbEntity
  8
_U+30EC_U+30A4_U+30E4_U+30FC 1
 62
   179
420
  2234388
370
     9
  0
POLYLINE
  5
95
330
51
100
AcDbEntity
  8
_U+30EC_U+30A4_U+30E4_U+30FC 1
 62
   179
420
  2234388
370
     9
100
AcDb2dPolyline
 66
     1
 10
0.0
 20
0.0
 30
0.0
  0
VERTEX
  5
96
330
95
100
AcDbEntity
  8
_U+30EC_U+30A4_U+30E4_U+30FC 1
 62
   179
420
  2234388
370
     9
100
AcDbVertex
100
AcDb2dVertex
 10
88.34447857947791
 20
-127.1100666348891
 30
0.0
  0
VERTEX
  5
97
330
95
100
AcDbEntity
  8
_U+30EC_U+30A4_U+30E4_U+30FC 1
 62
   179
420
  2234388
370
     9
100
AcDbVertex
100
AcDb2dVertex
 10
89.1054907822851
 20
-124.2712991355987
 30
0.0
  0
SEQEND
  5
98
330
95
100
AcDbEntity
  8
_U+30EC_U+30A4_U+30E4_U+30FC 1
 62
   179
420
  2234388
370
     9
  0
POLYLINE
  5
99
330
51
100
AcDbEntity
  8
_U+30EC_U+30A4_U+30E4_U+30FC 1
 62
   179
420
  2234388
370
     9
100
AcDb2dPolyline
 66
     1
 10
0.0
 20
0.0
 30
0.0
  0
VERTEX
  5
9A
330
99
100
AcDbEntity
  8
_U+30EC_U+30A4_U+30E4_U+30FC 1
 62
   179
420
  2234388
370
     9
100
AcDbVertex
100
AcDb2dVertex
 10
117.5742333893203
 20
-117.7331980261222
 30
0.0
  0
VERTEX
  5
9B
330
99
100
AcDbEntity
  8
_U+30EC_U+30A4_U+30E4_U+30FC 1
 62
   179
420
  2234388
370
     9
100
AcDbVertex
100
AcDb2dVertex
 10
116.6474861907414
 20
-118.1101058038058
 30
0.0
  0
SEQEND
  5
9C
330
99
100
AcDbEntity
  8
_U+30EC_U+30A4_U+30E4_U+30FC 1
 62
   179
420
  2234388
370
     9
  0
POLYLINE
  5
9D
330
51
100
AcDbEntity
  8
_U+30EC_U+30A4_U+30E4_U+30FC 1
 62
   179
420
  2234388
370
     9
100
AcDb2dPolyline
 66
     1
 10
0.0
 20
0.0
 30
0.0
  0
VERTEX
  5
9E
330
9D
100
AcDbEntity
  8
_U+30EC_U+30A4_U+30E4_U+30FC 1
 62
   179
420
  2234388
370
     9
100
AcDbVertex
100
AcDb2dVertex
 10
117.2613900639683
 20
-117.3204833040032
 30
0.0
  0
VERTEX
  5
9F
330
9D
100
AcDbEntity
  8
_U+30EC_U+30A4_U+30E4_U+30FC 1
 62
   179
420
  2234388
370
     9
100
AcDbVertex
100
AcDb2dVertex
 10
116.6474861907414
 20
-118.1101058038058
 30
0.0
  0
SEQEND
  5
A0
330
9D
100
AcDbEntity
  8
_U+30EC_U+30A4_U+30E4_U+30FC 1
 62
   179
420
  2234388
370
     9
  0
POLYLINE
  5
A1
330
51
100
AcDbEntity
  8
_U+30EC_U+30A4_U+30E4_U+30FC 1
 62
   179
420
  2234388
370
     9
100
AcDb2dPolyline
 66
     1
 10
0.0
 20
0.0
 30
0.0
  0
VERTEX
  5
A2
330
A1
100
AcDbEntity
  8
_U+30EC_U+30A4_U+30E4_U+30FC 1
 62
   179
420
  2234388
370
     9
100
AcDbVertex
100
AcDb2dVertex
 10
117.5742333893203
 20
-112.4870044163228
 30
0.0
  0
VERTEX
  5
A3
330
A1
100
AcDbEntity
  8
_U+30EC_U+30A4_U+30E4_U+30FC 1
 62
   179
420
  2234388
370
     9
100
AcDbVertex
100
AcDb2dVertex
 10
116.6474861907414
 20
-112.1101319164168
 30
0.0
  0
SEQEND
  5
A4
330
A1
100
AcDbEntity
  8
_U+30EC_U+30A4_U+30E4_U+30FC 1
 62
   179
420
  2234388
370
     9
  0
POLYLINE
  5
A5
330
51
100
AcDbEntity
  8
_U+30EC_U+30A4_U+30E4_U+30FC 1
 62
   179
420
  2234388
370
     9
100
AcDb2dPolyline
 66
     1
 10
0.0
 20
0.0
 30
0.0
  0
VERTEX
  5
A6
330
A5
100
AcDbEntity
  8
_U+30EC_U+30A4_U+30E4_U+30FC 1
 62
   179
420
  2234388
370
     9
100
AcDbVertex
100
AcDb2dVertex
 10
117.2613900639683
 20
-112.8997544162197
 30
0.0
  0
VERTEX
  5
A7
330
A5
100
AcDbEntity
  8
_U+30EC_U+30A4_U+30E4_U+30FC 1
 62
   179
420
  2234388
370
     9
100
AcDbVertex
100
AcDb2dVertex
 10
116.6474861907414
 20
-112.1101319164168
 30
0.0
  0
SEQEND
  5
A8
330
A5
100
AcDbEntity
  8
_U+30EC_U+30A4_U+30E4_U+30FC 1
 62
   179
420
  2234388
370
     9
  0
POLYLINE
  5
A9
330
51
100
AcDbEntity
  8
_U+30EC_U+30A4_U+30E4_U+30FC 1
 62
   179
420
  2234388
370
    25
100
AcDb2dPolyline
 66
     1
 10
0.0
 20
0.0
 30
0.0
  0
VERTEX
  5
AA
330
A9
100
AcDbEntity
  8
_U+30EC_U+30A4_U+30E4_U+30FC 1
 62
   179
420
  2234388
370
    25
100
AcDbVertex
100
AcDb2dVertex
 10
123.3454307420848
 20
-114.6098799713474
 30
0.0
  0
VERTEX
  5
AB
330
A9
100
AcDbEntity
  8
_U+30EC_U+30A4_U+30E4_U+30FC 1
 62
   179
420
  2234388
370
    25
100
AcDbVertex
100
AcDb2dVertex
 10
122.3449882676082
 20
-115.6103577488751
 30
0.0
  0
SEQEND
  5
AC
330
A9
100
AcDbEntity
  8
_U+30EC_U+30A4_U+30E4_U+30FC 1
 62
   179
420
  2234388
370
    25
  0
POLYLINE
  5
AD
330
51
100
AcDbEntity
  8
_U+30EC_U+30A4_U+30E4_U+30FC 1
 62
   179
420
  2234388
370
    25
100
AcDb2dPolyline
 66
     1
 10
0.0
 20
0.0
 30
0.0
  0
VERTEX
  5
AE
330
AD
100
AcDbEntity
  8
_U+30EC_U+30A4_U+30E4_U+30FC 1
 62
   179
420
  2234388
370
    25
100
AcDbVertex
100
AcDb2dVertex
 10
122.3449882676082
 20
-115.6103577488751
 30
0.0
  0
VERTEX
  5
AF
330
AD
100
AcDbEntity
  8
_U+30EC_U+30A4_U+30E4_U+30FC 1
 62
   179
420
  2234388
370
    25
100
AcDbVertex
100
AcDb2dVertex
 10
101.3443746367118
 20
-115.6103577488751
 30
0.0
  0
SEQEND
  5
B0
330
AD
100
AcDbEntity
  8
_U+30EC_U+30A4_U+30E4_U+30FC 1
 62
   179
420
  2234388
370
    25
  0
POLYLINE
  5
B1
330
51
100
AcDbEntity
  8
_U+30EC_U+30A4_U+30E4_U+30FC 1
 62
   179
420
  2234388
370
    25
100
AcDb2dPolyline
 66
     1
 10
0.0
 20
0.0
 30
0.0
  0
VERTEX
  5
B2
330
B1
100
AcDbEntity
  8
_U+30EC_U+30A4_U+30E4_U+30FC 1
 62
   179
420
  2234388
370
    25
100
AcDbVertex
100
AcDb2dVertex
 10
111.9545893660227
 20
-128.6100777456254
 30
0.0
  0
VERTEX
  5
B3
330
B1
100
AcDbEntity
  8
_U+30EC_U+30A4_U+30E4_U+30FC 1
 62
   179
420
  2234388
370
    25
100
AcDbVertex
100
AcDb2dVertex
 10
110.9541116137692
 20
-129.6099910787086
 30
0.0
  0
SEQEND
  5
B4
330
B1
100
AcDbEntity
  8
_U+30EC_U+30A4_U+30E4_U+30FC 1
 62
   179
420
  2234388
370
    25
  0
POLYLINE
  5
B5
330
51
100
AcDbEntity
  8
_U+30EC_U+30A4_U+30E4_U+30FC 1
 62
   179
420
  2234388
370
    25
100
AcDb2dPolyline
 66
     1
 10
0.0
 20
0.0
 30
0.0
  0
VERTEX
  5
B6
330
B5
100
AcDbEntity
  8
_U+30EC_U+30A4_U+30E4_U+30FC 1
 62
   179
420
  2234388
370
    25
100
AcDbVertex
100
AcDb2dVertex
 10
101.3443746367118
 20
-115.6103577488751
 30
0.0
  0
VERTEX
  5
B7
330
B5
100
AcDbEntity
  8
_U+30EC_U+30A4_U+30E4_U+30FC 1
 62
   179
420
  2234388
370
    25
100
AcDbVertex
100
AcDb2dVertex
 10
101.3443746367118
 20
-128.6100777456254
 30
0.0
  0
SEQEND
  5
B8
330
B5
100
AcDbEntity
  8
_U+30EC_U+30A4_U+30E4_U+30FC 1
 62
   179
420
  2234388
370
    25
  0
POLYLINE
  5
B9
330
51
100
AcDbEntity
  8
_U+30EC_U+30A4_U+30E4_U+30FC 1
 62
   179
420
  2234388
370
    25
100
AcDb2dPolyline
 66
     1
 10
0.0
 20
0.0
 30
0.0
  0
VERTEX
  5
BA
330
B9
100
AcDbEntity
  8
_U+30EC_U+30A4_U+30E4_U+30FC 1
 62
   179
420
  2234388
370
    25
100
AcDbVertex
100
AcDb2dVertex
 10
100.3446024399959
 20
-114.6098799713474
 30
0.0
  0
VERTEX
  5
BB
330
B9
100
AcDbEntity
  8
_U+30EC_U+30A4_U+30E4_U+30FC 1
 62
   179
420
  2234388
370
    25
100
AcDbVertex
100
AcDb2dVertex
 10
100.3446024399959
 20
-128.1098388568613
 30
0.0
  0
SEQEND
  5
BC
330
B9
100
AcDbEntity
  8
_U+30EC_U+30A4_U+30E4_U+30FC 1
 62
   179
420
  2234388
370
    25
  0
POLYLINE
  5
BD
330
51
100
AcDbEntity
  8
_U+30EC_U+30A4_U+30E4_U+30FC 1
 62
   179
420
  2234388
370
    25
100
AcDb2dPolyline
 66
     1
 10
0.0
 20
0.0
 30
0.0
  0
VERTEX
  5
BE
330
BD
100
AcDbEntity
  8
_U+30EC_U+30A4_U+30E4_U+30FC 1
 62
   179
420
  2234388
370
    25
100
AcDbVertex
100
AcDb2dVertex
 10
123.3454307420848
 20
-114.6098799713474
 30
0.0
  0
VERTEX
  5
BF
330
BD
100
AcDbEntity
  8
_U+30EC_U+30A4_U+30E4_U+30FC 1
 62
   179
420
  2234388
370
    25
100
AcDbVertex
100
AcDb2dVertex
 10
100.3446024399959
 20
-114.6098799713474
 30
0.0
  0
SEQEND
  5
C0
330
BD
100
AcDbEntity
  8
_U+30EC_U+30A4_U+30E4_U+30FC 1
 62
   179
420
  2234388
370
    25
  0
POLYLINE
  5
C1
330
51
100
AcDbEntity
  8
_U+30EC_U+30A4_U+30E4_U+30FC 1
  6
AI-Linetype-1
 62
   179
420
  2234388
370
    25
100
AcDb2dPolyline
 66
     1
 10
0.0
 20
0.0
 30
0.0
  0
VERTEX
  5
C2
330
C1
100
AcDbEntity
  8
_U+30EC_U+30A4_U+30E4_U+30FC 1
  6
AI-Linetype-1
 62
   179
420
  2234388
370
    25
100
AcDbVertex
100
AcDb2dVertex
 10
88.43852913263405
 20
-129.730570523123
 30
0.0
  0
VERTEX
  5
C3
330
C1
100
AcDbEntity
  8
_U+30EC_U+30A4_U+30E4_U+30FC 1
  6
AI-Linetype-1
 62
   179
420
  2234388
370
    25
100
AcDbVertex
100
AcDb2dVertex
 10
102.2642073910227
 20
-147.4266446853655
 30
0.0
  0
SEQEND
  5
C5
330
C1
100
AcDbEntity
  8
_U+30EC_U+30A4_U+30E4_U+30FC 1
  6
AI-Linetype-1
 62
   179
420
  2234388
370
    25
  0
POLYLINE
  5
C6
330
51
100
AcDbEntity
  8
_U+30EC_U+30A4_U+30E4_U+30FC 1
  6
AI-Linetype-2
 62
   179
420
  2234388
370
    25
100
AcDb2dPolyline
 66
     1
 10
0.0
 20
0.0
 30
0.0
  0
VERTEX
  5
C7
330
C6
100
AcDbEntity
  8
_U+30EC_U+30A4_U+30E4_U+30FC 1
  6
AI-Linetype-2
 62
   179
420
  2234388
370
    25
100
AcDbVertex
100
AcDb2dVertex
 10
90.29611575190972
 20
-129.6720094120261
 30
0.0
  0
VERTEX
  5
C8
330
C6
100
AcDbEntity
  8
_U+30EC_U+30A4_U+30E4_U+30FC 1
  6
AI-Linetype-2
 62
   179
420
  2234388
370
    25
100
AcDbVertex
100
AcDb2dVertex
 10
96.91468530527817
 20
-138.1428035765754
 30
0.0
  0
SEQEND
  5
CA
330
C6
100
AcDbEntity
  8
_U+30EC_U+30A4_U+30E4_U+30FC 1
  6
AI-Linetype-2
 62
   179
420
  2234388
370
    25
  0
POLYLINE
  5
CB
330
51
100
AcDbEntity
  8
_U+30EC_U+30A4_U+30E4_U+30FC 1
  6
AI-Linetype-3
 62
   179
420
  2234388
370
    25
100
AcDb2dPolyline
 66
     1
 10
0.0
 20
0.0
 30
0.0
  0
VERTEX
  5
CC
330
CB
100
AcDbEntity
  8
_U+30EC_U+30A4_U+30E4_U+30FC 1
  6
AI-Linetype-3
 62
   179
420
  2234388
370
    25
100
AcDbVertex
100
AcDb2dVertex
 10
103.6680865218734
 20
-147.5989060742116
 30
0.0
  0
VERTEX
  5
CD
330
CB
100
AcDbEntity
  8
_U+30EC_U+30A4_U+30E4_U+30FC 1
  6
AI-Linetype-3
 62
   179
420
  2234388
370
    25
100
AcDbVertex
100
AcDb2dVertex
 10
97.13584168852489
 20
-139.2383549651903
 30
0.0
  0
SEQEND
  5
CF
330
CB
100
AcDbEntity
  8
_U+30EC_U+30A4_U+30E4_U+30FC 1
  6
AI-Linetype-3
 62
   179
420
  2234388
370
    25
  0
POLYLINE
  5
D0
330
51
100
AcDbEntity
  8
_U+30EC_U+30A4_U+30E4_U+30FC 1
  6
AI-Linetype-4
 62
   179
420
  2234388
370
    25
100
AcDb2dPolyline
 66
     1
 10
0.0
 20
0.0
 30
0.0
  0
VERTEX
  5
D1
330
D0
100
AcDbEntity
  8
_U+30EC_U+30A4_U+30E4_U+30FC 1
  6
AI-Linetype-4
 62
   179
420
  2234388
370
    25
100
AcDbVertex
100
AcDb2dVertex
 10
121.7138335614881
 20
-147.9558113518999
 30
0.0
  0
VERTEX
  5
D2
330
D0
100
AcDbEntity
  8
_U+30EC_U+30A4_U+30E4_U+30FC 1
  6
AI-Linetype-4
 62
   179
420
  2234388
370
    25
100
AcDbVertex
100
AcDb2dVertex
 10
120.3089313751079
 20
-147.7828796852764
 30
0.0
  0
SEQEND
  5
D4
330
D0
100
AcDbEntity
  8
_U+30EC_U+30A4_U+30E4_U+30FC 1
  6
AI-Linetype-4
 62
   179
420
  2234388
370
    25
  0
POLYLINE
  5
D5
330
51
100
AcDbEntity
  8
_U+30EC_U+30A4_U+30E4_U+30FC 1
  6
AI-Linetype-5
 62
   179
420
  2234388
370
    25
100
AcDb2dPolyline
 66
     1
 10
0.0
 20
0.0
 30
0.0
  0
VERTEX
  5
D6
330
D5
100
AcDbEntity
  8
_U+30EC_U+30A4_U+30E4_U+30FC 1
  6
AI-Linetype-5
 62
   179
420
  2234388
370
    25
100
AcDbVertex
100
AcDb2dVertex
 10
120.3089313751079
 20
-147.7828796852764
 30
0.0
  0
VERTEX
  5
D7
330
D5
100
AcDbEntity
  8
_U+30EC_U+30A4_U+30E4_U+30FC 1
  6
AI-Linetype-5
 62
   179
420
  2234388
370
    25
100
AcDbVertex
100
AcDb2dVertex
 10
107.3801905938364
 20
-131.2347091338579
 30
0.0
  0
SEQEND
  5
D9
330
D5
100
AcDbEntity
  8
_U+30EC_U+30A4_U+30E4_U+30FC 1
  6
AI-Linetype-5
 62
   179
420
  2234388
370
    25
  0
POLYLINE
  5
DA
330
51
100
AcDbEntity
  8
_U+30EC_U+30A4_U+30E4_U+30FC 1
  6
AI-Linetype-6
 62
   179
420
  2234388
370
    25
100
AcDb2dPolyline
 66
     1
 10
0.0
 20
0.0
 30
0.0
  0
VERTEX
  5
DB
330
DA
100
AcDbEntity
  8
_U+30EC_U+30A4_U+30E4_U+30FC 1
  6
AI-Linetype-6
 62
   179
420
  2234388
370
    25
100
AcDbVertex
100
AcDb2dVertex
 10
103.6680865218734
 20
-147.5989060742116
 30
0.0
  0
VERTEX
  5
DC
330
DA
100
AcDbEntity
  8
_U+30EC_U+30A4_U+30E4_U+30FC 1
  6
AI-Linetype-6
 62
   179
420
  2234388
370
    25
100
AcDbVertex
100
AcDb2dVertex
 10
102.2642073910227
 20
-147.4266446853655
 30
0.0
  0
SEQEND
  5
DE
330
DA
100
AcDbEntity
  8
_U+30EC_U+30A4_U+30E4_U+30FC 1
  6
AI-Linetype-6
 62
   179
420
  2234388
370
    25
  0
POLYLINE
  5
DF
330
51
100
AcDbEntity
  8
_U+30EC_U+30A4_U+30E4_U+30FC 1
  6
AI-Linetype-7
 62
   179
420
  2234388
370
    25
100
AcDb2dPolyline
 66
     1
 10
0.0
 20
0.0
 30
0.0
  0
VERTEX
  5
E0
330
DF
100
AcDbEntity
  8
_U+30EC_U+30A4_U+30E4_U+30FC 1
  6
AI-Linetype-7
 62
   179
420
  2234388
370
    25
100
AcDbVertex
100
AcDb2dVertex
 10
107.3801905938364
 20
-131.2347091338579
 30
0.0
  0
VERTEX
  5
E1
330
DF
100
AcDbEntity
  8
_U+30EC_U+30A4_U+30E4_U+30FC 1
  6
AI-Linetype-7
 62
   179
420
  2234388
370
    25
100
AcDbVertex
100
AcDb2dVertex
 10
97.13584168852489
 20
-139.2383549651903
 30
0.0
  0
SEQEND
  5
E3
330
DF
100
AcDbEntity
  8
_U+30EC_U+30A4_U+30E4_U+30FC 1
  6
AI-Linetype-7
 62
   179
420
  2234388
370
    25
  0
POLYLINE
  5
E4
330
51
100
AcDbEntity
  8
_U+30EC_U+30A4_U+30E4_U+30FC 1
  6
AI-Linetype-8
 62
   179
420
  2234388
370
    25
100
AcDb2dPolyline
 66
     1
 10
0.0
 20
0.0
 30
0.0
  0
VERTEX
  5
E5
330
E4
100
AcDbEntity
  8
_U+30EC_U+30A4_U+30E4_U+30FC 1
  6
AI-Linetype-8
 62
   179
420
  2234388
370
    25
100
AcDbVertex
100
AcDb2dVertex
 10
107.5531249731117
 20
-129.8311827453201
 30
0.0
  0
VERTEX
  5
E6
330
E4
100
AcDbEntity
  8
_U+30EC_U+30A4_U+30E4_U+30FC 1
  6
AI-Linetype-8
 62
   179
420
  2234388
370
    25
100
AcDbVertex
100
AcDb2dVertex
 10
96.91468530527817
 20
-138.1428035765754
 30
0.0
  0
SEQEND
  5
E8
330
E4
100
AcDbEntity
  8
_U+30EC_U+30A4_U+30E4_U+30FC 1
  6
AI-Linetype-8
 62
   179
420
  2234388
370
    25
  0
POLYLINE
  5
E9
330
51
100
AcDbEntity
  8
_U+30EC_U+30A4_U+30E4_U+30FC 1
  6
AI-Linetype-9
 62
   179
420
  2234388
370
    25
100
AcDb2dPolyline
 66
     1
 10
0.0
 20
0.0
 30
0.0
  0
VERTEX
  5
EA
330
E9
100
AcDbEntity
  8
_U+30EC_U+30A4_U+30E4_U+30FC 1
  6
AI-Linetype-9
 62
   179
420
  2234388
370
    25
100
AcDbVertex
100
AcDb2dVertex
 10
121.7138335614881
 20
-147.9558113518999
 30
0.0
  0
VERTEX
  5
EB
330
E9
100
AcDbEntity
  8
_U+30EC_U+30A4_U+30E4_U+30FC 1
  6
AI-Linetype-9
 62
   179
420
  2234388
370
    25
100
AcDbVertex
100
AcDb2dVertex
 10
107.5531249731117
 20
-129.8311827453201
 30
0.0
  0
SEQEND
  5
ED
330
E9
100
AcDbEntity
  8
_U+30EC_U+30A4_U+30E4_U+30FC 1
  6
AI-Linetype-9
 62
   179
420
  2234388
370
    25
  0
SPLINE
  5
EE
330
51
100
AcDbEntity
  8
_U+30EC_U+30A4_U+30E4_U+30FC 1
 62
   179
420
  2234388
370
     9
100
AcDbSpline
210
0.0
220
0.0
230
1.0
 70
     8
 71
     3
 72
     8
 73
     4
 74
     0
 42
0.0000000001
 43
0.0000000001
 12
1.0
 22
0.0
 32
0.0
 13
1.0
 23
0.0
 33
0.0
 40
0.0
 40
0.0
 40
0.0
 40
0.0
 40
1.0
 40
1.0
 40
1.0
 40
1.0
 10
116.6474861907414
 20
-118.1101058038058
 30
0.0
 10
117.3964333938564
 20
-117.6601730261406
 30
0.0
 10
117.9497300464073
 20
-116.9470327485409
 30
0.0
 10
118.1991439289331
 20
-116.1098910820836
 30
0.0
  0
SPLINE
  5
EF
330
51
100
AcDbEntity
  8
_U+30EC_U+30A4_U+30E4_U+30FC 1
 62
   179
420
  2234388
370
     9
100
AcDbSpline
210
0.0
220
0.0
230
1.0
 70
     8
 71
     3
 72
     8
 73
     4
 74
     0
 42
0.0000000001
 43
0.0000000001
 12
1.0
 22
0.0
 32
0.0
 13
1.0
 23
0.0
 33
0.0
 40
0.0
 40
0.0
 40
0.0
 40
0.0
 40
1.0
 40
1.0
 40
1.0
 40
1.0
 10
118.1991439289331
 20
-114.1103466381392
 30
0.0
 10
117.9497300464073
 20
-113.2732049716817
 30
0.0
 10
117.3964333938564
 20
-112.5600646940822
 30
0.0
 10
116.6474861907414
 20
-112.1101319164168
 30
0.0
  0
SPLINE
  5
F0
330
51
100
AcDbEntity
  8
_U+30EC_U+30A4_U+30E4_U+30FC 1
 62
   179
420
  2234388
370
     9
100
AcDbSpline
210
0.0
220
0.0
230
1.0
 70
    11
 71
     3
 72
    17
 73
    13
 74
     0
 42
0.0000000001
 43
0.0000000001
 12
1.0
 22
0.0
 32
0.0
 13
1.0
 23
0.0
 33
0.0
 40
0.0
 40
0.0
 40
0.0
 40
0.0
 40
1.0
 40
1.0
 40
1.0
 40
2.0
 40
2.0
 40
2.0
 40
3.0
 40
3.0
 40
3.0
 40
4.0
 40
4.0
 40
4.0
 40
4.0
 10
88.44473802136453
 20
-133.610455799931
 30
0.0
 10
88.44473802136453
 20
-133.5546463555
 30
0.0
 10
88.39993524472976
 20
-133.5098435777339
 30
0.0
 10
88.34447857947791
 20
-133.5098435777339
 30
0.0
 10
88.28934164459442
 20
-133.5098435777339
 30
0.0
 10
88.24457191536008
 20
-133.5546463555
 30
0.0
 10
88.24457191536008
 20
-133.610455799931
 30
0.0
 10
88.24457191536008
 20
-133.665559688806
 30
0.0
 10
88.28934164459442
 20
-133.7103624665727
 30
0.0
 10
88.34447857947791
 20
-133.7103624665727
 30
0.0
 10
88.39993524472976
 20
-133.7103624665727
 30
0.0
 10
88.44473802136453
 20
-133.665559688806
 30
0.0
 10
88.44473802136453
 20
-133.610455799931
 30
0.0
  0
SPLINE
  5
F1
330
51
100
AcDbEntity
  8
_U+30EC_U+30A4_U+30E4_U+30FC 1
 62
   179
420
  2234388
370
     9
100
AcDbSpline
210
0.0
220
0.0
230
1.0
 70
    11
 71
     3
 72
    17
 73
    13
 74
     0
 42
0.0000000001
 43
0.0000000001
 12
1.0
 22
0.0
 32
0.0
 13
1.0
 23
0.0
 33
0.0
 40
0.0
 40
0.0
 40
0.0
 40
0.0
 40
1.0
 40
1.0
 40
1.0
 40
2.0
 40
2.0
 40
2.0
 40
3.0
 40
3.0
 40
3.0
 40
4.0
 40
4.0
 40
4.0
 40
4.0
 10
64.94469389867838
 20
-133.610455799931
 30
0.0
 10
64.94469389867838
 20
-133.5546463555
 30
0.0
 10
64.89992639982049
 20
-133.5098435777339
 30
0.0
 10
64.84443609489989
 20
-133.5098435777339
 30
0.0
 10
64.78933056930869
 20
-133.5098435777339
 30
0.0
 10
64.74452779267394
 20
-133.5546463555
 30
0.0
 10
64.74452779267394
 20
-133.610455799931
 30
0.0
 10
64.74452779267394
 20
-133.665559688806
 30
0.0
 10
64.78933056930869
 20
-133.7103624665727
 30
0.0
 10
64.84443609489989
 20
-133.7103624665727
 30
0.0
 10
64.89992639982049
 20
-133.7103624665727
 30
0.0
 10
64.94469389867838
 20
-133.665559688806
 30
0.0
 10
64.94469389867838
 20
-133.610455799931
 30
0.0
  0
SPLINE
  5
F2
330
51
100
AcDbEntity
  8
_U+30EC_U+30A4_U+30E4_U+30FC 1
 62
   179
420
  2234388
370
     9
100
AcDbSpline
210
0.0
220
0.0
230
1.0
 70
    11
 71
     3
 72
    17
 73
    13
 74
     0
 42
0.0000000001
 43
0.0000000001
 12
1.0
 22
0.0
 32
0.0
 13
1.0
 23
0.0
 33
0.0
 40
0.0
 40
0.0
 40
0.0
 40
0.0
 40
1.0
 40
1.0
 40
1.0
 40
2.0
 40
2.0
 40
2.0
 40
3.0
 40
3.0
 40
3.0
 40
4.0
 40
4.0
 40
4.0
 40
4.0
 10
49.44469707189402
 20
-128.6100777456254
 30
0.0
 10
49.44469707189402
 20
-128.5549385789723
 30
0.0
 10
49.39992957303613
 20
-128.5101710789837
 30
0.0
 10
49.34479165433047
 20
-128.5101710789837
 30
0.0
 10
49.28951013140873
 20
-128.5101710789837
 30
0.0
 10
49.24470735477396
 20
-128.5549385789723
 30
0.0
 10
49.24470735477396
 20
-128.6100777456254
 30
0.0
 10
49.24470735477396
 20
-128.6651816345003
 30
0.0
 10
49.28951013140873
 20
-128.709984412267
 30
0.0
 10
49.34479165433047
 20
-128.709984412267
 30
0.0
 10
49.39992957303613
 20
-128.709984412267
 30
0.0
 10
49.44469707189402
 20
-128.6651816345003
 30
0.0
 10
49.44469707189402
 20
-128.6100777456254
 30
0.0
  0
SPLINE
  5
F3
330
51
100
AcDbEntity
  8
_U+30EC_U+30A4_U+30E4_U+30FC 1
 62
   179
420
  2234388
370
     9
100
AcDbSpline
210
0.0
220
0.0
230
1.0
 70
    11
 71
     3
 72
    17
 73
    13
 74
     0
 42
0.0000000001
 43
0.0000000001
 12
1.0
 22
0.0
 32
0.0
 13
1.0
 23
0.0
 33
0.0
 40
0.0
 40
0.0
 40
0.0
 40
0.0
 40
1.0
 40
1.0
 40
1.0
 40
2.0
 40
2.0
 40
2.0
 40
3.0
 40
3.0
 40
3.0
 40
4.0
 40
4.0
 40
4.0
 40
4.0
 10
49.44469707189402
 20
-115.6103577488751
 30
0.0
 10
49.44469707189402
 20
-115.5545483044447
 30
0.0
 10
49.39992957303613
 20
-115.5104510822335
 30
0.0
 10
49.34479165433047
 20
-115.5104510822335
 30
0.0
 10
49.28951013140873
 20
-115.5104510822335
 30
0.0
 10
49.24470735477396
 20
-115.5545483044447
 30
0.0
 10
49.24470735477396
 20
-115.6103577488751
 30
0.0
 10
49.24470735477396
 20
-115.6654616377504
 30
0.0
 10
49.28951013140873
 20
-115.7102644155168
 30
0.0
 10
49.34479165433047
 20
-115.7102644155168
 30
0.0
 10
49.39992957303613
 20
-115.7102644155168
 30
0.0
 10
49.44469707189402
 20
-115.6654616377504
 30
0.0
 10
49.44469707189402
 20
-115.6103577488751
 30
0.0
  0
SPLINE
  5
F4
330
51
100
AcDbEntity
  8
_U+30EC_U+30A4_U+30E4_U+30FC 1
 62
   179
420
  2234388
370
     9
100
AcDbSpline
210
0.0
220
0.0
230
1.0
 70
    11
 71
     3
 72
    17
 73
    13
 74
     0
 42
0.0000000001
 43
0.0000000001
 12
1.0
 22
0.0
 32
0.0
 13
1.0
 23
0.0
 33
0.0
 40
0.0
 40
0.0
 40
0.0
 40
0.0
 40
1.0
 40
1.0
 40
1.0
 40
2.0
 40
2.0
 40
2.0
 40
3.0
 40
3.0
 40
3.0
 40
4.0
 40
4.0
 40
4.0
 40
4.0
 10
53.44480891428711
 20
-110.6101208056808
 30
0.0
 10
53.44480891428711
 20
-110.5550169168056
 30
0.0
 10
53.40000613765235
 20
-110.5102141390392
 30
0.0
 10
53.34472586128489
 20
-110.5102141390392
 30
0.0
 10
53.28941030714055
 20
-110.5102141390392
 30
0.0
 10
53.24481919716705
 20
-110.5550169168056
 30
0.0
 10
53.24481919716705
 20
-110.6101208056808
 30
0.0
 10
53.24481919716705
 20
-110.6652599723336
 30
0.0
 10
53.28941030714055
 20
-110.7100274723225
 30
0.0
 10
53.34472586128489
 20
-110.7100274723225
 30
0.0
 10
53.40000613765235
 20
-110.7100274723225
 30
0.0
 10
53.44480891428711
 20
-110.6652599723336
 30
0.0
 10
53.44480891428711
 20
-110.6101208056808
 30
0.0
  0
SPLINE
  5
F5
330
51
100
AcDbEntity
  8
_U+30EC_U+30A4_U+30E4_U+30FC 1
 62
   179
420
  2234388
370
     9
100
AcDbSpline
210
0.0
220
0.0
230
1.0
 70
    11
 71
     3
 72
    17
 73
    13
 74
     0
 42
0.0000000001
 43
0.0000000001
 12
1.0
 22
0.0
 32
0.0
 13
1.0
 23
0.0
 33
0.0
 40
0.0
 40
0.0
 40
0.0
 40
0.0
 40
1.0
 40
1.0
 40
1.0
 40
2.0
 40
2.0
 40
2.0
 40
3.0
 40
3.0
 40
3.0
 40
4.0
 40
4.0
 40
4.0
 40
4.0
 10
76.44475527195404
 20
-110.6101208056808
 30
0.0
 10
76.44475527195404
 20
-110.5550169168056
 30
0.0
 10
76.39998777309616
 20
-110.5102141390392
 30
0.0
 10
76.3445311078443
 20
-110.5102141390392
 30
0.0
 10
76.28939194258436
 20
-110.5102141390392
 30
0.0
 10
76.24462444372647
 20
-110.5550169168056
 30
0.0
 10
76.24462444372647
 20
-110.6101208056808
 30
0.0
 10
76.24462444372647
 20
-110.6652599723336
 30
0.0
 10
76.28939194258436
 20
-110.7100274723225
 30
0.0
 10
76.3445311078443
 20
-110.7100274723225
 30
0.0
 10
76.39998777309616
 20
-110.7100274723225
 30
0.0
 10
76.44475527195404
 20
-110.6652599723336
 30
0.0
 10
76.44475527195404
 20
-110.6101208056808
 30
0.0
  0
INSERT
  5
F7
330
51
100
AcDbEntity
  8
_U+30EC_U+30A4_U+30E4_U+30FC 1
100
AcDbBlockReference
  2
block 3
 10
0.0
 20
0.0
 30
0.0
  0
POLYLINE
  5
132
330
51
100
AcDbEntity
  8
_U+30EC_U+30A4_U+30E4_U+30FC 1
 62
   179
420
  2234388
370
     9
100
AcDb2dPolyline
 66
     1
 10
0.0
 20
0.0
 30
0.0
  0
VERTEX
  5
133
330
132
100
AcDbEntity
  8
_U+30EC_U+30A4_U+30E4_U+30FC 1
 62
   179
420
  2234388
370
     9
100
AcDbVertex
100
AcDb2dVertex
 10
64.84443609489989
 20
-133.610455799931
 30
0.0
  0
VERTEX
  5
134
330
132
100
AcDbEntity
  8
_U+30EC_U+30A4_U+30E4_U+30FC 1
 62
   179
420
  2234388
370
     9
100
AcDbVertex
100
AcDb2dVertex
 10
88.34447857947791
 20
-133.610455799931
 30
0.0
  0
SEQEND
  5
135
330
132
100
AcDbEntity
  8
_U+30EC_U+30A4_U+30E4_U+30FC 1
 62
   179
420
  2234388
370
     9
  0
POLYLINE
  5
136
330
51
100
AcDbEntity
  8
_U+30EC_U+30A4_U+30E4_U+30FC 1
 62
   179
420
  2234388
370
     9
100
AcDb2dPolyline
 66
     1
 10
0.0
 20
0.0
 30
0.0
  0
VERTEX
  5
137
330
136
100
AcDbEntity
  8
_U+30EC_U+30A4_U+30E4_U+30FC 1
 62
   179
420
  2234388
370
     9
100
AcDbVertex
100
AcDb2dVertex
 10
64.84443609489989
 20
-131.1499719116568
 30
0.0
  0
VERTEX
  5
138
330
136
100
AcDbEntity
  8
_U+30EC_U+30A4_U+30E4_U+30FC 1
 62
   179
420
  2234388
370
     9
100
AcDbVertex
100
AcDb2dVertex
 10
64.84443609489989
 20
-134.6102280219029
 30
0.0
  0
SEQEND
  5
139
330
136
100
AcDbEntity
  8
_U+30EC_U+30A4_U+30E4_U+30FC 1
 62
   179
420
  2234388
370
     9
  0
POLYLINE
  5
13A
330
51
100
AcDbEntity
  8
_U+30EC_U+30A4_U+30E4_U+30FC 1
 62
   179
420
  2234388
370
     9
100
AcDb2dPolyline
 66
     1
 10
0.0
 20
0.0
 30
0.0
  0
VERTEX
  5
13B
330
13A
100
AcDbEntity
  8
_U+30EC_U+30A4_U+30E4_U+30FC 1
 62
   179
420
  2234388
370
     9
100
AcDbVertex
100
AcDb2dVertex
 10
88.34447857947791
 20
-132.1504144114067
 30
0.0
  0
VERTEX
  5
13C
330
13A
100
AcDbEntity
  8
_U+30EC_U+30A4_U+30E4_U+30FC 1
 62
   179
420
  2234388
370
     9
100
AcDbVertex
100
AcDb2dVertex
 10
88.34447857947791
 20
-134.6102280219029
 30
0.0
  0
SEQEND
  5
13D
330
13A
100
AcDbEntity
  8
_U+30EC_U+30A4_U+30E4_U+30FC 1
 62
   179
420
  2234388
370
     9
  0
INSERT
  5
13F
330
51
100
AcDbEntity
  8
_U+30EC_U+30A4_U+30E4_U+30FC 1
100
AcDbBlockReference
  2
block 4
 10
0.0
 20
0.0
 30
0.0
  0
POLYLINE
  5
150
330
51
100
AcDbEntity
  8
_U+30EC_U+30A4_U+30E4_U+30FC 1
 62
   179
420
  2234388
370
     9
100
AcDb2dPolyline
 66
     1
 10
0.0
 20
0.0
 30
0.0
  0
VERTEX
  5
151
330
150
100
AcDbEntity
  8
_U+30EC_U+30A4_U+30E4_U+30FC 1
 62
   179
420
  2234388
370
     9
100
AcDbVertex
100
AcDb2dVertex
 10
53.34472586128489
 20
-110.6101208056808
 30
0.0
  0
VERTEX
  5
152
330
150
100
AcDbEntity
  8
_U+30EC_U+30A4_U+30E4_U+30FC 1
 62
   179
420
  2234388
370
     9
100
AcDbVertex
100
AcDb2dVertex
 10
76.3445311078443
 20
-110.6101208056808
 30
0.0
  0
SEQEND
  5
153
330
150
100
AcDbEntity
  8
_U+30EC_U+30A4_U+30E4_U+30FC 1
 62
   179
420
  2234388
370
     9
  0
POLYLINE
  5
154
330
51
100
AcDbEntity
  8
_U+30EC_U+30A4_U+30E4_U+30FC 1
 62
   179
420
  2234388
370
     9
100
AcDb2dPolyline
 66
     1
 10
0.0
 20
0.0
 30
0.0
  0
VERTEX
  5
155
330
154
100
AcDbEntity
  8
_U+30EC_U+30A4_U+30E4_U+30FC 1
 62
   179
420
  2234388
370
     9
100
AcDbVertex
100
AcDb2dVertex
 10
53.34472586128489
 20
-112.0701621942049
 30
0.0
  0
VERTEX
  5
156
330
154
100
AcDbEntity
  8
_U+30EC_U+30A4_U+30E4_U+30FC 1
 62
   179
420
  2234388
370
     9
100
AcDbVertex
100
AcDb2dVertex
 10
53.34472586128489
 20
-109.6103485837086
 30
0.0
  0
SEQEND
  5
157
330
154
100
AcDbEntity
  8
_U+30EC_U+30A4_U+30E4_U+30FC 1
 62
   179
420
  2234388
370
     9
  0
POLYLINE
  5
158
330
51
100
AcDbEntity
  8
_U+30EC_U+30A4_U+30E4_U+30FC 1
 62
   179
420
  2234388
370
     9
100
AcDb2dPolyline
 66
     1
 10
0.0
 20
0.0
 30
0.0
  0
VERTEX
  5
159
330
158
100
AcDbEntity
  8
_U+30EC_U+30A4_U+30E4_U+30FC 1
 62
   179
420
  2234388
370
     9
100
AcDbVertex
100
AcDb2dVertex
 10
76.3445311078443
 20
-112.0701621942049
 30
0.0
  0
VERTEX
  5
15A
330
158
100
AcDbEntity
  8
_U+30EC_U+30A4_U+30E4_U+30FC 1
 62
   179
420
  2234388
370
     9
100
AcDbVertex
100
AcDb2dVertex
 10
76.3445311078443
 20
-109.6103485837086
 30
0.0
  0
SEQEND
  5
15B
330
158
100
AcDbEntity
  8
_U+30EC_U+30A4_U+30E4_U+30FC 1
 62
   179
420
  2234388
370
     9
  0
INSERT
  5
15D
330
51
100
AcDbEntity
  8
_U+30EC_U+30A4_U+30E4_U+30FC 1
100
AcDbBlockReference
  2
block 5
 10
0.0
 20
0.0
 30
0.0
  0
POLYLINE
  5
164
330
51
100
AcDbEntity
  8
_U+30EC_U+30A4_U+30E4_U+30FC 1
 62
   179
420
  2234388
370
     9
100
AcDb2dPolyline
 66
     1
 10
0.0
 20
0.0
 30
0.0
  0
VERTEX
  5
165
330
164
100
AcDbEntity
  8
_U+30EC_U+30A4_U+30E4_U+30FC 1
 62
   179
420
  2234388
370
     9
100
AcDbVertex
100
AcDb2dVertex
 10
49.34479165433047
 20
-115.6103577488751
 30
0.0
  0
VERTEX
  5
166
330
164
100
AcDbEntity
  8
_U+30EC_U+30A4_U+30E4_U+30FC 1
 62
   179
420
  2234388
370
     9
100
AcDbVertex
100
AcDb2dVertex
 10
49.34479165433047
 20
-128.6100777456254
 30
0.0
  0
SEQEND
  5
167
330
164
100
AcDbEntity
  8
_U+30EC_U+30A4_U+30E4_U+30FC 1
 62
   179
420
  2234388
370
     9
  0
POLYLINE
  5
168
330
51
100
AcDbEntity
  8
_U+30EC_U+30A4_U+30E4_U+30FC 1
 62
   179
420
  2234388
370
     9
100
AcDb2dPolyline
 66
     1
 10
0.0
 20
0.0
 30
0.0
  0
VERTEX
  5
169
330
168
100
AcDbEntity
  8
_U+30EC_U+30A4_U+30E4_U+30FC 1
 62
   179
420
  2234388
370
     9
100
AcDbVertex
100
AcDb2dVertex
 10
51.80474506723974
 20
-115.6103577488751
 30
0.0
  0
VERTEX
  5
16A
330
168
100
AcDbEntity
  8
_U+30EC_U+30A4_U+30E4_U+30FC 1
 62
   179
420
  2234388
370
     9
100
AcDbVertex
100
AcDb2dVertex
 10
48.34466665458049
 20
-115.6103577488751
 30
0.0
  0
SEQEND
  5
16B
330
168
100
AcDbEntity
  8
_U+30EC_U+30A4_U+30E4_U+30FC 1
 62
   179
420
  2234388
370
     9
  0
POLYLINE
  5
16C
330
51
100
AcDbEntity
  8
_U+30EC_U+30A4_U+30E4_U+30FC 1
 62
   179
420
  2234388
370
     9
100
AcDb2dPolyline
 66
     1
 10
0.0
 20
0.0
 30
0.0
  0
VERTEX
  5
16D
330
16C
100
AcDbEntity
  8
_U+30EC_U+30A4_U+30E4_U+30FC 1
 62
   179
420
  2234388
370
     9
100
AcDbVertex
100
AcDb2dVertex
 10
62.30471674380758
 20
-128.6100777456254
 30
0.0
  0
VERTEX
  5
16E
330
16C
100
AcDbEntity
  8
_U+30EC_U+30A4_U+30E4_U+30FC 1
 62
   179
420
  2234388
370
     9
100
AcDbVertex
100
AcDb2dVertex
 10
48.34466665458049
 20
-128.6100777456254
 30
0.0
  0
SEQEND
  5
16F
330
16C
100
AcDbEntity
  8
_U+30EC_U+30A4_U+30E4_U+30FC 1
 62
   179
420
  2234388
370
     9
  0
INSERT
  5
171
330
51
100
AcDbEntity
  8
_U+30EC_U+30A4_U+30E4_U+30FC 1
100
AcDbBlockReference
  2
block 6
 10
0.0
 20
0.0
 30
0.0
  0
ENDBLK
  5
54
330
51
100
AcDbEntity
  8
0
100
AcDbBlockEnd
  0
BLOCK
  5
F8
330
F6
100
AcDbEntity
  8
0
100
AcDbBlockBegin
  2
block 3
 70
     0
 10
0.0
 20
0.0
 30
0.0
  3
block 3
  1

  0
SPLINE
  5
FA
330
F6
100
AcDbEntity
  8
_U+30EC_U+30A4_U+30E4_U+30FC 1
370
     0
100
AcDbSpline
210
0.0
220
0.0
230
1.0
 70
    11
 71
     3
 72
   197
 73
   193
 74
     0
 42
0.0000000001
 43
0.0000000001
 12
1.0
 22
0.0
 32
0.0
 13
1.0
 23
0.0
 33
0.0
 40
0.0
 40
0.0
 40
0.0
 40
0.0
 40
1.0
 40
1.0
 40
1.0
 40
2.0
 40
2.0
 40
2.0
 40
3.0
 40
3.0
 40
3.0
 40
4.0
 40
4.0
 40
4.0
 40
5.0
 40
5.0
 40
5.0
 40
6.0
 40
6.0
 40
6.0
 40
7.0
 40
7.0
 40
7.0
 40
8.0
 40
8.0
 40
8.0
 40
9.0
 40
9.0
 40
9.0
 40
10.0
 40
10.0
 40
10.0
 40
11.0
 40
11.0
 40
11.0
 40
12.0
 40
12.0
 40
12.0
 40
13.0
 40
13.0
 40
13.0
 40
14.0
 40
14.0
 40
14.0
 40
15.0
 40
15.0
 40
15.0
 40
16.0
 40
16.0
 40
16.0
 40
17.0
 40
17.0
 40
17.0
 40
18.0
 40
18.0
 40
18.0
 40
19.0
 40
19.0
 40
19.0
 40
20.0
 40
20.0
 40
20.0
 40
21.0
 40
21.0
 40
21.0
 40
22.0
 40
22.0
 40
22.0
 40
23.0
 40
23.0
 40
23.0
 40
24.0
 40
24.0
 40
24.0
 40
25.0
 40
25.0
 40
25.0
 40
26.0
 40
26.0
 40
26.0
 40
27.0
 40
27.0
 40
27.0
 40
28.0
 40
28.0
 40
28.0
 40
29.0
 40
29.0
 40
29.0
 40
30.0
 40
30.0
 40
30.0
 40
31.0
 40
31.0
 40
31.0
 40
32.0
 40
32.0
 40
32.0
 40
33.0
 40
33.0
 40
33.0
 40
34.0
 40
34.0
 40
34.0
 40
35.0
 40
35.0
 40
35.0
 40
36.0
 40
36.0
 40
36.0
 40
37.0
 40
37.0
 40
37.0
 40
38.0
 40
38.0
 40
38.0
 40
39.0
 40
39.0
 40
39.0
 40
40.0
 40
40.0
 40
40.0
 40
41.0
 40
41.0
 40
41.0
 40
42.0
 40
42.0
 40
42.0
 40
43.0
 40
43.0
 40
43.0
 40
44.0
 40
44.0
 40
44.0
 40
45.0
 40
45.0
 40
45.0
 40
46.0
 40
46.0
 40
46.0
 40
47.0
 40
47.0
 40
47.0
 40
48.0
 40
48.0
 40
48.0
 40
49.0
 40
49.0
 40
49.0
 40
50.0
 40
50.0
 40
50.0
 40
51.0
 40
51.0
 40
51.0
 40
52.0
 40
52.0
 40
52.0
 40
53.0
 40
53.0
 40
53.0
 40
54.0
 40
54.0
 40
54.0
 40
55.0
 40
55.0
 40
55.0
 40
56.0
 40
56.0
 40
56.0
 40
57.0
 40
57.0
 40
57.0
 40
58.0
 40
58.0
 40
58.0
 40
59.0
 40
59.0
 40
59.0
 40
60.0
 40
60.0
 40
60.0
 40
61.0
 40
61.0
 40
61.0
 40
62.0
 40
62.0
 40
62.0
 40
63.0
 40
63.0
 40
63.0
 40
64.0
 40
64.0
 40
64.0
 40
64.0
 10
91.0139105675243
 20
-122.138625729014
 30
0.0
 10
91.00357528106855
 20
-122.1682535501871
 30
0.0
 10
90.98118216041443
 20
-122.214762339238
 30
0.0
 10
90.9711913835072
 20
-122.24232310312
 30
0.0
 10
90.9711913835072
 20
-122.24232310312
 30
0.0
 10
90.9119357411609
 20
-122.394596323568
 30
0.0
 10
90.9119357411609
 20
-122.394596323568
 30
0.0
 10
90.90194496425369
 20
-122.4200900301589
 30
0.0
 10
90.85509166565429
 20
-122.5320556334295
 30
0.0
 10
90.84268932190739
 20
-122.5554822827292
 30
0.0
 10
90.84096677416477
 20
-122.5616834546026
 30
0.0
 10
90.83683265958246
 20
-122.5702961933158
 30
0.0
 10
90.83476560229131
 20
-122.5764973651892
 30
0.0
 10
90.83476560229131
 20
-122.5764973651892
 30
0.0
 10
90.63322751640419
 20
-122.5237874042649
 30
0.0
 10
90.63322751640419
 20
-122.5237874042649
 30
0.0
 10
90.70867510753116
 20
-122.4138888582854
 30
0.0
 10
90.76758624032894
 20
-122.2784966057151
 30
0.0
 10
90.79824759014767
 20
-122.1682535501871
 30
0.0
 10
90.79824759014767
 20
-122.1682535501871
 30
0.0
 10
90.35038517706519
 20
-122.1682535501871
 30
0.0
 10
90.35038517706519
 20
-122.1682535501871
 30
0.0
 10
90.27321503819559
 20
-122.3332736239306
 30
0.0
 10
90.20810273352437
 20
-122.4114772914457
 30
0.0
 10
90.1753743264145
 20
-122.4517849086232
 30
0.0
 10
90.1753743264145
 20
-122.4517849086232
 30
0.0
 10
90.05755206081895
 20
-122.3863280944034
 30
0.0
 10
90.05755206081895
 20
-122.3863280944034
 30
0.0
 10
90.05755206081895
 20
-122.3863280944034
 30
0.0
 10
90.05755206081895
 20
-122.5575493400203
 30
0.0
 10
90.05755206081895
 20
-122.5575493400203
 30
0.0
 10
90.05755206081895
 20
-122.6653808287087
 30
0.0
 10
90.0596191181101
 20
-122.7143011845992
 30
0.0
 10
90.06960989501732
 20
-122.8200656159964
 30
0.0
 10
90.0003634757638
 20
-122.8176540491567
 30
0.0
 10
89.98003741240083
 20
-122.8176540491567
 30
0.0
 10
89.78263344109601
 20
-122.8176540491567
 30
0.0
 10
89.78263344109601
 20
-122.8176540491567
 30
0.0
 10
89.72992348017169
 20
-122.8176540491567
 30
0.0
 10
89.72992348017169
 20
-122.8176540491567
 30
0.0
 10
89.72992348017169
 20
-122.8176540491567
 30
0.0
 10
89.72992348017169
 20
-122.953046301727
 30
0.0
 10
89.72992348017169
 20
-122.953046301727
 30
0.0
 10
89.72992348017169
 20
-122.953046301727
 30
0.0
 10
89.79916989942521
 20
-122.953046301727
 30
0.0
 10
89.79916989942521
 20
-122.953046301727
 30
0.0
 10
89.86221514680528
 20
-122.953046301727
 30
0.0
 10
90.00243053305495
 20
-122.9489121871447
 30
0.0
 10
90.10406084986982
 20
-122.9406439579801
 30
0.0
 10
90.10406084986982
 20
-122.9406439579801
 30
0.0
 10
90.10406084986982
 20
-123.1180663754705
 30
0.0
 10
90.10406084986982
 20
-123.1180663754705
 30
0.0
 10
90.01069876221955
 20
-123.111865203597
 30
0.0
 10
89.85808103222298
 20
-123.1077310890147
 30
0.0
 10
89.79916989942521
 20
-123.1077310890147
 30
0.0
 10
89.79916989942521
 20
-123.1077310890147
 30
0.0
 10
89.72992348017169
 20
-123.1077310890147
 30
0.0
 10
89.72992348017169
 20
-123.1077310890147
 30
0.0
 10
89.73199053746283
 20
-123.1966145525342
 30
0.0
 10
89.73578014249661
 20
-123.435359669662
 30
0.0
 10
89.73784719978777
 20
-123.5094292225949
 30
0.0
 10
89.73784719978777
 20
-123.5094292225949
 30
0.0
 10
89.54457734306524
 20
-123.5094292225949
 30
0.0
 10
89.54457734306524
 20
-123.5094292225949
 30
0.0
 10
89.55697968681214
 20
-123.2958333025094
 30
0.0
 10
89.55697968681214
 20
-123.2662054813362
 30
0.0
 10
89.56111380139444
 20
-123.1077310890147
 30
0.0
 10
89.56111380139444
 20
-123.1077310890147
 30
0.0
 10
89.49393443943208
 20
-123.1077310890147
 30
0.0
 10
89.49393443943208
 20
-123.1077310890147
 30
0.0
 10
89.43881291166808
 20
-123.1077310890147
 30
0.0
 10
89.29239635354496
 20
-123.111865203597
 30
0.0
 10
89.1866319221478
 20
-123.1180663754705
 30
0.0
 10
89.1866319221478
 20
-123.1180663754705
 30
0.0
 10
89.1866319221478
 20
-122.9406439579801
 30
0.0
 10
89.1866319221478
 20
-122.9406439579801
 30
0.0
 10
89.28826223896266
 20
-122.9489121871447
 30
0.0
 10
89.4267550774697
 20
-122.953046301727
 30
0.0
 10
89.49393443943208
 20
-122.953046301727
 30
0.0
 10
89.49393443943208
 20
-122.953046301727
 30
0.0
 10
89.56490340642823
 20
-122.953046301727
 30
0.0
 10
89.56490340642823
 20
-122.953046301727
 30
0.0
 10
89.56490340642823
 20
-122.953046301727
 30
0.0
 10
89.56490340642823
 20
-122.8176540491567
 30
0.0
 10
89.56490340642823
 20
-122.8176540491567
 30
0.0
 10
89.56490340642823
 20
-122.8176540491567
 30
0.0
 10
89.52218422241113
 20
-122.8176540491567
 30
0.0
 10
89.52218422241113
 20
-122.8176540491567
 30
0.0
 10
89.44914819812382
 20
-122.8176540491567
 30
0.0
 10
89.26380206101739
 20
-122.8200656159964
 30
0.0
 10
89.23141816345604
 20
-122.8200656159964
 30
0.0
 10
89.23727482578096
 20
-122.7480631203547
 30
0.0
 10
89.24554305494556
 20
-122.6674478859998
 30
0.0
 10
89.24554305494556
 20
-122.5468695440161
 30
0.0
 10
89.24554305494556
 20
-122.5468695440161
 30
0.0
 10
89.24554305494556
 20
-122.373581241108
 30
0.0
 10
89.24554305494556
 20
-122.373581241108
 30
0.0
 10
89.24554305494556
 20
-122.3015787454663
 30
0.0
 10
89.23727482578096
 20
-122.1810004034825
 30
0.0
 10
89.23141816345604
 20
-122.1007296786762
 30
0.0
 10
89.30652124503449
 20
-122.1048637932585
 30
0.0
 10
89.34338376672666
 20
-122.1069308505497
 30
0.0
 10
89.46534014690451
 20
-122.1069308505497
 30
0.0
 10
89.46534014690451
 20
-122.1069308505497
 30
0.0
 10
89.56490340642823
 20
-122.1069308505497
 30
0.0
 10
89.56490340642823
 20
-122.1069308505497
 30
0.0
 10
89.56490340642823
 20
-122.1069308505497
 30
0.0
 10
89.56490340642823
 20
-121.9608588019751
 30
0.0
 10
89.56490340642823
 20
-121.9608588019751
 30
0.0
 10
89.56490340642823
 20
-121.9608588019751
 30
0.0
 10
89.48980032484978
 20
-121.9608588019751
 30
0.0
 10
89.48980032484978
 20
-121.9608588019751
 30
0.0
 10
89.43674585437692
 20
-121.9608588019751
 30
0.0
 10
89.27207029018199
 20
-121.9653374261059
 30
0.0
 10
89.1907660367301
 20
-121.9715385979793
 30
0.0
 10
89.1907660367301
 20
-121.9715385979793
 30
0.0
 10
89.1907660367301
 20
-121.7937716709405
 30
0.0
 10
89.1907660367301
 20
-121.7937716709405
 30
0.0
 10
89.27000323289084
 20
-121.8003173523624
 30
0.0
 10
89.4267550774697
 20
-121.8044514669447
 30
0.0
 10
89.48980032484978
 20
-121.8044514669447
 30
0.0
 10
89.48980032484978
 20
-121.8044514669447
 30
0.0
 10
89.56490340642823
 20
-121.8044514669447
 30
0.0
 10
89.56490340642823
 20
-121.8044514669447
 30
0.0
 10
89.56490340642823
 20
-121.7706895311893
 30
0.0
 10
89.56111380139444
 20
-121.6163492534501
 30
0.0
 10
89.56111380139444
 20
-121.5843098654373
 30
0.0
 10
89.56111380139444
 20
-121.5843098654373
 30
0.0
 10
89.75024954353466
 20
-121.6015353428635
 30
0.0
 10
89.75024954353466
 20
-121.6015353428635
 30
0.0
 10
89.76644149231534
 20
-121.6036024001547
 30
0.0
 10
89.78676755567831
 20
-121.6056694574458
 30
0.0
 10
89.78676755567831
 20
-121.6266845399058
 30
0.0
 10
89.78676755567831
 20
-121.6501111892055
 30
0.0
 10
89.76644149231534
 20
-121.6583794183701
 30
0.0
 10
89.73991425707891
 20
-121.6711262716656
 30
0.0
 10
89.73991425707891
 20
-121.6924858636741
 30
0.0
 10
89.73784719978777
 20
-121.787570499067
 30
0.0
 10
89.73784719978777
 20
-121.8044514669447
 30
0.0
 10
89.73784719978777
 20
-121.8044514669447
 30
0.0
 10
89.79503578484291
 20
-121.8044514669447
 30
0.0
 10
89.79503578484291
 20
-121.8044514669447
 30
0.0
 10
89.86014808951414
 20
-121.8044514669447
 30
0.0
 10
89.99829641847265
 20
-121.8003173523624
 30
0.0
 10
90.10027124483605
 20
-121.7937716709405
 30
0.0
 10
90.10027124483605
 20
-121.7937716709405
 30
0.0
 10
90.10027124483605
 20
-121.9715385979793
 30
0.0
 10
90.10027124483605
 20
-121.9715385979793
 30
0.0
 10
90.00656464763725
 20
-121.9653374261059
 30
0.0
 10
89.85601397493184
 20
-121.9608588019751
 30
0.0
 10
89.79503578484291
 20
-121.9608588019751
 30
0.0
 10
89.79503578484291
 20
-121.9608588019751
 30
0.0
 10
89.72992348017169
 20
-121.9608588019751
 30
0.0
 10
89.72992348017169
 20
-121.9608588019751
 30
0.0
 10
89.72992348017169
 20
-121.9608588019751
 30
0.0
 10
89.72992348017169
 20
-122.1069308505497
 30
0.0
 10
89.72992348017169
 20
-122.1069308505497
 30
0.0
 10
89.72992348017169
 20
-122.1069308505497
 30
0.0
 10
89.79710284213407
 20
-122.1069308505497
 30
0.0
 10
89.79710284213407
 20
-122.1069308505497
 30
0.0
 10
89.94145234296603
 20
-122.1069308505497
 30
0.0
 10
90.01069876221955
 20
-122.1027967359674
 30
0.0
 10
90.06960989501732
 20
-122.1007296786762
 30
0.0
 10
90.06134166585272
 20
-122.1958143140691
 30
0.0
 10
90.0596191181101
 20
-122.2740179815843
 30
0.0
 10
90.05755206081895
 20
-122.3122585414706
 30
0.0
 10
90.20603567623321
 20
-122.1007296786762
 30
0.0
 10
90.30766599304809
 20
-121.8530273132867
 30
0.0
 10
90.32385794182876
 20
-121.5908555468592
 30
0.0
 10
90.32385794182876
 20
-121.5908555468592
 30
0.0
 10
90.53159719958933
 20
-121.6414984504924
 30
0.0
 10
90.53159719958933
 20
-121.6414984504924
 30
0.0
 10
90.54572209107886
 20
-121.6459770746232
 30
0.0
 10
90.5601914921169
 20
-121.6521782464967
 30
0.0
 10
90.5601914921169
 20
-121.6690592143744
 30
0.0
 10
90.5601914921169
 20
-121.6859401822521
 30
0.0
 10
90.5560573775346
 20
-121.6880072395433
 30
0.0
 10
90.50713702164406
 20
-121.7093668315518
 30
0.0
 10
90.49094507286338
 20
-121.7855034417759
 30
0.0
 10
90.46648489491811
 20
-121.8764539625865
 30
0.0
 10
90.41963159631871
 20
-122.0032334764436
 30
0.0
 10
90.41963159631871
 20
-122.0032334764436
 30
0.0
 10
90.74519311967482
 20
-122.0032334764436
 30
0.0
 10
90.74519311967482
 20
-122.0032334764436
 30
0.0
 10
90.78171113181847
 20
-122.0032334764436
 30
0.0
 10
90.90607907883599
 20
-121.9990993618613
 30
0.0
 10
90.95258786788686
 20
-121.9928981899879
 30
0.0
 10
90.95258786788686
 20
-121.9928981899879
 30
0.0
 10
91.04216035050335
 20
-122.0624891187899
 30
0.0
 10
91.04216035050335
 20
-122.0624891187899
 30
0.0
 10
91.03423663088728
 20
-122.0838487107985
 30
0.0
 10
91.02803545901382
 20
-122.1027967359674
 30
0.0
 10
91.0139105675243
 20
-122.138625729014
 30
0.0
  0
POLYLINE
  5
FB
330
F6
100
AcDbEntity
  8
_U+30EC_U+30A4_U+30E4_U+30FC 1
370
     0
100
AcDb2dPolyline
 66
     1
 10
0.0
 20
0.0
 30
0.0
  0
VERTEX
  5
FC
330
FB
100
AcDbEntity
  8
_U+30EC_U+30A4_U+30E4_U+30FC 1
370
     0
100
AcDbVertex
100
AcDb2dVertex
 10
89.56490340642823
 20
-122.2636826951285
 30
0.0
  0
VERTEX
  5
FD
330
FB
100
AcDbEntity
  8
_U+30EC_U+30A4_U+30E4_U+30FC 1
370
     0
100
AcDbVertex
100
AcDb2dVertex
 10
89.41228567643165
 20
-122.2636826951285
 30
0.0
  0
VERTEX
  5
FE
330
FB
100
AcDbEntity
  8
_U+30EC_U+30A4_U+30E4_U+30FC 1
370
     0
100
AcDbVertex
100
AcDb2dVertex
 10
89.41228567643165
 20
-122.3925292662769
 30
0.0
  0
VERTEX
  5
FF
330
FB
100
AcDbEntity
  8
_U+30EC_U+30A4_U+30E4_U+30FC 1
370
     0
100
AcDbVertex
100
AcDb2dVertex
 10
89.56490340642823
 20
-122.3925292662769
 30
0.0
  0
VERTEX
  5
100
330
FB
100
AcDbEntity
  8
_U+30EC_U+30A4_U+30E4_U+30FC 1
370
     0
100
AcDbVertex
100
AcDb2dVertex
 10
89.56490340642823
 20
-122.2636826951285
 30
0.0
  0
SEQEND
  5
101
330
FB
100
AcDbEntity
  8
_U+30EC_U+30A4_U+30E4_U+30FC 1
370
     0
  0
POLYLINE
  5
102
330
F6
100
AcDbEntity
  8
_U+30EC_U+30A4_U+30E4_U+30FC 1
370
     0
100
AcDb2dPolyline
 66
     1
 10
0.0
 20
0.0
 30
0.0
  0
VERTEX
  5
103
330
102
100
AcDbEntity
  8
_U+30EC_U+30A4_U+30E4_U+30FC 1
370
     0
100
AcDbVertex
100
AcDb2dVertex
 10
89.56490340642823
 20
-122.5365342575603
 30
0.0
  0
VERTEX
  5
104
330
102
100
AcDbEntity
  8
_U+30EC_U+30A4_U+30E4_U+30FC 1
370
     0
100
AcDbVertex
100
AcDb2dVertex
 10
89.41228567643165
 20
-122.5365342575603
 30
0.0
  0
VERTEX
  5
105
330
102
100
AcDbEntity
  8
_U+30EC_U+30A4_U+30E4_U+30FC 1
370
     0
100
AcDbVertex
100
AcDb2dVertex
 10
89.41228567643165
 20
-122.6653808287087
 30
0.0
  0
VERTEX
  5
106
330
102
100
AcDbEntity
  8
_U+30EC_U+30A4_U+30E4_U+30FC 1
370
     0
100
AcDbVertex
100
AcDb2dVertex
 10
89.56490340642823
 20
-122.6653808287087
 30
0.0
  0
VERTEX
  5
107
330
102
100
AcDbEntity
  8
_U+30EC_U+30A4_U+30E4_U+30FC 1
370
     0
100
AcDbVertex
100
AcDb2dVertex
 10
89.56490340642823
 20
-122.5365342575603
 30
0.0
  0
SEQEND
  5
108
330
102
100
AcDbEntity
  8
_U+30EC_U+30A4_U+30E4_U+30FC 1
370
     0
  0
POLYLINE
  5
109
330
F6
100
AcDbEntity
  8
_U+30EC_U+30A4_U+30E4_U+30FC 1
370
     0
100
AcDb2dPolyline
 66
     1
 10
0.0
 20
0.0
 30
0.0
  0
VERTEX
  5
10A
330
109
100
AcDbEntity
  8
_U+30EC_U+30A4_U+30E4_U+30FC 1
370
     0
100
AcDbVertex
100
AcDb2dVertex
 10
89.88460826745941
 20
-122.2636826951285
 30
0.0
  0
VERTEX
  5
10B
330
109
100
AcDbEntity
  8
_U+30EC_U+30A4_U+30E4_U+30FC 1
370
     0
100
AcDbVertex
100
AcDb2dVertex
 10
89.72992348017169
 20
-122.2636826951285
 30
0.0
  0
VERTEX
  5
10C
330
109
100
AcDbEntity
  8
_U+30EC_U+30A4_U+30E4_U+30FC 1
370
     0
100
AcDbVertex
100
AcDb2dVertex
 10
89.72992348017169
 20
-122.3925292662769
 30
0.0
  0
VERTEX
  5
10D
330
109
100
AcDbEntity
  8
_U+30EC_U+30A4_U+30E4_U+30FC 1
370
     0
100
AcDbVertex
100
AcDb2dVertex
 10
89.88460826745941
 20
-122.3925292662769
 30
0.0
  0
VERTEX
  5
10E
330
109
100
AcDbEntity
  8
_U+30EC_U+30A4_U+30E4_U+30FC 1
370
     0
100
AcDbVertex
100
AcDb2dVertex
 10
89.88460826745941
 20
-122.2636826951285
 30
0.0
  0
SEQEND
  5
10F
330
109
100
AcDbEntity
  8
_U+30EC_U+30A4_U+30E4_U+30FC 1
370
     0
  0
POLYLINE
  5
110
330
F6
100
AcDbEntity
  8
_U+30EC_U+30A4_U+30E4_U+30FC 1
370
     0
100
AcDb2dPolyline
 66
     1
 10
0.0
 20
0.0
 30
0.0
  0
VERTEX
  5
111
330
110
100
AcDbEntity
  8
_U+30EC_U+30A4_U+30E4_U+30FC 1
370
     0
100
AcDbVertex
100
AcDb2dVertex
 10
89.88460826745941
 20
-122.5365342575603
 30
0.0
  0
VERTEX
  5
112
330
110
100
AcDbEntity
  8
_U+30EC_U+30A4_U+30E4_U+30FC 1
370
     0
100
AcDbVertex
100
AcDb2dVertex
 10
89.72992348017169
 20
-122.5365342575603
 30
0.0
  0
VERTEX
  5
113
330
110
100
AcDbEntity
  8
_U+30EC_U+30A4_U+30E4_U+30FC 1
370
     0
100
AcDbVertex
100
AcDb2dVertex
 10
89.72992348017169
 20
-122.6653808287087
 30
0.0
  0
VERTEX
  5
114
330
110
100
AcDbEntity
  8
_U+30EC_U+30A4_U+30E4_U+30FC 1
370
     0
100
AcDbVertex
100
AcDb2dVertex
 10
89.88460826745941
 20
-122.6653808287087
 30
0.0
  0
VERTEX
  5
115
330
110
100
AcDbEntity
  8
_U+30EC_U+30A4_U+30E4_U+30FC 1
370
     0
100
AcDbVertex
100
AcDb2dVertex
 10
89.88460826745941
 20
-122.5365342575603
 30
0.0
  0
SEQEND
  5
116
330
110
100
AcDbEntity
  8
_U+30EC_U+30A4_U+30E4_U+30FC 1
370
     0
  0
SPLINE
  5
117
330
F6
100
AcDbEntity
  8
_U+30EC_U+30A4_U+30E4_U+30FC 1
370
     0
100
AcDbSpline
210
0.0
220
0.0
230
1.0
 70
    11
 71
     3
 72
    41
 73
    37
 74
     0
 42
0.0000000001
 43
0.0000000001
 12
1.0
 22
0.0
 32
0.0
 13
1.0
 23
0.0
 33
0.0
 40
0.0
 40
0.0
 40
0.0
 40
0.0
 40
1.0
 40
1.0
 40
1.0
 40
2.0
 40
2.0
 40
2.0
 40
3.0
 40
3.0
 40
3.0
 40
4.0
 40
4.0
 40
4.0
 40
5.0
 40
5.0
 40
5.0
 40
6.0
 40
6.0
 40
6.0
 40
7.0
 40
7.0
 40
7.0
 40
8.0
 40
8.0
 40
8.0
 40
9.0
 40
9.0
 40
9.0
 40
10.0
 40
10.0
 40
10.0
 40
11.0
 40
11.0
 40
11.0
 40
12.0
 40
12.0
 40
12.0
 40
12.0
 10
90.93226180452389
 20
-123.4946153120083
 30
0.0
 10
90.70040687836656
 20
-123.359223059438
 30
0.0
 10
90.52953014229817
 20
-123.063289357255
 30
0.0
 10
90.49094507286338
 20
-122.9340982765581
 30
0.0
 10
90.37484535501046
 20
-123.1986816098253
 30
0.0
 10
90.21809351043159
 20
-123.3764485368642
 30
0.0
 10
90.0430826597809
 20
-123.490481197426
 30
0.0
 10
90.0430826597809
 20
-123.490481197426
 30
0.0
 10
89.85394691764068
 20
-123.3530218875645
 30
0.0
 10
89.85394691764068
 20
-123.3530218875645
 30
0.0
 10
89.92112627960306
 20
-123.3275281809737
 30
0.0
 10
90.06134166585272
 20
-123.2662054813362
 30
0.0
 10
90.1795084409968
 20
-123.111865203597
 30
0.0
 10
90.29974227343202
 20
-122.9554578685667
 30
0.0
 10
90.3851806414662
 20
-122.7225694137638
 30
0.0
 10
90.3851806414662
 20
-122.4624647046275
 30
0.0
 10
90.3851806414662
 20
-122.3608343878126
 30
0.0
 10
90.37277829771931
 20
-122.2888318921708
 30
0.0
 10
90.36278752081209
 20
-122.24232310312
 30
0.0
 10
90.36278752081209
 20
-122.24232310312
 30
0.0
 10
90.5601914921169
 20
-122.2636826951285
 30
0.0
 10
90.5601914921169
 20
-122.2636826951285
 30
0.0
 10
90.58051755547987
 20
-122.2657497524197
 30
0.0
 10
90.60084361884284
 20
-122.2678168097108
 30
0.0
 10
90.60084361884284
 20
-122.2888318921708
 30
0.0
 10
90.60084361884284
 20
-122.3081244268883
 30
0.0
 10
90.5905083323871
 20
-122.3163926560529
 30
0.0
 10
90.55812443482576
 20
-122.3374077385129
 30
0.0
 10
90.54985620566116
 20
-122.5386013148515
 30
0.0
 10
90.60463322387662
 20
-122.7818250561101
 30
0.0
 10
90.66388886622292
 20
-122.9024033980939
 30
0.0
 10
90.75139429154827
 20
-123.0781032678416
 30
0.0
 10
90.93846297639733
 20
-123.2579372521716
 30
0.0
 10
91.06868758573978
 20
-123.3147813276783
 30
0.0
 10
91.06868758573978
 20
-123.3147813276783
 30
0.0
 10
90.93226180452389
 20
-123.4946153120083
 30
0.0
 10
90.93226180452389
 20
-123.4946153120083
 30
0.0
  0
HATCH
  5
118
330
F6
100
AcDbEntity
  8
_U+30EC_U+30A4_U+30E4_U+30FC 1
 62
   179
420
  2234388
100
AcDbHatch
 10
0.0
 20
0.0
 30
0.0
210
0.0
220
0.0
230
1.0
  2
SOLID
 70
     1
 71
     0
 91
        6
 92
        1
 93
        1
 72
     4
 94
        3
 73
     0
 74
     1
 95
      197
 96
      193
 40
0.0
 40
0.0
 40
0.0
 40
0.0
 40
1.0
 40
1.0
 40
1.0
 40
2.0
 40
2.0
 40
2.0
 40
3.0
 40
3.0
 40
3.0
 40
4.0
 40
4.0
 40
4.0
 40
5.0
 40
5.0
 40
5.0
 40
6.0
 40
6.0
 40
6.0
 40
7.0
 40
7.0
 40
7.0
 40
8.0
 40
8.0
 40
8.0
 40
9.0
 40
9.0
 40
9.0
 40
10.0
 40
10.0
 40
10.0
 40
11.0
 40
11.0
 40
11.0
 40
12.0
 40
12.0
 40
12.0
 40
13.0
 40
13.0
 40
13.0
 40
14.0
 40
14.0
 40
14.0
 40
15.0
 40
15.0
 40
15.0
 40
16.0
 40
16.0
 40
16.0
 40
17.0
 40
17.0
 40
17.0
 40
18.0
 40
18.0
 40
18.0
 40
19.0
 40
19.0
 40
19.0
 40
20.0
 40
20.0
 40
20.0
 40
21.0
 40
21.0
 40
21.0
 40
22.0
 40
22.0
 40
22.0
 40
23.0
 40
23.0
 40
23.0
 40
24.0
 40
24.0
 40
24.0
 40
25.0
 40
25.0
 40
25.0
 40
26.0
 40
26.0
 40
26.0
 40
27.0
 40
27.0
 40
27.0
 40
28.0
 40
28.0
 40
28.0
 40
29.0
 40
29.0
 40
29.0
 40
30.0
 40
30.0
 40
30.0
 40
31.0
 40
31.0
 40
31.0
 40
32.0
 40
32.0
 40
32.0
 40
33.0
 40
33.0
 40
33.0
 40
34.0
 40
34.0
 40
34.0
 40
35.0
 40
35.0
 40
35.0
 40
36.0
 40
36.0
 40
36.0
 40
37.0
 40
37.0
 40
37.0
 40
38.0
 40
38.0
 40
38.0
 40
39.0
 40
39.0
 40
39.0
 40
40.0
 40
40.0
 40
40.0
 40
41.0
 40
41.0
 40
41.0
 40
42.0
 40
42.0
 40
42.0
 40
43.0
 40
43.0
 40
43.0
 40
44.0
 40
44.0
 40
44.0
 40
45.0
 40
45.0
 40
45.0
 40
46.0
 40
46.0
 40
46.0
 40
47.0
 40
47.0
 40
47.0
 40
48.0
 40
48.0
 40
48.0
 40
49.0
 40
49.0
 40
49.0
 40
50.0
 40
50.0
 40
50.0
 40
51.0
 40
51.0
 40
51.0
 40
52.0
 40
52.0
 40
52.0
 40
53.0
 40
53.0
 40
53.0
 40
54.0
 40
54.0
 40
54.0
 40
55.0
 40
55.0
 40
55.0
 40
56.0
 40
56.0
 40
56.0
 40
57.0
 40
57.0
 40
57.0
 40
58.0
 40
58.0
 40
58.0
 40
59.0
 40
59.0
 40
59.0
 40
60.0
 40
60.0
 40
60.0
 40
61.0
 40
61.0
 40
61.0
 40
62.0
 40
62.0
 40
62.0
 40
63.0
 40
63.0
 40
63.0
 40
64.0
 40
64.0
 40
64.0
 40
64.0
 10
91.0139105675243
 20
-122.138625729014
 10
91.00357528106855
 20
-122.1682535501871
 10
90.98118216041443
 20
-122.214762339238
 10
90.9711913835072
 20
-122.24232310312
 10
90.9711913835072
 20
-122.24232310312
 10
90.9119357411609
 20
-122.394596323568
 10
90.9119357411609
 20
-122.394596323568
 10
90.90194496425369
 20
-122.4200900301589
 10
90.85509166565429
 20
-122.5320556334295
 10
90.84268932190739
 20
-122.5554822827292
 10
90.84096677416477
 20
-122.5616834546026
 10
90.83683265958246
 20
-122.5702961933158
 10
90.83476560229131
 20
-122.5764973651892
 10
90.83476560229131
 20
-122.5764973651892
 10
90.63322751640419
 20
-122.5237874042649
 10
90.63322751640419
 20
-122.5237874042649
 10
90.70867510753116
 20
-122.4138888582854
 10
90.76758624032894
 20
-122.2784966057151
 10
90.79824759014767
 20
-122.1682535501871
 10
90.79824759014767
 20
-122.1682535501871
 10
90.35038517706519
 20
-122.1682535501871
 10
90.35038517706519
 20
-122.1682535501871
 10
90.27321503819559
 20
-122.3332736239306
 10
90.20810273352437
 20
-122.4114772914457
 10
90.1753743264145
 20
-122.4517849086232
 10
90.1753743264145
 20
-122.4517849086232
 10
90.05755206081895
 20
-122.3863280944034
 10
90.05755206081895
 20
-122.3863280944034
 10
90.05755206081895
 20
-122.3863280944034
 10
90.05755206081895
 20
-122.5575493400203
 10
90.05755206081895
 20
-122.5575493400203
 10
90.05755206081895
 20
-122.6653808287087
 10
90.0596191181101
 20
-122.7143011845992
 10
90.06960989501732
 20
-122.8200656159964
 10
90.0003634757638
 20
-122.8176540491567
 10
89.98003741240083
 20
-122.8176540491567
 10
89.78263344109601
 20
-122.8176540491567
 10
89.78263344109601
 20
-122.8176540491567
 10
89.72992348017169
 20
-122.8176540491567
 10
89.72992348017169
 20
-122.8176540491567
 10
89.72992348017169
 20
-122.8176540491567
 10
89.72992348017169
 20
-122.953046301727
 10
89.72992348017169
 20
-122.953046301727
 10
89.72992348017169
 20
-122.953046301727
 10
89.79916989942521
 20
-122.953046301727
 10
89.79916989942521
 20
-122.953046301727
 10
89.86221514680528
 20
-122.953046301727
 10
90.00243053305495
 20
-122.9489121871447
 10
90.10406084986982
 20
-122.9406439579801
 10
90.10406084986982
 20
-122.9406439579801
 10
90.10406084986982
 20
-123.1180663754705
 10
90.10406084986982
 20
-123.1180663754705
 10
90.01069876221955
 20
-123.111865203597
 10
89.85808103222298
 20
-123.1077310890147
 10
89.79916989942521
 20
-123.1077310890147
 10
89.79916989942521
 20
-123.1077310890147
 10
89.72992348017169
 20
-123.1077310890147
 10
89.72992348017169
 20
-123.1077310890147
 10
89.73199053746283
 20
-123.1966145525342
 10
89.73578014249661
 20
-123.435359669662
 10
89.73784719978777
 20
-123.5094292225949
 10
89.73784719978777
 20
-123.5094292225949
 10
89.54457734306524
 20
-123.5094292225949
 10
89.54457734306524
 20
-123.5094292225949
 10
89.55697968681214
 20
-123.2958333025094
 10
89.55697968681214
 20
-123.2662054813362
 10
89.56111380139444
 20
-123.1077310890147
 10
89.56111380139444
 20
-123.1077310890147
 10
89.49393443943208
 20
-123.1077310890147
 10
89.49393443943208
 20
-123.1077310890147
 10
89.43881291166808
 20
-123.1077310890147
 10
89.29239635354496
 20
-123.111865203597
 10
89.1866319221478
 20
-123.1180663754705
 10
89.1866319221478
 20
-123.1180663754705
 10
89.1866319221478
 20
-122.9406439579801
 10
89.1866319221478
 20
-122.9406439579801
 10
89.28826223896266
 20
-122.9489121871447
 10
89.4267550774697
 20
-122.953046301727
 10
89.49393443943208
 20
-122.953046301727
 10
89.49393443943208
 20
-122.953046301727
 10
89.56490340642823
 20
-122.953046301727
 10
89.56490340642823
 20
-122.953046301727
 10
89.56490340642823
 20
-122.953046301727
 10
89.56490340642823
 20
-122.8176540491567
 10
89.56490340642823
 20
-122.8176540491567
 10
89.56490340642823
 20
-122.8176540491567
 10
89.52218422241113
 20
-122.8176540491567
 10
89.52218422241113
 20
-122.8176540491567
 10
89.44914819812382
 20
-122.8176540491567
 10
89.26380206101739
 20
-122.8200656159964
 10
89.23141816345604
 20
-122.8200656159964
 10
89.23727482578096
 20
-122.7480631203547
 10
89.24554305494556
 20
-122.6674478859998
 10
89.24554305494556
 20
-122.5468695440161
 10
89.24554305494556
 20
-122.5468695440161
 10
89.24554305494556
 20
-122.373581241108
 10
89.24554305494556
 20
-122.373581241108
 10
89.24554305494556
 20
-122.3015787454663
 10
89.23727482578096
 20
-122.1810004034825
 10
89.23141816345604
 20
-122.1007296786762
 10
89.30652124503449
 20
-122.1048637932585
 10
89.34338376672666
 20
-122.1069308505497
 10
89.46534014690451
 20
-122.1069308505497
 10
89.46534014690451
 20
-122.1069308505497
 10
89.56490340642823
 20
-122.1069308505497
 10
89.56490340642823
 20
-122.1069308505497
 10
89.56490340642823
 20
-122.1069308505497
 10
89.56490340642823
 20
-121.9608588019751
 10
89.56490340642823
 20
-121.9608588019751
 10
89.56490340642823
 20
-121.9608588019751
 10
89.48980032484978
 20
-121.9608588019751
 10
89.48980032484978
 20
-121.9608588019751
 10
89.43674585437692
 20
-121.9608588019751
 10
89.27207029018199
 20
-121.9653374261059
 10
89.1907660367301
 20
-121.9715385979793
 10
89.1907660367301
 20
-121.9715385979793
 10
89.1907660367301
 20
-121.7937716709405
 10
89.1907660367301
 20
-121.7937716709405
 10
89.27000323289084
 20
-121.8003173523624
 10
89.4267550774697
 20
-121.8044514669447
 10
89.48980032484978
 20
-121.8044514669447
 10
89.48980032484978
 20
-121.8044514669447
 10
89.56490340642823
 20
-121.8044514669447
 10
89.56490340642823
 20
-121.8044514669447
 10
89.56490340642823
 20
-121.7706895311893
 10
89.56111380139444
 20
-121.6163492534501
 10
89.56111380139444
 20
-121.5843098654373
 10
89.56111380139444
 20
-121.5843098654373
 10
89.75024954353466
 20
-121.6015353428635
 10
89.75024954353466
 20
-121.6015353428635
 10
89.76644149231534
 20
-121.6036024001547
 10
89.78676755567831
 20
-121.6056694574458
 10
89.78676755567831
 20
-121.6266845399058
 10
89.78676755567831
 20
-121.6501111892055
 10
89.76644149231534
 20
-121.6583794183701
 10
89.73991425707891
 20
-121.6711262716656
 10
89.73991425707891
 20
-121.6924858636741
 10
89.73784719978777
 20
-121.787570499067
 10
89.73784719978777
 20
-121.8044514669447
 10
89.73784719978777
 20
-121.8044514669447
 10
89.79503578484291
 20
-121.8044514669447
 10
89.79503578484291
 20
-121.8044514669447
 10
89.86014808951414
 20
-121.8044514669447
 10
89.99829641847265
 20
-121.8003173523624
 10
90.10027124483605
 20
-121.7937716709405
 10
90.10027124483605
 20
-121.7937716709405
 10
90.10027124483605
 20
-121.9715385979793
 10
90.10027124483605
 20
-121.9715385979793
 10
90.00656464763725
 20
-121.9653374261059
 10
89.85601397493184
 20
-121.9608588019751
 10
89.79503578484291
 20
-121.9608588019751
 10
89.79503578484291
 20
-121.9608588019751
 10
89.72992348017169
 20
-121.9608588019751
 10
89.72992348017169
 20
-121.9608588019751
 10
89.72992348017169
 20
-121.9608588019751
 10
89.72992348017169
 20
-122.1069308505497
 10
89.72992348017169
 20
-122.1069308505497
 10
89.72992348017169
 20
-122.1069308505497
 10
89.79710284213407
 20
-122.1069308505497
 10
89.79710284213407
 20
-122.1069308505497
 10
89.94145234296603
 20
-122.1069308505497
 10
90.01069876221955
 20
-122.1027967359674
 10
90.06960989501732
 20
-122.1007296786762
 10
90.06134166585272
 20
-122.1958143140691
 10
90.0596191181101
 20
-122.2740179815843
 10
90.05755206081895
 20
-122.3122585414706
 10
90.20603567623321
 20
-122.1007296786762
 10
90.30766599304809
 20
-121.8530273132867
 10
90.32385794182876
 20
-121.5908555468592
 10
90.32385794182876
 20
-121.5908555468592
 10
90.53159719958933
 20
-121.6414984504924
 10
90.53159719958933
 20
-121.6414984504924
 10
90.54572209107886
 20
-121.6459770746232
 10
90.5601914921169
 20
-121.6521782464967
 10
90.5601914921169
 20
-121.6690592143744
 10
90.5601914921169
 20
-121.6859401822521
 10
90.5560573775346
 20
-121.6880072395433
 10
90.50713702164406
 20
-121.7093668315518
 10
90.49094507286338
 20
-121.7855034417759
 10
90.46648489491811
 20
-121.8764539625865
 10
90.41963159631871
 20
-122.0032334764436
 10
90.41963159631871
 20
-122.0032334764436
 10
90.74519311967482
 20
-122.0032334764436
 10
90.74519311967482
 20
-122.0032334764436
 10
90.78171113181847
 20
-122.0032334764436
 10
90.90607907883599
 20
-121.9990993618613
 10
90.95258786788686
 20
-121.9928981899879
 10
90.95258786788686
 20
-121.9928981899879
 10
91.04216035050335
 20
-122.0624891187899
 10
91.04216035050335
 20
-122.0624891187899
 10
91.03423663088728
 20
-122.0838487107985
 10
91.02803545901382
 20
-122.1027967359674
 10
91.0139105675243
 20
-122.138625729014
 97
        0
 97
        0
 92
        1
 93
        4
 72
     1
 10
89.56490340642823
 20
-122.2636826951285
 11
89.41228567643165
 21
-122.2636826951285
 72
     1
 10
89.41228567643165
 20
-122.2636826951285
 11
89.41228567643165
 21
-122.3925292662769
 72
     1
 10
89.41228567643165
 20
-122.3925292662769
 11
89.56490340642823
 21
-122.3925292662769
 72
     1
 10
89.56490340642823
 20
-122.3925292662769
 11
89.56490340642823
 21
-122.2636826951285
 97
        0
 92
        1
 93
        4
 72
     1
 10
89.56490340642823
 20
-122.5365342575603
 11
89.41228567643165
 21
-122.5365342575603
 72
     1
 10
89.41228567643165
 20
-122.5365342575603
 11
89.41228567643165
 21
-122.6653808287087
 72
     1
 10
89.41228567643165
 20
-122.6653808287087
 11
89.56490340642823
 21
-122.6653808287087
 72
     1
 10
89.56490340642823
 20
-122.6653808287087
 11
89.56490340642823
 21
-122.5365342575603
 97
        0
 92
        1
 93
        4
 72
     1
 10
89.88460826745941
 20
-122.2636826951285
 11
89.72992348017169
 21
-122.2636826951285
 72
     1
 10
89.72992348017169
 20
-122.2636826951285
 11
89.72992348017169
 21
-122.3925292662769
 72
     1
 10
89.72992348017169
 20
-122.3925292662769
 11
89.88460826745941
 21
-122.3925292662769
 72
     1
 10
89.88460826745941
 20
-122.3925292662769
 11
89.88460826745941
 21
-122.2636826951285
 97
        0
 92
        1
 93
        4
 72
     1
 10
89.88460826745941
 20
-122.5365342575603
 11
89.72992348017169
 21
-122.5365342575603
 72
     1
 10
89.72992348017169
 20
-122.5365342575603
 11
89.72992348017169
 21
-122.6653808287087
 72
     1
 10
89.72992348017169
 20
-122.6653808287087
 11
89.88460826745941
 21
-122.6653808287087
 72
     1
 10
89.88460826745941
 20
-122.6653808287087
 11
89.88460826745941
 21
-122.5365342575603
 97
        0
 92
        1
 93
        1
 72
     4
 94
        3
 73
     0
 74
     1
 95
       41
 96
       37
 40
0.0
 40
0.0
 40
0.0
 40
0.0
 40
1.0
 40
1.0
 40
1.0
 40
2.0
 40
2.0
 40
2.0
 40
3.0
 40
3.0
 40
3.0
 40
4.0
 40
4.0
 40
4.0
 40
5.0
 40
5.0
 40
5.0
 40
6.0
 40
6.0
 40
6.0
 40
7.0
 40
7.0
 40
7.0
 40
8.0
 40
8.0
 40
8.0
 40
9.0
 40
9.0
 40
9.0
 40
10.0
 40
10.0
 40
10.0
 40
11.0
 40
11.0
 40
11.0
 40
12.0
 40
12.0
 40
12.0
 40
12.0
 10
90.93226180452389
 20
-123.4946153120083
 10
90.70040687836656
 20
-123.359223059438
 10
90.52953014229817
 20
-123.063289357255
 10
90.49094507286338
 20
-122.9340982765581
 10
90.37484535501046
 20
-123.1986816098253
 10
90.21809351043159
 20
-123.3764485368642
 10
90.0430826597809
 20
-123.490481197426
 10
90.0430826597809
 20
-123.490481197426
 10
89.85394691764068
 20
-123.3530218875645
 10
89.85394691764068
 20
-123.3530218875645
 10
89.92112627960306
 20
-123.3275281809737
 10
90.06134166585272
 20
-123.2662054813362
 10
90.1795084409968
 20
-123.111865203597
 10
90.29974227343202
 20
-122.9554578685667
 10
90.3851806414662
 20
-122.7225694137638
 10
90.3851806414662
 20
-122.4624647046275
 10
90.3851806414662
 20
-122.3608343878126
 10
90.37277829771931
 20
-122.2888318921708
 10
90.36278752081209
 20
-122.24232310312
 10
90.36278752081209
 20
-122.24232310312
 10
90.5601914921169
 20
-122.2636826951285
 10
90.5601914921169
 20
-122.2636826951285
 10
90.58051755547987
 20
-122.2657497524197
 10
90.60084361884284
 20
-122.2678168097108
 10
90.60084361884284
 20
-122.2888318921708
 10
90.60084361884284
 20
-122.3081244268883
 10
90.5905083323871
 20
-122.3163926560529
 10
90.55812443482576
 20
-122.3374077385129
 10
90.54985620566116
 20
-122.5386013148515
 10
90.60463322387662
 20
-122.7818250561101
 10
90.66388886622292
 20
-122.9024033980939
 10
90.75139429154827
 20
-123.0781032678416
 10
90.93846297639733
 20
-123.2579372521716
 10
91.06868758573978
 20
-123.3147813276783
 10
91.06868758573978
 20
-123.3147813276783
 10
90.93226180452389
 20
-123.4946153120083
 10
90.93226180452389
 20
-123.4946153120083
 97
        0
 97
        0
 75
     2
 76
     1
 98
        0
  0
SPLINE
  5
119
330
F6
100
AcDbEntity
  8
_U+30EC_U+30A4_U+30E4_U+30FC 1
370
     0
100
AcDbSpline
210
0.0
220
0.0
230
1.0
 70
    11
 71
     3
 72
    71
 73
    67
 74
     0
 42
0.0000000001
 43
0.0000000001
 12
1.0
 22
0.0
 32
0.0
 13
1.0
 23
0.0
 33
0.0
 40
0.0
 40
0.0
 40
0.0
 40
0.0
 40
1.0
 40
1.0
 40
1.0
 40
2.0
 40
2.0
 40
2.0
 40
3.0
 40
3.0
 40
3.0
 40
4.0
 40
4.0
 40
4.0
 40
5.0
 40
5.0
 40
5.0
 40
6.0
 40
6.0
 40
6.0
 40
7.0
 40
7.0
 40
7.0
 40
8.0
 40
8.0
 40
8.0
 40
9.0
 40
9.0
 40
9.0
 40
10.0
 40
10.0
 40
10.0
 40
11.0
 40
11.0
 40
11.0
 40
12.0
 40
12.0
 40
12.0
 40
13.0
 40
13.0
 40
13.0
 40
14.0
 40
14.0
 40
14.0
 40
15.0
 40
15.0
 40
15.0
 40
16.0
 40
16.0
 40
16.0
 40
17.0
 40
17.0
 40
17.0
 40
18.0
 40
18.0
 40
18.0
 40
19.0
 40
19.0
 40
19.0
 40
20.0
 40
20.0
 40
20.0
 40
21.0
 40
21.0
 40
21.0
 40
22.0
 40
22.0
 40
22.0
 40
22.0
 10
92.07947860111207
 20
-121.7620767924762
 30
0.0
 10
92.06535370962256
 20
-121.7620767924762
 30
0.0
 10
92.05295136587566
 20
-121.7579426778939
 30
0.0
 10
92.02883569747891
 20
-121.7493299391807
 30
0.0
 10
91.89240991626302
 20
-121.7958387282316
 30
0.0
 10
91.72566729477693
 20
-121.8130642056579
 30
0.0
 10
91.59130857085218
 20
-121.8171983202402
 30
0.0
 10
91.59130857085218
 20
-121.8171983202402
 30
0.0
 10
91.58924151356102
 20
-121.9060817837596
 30
0.0
 10
91.58924151356102
 20
-121.9060817837596
 30
0.0
 10
91.58924151356102
 20
-121.9060817837596
 30
0.0
 10
91.83935544579016
 20
-121.9060817837596
 30
0.0
 10
91.83935544579016
 20
-121.9060817837596
 30
0.0
 10
91.89034285897186
 20
-121.9060817837596
 30
0.0
 10
92.06535370962256
 20
-121.8974690450465
 30
0.0
 10
92.10807289363966
 20
-121.891267873173
 30
0.0
 10
92.10807289363966
 20
-121.891267873173
 30
0.0
 10
92.10807289363966
 20
-122.0521538323342
 30
0.0
 10
92.10807289363966
 20
-122.0521538323342
 30
0.0
 10
92.0550184231668
 20
-122.0456081509122
 30
0.0
 10
91.93512910028011
 20
-122.0435410936211
 30
0.0
 10
91.89861108813646
 20
-122.0456081509122
 30
0.0
 10
91.89861108813646
 20
-122.0456081509122
 30
0.0
 10
91.89861108813646
 20
-122.1555066968917
 30
0.0
 10
91.89861108813646
 20
-122.1555066968917
 30
0.0
 10
91.89861108813646
 20
-122.2023599954911
 30
0.0
 10
91.9003336358791
 20
-122.2657497524197
 30
0.0
 10
91.90653480775254
 20
-122.3036458027574
 30
0.0
 10
91.90653480775254
 20
-122.3036458027574
 30
0.0
 10
91.72153318019463
 20
-122.3036458027574
 30
0.0
 10
91.72153318019463
 20
-122.3036458027574
 30
0.0
 10
91.72738984251954
 20
-122.2636826951285
 30
0.0
 10
91.733591014393
 20
-122.1810004034825
 30
0.0
 10
91.733591014393
 20
-122.166186492896
 30
0.0
 10
91.733591014393
 20
-122.166186492896
 30
0.0
 10
91.733591014393
 20
-122.0456081509122
 30
0.0
 10
91.733591014393
 20
-122.0456081509122
 30
0.0
 10
91.733591014393
 20
-122.0456081509122
 30
0.0
 10
91.57477211252298
 20
-122.0456081509122
 30
0.0
 10
91.57477211252298
 20
-122.0456081509122
 30
0.0
 10
91.53411998579703
 20
-122.2657497524197
 30
0.0
 10
91.4814100248727
 20
-122.346020477226
 30
0.0
 10
91.37943519850931
 20
-122.4455837367497
 30
0.0
 10
91.37943519850931
 20
-122.4455837367497
 30
0.0
 10
91.21889374889668
 20
-122.3312065666394
 30
0.0
 10
91.21889374889668
 20
-122.3312065666394
 30
0.0
 10
91.2798719389856
 20
-122.2826307202974
 30
0.0
 10
91.42422143981756
 20
-122.1703206074783
 30
0.0
 10
91.42422143981756
 20
-121.8213324348225
 30
0.0
 10
91.42422143981756
 20
-121.738994652725
 30
0.0
 10
91.41629772020148
 20
-121.6924858636741
 30
0.0
 10
91.40802949103688
 20
-121.6435655077836
 30
0.0
 10
91.54858938683508
 20
-121.6583794183701
 30
0.0
 10
91.5627142783246
 20
-121.6583794183701
 30
0.0
 10
91.59716523317711
 20
-121.6583794183701
 30
0.0
 10
91.70120711683165
 20
-121.6583794183701
 30
0.0
 10
91.83728838849902
 20
-121.6414984504924
 30
0.0
 10
91.99197317578674
 20
-121.580175750855
 30
0.0
 10
91.99197317578674
 20
-121.580175750855
 30
0.0
 10
92.1018717217662
 20
-121.711433888843
 30
0.0
 10
92.1018717217662
 20
-121.711433888843
 30
0.0
 10
92.10807289363966
 20
-121.7176350607164
 30
0.0
 10
92.11220700822196
 20
-121.7262477994296
 30
0.0
 10
92.11220700822196
 20
-121.7345160285942
 30
0.0
 10
92.11220700822196
 20
-121.7579426778939
 30
0.0
 10
92.09394800215013
 20
-121.7620767924762
 30
0.0
 10
92.07947860111207
 20
-121.7620767924762
 30
0.0
  0
SPLINE
  5
11A
330
F6
100
AcDbEntity
  8
_U+30EC_U+30A4_U+30E4_U+30FC 1
370
     0
100
AcDbSpline
210
0.0
220
0.0
230
1.0
 70
    11
 71
     3
 72
    74
 73
    70
 74
     0
 42
0.0000000001
 43
0.0000000001
 12
1.0
 22
0.0
 32
0.0
 13
1.0
 23
0.0
 33
0.0
 40
0.0
 40
0.0
 40
0.0
 40
0.0
 40
1.0
 40
1.0
 40
1.0
 40
2.0
 40
2.0
 40
2.0
 40
3.0
 40
3.0
 40
3.0
 40
4.0
 40
4.0
 40
4.0
 40
5.0
 40
5.0
 40
5.0
 40
6.0
 40
6.0
 40
6.0
 40
7.0
 40
7.0
 40
7.0
 40
8.0
 40
8.0
 40
8.0
 40
9.0
 40
9.0
 40
9.0
 40
10.0
 40
10.0
 40
10.0
 40
11.0
 40
11.0
 40
11.0
 40
12.0
 40
12.0
 40
12.0
 40
13.0
 40
13.0
 40
13.0
 40
14.0
 40
14.0
 40
14.0
 40
15.0
 40
15.0
 40
15.0
 40
16.0
 40
16.0
 40
16.0
 40
17.0
 40
17.0
 40
17.0
 40
18.0
 40
18.0
 40
18.0
 40
19.0
 40
19.0
 40
19.0
 40
20.0
 40
20.0
 40
20.0
 40
21.0
 40
21.0
 40
21.0
 40
22.0
 40
22.0
 40
22.0
 40
23.0
 40
23.0
 40
23.0
 40
23.0
 10
92.88528643511202
 20
-123.5287217573123
 30
0.0
 10
92.67995874419113
 20
-123.518041961308
 30
0.0
 10
92.48634437792009
 20
-123.4312255550797
 30
0.0
 10
92.31753469914284
 20
-123.310647213096
 30
0.0
 10
92.31753469914284
 20
-123.310647213096
 30
0.0
 10
92.41124129634164
 20
-123.2238308068677
 30
0.0
 10
92.41124129634164
 20
-123.2238308068677
 30
0.0
 10
92.41124129634164
 20
-123.2238308068677
 30
0.0
 10
91.8800075725161
 20
-123.2238308068677
 30
0.0
 10
91.8800075725161
 20
-123.2238308068677
 30
0.0
 10
91.8800075725161
 20
-123.2238308068677
 30
0.0
 10
91.95752222093424
 20
-123.2875650733448
 30
0.0
 10
91.95752222093424
 20
-123.2875650733448
 30
0.0
 10
91.96372339280768
 20
-123.2916991879271
 30
0.0
 10
91.97371416971491
 20
-123.3023789839314
 30
0.0
 10
91.97371416971491
 20
-123.3171928945179
 30
0.0
 10
91.97371416971491
 20
-123.3571560021468
 30
0.0
 10
91.90240069317024
 20
-123.3509548302734
 30
0.0
 10
91.8882758016807
 20
-123.3488877729822
 30
0.0
 10
91.66641165243063
 20
-123.4884141401349
 30
0.0
 10
91.5282633234721
 20
-123.5201090185991
 30
0.0
 10
91.42835555439986
 20
-123.5369899864769
 30
0.0
 10
91.42835555439986
 20
-123.5369899864769
 30
0.0
 10
91.30433211693087
 20
-123.359223059438
 30
0.0
 10
91.30433211693087
 20
-123.359223059438
 30
0.0
 10
91.54238821496163
 20
-123.3275281809737
 30
0.0
 10
91.6398844171942
 20
-123.2810193919228
 30
0.0
 10
91.72566729477693
 20
-123.2283094309985
 30
0.0
 10
91.65435381823225
 20
-123.2303764882896
 30
0.0
 10
91.54445527225278
 20
-123.2324435455808
 30
0.0
 10
91.51379392243406
 20
-123.2345106028719
 30
0.0
 10
91.5282633234721
 20
-123.1456271393525
 30
0.0
 10
91.53033038076326
 20
-123.0167805682041
 30
0.0
 10
91.53033038076326
 20
-122.9427110152713
 30
0.0
 10
91.53033038076326
 20
-122.9427110152713
 30
0.0
 10
91.53033038076326
 20
-122.6422986889575
 30
0.0
 10
91.53033038076326
 20
-122.6422986889575
 30
0.0
 10
91.53033038076326
 20
-122.5427354294338
 30
0.0
 10
91.5241292088898
 20
-122.4435166794586
 30
0.0
 10
91.51379392243406
 20
-122.346020477226
 30
0.0
 10
91.61163463421515
 20
-122.3522216490994
 30
0.0
 10
91.83349878346525
 20
-122.3587673305214
 30
0.0
 10
91.93719615757126
 20
-122.3587673305214
 30
0.0
 10
91.93719615757126
 20
-122.3587673305214
 30
0.0
 10
92.34406193437927
 20
-122.3587673305214
 30
0.0
 10
92.34406193437927
 20
-122.3587673305214
 30
0.0
 10
92.45809459494103
 20
-122.3587673305214
 30
0.0
 10
92.49874672166699
 20
-122.3587673305214
 30
0.0
 10
92.57798391782774
 20
-122.3546332159391
 30
0.0
 10
92.72061087091707
 20
-122.3480875345171
 30
0.0
 10
92.73680281969774
 20
-122.3480875345171
 30
0.0
 10
92.781589061006
 20
-122.346020477226
 30
0.0
 10
92.7733208318414
 20
-122.4262912020323
 30
0.0
 10
92.7691867172591
 20
-122.5851101039023
 30
0.0
 10
92.7691867172591
 20
-122.6674478859998
 30
0.0
 10
92.7691867172591
 20
-122.6674478859998
 30
0.0
 10
92.7691867172591
 20
-122.953046301727
 30
0.0
 10
92.7691867172591
 20
-122.953046301727
 30
0.0
 10
92.7691867172591
 20
-123.0250487973687
 30
0.0
 10
92.77125377455025
 20
-123.1563069353568
 30
0.0
 10
92.781589061006
 20
-123.2345106028719
 30
0.0
 10
92.71234264175247
 20
-123.2303764882896
 30
0.0
 10
92.59417586660841
 20
-123.2283094309985
 30
0.0
 10
92.51907278502996
 20
-123.2262423737073
 30
0.0
 10
92.62483721642712
 20
-123.2937662452182
 30
0.0
 10
92.77125377455025
 20
-123.3444091488514
 30
0.0
 10
92.97485891772851
 20
-123.3488877729822
 30
0.0
 10
92.97485891772851
 20
-123.3488877729822
 30
0.0
 10
92.88528643511202
 20
-123.5287217573123
 30
0.0
 10
92.88528643511202
 20
-123.5287217573123
 30
0.0
  0
POLYLINE
  5
11B
330
F6
100
AcDbEntity
  8
_U+30EC_U+30A4_U+30E4_U+30FC 1
370
     0
100
AcDb2dPolyline
 66
     1
 10
0.0
 20
0.0
 30
0.0
  0
VERTEX
  5
11C
330
11B
100
AcDbEntity
  8
_U+30EC_U+30A4_U+30E4_U+30FC 1
370
     0
100
AcDbVertex
100
AcDb2dVertex
 10
92.59245331886578
 20
-122.4941595830917
 30
0.0
  0
VERTEX
  5
11D
330
11B
100
AcDbEntity
  8
_U+30EC_U+30A4_U+30E4_U+30FC 1
370
     0
100
AcDbVertex
100
AcDb2dVertex
 10
91.71533200832117
 20
-122.4941595830917
 30
0.0
  0
VERTEX
  5
11E
330
11B
100
AcDbEntity
  8
_U+30EC_U+30A4_U+30E4_U+30FC 1
370
     0
100
AcDbVertex
100
AcDb2dVertex
 10
91.71533200832117
 20
-122.6061251863624
 30
0.0
  0
VERTEX
  5
11F
330
11B
100
AcDbEntity
  8
_U+30EC_U+30A4_U+30E4_U+30FC 1
370
     0
100
AcDbVertex
100
AcDb2dVertex
 10
92.59245331886578
 20
-122.6061251863624
 30
0.0
  0
VERTEX
  5
120
330
11B
100
AcDbEntity
  8
_U+30EC_U+30A4_U+30E4_U+30FC 1
370
     0
100
AcDbVertex
100
AcDb2dVertex
 10
92.59245331886578
 20
-122.4941595830917
 30
0.0
  0
SEQEND
  5
121
330
11B
100
AcDbEntity
  8
_U+30EC_U+30A4_U+30E4_U+30FC 1
370
     0
  0
POLYLINE
  5
122
330
F6
100
AcDbEntity
  8
_U+30EC_U+30A4_U+30E4_U+30FC 1
370
     0
100
AcDb2dPolyline
 66
     1
 10
0.0
 20
0.0
 30
0.0
  0
VERTEX
  5
123
330
122
100
AcDbEntity
  8
_U+30EC_U+30A4_U+30E4_U+30FC 1
370
     0
100
AcDbVertex
100
AcDb2dVertex
 10
92.59245331886578
 20
-122.7394503816415
 30
0.0
  0
VERTEX
  5
124
330
122
100
AcDbEntity
  8
_U+30EC_U+30A4_U+30E4_U+30FC 1
370
     0
100
AcDbVertex
100
AcDb2dVertex
 10
91.71533200832117
 20
-122.7394503816415
 30
0.0
  0
VERTEX
  5
125
330
122
100
AcDbEntity
  8
_U+30EC_U+30A4_U+30E4_U+30FC 1
370
     0
100
AcDbVertex
100
AcDb2dVertex
 10
91.71533200832117
 20
-122.8496934371695
 30
0.0
  0
VERTEX
  5
126
330
122
100
AcDbEntity
  8
_U+30EC_U+30A4_U+30E4_U+30FC 1
370
     0
100
AcDbVertex
100
AcDb2dVertex
 10
92.59245331886578
 20
-122.8496934371695
 30
0.0
  0
VERTEX
  5
127
330
122
100
AcDbEntity
  8
_U+30EC_U+30A4_U+30E4_U+30FC 1
370
     0
100
AcDbVertex
100
AcDb2dVertex
 10
92.59245331886578
 20
-122.7394503816415
 30
0.0
  0
SEQEND
  5
128
330
122
100
AcDbEntity
  8
_U+30EC_U+30A4_U+30E4_U+30FC 1
370
     0
  0
POLYLINE
  5
129
330
F6
100
AcDbEntity
  8
_U+30EC_U+30A4_U+30E4_U+30FC 1
370
     0
100
AcDb2dPolyline
 66
     1
 10
0.0
 20
0.0
 30
0.0
  0
VERTEX
  5
12A
330
129
100
AcDbEntity
  8
_U+30EC_U+30A4_U+30E4_U+30FC 1
370
     0
100
AcDbVertex
100
AcDb2dVertex
 10
92.59245331886578
 20
-122.9850856897398
 30
0.0
  0
VERTEX
  5
12B
330
129
100
AcDbEntity
  8
_U+30EC_U+30A4_U+30E4_U+30FC 1
370
     0
100
AcDbVertex
100
AcDb2dVertex
 10
91.71533200832117
 20
-122.9850856897398
 30
0.0
  0
VERTEX
  5
12C
330
129
100
AcDbEntity
  8
_U+30EC_U+30A4_U+30E4_U+30FC 1
370
     0
100
AcDbVertex
100
AcDb2dVertex
 10
91.71533200832117
 20
-123.0929171784282
 30
0.0
  0
VERTEX
  5
12D
330
129
100
AcDbEntity
  8
_U+30EC_U+30A4_U+30E4_U+30FC 1
370
     0
100
AcDbVertex
100
AcDb2dVertex
 10
92.59245331886578
 20
-123.0929171784282
 30
0.0
  0
VERTEX
  5
12E
330
129
100
AcDbEntity
  8
_U+30EC_U+30A4_U+30E4_U+30FC 1
370
     0
100
AcDbVertex
100
AcDb2dVertex
 10
92.59245331886578
 20
-122.9850856897398
 30
0.0
  0
SEQEND
  5
12F
330
129
100
AcDbEntity
  8
_U+30EC_U+30A4_U+30E4_U+30FC 1
370
     0
  0
SPLINE
  5
130
330
F6
100
AcDbEntity
  8
_U+30EC_U+30A4_U+30E4_U+30FC 1
370
     0
100
AcDbSpline
210
0.0
220
0.0
230
1.0
 70
    11
 71
     3
 72
    74
 73
    70
 74
     0
 42
0.0000000001
 43
0.0000000001
 12
1.0
 22
0.0
 32
0.0
 13
1.0
 23
0.0
 33
0.0
 40
0.0
 40
0.0
 40
0.0
 40
0.0
 40
1.0
 40
1.0
 40
1.0
 40
2.0
 40
2.0
 40
2.0
 40
3.0
 40
3.0
 40
3.0
 40
4.0
 40
4.0
 40
4.0
 40
5.0
 40
5.0
 40
5.0
 40
6.0
 40
6.0
 40
6.0
 40
7.0
 40
7.0
 40
7.0
 40
8.0
 40
8.0
 40
8.0
 40
9.0
 40
9.0
 40
9.0
 40
10.0
 40
10.0
 40
10.0
 40
11.0
 40
11.0
 40
11.0
 40
12.0
 40
12.0
 40
12.0
 40
13.0
 40
13.0
 40
13.0
 40
14.0
 40
14.0
 40
14.0
 40
15.0
 40
15.0
 40
15.0
 40
16.0
 40
16.0
 40
16.0
 40
17.0
 40
17.0
 40
17.0
 40
18.0
 40
18.0
 40
18.0
 40
19.0
 40
19.0
 40
19.0
 40
20.0
 40
20.0
 40
20.0
 40
21.0
 40
21.0
 40
21.0
 40
22.0
 40
22.0
 40
22.0
 40
23.0
 40
23.0
 40
23.0
 40
23.0
 10
92.89768877885892
 20
-122.0414740363299
 30
0.0
 10
92.89768877885892
 20
-122.0414740363299
 30
0.0
 10
92.7430039915712
 20
-122.0414740363299
 30
0.0
 10
92.7430039915712
 20
-122.0414740363299
 30
0.0
 10
92.7430039915712
 20
-122.0414740363299
 30
0.0
 10
92.7430039915712
 20
-122.1555066968917
 30
0.0
 10
92.7430039915712
 20
-122.1555066968917
 30
0.0
 10
92.7430039915712
 20
-122.1958143140691
 30
0.0
 10
92.74886065389612
 20
-122.269883867002
 30
0.0
 10
92.75299476847842
 20
-122.2953775735928
 30
0.0
 10
92.75299476847842
 20
-122.2953775735928
 30
0.0
 10
92.54973413484868
 20
-122.2953775735928
 30
0.0
 10
92.54973413484868
 20
-122.2953775735928
 30
0.0
 10
92.55972491175591
 20
-122.2295762498246
 30
0.0
 10
92.56179196904705
 20
-122.1703206074783
 30
0.0
 10
92.56179196904705
 20
-122.1682535501871
 30
0.0
 10
92.56179196904705
 20
-122.1682535501871
 30
0.0
 10
92.56179196904705
 20
-122.0456081509122
 30
0.0
 10
92.56179196904705
 20
-122.0456081509122
 30
0.0
 10
92.56179196904705
 20
-122.0456081509122
 30
0.0
 10
92.38884817568751
 20
-122.0456081509122
 30
0.0
 10
92.38884817568751
 20
-122.0456081509122
 30
0.0
 10
92.37058916961568
 20
-122.1048637932585
 30
0.0
 10
92.32580292830744
 20
-122.2509358418331
 30
0.0
 10
92.21590438232798
 20
-122.3332736239306
 30
0.0
 10
92.21590438232798
 20
-122.3332736239306
 30
0.0
 10
92.06535370962256
 20
-122.2275091925334
 30
0.0
 10
92.06535370962256
 20
-122.2275091925334
 30
0.0
 10
92.13666718616723
 20
-122.1810004034825
 30
0.0
 10
92.24828827988932
 20
-122.1069308505497
 30
0.0
 10
92.24828827988932
 20
-121.7855034417759
 30
0.0
 10
92.24828827988932
 20
-121.7303819140119
 30
0.0
 10
92.24449867485555
 20
-121.6859401822521
 30
0.0
 10
92.24243161756439
 20
-121.6480441319144
 30
0.0
 10
92.3154676418517
 20
-121.656312361079
 30
0.0
 10
92.38678111839637
 20
-121.662858042501
 30
0.0
 10
92.44775930848529
 20
-121.662858042501
 30
0.0
 10
92.61863604455368
 20
-121.662858042501
 30
0.0
 10
92.81018335353357
 20
-121.6036024001547
 30
0.0
 10
92.86909448633133
 20
-121.5739745789815
 30
0.0
 10
92.86909448633133
 20
-121.5739745789815
 30
0.0
 10
92.99105086650918
 20
-121.7093668315518
 30
0.0
 10
92.99105086650918
 20
-121.7093668315518
 30
0.0
 10
92.99518498109148
 20
-121.7135009461341
 30
0.0
 10
92.99725203838264
 20
-121.7221136848473
 30
0.0
 10
92.99725203838264
 20
-121.7283148567207
 30
0.0
 10
92.99725203838264
 20
-121.7493299391807
 30
0.0
 10
92.98312714689311
 20
-121.7558756206027
 30
0.0
 10
92.96659068856391
 20
-121.7558756206027
 30
0.0
 10
92.94626462520094
 20
-121.7558756206027
 30
0.0
 10
92.93213973371141
 20
-121.7472628818896
 30
0.0
 10
92.9138807276396
 20
-121.7369275954338
 30
0.0
 10
92.74679359660497
 20
-121.7937716709405
 30
0.0
 10
92.53733179110178
 20
-121.8192653775313
 30
0.0
 10
92.40917423905049
 20
-121.8213324348225
 30
0.0
 10
92.40917423905049
 20
-121.8213324348225
 30
0.0
 10
92.40504012446819
 20
-121.9040147264684
 30
0.0
 10
92.40504012446819
 20
-121.9040147264684
 30
0.0
 10
92.40504012446819
 20
-121.9040147264684
 30
0.0
 10
92.66755640044423
 20
-121.9040147264684
 30
0.0
 10
92.66755640044423
 20
-121.9040147264684
 30
0.0
 10
92.72267792820823
 20
-121.9040147264684
 30
0.0
 10
92.97485891772851
 20
-121.8847221917511
 30
0.0
 10
93.01757810174561
 20
-121.8785210198776
 30
0.0
 10
93.01757810174561
 20
-121.8785210198776
 30
0.0
 10
93.01757810174561
 20
-122.0476752082034
 30
0.0
 10
93.01757810174561
 20
-122.0476752082034
 30
0.0
 10
92.98484969463574
 20
-122.0435410936211
 30
0.0
 10
92.97279186043737
 20
-122.0414740363299
 30
0.0
 10
92.89768877885892
 20
-122.0414740363299
 30
0.0
  0
HATCH
  5
131
330
F6
100
AcDbEntity
  8
_U+30EC_U+30A4_U+30E4_U+30FC 1
 62
   179
420
  2234388
100
AcDbHatch
 10
0.0
 20
0.0
 30
0.0
210
0.0
220
0.0
230
1.0
  2
SOLID
 70
     1
 71
     0
 91
        6
 92
        1
 93
        1
 72
     4
 94
        3
 73
     0
 74
     1
 95
       71
 96
       67
 40
0.0
 40
0.0
 40
0.0
 40
0.0
 40
1.0
 40
1.0
 40
1.0
 40
2.0
 40
2.0
 40
2.0
 40
3.0
 40
3.0
 40
3.0
 40
4.0
 40
4.0
 40
4.0
 40
5.0
 40
5.0
 40
5.0
 40
6.0
 40
6.0
 40
6.0
 40
7.0
 40
7.0
 40
7.0
 40
8.0
 40
8.0
 40
8.0
 40
9.0
 40
9.0
 40
9.0
 40
10.0
 40
10.0
 40
10.0
 40
11.0
 40
11.0
 40
11.0
 40
12.0
 40
12.0
 40
12.0
 40
13.0
 40
13.0
 40
13.0
 40
14.0
 40
14.0
 40
14.0
 40
15.0
 40
15.0
 40
15.0
 40
16.0
 40
16.0
 40
16.0
 40
17.0
 40
17.0
 40
17.0
 40
18.0
 40
18.0
 40
18.0
 40
19.0
 40
19.0
 40
19.0
 40
20.0
 40
20.0
 40
20.0
 40
21.0
 40
21.0
 40
21.0
 40
22.0
 40
22.0
 40
22.0
 40
22.0
 10
92.07947860111207
 20
-121.7620767924762
 10
92.06535370962256
 20
-121.7620767924762
 10
92.05295136587566
 20
-121.7579426778939
 10
92.02883569747891
 20
-121.7493299391807
 10
91.89240991626302
 20
-121.7958387282316
 10
91.72566729477693
 20
-121.8130642056579
 10
91.59130857085218
 20
-121.8171983202402
 10
91.59130857085218
 20
-121.8171983202402
 10
91.58924151356102
 20
-121.9060817837596
 10
91.58924151356102
 20
-121.9060817837596
 10
91.58924151356102
 20
-121.9060817837596
 10
91.83935544579016
 20
-121.9060817837596
 10
91.83935544579016
 20
-121.9060817837596
 10
91.89034285897186
 20
-121.9060817837596
 10
92.06535370962256
 20
-121.8974690450465
 10
92.10807289363966
 20
-121.891267873173
 10
92.10807289363966
 20
-121.891267873173
 10
92.10807289363966
 20
-122.0521538323342
 10
92.10807289363966
 20
-122.0521538323342
 10
92.0550184231668
 20
-122.0456081509122
 10
91.93512910028011
 20
-122.0435410936211
 10
91.89861108813646
 20
-122.0456081509122
 10
91.89861108813646
 20
-122.0456081509122
 10
91.89861108813646
 20
-122.1555066968917
 10
91.89861108813646
 20
-122.1555066968917
 10
91.89861108813646
 20
-122.2023599954911
 10
91.9003336358791
 20
-122.2657497524197
 10
91.90653480775254
 20
-122.3036458027574
 10
91.90653480775254
 20
-122.3036458027574
 10
91.72153318019463
 20
-122.3036458027574
 10
91.72153318019463
 20
-122.3036458027574
 10
91.72738984251954
 20
-122.2636826951285
 10
91.733591014393
 20
-122.1810004034825
 10
91.733591014393
 20
-122.166186492896
 10
91.733591014393
 20
-122.166186492896
 10
91.733591014393
 20
-122.0456081509122
 10
91.733591014393
 20
-122.0456081509122
 10
91.733591014393
 20
-122.0456081509122
 10
91.57477211252298
 20
-122.0456081509122
 10
91.57477211252298
 20
-122.0456081509122
 10
91.53411998579703
 20
-122.2657497524197
 10
91.4814100248727
 20
-122.346020477226
 10
91.37943519850931
 20
-122.4455837367497
 10
91.37943519850931
 20
-122.4455837367497
 10
91.21889374889668
 20
-122.3312065666394
 10
91.21889374889668
 20
-122.3312065666394
 10
91.2798719389856
 20
-122.2826307202974
 10
91.42422143981756
 20
-122.1703206074783
 10
91.42422143981756
 20
-121.8213324348225
 10
91.42422143981756
 20
-121.738994652725
 10
91.41629772020148
 20
-121.6924858636741
 10
91.40802949103688
 20
-121.6435655077836
 10
91.54858938683508
 20
-121.6583794183701
 10
91.5627142783246
 20
-121.6583794183701
 10
91.59716523317711
 20
-121.6583794183701
 10
91.70120711683165
 20
-121.6583794183701
 10
91.83728838849902
 20
-121.6414984504924
 10
91.99197317578674
 20
-121.580175750855
 10
91.99197317578674
 20
-121.580175750855
 10
92.1018717217662
 20
-121.711433888843
 10
92.1018717217662
 20
-121.711433888843
 10
92.10807289363966
 20
-121.7176350607164
 10
92.11220700822196
 20
-121.7262477994296
 10
92.11220700822196
 20
-121.7345160285942
 10
92.11220700822196
 20
-121.7579426778939
 10
92.09394800215013
 20
-121.7620767924762
 10
92.07947860111207
 20
-121.7620767924762
 97
        0
 97
        0
 92
        1
 93
        1
 72
     4
 94
        3
 73
     0
 74
     1
 95
       74
 96
       70
 40
0.0
 40
0.0
 40
0.0
 40
0.0
 40
1.0
 40
1.0
 40
1.0
 40
2.0
 40
2.0
 40
2.0
 40
3.0
 40
3.0
 40
3.0
 40
4.0
 40
4.0
 40
4.0
 40
5.0
 40
5.0
 40
5.0
 40
6.0
 40
6.0
 40
6.0
 40
7.0
 40
7.0
 40
7.0
 40
8.0
 40
8.0
 40
8.0
 40
9.0
 40
9.0
 40
9.0
 40
10.0
 40
10.0
 40
10.0
 40
11.0
 40
11.0
 40
11.0
 40
12.0
 40
12.0
 40
12.0
 40
13.0
 40
13.0
 40
13.0
 40
14.0
 40
14.0
 40
14.0
 40
15.0
 40
15.0
 40
15.0
 40
16.0
 40
16.0
 40
16.0
 40
17.0
 40
17.0
 40
17.0
 40
18.0
 40
18.0
 40
18.0
 40
19.0
 40
19.0
 40
19.0
 40
20.0
 40
20.0
 40
20.0
 40
21.0
 40
21.0
 40
21.0
 40
22.0
 40
22.0
 40
22.0
 40
23.0
 40
23.0
 40
23.0
 40
23.0
 10
92.88528643511202
 20
-123.5287217573123
 10
92.67995874419113
 20
-123.518041961308
 10
92.48634437792009
 20
-123.4312255550797
 10
92.31753469914284
 20
-123.310647213096
 10
92.31753469914284
 20
-123.310647213096
 10
92.41124129634164
 20
-123.2238308068677
 10
92.41124129634164
 20
-123.2238308068677
 10
92.41124129634164
 20
-123.2238308068677
 10
91.8800075725161
 20
-123.2238308068677
 10
91.8800075725161
 20
-123.2238308068677
 10
91.8800075725161
 20
-123.2238308068677
 10
91.95752222093424
 20
-123.2875650733448
 10
91.95752222093424
 20
-123.2875650733448
 10
91.96372339280768
 20
-123.2916991879271
 10
91.97371416971491
 20
-123.3023789839314
 10
91.97371416971491
 20
-123.3171928945179
 10
91.97371416971491
 20
-123.3571560021468
 10
91.90240069317024
 20
-123.3509548302734
 10
91.8882758016807
 20
-123.3488877729822
 10
91.66641165243063
 20
-123.4884141401349
 10
91.5282633234721
 20
-123.5201090185991
 10
91.42835555439986
 20
-123.5369899864769
 10
91.42835555439986
 20
-123.5369899864769
 10
91.30433211693087
 20
-123.359223059438
 10
91.30433211693087
 20
-123.359223059438
 10
91.54238821496163
 20
-123.3275281809737
 10
91.6398844171942
 20
-123.2810193919228
 10
91.72566729477693
 20
-123.2283094309985
 10
91.65435381823225
 20
-123.2303764882896
 10
91.54445527225278
 20
-123.2324435455808
 10
91.51379392243406
 20
-123.2345106028719
 10
91.5282633234721
 20
-123.1456271393525
 10
91.53033038076326
 20
-123.0167805682041
 10
91.53033038076326
 20
-122.9427110152713
 10
91.53033038076326
 20
-122.9427110152713
 10
91.53033038076326
 20
-122.6422986889575
 10
91.53033038076326
 20
-122.6422986889575
 10
91.53033038076326
 20
-122.5427354294338
 10
91.5241292088898
 20
-122.4435166794586
 10
91.51379392243406
 20
-122.346020477226
 10
91.61163463421515
 20
-122.3522216490994
 10
91.83349878346525
 20
-122.3587673305214
 10
91.93719615757126
 20
-122.3587673305214
 10
91.93719615757126
 20
-122.3587673305214
 10
92.34406193437927
 20
-122.3587673305214
 10
92.34406193437927
 20
-122.3587673305214
 10
92.45809459494103
 20
-122.3587673305214
 10
92.49874672166699
 20
-122.3587673305214
 10
92.57798391782774
 20
-122.3546332159391
 10
92.72061087091707
 20
-122.3480875345171
 10
92.73680281969774
 20
-122.3480875345171
 10
92.781589061006
 20
-122.346020477226
 10
92.7733208318414
 20
-122.4262912020323
 10
92.7691867172591
 20
-122.5851101039023
 10
92.7691867172591
 20
-122.6674478859998
 10
92.7691867172591
 20
-122.6674478859998
 10
92.7691867172591
 20
-122.953046301727
 10
92.7691867172591
 20
-122.953046301727
 10
92.7691867172591
 20
-123.0250487973687
 10
92.77125377455025
 20
-123.1563069353568
 10
92.781589061006
 20
-123.2345106028719
 10
92.71234264175247
 20
-123.2303764882896
 10
92.59417586660841
 20
-123.2283094309985
 10
92.51907278502996
 20
-123.2262423737073
 10
92.62483721642712
 20
-123.2937662452182
 10
92.77125377455025
 20
-123.3444091488514
 10
92.97485891772851
 20
-123.3488877729822
 10
92.97485891772851
 20
-123.3488877729822
 10
92.88528643511202
 20
-123.5287217573123
 10
92.88528643511202
 20
-123.5287217573123
 97
        0
 97
        0
 92
        1
 93
        4
 72
     1
 10
92.59245331886578
 20
-122.4941595830917
 11
91.71533200832117
 21
-122.4941595830917
 72
     1
 10
91.71533200832117
 20
-122.4941595830917
 11
91.71533200832117
 21
-122.6061251863624
 72
     1
 10
91.71533200832117
 20
-122.6061251863624
 11
92.59245331886578
 21
-122.6061251863624
 72
     1
 10
92.59245331886578
 20
-122.6061251863624
 11
92.59245331886578
 21
-122.4941595830917
 97
        0
 92
        1
 93
        4
 72
     1
 10
92.59245331886578
 20
-122.7394503816415
 11
91.71533200832117
 21
-122.7394503816415
 72
     1
 10
91.71533200832117
 20
-122.7394503816415
 11
91.71533200832117
 21
-122.8496934371695
 72
     1
 10
91.71533200832117
 20
-122.8496934371695
 11
92.59245331886578
 21
-122.8496934371695
 72
     1
 10
92.59245331886578
 20
-122.8496934371695
 11
92.59245331886578
 21
-122.7394503816415
 97
        0
 92
        1
 93
        4
 72
     1
 10
92.59245331886578
 20
-122.9850856897398
 11
91.71533200832117
 21
-122.9850856897398
 72
     1
 10
91.71533200832117
 20
-122.9850856897398
 11
91.71533200832117
 21
-123.0929171784282
 72
     1
 10
91.71533200832117
 20
-123.0929171784282
 11
92.59245331886578
 21
-123.0929171784282
 72
     1
 10
92.59245331886578
 20
-123.0929171784282
 11
92.59245331886578
 21
-122.9850856897398
 97
        0
 92
        1
 93
        1
 72
     4
 94
        3
 73
     0
 74
     1
 95
       74
 96
       70
 40
0.0
 40
0.0
 40
0.0
 40
0.0
 40
1.0
 40
1.0
 40
1.0
 40
2.0
 40
2.0
 40
2.0
 40
3.0
 40
3.0
 40
3.0
 40
4.0
 40
4.0
 40
4.0
 40
5.0
 40
5.0
 40
5.0
 40
6.0
 40
6.0
 40
6.0
 40
7.0
 40
7.0
 40
7.0
 40
8.0
 40
8.0
 40
8.0
 40
9.0
 40
9.0
 40
9.0
 40
10.0
 40
10.0
 40
10.0
 40
11.0
 40
11.0
 40
11.0
 40
12.0
 40
12.0
 40
12.0
 40
13.0
 40
13.0
 40
13.0
 40
14.0
 40
14.0
 40
14.0
 40
15.0
 40
15.0
 40
15.0
 40
16.0
 40
16.0
 40
16.0
 40
17.0
 40
17.0
 40
17.0
 40
18.0
 40
18.0
 40
18.0
 40
19.0
 40
19.0
 40
19.0
 40
20.0
 40
20.0
 40
20.0
 40
21.0
 40
21.0
 40
21.0
 40
22.0
 40
22.0
 40
22.0
 40
23.0
 40
23.0
 40
23.0
 40
23.0
 10
92.89768877885892
 20
-122.0414740363299
 10
92.89768877885892
 20
-122.0414740363299
 10
92.7430039915712
 20
-122.0414740363299
 10
92.7430039915712
 20
-122.0414740363299
 10
92.7430039915712
 20
-122.0414740363299
 10
92.7430039915712
 20
-122.1555066968917
 10
92.7430039915712
 20
-122.1555066968917
 10
92.7430039915712
 20
-122.1958143140691
 10
92.74886065389612
 20
-122.269883867002
 10
92.75299476847842
 20
-122.2953775735928
 10
92.75299476847842
 20
-122.2953775735928
 10
92.54973413484868
 20
-122.2953775735928
 10
92.54973413484868
 20
-122.2953775735928
 10
92.55972491175591
 20
-122.2295762498246
 10
92.56179196904705
 20
-122.1703206074783
 10
92.56179196904705
 20
-122.1682535501871
 10
92.56179196904705
 20
-122.1682535501871
 10
92.56179196904705
 20
-122.0456081509122
 10
92.56179196904705
 20
-122.0456081509122
 10
92.56179196904705
 20
-122.0456081509122
 10
92.38884817568751
 20
-122.0456081509122
 10
92.38884817568751
 20
-122.0456081509122
 10
92.37058916961568
 20
-122.1048637932585
 10
92.32580292830744
 20
-122.2509358418331
 10
92.21590438232798
 20
-122.3332736239306
 10
92.21590438232798
 20
-122.3332736239306
 10
92.06535370962256
 20
-122.2275091925334
 10
92.06535370962256
 20
-122.2275091925334
 10
92.13666718616723
 20
-122.1810004034825
 10
92.24828827988932
 20
-122.1069308505497
 10
92.24828827988932
 20
-121.7855034417759
 10
92.24828827988932
 20
-121.7303819140119
 10
92.24449867485555
 20
-121.6859401822521
 10
92.24243161756439
 20
-121.6480441319144
 10
92.3154676418517
 20
-121.656312361079
 10
92.38678111839637
 20
-121.662858042501
 10
92.44775930848529
 20
-121.662858042501
 10
92.61863604455368
 20
-121.662858042501
 10
92.81018335353357
 20
-121.6036024001547
 10
92.86909448633133
 20
-121.5739745789815
 10
92.86909448633133
 20
-121.5739745789815
 10
92.99105086650918
 20
-121.7093668315518
 10
92.99105086650918
 20
-121.7093668315518
 10
92.99518498109148
 20
-121.7135009461341
 10
92.99725203838264
 20
-121.7221136848473
 10
92.99725203838264
 20
-121.7283148567207
 10
92.99725203838264
 20
-121.7493299391807
 10
92.98312714689311
 20
-121.7558756206027
 10
92.96659068856391
 20
-121.7558756206027
 10
92.94626462520094
 20
-121.7558756206027
 10
92.93213973371141
 20
-121.7472628818896
 10
92.9138807276396
 20
-121.7369275954338
 10
92.74679359660497
 20
-121.7937716709405
 10
92.53733179110178
 20
-121.8192653775313
 10
92.40917423905049
 20
-121.8213324348225
 10
92.40917423905049
 20
-121.8213324348225
 10
92.40504012446819
 20
-121.9040147264684
 10
92.40504012446819
 20
-121.9040147264684
 10
92.40504012446819
 20
-121.9040147264684
 10
92.66755640044423
 20
-121.9040147264684
 10
92.66755640044423
 20
-121.9040147264684
 10
92.72267792820823
 20
-121.9040147264684
 10
92.97485891772851
 20
-121.8847221917511
 10
93.01757810174561
 20
-121.8785210198776
 10
93.01757810174561
 20
-121.8785210198776
 10
93.01757810174561
 20
-122.0476752082034
 10
93.01757810174561
 20
-122.0476752082034
 10
92.98484969463574
 20
-122.0435410936211
 10
92.97279186043737
 20
-122.0414740363299
 10
92.89768877885892
 20
-122.0414740363299
 97
        0
 97
        0
 75
     2
 76
     1
 98
        0
  0
ENDBLK
  5
F9
330
F6
100
AcDbEntity
  8
0
100
AcDbBlockEnd
  0
BLOCK
  5
140
330
13E
100
AcDbEntity
  8
0
100
AcDbBlockBegin
  2
block 4
 70
     0
 10
0.0
 20
0.0
 30
0.0
  3
block 4
  1

  0
SPLINE
  5
142
330
13E
100
AcDbEntity
  8
_U+30EC_U+30A4_U+30E4_U+30FC 1
370
     0
100
AcDbSpline
210
0.0
220
0.0
230
1.0
 70
    11
 71
     3
 72
    44
 73
    40
 74
     0
 42
0.0000000001
 43
0.0000000001
 12
1.0
 22
0.0
 32
0.0
 13
1.0
 23
0.0
 33
0.0
 40
0.0
 40
0.0
 40
0.0
 40
0.0
 40
1.0
 40
1.0
 40
1.0
 40
2.0
 40
2.0
 40
2.0
 40
3.0
 40
3.0
 40
3.0
 40
4.0
 40
4.0
 40
4.0
 40
5.0
 40
5.0
 40
5.0
 40
6.0
 40
6.0
 40
6.0
 40
7.0
 40
7.0
 40
7.0
 40
8.0
 40
8.0
 40
8.0
 40
9.0
 40
9.0
 40
9.0
 40
10.0
 40
10.0
 40
10.0
 40
11.0
 40
11.0
 40
11.0
 40
12.0
 40
12.0
 40
12.0
 40
13.0
 40
13.0
 40
13.0
 40
13.0
 10
75.29152830148962
 20
-132.0794487517024
 30
0.0
 10
75.08172198643791
 20
-132.2382676535724
 30
0.0
 10
74.99249401336994
 20
-132.3123372065052
 30
0.0
 10
74.94564071477053
 20
-132.4559976882402
 30
0.0
 10
74.94564071477053
 20
-132.4559976882402
 30
0.0
 10
75.69425996371533
 20
-132.4559976882402
 30
0.0
 10
75.69425996371533
 20
-132.4559976882402
 30
0.0
 10
75.69425996371533
 20
-132.4559976882402
 30
0.0
 10
75.69425996371533
 20
-132.6613253791611
 30
0.0
 10
75.69425996371533
 20
-132.6613253791611
 30
0.0
 10
75.69425996371533
 20
-132.6613253791611
 30
0.0
 10
74.70551755944862
 20
-132.6613253791611
 30
0.0
 10
74.70551755944862
 20
-132.6613253791611
 30
0.0
 10
74.73583439971883
 20
-132.3037244677921
 30
0.0
 10
74.79922415664743
 20
-132.225520800277
 30
0.0
 10
75.16922741176325
 20
-131.9271755312543
 30
0.0
 10
75.41555173895861
 20
-131.7283935217554
 30
0.0
 10
75.47859698633869
 20
-131.660525140696
 30
0.0
 10
75.47859698633869
 20
-131.5230658308345
 30
0.0
 10
75.47859698633869
 20
-131.4045545461419
 30
0.0
 10
75.40935056708517
 20
-131.2736409177024
 30
0.0
 10
75.22021482494495
 20
-131.2736409177024
 30
0.0
 10
74.9701008927158
 20
-131.2736409177024
 30
0.0
 10
74.9618326635512
 20
-131.5041178056656
 30
0.0
 10
74.9576985489689
 20
-131.6205620330671
 30
0.0
 10
74.9576985489689
 20
-131.6205620330671
 30
0.0
 10
74.74203557159227
 20
-131.6205620330671
 30
0.0
 10
74.74203557159227
 20
-131.6205620330671
 30
0.0
 10
74.75030380075687
 20
-131.4934380096614
 30
0.0
 10
74.7602945776641
 20
-131.3814724063907
 30
0.0
 10
74.83780922608221
 20
-131.2629611216982
 30
0.0
 10
74.94357365747939
 20
-131.102075162537
 30
0.0
 10
75.12271862271238
 20
-131.0683132267815
 30
0.0
 10
75.23433971643448
 20
-131.0683132267815
 30
0.0
 10
75.50099010699282
 20
-131.0683132267815
 30
0.0
 10
75.70046113558878
 20
-131.2522813256939
 30
0.0
 10
75.70046113558878
 20
-131.5251328881257
 30
0.0
 10
75.70046113558878
 20
-131.7538872283463
 30
0.0
 10
75.58849553231816
 20
-131.8531059783215
 30
0.0
 10
75.29152830148962
 20
-132.0794487517024
 30
0.0
  0
HATCH
  5
143
330
13E
100
AcDbEntity
  8
_U+30EC_U+30A4_U+30E4_U+30FC 1
 62
   179
420
  2234388
100
AcDbHatch
 10
0.0
 20
0.0
 30
0.0
210
0.0
220
0.0
230
1.0
  2
SOLID
 70
     1
 71
     0
 91
        1
 92
        1
 93
        1
 72
     4
 94
        3
 73
     0
 74
     1
 95
       44
 96
       40
 40
0.0
 40
0.0
 40
0.0
 40
0.0
 40
1.0
 40
1.0
 40
1.0
 40
2.0
 40
2.0
 40
2.0
 40
3.0
 40
3.0
 40
3.0
 40
4.0
 40
4.0
 40
4.0
 40
5.0
 40
5.0
 40
5.0
 40
6.0
 40
6.0
 40
6.0
 40
7.0
 40
7.0
 40
7.0
 40
8.0
 40
8.0
 40
8.0
 40
9.0
 40
9.0
 40
9.0
 40
10.0
 40
10.0
 40
10.0
 40
11.0
 40
11.0
 40
11.0
 40
12.0
 40
12.0
 40
12.0
 40
13.0
 40
13.0
 40
13.0
 40
13.0
 10
75.29152830148962
 20
-132.0794487517024
 10
75.08172198643791
 20
-132.2382676535724
 10
74.99249401336994
 20
-132.3123372065052
 10
74.94564071477053
 20
-132.4559976882402
 10
74.94564071477053
 20
-132.4559976882402
 10
75.69425996371533
 20
-132.4559976882402
 10
75.69425996371533
 20
-132.4559976882402
 10
75.69425996371533
 20
-132.4559976882402
 10
75.69425996371533
 20
-132.6613253791611
 10
75.69425996371533
 20
-132.6613253791611
 10
75.69425996371533
 20
-132.6613253791611
 10
74.70551755944862
 20
-132.6613253791611
 10
74.70551755944862
 20
-132.6613253791611
 10
74.73583439971883
 20
-132.3037244677921
 10
74.79922415664743
 20
-132.225520800277
 10
75.16922741176325
 20
-131.9271755312543
 10
75.41555173895861
 20
-131.7283935217554
 10
75.47859698633869
 20
-131.660525140696
 10
75.47859698633869
 20
-131.5230658308345
 10
75.47859698633869
 20
-131.4045545461419
 10
75.40935056708517
 20
-131.2736409177024
 10
75.22021482494495
 20
-131.2736409177024
 10
74.9701008927158
 20
-131.2736409177024
 10
74.9618326635512
 20
-131.5041178056656
 10
74.9576985489689
 20
-131.6205620330671
 10
74.9576985489689
 20
-131.6205620330671
 10
74.74203557159227
 20
-131.6205620330671
 10
74.74203557159227
 20
-131.6205620330671
 10
74.75030380075687
 20
-131.4934380096614
 10
74.7602945776641
 20
-131.3814724063907
 10
74.83780922608221
 20
-131.2629611216982
 10
74.94357365747939
 20
-131.102075162537
 10
75.12271862271238
 20
-131.0683132267815
 10
75.23433971643448
 20
-131.0683132267815
 10
75.50099010699282
 20
-131.0683132267815
 10
75.70046113558878
 20
-131.2522813256939
 10
75.70046113558878
 20
-131.5251328881257
 10
75.70046113558878
 20
-131.7538872283463
 10
75.58849553231816
 20
-131.8531059783215
 10
75.29152830148962
 20
-132.0794487517024
 97
        0
 97
        0
 75
     2
 76
     1
 98
        0
  0
SPLINE
  5
144
330
13E
100
AcDbEntity
  8
_U+30EC_U+30A4_U+30E4_U+30FC 1
370
     0
100
AcDbSpline
210
0.0
220
0.0
230
1.0
 70
    11
 71
     3
 72
    62
 73
    58
 74
     0
 42
0.0000000001
 43
0.0000000001
 12
1.0
 22
0.0
 32
0.0
 13
1.0
 23
0.0
 33
0.0
 40
0.0
 40
0.0
 40
0.0
 40
0.0
 40
1.0
 40
1.0
 40
1.0
 40
2.0
 40
2.0
 40
2.0
 40
3.0
 40
3.0
 40
3.0
 40
4.0
 40
4.0
 40
4.0
 40
5.0
 40
5.0
 40
5.0
 40
6.0
 40
6.0
 40
6.0
 40
7.0
 40
7.0
 40
7.0
 40
8.0
 40
8.0
 40
8.0
 40
9.0
 40
9.0
 40
9.0
 40
10.0
 40
10.0
 40
10.0
 40
11.0
 40
11.0
 40
11.0
 40
12.0
 40
12.0
 40
12.0
 40
13.0
 40
13.0
 40
13.0
 40
14.0
 40
14.0
 40
14.0
 40
15.0
 40
15.0
 40
15.0
 40
16.0
 40
16.0
 40
16.0
 40
17.0
 40
17.0
 40
17.0
 40
18.0
 40
18.0
 40
18.0
 40
19.0
 40
19.0
 40
19.0
 40
19.0
 10
76.32471243751604
 20
-132.7119682827942
 30
0.0
 10
76.23341740715692
 20
-132.7119682827942
 30
0.0
 10
76.02361109210521
 20
-132.6909532003342
 30
0.0
 10
75.90372176921852
 20
-132.5049180441307
 30
0.0
 10
75.83240829267385
 20
-132.3926079313116
 30
0.0
 10
75.82827417809155
 20
-132.2933891813364
 30
0.0
 10
75.82414006350925
 20
-132.2086398323992
 30
0.0
 10
75.82414006350925
 20
-132.2086398323992
 30
0.0
 10
76.03601343585211
 20
-132.2086398323992
 30
0.0
 10
76.03601343585211
 20
-132.2086398323992
 30
0.0
 10
76.03808049314326
 20
-132.2827093853321
 30
0.0
 10
76.04807127005049
 20
-132.5173203878776
 30
0.0
 10
76.32057832293374
 20
-132.5173203878776
 30
0.0
 10
76.45286998956735
 20
-132.5173203878776
 30
0.0
 10
76.59963105723898
 20
-132.4477294590756
 30
0.0
 10
76.59963105723898
 20
-132.2193196284035
 30
0.0
 10
76.59963105723898
 20
-132.1028754010021
 30
0.0
 10
76.56276853554681
 20
-132.05429955466
 30
0.0
 10
76.5324516952766
 20
-132.0226046761958
 30
0.0
 10
76.46113821873195
 20
-131.9485351232629
 30
0.0
 10
76.34917261546133
 20
-131.9357882699674
 30
0.0
 10
76.296462654537
 20
-131.9357882699674
 30
0.0
 10
76.27785913891665
 20
-131.9357882699674
 30
0.0
 10
76.24340818406415
 20
-131.9378553272586
 30
0.0
 10
76.21688094882772
 20
-131.9419894418409
 30
0.0
 10
76.21688094882772
 20
-131.9419894418409
 30
0.0
 10
76.21688094882772
 20
-131.7473415469243
 30
0.0
 10
76.21688094882772
 20
-131.7473415469243
 30
0.0
 10
76.25374347051991
 20
-131.7538872283463
 30
0.0
 10
76.29439559724585
 20
-131.7559542856374
 30
0.0
 10
76.30025225957077
 20
-131.7559542856374
 30
0.0
 10
76.36364201649937
 20
-131.7559542856374
 30
0.0
 10
76.55484481593074
 20
-131.7345946936288
 30
0.0
 10
76.55484481593074
 20
-131.4979166337922
 30
0.0
 10
76.55484481593074
 20
-131.3201497067533
 30
0.0
 10
76.42875432117059
 20
-131.2650281789893
 30
0.0
 10
76.3226453802249
 20
-131.2650281789893
 30
0.0
 10
76.06839733341346
 20
-131.2650281789893
 30
0.0
 10
76.06012910424886
 20
-131.4979166337922
 30
0.0
 10
76.05633949921508
 20
-131.5695746198854
 30
0.0
 10
76.05633949921508
 20
-131.5695746198854
 30
0.0
 10
75.86100258520142
 20
-131.5695746198854
 30
0.0
 10
75.86100258520142
 20
-131.5695746198854
 30
0.0
 10
75.86892630481749
 20
-131.4448621633194
 30
0.0
 10
75.89545354005392
 20
-131.0683132267815
 30
0.0
 10
76.3350477239718
 20
-131.0683132267815
 30
0.0
 10
76.55071070134844
 20
-131.0683132267815
 30
0.0
 10
76.78256562750575
 20
-131.1954372501873
 30
0.0
 10
76.78256562750575
 20
-131.4913709523702
 30
0.0
 10
76.78256562750575
 20
-131.6777506181222
 30
0.0
 10
76.6909260875981
 20
-131.7600884002197
 30
0.0
 10
76.59549694265668
 20
-131.8214110998572
 30
0.0
 10
76.65440807545446
 20
-131.8489718637392
 30
0.0
 10
76.82941892610515
 20
-131.9292425885455
 30
0.0
 10
76.82941892610515
 20
-132.2065727751081
 30
0.0
 10
76.82941892610515
 20
-132.5448811517596
 30
0.0
 10
76.59136282807438
 20
-132.7119682827942
 30
0.0
 10
76.32471243751604
 20
-132.7119682827942
 30
0.0
  0
HATCH
  5
145
330
13E
100
AcDbEntity
  8
_U+30EC_U+30A4_U+30E4_U+30FC 1
 62
   179
420
  2234388
100
AcDbHatch
 10
0.0
 20
0.0
 30
0.0
210
0.0
220
0.0
230
1.0
  2
SOLID
 70
     1
 71
     0
 91
        1
 92
        1
 93
        1
 72
     4
 94
        3
 73
     0
 74
     1
 95
       62
 96
       58
 40
0.0
 40
0.0
 40
0.0
 40
0.0
 40
1.0
 40
1.0
 40
1.0
 40
2.0
 40
2.0
 40
2.0
 40
3.0
 40
3.0
 40
3.0
 40
4.0
 40
4.0
 40
4.0
 40
5.0
 40
5.0
 40
5.0
 40
6.0
 40
6.0
 40
6.0
 40
7.0
 40
7.0
 40
7.0
 40
8.0
 40
8.0
 40
8.0
 40
9.0
 40
9.0
 40
9.0
 40
10.0
 40
10.0
 40
10.0
 40
11.0
 40
11.0
 40
11.0
 40
12.0
 40
12.0
 40
12.0
 40
13.0
 40
13.0
 40
13.0
 40
14.0
 40
14.0
 40
14.0
 40
15.0
 40
15.0
 40
15.0
 40
16.0
 40
16.0
 40
16.0
 40
17.0
 40
17.0
 40
17.0
 40
18.0
 40
18.0
 40
18.0
 40
19.0
 40
19.0
 40
19.0
 40
19.0
 10
76.32471243751604
 20
-132.7119682827942
 10
76.23341740715692
 20
-132.7119682827942
 10
76.02361109210521
 20
-132.6909532003342
 10
75.90372176921852
 20
-132.5049180441307
 10
75.83240829267385
 20
-132.3926079313116
 10
75.82827417809155
 20
-132.2933891813364
 10
75.82414006350925
 20
-132.2086398323992
 10
75.82414006350925
 20
-132.2086398323992
 10
76.03601343585211
 20
-132.2086398323992
 10
76.03601343585211
 20
-132.2086398323992
 10
76.03808049314326
 20
-132.2827093853321
 10
76.04807127005049
 20
-132.5173203878776
 10
76.32057832293374
 20
-132.5173203878776
 10
76.45286998956735
 20
-132.5173203878776
 10
76.59963105723898
 20
-132.4477294590756
 10
76.59963105723898
 20
-132.2193196284035
 10
76.59963105723898
 20
-132.1028754010021
 10
76.56276853554681
 20
-132.05429955466
 10
76.5324516952766
 20
-132.0226046761958
 10
76.46113821873195
 20
-131.9485351232629
 10
76.34917261546133
 20
-131.9357882699674
 10
76.296462654537
 20
-131.9357882699674
 10
76.27785913891665
 20
-131.9357882699674
 10
76.24340818406415
 20
-131.9378553272586
 10
76.21688094882772
 20
-131.9419894418409
 10
76.21688094882772
 20
-131.9419894418409
 10
76.21688094882772
 20
-131.7473415469243
 10
76.21688094882772
 20
-131.7473415469243
 10
76.25374347051991
 20
-131.7538872283463
 10
76.29439559724585
 20
-131.7559542856374
 10
76.30025225957077
 20
-131.7559542856374
 10
76.36364201649937
 20
-131.7559542856374
 10
76.55484481593074
 20
-131.7345946936288
 10
76.55484481593074
 20
-131.4979166337922
 10
76.55484481593074
 20
-131.3201497067533
 10
76.42875432117059
 20
-131.2650281789893
 10
76.3226453802249
 20
-131.2650281789893
 10
76.06839733341346
 20
-131.2650281789893
 10
76.06012910424886
 20
-131.4979166337922
 10
76.05633949921508
 20
-131.5695746198854
 10
76.05633949921508
 20
-131.5695746198854
 10
75.86100258520142
 20
-131.5695746198854
 10
75.86100258520142
 20
-131.5695746198854
 10
75.86892630481749
 20
-131.4448621633194
 10
75.89545354005392
 20
-131.0683132267815
 10
76.3350477239718
 20
-131.0683132267815
 10
76.55071070134844
 20
-131.0683132267815
 10
76.78256562750575
 20
-131.1954372501873
 10
76.78256562750575
 20
-131.4913709523702
 10
76.78256562750575
 20
-131.6777506181222
 10
76.6909260875981
 20
-131.7600884002197
 10
76.59549694265668
 20
-131.8214110998572
 10
76.65440807545446
 20
-131.8489718637392
 10
76.82941892610515
 20
-131.9292425885455
 10
76.82941892610515
 20
-132.2065727751081
 10
76.82941892610515
 20
-132.5448811517596
 10
76.59136282807438
 20
-132.7119682827942
 10
76.32471243751604
 20
-132.7119682827942
 97
        0
 97
        0
 75
     2
 76
     1
 98
        0
  0
POLYLINE
  5
146
330
13E
100
AcDbEntity
  8
_U+30EC_U+30A4_U+30E4_U+30FC 1
370
     0
100
AcDb2dPolyline
 66
     1
 10
0.0
 20
0.0
 30
0.0
  0
VERTEX
  5
147
330
146
100
AcDbEntity
  8
_U+30EC_U+30A4_U+30E4_U+30FC 1
370
     0
100
AcDbVertex
100
AcDb2dVertex
 10
77.04094778889949
 20
-132.6613253791611
 30
0.0
  0
VERTEX
  5
148
330
146
100
AcDbEntity
  8
_U+30EC_U+30A4_U+30E4_U+30FC 1
370
     0
100
AcDbVertex
100
AcDb2dVertex
 10
77.04094778889949
 20
-132.4094888991893
 30
0.0
  0
VERTEX
  5
149
330
146
100
AcDbEntity
  8
_U+30EC_U+30A4_U+30E4_U+30FC 1
370
     0
100
AcDbVertex
100
AcDb2dVertex
 10
77.28313800151255
 20
-132.4094888991893
 30
0.0
  0
VERTEX
  5
14A
330
146
100
AcDbEntity
  8
_U+30EC_U+30A4_U+30E4_U+30FC 1
370
     0
100
AcDbVertex
100
AcDb2dVertex
 10
77.28313800151255
 20
-132.6613253791611
 30
0.0
  0
VERTEX
  5
14B
330
146
100
AcDbEntity
  8
_U+30EC_U+30A4_U+30E4_U+30FC 1
370
     0
100
AcDbVertex
100
AcDb2dVertex
 10
77.04094778889949
 20
-132.6613253791611
 30
0.0
  0
SEQEND
  5
14C
330
146
100
AcDbEntity
  8
_U+30EC_U+30A4_U+30E4_U+30FC 1
370
     0
  0
HATCH
  5
14D
330
13E
100
AcDbEntity
  8
_U+30EC_U+30A4_U+30E4_U+30FC 1
 62
   179
420
  2234388
100
AcDbHatch
 10
0.0
 20
0.0
 30
0.0
210
0.0
220
0.0
230
1.0
  2
SOLID
 70
     1
 71
     0
 91
        1
 92
        1
 93
        4
 72
     1
 10
77.04094778889949
 20
-132.6613253791611
 11
77.04094778889949
 21
-132.4094888991893
 72
     1
 10
77.04094778889949
 20
-132.4094888991893
 11
77.28313800151255
 21
-132.4094888991893
 72
     1
 10
77.28313800151255
 20
-132.4094888991893
 11
77.28313800151255
 21
-132.6613253791611
 72
     1
 10
77.28313800151255
 20
-132.6613253791611
 11
77.04094778889949
 21
-132.6613253791611
 97
        0
 75
     2
 76
     1
 98
        0
  0
SPLINE
  5
14E
330
13E
100
AcDbEntity
  8
_U+30EC_U+30A4_U+30E4_U+30FC 1
370
     0
100
AcDbSpline
210
0.0
220
0.0
230
1.0
 70
    11
 71
     3
 72
    53
 73
    49
 74
     0
 42
0.0000000001
 43
0.0000000001
 12
1.0
 22
0.0
 32
0.0
 13
1.0
 23
0.0
 33
0.0
 40
0.0
 40
0.0
 40
0.0
 40
0.0
 40
1.0
 40
1.0
 40
1.0
 40
2.0
 40
2.0
 40
2.0
 40
3.0
 40
3.0
 40
3.0
 40
4.0
 40
4.0
 40
4.0
 40
5.0
 40
5.0
 40
5.0
 40
6.0
 40
6.0
 40
6.0
 40
7.0
 40
7.0
 40
7.0
 40
8.0
 40
8.0
 40
8.0
 40
9.0
 40
9.0
 40
9.0
 40
10.0
 40
10.0
 40
10.0
 40
11.0
 40
11.0
 40
11.0
 40
12.0
 40
12.0
 40
12.0
 40
13.0
 40
13.0
 40
13.0
 40
14.0
 40
14.0
 40
14.0
 40
15.0
 40
15.0
 40
15.0
 40
16.0
 40
16.0
 40
16.0
 40
16.0
 10
77.97284611765957
 20
-132.7119682827942
 30
0.0
 10
77.8973985265326
 20
-132.7119682827942
 30
0.0
 10
77.79990232430002
 20
-132.6950873149165
 30
0.0
 10
77.70206161251893
 20
-132.6316975579879
 30
0.0
 10
77.53531899103284
 20
-132.5217990120084
 30
0.0
 10
77.51499292766987
 20
-132.3905408740204
 30
0.0
 10
77.49673392159804
 20
-132.2827093853321
 30
0.0
 10
77.49673392159804
 20
-132.2827093853321
 30
0.0
 10
77.71032984168353
 20
-132.2827093853321
 30
0.0
 10
77.71032984168353
 20
-132.2827093853321
 30
0.0
 10
77.76303980260785
 20
-132.481491394831
 30
0.0
 10
77.88534069233422
 20
-132.5111192160042
 30
0.0
 10
77.97491317495071
 20
-132.5111192160042
 30
0.0
 10
78.10927189887546
 20
-132.5111192160042
 30
0.0
 10
78.25568845699858
 20
-132.4115559564804
 30
0.0
 10
78.25568845699858
 20
-132.1790120112261
 30
0.0
 10
78.25568845699858
 20
-131.923041416672
 30
0.0
 10
78.08274466363903
 20
-131.8531059783215
 30
0.0
 10
77.96664494578611
 20
-131.8531059783215
 30
0.0
 10
77.9359835959674
 20
-131.8531059783215
 30
0.0
 10
77.79990232430002
 20
-131.8531059783215
 30
0.0
 10
77.71446395626583
 20
-131.9822970590183
 30
0.0
 10
77.71446395626583
 20
-131.9822970590183
 30
0.0
 10
77.54530976794007
 20
-131.9633490338495
 30
0.0
 10
77.54530976794007
 20
-131.9633490338495
 30
0.0
 10
77.54530976794007
 20
-131.9633490338495
 30
0.0
 10
77.66140948579299
 20
-131.1168890731236
 30
0.0
 10
77.66140948579299
 20
-131.1168890731236
 30
0.0
 10
77.66140948579299
 20
-131.1168890731236
 30
0.0
 10
78.4103732442863
 20
-131.1168890731236
 30
0.0
 10
78.4103732442863
 20
-131.1168890731236
 30
0.0
 10
78.4103732442863
 20
-131.1168890731236
 30
0.0
 10
78.4103732442863
 20
-131.3115369680402
 30
0.0
 10
78.4103732442863
 20
-131.3115369680402
 30
0.0
 10
78.4103732442863
 20
-131.3115369680402
 30
0.0
 10
77.81816133037185
 20
-131.3115369680402
 30
0.0
 10
77.81816133037185
 20
-131.3115369680402
 30
0.0
 10
77.81816133037185
 20
-131.3115369680402
 30
0.0
 10
77.75511608299178
 20
-131.7345946936288
 30
0.0
 10
77.75511608299178
 20
-131.7345946936288
 30
0.0
 10
77.81402721578955
 20
-131.7008327578734
 30
0.0
 10
77.8932644119503
 20
-131.660525140696
 30
0.0
 10
78.00729707251207
 20
-131.660525140696
 30
0.0
 10
78.25155434241628
 20
-131.660525140696
 30
0.0
 10
78.4792751539913
 20
-131.846904806448
 30
0.0
 10
78.4792751539913
 20
-132.1600639860572
 30
0.0
 10
78.4792751539913
 20
-132.4773572802487
 30
0.0
 10
78.26361217661466
 20
-132.7119682827942
 30
0.0
 10
77.97284611765957
 20
-132.7119682827942
 30
0.0
  0
HATCH
  5
14F
330
13E
100
AcDbEntity
  8
_U+30EC_U+30A4_U+30E4_U+30FC 1
 62
   179
420
  2234388
100
AcDbHatch
 10
0.0
 20
0.0
 30
0.0
210
0.0
220
0.0
230
1.0
  2
SOLID
 70
     1
 71
     0
 91
        1
 92
        1
 93
        1
 72
     4
 94
        3
 73
     0
 74
     1
 95
       53
 96
       49
 40
0.0
 40
0.0
 40
0.0
 40
0.0
 40
1.0
 40
1.0
 40
1.0
 40
2.0
 40
2.0
 40
2.0
 40
3.0
 40
3.0
 40
3.0
 40
4.0
 40
4.0
 40
4.0
 40
5.0
 40
5.0
 40
5.0
 40
6.0
 40
6.0
 40
6.0
 40
7.0
 40
7.0
 40
7.0
 40
8.0
 40
8.0
 40
8.0
 40
9.0
 40
9.0
 40
9.0
 40
10.0
 40
10.0
 40
10.0
 40
11.0
 40
11.0
 40
11.0
 40
12.0
 40
12.0
 40
12.0
 40
13.0
 40
13.0
 40
13.0
 40
14.0
 40
14.0
 40
14.0
 40
15.0
 40
15.0
 40
15.0
 40
16.0
 40
16.0
 40
16.0
 40
16.0
 10
77.97284611765957
 20
-132.7119682827942
 10
77.8973985265326
 20
-132.7119682827942
 10
77.79990232430002
 20
-132.6950873149165
 10
77.70206161251893
 20
-132.6316975579879
 10
77.53531899103284
 20
-132.5217990120084
 10
77.51499292766987
 20
-132.3905408740204
 10
77.49673392159804
 20
-132.2827093853321
 10
77.49673392159804
 20
-132.2827093853321
 10
77.71032984168353
 20
-132.2827093853321
 10
77.71032984168353
 20
-132.2827093853321
 10
77.76303980260785
 20
-132.481491394831
 10
77.88534069233422
 20
-132.5111192160042
 10
77.97491317495071
 20
-132.5111192160042
 10
78.10927189887546
 20
-132.5111192160042
 10
78.25568845699858
 20
-132.4115559564804
 10
78.25568845699858
 20
-132.1790120112261
 10
78.25568845699858
 20
-131.923041416672
 10
78.08274466363903
 20
-131.8531059783215
 10
77.96664494578611
 20
-131.8531059783215
 10
77.9359835959674
 20
-131.8531059783215
 10
77.79990232430002
 20
-131.8531059783215
 10
77.71446395626583
 20
-131.9822970590183
 10
77.71446395626583
 20
-131.9822970590183
 10
77.54530976794007
 20
-131.9633490338495
 10
77.54530976794007
 20
-131.9633490338495
 10
77.54530976794007
 20
-131.9633490338495
 10
77.66140948579299
 20
-131.1168890731236
 10
77.66140948579299
 20
-131.1168890731236
 10
77.66140948579299
 20
-131.1168890731236
 10
78.4103732442863
 20
-131.1168890731236
 10
78.4103732442863
 20
-131.1168890731236
 10
78.4103732442863
 20
-131.1168890731236
 10
78.4103732442863
 20
-131.3115369680402
 10
78.4103732442863
 20
-131.3115369680402
 10
78.4103732442863
 20
-131.3115369680402
 10
77.81816133037185
 20
-131.3115369680402
 10
77.81816133037185
 20
-131.3115369680402
 10
77.81816133037185
 20
-131.3115369680402
 10
77.75511608299178
 20
-131.7345946936288
 10
77.75511608299178
 20
-131.7345946936288
 10
77.81402721578955
 20
-131.7008327578734
 10
77.8932644119503
 20
-131.660525140696
 10
78.00729707251207
 20
-131.660525140696
 10
78.25155434241628
 20
-131.660525140696
 10
78.4792751539913
 20
-131.846904806448
 10
78.4792751539913
 20
-132.1600639860572
 10
78.4792751539913
 20
-132.4773572802487
 10
78.26361217661466
 20
-132.7119682827942
 10
77.97284611765957
 20
-132.7119682827942
 97
        0
 97
        0
 75
     2
 76
     1
 98
        0
  0
ENDBLK
  5
141
330
13E
100
AcDbEntity
  8
0
100
AcDbBlockEnd
  0
BLOCK
  5
15E
330
15C
100
AcDbEntity
  8
0
100
AcDbBlockBegin
  2
block 5
 70
     0
 10
0.0
 20
0.0
 30
0.0
  3
block 5
  1

  0
SPLINE
  5
160
330
15C
100
AcDbEntity
  8
_U+30EC_U+30A4_U+30E4_U+30FC 1
370
     0
100
AcDbSpline
210
0.0
220
0.0
230
1.0
 70
    11
 71
     3
 72
    44
 73
    40
 74
     0
 42
0.0000000001
 43
0.0000000001
 12
1.0
 22
0.0
 32
0.0
 13
1.0
 23
0.0
 33
0.0
 40
0.0
 40
0.0
 40
0.0
 40
0.0
 40
1.0
 40
1.0
 40
1.0
 40
2.0
 40
2.0
 40
2.0
 40
3.0
 40
3.0
 40
3.0
 40
4.0
 40
4.0
 40
4.0
 40
5.0
 40
5.0
 40
5.0
 40
6.0
 40
6.0
 40
6.0
 40
7.0
 40
7.0
 40
7.0
 40
8.0
 40
8.0
 40
8.0
 40
9.0
 40
9.0
 40
9.0
 40
10.0
 40
10.0
 40
10.0
 40
11.0
 40
11.0
 40
11.0
 40
12.0
 40
12.0
 40
12.0
 40
13.0
 40
13.0
 40
13.0
 40
13.0
 10
64.2472411948757
 20
-109.0794745278517
 30
0.0
 10
64.03760713459825
 20
-109.2381211749474
 30
0.0
 10
63.94803465198174
 20
-109.3121907278803
 30
0.0
 10
63.90135360815661
 20
-109.4560234643895
 30
0.0
 10
63.90135360815661
 20
-109.4560234643895
 30
0.0
 10
64.6499728571014
 20
-109.4560234643895
 30
0.0
 10
64.6499728571014
 20
-109.4560234643895
 30
0.0
 10
64.6499728571014
 20
-109.4560234643895
 30
0.0
 10
64.6499728571014
 20
-109.6611789005361
 30
0.0
 10
64.6499728571014
 20
-109.6611789005361
 30
0.0
 10
64.6499728571014
 20
-109.6611789005361
 30
0.0
 10
63.66123045283469
 20
-109.6611789005361
 30
0.0
 10
63.66123045283469
 20
-109.6611789005361
 30
0.0
 10
63.69171954787916
 20
-109.3035779891672
 30
0.0
 10
63.75476479525923
 20
-109.225374321652
 30
0.0
 10
64.12511255992358
 20
-108.9270290526294
 30
0.0
 10
64.37126463234469
 20
-108.7282470431304
 30
0.0
 10
64.43430987972476
 20
-108.6605509168453
 30
0.0
 10
64.43430987972476
 20
-108.5230916069838
 30
0.0
 10
64.43430987972476
 20
-108.4045803222912
 30
0.0
 10
64.3652357152455
 20
-108.2734944390775
 30
0.0
 10
64.17592771833102
 20
-108.2734944390775
 30
0.0
 10
63.92564153132762
 20
-108.2734944390775
 30
0.0
 10
63.91754555693728
 20
-108.5039713270407
 30
0.0
 10
63.91341144235498
 20
-108.6204155544421
 30
0.0
 10
63.91341144235498
 20
-108.6204155544421
 30
0.0
 10
63.69774846497835
 20
-108.6204155544421
 30
0.0
 10
63.69774846497835
 20
-108.6204155544421
 30
0.0
 10
63.70601669414295
 20
-108.4934637858107
 30
0.0
 10
63.71617972582443
 20
-108.3813259277658
 30
0.0
 10
63.79334986469403
 20
-108.2628146430732
 30
0.0
 10
63.89928655086546
 20
-108.1021009386863
 30
0.0
 10
64.07825926132419
 20
-108.0681667481566
 30
0.0
 10
64.19022486459481
 20
-108.0681667481566
 30
0.0
 10
64.45670300037888
 20
-108.0681667481566
 30
0.0
 10
64.65617402897485
 20
-108.2523071018432
 30
0.0
 10
64.65617402897485
 20
-108.525158664275
 30
0.0
 10
64.65617402897485
 20
-108.753568494947
 30
0.0
 10
64.54420842570423
 20
-108.8531317544708
 30
0.0
 10
64.2472411948757
 20
-109.0794745278517
 30
0.0
  0
HATCH
  5
161
330
15C
100
AcDbEntity
  8
_U+30EC_U+30A4_U+30E4_U+30FC 1
 62
   179
420
  2234388
100
AcDbHatch
 10
0.0
 20
0.0
 30
0.0
210
0.0
220
0.0
230
1.0
  2
SOLID
 70
     1
 71
     0
 91
        1
 92
        1
 93
        1
 72
     4
 94
        3
 73
     0
 74
     1
 95
       44
 96
       40
 40
0.0
 40
0.0
 40
0.0
 40
0.0
 40
1.0
 40
1.0
 40
1.0
 40
2.0
 40
2.0
 40
2.0
 40
3.0
 40
3.0
 40
3.0
 40
4.0
 40
4.0
 40
4.0
 40
5.0
 40
5.0
 40
5.0
 40
6.0
 40
6.0
 40
6.0
 40
7.0
 40
7.0
 40
7.0
 40
8.0
 40
8.0
 40
8.0
 40
9.0
 40
9.0
 40
9.0
 40
10.0
 40
10.0
 40
10.0
 40
11.0
 40
11.0
 40
11.0
 40
12.0
 40
12.0
 40
12.0
 40
13.0
 40
13.0
 40
13.0
 40
13.0
 10
64.2472411948757
 20
-109.0794745278517
 10
64.03760713459825
 20
-109.2381211749474
 10
63.94803465198174
 20
-109.3121907278803
 10
63.90135360815661
 20
-109.4560234643895
 10
63.90135360815661
 20
-109.4560234643895
 10
64.6499728571014
 20
-109.4560234643895
 10
64.6499728571014
 20
-109.4560234643895
 10
64.6499728571014
 20
-109.4560234643895
 10
64.6499728571014
 20
-109.6611789005361
 10
64.6499728571014
 20
-109.6611789005361
 10
64.6499728571014
 20
-109.6611789005361
 10
63.66123045283469
 20
-109.6611789005361
 10
63.66123045283469
 20
-109.6611789005361
 10
63.69171954787916
 20
-109.3035779891672
 10
63.75476479525923
 20
-109.225374321652
 10
64.12511255992358
 20
-108.9270290526294
 10
64.37126463234469
 20
-108.7282470431304
 10
64.43430987972476
 20
-108.6605509168453
 10
64.43430987972476
 20
-108.5230916069838
 10
64.43430987972476
 20
-108.4045803222912
 10
64.3652357152455
 20
-108.2734944390775
 10
64.17592771833102
 20
-108.2734944390775
 10
63.92564153132762
 20
-108.2734944390775
 10
63.91754555693728
 20
-108.5039713270407
 10
63.91341144235498
 20
-108.6204155544421
 10
63.91341144235498
 20
-108.6204155544421
 10
63.69774846497835
 20
-108.6204155544421
 10
63.69774846497835
 20
-108.6204155544421
 10
63.70601669414295
 20
-108.4934637858107
 10
63.71617972582443
 20
-108.3813259277658
 10
63.79334986469403
 20
-108.2628146430732
 10
63.89928655086546
 20
-108.1021009386863
 10
64.07825926132419
 20
-108.0681667481566
 10
64.19022486459481
 20
-108.0681667481566
 10
64.45670300037888
 20
-108.0681667481566
 10
64.65617402897485
 20
-108.2523071018432
 10
64.65617402897485
 20
-108.525158664275
 10
64.65617402897485
 20
-108.753568494947
 10
64.54420842570423
 20
-108.8531317544708
 10
64.2472411948757
 20
-109.0794745278517
 97
        0
 97
        0
 75
     2
 76
     1
 98
        0
  0
SPLINE
  5
162
330
15C
100
AcDbEntity
  8
_U+30EC_U+30A4_U+30E4_U+30FC 1
370
     0
100
AcDbSpline
210
0.0
220
0.0
230
1.0
 70
    11
 71
     3
 72
    62
 73
    58
 74
     0
 42
0.0000000001
 43
0.0000000001
 12
1.0
 22
0.0
 32
0.0
 13
1.0
 23
0.0
 33
0.0
 40
0.0
 40
0.0
 40
0.0
 40
0.0
 40
1.0
 40
1.0
 40
1.0
 40
2.0
 40
2.0
 40
2.0
 40
3.0
 40
3.0
 40
3.0
 40
4.0
 40
4.0
 40
4.0
 40
5.0
 40
5.0
 40
5.0
 40
6.0
 40
6.0
 40
6.0
 40
7.0
 40
7.0
 40
7.0
 40
8.0
 40
8.0
 40
8.0
 40
9.0
 40
9.0
 40
9.0
 40
10.0
 40
10.0
 40
10.0
 40
11.0
 40
11.0
 40
11.0
 40
12.0
 40
12.0
 40
12.0
 40
13.0
 40
13.0
 40
13.0
 40
14.0
 40
14.0
 40
14.0
 40
15.0
 40
15.0
 40
15.0
 40
16.0
 40
16.0
 40
16.0
 40
17.0
 40
17.0
 40
17.0
 40
18.0
 40
18.0
 40
18.0
 40
19.0
 40
19.0
 40
19.0
 40
19.0
 10
65.28076984045065
 20
-109.7119940589435
 30
0.0
 10
65.189130300543
 20
-109.7119940589435
 30
0.0
 10
64.97949624026555
 20
-109.6908067217093
 30
0.0
 10
64.85943466260458
 20
-109.5045993107315
 30
0.0
 10
64.78829344083418
 20
-109.3924614526866
 30
0.0
 10
64.78415932625188
 20
-109.2930704479372
 30
0.0
 10
64.78019746644384
 20
-109.2084933537743
 30
0.0
 10
64.78019746644384
 20
-109.2084933537743
 30
0.0
 10
64.99172632923818
 20
-109.2084933537743
 30
0.0
 10
64.99172632923818
 20
-109.2084933537743
 30
0.0
 10
64.99379338652933
 20
-109.2825629067071
 30
0.0
 10
65.00395641821082
 20
-109.5173461640269
 30
0.0
 10
65.27663572586835
 20
-109.5173461640269
 30
0.0
 10
65.40892739250194
 20
-109.5173461640269
 30
0.0
 10
65.55534395062506
 20
-109.4475829804506
 30
0.0
 10
65.55534395062506
 20
-109.2190008950043
 30
0.0
 10
65.55534395062506
 20
-109.1027289223771
 30
0.0
 10
65.51882593848141
 20
-109.0539808212608
 30
0.0
 10
65.48816458866268
 20
-109.0222859427965
 30
0.0
 10
65.41702336689228
 20
-108.9482163898636
 30
0.0
 10
65.30505776362166
 20
-108.9356417913425
 30
0.0
 10
65.25217554792307
 20
-108.9356417913425
 30
0.0
 10
65.23391654185124
 20
-108.9356417913425
 30
0.0
 10
65.19929333222449
 20
-108.9377088486336
 30
0.0
 10
65.17293835176233
 20
-108.9418429632159
 30
0.0
 10
65.17293835176233
 20
-108.9418429632159
 30
0.0
 10
65.17293835176233
 20
-108.7471950682993
 30
0.0
 10
65.17293835176233
 20
-108.7471950682993
 30
0.0
 10
65.20945636390597
 20
-108.753568494947
 30
0.0
 10
65.25010849063192
 20
-108.7558078070124
 30
0.0
 10
65.25630966250537
 20
-108.7558078070124
 30
0.0
 10
65.31935490988545
 20
-108.7558078070124
 30
0.0
 10
65.51055770931681
 20
-108.7346204697782
 30
0.0
 10
65.51055770931681
 20
-108.497597900393
 30
0.0
 10
65.51055770931681
 20
-108.3200032281283
 30
0.0
 10
65.38446721455666
 20
-108.2648817003643
 30
0.0
 10
65.27870278315949
 20
-108.2648817003643
 30
0.0
 10
65.02428248157379
 20
-108.2648817003643
 30
0.0
 10
65.01618650718346
 20
-108.497597900393
 30
0.0
 10
65.01205239260116
 20
-108.5696003960347
 30
0.0
 10
65.01205239260116
 20
-108.5696003960347
 30
0.0
 10
64.8167154785875
 20
-108.5696003960347
 30
0.0
 10
64.8167154785875
 20
-108.5696003960347
 30
0.0
 10
64.8249837077521
 20
-108.4447156846944
 30
0.0
 10
64.85133868821426
 20
-108.0681667481566
 30
0.0
 10
65.29093287213213
 20
-108.0681667481566
 30
0.0
 10
65.50659584950877
 20
-108.0681667481566
 30
0.0
 10
65.73845077566608
 20
-108.195118516788
 30
0.0
 10
65.73845077566608
 20
-108.4912244737452
 30
0.0
 10
65.73845077566608
 20
-108.677431884723
 30
0.0
 10
65.6469834905327
 20
-108.7599419215947
 30
0.0
 10
65.55138209081701
 20
-108.8212646212322
 30
0.0
 10
65.61029322361479
 20
-108.8488253851142
 30
0.0
 10
65.78530407426548
 20
-108.9292683646948
 30
0.0
 10
65.78530407426548
 20
-109.2064262964831
 30
0.0
 10
65.78530407426548
 20
-109.5449069279089
 30
0.0
 10
65.54724797623471
 20
-109.7119940589435
 30
0.0
 10
65.28076984045065
 20
-109.7119940589435
 30
0.0
  0
HATCH
  5
163
330
15C
100
AcDbEntity
  8
_U+30EC_U+30A4_U+30E4_U+30FC 1
 62
   179
420
  2234388
100
AcDbHatch
 10
0.0
 20
0.0
 30
0.0
210
0.0
220
0.0
230
1.0
  2
SOLID
 70
     1
 71
     0
 91
        1
 92
        1
 93
        1
 72
     4
 94
        3
 73
     0
 74
     1
 95
       62
 96
       58
 40
0.0
 40
0.0
 40
0.0
 40
0.0
 40
1.0
 40
1.0
 40
1.0
 40
2.0
 40
2.0
 40
2.0
 40
3.0
 40
3.0
 40
3.0
 40
4.0
 40
4.0
 40
4.0
 40
5.0
 40
5.0
 40
5.0
 40
6.0
 40
6.0
 40
6.0
 40
7.0
 40
7.0
 40
7.0
 40
8.0
 40
8.0
 40
8.0
 40
9.0
 40
9.0
 40
9.0
 40
10.0
 40
10.0
 40
10.0
 40
11.0
 40
11.0
 40
11.0
 40
12.0
 40
12.0
 40
12.0
 40
13.0
 40
13.0
 40
13.0
 40
14.0
 40
14.0
 40
14.0
 40
15.0
 40
15.0
 40
15.0
 40
16.0
 40
16.0
 40
16.0
 40
17.0
 40
17.0
 40
17.0
 40
18.0
 40
18.0
 40
18.0
 40
19.0
 40
19.0
 40
19.0
 40
19.0
 10
65.28076984045065
 20
-109.7119940589435
 10
65.189130300543
 20
-109.7119940589435
 10
64.97949624026555
 20
-109.6908067217093
 10
64.85943466260458
 20
-109.5045993107315
 10
64.78829344083418
 20
-109.3924614526866
 10
64.78415932625188
 20
-109.2930704479372
 10
64.78019746644384
 20
-109.2084933537743
 10
64.78019746644384
 20
-109.2084933537743
 10
64.99172632923818
 20
-109.2084933537743
 10
64.99172632923818
 20
-109.2084933537743
 10
64.99379338652933
 20
-109.2825629067071
 10
65.00395641821082
 20
-109.5173461640269
 10
65.27663572586835
 20
-109.5173461640269
 10
65.40892739250194
 20
-109.5173461640269
 10
65.55534395062506
 20
-109.4475829804506
 10
65.55534395062506
 20
-109.2190008950043
 10
65.55534395062506
 20
-109.1027289223771
 10
65.51882593848141
 20
-109.0539808212608
 10
65.48816458866268
 20
-109.0222859427965
 10
65.41702336689228
 20
-108.9482163898636
 10
65.30505776362166
 20
-108.9356417913425
 10
65.25217554792307
 20
-108.9356417913425
 10
65.23391654185124
 20
-108.9356417913425
 10
65.19929333222449
 20
-108.9377088486336
 10
65.17293835176233
 20
-108.9418429632159
 10
65.17293835176233
 20
-108.9418429632159
 10
65.17293835176233
 20
-108.7471950682993
 10
65.17293835176233
 20
-108.7471950682993
 10
65.20945636390597
 20
-108.753568494947
 10
65.25010849063192
 20
-108.7558078070124
 10
65.25630966250537
 20
-108.7558078070124
 10
65.31935490988545
 20
-108.7558078070124
 10
65.51055770931681
 20
-108.7346204697782
 10
65.51055770931681
 20
-108.497597900393
 10
65.51055770931681
 20
-108.3200032281283
 10
65.38446721455666
 20
-108.2648817003643
 10
65.27870278315949
 20
-108.2648817003643
 10
65.02428248157379
 20
-108.2648817003643
 10
65.01618650718346
 20
-108.497597900393
 10
65.01205239260116
 20
-108.5696003960347
 10
65.01205239260116
 20
-108.5696003960347
 10
64.8167154785875
 20
-108.5696003960347
 10
64.8167154785875
 20
-108.5696003960347
 10
64.8249837077521
 20
-108.4447156846944
 10
64.85133868821426
 20
-108.0681667481566
 10
65.29093287213213
 20
-108.0681667481566
 10
65.50659584950877
 20
-108.0681667481566
 10
65.73845077566608
 20
-108.195118516788
 10
65.73845077566608
 20
-108.4912244737452
 10
65.73845077566608
 20
-108.677431884723
 10
65.6469834905327
 20
-108.7599419215947
 10
65.55138209081701
 20
-108.8212646212322
 10
65.61029322361479
 20
-108.8488253851142
 10
65.78530407426548
 20
-108.9292683646948
 10
65.78530407426548
 20
-109.2064262964831
 10
65.78530407426548
 20
-109.5449069279089
 10
65.54724797623471
 20
-109.7119940589435
 10
65.28076984045065
 20
-109.7119940589435
 97
        0
 97
        0
 75
     2
 76
     1
 98
        0
  0
ENDBLK
  5
15F
330
15C
100
AcDbEntity
  8
0
100
AcDbBlockEnd
  0
BLOCK
  5
172
330
170
100
AcDbEntity
  8
0
100
AcDbBlockBegin
  2
block 6
 70
     0
 10
0.0
 20
0.0
 30
0.0
  3
block 6
  1

  0
SPLINE
  5
174
330
170
100
AcDbEntity
  8
_U+30EC_U+30A4_U+30E4_U+30FC 1
370
     0
100
AcDbSpline
210
0.0
220
0.0
230
1.0
 70
    11
 71
     3
 72
    26
 73
    22
 74
     0
 42
0.0000000001
 43
0.0000000001
 12
1.0
 22
0.0
 32
0.0
 13
1.0
 23
0.0
 33
0.0
 40
0.0
 40
0.0
 40
0.0
 40
0.0
 40
1.0
 40
1.0
 40
1.0
 40
2.0
 40
2.0
 40
2.0
 40
3.0
 40
3.0
 40
3.0
 40
4.0
 40
4.0
 40
4.0
 40
5.0
 40
5.0
 40
5.0
 40
6.0
 40
6.0
 40
6.0
 40
7.0
 40
7.0
 40
7.0
 40
7.0
 10
48.7481011162852
 20
-122.8438367748446
 30
0.0
 10
48.7481011162852
 20
-122.8438367748446
 30
0.0
 10
47.64377575848837
 20
-122.8438367748446
 30
0.0
 10
47.64377575848837
 20
-122.8438367748446
 30
0.0
 10
47.64377575848837
 20
-122.8438367748446
 30
0.0
 10
47.64377575848837
 20
-123.1611300690361
 30
0.0
 10
47.64377575848837
 20
-123.1611300690361
 30
0.0
 10
47.64377575848837
 20
-123.1611300690361
 30
0.0
 10
47.49563665262262
 20
-123.1611300690361
 30
0.0
 10
47.49563665262262
 20
-123.1611300690361
 30
0.0
 10
47.48099499681031
 20
-122.8417697175534
 30
0.0
 10
47.31804198035799
 20
-122.7969834762452
 30
0.0
 10
47.20383706502196
 20
-122.7683891837176
 30
0.0
 10
47.20383706502196
 20
-122.7683891837176
 30
0.0
 10
47.20383706502196
 20
-122.628173797468
 30
0.0
 10
47.20383706502196
 20
-122.628173797468
 30
0.0
 10
47.20383706502196
 20
-122.628173797468
 30
0.0
 10
48.7481011162852
 20
-122.628173797468
 30
0.0
 10
48.7481011162852
 20
-122.628173797468
 30
0.0
 10
48.7481011162852
 20
-122.628173797468
 30
0.0
 10
48.7481011162852
 20
-122.8438367748446
 30
0.0
 10
48.7481011162852
 20
-122.8438367748446
 30
0.0
  0
HATCH
  5
175
330
170
100
AcDbEntity
  8
_U+30EC_U+30A4_U+30E4_U+30FC 1
 62
   179
420
  2234388
100
AcDbHatch
 10
0.0
 20
0.0
 30
0.0
210
0.0
220
0.0
230
1.0
  2
SOLID
 70
     1
 71
     0
 91
        1
 92
        1
 93
        1
 72
     4
 94
        3
 73
     0
 74
     1
 95
       26
 96
       22
 40
0.0
 40
0.0
 40
0.0
 40
0.0
 40
1.0
 40
1.0
 40
1.0
 40
2.0
 40
2.0
 40
2.0
 40
3.0
 40
3.0
 40
3.0
 40
4.0
 40
4.0
 40
4.0
 40
5.0
 40
5.0
 40
5.0
 40
6.0
 40
6.0
 40
6.0
 40
7.0
 40
7.0
 40
7.0
 40
7.0
 10
48.7481011162852
 20
-122.8438367748446
 10
48.7481011162852
 20
-122.8438367748446
 10
47.64377575848837
 20
-122.8438367748446
 10
47.64377575848837
 20
-122.8438367748446
 10
47.64377575848837
 20
-122.8438367748446
 10
47.64377575848837
 20
-123.1611300690361
 10
47.64377575848837
 20
-123.1611300690361
 10
47.64377575848837
 20
-123.1611300690361
 10
47.49563665262262
 20
-123.1611300690361
 10
47.49563665262262
 20
-123.1611300690361
 10
47.48099499681031
 20
-122.8417697175534
 10
47.31804198035799
 20
-122.7969834762452
 10
47.20383706502196
 20
-122.7683891837176
 10
47.20383706502196
 20
-122.7683891837176
 10
47.20383706502196
 20
-122.628173797468
 10
47.20383706502196
 20
-122.628173797468
 10
47.20383706502196
 20
-122.628173797468
 10
48.7481011162852
 20
-122.628173797468
 10
48.7481011162852
 20
-122.628173797468
 10
48.7481011162852
 20
-122.628173797468
 10
48.7481011162852
 20
-122.8438367748446
 10
48.7481011162852
 20
-122.8438367748446
 97
        0
 97
        0
 75
     2
 76
     1
 98
        0
  0
SPLINE
  5
176
330
170
100
AcDbEntity
  8
_U+30EC_U+30A4_U+30E4_U+30FC 1
370
     0
100
AcDbSpline
210
0.0
220
0.0
230
1.0
 70
    11
 71
     3
 72
    62
 73
    58
 74
     0
 42
0.0000000001
 43
0.0000000001
 12
1.0
 22
0.0
 32
0.0
 13
1.0
 23
0.0
 33
0.0
 40
0.0
 40
0.0
 40
0.0
 40
0.0
 40
1.0
 40
1.0
 40
1.0
 40
2.0
 40
2.0
 40
2.0
 40
3.0
 40
3.0
 40
3.0
 40
4.0
 40
4.0
 40
4.0
 40
5.0
 40
5.0
 40
5.0
 40
6.0
 40
6.0
 40
6.0
 40
7.0
 40
7.0
 40
7.0
 40
8.0
 40
8.0
 40
8.0
 40
9.0
 40
9.0
 40
9.0
 40
10.0
 40
10.0
 40
10.0
 40
11.0
 40
11.0
 40
11.0
 40
12.0
 40
12.0
 40
12.0
 40
13.0
 40
13.0
 40
13.0
 40
14.0
 40
14.0
 40
14.0
 40
15.0
 40
15.0
 40
15.0
 40
16.0
 40
16.0
 40
16.0
 40
17.0
 40
17.0
 40
17.0
 40
18.0
 40
18.0
 40
18.0
 40
19.0
 40
19.0
 40
19.0
 40
19.0
 10
48.79891627469264
 20
-121.6742268576023
 30
0.0
 10
48.79891627469264
 20
-121.7655218879614
 30
0.0
 10
48.77772893745835
 20
-121.9753282030131
 30
0.0
 10
48.59152152648059
 20
-122.0952175258998
 30
0.0
 10
48.47938366843571
 20
-122.1665310024445
 30
0.0
 10
48.37999266368625
 20
-122.1706651170268
 30
0.0
 10
48.29541556952337
 20
-122.1747992316091
 30
0.0
 10
48.29541556952337
 20
-122.1747992316091
 30
0.0
 10
48.29541556952337
 20
-121.9629258592662
 30
0.0
 10
48.29541556952337
 20
-121.9629258592662
 30
0.0
 10
48.36948512245624
 20
-121.9608588019751
 30
0.0
 10
48.60426837977602
 20
-121.9508680250678
 30
0.0
 10
48.60426837977602
 20
-121.6780164626361
 30
0.0
 10
48.60426837977602
 20
-121.546069305551
 30
0.0
 10
48.53450519619971
 20
-121.3993082378793
 30
0.0
 10
48.30592311075338
 20
-121.3993082378793
 30
0.0
 10
48.1896511381262
 20
-121.3993082378793
 30
0.0
 10
48.14090303700991
 20
-121.4361707595715
 30
0.0
 10
48.10920815854562
 20
-121.4664875998417
 30
0.0
 10
48.03513860561274
 20
-121.5378010763864
 30
0.0
 10
48.02256400709158
 20
-121.649766679657
 30
0.0
 10
48.02256400709158
 20
-121.7024766405813
 30
0.0
 10
48.02256400709158
 20
-121.7210801562017
 30
0.0
 10
48.02463106438273
 20
-121.7555311110542
 30
0.0
 10
48.02876517896503
 20
-121.7820583462906
 30
0.0
 10
48.02876517896503
 20
-121.7820583462906
 30
0.0
 10
47.83428953882268
 20
-121.7820583462906
 30
0.0
 10
47.83428953882268
 20
-121.7820583462906
 30
0.0
 10
47.84049071069613
 20
-121.7451958245984
 30
0.0
 10
47.84273002276154
 20
-121.7045436978725
 30
0.0
 10
47.84273002276154
 20
-121.6986870355476
 30
0.0
 10
47.84273002276154
 20
-121.635297278619
 30
0.0
 10
47.82154268552726
 20
-121.4440944791876
 30
0.0
 10
47.58452011614207
 20
-121.4440944791876
 30
0.0
 10
47.40692544387744
 20
-121.4440944791876
 30
0.0
 10
47.35180391611344
 20
-121.5701849739477
 30
0.0
 10
47.35180391611344
 20
-121.6762939148934
 30
0.0
 10
47.35180391611344
 20
-121.9305419617049
 30
0.0
 10
47.58452011614207
 20
-121.9384656813209
 30
0.0
 10
47.65652261178379
 20
-121.9425997959032
 30
0.0
 10
47.65652261178379
 20
-121.9425997959032
 30
0.0
 10
47.65652261178379
 20
-122.1379367099169
 30
0.0
 10
47.65652261178379
 20
-122.1379367099169
 30
0.0
 10
47.53163790044349
 20
-122.1300129903008
 30
0.0
 10
47.15508896390568
 20
-122.1034857550644
 30
0.0
 10
47.15508896390568
 20
-121.6638915711465
 30
0.0
 10
47.15508896390568
 20
-121.4482285937699
 30
0.0
 10
47.28204073253713
 20
-121.2163736676126
 30
0.0
 10
47.57814668949435
 20
-121.2163736676126
 30
0.0
 10
47.76435410047211
 20
-121.2163736676126
 30
0.0
 10
47.84686413734384
 20
-121.3080132075202
 30
0.0
 10
47.90818683698129
 20
-121.4034423524616
 30
0.0
 10
47.93574760086329
 20
-121.3445312196639
 30
0.0
 10
48.01619058044387
 20
-121.1695203690132
 30
0.0
 10
48.29334851223222
 20
-121.1695203690132
 30
0.0
 10
48.63182914365802
 20
-121.1695203690132
 30
0.0
 10
48.79891627469264
 20
-121.4075764670439
 30
0.0
 10
48.79891627469264
 20
-121.6742268576023
 30
0.0
  0
HATCH
  5
177
330
170
100
AcDbEntity
  8
_U+30EC_U+30A4_U+30E4_U+30FC 1
 62
   179
420
  2234388
100
AcDbHatch
 10
0.0
 20
0.0
 30
0.0
210
0.0
220
0.0
230
1.0
  2
SOLID
 70
     1
 71
     0
 91
        1
 92
        1
 93
        1
 72
     4
 94
        3
 73
     0
 74
     1
 95
       62
 96
       58
 40
0.0
 40
0.0
 40
0.0
 40
0.0
 40
1.0
 40
1.0
 40
1.0
 40
2.0
 40
2.0
 40
2.0
 40
3.0
 40
3.0
 40
3.0
 40
4.0
 40
4.0
 40
4.0
 40
5.0
 40
5.0
 40
5.0
 40
6.0
 40
6.0
 40
6.0
 40
7.0
 40
7.0
 40
7.0
 40
8.0
 40
8.0
 40
8.0
 40
9.0
 40
9.0
 40
9.0
 40
10.0
 40
10.0
 40
10.0
 40
11.0
 40
11.0
 40
11.0
 40
12.0
 40
12.0
 40
12.0
 40
13.0
 40
13.0
 40
13.0
 40
14.0
 40
14.0
 40
14.0
 40
15.0
 40
15.0
 40
15.0
 40
16.0
 40
16.0
 40
16.0
 40
17.0
 40
17.0
 40
17.0
 40
18.0
 40
18.0
 40
18.0
 40
19.0
 40
19.0
 40
19.0
 40
19.0
 10
48.79891627469264
 20
-121.6742268576023
 10
48.79891627469264
 20
-121.7655218879614
 10
48.77772893745835
 20
-121.9753282030131
 10
48.59152152648059
 20
-122.0952175258998
 10
48.47938366843571
 20
-122.1665310024445
 10
48.37999266368625
 20
-122.1706651170268
 10
48.29541556952337
 20
-122.1747992316091
 10
48.29541556952337
 20
-122.1747992316091
 10
48.29541556952337
 20
-121.9629258592662
 10
48.29541556952337
 20
-121.9629258592662
 10
48.36948512245624
 20
-121.9608588019751
 10
48.60426837977602
 20
-121.9508680250678
 10
48.60426837977602
 20
-121.6780164626361
 10
48.60426837977602
 20
-121.546069305551
 10
48.53450519619971
 20
-121.3993082378793
 10
48.30592311075338
 20
-121.3993082378793
 10
48.1896511381262
 20
-121.3993082378793
 10
48.14090303700991
 20
-121.4361707595715
 10
48.10920815854562
 20
-121.4664875998417
 10
48.03513860561274
 20
-121.5378010763864
 10
48.02256400709158
 20
-121.649766679657
 10
48.02256400709158
 20
-121.7024766405813
 10
48.02256400709158
 20
-121.7210801562017
 10
48.02463106438273
 20
-121.7555311110542
 10
48.02876517896503
 20
-121.7820583462906
 10
48.02876517896503
 20
-121.7820583462906
 10
47.83428953882268
 20
-121.7820583462906
 10
47.83428953882268
 20
-121.7820583462906
 10
47.84049071069613
 20
-121.7451958245984
 10
47.84273002276154
 20
-121.7045436978725
 10
47.84273002276154
 20
-121.6986870355476
 10
47.84273002276154
 20
-121.635297278619
 10
47.82154268552726
 20
-121.4440944791876
 10
47.58452011614207
 20
-121.4440944791876
 10
47.40692544387744
 20
-121.4440944791876
 10
47.35180391611344
 20
-121.5701849739477
 10
47.35180391611344
 20
-121.6762939148934
 10
47.35180391611344
 20
-121.9305419617049
 10
47.58452011614207
 20
-121.9384656813209
 10
47.65652261178379
 20
-121.9425997959032
 10
47.65652261178379
 20
-121.9425997959032
 10
47.65652261178379
 20
-122.1379367099169
 10
47.65652261178379
 20
-122.1379367099169
 10
47.53163790044349
 20
-122.1300129903008
 10
47.15508896390568
 20
-122.1034857550644
 10
47.15508896390568
 20
-121.6638915711465
 10
47.15508896390568
 20
-121.4482285937699
 10
47.28204073253713
 20
-121.2163736676126
 10
47.57814668949435
 20
-121.2163736676126
 10
47.76435410047211
 20
-121.2163736676126
 10
47.84686413734384
 20
-121.3080132075202
 10
47.90818683698129
 20
-121.4034423524616
 10
47.93574760086329
 20
-121.3445312196639
 10
48.01619058044387
 20
-121.1695203690132
 10
48.29334851223222
 20
-121.1695203690132
 10
48.63182914365802
 20
-121.1695203690132
 10
48.79891627469264
 20
-121.4075764670439
 10
48.79891627469264
 20
-121.6742268576023
 97
        0
 97
        0
 75
     2
 76
     1
 98
        0
  0
ENDBLK
  5
173
330
170
100
AcDbEntity
  8
0
100
AcDbBlockEnd
  0
BLOCK
  5
17C
330
17A
100
AcDbEntity
  8
0
100
AcDbBlockBegin
  2
block 7
 70
     0
 10
0.0
 20
0.0
 30
0.0
  3
block 7
  1

  0
SPLINE
  5
17E
330
17A
100
AcDbEntity
  8
_U+30EC_U+30A4_U+30E4_U+30FC 1
370
     0
100
AcDbSpline
210
0.0
220
0.0
230
1.0
 70
    11
 71
     3
 72
    62
 73
    58
 74
     0
 42
0.0000000001
 43
0.0000000001
 12
1.0
 22
0.0
 32
0.0
 13
1.0
 23
0.0
 33
0.0
 40
0.0
 40
0.0
 40
0.0
 40
0.0
 40
1.0
 40
1.0
 40
1.0
 40
2.0
 40
2.0
 40
2.0
 40
3.0
 40
3.0
 40
3.0
 40
4.0
 40
4.0
 40
4.0
 40
5.0
 40
5.0
 40
5.0
 40
6.0
 40
6.0
 40
6.0
 40
7.0
 40
7.0
 40
7.0
 40
8.0
 40
8.0
 40
8.0
 40
9.0
 40
9.0
 40
9.0
 40
10.0
 40
10.0
 40
10.0
 40
11.0
 40
11.0
 40
11.0
 40
12.0
 40
12.0
 40
12.0
 40
13.0
 40
13.0
 40
13.0
 40
14.0
 40
14.0
 40
14.0
 40
15.0
 40
15.0
 40
15.0
 40
16.0
 40
16.0
 40
16.0
 40
17.0
 40
17.0
 40
17.0
 40
18.0
 40
18.0
 40
18.0
 40
19.0
 40
19.0
 40
19.0
 40
19.0
 10
93.05134003750106
 20
-127.5388129021431
 30
0.0
 10
92.95970049759342
 20
-127.5388129021431
 30
0.0
 10
92.75023869209022
 20
-127.5177978196831
 30
0.0
 10
92.630004859655
 20
-127.3317626634796
 30
0.0
 10
92.55903589265886
 20
-127.2194525506604
 30
0.0
 10
92.55490177807656
 20
-127.120061545911
 30
0.0
 10
92.55076766349426
 20
-127.0354844517481
 30
0.0
 10
92.55076766349426
 20
-127.0354844517481
 30
0.0
 10
92.7622965262886
 20
-127.0354844517481
 30
0.0
 10
92.7622965262886
 20
-127.0354844517481
 30
0.0
 10
92.76436358357975
 20
-127.1095540046809
 30
0.0
 10
92.7746988700355
 20
-127.3441650072265
 30
0.0
 10
93.04720592291876
 20
-127.3441650072265
 30
0.0
 10
93.17949758955235
 20
-127.3441650072265
 30
0.0
 10
93.32591414767548
 20
-127.2745740784244
 30
0.0
 10
93.32591414767548
 20
-127.0459919929781
 30
0.0
 10
93.32591414767548
 20
-126.9297200203509
 30
0.0
 10
93.28939613553182
 20
-126.8809719192346
 30
0.0
 10
93.25907929526163
 20
-126.8492770407703
 30
0.0
 10
93.18776581871695
 20
-126.7752074878374
 30
0.0
 10
93.07580021544634
 20
-126.7626328893163
 30
0.0
 10
93.02274574497349
 20
-126.7626328893163
 30
0.0
 10
93.00448673890166
 20
-126.7626328893163
 30
0.0
 10
92.97003578404916
 20
-126.7646999466074
 30
0.0
 10
92.94350854881274
 20
-126.7688340611897
 30
0.0
 10
92.94350854881274
 20
-126.7688340611897
 30
0.0
 10
92.94350854881274
 20
-126.5741861662731
 30
0.0
 10
92.94350854881274
 20
-126.5741861662731
 30
0.0
 10
92.98002656095639
 20
-126.5805595929208
 30
0.0
 10
93.02067868768233
 20
-126.5827989049862
 30
0.0
 10
93.02687985955579
 20
-126.5827989049862
 30
0.0
 10
93.08992510693585
 20
-126.5827989049862
 30
0.0
 10
93.28112790636722
 20
-126.561611567752
 30
0.0
 10
93.28112790636722
 20
-126.3245889983668
 30
0.0
 10
93.28112790636722
 20
-126.1469943261021
 30
0.0
 10
93.15503741160708
 20
-126.0918727983381
 30
0.0
 10
93.0492729802099
 20
-126.0918727983381
 30
0.0
 10
92.79502493339847
 20
-126.0918727983381
 30
0.0
 10
92.78675670423387
 20
-126.3245889983668
 30
0.0
 10
92.78262258965157
 20
-126.3965914940085
 30
0.0
 10
92.78262258965157
 20
-126.3965914940085
 30
0.0
 10
92.5872856756379
 20
-126.3965914940085
 30
0.0
 10
92.5872856756379
 20
-126.3965914940085
 30
0.0
 10
92.5955539048025
 20
-126.2717067826682
 30
0.0
 10
92.62208114003893
 20
-125.8951578461304
 30
0.0
 10
93.0616753239568
 20
-125.8951578461304
 30
0.0
 10
93.27733830133344
 20
-125.8951578461304
 30
0.0
 10
93.50919322749075
 20
-126.0221096147618
 30
0.0
 10
93.50919322749075
 20
-126.3182155717191
 30
0.0
 10
93.50919322749075
 20
-126.5044229826968
 30
0.0
 10
93.41755368758312
 20
-126.5869330195685
 30
0.0
 10
93.32212454264169
 20
-126.648255719206
 30
0.0
 10
93.38103567543946
 20
-126.675816483088
 30
0.0
 10
93.55604652609016
 20
-126.7562594626686
 30
0.0
 10
93.55604652609016
 20
-127.0334173944569
 30
0.0
 10
93.55604652609016
 20
-127.3717257711085
 30
0.0
 10
93.31799042805939
 20
-127.5388129021431
 30
0.0
 10
93.05134003750106
 20
-127.5388129021431
 30
0.0
  0
HATCH
  5
17F
330
17A
100
AcDbEntity
  8
_U+30EC_U+30A4_U+30E4_U+30FC 1
 62
   179
420
  2234388
100
AcDbHatch
 10
0.0
 20
0.0
 30
0.0
210
0.0
220
0.0
230
1.0
  2
SOLID
 70
     1
 71
     0
 91
        1
 92
        1
 93
        1
 72
     4
 94
        3
 73
     0
 74
     1
 95
       62
 96
       58
 40
0.0
 40
0.0
 40
0.0
 40
0.0
 40
1.0
 40
1.0
 40
1.0
 40
2.0
 40
2.0
 40
2.0
 40
3.0
 40
3.0
 40
3.0
 40
4.0
 40
4.0
 40
4.0
 40
5.0
 40
5.0
 40
5.0
 40
6.0
 40
6.0
 40
6.0
 40
7.0
 40
7.0
 40
7.0
 40
8.0
 40
8.0
 40
8.0
 40
9.0
 40
9.0
 40
9.0
 40
10.0
 40
10.0
 40
10.0
 40
11.0
 40
11.0
 40
11.0
 40
12.0
 40
12.0
 40
12.0
 40
13.0
 40
13.0
 40
13.0
 40
14.0
 40
14.0
 40
14.0
 40
15.0
 40
15.0
 40
15.0
 40
16.0
 40
16.0
 40
16.0
 40
17.0
 40
17.0
 40
17.0
 40
18.0
 40
18.0
 40
18.0
 40
19.0
 40
19.0
 40
19.0
 40
19.0
 10
93.05134003750106
 20
-127.5388129021431
 10
92.95970049759342
 20
-127.5388129021431
 10
92.75023869209022
 20
-127.5177978196831
 10
92.630004859655
 20
-127.3317626634796
 10
92.55903589265886
 20
-127.2194525506604
 10
92.55490177807656
 20
-127.120061545911
 10
92.55076766349426
 20
-127.0354844517481
 10
92.55076766349426
 20
-127.0354844517481
 10
92.7622965262886
 20
-127.0354844517481
 10
92.7622965262886
 20
-127.0354844517481
 10
92.76436358357975
 20
-127.1095540046809
 10
92.7746988700355
 20
-127.3441650072265
 10
93.04720592291876
 20
-127.3441650072265
 10
93.17949758955235
 20
-127.3441650072265
 10
93.32591414767548
 20
-127.2745740784244
 10
93.32591414767548
 20
-127.0459919929781
 10
93.32591414767548
 20
-126.9297200203509
 10
93.28939613553182
 20
-126.8809719192346
 10
93.25907929526163
 20
-126.8492770407703
 10
93.18776581871695
 20
-126.7752074878374
 10
93.07580021544634
 20
-126.7626328893163
 10
93.02274574497349
 20
-126.7626328893163
 10
93.00448673890166
 20
-126.7626328893163
 10
92.97003578404916
 20
-126.7646999466074
 10
92.94350854881274
 20
-126.7688340611897
 10
92.94350854881274
 20
-126.7688340611897
 10
92.94350854881274
 20
-126.5741861662731
 10
92.94350854881274
 20
-126.5741861662731
 10
92.98002656095639
 20
-126.5805595929208
 10
93.02067868768233
 20
-126.5827989049862
 10
93.02687985955579
 20
-126.5827989049862
 10
93.08992510693585
 20
-126.5827989049862
 10
93.28112790636722
 20
-126.561611567752
 10
93.28112790636722
 20
-126.3245889983668
 10
93.28112790636722
 20
-126.1469943261021
 10
93.15503741160708
 20
-126.0918727983381
 10
93.0492729802099
 20
-126.0918727983381
 10
92.79502493339847
 20
-126.0918727983381
 10
92.78675670423387
 20
-126.3245889983668
 10
92.78262258965157
 20
-126.3965914940085
 10
92.78262258965157
 20
-126.3965914940085
 10
92.5872856756379
 20
-126.3965914940085
 10
92.5872856756379
 20
-126.3965914940085
 10
92.5955539048025
 20
-126.2717067826682
 10
92.62208114003893
 20
-125.8951578461304
 10
93.0616753239568
 20
-125.8951578461304
 10
93.27733830133344
 20
-125.8951578461304
 10
93.50919322749075
 20
-126.0221096147618
 10
93.50919322749075
 20
-126.3182155717191
 10
93.50919322749075
 20
-126.5044229826968
 10
93.41755368758312
 20
-126.5869330195685
 10
93.32212454264169
 20
-126.648255719206
 10
93.38103567543946
 20
-126.675816483088
 10
93.55604652609016
 20
-126.7562594626686
 10
93.55604652609016
 20
-127.0334173944569
 10
93.55604652609016
 20
-127.3717257711085
 10
93.31799042805939
 20
-127.5388129021431
 10
93.05134003750106
 20
-127.5388129021431
 97
        0
 97
        0
 75
     2
 76
     1
 98
        0
  0
POLYLINE
  5
180
330
17A
100
AcDbEntity
  8
_U+30EC_U+30A4_U+30E4_U+30FC 1
370
     0
100
AcDb2dPolyline
 66
     1
 10
0.0
 20
0.0
 30
0.0
  0
VERTEX
  5
181
330
180
100
AcDbEntity
  8
_U+30EC_U+30A4_U+30E4_U+30FC 1
370
     0
100
AcDbVertex
100
AcDb2dVertex
 10
93.7675753888845
 20
-127.4881699985099
 30
0.0
  0
VERTEX
  5
182
330
180
100
AcDbEntity
  8
_U+30EC_U+30A4_U+30E4_U+30FC 1
370
     0
100
AcDbVertex
100
AcDb2dVertex
 10
93.7675753888845
 20
-127.2365057733124
 30
0.0
  0
VERTEX
  5
183
330
180
100
AcDbEntity
  8
_U+30EC_U+30A4_U+30E4_U+30FC 1
370
     0
100
AcDbVertex
100
AcDb2dVertex
 10
94.00976560149756
 20
-127.2365057733124
 30
0.0
  0
VERTEX
  5
184
330
180
100
AcDbEntity
  8
_U+30EC_U+30A4_U+30E4_U+30FC 1
370
     0
100
AcDbVertex
100
AcDb2dVertex
 10
94.00976560149756
 20
-127.4881699985099
 30
0.0
  0
VERTEX
  5
185
330
180
100
AcDbEntity
  8
_U+30EC_U+30A4_U+30E4_U+30FC 1
370
     0
100
AcDbVertex
100
AcDb2dVertex
 10
93.7675753888845
 20
-127.4881699985099
 30
0.0
  0
SEQEND
  5
186
330
180
100
AcDbEntity
  8
_U+30EC_U+30A4_U+30E4_U+30FC 1
370
     0
  0
HATCH
  5
187
330
17A
100
AcDbEntity
  8
_U+30EC_U+30A4_U+30E4_U+30FC 1
 62
   179
420
  2234388
100
AcDbHatch
 10
0.0
 20
0.0
 30
0.0
210
0.0
220
0.0
230
1.0
  2
SOLID
 70
     1
 71
     0
 91
        1
 92
        1
 93
        4
 72
     1
 10
93.7675753888845
 20
-127.4881699985099
 11
93.7675753888845
 21
-127.2365057733124
 72
     1
 10
93.7675753888845
 20
-127.2365057733124
 11
94.00976560149756
 21
-127.2365057733124
 72
     1
 10
94.00976560149756
 20
-127.2365057733124
 11
94.00976560149756
 21
-127.4881699985099
 72
     1
 10
94.00976560149756
 20
-127.4881699985099
 11
93.7675753888845
 21
-127.4881699985099
 97
        0
 75
     2
 76
     1
 98
        0
  0
SPLINE
  5
188
330
17A
100
AcDbEntity
  8
_U+30EC_U+30A4_U+30E4_U+30FC 1
370
     0
100
AcDbSpline
210
0.0
220
0.0
230
1.0
 70
    11
 71
     3
 72
    53
 73
    49
 74
     0
 42
0.0000000001
 43
0.0000000001
 12
1.0
 22
0.0
 32
0.0
 13
1.0
 23
0.0
 33
0.0
 40
0.0
 40
0.0
 40
0.0
 40
0.0
 40
1.0
 40
1.0
 40
1.0
 40
2.0
 40
2.0
 40
2.0
 40
3.0
 40
3.0
 40
3.0
 40
4.0
 40
4.0
 40
4.0
 40
5.0
 40
5.0
 40
5.0
 40
6.0
 40
6.0
 40
6.0
 40
7.0
 40
7.0
 40
7.0
 40
8.0
 40
8.0
 40
8.0
 40
9.0
 40
9.0
 40
9.0
 40
10.0
 40
10.0
 40
10.0
 40
11.0
 40
11.0
 40
11.0
 40
12.0
 40
12.0
 40
12.0
 40
13.0
 40
13.0
 40
13.0
 40
14.0
 40
14.0
 40
14.0
 40
15.0
 40
15.0
 40
15.0
 40
16.0
 40
16.0
 40
16.0
 40
16.0
 10
94.69912920809605
 20
-127.5388129021431
 30
0.0
 10
94.6240261265176
 20
-127.5388129021431
 30
0.0
 10
94.52618541473652
 20
-127.5219319342654
 30
0.0
 10
94.42868921250394
 20
-127.4585421773368
 30
0.0
 10
94.26160208146932
 20
-127.3486436313573
 30
0.0
 10
94.24127601810635
 20
-127.2173854933693
 30
0.0
 10
94.22301701203453
 20
-127.1095540046809
 30
0.0
 10
94.22301701203453
 20
-127.1095540046809
 30
0.0
 10
94.43661293212001
 20
-127.1095540046809
 30
0.0
 10
94.43661293212001
 20
-127.1095540046809
 30
0.0
 10
94.48966740259287
 20
-127.3083360141799
 30
0.0
 10
94.6116237827707
 20
-127.337963835353
 30
0.0
 10
94.70119626538721
 20
-127.337963835353
 30
0.0
 10
94.83555498931194
 20
-127.337963835353
 30
0.0
 10
94.98197154743507
 20
-127.2385728306036
 30
0.0
 10
94.98197154743507
 20
-127.0058566305749
 30
0.0
 10
94.98197154743507
 20
-126.7498860360209
 30
0.0
 10
94.80902775407553
 20
-126.6801228524446
 30
0.0
 10
94.69292803622261
 20
-126.6801228524446
 30
0.0
 10
94.66261119595241
 20
-126.6801228524446
 30
0.0
 10
94.52618541473652
 20
-126.6801228524446
 30
0.0
 10
94.44074704670231
 20
-126.8091416783672
 30
0.0
 10
94.44074704670231
 20
-126.8091416783672
 30
0.0
 10
94.27193736792508
 20
-126.790021398424
 30
0.0
 10
94.27193736792508
 20
-126.790021398424
 30
0.0
 10
94.27193736792508
 20
-126.790021398424
 30
0.0
 10
94.38769257622947
 20
-125.9439059472467
 30
0.0
 10
94.38769257622947
 20
-125.9439059472467
 30
0.0
 10
94.38769257622947
 20
-125.9439059472467
 30
0.0
 10
95.13665633472279
 20
-125.9439059472467
 30
0.0
 10
95.13665633472279
 20
-125.9439059472467
 30
0.0
 10
95.13665633472279
 20
-125.9439059472467
 30
0.0
 10
95.13665633472279
 20
-126.1385538421633
 30
0.0
 10
95.13665633472279
 20
-126.1385538421633
 30
0.0
 10
95.13665633472279
 20
-126.1385538421633
 30
0.0
 10
94.54444442080833
 20
-126.1385538421633
 30
0.0
 10
94.54444442080833
 20
-126.1385538421633
 30
0.0
 10
94.54444442080833
 20
-126.1385538421633
 30
0.0
 10
94.48139917342827
 20
-126.561611567752
 30
0.0
 10
94.48139917342827
 20
-126.561611567752
 30
0.0
 10
94.54031030622603
 20
-126.5276773772222
 30
0.0
 10
94.6198920119353
 20
-126.4875420148191
 30
0.0
 10
94.73358016294856
 20
-126.4875420148191
 30
0.0
 10
94.97783743285277
 20
-126.4875420148191
 30
0.0
 10
95.2059027539763
 20
-126.6737494257968
 30
0.0
 10
95.2059027539763
 20
-126.9867363506318
 30
0.0
 10
95.2059027539763
 20
-127.3042018995976
 30
0.0
 10
94.99023977659967
 20
-127.5388129021431
 30
0.0
 10
94.69912920809605
 20
-127.5388129021431
 30
0.0
  0
HATCH
  5
189
330
17A
100
AcDbEntity
  8
_U+30EC_U+30A4_U+30E4_U+30FC 1
 62
   179
420
  2234388
100
AcDbHatch
 10
0.0
 20
0.0
 30
0.0
210
0.0
220
0.0
230
1.0
  2
SOLID
 70
     1
 71
     0
 91
        1
 92
        1
 93
        1
 72
     4
 94
        3
 73
     0
 74
     1
 95
       53
 96
       49
 40
0.0
 40
0.0
 40
0.0
 40
0.0
 40
1.0
 40
1.0
 40
1.0
 40
2.0
 40
2.0
 40
2.0
 40
3.0
 40
3.0
 40
3.0
 40
4.0
 40
4.0
 40
4.0
 40
5.0
 40
5.0
 40
5.0
 40
6.0
 40
6.0
 40
6.0
 40
7.0
 40
7.0
 40
7.0
 40
8.0
 40
8.0
 40
8.0
 40
9.0
 40
9.0
 40
9.0
 40
10.0
 40
10.0
 40
10.0
 40
11.0
 40
11.0
 40
11.0
 40
12.0
 40
12.0
 40
12.0
 40
13.0
 40
13.0
 40
13.0
 40
14.0
 40
14.0
 40
14.0
 40
15.0
 40
15.0
 40
15.0
 40
16.0
 40
16.0
 40
16.0
 40
16.0
 10
94.69912920809605
 20
-127.5388129021431
 10
94.6240261265176
 20
-127.5388129021431
 10
94.52618541473652
 20
-127.5219319342654
 10
94.42868921250394
 20
-127.4585421773368
 10
94.26160208146932
 20
-127.3486436313573
 10
94.24127601810635
 20
-127.2173854933693
 10
94.22301701203453
 20
-127.1095540046809
 10
94.22301701203453
 20
-127.1095540046809
 10
94.43661293212001
 20
-127.1095540046809
 10
94.43661293212001
 20
-127.1095540046809
 10
94.48966740259287
 20
-127.3083360141799
 10
94.6116237827707
 20
-127.337963835353
 10
94.70119626538721
 20
-127.337963835353
 10
94.83555498931194
 20
-127.337963835353
 10
94.98197154743507
 20
-127.2385728306036
 10
94.98197154743507
 20
-127.0058566305749
 10
94.98197154743507
 20
-126.7498860360209
 10
94.80902775407553
 20
-126.6801228524446
 10
94.69292803622261
 20
-126.6801228524446
 10
94.66261119595241
 20
-126.6801228524446
 10
94.52618541473652
 20
-126.6801228524446
 10
94.44074704670231
 20
-126.8091416783672
 10
94.44074704670231
 20
-126.8091416783672
 10
94.27193736792508
 20
-126.790021398424
 10
94.27193736792508
 20
-126.790021398424
 10
94.27193736792508
 20
-126.790021398424
 10
94.38769257622947
 20
-125.9439059472467
 10
94.38769257622947
 20
-125.9439059472467
 10
94.38769257622947
 20
-125.9439059472467
 10
95.13665633472279
 20
-125.9439059472467
 10
95.13665633472279
 20
-125.9439059472467
 10
95.13665633472279
 20
-125.9439059472467
 10
95.13665633472279
 20
-126.1385538421633
 10
95.13665633472279
 20
-126.1385538421633
 10
95.13665633472279
 20
-126.1385538421633
 10
94.54444442080833
 20
-126.1385538421633
 10
94.54444442080833
 20
-126.1385538421633
 10
94.54444442080833
 20
-126.1385538421633
 10
94.48139917342827
 20
-126.561611567752
 10
94.48139917342827
 20
-126.561611567752
 10
94.54031030622603
 20
-126.5276773772222
 10
94.6198920119353
 20
-126.4875420148191
 10
94.73358016294856
 20
-126.4875420148191
 10
94.97783743285277
 20
-126.4875420148191
 10
95.2059027539763
 20
-126.6737494257968
 10
95.2059027539763
 20
-126.9867363506318
 10
95.2059027539763
 20
-127.3042018995976
 10
94.99023977659967
 20
-127.5388129021431
 10
94.69912920809605
 20
-127.5388129021431
 97
        0
 97
        0
 75
     2
 76
     1
 98
        0
  0
ENDBLK
  5
17D
330
17A
100
AcDbEntity
  8
0
100
AcDbBlockEnd
  0
BLOCK
  5
196
330
194
100
AcDbEntity
  8
0
100
AcDbBlockBegin
  2
block 8
 70
     0
 10
0.0
 20
0.0
 30
0.0
  3
block 8
  1

  0
SPLINE
  5
198
330
194
100
AcDbEntity
  8
_U+30EC_U+30A4_U+30E4_U+30FC 1
370
     0
100
AcDbSpline
210
0.0
220
0.0
230
1.0
 70
    11
 71
     3
 72
    26
 73
    22
 74
     0
 42
0.0000000001
 43
0.0000000001
 12
1.0
 22
0.0
 32
0.0
 13
1.0
 23
0.0
 33
0.0
 40
0.0
 40
0.0
 40
0.0
 40
0.0
 40
1.0
 40
1.0
 40
1.0
 40
2.0
 40
2.0
 40
2.0
 40
3.0
 40
3.0
 40
3.0
 40
4.0
 40
4.0
 40
4.0
 40
5.0
 40
5.0
 40
5.0
 40
6.0
 40
6.0
 40
6.0
 40
7.0
 40
7.0
 40
7.0
 40
7.0
 10
77.92909340499689
 20
-121.4092990147866
 30
0.0
 10
77.92909340499689
 20
-121.4092990147866
 30
0.0
 10
77.92909340499689
 20
-120.3049736569897
 30
0.0
 10
77.92909340499689
 20
-120.3049736569897
 30
0.0
 10
77.92909340499689
 20
-120.3049736569897
 30
0.0
 10
77.59905325750996
 20
-120.3049736569897
 30
0.0
 10
77.59905325750996
 20
-120.3049736569897
 30
0.0
 10
77.59905325750996
 20
-120.3049736569897
 30
0.0
 10
77.59905325750996
 20
-120.1570068058982
 30
0.0
 10
77.59905325750996
 20
-120.1570068058982
 30
0.0
 10
77.93116046228805
 20
-120.1421928953117
 30
0.0
 10
77.97766925133892
 20
-119.9792398788594
 30
0.0
 10
78.00729707251207
 20
-119.8650349635233
 30
0.0
 10
78.00729707251207
 20
-119.8650349635233
 30
0.0
 10
78.15336912108666
 20
-119.8650349635233
 30
0.0
 10
78.15336912108666
 20
-119.8650349635233
 30
0.0
 10
78.15336912108666
 20
-119.8650349635233
 30
0.0
 10
78.15336912108666
 20
-121.4092990147866
 30
0.0
 10
78.15336912108666
 20
-121.4092990147866
 30
0.0
 10
78.15336912108666
 20
-121.4092990147866
 30
0.0
 10
77.92909340499689
 20
-121.4092990147866
 30
0.0
 10
77.92909340499689
 20
-121.4092990147866
 30
0.0
  0
HATCH
  5
199
330
194
100
AcDbEntity
  8
_U+30EC_U+30A4_U+30E4_U+30FC 1
 62
   179
420
  2234388
100
AcDbHatch
 10
0.0
 20
0.0
 30
0.0
210
0.0
220
0.0
230
1.0
  2
SOLID
 70
     1
 71
     0
 91
        1
 92
        1
 93
        1
 72
     4
 94
        3
 73
     0
 74
     1
 95
       26
 96
       22
 40
0.0
 40
0.0
 40
0.0
 40
0.0
 40
1.0
 40
1.0
 40
1.0
 40
2.0
 40
2.0
 40
2.0
 40
3.0
 40
3.0
 40
3.0
 40
4.0
 40
4.0
 40
4.0
 40
5.0
 40
5.0
 40
5.0
 40
6.0
 40
6.0
 40
6.0
 40
7.0
 40
7.0
 40
7.0
 40
7.0
 10
77.92909340499689
 20
-121.4092990147866
 10
77.92909340499689
 20
-121.4092990147866
 10
77.92909340499689
 20
-120.3049736569897
 10
77.92909340499689
 20
-120.3049736569897
 10
77.92909340499689
 20
-120.3049736569897
 10
77.59905325750996
 20
-120.3049736569897
 10
77.59905325750996
 20
-120.3049736569897
 10
77.59905325750996
 20
-120.3049736569897
 10
77.59905325750996
 20
-120.1570068058982
 10
77.59905325750996
 20
-120.1570068058982
 10
77.93116046228805
 20
-120.1421928953117
 10
77.97766925133892
 20
-119.9792398788594
 10
78.00729707251207
 20
-119.8650349635233
 10
78.00729707251207
 20
-119.8650349635233
 10
78.15336912108666
 20
-119.8650349635233
 10
78.15336912108666
 20
-119.8650349635233
 10
78.15336912108666
 20
-119.8650349635233
 10
78.15336912108666
 20
-121.4092990147866
 10
78.15336912108666
 20
-121.4092990147866
 10
78.15336912108666
 20
-121.4092990147866
 10
77.92909340499689
 20
-121.4092990147866
 10
77.92909340499689
 20
-121.4092990147866
 97
        0
 97
        0
 75
     2
 76
     1
 98
        0
  0
ENDBLK
  5
197
330
194
100
AcDbEntity
  8
0
100
AcDbBlockEnd
  0
ENDSEC
  0
SECTION
  2
ENTITIES
  0
POLYLINE
  5
41
330
1F
100
AcDbEntity
  8
_U+30EC_U+30A4_U+30E4_U+30FC 1
 62
   179
420
  2234388
370
     9
100
AcDb2dPolyline
 66
     1
 10
0.0
 20
0.0
 30
0.0
  0
VERTEX
  5
42
330
41
100
AcDbEntity
  8
_U+30EC_U+30A4_U+30E4_U+30FC 1
 62
   179
420
  2234388
370
     9
100
AcDbVertex
100
AcDb2dVertex
 10
86.49341834892462
 20
-126.4479380239435
 30
0.0
  0
VERTEX
  5
43
330
41
100
AcDbEntity
  8
_U+30EC_U+30A4_U+30E4_U+30FC 1
 62
   179
420
  2234388
370
     9
100
AcDbVertex
100
AcDb2dVertex
 10
85.17050171600836
 20
-126.4479380239435
 30
0.0
  0
SEQEND
  5
44
330
41
100
AcDbEntity
  8
_U+30EC_U+30A4_U+30E4_U+30FC 1
 62
   179
420
  2234388
370
     9
  0
POLYLINE
  5
45
330
1F
100
AcDbEntity
  8
_U+30EC_U+30A4_U+30E4_U+30FC 1
 62
   179
420
  2234388
370
     9
100
AcDb2dPolyline
 66
     1
 10
0.0
 20
0.0
 30
0.0
  0
VERTEX
  5
46
330
45
100
AcDbEntity
  8
_U+30EC_U+30A4_U+30E4_U+30FC 1
 62
   179
420
  2234388
370
     9
100
AcDbVertex
100
AcDb2dVertex
 10
91.78490849170524
 20
-126.4479380239435
 30
0.0
  0
VERTEX
  5
47
330
45
100
AcDbEntity
  8
_U+30EC_U+30A4_U+30E4_U+30FC 1
 62
   179
420
  2234388
370
     9
100
AcDbVertex
100
AcDb2dVertex
 10
90.46216824767338
 20
-126.4479380239435
 30
0.0
  0
SEQEND
  5
48
330
45
100
AcDbEntity
  8
_U+30EC_U+30A4_U+30E4_U+30FC 1
 62
   179
420
  2234388
370
     9
  0
POLYLINE
  5
49
330
1F
100
AcDbEntity
  8
_U+30EC_U+30A4_U+30E4_U+30FC 1
 62
   179
420
  2234388
370
     9
100
AcDb2dPolyline
 66
     1
 10
0.0
 20
0.0
 30
0.0
  0
VERTEX
  5
4A
330
49
100
AcDbEntity
  8
_U+30EC_U+30A4_U+30E4_U+30FC 1
 62
   179
420
  2234388
370
     9
100
AcDbVertex
100
AcDb2dVertex
 10
86.4052239067302
 20
-125.8305769129867
 30
0.0
  0
VERTEX
  5
4B
330
49
100
AcDbEntity
  8
_U+30EC_U+30A4_U+30E4_U+30FC 1
 62
   179
420
  2234388
370
     9
100
AcDbVertex
100
AcDb2dVertex
 10
86.4052239067302
 20
-127.241688023745
 30
0.0
  0
SEQEND
  5
4C
330
49
100
AcDbEntity
  8
_U+30EC_U+30A4_U+30E4_U+30FC 1
 62
   179
420
  2234388
370
     9
  0
POLYLINE
  5
4D
330
1F
100
AcDbEntity
  8
_U+30EC_U+30A4_U+30E4_U+30FC 1
 62
   179
420
  2234388
370
     9
100
AcDb2dPolyline
 66
     1
 10
0.0
 20
0.0
 30
0.0
  0
VERTEX
  5
4E
330
4D
100
AcDbEntity
  8
_U+30EC_U+30A4_U+30E4_U+30FC 1
 62
   179
420
  2234388
370
     9
100
AcDbVertex
100
AcDb2dVertex
 10
90.46216824767338
 20
-125.8305769129867
 30
0.0
  0
VERTEX
  5
4F
330
4D
100
AcDbEntity
  8
_U+30EC_U+30A4_U+30E4_U+30FC 1
 62
   179
420
  2234388
370
     9
100
AcDbVertex
100
AcDb2dVertex
 10
90.46216824767338
 20
-127.241688023745
 30
0.0
  0
SEQEND
  5
50
330
4D
100
AcDbEntity
  8
_U+30EC_U+30A4_U+30E4_U+30FC 1
 62
   179
420
  2234388
370
     9
  0
INSERT
  5
52
330
1F
100
AcDbEntity
  8
_U+30EC_U+30A4_U+30E4_U+30FC 1
100
AcDbBlockReference
  2
block 2
 10
0.0
 20
0.0
 30
0.0
  0
SPLINE
  5
178
330
1F
100
AcDbEntity
  8
_U+30EC_U+30A4_U+30E4_U+30FC 1
 62
   179
420
  2234388
370
     9
100
AcDbSpline
210
0.0
220
0.0
230
1.0
 70
    11
 71
     3
 72
    17
 73
    13
 74
     0
 42
0.0000000001
 43
0.0000000001
 12
1.0
 22
0.0
 32
0.0
 13
1.0
 23
0.0
 33
0.0
 40
0.0
 40
0.0
 40
0.0
 40
0.0
 40
1.0
 40
1.0
 40
1.0
 40
2.0
 40
2.0
 40
2.0
 40
3.0
 40
3.0
 40
3.0
 40
4.0
 40
4.0
 40
4.0
 40
4.0
 10
90.55036268986778
 20
-126.4479380239435
 30
0.0
 10
90.55036268986778
 20
-126.392128579513
 30
0.0
 10
90.5055951910099
 20
-126.3473258017466
 30
0.0
 10
90.45045831072088
 20
-126.3473258017466
 30
0.0
 10
90.39535213826689
 20
-126.3473258017466
 30
0.0
 10
90.35054936163212
 20
-126.392128579513
 30
0.0
 10
90.35054936163212
 20
-126.4479380239435
 30
0.0
 10
90.35054936163212
 20
-126.5030419128187
 30
0.0
 10
90.39535213826689
 20
-126.5478446905854
 30
0.0
 10
90.45045831072088
 20
-126.5478446905854
 30
0.0
 10
90.5055951910099
 20
-126.5478446905854
 30
0.0
 10
90.55036268986778
 20
-126.5030419128187
 30
0.0
 10
90.55036268986778
 20
-126.4479380239435
 30
0.0
  0
SPLINE
  5
179
330
1F
100
AcDbEntity
  8
_U+30EC_U+30A4_U+30E4_U+30FC 1
 62
   179
420
  2234388
370
     9
100
AcDbSpline
210
0.0
220
0.0
230
1.0
 70
    11
 71
     3
 72
    17
 73
    13
 74
     0
 42
0.0000000001
 43
0.0000000001
 12
1.0
 22
0.0
 32
0.0
 13
1.0
 23
0.0
 33
0.0
 40
0.0
 40
0.0
 40
0.0
 40
0.0
 40
1.0
 40
1.0
 40
1.0
 40
2.0
 40
2.0
 40
2.0
 40
3.0
 40
3.0
 40
3.0
 40
4.0
 40
4.0
 40
4.0
 40
4.0
 10
86.49341834892462
 20
-126.4479380239435
 30
0.0
 10
86.49341834892462
 20
-126.392128579513
 30
0.0
 10
86.44865085006673
 20
-126.3473258017466
 30
0.0
 10
86.39351386729066
 20
-126.3473258017466
 30
0.0
 10
86.33840779732371
 20
-126.3473258017466
 30
0.0
 10
86.29360502068894
 20
-126.392128579513
 30
0.0
 10
86.29360502068894
 20
-126.4479380239435
 30
0.0
 10
86.29360502068894
 20
-126.5030419128187
 30
0.0
 10
86.33840779732371
 20
-126.5478446905854
 30
0.0
 10
86.39351386729066
 20
-126.5478446905854
 30
0.0
 10
86.44865085006673
 20
-126.5478446905854
 30
0.0
 10
86.49341834892462
 20
-126.5030419128187
 30
0.0
 10
86.49341834892462
 20
-126.4479380239435
 30
0.0
  0
INSERT
  5
17B
330
1F
100
AcDbEntity
  8
_U+30EC_U+30A4_U+30E4_U+30FC 1
100
AcDbBlockReference
  2
block 7
 10
0.0
 20
0.0
 30
0.0
  0
SPLINE
  5
18A
330
1F
100
AcDbEntity
  8
_U+30EC_U+30A4_U+30E4_U+30FC 1
 62
   179
420
  2234388
370
     9
100
AcDbSpline
210
0.0
220
0.0
230
1.0
 70
    11
 71
     3
 72
    17
 73
    13
 74
     0
 42
0.0000000001
 43
0.0000000001
 12
1.0
 22
0.0
 32
0.0
 13
1.0
 23
0.0
 33
0.0
 40
0.0
 40
0.0
 40
0.0
 40
0.0
 40
1.0
 40
1.0
 40
1.0
 40
2.0
 40
2.0
 40
2.0
 40
3.0
 40
3.0
 40
3.0
 40
4.0
 40
4.0
 40
4.0
 40
4.0
 10
75.43020168672635
 20
-122.0499280250432
 30
0.0
 10
75.43020168672635
 20
-121.9947888583902
 30
0.0
 10
75.38539891009158
 20
-121.9500213584013
 30
0.0
 10
75.32994224483973
 20
-121.9500213584013
 30
0.0
 10
75.27480307957978
 20
-121.9500213584013
 30
0.0
 10
75.23003558072189
 20
-121.9947888583902
 30
0.0
 10
75.23003558072189
 20
-122.0499280250432
 30
0.0
 10
75.23003558072189
 20
-122.1050319139182
 30
0.0
 10
75.27480307957978
 20
-122.1498346916849
 30
0.0
 10
75.32994224483973
 20
-122.1498346916849
 30
0.0
 10
75.38539891009158
 20
-122.1498346916849
 30
0.0
 10
75.43020168672635
 20
-122.1050319139182
 30
0.0
 10
75.43020168672635
 20
-122.0499280250432
 30
0.0
  0
SPLINE
  5
18B
330
1F
100
AcDbEntity
  8
_U+30EC_U+30A4_U+30E4_U+30FC 1
 62
   179
420
  2234388
370
     9
100
AcDbSpline
210
0.0
220
0.0
230
1.0
 70
    11
 71
     3
 72
    17
 73
    13
 74
     0
 42
0.0000000001
 43
0.0000000001
 12
1.0
 22
0.0
 32
0.0
 13
1.0
 23
0.0
 33
0.0
 40
0.0
 40
0.0
 40
0.0
 40
0.0
 40
1.0
 40
1.0
 40
1.0
 40
2.0
 40
2.0
 40
2.0
 40
3.0
 40
3.0
 40
3.0
 40
4.0
 40
4.0
 40
4.0
 40
4.0
 10
76.42891555013593
 20
-122.0499280250432
 30
0.0
 10
76.42891555013593
 20
-121.9947888583902
 30
0.0
 10
76.38414998090394
 20
-121.9500213584013
 30
0.0
 10
76.32900888601809
 20
-121.9500213584013
 30
0.0
 10
76.27390499853502
 20
-121.9500213584013
 30
0.0
 10
76.22910222190025
 20
-121.9947888583902
 30
0.0
 10
76.22910222190025
 20
-122.0499280250432
 30
0.0
 10
76.22910222190025
 20
-122.1050319139182
 30
0.0
 10
76.27390499853502
 20
-122.1498346916849
 30
0.0
 10
76.32900888601809
 20
-122.1498346916849
 30
0.0
 10
76.38414998090394
 20
-122.1498346916849
 30
0.0
 10
76.42891555013593
 20
-122.1050319139182
 30
0.0
 10
76.42891555013593
 20
-122.0499280250432
 30
0.0
  0
POLYLINE
  5
18C
330
1F
100
AcDbEntity
  8
_U+30EC_U+30A4_U+30E4_U+30FC 1
 62
   179
420
  2234388
370
     9
100
AcDb2dPolyline
 66
     1
 10
0.0
 20
0.0
 30
0.0
  0
VERTEX
  5
18D
330
18C
100
AcDbEntity
  8
_U+30EC_U+30A4_U+30E4_U+30FC 1
 62
   179
420
  2234388
370
     9
100
AcDbVertex
100
AcDb2dVertex
 10
79.21049770139408
 20
-122.0499280250432
 30
0.0
  0
VERTEX
  5
18E
330
18C
100
AcDbEntity
  8
_U+30EC_U+30A4_U+30E4_U+30FC 1
 62
   179
420
  2234388
370
     9
100
AcDbVertex
100
AcDb2dVertex
 10
75.445018353015
 20
-122.0499280250432
 30
0.0
  0
SEQEND
  5
18F
330
18C
100
AcDbEntity
  8
_U+30EC_U+30A4_U+30E4_U+30FC 1
 62
   179
420
  2234388
370
     9
  0
POLYLINE
  5
190
330
1F
100
AcDbEntity
  8
_U+30EC_U+30A4_U+30E4_U+30FC 1
 62
   179
420
  2234388
370
     9
100
AcDb2dPolyline
 66
     1
 10
0.0
 20
0.0
 30
0.0
  0
VERTEX
  5
191
330
190
100
AcDbEntity
  8
_U+30EC_U+30A4_U+30E4_U+30FC 1
 62
   179
420
  2234388
370
     9
100
AcDbVertex
100
AcDb2dVertex
 10
74.6243867072844
 20
-122.0499280250432
 30
0.0
  0
VERTEX
  5
192
330
190
100
AcDbEntity
  8
_U+30EC_U+30A4_U+30E4_U+30FC 1
 62
   179
420
  2234388
370
     9
100
AcDbVertex
100
AcDb2dVertex
 10
76.62255526741798
 20
-122.0499280250432
 30
0.0
  0
SEQEND
  5
193
330
190
100
AcDbEntity
  8
_U+30EC_U+30A4_U+30E4_U+30FC 1
 62
   179
420
  2234388
370
     9
  0
INSERT
  5
195
330
1F
100
AcDbEntity
  8
_U+30EC_U+30A4_U+30E4_U+30FC 1
100
AcDbBlockReference
  2
block 8
 10
0.0
 20
0.0
 30
0.0
  0
ENDSEC
  0
SECTION
  2
OBJECTS
  0
DICTIONARY
  5
C
330
0
100
AcDbDictionary
281
     1
  3
ACAD_GROUP
350
D
  3
ACAD_LAYOUT
350
1A
  3
ACAD_MATERIAL
350
3B
  3
ACAD_MLEADERSTYLE
350
19B
  3
ACAD_MLINESTYLE
350
17
  3
ACAD_PLOTSETTINGS
350
19
  3
ACAD_PLOTSTYLENAME
350
E
  3
ACAD_TABLESTYLE
350
19A
  3
ACAD_VISUALSTYLE
350
2A
  0
SUN
  5
3F
330
29
100
AcDbSun
 90
        1
290
     0
 63
     7
421
 16777215
 40
1.0
291
     1
 91
  2455826
 92
 54000000
292
     0
 70
     2
 71
   256
280
     1
  0
DICTIONARY
  5
D
102
{ACAD_REACTORS
330
C
102
}
330
C
100
AcDbDictionary
281
     1
  0
DICTIONARY
  5
1A
102
{ACAD_REACTORS
330
C
102
}
330
C
100
AcDbDictionary
281
     1
  3
Layout1
350
1E
  3
Layout2
350
26
  3
Model
350
22
  0
DICTIONARY
  5
3B
102
{ACAD_REACTORS
330
C
102
}
330
C
100
AcDbDictionary
281
     1
  3
ByBlock
350
3D
  3
ByLayer
350
3C
  3
Global
350
3E
  0
DICTIONARY
  5
19B
102
{ACAD_REACTORS
330
C
102
}
330
C
100
AcDbDictionary
281
     1
  0
DICTIONARY
  5
17
102
{ACAD_REACTORS
330
C
102
}
330
C
100
AcDbDictionary
281
     1
  3
Standard
350
18
  0
DICTIONARY
  5
19
102
{ACAD_REACTORS
330
C
102
}
330
C
100
AcDbDictionary
281
     1
  0
ACDBDICTIONARYWDFLT
  5
E
102
{ACAD_REACTORS
330
C
102
}
330
C
100
AcDbDictionary
281
     1
  3
Normal
350
F
100
AcDbDictionaryWithDefault
340
F
  0
DICTIONARY
  5
19A
102
{ACAD_REACTORS
330
C
102
}
330
C
100
AcDbDictionary
281
     1
  0
DICTIONARY
  5
2A
102
{ACAD_REACTORS
330
C
102
}
330
C
100
AcDbDictionary
281
     1
  3
2dWireframe
350
2F
  3
3D Hidden
350
31
  3
3dWireframe
350
30
  3
Basic
350
32
  3
Brighten
350
36
  3
ColorChange
350
3A
  3
Conceptual
350
34
  3
Dim
350
35
  3
Facepattern
350
39
  3
Flat
350
2B
  3
FlatWithEdges
350
2C
  3
Gouraud
350
2D
  3
GouraudWithEdges
350
2E
  3
Linepattern
350
38
  3
Realistic
350
33
  3
Thicken
350
37
  0
LAYOUT
  5
1E
102
{ACAD_REACTORS
330
1A
102
}
330
1A
100
AcDbPlotSettings
  1

  2
none_device
  4

  6

 40
0.0
 41
0.0
 42
0.0
 43
0.0
 44
0.0
 45
0.0
 46
0.0
 47
0.0
 48
0.0
 49
0.0
140
0.0
141
0.0
142
1.0
143
1.0
 70
   688
 72
     0
 73
     0
 74
     5
  7

 75
    16
 76
     0
 77
     2
 78
   300
147
1.0
148
0.0
149
0.0
100
AcDbLayout
  1
Layout1
 70
     1
 71
     1
 10
0.0
 20
0.0
 11
12.0
 21
9.0
 12
0.0
 22
0.0
 32
0.0
 14
1.000000000000000E+20
 24
1.000000000000000E+20
 34
1.000000000000000E+20
 15
-1.000000000000000E+20
 25
-1.000000000000000E+20
 35
-1.000000000000000E+20
146
0.0
 13
0.0
 23
0.0
 33
0.0
 16
1.0
 26
0.0
 36
0.0
 17
0.0
 27
1.0
 37
0.0
 76
     0
330
1B
  0
LAYOUT
  5
26
102
{ACAD_REACTORS
330
1A
102
}
330
1A
100
AcDbPlotSettings
  1

  2
none_device
  4

  6

 40
0.0
 41
0.0
 42
0.0
 43
0.0
 44
0.0
 45
0.0
 46
0.0
 47
0.0
 48
0.0
 49
0.0
140
0.0
141
0.0
142
1.0
143
1.0
 70
   688
 72
     0
 73
     0
 74
     5
  7

 75
    16
 76
     0
 77
     2
 78
   300
147
1.0
148
0.0
149
0.0
100
AcDbLayout
  1
Layout2
 70
     1
 71
     2
 10
0.0
 20
0.0
 11
0.0
 21
0.0
 12
0.0
 22
0.0
 32
0.0
 14
0.0
 24
0.0
 34
0.0
 15
0.0
 25
0.0
 35
0.0
146
0.0
 13
0.0
 23
0.0
 33
0.0
 16
1.0
 26
0.0
 36
0.0
 17
0.0
 27
1.0
 37
0.0
 76
     0
330
23
  0
LAYOUT
  5
22
102
{ACAD_REACTORS
330
1A
102
}
330
1A
100
AcDbPlotSettings
  1

  2
none_device
  4

  6

 40
0.0
 41
0.0
 42
0.0
 43
0.0
 44
0.0
 45
0.0
 46
0.0
 47
0.0
 48
0.0
 49
0.0
140
0.0
141
0.0
142
1.0
143
1.0
 70
  1712
 72
     0
 73
     0
 74
     0
  7

 75
     0
 76
     0
 77
     2
 78
   300
147
1.0
148
0.0
149
0.0
100
AcDbLayout
  1
Model
 70
     1
 71
     0
 10
0.0
 20
0.0
 11
12.0
 21
9.0
 12
0.0
 22
0.0
 32
0.0
 14
1.000000000000000E+20
 24
1.000000000000000E+20
 34
1.000000000000000E+20
 15
-1.000000000000000E+20
 25
-1.000000000000000E+20
 35
-1.000000000000000E+20
146
0.0
 13
0.0
 23
0.0
 33
0.0
 16
1.0
 26
0.0
 36
0.0
 17
0.0
 27
1.0
 37
0.0
 76
     0
330
1F
331
29
  0
MATERIAL
  5
3D
102
{ACAD_REACTORS
330
3B
102
}
330
3B
100
AcDbMaterial
  1
ByBlock
 72
     1
 94
      127
  0
MATERIAL
  5
3C
102
{ACAD_REACTORS
330
3B
102
}
330
3B
100
AcDbMaterial
  1
ByLayer
 72
     1
 94
      127
  0
MATERIAL
  5
3E
102
{ACAD_REACTORS
330
3B
102
}
330
3B
100
AcDbMaterial
  1
Global
 72
     1
 94
      127
  0
MLINESTYLE
  5
18
102
{ACAD_REACTORS
330
17
102
}
330
17
100
AcDbMlineStyle
  2
Standard
 70
     0
  3

 62
   256
 51
90.0
 52
90.0
 71
     2
 49
0.5
 62
   256
  6
BYLAYER
 49
-0.5
 62
   256
  6
BYLAYER
  0
ACDBPLACEHOLDER
  5
F
102
{ACAD_REACTORS
330
E
102
}
330
E
  0
VISUALSTYLE
  5
2F
102
{ACAD_REACTORS
330
2A
102
}
330
2A
100
AcDbVisualStyle
  2
2dWireframe
 70
     4
177
     2
291
     0
 71
     0
176
     1
 72
     2
176
     1
 73
     0
176
     1
 90
        0
176
     1
 40
-0.6
176
     1
 41
-30.0
176
     1
 62
     5
 63
     7
421
 16777215
176
     1
 74
     1
176
     1
 91
        4
176
     1
 64
     7
176
     1
 65
   257
176
     1
 75
     1
176
     1
175
     1
176
     1
 42
1.0
176
     1
 92
        0
176
     1
 66
   257
176
     1
 43
1.0
176
     1
 76
     1
176
     1
 77
     6
176
     1
 78
     2
176
     1
 67
     7
176
     1
 79
     5
176
     1
170
     0
176
     1
171
     0
176
     1
290
     0
176
     1
 93
        1
176
     1
 44
0.0
176
     1
173
     0
176
     1
  0
VISUALSTYLE
  5
31
102
{ACAD_REACTORS
330
2A
102
}
330
2A
100
AcDbVisualStyle
  2
3D Hidden
 70
     6
177
     2
291
     0
 71
     1
176
     1
 72
     2
176
     1
 73
     2
176
     1
 90
        0
176
     1
 40
-0.6
176
     1
 41
-30.0
176
     1
 62
     5
 63
     7
421
 16777215
176
     1
 74
     2
176
     1
 91
        2
176
     1
 64
     7
176
     1
 65
   257
176
     1
 75
     2
176
     1
175
     1
176
     1
 42
40.0
176
     1
 92
        0
176
     1
 66
   257
176
     1
 43
1.0
176
     1
 76
     1
176
     1
 77
     6
176
     1
 78
     2
176
     1
 67
     7
176
     1
 79
     3
176
     1
170
     0
176
     1
171
     0
176
     1
290
     0
176
     1
 93
        1
176
     1
 44
0.0
176
     1
173
     0
176
     1
  0
VISUALSTYLE
  5
30
102
{ACAD_REACTORS
330
2A
102
}
330
2A
100
AcDbVisualStyle
  2
3dWireframe
 70
     5
177
     2
291
     0
 71
     0
176
     1
 72
     2
176
     1
 73
     0
176
     1
 90
        0
176
     1
 40
-0.6
176
     1
 41
-30.0
176
     1
 62
     5
 63
     7
421
 16777215
176
     1
 74
     1
176
     1
 91
        4
176
     1
 64
     7
176
     1
 65
   257
176
     1
 75
     1
176
     1
175
     1
176
     1
 42
1.0
176
     1
 92
        0
176
     1
 66
   257
176
     1
 43
1.0
176
     1
 76
     1
176
     1
 77
     6
176
     1
 78
     2
176
     1
 67
     7
176
     1
 79
     5
176
     1
170
     0
176
     1
171
     0
176
     1
290
     0
176
     1
 93
        1
176
     1
 44
0.0
176
     1
173
     0
176
     1
  0
VISUALSTYLE
  5
32
102
{ACAD_REACTORS
330
2A
102
}
330
2A
100
AcDbVisualStyle
  2
Basic
 70
     7
177
     2
291
     1
 71
     1
176
     1
 72
     0
176
     1
 73
     1
176
     1
 90
        0
176
     1
 40
-0.6
176
     1
 41
-30.0
176
     1
 62
     5
 63
     7
421
 16777215
176
     1
 74
     0
176
     1
 91
        4
176
     1
 64
     7
176
     1
 65
   257
176
     1
 75
     1
176
     1
175
     1
176
     1
 42
1.0
176
     1
 92
        8
176
     1
 66
     7
176
     1
 43
1.0
176
     1
 76
     1
176
     1
 77
     6
176
     1
 78
     2
176
     1
 67
     7
176
     1
 79
     5
176
     1
170
     0
176
     1
171
     0
176
     1
290
     0
176
     1
 93
        1
176
     1
 44
0.0
176
     1
173
     0
176
     1
  0
VISUALSTYLE
  5
36
102
{ACAD_REACTORS
330
2A
102
}
330
2A
100
AcDbVisualStyle
  2
Brighten
 70
    12
177
     2
291
     1
 71
     2
176
     1
 72
     2
176
     1
 73
     0
176
     1
 90
        0
176
     1
 40
-0.6
176
     1
 41
-30.0
176
     1
 62
     5
 63
     7
421
 16777215
176
     1
 74
     1
176
     1
 91
        4
176
     1
 64
     7
176
     1
 65
   257
176
     1
 75
     1
176
     1
175
     1
176
     1
 42
1.0
176
     1
 92
        8
176
     1
 66
     7
176
     1
 43
1.0
176
     1
 76
     1
176
     1
 77
     6
176
     1
 78
     2
176
     1
 67
     7
176
     1
 79
     5
176
     1
170
     0
176
     1
171
     0
176
     1
290
     0
176
     1
 93
        1
176
     1
 44
50.0
176
     1
173
     0
176
     1
  0
VISUALSTYLE
  5
3A
102
{ACAD_REACTORS
330
2A
102
}
330
2A
100
AcDbVisualStyle
  2
ColorChange
 70
    16
177
     2
291
     1
 71
     2
176
     1
 72
     2
176
     1
 73
     3
176
     1
 90
        0
176
     1
 40
-0.6
176
     1
 41
-30.0
176
     1
 62
     5
 63
     8
421
  8421504
176
     1
 74
     1
176
     1
 91
        4
176
     1
 64
     7
176
     1
 65
   257
176
     1
 75
     1
176
     1
175
     1
176
     1
 42
1.0
176
     1
 92
        8
176
     1
 66
     8
424
  8421504
176
     1
 43
1.0
176
     1
 76
     1
176
     1
 77
     6
176
     1
 78
     2
176
     1
 67
     7
176
     1
 79
     5
176
     1
170
     0
176
     1
171
     0
176
     1
290
     0
176
     1
 93
        1
176
     1
 44
0.0
176
     1
173
     0
176
     1
  0
VISUALSTYLE
  5
34
102
{ACAD_REACTORS
330
2A
102
}
330
2A
100
AcDbVisualStyle
  2
Conceptual
 70
     9
177
     2
291
     0
 71
     3
176
     1
 72
     2
176
     1
 73
     0
176
     1
 90
        0
176
     1
 40
-0.6
176
     1
 41
-30.0
176
     1
 62
     5
 63
     7
421
 16777215
176
     1
 74
     2
176
     1
 91
        2
176
     1
 64
     7
176
     1
 65
   257
176
     1
 75
     1
176
     1
175
     1
176
     1
 42
40.0
176
     1
 92
        8
176
     1
 66
     7
176
     1
 43
1.0
176
     1
 76
     1
176
     1
 77
     6
176
     1
 78
     2
176
     1
 67
     7
176
     1
 79
     3
176
     1
170
     0
176
     1
171
     0
176
     1
290
     0
176
     1
 93
        1
176
     1
 44
0.0
176
     1
173
     0
176
     1
  0
VISUALSTYLE
  5
35
102
{ACAD_REACTORS
330
2A
102
}
330
2A
100
AcDbVisualStyle
  2
Dim
 70
    11
177
     2
291
     1
 71
     2
176
     1
 72
     2
176
     1
 73
     0
176
     1
 90
        0
176
     1
 40
-0.6
176
     1
 41
-30.0
176
     1
 62
     5
 63
     7
421
 16777215
176
     1
 74
     1
176
     1
 91
        4
176
     1
 64
     7
176
     1
 65
   257
176
     1
 75
     1
176
     1
175
     1
176
     1
 42
1.0
176
     1
 92
        8
176
     1
 66
     7
176
     1
 43
1.0
176
     1
 76
     1
176
     1
 77
     6
176
     1
 78
     2
176
     1
 67
     7
176
     1
 79
     5
176
     1
170
     0
176
     1
171
     0
176
     1
290
     0
176
     1
 93
        1
176
     1
 44
-50.0
176
     1
173
     0
176
     1
  0
VISUALSTYLE
  5
39
102
{ACAD_REACTORS
330
2A
102
}
330
2A
100
AcDbVisualStyle
  2
Facepattern
 70
    15
177
     2
291
     1
 71
     2
176
     1
 72
     2
176
     1
 73
     0
176
     1
 90
        0
176
     1
 40
-0.6
176
     1
 41
-30.0
176
     1
 62
     5
 63
     7
421
 16777215
176
     1
 74
     1
176
     1
 91
        4
176
     1
 64
     7
176
     1
 65
   257
176
     1
 75
     1
176
     1
175
     1
176
     1
 42
1.0
176
     1
 92
        8
176
     1
 66
     7
176
     1
 43
1.0
176
     1
 76
     1
176
     1
 77
     6
176
     1
 78
     2
176
     1
 67
     7
176
     1
 79
     5
176
     1
170
     0
176
     1
171
     0
176
     1
290
     0
176
     1
 93
        1
176
     1
 44
0.0
176
     1
173
     0
176
     1
  0
VISUALSTYLE
  5
2B
102
{ACAD_REACTORS
330
2A
102
}
330
2A
100
AcDbVisualStyle
  2
Flat
 70
     0
177
     2
291
     1
 71
     2
176
     1
 72
     1
176
     1
 73
     1
176
     1
 90
        2
176
     1
 40
-0.6
176
     1
 41
30.0
176
     1
 62
     5
 63
     7
421
 16777215
176
     1
 74
     0
176
     1
 91
        4
176
     1
 64
     7
176
     1
 65
   257
176
     1
 75
     1
176
     1
175
     1
176
     1
 42
1.0
176
     1
 92
        8
176
     1
 66
     7
176
     1
 43
1.0
176
     1
 76
     1
176
     1
 77
     6
176
     1
 78
     2
176
     1
 67
     7
176
     1
 79
     5
176
     1
170
     0
176
     1
171
     0
176
     1
290
     0
176
     1
 93
       13
176
     1
 44
0.0
176
     1
173
     0
176
     1
  0
VISUALSTYLE
  5
2C
102
{ACAD_REACTORS
330
2A
102
}
330
2A
100
AcDbVisualStyle
  2
FlatWithEdges
 70
     1
177
     2
291
     1
 71
     2
176
     1
 72
     1
176
     1
 73
     1
176
     1
 90
        2
176
     1
 40
-0.6
176
     1
 41
30.0
176
     1
 62
     5
 63
     7
421
 16777215
176
     1
 74
     1
176
     1
 91
        4
176
     1
 64
     7
176
     1
 65
   257
176
     1
 75
     1
176
     1
175
     1
176
     1
 42
1.0
176
     1
 92
        0
176
     1
 66
   257
176
     1
 43
1.0
176
     1
 76
     1
176
     1
 77
     6
176
     1
 78
     2
176
     1
 67
     7
176
     1
 79
     5
176
     1
170
     0
176
     1
171
     0
176
     1
290
     0
176
     1
 93
       13
176
     1
 44
0.0
176
     1
173
     0
176
     1
  0
VISUALSTYLE
  5
2D
102
{ACAD_REACTORS
330
2A
102
}
330
2A
100
AcDbVisualStyle
  2
Gouraud
 70
     2
177
     2
291
     1
 71
     2
176
     1
 72
     2
176
     1
 73
     1
176
     1
 90
        2
176
     1
 40
-0.6
176
     1
 41
30.0
176
     1
 62
     5
 63
     7
421
 16777215
176
     1
 74
     0
176
     1
 91
        4
176
     1
 64
     7
176
     1
 65
   257
176
     1
 75
     1
176
     1
175
     1
176
     1
 42
1.0
176
     1
 92
        0
176
     1
 66
     7
176
     1
 43
1.0
176
     1
 76
     1
176
     1
 77
     6
176
     1
 78
     2
176
     1
 67
     7
176
     1
 79
     5
176
     1
170
     0
176
     1
171
     0
176
     1
290
     0
176
     1
 93
       13
176
     1
 44
0.0
176
     1
173
     0
176
     1
  0
VISUALSTYLE
  5
2E
102
{ACAD_REACTORS
330
2A
102
}
330
2A
100
AcDbVisualStyle
  2
GouraudWithEdges
 70
     3
177
     2
291
     1
 71
     2
176
     1
 72
     2
176
     1
 73
     1
176
     1
 90
        2
176
     1
 40
-0.6
176
     1
 41
30.0
176
     1
 62
     5
 63
     7
421
 16777215
176
     1
 74
     1
176
     1
 91
        4
176
     1
 64
     7
176
     1
 65
   257
176
     1
 75
     1
176
     1
175
     1
176
     1
 42
1.0
176
     1
 92
        0
176
     1
 66
   257
176
     1
 43
1.0
176
     1
 76
     1
176
     1
 77
     6
176
     1
 78
     2
176
     1
 67
     7
176
     1
 79
     5
176
     1
170
     0
176
     1
171
     0
176
     1
290
     0
176
     1
 93
       13
176
     1
 44
0.0
176
     1
173
     0
176
     1
  0
VISUALSTYLE
  5
38
102
{ACAD_REACTORS
330
2A
102
}
330
2A
100
AcDbVisualStyle
  2
Linepattern
 70
    14
177
     2
291
     1
 71
     2
176
     1
 72
     2
176
     1
 73
     0
176
     1
 90
        0
176
     1
 40
-0.6
176
     1
 41
-30.0
176
     1
 62
     5
 63
     7
421
 16777215
176
     1
 74
     1
176
     1
 91
        4
176
     1
 64
     7
176
     1
 65
   257
176
     1
 75
     7
176
     1
175
     7
176
     1
 42
1.0
176
     1
 92
        8
176
     1
 66
     7
176
     1
 43
1.0
176
     1
 76
     1
176
     1
 77
     6
176
     1
 78
     2
176
     1
 67
     7
176
     1
 79
     5
176
     1
170
     0
176
     1
171
     0
176
     1
290
     0
176
     1
 93
        1
176
     1
 44
0.0
176
     1
173
     0
176
     1
  0
VISUALSTYLE
  5
33
102
{ACAD_REACTORS
330
2A
102
}
330
2A
100
AcDbVisualStyle
  2
Realistic
 70
     8
177
     2
291
     0
 71
     2
176
     1
 72
     2
176
     1
 73
     0
176
     1
 90
        0
176
     1
 40
-0.6
176
     1
 41
-30.0
176
     1
 62
     5
 63
     7
421
 16777215
176
     1
 74
     1
176
     1
 91
        0
176
     1
 64
     7
176
     1
 65
   257
176
     1
 75
     1
176
     1
175
     1
176
     1
 42
1.0
176
     1
 92
        8
176
     1
 66
     8
424
  7895160
176
     1
 43
1.0
176
     1
 76
     1
176
     1
 77
     6
176
     1
 78
     2
176
     1
 67
     7
176
     1
 79
     5
176
     1
170
     0
176
     1
171
     0
176
     1
290
     0
176
     1
 93
       13
176
     1
 44
0.0
176
     1
173
     0
176
     1
  0
VISUALSTYLE
  5
37
102
{ACAD_REACTORS
330
2A
102
}
330
2A
100
AcDbVisualStyle
  2
Thicken
 70
    13
177
     2
291
     1
 71
     2
176
     1
 72
     2
176
     1
 73
     0
176
     1
 90
        0
176
     1
 40
-0.6
176
     1
 41
-30.0
176
     1
 62
     5
 63
     7
421
 16777215
176
     1
 74
     1
176
     1
 91
        4
176
     1
 64
     7
176
     1
 65
   257
176
     1
 75
     1
176
     1
175
     1
176
     1
 42
1.0
176
     1
 92
       12
176
     1
 66
     7
176
     1
 43
1.0
176
     1
 76
     1
176
     1
 77
     6
176
     1
 78
     2
176
     1
 67
     7
176
     1
 79
     5
176
     1
170
     0
176
     1
171
     0
176
     1
290
     0
176
     1
 93
        1
176
     1
 44
0.0
176
     1
173
     0
176
     1
  0
ENDSEC
  0
EOF
