  0
SECTION
  2
HEADER
  9
$ACADVER
  1
AC1024
  9
$ACADMAINTVER
 70
     6
  9
$DWGCODEPAGE
  3
UNDEFINED
  9
$INSBASE
 10
0.0
 20
0.0
 30
0.0
  9
$EXTMIN
 10
1.000000000000000E+20
 20
1.000000000000000E+20
 30
1.000000000000000E+20
  9
$EXTMAX
 10
-1.000000000000000E+20
 20
-1.000000000000000E+20
 30
-1.000000000000000E+20
  9
$LIMMIN
 10
0.0
 20
0.0
  9
$LIMMAX
 10
12.0
 20
9.0
  9
$ORTHOMODE
 70
     0
  9
$REGENMODE
 70
     1
  9
$FILLMODE
 70
     1
  9
$QTEXTMODE
 70
     0
  9
$MIRRTEXT
 70
     1
  9
$LTSCALE
 40
1.0
  9
$ATTMODE
 70
     1
  9
$TEXTSIZE
 40
0.2
  9
$TRACEWID
 40
0.05
  9
$TEXTSTYLE
  7
Standard
  9
$CLAYER
  8
0
  9
$CELTYPE
  6
ByLayer
  9
$CECOLOR
 62
   256
  9
$CELTSCALE
 40
1.0
  9
$DISPSILH
 70
     0
  9
$DIMSCALE
 40
1.0
  9
$DIMASZ
 40
0.18
  9
$DIMEXO
 40
0.0625
  9
$DIMDLI
 40
0.38
  9
$DIMRND
 40
0.0
  9
$DIMDLE
 40
0.0
  9
$DIMEXE
 40
0.18
  9
$DIMTP
 40
0.0
  9
$DIMTM
 40
0.0
  9
$DIMTXT
 40
0.18
  9
$DIMCEN
 40
0.09
  9
$DIMTSZ
 40
0.0
  9
$DIMTOL
 70
     0
  9
$DIMLIM
 70
     0
  9
$DIMTIH
 70
     1
  9
$DIMTOH
 70
     1
  9
$DIMSE1
 70
     0
  9
$DIMSE2
 70
     0
  9
$DIMTAD
 70
     0
  9
$DIMZIN
 70
     0
  9
$DIMBLK
  1

  9
$DIMASO
 70
     1
  9
$DIMSHO
 70
     1
  9
$DIMPOST
  1

  9
$DIMAPOST
  1

  9
$DIMALT
 70
     0
  9
$DIMALTD
 70
     2
  9
$DIMALTF
 40
25.4
  9
$DIMLFAC
 40
1.0
  9
$DIMTOFL
 70
     0
  9
$DIMTVP
 40
0.0
  9
$DIMTIX
 70
     0
  9
$DIMSOXD
 70
     0
  9
$DIMSAH
 70
     0
  9
$DIMBLK1
  1

  9
$DIMBLK2
  1

  9
$DIMSTYLE
  2
Standard
  9
$DIMCLRD
 70
     0
  9
$DIMCLRE
 70
     0
  9
$DIMCLRT
 70
     0
  9
$DIMTFAC
 40
1.0
  9
$DIMGAP
 40
0.09
  9
$DIMJUST
 70
     0
  9
$DIMSD1
 70
     0
  9
$DIMSD2
 70
     0
  9
$DIMTOLJ
 70
     1
  9
$DIMTZIN
 70
     0
  9
$DIMALTZ
 70
     0
  9
$DIMALTTZ
 70
     0
  9
$DIMUPT
 70
     0
  9
$DIMDEC
 70
     4
  9
$DIMTDEC
 70
     4
  9
$DIMALTU
 70
     2
  9
$DIMALTTD
 70
     2
  9
$DIMTXSTY
  7
Standard
  9
$DIMAUNIT
 70
     0
  9
$DIMADEC
 70
     0
  9
$DIMALTRND
 40
0.0
  9
$DIMAZIN
 70
     0
  9
$DIMDSEP
 70
    46
  9
$DIMATFIT
 70
     3
  9
$DIMFRAC
 70
     0
  9
$DIMLDRBLK
  1

  9
$DIMLUNIT
 70
     2
  9
$DIMLWD
 70
    -2
  9
$DIMLWE
 70
    -2
  9
$DIMTMOVE
 70
     0
  9
$DIMFXL
 40
1.0
  9
$DIMFXLON
 70
     0
  9
$DIMJOGANG
 40
0.7853981633974483
  9
$DIMTFILL
 70
     0
  9
$DIMTFILLCLR
 70
     0
  9
$DIMARCSYM
 70
     0
  9
$DIMLTYPE
  6

  9
$DIMLTEX1
  6

  9
$DIMLTEX2
  6

  9
$DIMTXTDIRECTION
 70
     0
  9
$LUNITS
 70
     2
  9
$LUPREC
 70
     4
  9
$SKETCHINC
 40
0.1
  9
$FILLETRAD
 40
0.5
  9
$AUNITS
 70
     0
  9
$AUPREC
 70
     0
  9
$MENU
  1
.
  9
$ELEVATION
 40
0.0
  9
$PELEVATION
 40
0.0
  9
$THICKNESS
 40
0.0
  9
$LIMCHECK
 70
     0
  9
$CHAMFERA
 40
0.5
  9
$CHAMFERB
 40
0.5
  9
$CHAMFERC
 40
1.0
  9
$CHAMFERD
 40
0.0
  9
$SKPOLY
 70
     0
  9
$TDCREATE
 40
2457917.584386574
  9
$TDUCREATE
 40
2457917.209386574
  9
$TDUPDATE
 40
2457917.584386574
  9
$TDUUPDATE
 40
2457917.209386574
  9
$TDINDWG
 40
0.0000000116
  9
$TDUSRTIMER
 40
0.0000000116
  9
$USRTIMER
 70
     1
  9
$ANGBASE
 50
0.0
  9
$ANGDIR
 70
     0
  9
$PDMODE
 70
     0
  9
$PDSIZE
 40
0.0
  9
$PLINEWID
 40
0.0
  9
$SPLFRAME
 70
     0
  9
$SPLINETYPE
 70
     6
  9
$SPLINESEGS
 70
     8
  9
$HANDSEED
  5
16B
  9
$SURFTAB1
 70
     6
  9
$SURFTAB2
 70
     6
  9
$SURFTYPE
 70
     6
  9
$SURFU
 70
     6
  9
$SURFV
 70
     6
  9
$UCSBASE
  2

  9
$UCSNAME
  2

  9
$UCSORG
 10
0.0
 20
0.0
 30
0.0
  9
$UCSXDIR
 10
1.0
 20
0.0
 30
0.0
  9
$UCSYDIR
 10
0.0
 20
1.0
 30
0.0
  9
$UCSORTHOREF
  2

  9
$UCSORTHOVIEW
 70
     0
  9
$UCSORGTOP
 10
0.0
 20
0.0
 30
0.0
  9
$UCSORGBOTTOM
 10
0.0
 20
0.0
 30
0.0
  9
$UCSORGLEFT
 10
0.0
 20
0.0
 30
0.0
  9
$UCSORGRIGHT
 10
0.0
 20
0.0
 30
0.0
  9
$UCSORGFRONT
 10
0.0
 20
0.0
 30
0.0
  9
$UCSORGBACK
 10
0.0
 20
0.0
 30
0.0
  9
$PUCSBASE
  2

  9
$PUCSNAME
  2

  9
$PUCSORG
 10
0.0
 20
0.0
 30
0.0
  9
$PUCSXDIR
 10
1.0
 20
0.0
 30
0.0
  9
$PUCSYDIR
 10
0.0
 20
1.0
 30
0.0
  9
$PUCSORTHOREF
  2

  9
$PUCSORTHOVIEW
 70
     0
  9
$PUCSORGTOP
 10
0.0
 20
0.0
 30
0.0
  9
$PUCSORGBOTTOM
 10
0.0
 20
0.0
 30
0.0
  9
$PUCSORGLEFT
 10
0.0
 20
0.0
 30
0.0
  9
$PUCSORGRIGHT
 10
0.0
 20
0.0
 30
0.0
  9
$PUCSORGFRONT
 10
0.0
 20
0.0
 30
0.0
  9
$PUCSORGBACK
 10
0.0
 20
0.0
 30
0.0
  9
$USERI1
 70
     0
  9
$USERI2
 70
     0
  9
$USERI3
 70
     0
  9
$USERI4
 70
     0
  9
$USERI5
 70
     0
  9
$USERR1
 40
0.0
  9
$USERR2
 40
0.0
  9
$USERR3
 40
0.0
  9
$USERR4
 40
0.0
  9
$USERR5
 40
0.0
  9
$WORLDVIEW
 70
     1
  9
$SHADEDGE
 70
     3
  9
$SHADEDIF
 70
    70
  9
$TILEMODE
 70
     1
  9
$MAXACTVP
 70
    64
  9
$PINSBASE
 10
0.0
 20
0.0
 30
0.0
  9
$PLIMCHECK
 70
     0
  9
$PEXTMIN
 10
1.000000000000000E+20
 20
1.000000000000000E+20
 30
1.000000000000000E+20
  9
$PEXTMAX
 10
-1.000000000000000E+20
 20
-1.000000000000000E+20
 30
-1.000000000000000E+20
  9
$PLIMMIN
 10
0.0
 20
0.0
  9
$PLIMMAX
 10
12.0
 20
9.0
  9
$UNITMODE
 70
     0
  9
$VISRETAIN
 70
     1
  9
$PLINEGEN
 70
     0
  9
$PSLTSCALE
 70
     1
  9
$TREEDEPTH
 70
  3020
  9
$CMLSTYLE
  2
Standard
  9
$CMLJUST
 70
     0
  9
$CMLSCALE
 40
1.0
  9
$PROXYGRAPHICS
 70
     1
  9
$MEASUREMENT
 70
     0
  9
$CELWEIGHT
370
    -1
  9
$ENDCAPS
280
     0
  9
$JOINSTYLE
280
     0
  9
$LWDISPLAY
290
     1
  9
$INSUNITS
 70
     1
  9
$HYPERLINKBASE
  1

  9
$STYLESHEET
  1

  9
$XEDIT
290
     1
  9
$CEPSNTYPE
380
     0
  9
$PSTYLEMODE
290
     1
  9
$FINGERPRINTGUID
  2
{57B7967E-CBD2-88C6-C1BC-4A6ACD820B11}
  9
$VERSIONGUID
  2
{FAEB1C32-E019-11D5-929B-00C0DF256EC4}
  9
$EXTNAMES
290
     1
  9
$PSVPSCALE
 40
0.0
  9
$OLESTARTUP
290
     0
  9
$SORTENTS
280
   127
  9
$INDEXCTL
280
     0
  9
$HIDETEXT
280
     1
  9
$XCLIPFRAME
280
     2
  9
$HALOGAP
280
     0
  9
$OBSCOLOR
 70
   257
  9
$OBSLTYPE
280
     0
  9
$INTERSECTIONDISPLAY
280
     0
  9
$INTERSECTIONCOLOR
 70
   257
  9
$DIMASSOC
280
     2
  9
$PROJECTNAME
  1

  9
$CAMERADISPLAY
290
     0
  9
$LENSLENGTH
 40
50.0
  9
$CAMERAHEIGHT
 40
0.0
  9
$STEPSPERSEC
 40
2.0
  9
$STEPSIZE
 40
6.0
  9
$3DDWFPREC
 40
2.0
  9
$PSOLWIDTH
 40
0.25
  9
$PSOLHEIGHT
 40
4.0
  9
$LOFTANG1
 40
1.570796326794897
  9
$LOFTANG2
 40
1.570796326794897
  9
$LOFTMAG1
 40
0.0
  9
$LOFTMAG2
 40
0.0
  9
$LOFTPARAM
 70
     7
  9
$LOFTNORMALS
280
     1
  9
$LATITUDE
 40
37.795
  9
$LONGITUDE
 40
-122.394
  9
$NORTHDIRECTION
 40
0.0
  9
$TIMEZONE
 70
 -8000
  9
$LIGHTGLYPHDISPLAY
280
     1
  9
$TILEMODELIGHTSYNCH
280
     1
  9
$CMATERIAL
347
3C
  9
$SOLIDHIST
280
     1
  9
$SHOWHIST
280
     1
  9
$DWFFRAME
280
     2
  9
$DGNFRAME
280
     2
  9
$REALWORLDSCALE
290
     1
  9
$INTERFERECOLOR
 62
   256
  9
$CSHADOW
280
     0
  9
$SHADOWPLANELOCATION
 40
0.0
  0
ENDSEC
  0
SECTION
  2
CLASSES
  0
CLASS
  1
ACDBDICTIONARYWDFLT
  2
AcDbDictionaryWithDefault
  3
ObjectDBX Classes
 90
        0
 91
        4
280
     0
281
     0
  0
CLASS
  1
VISUALSTYLE
  2
AcDbVisualStyle
  3
ObjectDBX Classes
 90
     4095
 91
        4
280
     0
281
     0
  0
CLASS
  1
MATERIAL
  2
AcDbMaterial
  3
ObjectDBX Classes
 90
     1153
 91
        4
280
     0
281
     0
  0
CLASS
  1
SUN
  2
AcDbSun
  3
SCENEOE
 90
     1024
 91
        4
280
     0
281
     0
  0
ENDSEC
  0
SECTION
  2
TABLES
  0
TABLE
  2
VPORT
  5
8
330
0
100
AcDbSymbolTable
 70
     1
  0
VPORT
  5
29
330
8
100
AcDbSymbolTableRecord
100
AcDbViewportTableRecord
  2
*Active
 70
     0
 10
0.0
 20
0.0
 11
1.0
 21
1.0
 12
0.0
 22
0.0
 13
0.0
 23
0.0
 14
0.5
 24
0.5
 15
0.5
 25
0.5
 16
0.0
 26
0.0
 36
1.0
 17
91.00082462281999
 27
-128.4993055234307
 37
0.0
 40
256.9986110468615
 41
0.7081814508812795
 42
50.0
 43
0.0
 44
0.0
 50
0.0
 51
0.0
 71
     0
 72
   100
 73
     1
 74
     3
 75
     0
 76
     0
 77
     0
 78
     0
281
     0
 65
     1
110
0.0
120
0.0
130
0.0
111
1.0
121
0.0
131
0.0
112
0.0
122
1.0
132
0.0
 79
     0
146
0.0
 60
     3
 61
     5
292
     1
282
     1
141
0.0
142
0.0
 63
   250
361
3F
  0
ENDTAB
  0
TABLE
  2
LTYPE
  5
5
330
0
100
AcDbSymbolTable
 70
     1
  0
LTYPE
  5
14
330
5
100
AcDbSymbolTableRecord
100
AcDbLinetypeTableRecord
  2
ByBlock
 70
     0
  3

 72
    65
 73
     0
 40
0.0
  0
LTYPE
  5
15
330
5
100
AcDbSymbolTableRecord
100
AcDbLinetypeTableRecord
  2
ByLayer
 70
     0
  3

 72
    65
 73
     0
 40
0.0
  0
LTYPE
  5
16
330
5
100
AcDbSymbolTableRecord
100
AcDbLinetypeTableRecord
  2
Continuous
 70
     0
  3
Solid line
 72
    65
 73
     0
 40
0.0
  0
ENDTAB
  0
TABLE
  2
LAYER
  5
2
330
0
100
AcDbSymbolTable
 70
     2
  0
LAYER
  5
10
330
2
100
AcDbSymbolTableRecord
100
AcDbLayerTableRecord
  2
0
 70
     0
 62
     7
  6
Continuous
370
    -3
390
F
347
3E
  0
LAYER
  5
40
330
2
100
AcDbSymbolTableRecord
100
AcDbLayerTableRecord
  2
_U+30EC_U+30A4_U+30E4_U+30FC 1
 70
     0
 62
     7
  6
Continuous
370
    -3
390
F
347
3E
  0
ENDTAB
  0
TABLE
  2
STYLE
  5
3
330
0
100
AcDbSymbolTable
 70
     1
  0
STYLE
  5
11
330
3
100
AcDbSymbolTableRecord
100
AcDbTextStyleTableRecord
  2
Standard
 70
     0
 40
0.0
 41
1.0
 50
0.0
 71
     0
 42
0.2
  3
txt
  4

  0
ENDTAB
  0
TABLE
  2
VIEW
  5
6
330
0
100
AcDbSymbolTable
 70
     0
  0
ENDTAB
  0
TABLE
  2
UCS
  5
7
330
0
100
AcDbSymbolTable
 70
     0
  0
ENDTAB
  0
TABLE
  2
APPID
  5
9
330
0
100
AcDbSymbolTable
 70
     1
  0
APPID
  5
12
330
9
100
AcDbSymbolTableRecord
100
AcDbRegAppTableRecord
  2
ACAD
 70
     0
  0
ENDTAB
  0
TABLE
  2
DIMSTYLE
  5
A
330
0
100
AcDbSymbolTable
 70
     1
100
AcDbDimStyleTable
  0
DIMSTYLE
105
27
330
A
100
AcDbSymbolTableRecord
100
AcDbDimStyleTableRecord
  2
Standard
 70
     0
178
     0
340
11
  0
ENDTAB
  0
TABLE
  2
BLOCK_RECORD
  5
1
330
0
100
AcDbSymbolTable
 70
     7
  0
BLOCK_RECORD
  5
1F
330
1
100
AcDbSymbolTableRecord
100
AcDbBlockTableRecord
  2
*Model_Space
340
22
 70
     0
280
     1
281
     0
  0
BLOCK_RECORD
  5
1B
330
1
100
AcDbSymbolTableRecord
100
AcDbBlockTableRecord
  2
*Paper_Space
340
1E
 70
     0
280
     1
281
     0
  0
BLOCK_RECORD
  5
23
330
1
100
AcDbSymbolTableRecord
100
AcDbBlockTableRecord
  2
*Paper_Space0
340
26
 70
     0
280
     1
281
     0
  0
BLOCK_RECORD
  5
C5
330
1
100
AcDbSymbolTableRecord
100
AcDbBlockTableRecord
  2
block 2
340
0
102
{BLKREFS
331
C6
102
}
 70
     0
280
     1
281
     0
  0
BLOCK_RECORD
  5
10D
330
1
100
AcDbSymbolTableRecord
100
AcDbBlockTableRecord
  2
block 3
340
0
102
{BLKREFS
331
10E
102
}
 70
     0
280
     1
281
     0
  0
BLOCK_RECORD
  5
117
330
1
100
AcDbSymbolTableRecord
100
AcDbBlockTableRecord
  2
block 4
340
0
102
{BLKREFS
331
118
102
}
 70
     0
280
     1
281
     0
  0
BLOCK_RECORD
  5
133
330
1
100
AcDbSymbolTableRecord
100
AcDbBlockTableRecord
  2
block 5
340
0
102
{BLKREFS
331
134
102
}
 70
     0
280
     1
281
     0
  0
BLOCK_RECORD
  5
148
330
1
100
AcDbSymbolTableRecord
100
AcDbBlockTableRecord
  2
block 6
340
0
102
{BLKREFS
331
149
102
}
 70
     0
280
     1
281
     0
  0
BLOCK_RECORD
  5
163
330
1
100
AcDbSymbolTableRecord
100
AcDbBlockTableRecord
  2
block 7
340
0
102
{BLKREFS
331
164
102
}
 70
     0
280
     1
281
     0
  0
ENDTAB
  0
ENDSEC
  0
SECTION
  2
BLOCKS
  0
BLOCK
  5
20
330
1F
100
AcDbEntity
  8
0
100
AcDbBlockBegin
  2
*Model_Space
 70
     0
 10
0.0
 20
0.0
 30
0.0
  3
*Model_Space
  1

  0
ENDBLK
  5
21
330
1F
100
AcDbEntity
  8
0
100
AcDbBlockEnd
  0
BLOCK
  5
1C
330
1B
100
AcDbEntity
 67
     1
  8
0
100
AcDbBlockBegin
  2
*Paper_Space
 70
     0
 10
0.0
 20
0.0
 30
0.0
  3
*Paper_Space
  1

  0
ENDBLK
  5
1D
330
1B
100
AcDbEntity
 67
     1
  8
0
100
AcDbBlockEnd
  0
BLOCK
  5
24
330
23
100
AcDbEntity
  8
0
100
AcDbBlockBegin
  2
*Paper_Space0
 70
     0
 10
0.0
 20
0.0
 30
0.0
  3
*Paper_Space0
  1

  0
ENDBLK
  5
25
330
23
100
AcDbEntity
  8
0
100
AcDbBlockEnd
  0
BLOCK
  5
C7
330
C5
100
AcDbEntity
  8
0
100
AcDbBlockBegin
  2
block 2
 70
     0
 10
0.0
 20
0.0
 30
0.0
  3
block 2
  1

  0
SPLINE
  5
C9
330
C5
100
AcDbEntity
  8
_U+30EC_U+30A4_U+30E4_U+30FC 1
370
     0
100
AcDbSpline
210
0.0
220
0.0
230
1.0
 70
    11
 71
     3
 72
   197
 73
   193
 74
     0
 42
0.0000000001
 43
0.0000000001
 12
1.0
 22
0.0
 32
0.0
 13
1.0
 23
0.0
 33
0.0
 40
0.0
 40
0.0
 40
0.0
 40
0.0
 40
1.0
 40
1.0
 40
1.0
 40
2.0
 40
2.0
 40
2.0
 40
3.0
 40
3.0
 40
3.0
 40
4.0
 40
4.0
 40
4.0
 40
5.0
 40
5.0
 40
5.0
 40
6.0
 40
6.0
 40
6.0
 40
7.0
 40
7.0
 40
7.0
 40
8.0
 40
8.0
 40
8.0
 40
9.0
 40
9.0
 40
9.0
 40
10.0
 40
10.0
 40
10.0
 40
11.0
 40
11.0
 40
11.0
 40
12.0
 40
12.0
 40
12.0
 40
13.0
 40
13.0
 40
13.0
 40
14.0
 40
14.0
 40
14.0
 40
15.0
 40
15.0
 40
15.0
 40
16.0
 40
16.0
 40
16.0
 40
17.0
 40
17.0
 40
17.0
 40
18.0
 40
18.0
 40
18.0
 40
19.0
 40
19.0
 40
19.0
 40
20.0
 40
20.0
 40
20.0
 40
21.0
 40
21.0
 40
21.0
 40
22.0
 40
22.0
 40
22.0
 40
23.0
 40
23.0
 40
23.0
 40
24.0
 40
24.0
 40
24.0
 40
25.0
 40
25.0
 40
25.0
 40
26.0
 40
26.0
 40
26.0
 40
27.0
 40
27.0
 40
27.0
 40
28.0
 40
28.0
 40
28.0
 40
29.0
 40
29.0
 40
29.0
 40
30.0
 40
30.0
 40
30.0
 40
31.0
 40
31.0
 40
31.0
 40
32.0
 40
32.0
 40
32.0
 40
33.0
 40
33.0
 40
33.0
 40
34.0
 40
34.0
 40
34.0
 40
35.0
 40
35.0
 40
35.0
 40
36.0
 40
36.0
 40
36.0
 40
37.0
 40
37.0
 40
37.0
 40
38.0
 40
38.0
 40
38.0
 40
39.0
 40
39.0
 40
39.0
 40
40.0
 40
40.0
 40
40.0
 40
41.0
 40
41.0
 40
41.0
 40
42.0
 40
42.0
 40
42.0
 40
43.0
 40
43.0
 40
43.0
 40
44.0
 40
44.0
 40
44.0
 40
45.0
 40
45.0
 40
45.0
 40
46.0
 40
46.0
 40
46.0
 40
47.0
 40
47.0
 40
47.0
 40
48.0
 40
48.0
 40
48.0
 40
49.0
 40
49.0
 40
49.0
 40
50.0
 40
50.0
 40
50.0
 40
51.0
 40
51.0
 40
51.0
 40
52.0
 40
52.0
 40
52.0
 40
53.0
 40
53.0
 40
53.0
 40
54.0
 40
54.0
 40
54.0
 40
55.0
 40
55.0
 40
55.0
 40
56.0
 40
56.0
 40
56.0
 40
57.0
 40
57.0
 40
57.0
 40
58.0
 40
58.0
 40
58.0
 40
59.0
 40
59.0
 40
59.0
 40
60.0
 40
60.0
 40
60.0
 40
61.0
 40
61.0
 40
61.0
 40
62.0
 40
62.0
 40
62.0
 40
63.0
 40
63.0
 40
63.0
 40
64.0
 40
64.0
 40
64.0
 40
64.0
 10
96.17673066171972
 20
-126.3278618390778
 30
0.0
 10
96.16639537526396
 20
-126.3574896602509
 30
0.0
 10
96.14400225460983
 20
-126.4039984493018
 30
0.0
 10
96.13401147770261
 20
-126.4315592131838
 30
0.0
 10
96.13401147770261
 20
-126.4315592131838
 30
0.0
 10
96.07475583535631
 20
-126.5838324336318
 30
0.0
 10
96.07475583535631
 20
-126.5838324336318
 30
0.0
 10
96.0647650584491
 20
-126.6093261402227
 30
0.0
 10
96.0179117598497
 20
-126.7212917434933
 30
0.0
 10
96.0055094161028
 20
-126.744718392793
 30
0.0
 10
96.00378686836017
 20
-126.7509195646664
 30
0.0
 10
95.99965275377787
 20
-126.7595323033796
 30
0.0
 10
95.99758569648672
 20
-126.765733475253
 30
0.0
 10
95.99758569648672
 20
-126.765733475253
 30
0.0
 10
95.7960476105996
 20
-126.7130235143287
 30
0.0
 10
95.7960476105996
 20
-126.7130235143287
 30
0.0
 10
95.87149520172657
 20
-126.6031249683492
 30
0.0
 10
95.93040633452435
 20
-126.4677327157789
 30
0.0
 10
95.96106768434306
 20
-126.3574896602509
 30
0.0
 10
95.96106768434306
 20
-126.3574896602509
 30
0.0
 10
95.51320527126059
 20
-126.3574896602509
 30
0.0
 10
95.51320527126059
 20
-126.3574896602509
 30
0.0
 10
95.436035132391
 20
-126.5225097339944
 30
0.0
 10
95.37092282771977
 20
-126.6007134015096
 30
0.0
 10
95.3381944206099
 20
-126.641021018687
 30
0.0
 10
95.3381944206099
 20
-126.641021018687
 30
0.0
 10
95.22037215501436
 20
-126.5755642044672
 30
0.0
 10
95.22037215501436
 20
-126.5755642044672
 30
0.0
 10
95.22037215501436
 20
-126.5755642044672
 30
0.0
 10
95.22037215501436
 20
-126.7467854500841
 30
0.0
 10
95.22037215501436
 20
-126.7467854500841
 30
0.0
 10
95.22037215501436
 20
-126.8546169387725
 30
0.0
 10
95.2224392123055
 20
-126.903537294663
 30
0.0
 10
95.23242998921273
 20
-127.0093017260602
 30
0.0
 10
95.1631835699592
 20
-127.0068901592205
 30
0.0
 10
95.14285750659623
 20
-127.0068901592205
 30
0.0
 10
94.94545353529142
 20
-127.0068901592205
 30
0.0
 10
94.94545353529142
 20
-127.0068901592205
 30
0.0
 10
94.8927435743671
 20
-127.0068901592205
 30
0.0
 10
94.8927435743671
 20
-127.0068901592205
 30
0.0
 10
94.8927435743671
 20
-127.0068901592205
 30
0.0
 10
94.8927435743671
 20
-127.1422824117908
 30
0.0
 10
94.8927435743671
 20
-127.1422824117908
 30
0.0
 10
94.8927435743671
 20
-127.1422824117908
 30
0.0
 10
94.96198999362062
 20
-127.1422824117908
 30
0.0
 10
94.96198999362062
 20
-127.1422824117908
 30
0.0
 10
95.0250352410007
 20
-127.1422824117908
 30
0.0
 10
95.16525062725036
 20
-127.1381482972085
 30
0.0
 10
95.26688094406524
 20
-127.1298800680439
 30
0.0
 10
95.26688094406524
 20
-127.1298800680439
 30
0.0
 10
95.26688094406524
 20
-127.3073024855343
 30
0.0
 10
95.26688094406524
 20
-127.3073024855343
 30
0.0
 10
95.17351885641496
 20
-127.3011013136608
 30
0.0
 10
95.0209011264184
 20
-127.2969671990785
 30
0.0
 10
94.96198999362062
 20
-127.2969671990785
 30
0.0
 10
94.96198999362062
 20
-127.2969671990785
 30
0.0
 10
94.8927435743671
 20
-127.2969671990785
 30
0.0
 10
94.8927435743671
 20
-127.2969671990785
 30
0.0
 10
94.89481063165825
 20
-127.385850662598
 30
0.0
 10
94.89860023669202
 20
-127.6245957797258
 30
0.0
 10
94.90066729398318
 20
-127.6986653326587
 30
0.0
 10
94.90066729398318
 20
-127.6986653326587
 30
0.0
 10
94.70739743726065
 20
-127.6986653326587
 30
0.0
 10
94.70739743726065
 20
-127.6986653326587
 30
0.0
 10
94.71979978100755
 20
-127.4850694125732
 30
0.0
 10
94.71979978100755
 20
-127.4554415914
 30
0.0
 10
94.72393389558985
 20
-127.2969671990785
 30
0.0
 10
94.72393389558985
 20
-127.2969671990785
 30
0.0
 10
94.65675453362748
 20
-127.2969671990785
 30
0.0
 10
94.65675453362748
 20
-127.2969671990785
 30
0.0
 10
94.60163300586349
 20
-127.2969671990785
 30
0.0
 10
94.45521644774037
 20
-127.3011013136608
 30
0.0
 10
94.3494520163432
 20
-127.3073024855343
 30
0.0
 10
94.3494520163432
 20
-127.3073024855343
 30
0.0
 10
94.3494520163432
 20
-127.1298800680439
 30
0.0
 10
94.3494520163432
 20
-127.1298800680439
 30
0.0
 10
94.45108233315807
 20
-127.1381482972085
 30
0.0
 10
94.5895751716651
 20
-127.1422824117908
 30
0.0
 10
94.65675453362748
 20
-127.1422824117908
 30
0.0
 10
94.65675453362748
 20
-127.1422824117908
 30
0.0
 10
94.72772350062363
 20
-127.1422824117908
 30
0.0
 10
94.72772350062363
 20
-127.1422824117908
 30
0.0
 10
94.72772350062363
 20
-127.1422824117908
 30
0.0
 10
94.72772350062363
 20
-127.0068901592205
 30
0.0
 10
94.72772350062363
 20
-127.0068901592205
 30
0.0
 10
94.72772350062363
 20
-127.0068901592205
 30
0.0
 10
94.68500431660654
 20
-127.0068901592205
 30
0.0
 10
94.68500431660654
 20
-127.0068901592205
 30
0.0
 10
94.61196829231923
 20
-127.0068901592205
 30
0.0
 10
94.4266221552128
 20
-127.0093017260602
 30
0.0
 10
94.39423825765145
 20
-127.0093017260602
 30
0.0
 10
94.40009491997637
 20
-126.9372992304185
 30
0.0
 10
94.40836314914097
 20
-126.8566839960636
 30
0.0
 10
94.40836314914097
 20
-126.7361056540799
 30
0.0
 10
94.40836314914097
 20
-126.7361056540799
 30
0.0
 10
94.40836314914097
 20
-126.5628173511718
 30
0.0
 10
94.40836314914097
 20
-126.5628173511718
 30
0.0
 10
94.40836314914097
 20
-126.4908148555301
 30
0.0
 10
94.40009491997637
 20
-126.3702365135463
 30
0.0
 10
94.39423825765145
 20
-126.28996578874
 30
0.0
 10
94.46934133922989
 20
-126.2940999033223
 30
0.0
 10
94.50620386092207
 20
-126.2961669606135
 30
0.0
 10
94.6281602410999
 20
-126.2961669606135
 30
0.0
 10
94.6281602410999
 20
-126.2961669606135
 30
0.0
 10
94.72772350062363
 20
-126.2961669606135
 30
0.0
 10
94.72772350062363
 20
-126.2961669606135
 30
0.0
 10
94.72772350062363
 20
-126.2961669606135
 30
0.0
 10
94.72772350062363
 20
-126.1500949120389
 30
0.0
 10
94.72772350062363
 20
-126.1500949120389
 30
0.0
 10
94.72772350062363
 20
-126.1500949120389
 30
0.0
 10
94.65262041904518
 20
-126.1500949120389
 30
0.0
 10
94.65262041904518
 20
-126.1500949120389
 30
0.0
 10
94.59956594857233
 20
-126.1500949120389
 30
0.0
 10
94.4348903843774
 20
-126.1545735361697
 30
0.0
 10
94.35358613092549
 20
-126.1607747080431
 30
0.0
 10
94.35358613092549
 20
-126.1607747080431
 30
0.0
 10
94.35358613092549
 20
-125.9830077810042
 30
0.0
 10
94.35358613092549
 20
-125.9830077810042
 30
0.0
 10
94.43282332708624
 20
-125.9895534624262
 30
0.0
 10
94.5895751716651
 20
-125.9936875770085
 30
0.0
 10
94.65262041904518
 20
-125.9936875770085
 30
0.0
 10
94.65262041904518
 20
-125.9936875770085
 30
0.0
 10
94.72772350062363
 20
-125.9936875770085
 30
0.0
 10
94.72772350062363
 20
-125.9936875770085
 30
0.0
 10
94.72772350062363
 20
-125.9599256412531
 30
0.0
 10
94.72393389558985
 20
-125.8055853635139
 30
0.0
 10
94.72393389558985
 20
-125.7735459755011
 30
0.0
 10
94.72393389558985
 20
-125.7735459755011
 30
0.0
 10
94.91306963773008
 20
-125.7907714529273
 30
0.0
 10
94.91306963773008
 20
-125.7907714529273
 30
0.0
 10
94.92926158651075
 20
-125.7928385102185
 30
0.0
 10
94.94958764987372
 20
-125.7949055675096
 30
0.0
 10
94.94958764987372
 20
-125.8159206499696
 30
0.0
 10
94.94958764987372
 20
-125.8393472992693
 30
0.0
 10
94.92926158651075
 20
-125.8476155284339
 30
0.0
 10
94.90273435127432
 20
-125.8603623817294
 30
0.0
 10
94.90273435127432
 20
-125.8817219737379
 30
0.0
 10
94.90066729398318
 20
-125.9768066091308
 30
0.0
 10
94.90066729398318
 20
-125.9936875770085
 30
0.0
 10
94.90066729398318
 20
-125.9936875770085
 30
0.0
 10
94.95785587903832
 20
-125.9936875770085
 30
0.0
 10
94.95785587903832
 20
-125.9936875770085
 30
0.0
 10
95.02296818370954
 20
-125.9936875770085
 30
0.0
 10
95.16111651266806
 20
-125.9895534624262
 30
0.0
 10
95.26309133903145
 20
-125.9830077810042
 30
0.0
 10
95.26309133903145
 20
-125.9830077810042
 30
0.0
 10
95.26309133903145
 20
-126.1607747080431
 30
0.0
 10
95.26309133903145
 20
-126.1607747080431
 30
0.0
 10
95.16938474183266
 20
-126.1545735361697
 30
0.0
 10
95.01883406912724
 20
-126.1500949120389
 30
0.0
 10
94.95785587903832
 20
-126.1500949120389
 30
0.0
 10
94.95785587903832
 20
-126.1500949120389
 30
0.0
 10
94.8927435743671
 20
-126.1500949120389
 30
0.0
 10
94.8927435743671
 20
-126.1500949120389
 30
0.0
 10
94.8927435743671
 20
-126.1500949120389
 30
0.0
 10
94.8927435743671
 20
-126.2961669606135
 30
0.0
 10
94.8927435743671
 20
-126.2961669606135
 30
0.0
 10
94.8927435743671
 20
-126.2961669606135
 30
0.0
 10
94.95992293632946
 20
-126.2961669606135
 30
0.0
 10
94.95992293632946
 20
-126.2961669606135
 30
0.0
 10
95.10427243716144
 20
-126.2961669606135
 30
0.0
 10
95.17351885641496
 20
-126.2920328460312
 30
0.0
 10
95.23242998921273
 20
-126.28996578874
 30
0.0
 10
95.22416176004813
 20
-126.3850504241329
 30
0.0
 10
95.2224392123055
 20
-126.4632540916481
 30
0.0
 10
95.22037215501436
 20
-126.5014946515344
 30
0.0
 10
95.36885577042862
 20
-126.28996578874
 30
0.0
 10
95.4704860872435
 20
-126.0422634233505
 30
0.0
 10
95.48667803602417
 20
-125.780091656923
 30
0.0
 10
95.48667803602417
 20
-125.780091656923
 30
0.0
 10
95.69441729378474
 20
-125.8307345605562
 30
0.0
 10
95.69441729378474
 20
-125.8307345605562
 30
0.0
 10
95.70854218527425
 20
-125.835213184687
 30
0.0
 10
95.72301158631231
 20
-125.8414143565605
 30
0.0
 10
95.72301158631231
 20
-125.8582953244382
 30
0.0
 10
95.72301158631231
 20
-125.8751762923159
 30
0.0
 10
95.71887747173001
 20
-125.8772433496071
 30
0.0
 10
95.66995711583947
 20
-125.8986029416156
 30
0.0
 10
95.65376516705878
 20
-125.9747395518396
 30
0.0
 10
95.6293049891135
 20
-126.0656900726503
 30
0.0
 10
95.58245169051412
 20
-126.1924695865074
 30
0.0
 10
95.58245169051412
 20
-126.1924695865074
 30
0.0
 10
95.90801321387022
 20
-126.1924695865074
 30
0.0
 10
95.90801321387022
 20
-126.1924695865074
 30
0.0
 10
95.94453122601386
 20
-126.1924695865074
 30
0.0
 10
96.0688991730314
 20
-126.1883354719251
 30
0.0
 10
96.11540796208226
 20
-126.1821343000517
 30
0.0
 10
96.11540796208226
 20
-126.1821343000517
 30
0.0
 10
96.20498044469876
 20
-126.2517252288537
 30
0.0
 10
96.20498044469876
 20
-126.2517252288537
 30
0.0
 10
96.19705672508269
 20
-126.2730848208623
 30
0.0
 10
96.19085555320923
 20
-126.2920328460312
 30
0.0
 10
96.17673066171972
 20
-126.3278618390778
 30
0.0
  0
POLYLINE
  5
CA
330
C5
100
AcDbEntity
  8
_U+30EC_U+30A4_U+30E4_U+30FC 1
370
     0
100
AcDb2dPolyline
 66
     1
 10
0.0
 20
0.0
 30
0.0
  0
VERTEX
  5
CB
330
CA
100
AcDbEntity
  8
_U+30EC_U+30A4_U+30E4_U+30FC 1
370
     0
100
AcDbVertex
100
AcDb2dVertex
 10
94.72772350062363
 20
-126.4529188051923
 30
0.0
  0
VERTEX
  5
CC
330
CA
100
AcDbEntity
  8
_U+30EC_U+30A4_U+30E4_U+30FC 1
370
     0
100
AcDbVertex
100
AcDb2dVertex
 10
94.57510577062706
 20
-126.4529188051923
 30
0.0
  0
VERTEX
  5
CD
330
CA
100
AcDbEntity
  8
_U+30EC_U+30A4_U+30E4_U+30FC 1
370
     0
100
AcDbVertex
100
AcDb2dVertex
 10
94.57510577062706
 20
-126.5817653763407
 30
0.0
  0
VERTEX
  5
CE
330
CA
100
AcDbEntity
  8
_U+30EC_U+30A4_U+30E4_U+30FC 1
370
     0
100
AcDbVertex
100
AcDb2dVertex
 10
94.72772350062363
 20
-126.5817653763407
 30
0.0
  0
VERTEX
  5
CF
330
CA
100
AcDbEntity
  8
_U+30EC_U+30A4_U+30E4_U+30FC 1
370
     0
100
AcDbVertex
100
AcDb2dVertex
 10
94.72772350062363
 20
-126.4529188051923
 30
0.0
  0
SEQEND
  5
D0
330
CA
100
AcDbEntity
  8
_U+30EC_U+30A4_U+30E4_U+30FC 1
370
     0
  0
POLYLINE
  5
D1
330
C5
100
AcDbEntity
  8
_U+30EC_U+30A4_U+30E4_U+30FC 1
370
     0
100
AcDb2dPolyline
 66
     1
 10
0.0
 20
0.0
 30
0.0
  0
VERTEX
  5
D2
330
D1
100
AcDbEntity
  8
_U+30EC_U+30A4_U+30E4_U+30FC 1
370
     0
100
AcDbVertex
100
AcDb2dVertex
 10
94.72772350062363
 20
-126.7257703676241
 30
0.0
  0
VERTEX
  5
D3
330
D1
100
AcDbEntity
  8
_U+30EC_U+30A4_U+30E4_U+30FC 1
370
     0
100
AcDbVertex
100
AcDb2dVertex
 10
94.57510577062706
 20
-126.7257703676241
 30
0.0
  0
VERTEX
  5
D4
330
D1
100
AcDbEntity
  8
_U+30EC_U+30A4_U+30E4_U+30FC 1
370
     0
100
AcDbVertex
100
AcDb2dVertex
 10
94.57510577062706
 20
-126.8546169387725
 30
0.0
  0
VERTEX
  5
D5
330
D1
100
AcDbEntity
  8
_U+30EC_U+30A4_U+30E4_U+30FC 1
370
     0
100
AcDbVertex
100
AcDb2dVertex
 10
94.72772350062363
 20
-126.8546169387725
 30
0.0
  0
VERTEX
  5
D6
330
D1
100
AcDbEntity
  8
_U+30EC_U+30A4_U+30E4_U+30FC 1
370
     0
100
AcDbVertex
100
AcDb2dVertex
 10
94.72772350062363
 20
-126.7257703676241
 30
0.0
  0
SEQEND
  5
D7
330
D1
100
AcDbEntity
  8
_U+30EC_U+30A4_U+30E4_U+30FC 1
370
     0
  0
POLYLINE
  5
D8
330
C5
100
AcDbEntity
  8
_U+30EC_U+30A4_U+30E4_U+30FC 1
370
     0
100
AcDb2dPolyline
 66
     1
 10
0.0
 20
0.0
 30
0.0
  0
VERTEX
  5
D9
330
D8
100
AcDbEntity
  8
_U+30EC_U+30A4_U+30E4_U+30FC 1
370
     0
100
AcDbVertex
100
AcDb2dVertex
 10
95.04742836165481
 20
-126.4529188051923
 30
0.0
  0
VERTEX
  5
DA
330
D8
100
AcDbEntity
  8
_U+30EC_U+30A4_U+30E4_U+30FC 1
370
     0
100
AcDbVertex
100
AcDb2dVertex
 10
94.8927435743671
 20
-126.4529188051923
 30
0.0
  0
VERTEX
  5
DB
330
D8
100
AcDbEntity
  8
_U+30EC_U+30A4_U+30E4_U+30FC 1
370
     0
100
AcDbVertex
100
AcDb2dVertex
 10
94.8927435743671
 20
-126.5817653763407
 30
0.0
  0
VERTEX
  5
DC
330
D8
100
AcDbEntity
  8
_U+30EC_U+30A4_U+30E4_U+30FC 1
370
     0
100
AcDbVertex
100
AcDb2dVertex
 10
95.04742836165481
 20
-126.5817653763407
 30
0.0
  0
VERTEX
  5
DD
330
D8
100
AcDbEntity
  8
_U+30EC_U+30A4_U+30E4_U+30FC 1
370
     0
100
AcDbVertex
100
AcDb2dVertex
 10
95.04742836165481
 20
-126.4529188051923
 30
0.0
  0
SEQEND
  5
DE
330
D8
100
AcDbEntity
  8
_U+30EC_U+30A4_U+30E4_U+30FC 1
370
     0
  0
POLYLINE
  5
DF
330
C5
100
AcDbEntity
  8
_U+30EC_U+30A4_U+30E4_U+30FC 1
370
     0
100
AcDb2dPolyline
 66
     1
 10
0.0
 20
0.0
 30
0.0
  0
VERTEX
  5
E0
330
DF
100
AcDbEntity
  8
_U+30EC_U+30A4_U+30E4_U+30FC 1
370
     0
100
AcDbVertex
100
AcDb2dVertex
 10
95.04742836165481
 20
-126.7257703676241
 30
0.0
  0
VERTEX
  5
E1
330
DF
100
AcDbEntity
  8
_U+30EC_U+30A4_U+30E4_U+30FC 1
370
     0
100
AcDbVertex
100
AcDb2dVertex
 10
94.8927435743671
 20
-126.7257703676241
 30
0.0
  0
VERTEX
  5
E2
330
DF
100
AcDbEntity
  8
_U+30EC_U+30A4_U+30E4_U+30FC 1
370
     0
100
AcDbVertex
100
AcDb2dVertex
 10
94.8927435743671
 20
-126.8546169387725
 30
0.0
  0
VERTEX
  5
E3
330
DF
100
AcDbEntity
  8
_U+30EC_U+30A4_U+30E4_U+30FC 1
370
     0
100
AcDbVertex
100
AcDb2dVertex
 10
95.04742836165481
 20
-126.8546169387725
 30
0.0
  0
VERTEX
  5
E4
330
DF
100
AcDbEntity
  8
_U+30EC_U+30A4_U+30E4_U+30FC 1
370
     0
100
AcDbVertex
100
AcDb2dVertex
 10
95.04742836165481
 20
-126.7257703676241
 30
0.0
  0
SEQEND
  5
E5
330
DF
100
AcDbEntity
  8
_U+30EC_U+30A4_U+30E4_U+30FC 1
370
     0
  0
SPLINE
  5
E6
330
C5
100
AcDbEntity
  8
_U+30EC_U+30A4_U+30E4_U+30FC 1
370
     0
100
AcDbSpline
210
0.0
220
0.0
230
1.0
 70
    11
 71
     3
 72
    41
 73
    37
 74
     0
 42
0.0000000001
 43
0.0000000001
 12
1.0
 22
0.0
 32
0.0
 13
1.0
 23
0.0
 33
0.0
 40
0.0
 40
0.0
 40
0.0
 40
0.0
 40
1.0
 40
1.0
 40
1.0
 40
2.0
 40
2.0
 40
2.0
 40
3.0
 40
3.0
 40
3.0
 40
4.0
 40
4.0
 40
4.0
 40
5.0
 40
5.0
 40
5.0
 40
6.0
 40
6.0
 40
6.0
 40
7.0
 40
7.0
 40
7.0
 40
8.0
 40
8.0
 40
8.0
 40
9.0
 40
9.0
 40
9.0
 40
10.0
 40
10.0
 40
10.0
 40
11.0
 40
11.0
 40
11.0
 40
12.0
 40
12.0
 40
12.0
 40
12.0
 10
96.09508189871929
 20
-127.6838514220721
 30
0.0
 10
95.86322697256198
 20
-127.5484591695018
 30
0.0
 10
95.69235023649358
 20
-127.2525254673188
 30
0.0
 10
95.65376516705878
 20
-127.1233343866219
 30
0.0
 10
95.53766544920586
 20
-127.3879177198891
 30
0.0
 10
95.380913604627
 20
-127.565684646928
 30
0.0
 10
95.2059027539763
 20
-127.6797173074898
 30
0.0
 10
95.2059027539763
 20
-127.6797173074898
 30
0.0
 10
95.0167670118361
 20
-127.5422579976283
 30
0.0
 10
95.0167670118361
 20
-127.5422579976283
 30
0.0
 10
95.08394637379847
 20
-127.5167642910375
 30
0.0
 10
95.22416176004813
 20
-127.4554415914
 30
0.0
 10
95.3423285351922
 20
-127.3011013136608
 30
0.0
 10
95.46256236762741
 20
-127.1446939786305
 30
0.0
 10
95.54800073566162
 20
-126.9118055238276
 30
0.0
 10
95.54800073566162
 20
-126.6517008146913
 30
0.0
 10
95.54800073566162
 20
-126.5500704978764
 30
0.0
 10
95.53559839191472
 20
-126.4780680022347
 30
0.0
 10
95.52560761500749
 20
-126.4315592131838
 30
0.0
 10
95.52560761500749
 20
-126.4315592131838
 30
0.0
 10
95.72301158631231
 20
-126.4529188051923
 30
0.0
 10
95.72301158631231
 20
-126.4529188051923
 30
0.0
 10
95.74333764967528
 20
-126.4549858624835
 30
0.0
 10
95.76366371303826
 20
-126.4570529197746
 30
0.0
 10
95.76366371303826
 20
-126.4780680022347
 30
0.0
 10
95.76366371303826
 20
-126.4973605369521
 30
0.0
 10
95.7533284265825
 20
-126.5056287661167
 30
0.0
 10
95.72094452902115
 20
-126.5266438485767
 30
0.0
 10
95.71267629985655
 20
-126.7278374249153
 30
0.0
 10
95.76745331807203
 20
-126.9710611661739
 30
0.0
 10
95.82670896041833
 20
-127.0916395081577
 30
0.0
 10
95.91421438574368
 20
-127.2673393779054
 30
0.0
 10
96.10128307059274
 20
-127.4471733622354
 30
0.0
 10
96.23150767993518
 20
-127.5040174377421
 30
0.0
 10
96.23150767993518
 20
-127.5040174377421
 30
0.0
 10
96.09508189871929
 20
-127.6838514220721
 30
0.0
 10
96.09508189871929
 20
-127.6838514220721
 30
0.0
  0
HATCH
  5
E7
330
C5
100
AcDbEntity
  8
_U+30EC_U+30A4_U+30E4_U+30FC 1
 62
   179
420
  2234388
100
AcDbHatch
 10
0.0
 20
0.0
 30
0.0
210
0.0
220
0.0
230
1.0
  2
SOLID
 70
     1
 71
     0
 91
        6
 92
        1
 93
        1
 72
     4
 94
        3
 73
     0
 74
     1
 95
      197
 96
      193
 40
0.0
 40
0.0
 40
0.0
 40
0.0
 40
1.0
 40
1.0
 40
1.0
 40
2.0
 40
2.0
 40
2.0
 40
3.0
 40
3.0
 40
3.0
 40
4.0
 40
4.0
 40
4.0
 40
5.0
 40
5.0
 40
5.0
 40
6.0
 40
6.0
 40
6.0
 40
7.0
 40
7.0
 40
7.0
 40
8.0
 40
8.0
 40
8.0
 40
9.0
 40
9.0
 40
9.0
 40
10.0
 40
10.0
 40
10.0
 40
11.0
 40
11.0
 40
11.0
 40
12.0
 40
12.0
 40
12.0
 40
13.0
 40
13.0
 40
13.0
 40
14.0
 40
14.0
 40
14.0
 40
15.0
 40
15.0
 40
15.0
 40
16.0
 40
16.0
 40
16.0
 40
17.0
 40
17.0
 40
17.0
 40
18.0
 40
18.0
 40
18.0
 40
19.0
 40
19.0
 40
19.0
 40
20.0
 40
20.0
 40
20.0
 40
21.0
 40
21.0
 40
21.0
 40
22.0
 40
22.0
 40
22.0
 40
23.0
 40
23.0
 40
23.0
 40
24.0
 40
24.0
 40
24.0
 40
25.0
 40
25.0
 40
25.0
 40
26.0
 40
26.0
 40
26.0
 40
27.0
 40
27.0
 40
27.0
 40
28.0
 40
28.0
 40
28.0
 40
29.0
 40
29.0
 40
29.0
 40
30.0
 40
30.0
 40
30.0
 40
31.0
 40
31.0
 40
31.0
 40
32.0
 40
32.0
 40
32.0
 40
33.0
 40
33.0
 40
33.0
 40
34.0
 40
34.0
 40
34.0
 40
35.0
 40
35.0
 40
35.0
 40
36.0
 40
36.0
 40
36.0
 40
37.0
 40
37.0
 40
37.0
 40
38.0
 40
38.0
 40
38.0
 40
39.0
 40
39.0
 40
39.0
 40
40.0
 40
40.0
 40
40.0
 40
41.0
 40
41.0
 40
41.0
 40
42.0
 40
42.0
 40
42.0
 40
43.0
 40
43.0
 40
43.0
 40
44.0
 40
44.0
 40
44.0
 40
45.0
 40
45.0
 40
45.0
 40
46.0
 40
46.0
 40
46.0
 40
47.0
 40
47.0
 40
47.0
 40
48.0
 40
48.0
 40
48.0
 40
49.0
 40
49.0
 40
49.0
 40
50.0
 40
50.0
 40
50.0
 40
51.0
 40
51.0
 40
51.0
 40
52.0
 40
52.0
 40
52.0
 40
53.0
 40
53.0
 40
53.0
 40
54.0
 40
54.0
 40
54.0
 40
55.0
 40
55.0
 40
55.0
 40
56.0
 40
56.0
 40
56.0
 40
57.0
 40
57.0
 40
57.0
 40
58.0
 40
58.0
 40
58.0
 40
59.0
 40
59.0
 40
59.0
 40
60.0
 40
60.0
 40
60.0
 40
61.0
 40
61.0
 40
61.0
 40
62.0
 40
62.0
 40
62.0
 40
63.0
 40
63.0
 40
63.0
 40
64.0
 40
64.0
 40
64.0
 40
64.0
 10
96.17673066171972
 20
-126.3278618390778
 10
96.16639537526396
 20
-126.3574896602509
 10
96.14400225460983
 20
-126.4039984493018
 10
96.13401147770261
 20
-126.4315592131838
 10
96.13401147770261
 20
-126.4315592131838
 10
96.07475583535631
 20
-126.5838324336318
 10
96.07475583535631
 20
-126.5838324336318
 10
96.0647650584491
 20
-126.6093261402227
 10
96.0179117598497
 20
-126.7212917434933
 10
96.0055094161028
 20
-126.744718392793
 10
96.00378686836017
 20
-126.7509195646664
 10
95.99965275377787
 20
-126.7595323033796
 10
95.99758569648672
 20
-126.765733475253
 10
95.99758569648672
 20
-126.765733475253
 10
95.7960476105996
 20
-126.7130235143287
 10
95.7960476105996
 20
-126.7130235143287
 10
95.87149520172657
 20
-126.6031249683492
 10
95.93040633452435
 20
-126.4677327157789
 10
95.96106768434306
 20
-126.3574896602509
 10
95.96106768434306
 20
-126.3574896602509
 10
95.51320527126059
 20
-126.3574896602509
 10
95.51320527126059
 20
-126.3574896602509
 10
95.436035132391
 20
-126.5225097339944
 10
95.37092282771977
 20
-126.6007134015096
 10
95.3381944206099
 20
-126.641021018687
 10
95.3381944206099
 20
-126.641021018687
 10
95.22037215501436
 20
-126.5755642044672
 10
95.22037215501436
 20
-126.5755642044672
 10
95.22037215501436
 20
-126.5755642044672
 10
95.22037215501436
 20
-126.7467854500841
 10
95.22037215501436
 20
-126.7467854500841
 10
95.22037215501436
 20
-126.8546169387725
 10
95.2224392123055
 20
-126.903537294663
 10
95.23242998921273
 20
-127.0093017260602
 10
95.1631835699592
 20
-127.0068901592205
 10
95.14285750659623
 20
-127.0068901592205
 10
94.94545353529142
 20
-127.0068901592205
 10
94.94545353529142
 20
-127.0068901592205
 10
94.8927435743671
 20
-127.0068901592205
 10
94.8927435743671
 20
-127.0068901592205
 10
94.8927435743671
 20
-127.0068901592205
 10
94.8927435743671
 20
-127.1422824117908
 10
94.8927435743671
 20
-127.1422824117908
 10
94.8927435743671
 20
-127.1422824117908
 10
94.96198999362062
 20
-127.1422824117908
 10
94.96198999362062
 20
-127.1422824117908
 10
95.0250352410007
 20
-127.1422824117908
 10
95.16525062725036
 20
-127.1381482972085
 10
95.26688094406524
 20
-127.1298800680439
 10
95.26688094406524
 20
-127.1298800680439
 10
95.26688094406524
 20
-127.3073024855343
 10
95.26688094406524
 20
-127.3073024855343
 10
95.17351885641496
 20
-127.3011013136608
 10
95.0209011264184
 20
-127.2969671990785
 10
94.96198999362062
 20
-127.2969671990785
 10
94.96198999362062
 20
-127.2969671990785
 10
94.8927435743671
 20
-127.2969671990785
 10
94.8927435743671
 20
-127.2969671990785
 10
94.89481063165825
 20
-127.385850662598
 10
94.89860023669202
 20
-127.6245957797258
 10
94.90066729398318
 20
-127.6986653326587
 10
94.90066729398318
 20
-127.6986653326587
 10
94.70739743726065
 20
-127.6986653326587
 10
94.70739743726065
 20
-127.6986653326587
 10
94.71979978100755
 20
-127.4850694125732
 10
94.71979978100755
 20
-127.4554415914
 10
94.72393389558985
 20
-127.2969671990785
 10
94.72393389558985
 20
-127.2969671990785
 10
94.65675453362748
 20
-127.2969671990785
 10
94.65675453362748
 20
-127.2969671990785
 10
94.60163300586349
 20
-127.2969671990785
 10
94.45521644774037
 20
-127.3011013136608
 10
94.3494520163432
 20
-127.3073024855343
 10
94.3494520163432
 20
-127.3073024855343
 10
94.3494520163432
 20
-127.1298800680439
 10
94.3494520163432
 20
-127.1298800680439
 10
94.45108233315807
 20
-127.1381482972085
 10
94.5895751716651
 20
-127.1422824117908
 10
94.65675453362748
 20
-127.1422824117908
 10
94.65675453362748
 20
-127.1422824117908
 10
94.72772350062363
 20
-127.1422824117908
 10
94.72772350062363
 20
-127.1422824117908
 10
94.72772350062363
 20
-127.1422824117908
 10
94.72772350062363
 20
-127.0068901592205
 10
94.72772350062363
 20
-127.0068901592205
 10
94.72772350062363
 20
-127.0068901592205
 10
94.68500431660654
 20
-127.0068901592205
 10
94.68500431660654
 20
-127.0068901592205
 10
94.61196829231923
 20
-127.0068901592205
 10
94.4266221552128
 20
-127.0093017260602
 10
94.39423825765145
 20
-127.0093017260602
 10
94.40009491997637
 20
-126.9372992304185
 10
94.40836314914097
 20
-126.8566839960636
 10
94.40836314914097
 20
-126.7361056540799
 10
94.40836314914097
 20
-126.7361056540799
 10
94.40836314914097
 20
-126.5628173511718
 10
94.40836314914097
 20
-126.5628173511718
 10
94.40836314914097
 20
-126.4908148555301
 10
94.40009491997637
 20
-126.3702365135463
 10
94.39423825765145
 20
-126.28996578874
 10
94.46934133922989
 20
-126.2940999033223
 10
94.50620386092207
 20
-126.2961669606135
 10
94.6281602410999
 20
-126.2961669606135
 10
94.6281602410999
 20
-126.2961669606135
 10
94.72772350062363
 20
-126.2961669606135
 10
94.72772350062363
 20
-126.2961669606135
 10
94.72772350062363
 20
-126.2961669606135
 10
94.72772350062363
 20
-126.1500949120389
 10
94.72772350062363
 20
-126.1500949120389
 10
94.72772350062363
 20
-126.1500949120389
 10
94.65262041904518
 20
-126.1500949120389
 10
94.65262041904518
 20
-126.1500949120389
 10
94.59956594857233
 20
-126.1500949120389
 10
94.4348903843774
 20
-126.1545735361697
 10
94.35358613092549
 20
-126.1607747080431
 10
94.35358613092549
 20
-126.1607747080431
 10
94.35358613092549
 20
-125.9830077810042
 10
94.35358613092549
 20
-125.9830077810042
 10
94.43282332708624
 20
-125.9895534624262
 10
94.5895751716651
 20
-125.9936875770085
 10
94.65262041904518
 20
-125.9936875770085
 10
94.65262041904518
 20
-125.9936875770085
 10
94.72772350062363
 20
-125.9936875770085
 10
94.72772350062363
 20
-125.9936875770085
 10
94.72772350062363
 20
-125.9599256412531
 10
94.72393389558985
 20
-125.8055853635139
 10
94.72393389558985
 20
-125.7735459755011
 10
94.72393389558985
 20
-125.7735459755011
 10
94.91306963773008
 20
-125.7907714529273
 10
94.91306963773008
 20
-125.7907714529273
 10
94.92926158651075
 20
-125.7928385102185
 10
94.94958764987372
 20
-125.7949055675096
 10
94.94958764987372
 20
-125.8159206499696
 10
94.94958764987372
 20
-125.8393472992693
 10
94.92926158651075
 20
-125.8476155284339
 10
94.90273435127432
 20
-125.8603623817294
 10
94.90273435127432
 20
-125.8817219737379
 10
94.90066729398318
 20
-125.9768066091308
 10
94.90066729398318
 20
-125.9936875770085
 10
94.90066729398318
 20
-125.9936875770085
 10
94.95785587903832
 20
-125.9936875770085
 10
94.95785587903832
 20
-125.9936875770085
 10
95.02296818370954
 20
-125.9936875770085
 10
95.16111651266806
 20
-125.9895534624262
 10
95.26309133903145
 20
-125.9830077810042
 10
95.26309133903145
 20
-125.9830077810042
 10
95.26309133903145
 20
-126.1607747080431
 10
95.26309133903145
 20
-126.1607747080431
 10
95.16938474183266
 20
-126.1545735361697
 10
95.01883406912724
 20
-126.1500949120389
 10
94.95785587903832
 20
-126.1500949120389
 10
94.95785587903832
 20
-126.1500949120389
 10
94.8927435743671
 20
-126.1500949120389
 10
94.8927435743671
 20
-126.1500949120389
 10
94.8927435743671
 20
-126.1500949120389
 10
94.8927435743671
 20
-126.2961669606135
 10
94.8927435743671
 20
-126.2961669606135
 10
94.8927435743671
 20
-126.2961669606135
 10
94.95992293632946
 20
-126.2961669606135
 10
94.95992293632946
 20
-126.2961669606135
 10
95.10427243716144
 20
-126.2961669606135
 10
95.17351885641496
 20
-126.2920328460312
 10
95.23242998921273
 20
-126.28996578874
 10
95.22416176004813
 20
-126.3850504241329
 10
95.2224392123055
 20
-126.4632540916481
 10
95.22037215501436
 20
-126.5014946515344
 10
95.36885577042862
 20
-126.28996578874
 10
95.4704860872435
 20
-126.0422634233505
 10
95.48667803602417
 20
-125.780091656923
 10
95.48667803602417
 20
-125.780091656923
 10
95.69441729378474
 20
-125.8307345605562
 10
95.69441729378474
 20
-125.8307345605562
 10
95.70854218527425
 20
-125.835213184687
 10
95.72301158631231
 20
-125.8414143565605
 10
95.72301158631231
 20
-125.8582953244382
 10
95.72301158631231
 20
-125.8751762923159
 10
95.71887747173001
 20
-125.8772433496071
 10
95.66995711583947
 20
-125.8986029416156
 10
95.65376516705878
 20
-125.9747395518396
 10
95.6293049891135
 20
-126.0656900726503
 10
95.58245169051412
 20
-126.1924695865074
 10
95.58245169051412
 20
-126.1924695865074
 10
95.90801321387022
 20
-126.1924695865074
 10
95.90801321387022
 20
-126.1924695865074
 10
95.94453122601386
 20
-126.1924695865074
 10
96.0688991730314
 20
-126.1883354719251
 10
96.11540796208226
 20
-126.1821343000517
 10
96.11540796208226
 20
-126.1821343000517
 10
96.20498044469876
 20
-126.2517252288537
 10
96.20498044469876
 20
-126.2517252288537
 10
96.19705672508269
 20
-126.2730848208623
 10
96.19085555320923
 20
-126.2920328460312
 10
96.17673066171972
 20
-126.3278618390778
 97
        0
 97
        0
 92
        1
 93
        4
 72
     1
 10
94.72772350062363
 20
-126.4529188051923
 11
94.57510577062706
 21
-126.4529188051923
 72
     1
 10
94.57510577062706
 20
-126.4529188051923
 11
94.57510577062706
 21
-126.5817653763407
 72
     1
 10
94.57510577062706
 20
-126.5817653763407
 11
94.72772350062363
 21
-126.5817653763407
 72
     1
 10
94.72772350062363
 20
-126.5817653763407
 11
94.72772350062363
 21
-126.4529188051923
 97
        0
 92
        1
 93
        4
 72
     1
 10
94.72772350062363
 20
-126.7257703676241
 11
94.57510577062706
 21
-126.7257703676241
 72
     1
 10
94.57510577062706
 20
-126.7257703676241
 11
94.57510577062706
 21
-126.8546169387725
 72
     1
 10
94.57510577062706
 20
-126.8546169387725
 11
94.72772350062363
 21
-126.8546169387725
 72
     1
 10
94.72772350062363
 20
-126.8546169387725
 11
94.72772350062363
 21
-126.7257703676241
 97
        0
 92
        1
 93
        4
 72
     1
 10
95.04742836165481
 20
-126.4529188051923
 11
94.8927435743671
 21
-126.4529188051923
 72
     1
 10
94.8927435743671
 20
-126.4529188051923
 11
94.8927435743671
 21
-126.5817653763407
 72
     1
 10
94.8927435743671
 20
-126.5817653763407
 11
95.04742836165481
 21
-126.5817653763407
 72
     1
 10
95.04742836165481
 20
-126.5817653763407
 11
95.04742836165481
 21
-126.4529188051923
 97
        0
 92
        1
 93
        4
 72
     1
 10
95.04742836165481
 20
-126.7257703676241
 11
94.8927435743671
 21
-126.7257703676241
 72
     1
 10
94.8927435743671
 20
-126.7257703676241
 11
94.8927435743671
 21
-126.8546169387725
 72
     1
 10
94.8927435743671
 20
-126.8546169387725
 11
95.04742836165481
 21
-126.8546169387725
 72
     1
 10
95.04742836165481
 20
-126.8546169387725
 11
95.04742836165481
 21
-126.7257703676241
 97
        0
 92
        1
 93
        1
 72
     4
 94
        3
 73
     0
 74
     1
 95
       41
 96
       37
 40
0.0
 40
0.0
 40
0.0
 40
0.0
 40
1.0
 40
1.0
 40
1.0
 40
2.0
 40
2.0
 40
2.0
 40
3.0
 40
3.0
 40
3.0
 40
4.0
 40
4.0
 40
4.0
 40
5.0
 40
5.0
 40
5.0
 40
6.0
 40
6.0
 40
6.0
 40
7.0
 40
7.0
 40
7.0
 40
8.0
 40
8.0
 40
8.0
 40
9.0
 40
9.0
 40
9.0
 40
10.0
 40
10.0
 40
10.0
 40
11.0
 40
11.0
 40
11.0
 40
12.0
 40
12.0
 40
12.0
 40
12.0
 10
96.09508189871929
 20
-127.6838514220721
 10
95.86322697256198
 20
-127.5484591695018
 10
95.69235023649358
 20
-127.2525254673188
 10
95.65376516705878
 20
-127.1233343866219
 10
95.53766544920586
 20
-127.3879177198891
 10
95.380913604627
 20
-127.565684646928
 10
95.2059027539763
 20
-127.6797173074898
 10
95.2059027539763
 20
-127.6797173074898
 10
95.0167670118361
 20
-127.5422579976283
 10
95.0167670118361
 20
-127.5422579976283
 10
95.08394637379847
 20
-127.5167642910375
 10
95.22416176004813
 20
-127.4554415914
 10
95.3423285351922
 20
-127.3011013136608
 10
95.46256236762741
 20
-127.1446939786305
 10
95.54800073566162
 20
-126.9118055238276
 10
95.54800073566162
 20
-126.6517008146913
 10
95.54800073566162
 20
-126.5500704978764
 10
95.53559839191472
 20
-126.4780680022347
 10
95.52560761500749
 20
-126.4315592131838
 10
95.52560761500749
 20
-126.4315592131838
 10
95.72301158631231
 20
-126.4529188051923
 10
95.72301158631231
 20
-126.4529188051923
 10
95.74333764967528
 20
-126.4549858624835
 10
95.76366371303826
 20
-126.4570529197746
 10
95.76366371303826
 20
-126.4780680022347
 10
95.76366371303826
 20
-126.4973605369521
 10
95.7533284265825
 20
-126.5056287661167
 10
95.72094452902115
 20
-126.5266438485767
 10
95.71267629985655
 20
-126.7278374249153
 10
95.76745331807203
 20
-126.9710611661739
 10
95.82670896041833
 20
-127.0916395081577
 10
95.91421438574368
 20
-127.2673393779054
 10
96.10128307059274
 20
-127.4471733622354
 10
96.23150767993518
 20
-127.5040174377421
 10
96.23150767993518
 20
-127.5040174377421
 10
96.09508189871929
 20
-127.6838514220721
 10
96.09508189871929
 20
-127.6838514220721
 97
        0
 97
        0
 75
     2
 76
     1
 98
        0
  0
SPLINE
  5
E8
330
C5
100
AcDbEntity
  8
_U+30EC_U+30A4_U+30E4_U+30FC 1
370
     0
100
AcDbSpline
210
0.0
220
0.0
230
1.0
 70
    11
 71
     3
 72
    71
 73
    67
 74
     0
 42
0.0000000001
 43
0.0000000001
 12
1.0
 22
0.0
 32
0.0
 13
1.0
 23
0.0
 33
0.0
 40
0.0
 40
0.0
 40
0.0
 40
0.0
 40
1.0
 40
1.0
 40
1.0
 40
2.0
 40
2.0
 40
2.0
 40
3.0
 40
3.0
 40
3.0
 40
4.0
 40
4.0
 40
4.0
 40
5.0
 40
5.0
 40
5.0
 40
6.0
 40
6.0
 40
6.0
 40
7.0
 40
7.0
 40
7.0
 40
8.0
 40
8.0
 40
8.0
 40
9.0
 40
9.0
 40
9.0
 40
10.0
 40
10.0
 40
10.0
 40
11.0
 40
11.0
 40
11.0
 40
12.0
 40
12.0
 40
12.0
 40
13.0
 40
13.0
 40
13.0
 40
14.0
 40
14.0
 40
14.0
 40
15.0
 40
15.0
 40
15.0
 40
16.0
 40
16.0
 40
16.0
 40
17.0
 40
17.0
 40
17.0
 40
18.0
 40
18.0
 40
18.0
 40
19.0
 40
19.0
 40
19.0
 40
20.0
 40
20.0
 40
20.0
 40
21.0
 40
21.0
 40
21.0
 40
22.0
 40
22.0
 40
22.0
 40
22.0
 10
97.24229869530748
 20
-125.95131290254
 30
0.0
 10
97.22817380381797
 20
-125.95131290254
 30
0.0
 10
97.21577146007107
 20
-125.9471787879577
 30
0.0
 10
97.19165579167431
 20
-125.9385660492445
 30
0.0
 10
97.05523001045842
 20
-125.9850748382954
 30
0.0
 10
96.88848738897232
 20
-126.0023003157217
 30
0.0
 10
96.75412866504759
 20
-126.006434430304
 30
0.0
 10
96.75412866504759
 20
-126.006434430304
 30
0.0
 10
96.75206160775643
 20
-126.0953178938234
 30
0.0
 10
96.75206160775643
 20
-126.0953178938234
 30
0.0
 10
96.75206160775643
 20
-126.0953178938234
 30
0.0
 10
97.00217553998557
 20
-126.0953178938234
 30
0.0
 10
97.00217553998557
 20
-126.0953178938234
 30
0.0
 10
97.05316295316727
 20
-126.0953178938234
 30
0.0
 10
97.22817380381797
 20
-126.0867051551103
 30
0.0
 10
97.27089298783505
 20
-126.0805039832368
 30
0.0
 10
97.27089298783505
 20
-126.0805039832368
 30
0.0
 10
97.27089298783505
 20
-126.241389942398
 30
0.0
 10
97.27089298783505
 20
-126.241389942398
 30
0.0
 10
97.21783851736221
 20
-126.234844260976
 30
0.0
 10
97.09794919447552
 20
-126.2327772036849
 30
0.0
 10
97.06143118233187
 20
-126.234844260976
 30
0.0
 10
97.06143118233187
 20
-126.234844260976
 30
0.0
 10
97.06143118233187
 20
-126.3447428069555
 30
0.0
 10
97.06143118233187
 20
-126.3447428069555
 30
0.0
 10
97.06143118233187
 20
-126.3915961055549
 30
0.0
 10
97.06315373007449
 20
-126.4549858624835
 30
0.0
 10
97.06935490194795
 20
-126.4928819128212
 30
0.0
 10
97.06935490194795
 20
-126.4928819128212
 30
0.0
 10
96.88435327439002
 20
-126.4928819128212
 30
0.0
 10
96.88435327439002
 20
-126.4928819128212
 30
0.0
 10
96.89020993671495
 20
-126.4529188051923
 30
0.0
 10
96.8964111085884
 20
-126.3702365135463
 30
0.0
 10
96.8964111085884
 20
-126.3554226029598
 30
0.0
 10
96.8964111085884
 20
-126.3554226029598
 30
0.0
 10
96.8964111085884
 20
-126.234844260976
 30
0.0
 10
96.8964111085884
 20
-126.234844260976
 30
0.0
 10
96.8964111085884
 20
-126.234844260976
 30
0.0
 10
96.73759220671839
 20
-126.234844260976
 30
0.0
 10
96.73759220671839
 20
-126.234844260976
 30
0.0
 10
96.69694007999243
 20
-126.4549858624835
 30
0.0
 10
96.64423011906811
 20
-126.5352565872898
 30
0.0
 10
96.54225529270472
 20
-126.6348198468135
 30
0.0
 10
96.54225529270472
 20
-126.6348198468135
 30
0.0
 10
96.38171384309207
 20
-126.5204426767032
 30
0.0
 10
96.38171384309207
 20
-126.5204426767032
 30
0.0
 10
96.442692033181
 20
-126.4718668303612
 30
0.0
 10
96.58704153401297
 20
-126.3595567175421
 30
0.0
 10
96.58704153401297
 20
-126.0105685448863
 30
0.0
 10
96.58704153401297
 20
-125.9282307627888
 30
0.0
 10
96.5791178143969
 20
-125.8817219737379
 30
0.0
 10
96.5708495852323
 20
-125.8328016178474
 30
0.0
 10
96.71140948103049
 20
-125.8476155284339
 30
0.0
 10
96.72553437252002
 20
-125.8476155284339
 30
0.0
 10
96.7599853273725
 20
-125.8476155284339
 30
0.0
 10
96.86402721102705
 20
-125.8476155284339
 30
0.0
 10
97.00010848269442
 20
-125.8307345605562
 30
0.0
 10
97.15479326998214
 20
-125.7694118609188
 30
0.0
 10
97.15479326998214
 20
-125.7694118609188
 30
0.0
 10
97.26469181596161
 20
-125.9006699989068
 30
0.0
 10
97.26469181596161
 20
-125.9006699989068
 30
0.0
 10
97.27089298783505
 20
-125.9068711707802
 30
0.0
 10
97.27502710241735
 20
-125.9154839094934
 30
0.0
 10
97.27502710241735
 20
-125.923752138658
 30
0.0
 10
97.27502710241735
 20
-125.9471787879577
 30
0.0
 10
97.25676809634554
 20
-125.95131290254
 30
0.0
 10
97.24229869530748
 20
-125.95131290254
 30
0.0
  0
SPLINE
  5
E9
330
C5
100
AcDbEntity
  8
_U+30EC_U+30A4_U+30E4_U+30FC 1
370
     0
100
AcDbSpline
210
0.0
220
0.0
230
1.0
 70
    11
 71
     3
 72
    74
 73
    70
 74
     0
 42
0.0000000001
 43
0.0000000001
 12
1.0
 22
0.0
 32
0.0
 13
1.0
 23
0.0
 33
0.0
 40
0.0
 40
0.0
 40
0.0
 40
0.0
 40
1.0
 40
1.0
 40
1.0
 40
2.0
 40
2.0
 40
2.0
 40
3.0
 40
3.0
 40
3.0
 40
4.0
 40
4.0
 40
4.0
 40
5.0
 40
5.0
 40
5.0
 40
6.0
 40
6.0
 40
6.0
 40
7.0
 40
7.0
 40
7.0
 40
8.0
 40
8.0
 40
8.0
 40
9.0
 40
9.0
 40
9.0
 40
10.0
 40
10.0
 40
10.0
 40
11.0
 40
11.0
 40
11.0
 40
12.0
 40
12.0
 40
12.0
 40
13.0
 40
13.0
 40
13.0
 40
14.0
 40
14.0
 40
14.0
 40
15.0
 40
15.0
 40
15.0
 40
16.0
 40
16.0
 40
16.0
 40
17.0
 40
17.0
 40
17.0
 40
18.0
 40
18.0
 40
18.0
 40
19.0
 40
19.0
 40
19.0
 40
20.0
 40
20.0
 40
20.0
 40
21.0
 40
21.0
 40
21.0
 40
22.0
 40
22.0
 40
22.0
 40
23.0
 40
23.0
 40
23.0
 40
23.0
 10
98.04810652930742
 20
-127.7179578673761
 30
0.0
 10
97.84277883838654
 20
-127.7072780713718
 30
0.0
 10
97.64916447211549
 20
-127.6204616651435
 30
0.0
 10
97.48035479333825
 20
-127.4998833231598
 30
0.0
 10
97.48035479333825
 20
-127.4998833231598
 30
0.0
 10
97.57406139053704
 20
-127.4130669169315
 30
0.0
 10
97.57406139053704
 20
-127.4130669169315
 30
0.0
 10
97.57406139053704
 20
-127.4130669169315
 30
0.0
 10
97.04282766671152
 20
-127.4130669169315
 30
0.0
 10
97.04282766671152
 20
-127.4130669169315
 30
0.0
 10
97.04282766671152
 20
-127.4130669169315
 30
0.0
 10
97.12034231512965
 20
-127.4768011834086
 30
0.0
 10
97.12034231512965
 20
-127.4768011834086
 30
0.0
 10
97.12654348700309
 20
-127.4809352979909
 30
0.0
 10
97.13653426391032
 20
-127.4916150939952
 30
0.0
 10
97.13653426391032
 20
-127.5064290045817
 30
0.0
 10
97.13653426391032
 20
-127.5463921122106
 30
0.0
 10
97.06522078736565
 20
-127.5401909403372
 30
0.0
 10
97.05109589587612
 20
-127.538123883046
 30
0.0
 10
96.82923174662604
 20
-127.6776502501987
 30
0.0
 10
96.69108341766751
 20
-127.7093451286629
 30
0.0
 10
96.59117564859527
 20
-127.7262260965407
 30
0.0
 10
96.59117564859527
 20
-127.7262260965407
 30
0.0
 10
96.46715221112628
 20
-127.5484591695018
 30
0.0
 10
96.46715221112628
 20
-127.5484591695018
 30
0.0
 10
96.70520830915703
 20
-127.5167642910375
 30
0.0
 10
96.8027045113896
 20
-127.4702555019866
 30
0.0
 10
96.88848738897232
 20
-127.4175455410623
 30
0.0
 10
96.81717391242765
 20
-127.4196125983534
 30
0.0
 10
96.70727536644819
 20
-127.4216796556446
 30
0.0
 10
96.67661401662946
 20
-127.4237467129357
 30
0.0
 10
96.69108341766751
 20
-127.3348632494163
 30
0.0
 10
96.69315047495866
 20
-127.2060166782679
 30
0.0
 10
96.69315047495866
 20
-127.1319471253351
 30
0.0
 10
96.69315047495866
 20
-127.1319471253351
 30
0.0
 10
96.69315047495866
 20
-126.8315347990213
 30
0.0
 10
96.69315047495866
 20
-126.8315347990213
 30
0.0
 10
96.69315047495866
 20
-126.7319715394976
 30
0.0
 10
96.68694930308521
 20
-126.6327527895224
 30
0.0
 10
96.67661401662946
 20
-126.5352565872898
 30
0.0
 10
96.77445472841056
 20
-126.5414577591633
 30
0.0
 10
96.99631887766064
 20
-126.5480034405852
 30
0.0
 10
97.10001625176666
 20
-126.5480034405852
 30
0.0
 10
97.10001625176666
 20
-126.5480034405852
 30
0.0
 10
97.50688202857468
 20
-126.5480034405852
 30
0.0
 10
97.50688202857468
 20
-126.5480034405852
 30
0.0
 10
97.62091468913644
 20
-126.5480034405852
 30
0.0
 10
97.66156681586239
 20
-126.5480034405852
 30
0.0
 10
97.74080401202313
 20
-126.5438693260029
 30
0.0
 10
97.88343096511248
 20
-126.537323644581
 30
0.0
 10
97.89962291389315
 20
-126.537323644581
 30
0.0
 10
97.9444091552014
 20
-126.5352565872898
 30
0.0
 10
97.9361409260368
 20
-126.6155273120961
 30
0.0
 10
97.9320068114545
 20
-126.7743462139661
 30
0.0
 10
97.9320068114545
 20
-126.8566839960636
 30
0.0
 10
97.9320068114545
 20
-126.8566839960636
 30
0.0
 10
97.9320068114545
 20
-127.1422824117908
 30
0.0
 10
97.9320068114545
 20
-127.1422824117908
 30
0.0
 10
97.9320068114545
 20
-127.2142849074325
 30
0.0
 10
97.93407386874566
 20
-127.3455430454206
 30
0.0
 10
97.9444091552014
 20
-127.4237467129357
 30
0.0
 10
97.87516273594788
 20
-127.4196125983534
 30
0.0
 10
97.7569959608038
 20
-127.4175455410623
 30
0.0
 10
97.68189287922536
 20
-127.4154784837711
 30
0.0
 10
97.78765731062254
 20
-127.483002355282
 30
0.0
 10
97.93407386874566
 20
-127.5336452589152
 30
0.0
 10
98.13767901192392
 20
-127.538123883046
 30
0.0
 10
98.13767901192392
 20
-127.538123883046
 30
0.0
 10
98.04810652930742
 20
-127.7179578673761
 30
0.0
 10
98.04810652930742
 20
-127.7179578673761
 30
0.0
  0
POLYLINE
  5
EA
330
C5
100
AcDbEntity
  8
_U+30EC_U+30A4_U+30E4_U+30FC 1
370
     0
100
AcDb2dPolyline
 66
     1
 10
0.0
 20
0.0
 30
0.0
  0
VERTEX
  5
EB
330
EA
100
AcDbEntity
  8
_U+30EC_U+30A4_U+30E4_U+30FC 1
370
     0
100
AcDbVertex
100
AcDb2dVertex
 10
97.75527341306119
 20
-126.6833956931555
 30
0.0
  0
VERTEX
  5
EC
330
EA
100
AcDbEntity
  8
_U+30EC_U+30A4_U+30E4_U+30FC 1
370
     0
100
AcDbVertex
100
AcDb2dVertex
 10
96.87815210251658
 20
-126.6833956931555
 30
0.0
  0
VERTEX
  5
ED
330
EA
100
AcDbEntity
  8
_U+30EC_U+30A4_U+30E4_U+30FC 1
370
     0
100
AcDbVertex
100
AcDb2dVertex
 10
96.87815210251658
 20
-126.7953612964262
 30
0.0
  0
VERTEX
  5
EE
330
EA
100
AcDbEntity
  8
_U+30EC_U+30A4_U+30E4_U+30FC 1
370
     0
100
AcDbVertex
100
AcDb2dVertex
 10
97.75527341306119
 20
-126.7953612964262
 30
0.0
  0
VERTEX
  5
EF
330
EA
100
AcDbEntity
  8
_U+30EC_U+30A4_U+30E4_U+30FC 1
370
     0
100
AcDbVertex
100
AcDb2dVertex
 10
97.75527341306119
 20
-126.6833956931555
 30
0.0
  0
SEQEND
  5
F0
330
EA
100
AcDbEntity
  8
_U+30EC_U+30A4_U+30E4_U+30FC 1
370
     0
  0
POLYLINE
  5
F1
330
C5
100
AcDbEntity
  8
_U+30EC_U+30A4_U+30E4_U+30FC 1
370
     0
100
AcDb2dPolyline
 66
     1
 10
0.0
 20
0.0
 30
0.0
  0
VERTEX
  5
F2
330
F1
100
AcDbEntity
  8
_U+30EC_U+30A4_U+30E4_U+30FC 1
370
     0
100
AcDbVertex
100
AcDb2dVertex
 10
97.75527341306119
 20
-126.9286864917053
 30
0.0
  0
VERTEX
  5
F3
330
F1
100
AcDbEntity
  8
_U+30EC_U+30A4_U+30E4_U+30FC 1
370
     0
100
AcDbVertex
100
AcDb2dVertex
 10
96.87815210251658
 20
-126.9286864917053
 30
0.0
  0
VERTEX
  5
F4
330
F1
100
AcDbEntity
  8
_U+30EC_U+30A4_U+30E4_U+30FC 1
370
     0
100
AcDbVertex
100
AcDb2dVertex
 10
96.87815210251658
 20
-127.0389295472333
 30
0.0
  0
VERTEX
  5
F5
330
F1
100
AcDbEntity
  8
_U+30EC_U+30A4_U+30E4_U+30FC 1
370
     0
100
AcDbVertex
100
AcDb2dVertex
 10
97.75527341306119
 20
-127.0389295472333
 30
0.0
  0
VERTEX
  5
F6
330
F1
100
AcDbEntity
  8
_U+30EC_U+30A4_U+30E4_U+30FC 1
370
     0
100
AcDbVertex
100
AcDb2dVertex
 10
97.75527341306119
 20
-126.9286864917053
 30
0.0
  0
SEQEND
  5
F7
330
F1
100
AcDbEntity
  8
_U+30EC_U+30A4_U+30E4_U+30FC 1
370
     0
  0
POLYLINE
  5
F8
330
C5
100
AcDbEntity
  8
_U+30EC_U+30A4_U+30E4_U+30FC 1
370
     0
100
AcDb2dPolyline
 66
     1
 10
0.0
 20
0.0
 30
0.0
  0
VERTEX
  5
F9
330
F8
100
AcDbEntity
  8
_U+30EC_U+30A4_U+30E4_U+30FC 1
370
     0
100
AcDbVertex
100
AcDb2dVertex
 10
97.75527341306119
 20
-127.1743217998036
 30
0.0
  0
VERTEX
  5
FA
330
F8
100
AcDbEntity
  8
_U+30EC_U+30A4_U+30E4_U+30FC 1
370
     0
100
AcDbVertex
100
AcDb2dVertex
 10
96.87815210251658
 20
-127.1743217998036
 30
0.0
  0
VERTEX
  5
FB
330
F8
100
AcDbEntity
  8
_U+30EC_U+30A4_U+30E4_U+30FC 1
370
     0
100
AcDbVertex
100
AcDb2dVertex
 10
96.87815210251658
 20
-127.282153288492
 30
0.0
  0
VERTEX
  5
FC
330
F8
100
AcDbEntity
  8
_U+30EC_U+30A4_U+30E4_U+30FC 1
370
     0
100
AcDbVertex
100
AcDb2dVertex
 10
97.75527341306119
 20
-127.282153288492
 30
0.0
  0
VERTEX
  5
FD
330
F8
100
AcDbEntity
  8
_U+30EC_U+30A4_U+30E4_U+30FC 1
370
     0
100
AcDbVertex
100
AcDb2dVertex
 10
97.75527341306119
 20
-127.1743217998036
 30
0.0
  0
SEQEND
  5
FE
330
F8
100
AcDbEntity
  8
_U+30EC_U+30A4_U+30E4_U+30FC 1
370
     0
  0
SPLINE
  5
FF
330
C5
100
AcDbEntity
  8
_U+30EC_U+30A4_U+30E4_U+30FC 1
370
     0
100
AcDbSpline
210
0.0
220
0.0
230
1.0
 70
    11
 71
     3
 72
    74
 73
    70
 74
     0
 42
0.0000000001
 43
0.0000000001
 12
1.0
 22
0.0
 32
0.0
 13
1.0
 23
0.0
 33
0.0
 40
0.0
 40
0.0
 40
0.0
 40
0.0
 40
1.0
 40
1.0
 40
1.0
 40
2.0
 40
2.0
 40
2.0
 40
3.0
 40
3.0
 40
3.0
 40
4.0
 40
4.0
 40
4.0
 40
5.0
 40
5.0
 40
5.0
 40
6.0
 40
6.0
 40
6.0
 40
7.0
 40
7.0
 40
7.0
 40
8.0
 40
8.0
 40
8.0
 40
9.0
 40
9.0
 40
9.0
 40
10.0
 40
10.0
 40
10.0
 40
11.0
 40
11.0
 40
11.0
 40
12.0
 40
12.0
 40
12.0
 40
13.0
 40
13.0
 40
13.0
 40
14.0
 40
14.0
 40
14.0
 40
15.0
 40
15.0
 40
15.0
 40
16.0
 40
16.0
 40
16.0
 40
17.0
 40
17.0
 40
17.0
 40
18.0
 40
18.0
 40
18.0
 40
19.0
 40
19.0
 40
19.0
 40
20.0
 40
20.0
 40
20.0
 40
21.0
 40
21.0
 40
21.0
 40
22.0
 40
22.0
 40
22.0
 40
23.0
 40
23.0
 40
23.0
 40
23.0
 10
98.06050887305432
 20
-126.2307101463937
 30
0.0
 10
98.06050887305432
 20
-126.2307101463937
 30
0.0
 10
97.90582408576661
 20
-126.2307101463937
 30
0.0
 10
97.90582408576661
 20
-126.2307101463937
 30
0.0
 10
97.90582408576661
 20
-126.2307101463937
 30
0.0
 10
97.90582408576661
 20
-126.3447428069555
 30
0.0
 10
97.90582408576661
 20
-126.3447428069555
 30
0.0
 10
97.90582408576661
 20
-126.3850504241329
 30
0.0
 10
97.91168074809153
 20
-126.4591199770658
 30
0.0
 10
97.91581486267383
 20
-126.4846136836566
 30
0.0
 10
97.91581486267383
 20
-126.4846136836566
 30
0.0
 10
97.71255422904409
 20
-126.4846136836566
 30
0.0
 10
97.71255422904409
 20
-126.4846136836566
 30
0.0
 10
97.72254500595132
 20
-126.4188123598884
 30
0.0
 10
97.72461206324246
 20
-126.3595567175421
 30
0.0
 10
97.72461206324246
 20
-126.3574896602509
 30
0.0
 10
97.72461206324246
 20
-126.3574896602509
 30
0.0
 10
97.72461206324246
 20
-126.234844260976
 30
0.0
 10
97.72461206324246
 20
-126.234844260976
 30
0.0
 10
97.72461206324246
 20
-126.234844260976
 30
0.0
 10
97.55166826988292
 20
-126.234844260976
 30
0.0
 10
97.55166826988292
 20
-126.234844260976
 30
0.0
 10
97.5334092638111
 20
-126.2940999033223
 30
0.0
 10
97.48862302250285
 20
-126.4401719518969
 30
0.0
 10
97.37872447652337
 20
-126.5225097339944
 30
0.0
 10
97.37872447652337
 20
-126.5225097339944
 30
0.0
 10
97.22817380381797
 20
-126.4167453025972
 30
0.0
 10
97.22817380381797
 20
-126.4167453025972
 30
0.0
 10
97.29948728036263
 20
-126.3702365135463
 30
0.0
 10
97.41110837408473
 20
-126.2961669606135
 30
0.0
 10
97.41110837408473
 20
-125.9747395518396
 30
0.0
 10
97.41110837408473
 20
-125.9196180240757
 30
0.0
 10
97.40731876905095
 20
-125.8751762923159
 30
0.0
 10
97.4052517117598
 20
-125.8372802419782
 30
0.0
 10
97.4782877360471
 20
-125.8455484711428
 30
0.0
 10
97.54960121259177
 20
-125.8520941525648
 30
0.0
 10
97.6105794026807
 20
-125.8520941525648
 30
0.0
 10
97.78145613874908
 20
-125.8520941525648
 30
0.0
 10
97.97300344772897
 20
-125.7928385102185
 30
0.0
 10
98.03191458052675
 20
-125.7632106890453
 30
0.0
 10
98.03191458052675
 20
-125.7632106890453
 30
0.0
 10
98.1538709607046
 20
-125.8986029416156
 30
0.0
 10
98.1538709607046
 20
-125.8986029416156
 30
0.0
 10
98.1580050752869
 20
-125.9027370561979
 30
0.0
 10
98.16007213257804
 20
-125.9113497949111
 30
0.0
 10
98.16007213257804
 20
-125.9175509667845
 30
0.0
 10
98.16007213257804
 20
-125.9385660492445
 30
0.0
 10
98.14594724108852
 20
-125.9451117306665
 30
0.0
 10
98.12941078275932
 20
-125.9451117306665
 30
0.0
 10
98.10908471939635
 20
-125.9451117306665
 30
0.0
 10
98.09495982790682
 20
-125.9364989919534
 30
0.0
 10
98.07670082183499
 20
-125.9261637054976
 30
0.0
 10
97.90961369080038
 20
-125.9830077810042
 30
0.0
 10
97.70015188529719
 20
-126.0085014875951
 30
0.0
 10
97.5719943332459
 20
-126.0105685448863
 30
0.0
 10
97.5719943332459
 20
-126.0105685448863
 30
0.0
 10
97.5678602186636
 20
-126.0932508365322
 30
0.0
 10
97.5678602186636
 20
-126.0932508365322
 30
0.0
 10
97.5678602186636
 20
-126.0932508365322
 30
0.0
 10
97.83037649463964
 20
-126.0932508365322
 30
0.0
 10
97.83037649463964
 20
-126.0932508365322
 30
0.0
 10
97.88549802240362
 20
-126.0932508365322
 30
0.0
 10
98.13767901192392
 20
-126.0739583018149
 30
0.0
 10
98.18039819594101
 20
-126.0677571299414
 30
0.0
 10
98.18039819594101
 20
-126.0677571299414
 30
0.0
 10
98.18039819594101
 20
-126.2369113182672
 30
0.0
 10
98.18039819594101
 20
-126.2369113182672
 30
0.0
 10
98.14766978883114
 20
-126.2327772036849
 30
0.0
 10
98.13561195463276
 20
-126.2307101463937
 30
0.0
 10
98.06050887305432
 20
-126.2307101463937
 30
0.0
  0
HATCH
  5
100
330
C5
100
AcDbEntity
  8
_U+30EC_U+30A4_U+30E4_U+30FC 1
 62
   179
420
  2234388
100
AcDbHatch
 10
0.0
 20
0.0
 30
0.0
210
0.0
220
0.0
230
1.0
  2
SOLID
 70
     1
 71
     0
 91
        6
 92
        1
 93
        1
 72
     4
 94
        3
 73
     0
 74
     1
 95
       71
 96
       67
 40
0.0
 40
0.0
 40
0.0
 40
0.0
 40
1.0
 40
1.0
 40
1.0
 40
2.0
 40
2.0
 40
2.0
 40
3.0
 40
3.0
 40
3.0
 40
4.0
 40
4.0
 40
4.0
 40
5.0
 40
5.0
 40
5.0
 40
6.0
 40
6.0
 40
6.0
 40
7.0
 40
7.0
 40
7.0
 40
8.0
 40
8.0
 40
8.0
 40
9.0
 40
9.0
 40
9.0
 40
10.0
 40
10.0
 40
10.0
 40
11.0
 40
11.0
 40
11.0
 40
12.0
 40
12.0
 40
12.0
 40
13.0
 40
13.0
 40
13.0
 40
14.0
 40
14.0
 40
14.0
 40
15.0
 40
15.0
 40
15.0
 40
16.0
 40
16.0
 40
16.0
 40
17.0
 40
17.0
 40
17.0
 40
18.0
 40
18.0
 40
18.0
 40
19.0
 40
19.0
 40
19.0
 40
20.0
 40
20.0
 40
20.0
 40
21.0
 40
21.0
 40
21.0
 40
22.0
 40
22.0
 40
22.0
 40
22.0
 10
97.24229869530748
 20
-125.95131290254
 10
97.22817380381797
 20
-125.95131290254
 10
97.21577146007107
 20
-125.9471787879577
 10
97.19165579167431
 20
-125.9385660492445
 10
97.05523001045842
 20
-125.9850748382954
 10
96.88848738897232
 20
-126.0023003157217
 10
96.75412866504759
 20
-126.006434430304
 10
96.75412866504759
 20
-126.006434430304
 10
96.75206160775643
 20
-126.0953178938234
 10
96.75206160775643
 20
-126.0953178938234
 10
96.75206160775643
 20
-126.0953178938234
 10
97.00217553998557
 20
-126.0953178938234
 10
97.00217553998557
 20
-126.0953178938234
 10
97.05316295316727
 20
-126.0953178938234
 10
97.22817380381797
 20
-126.0867051551103
 10
97.27089298783505
 20
-126.0805039832368
 10
97.27089298783505
 20
-126.0805039832368
 10
97.27089298783505
 20
-126.241389942398
 10
97.27089298783505
 20
-126.241389942398
 10
97.21783851736221
 20
-126.234844260976
 10
97.09794919447552
 20
-126.2327772036849
 10
97.06143118233187
 20
-126.234844260976
 10
97.06143118233187
 20
-126.234844260976
 10
97.06143118233187
 20
-126.3447428069555
 10
97.06143118233187
 20
-126.3447428069555
 10
97.06143118233187
 20
-126.3915961055549
 10
97.06315373007449
 20
-126.4549858624835
 10
97.06935490194795
 20
-126.4928819128212
 10
97.06935490194795
 20
-126.4928819128212
 10
96.88435327439002
 20
-126.4928819128212
 10
96.88435327439002
 20
-126.4928819128212
 10
96.89020993671495
 20
-126.4529188051923
 10
96.8964111085884
 20
-126.3702365135463
 10
96.8964111085884
 20
-126.3554226029598
 10
96.8964111085884
 20
-126.3554226029598
 10
96.8964111085884
 20
-126.234844260976
 10
96.8964111085884
 20
-126.234844260976
 10
96.8964111085884
 20
-126.234844260976
 10
96.73759220671839
 20
-126.234844260976
 10
96.73759220671839
 20
-126.234844260976
 10
96.69694007999243
 20
-126.4549858624835
 10
96.64423011906811
 20
-126.5352565872898
 10
96.54225529270472
 20
-126.6348198468135
 10
96.54225529270472
 20
-126.6348198468135
 10
96.38171384309207
 20
-126.5204426767032
 10
96.38171384309207
 20
-126.5204426767032
 10
96.442692033181
 20
-126.4718668303612
 10
96.58704153401297
 20
-126.3595567175421
 10
96.58704153401297
 20
-126.0105685448863
 10
96.58704153401297
 20
-125.9282307627888
 10
96.5791178143969
 20
-125.8817219737379
 10
96.5708495852323
 20
-125.8328016178474
 10
96.71140948103049
 20
-125.8476155284339
 10
96.72553437252002
 20
-125.8476155284339
 10
96.7599853273725
 20
-125.8476155284339
 10
96.86402721102705
 20
-125.8476155284339
 10
97.00010848269442
 20
-125.8307345605562
 10
97.15479326998214
 20
-125.7694118609188
 10
97.15479326998214
 20
-125.7694118609188
 10
97.26469181596161
 20
-125.9006699989068
 10
97.26469181596161
 20
-125.9006699989068
 10
97.27089298783505
 20
-125.9068711707802
 10
97.27502710241735
 20
-125.9154839094934
 10
97.27502710241735
 20
-125.923752138658
 10
97.27502710241735
 20
-125.9471787879577
 10
97.25676809634554
 20
-125.95131290254
 10
97.24229869530748
 20
-125.95131290254
 97
        0
 97
        0
 92
        1
 93
        1
 72
     4
 94
        3
 73
     0
 74
     1
 95
       74
 96
       70
 40
0.0
 40
0.0
 40
0.0
 40
0.0
 40
1.0
 40
1.0
 40
1.0
 40
2.0
 40
2.0
 40
2.0
 40
3.0
 40
3.0
 40
3.0
 40
4.0
 40
4.0
 40
4.0
 40
5.0
 40
5.0
 40
5.0
 40
6.0
 40
6.0
 40
6.0
 40
7.0
 40
7.0
 40
7.0
 40
8.0
 40
8.0
 40
8.0
 40
9.0
 40
9.0
 40
9.0
 40
10.0
 40
10.0
 40
10.0
 40
11.0
 40
11.0
 40
11.0
 40
12.0
 40
12.0
 40
12.0
 40
13.0
 40
13.0
 40
13.0
 40
14.0
 40
14.0
 40
14.0
 40
15.0
 40
15.0
 40
15.0
 40
16.0
 40
16.0
 40
16.0
 40
17.0
 40
17.0
 40
17.0
 40
18.0
 40
18.0
 40
18.0
 40
19.0
 40
19.0
 40
19.0
 40
20.0
 40
20.0
 40
20.0
 40
21.0
 40
21.0
 40
21.0
 40
22.0
 40
22.0
 40
22.0
 40
23.0
 40
23.0
 40
23.0
 40
23.0
 10
98.04810652930742
 20
-127.7179578673761
 10
97.84277883838654
 20
-127.7072780713718
 10
97.64916447211549
 20
-127.6204616651435
 10
97.48035479333825
 20
-127.4998833231598
 10
97.48035479333825
 20
-127.4998833231598
 10
97.57406139053704
 20
-127.4130669169315
 10
97.57406139053704
 20
-127.4130669169315
 10
97.57406139053704
 20
-127.4130669169315
 10
97.04282766671152
 20
-127.4130669169315
 10
97.04282766671152
 20
-127.4130669169315
 10
97.04282766671152
 20
-127.4130669169315
 10
97.12034231512965
 20
-127.4768011834086
 10
97.12034231512965
 20
-127.4768011834086
 10
97.12654348700309
 20
-127.4809352979909
 10
97.13653426391032
 20
-127.4916150939952
 10
97.13653426391032
 20
-127.5064290045817
 10
97.13653426391032
 20
-127.5463921122106
 10
97.06522078736565
 20
-127.5401909403372
 10
97.05109589587612
 20
-127.538123883046
 10
96.82923174662604
 20
-127.6776502501987
 10
96.69108341766751
 20
-127.7093451286629
 10
96.59117564859527
 20
-127.7262260965407
 10
96.59117564859527
 20
-127.7262260965407
 10
96.46715221112628
 20
-127.5484591695018
 10
96.46715221112628
 20
-127.5484591695018
 10
96.70520830915703
 20
-127.5167642910375
 10
96.8027045113896
 20
-127.4702555019866
 10
96.88848738897232
 20
-127.4175455410623
 10
96.81717391242765
 20
-127.4196125983534
 10
96.70727536644819
 20
-127.4216796556446
 10
96.67661401662946
 20
-127.4237467129357
 10
96.69108341766751
 20
-127.3348632494163
 10
96.69315047495866
 20
-127.2060166782679
 10
96.69315047495866
 20
-127.1319471253351
 10
96.69315047495866
 20
-127.1319471253351
 10
96.69315047495866
 20
-126.8315347990213
 10
96.69315047495866
 20
-126.8315347990213
 10
96.69315047495866
 20
-126.7319715394976
 10
96.68694930308521
 20
-126.6327527895224
 10
96.67661401662946
 20
-126.5352565872898
 10
96.77445472841056
 20
-126.5414577591633
 10
96.99631887766064
 20
-126.5480034405852
 10
97.10001625176666
 20
-126.5480034405852
 10
97.10001625176666
 20
-126.5480034405852
 10
97.50688202857468
 20
-126.5480034405852
 10
97.50688202857468
 20
-126.5480034405852
 10
97.62091468913644
 20
-126.5480034405852
 10
97.66156681586239
 20
-126.5480034405852
 10
97.74080401202313
 20
-126.5438693260029
 10
97.88343096511248
 20
-126.537323644581
 10
97.89962291389315
 20
-126.537323644581
 10
97.9444091552014
 20
-126.5352565872898
 10
97.9361409260368
 20
-126.6155273120961
 10
97.9320068114545
 20
-126.7743462139661
 10
97.9320068114545
 20
-126.8566839960636
 10
97.9320068114545
 20
-126.8566839960636
 10
97.9320068114545
 20
-127.1422824117908
 10
97.9320068114545
 20
-127.1422824117908
 10
97.9320068114545
 20
-127.2142849074325
 10
97.93407386874566
 20
-127.3455430454206
 10
97.9444091552014
 20
-127.4237467129357
 10
97.87516273594788
 20
-127.4196125983534
 10
97.7569959608038
 20
-127.4175455410623
 10
97.68189287922536
 20
-127.4154784837711
 10
97.78765731062254
 20
-127.483002355282
 10
97.93407386874566
 20
-127.5336452589152
 10
98.13767901192392
 20
-127.538123883046
 10
98.13767901192392
 20
-127.538123883046
 10
98.04810652930742
 20
-127.7179578673761
 10
98.04810652930742
 20
-127.7179578673761
 97
        0
 97
        0
 92
        1
 93
        4
 72
     1
 10
97.75527341306119
 20
-126.6833956931555
 11
96.87815210251658
 21
-126.6833956931555
 72
     1
 10
96.87815210251658
 20
-126.6833956931555
 11
96.87815210251658
 21
-126.7953612964262
 72
     1
 10
96.87815210251658
 20
-126.7953612964262
 11
97.75527341306119
 21
-126.7953612964262
 72
     1
 10
97.75527341306119
 20
-126.7953612964262
 11
97.75527341306119
 21
-126.6833956931555
 97
        0
 92
        1
 93
        4
 72
     1
 10
97.75527341306119
 20
-126.9286864917053
 11
96.87815210251658
 21
-126.9286864917053
 72
     1
 10
96.87815210251658
 20
-126.9286864917053
 11
96.87815210251658
 21
-127.0389295472333
 72
     1
 10
96.87815210251658
 20
-127.0389295472333
 11
97.75527341306119
 21
-127.0389295472333
 72
     1
 10
97.75527341306119
 20
-127.0389295472333
 11
97.75527341306119
 21
-126.9286864917053
 97
        0
 92
        1
 93
        4
 72
     1
 10
97.75527341306119
 20
-127.1743217998036
 11
96.87815210251658
 21
-127.1743217998036
 72
     1
 10
96.87815210251658
 20
-127.1743217998036
 11
96.87815210251658
 21
-127.282153288492
 72
     1
 10
96.87815210251658
 20
-127.282153288492
 11
97.75527341306119
 21
-127.282153288492
 72
     1
 10
97.75527341306119
 20
-127.282153288492
 11
97.75527341306119
 21
-127.1743217998036
 97
        0
 92
        1
 93
        1
 72
     4
 94
        3
 73
     0
 74
     1
 95
       74
 96
       70
 40
0.0
 40
0.0
 40
0.0
 40
0.0
 40
1.0
 40
1.0
 40
1.0
 40
2.0
 40
2.0
 40
2.0
 40
3.0
 40
3.0
 40
3.0
 40
4.0
 40
4.0
 40
4.0
 40
5.0
 40
5.0
 40
5.0
 40
6.0
 40
6.0
 40
6.0
 40
7.0
 40
7.0
 40
7.0
 40
8.0
 40
8.0
 40
8.0
 40
9.0
 40
9.0
 40
9.0
 40
10.0
 40
10.0
 40
10.0
 40
11.0
 40
11.0
 40
11.0
 40
12.0
 40
12.0
 40
12.0
 40
13.0
 40
13.0
 40
13.0
 40
14.0
 40
14.0
 40
14.0
 40
15.0
 40
15.0
 40
15.0
 40
16.0
 40
16.0
 40
16.0
 40
17.0
 40
17.0
 40
17.0
 40
18.0
 40
18.0
 40
18.0
 40
19.0
 40
19.0
 40
19.0
 40
20.0
 40
20.0
 40
20.0
 40
21.0
 40
21.0
 40
21.0
 40
22.0
 40
22.0
 40
22.0
 40
23.0
 40
23.0
 40
23.0
 40
23.0
 10
98.06050887305432
 20
-126.2307101463937
 10
98.06050887305432
 20
-126.2307101463937
 10
97.90582408576661
 20
-126.2307101463937
 10
97.90582408576661
 20
-126.2307101463937
 10
97.90582408576661
 20
-126.2307101463937
 10
97.90582408576661
 20
-126.3447428069555
 10
97.90582408576661
 20
-126.3447428069555
 10
97.90582408576661
 20
-126.3850504241329
 10
97.91168074809153
 20
-126.4591199770658
 10
97.91581486267383
 20
-126.4846136836566
 10
97.91581486267383
 20
-126.4846136836566
 10
97.71255422904409
 20
-126.4846136836566
 10
97.71255422904409
 20
-126.4846136836566
 10
97.72254500595132
 20
-126.4188123598884
 10
97.72461206324246
 20
-126.3595567175421
 10
97.72461206324246
 20
-126.3574896602509
 10
97.72461206324246
 20
-126.3574896602509
 10
97.72461206324246
 20
-126.234844260976
 10
97.72461206324246
 20
-126.234844260976
 10
97.72461206324246
 20
-126.234844260976
 10
97.55166826988292
 20
-126.234844260976
 10
97.55166826988292
 20
-126.234844260976
 10
97.5334092638111
 20
-126.2940999033223
 10
97.48862302250285
 20
-126.4401719518969
 10
97.37872447652337
 20
-126.5225097339944
 10
97.37872447652337
 20
-126.5225097339944
 10
97.22817380381797
 20
-126.4167453025972
 10
97.22817380381797
 20
-126.4167453025972
 10
97.29948728036263
 20
-126.3702365135463
 10
97.41110837408473
 20
-126.2961669606135
 10
97.41110837408473
 20
-125.9747395518396
 10
97.41110837408473
 20
-125.9196180240757
 10
97.40731876905095
 20
-125.8751762923159
 10
97.4052517117598
 20
-125.8372802419782
 10
97.4782877360471
 20
-125.8455484711428
 10
97.54960121259177
 20
-125.8520941525648
 10
97.6105794026807
 20
-125.8520941525648
 10
97.78145613874908
 20
-125.8520941525648
 10
97.97300344772897
 20
-125.7928385102185
 10
98.03191458052675
 20
-125.7632106890453
 10
98.03191458052675
 20
-125.7632106890453
 10
98.1538709607046
 20
-125.8986029416156
 10
98.1538709607046
 20
-125.8986029416156
 10
98.1580050752869
 20
-125.9027370561979
 10
98.16007213257804
 20
-125.9113497949111
 10
98.16007213257804
 20
-125.9175509667845
 10
98.16007213257804
 20
-125.9385660492445
 10
98.14594724108852
 20
-125.9451117306665
 10
98.12941078275932
 20
-125.9451117306665
 10
98.10908471939635
 20
-125.9451117306665
 10
98.09495982790682
 20
-125.9364989919534
 10
98.07670082183499
 20
-125.9261637054976
 10
97.90961369080038
 20
-125.9830077810042
 10
97.70015188529719
 20
-126.0085014875951
 10
97.5719943332459
 20
-126.0105685448863
 10
97.5719943332459
 20
-126.0105685448863
 10
97.5678602186636
 20
-126.0932508365322
 10
97.5678602186636
 20
-126.0932508365322
 10
97.5678602186636
 20
-126.0932508365322
 10
97.83037649463964
 20
-126.0932508365322
 10
97.83037649463964
 20
-126.0932508365322
 10
97.88549802240362
 20
-126.0932508365322
 10
98.13767901192392
 20
-126.0739583018149
 10
98.18039819594101
 20
-126.0677571299414
 10
98.18039819594101
 20
-126.0677571299414
 10
98.18039819594101
 20
-126.2369113182672
 10
98.18039819594101
 20
-126.2369113182672
 10
98.14766978883114
 20
-126.2327772036849
 10
98.13561195463276
 20
-126.2307101463937
 10
98.06050887305432
 20
-126.2307101463937
 97
        0
 97
        0
 75
     2
 76
     1
 98
        0
  0
ENDBLK
  5
C8
330
C5
100
AcDbEntity
  8
0
100
AcDbBlockEnd
  0
BLOCK
  5
10F
330
10D
100
AcDbEntity
  8
0
100
AcDbBlockBegin
  2
block 3
 70
     0
 10
0.0
 20
0.0
 30
0.0
  3
block 3
  1

  0
SPLINE
  5
111
330
10D
100
AcDbEntity
  8
_U+30EC_U+30A4_U+30E4_U+30FC 1
370
     0
100
AcDbSpline
210
0.0
220
0.0
230
1.0
 70
    11
 71
     3
 72
    44
 73
    40
 74
     0
 42
0.0000000001
 43
0.0000000001
 12
1.0
 22
0.0
 32
0.0
 13
1.0
 23
0.0
 33
0.0
 40
0.0
 40
0.0
 40
0.0
 40
0.0
 40
1.0
 40
1.0
 40
1.0
 40
2.0
 40
2.0
 40
2.0
 40
3.0
 40
3.0
 40
3.0
 40
4.0
 40
4.0
 40
4.0
 40
5.0
 40
5.0
 40
5.0
 40
6.0
 40
6.0
 40
6.0
 40
7.0
 40
7.0
 40
7.0
 40
8.0
 40
8.0
 40
8.0
 40
9.0
 40
9.0
 40
9.0
 40
10.0
 40
10.0
 40
10.0
 40
11.0
 40
11.0
 40
11.0
 40
12.0
 40
12.0
 40
12.0
 40
13.0
 40
13.0
 40
13.0
 40
13.0
 10
71.40993921825863
 20
-119.7685722899363
 30
0.0
 10
71.20030515798118
 20
-119.9272189370321
 30
0.0
 10
71.11073267536469
 20
-120.001288489965
 30
0.0
 10
71.06405163153954
 20
-120.1451212264741
 30
0.0
 10
71.06405163153954
 20
-120.1451212264741
 30
0.0
 10
71.81267088048433
 20
-120.1451212264741
 30
0.0
 10
71.81267088048433
 20
-120.1451212264741
 30
0.0
 10
71.81267088048433
 20
-120.1451212264741
 30
0.0
 10
71.81267088048433
 20
-120.3502766626208
 30
0.0
 10
71.81267088048433
 20
-120.3502766626208
 30
0.0
 10
71.81267088048433
 20
-120.3502766626208
 30
0.0
 10
70.82392847621763
 20
-120.3502766626208
 30
0.0
 10
70.82392847621763
 20
-120.3502766626208
 30
0.0
 10
70.85441757126209
 20
-119.9926757512518
 30
0.0
 10
70.91746281864216
 20
-119.9144720837367
 30
0.0
 10
71.28781058330652
 20
-119.616126814714
 30
0.0
 10
71.53396265572762
 20
-119.4173448052151
 30
0.0
 10
71.5970079031077
 20
-119.34964867893
 30
0.0
 10
71.5970079031077
 20
-119.2121893690685
 30
0.0
 10
71.5970079031077
 20
-119.0936780843759
 30
0.0
 10
71.52793373862843
 20
-118.9625922011621
 30
0.0
 10
71.33862574171395
 20
-118.9625922011621
 30
0.0
 10
71.08833955471056
 20
-118.9625922011621
 30
0.0
 10
71.08024358032021
 20
-119.1930690891253
 30
0.0
 10
71.07610946573791
 20
-119.3095133165268
 30
0.0
 10
71.07610946573791
 20
-119.3095133165268
 30
0.0
 10
70.86044648836128
 20
-119.3095133165268
 30
0.0
 10
70.86044648836128
 20
-119.3095133165268
 30
0.0
 10
70.86871471752588
 20
-119.1825615478953
 30
0.0
 10
70.87887774920736
 20
-119.0704236898505
 30
0.0
 10
70.95604788807697
 20
-118.9519124051579
 30
0.0
 10
71.0619845742484
 20
-118.791198700771
 30
0.0
 10
71.24095728470712
 20
-118.7572645102412
 30
0.0
 10
71.35292288797774
 20
-118.7572645102412
 30
0.0
 10
71.61940102376182
 20
-118.7572645102412
 30
0.0
 10
71.81887205235779
 20
-118.9414048639278
 30
0.0
 10
71.81887205235779
 20
-119.2142564263596
 30
0.0
 10
71.81887205235779
 20
-119.4426662570317
 30
0.0
 10
71.70690644908717
 20
-119.5422295165554
 30
0.0
 10
71.40993921825863
 20
-119.7685722899363
 30
0.0
  0
HATCH
  5
112
330
10D
100
AcDbEntity
  8
_U+30EC_U+30A4_U+30E4_U+30FC 1
 62
   179
420
  2234388
100
AcDbHatch
 10
0.0
 20
0.0
 30
0.0
210
0.0
220
0.0
230
1.0
  2
SOLID
 70
     1
 71
     0
 91
        1
 92
        1
 93
        1
 72
     4
 94
        3
 73
     0
 74
     1
 95
       44
 96
       40
 40
0.0
 40
0.0
 40
0.0
 40
0.0
 40
1.0
 40
1.0
 40
1.0
 40
2.0
 40
2.0
 40
2.0
 40
3.0
 40
3.0
 40
3.0
 40
4.0
 40
4.0
 40
4.0
 40
5.0
 40
5.0
 40
5.0
 40
6.0
 40
6.0
 40
6.0
 40
7.0
 40
7.0
 40
7.0
 40
8.0
 40
8.0
 40
8.0
 40
9.0
 40
9.0
 40
9.0
 40
10.0
 40
10.0
 40
10.0
 40
11.0
 40
11.0
 40
11.0
 40
12.0
 40
12.0
 40
12.0
 40
13.0
 40
13.0
 40
13.0
 40
13.0
 10
71.40993921825863
 20
-119.7685722899363
 10
71.20030515798118
 20
-119.9272189370321
 10
71.11073267536469
 20
-120.001288489965
 10
71.06405163153954
 20
-120.1451212264741
 10
71.06405163153954
 20
-120.1451212264741
 10
71.81267088048433
 20
-120.1451212264741
 10
71.81267088048433
 20
-120.1451212264741
 10
71.81267088048433
 20
-120.1451212264741
 10
71.81267088048433
 20
-120.3502766626208
 10
71.81267088048433
 20
-120.3502766626208
 10
71.81267088048433
 20
-120.3502766626208
 10
70.82392847621763
 20
-120.3502766626208
 10
70.82392847621763
 20
-120.3502766626208
 10
70.85441757126209
 20
-119.9926757512518
 10
70.91746281864216
 20
-119.9144720837367
 10
71.28781058330652
 20
-119.616126814714
 10
71.53396265572762
 20
-119.4173448052151
 10
71.5970079031077
 20
-119.34964867893
 10
71.5970079031077
 20
-119.2121893690685
 10
71.5970079031077
 20
-119.0936780843759
 10
71.52793373862843
 20
-118.9625922011621
 10
71.33862574171395
 20
-118.9625922011621
 10
71.08833955471056
 20
-118.9625922011621
 10
71.08024358032021
 20
-119.1930690891253
 10
71.07610946573791
 20
-119.3095133165268
 10
71.07610946573791
 20
-119.3095133165268
 10
70.86044648836128
 20
-119.3095133165268
 10
70.86044648836128
 20
-119.3095133165268
 10
70.86871471752588
 20
-119.1825615478953
 10
70.87887774920736
 20
-119.0704236898505
 10
70.95604788807697
 20
-118.9519124051579
 10
71.0619845742484
 20
-118.791198700771
 10
71.24095728470712
 20
-118.7572645102412
 10
71.35292288797774
 20
-118.7572645102412
 10
71.61940102376182
 20
-118.7572645102412
 10
71.81887205235779
 20
-118.9414048639278
 10
71.81887205235779
 20
-119.2142564263596
 10
71.81887205235779
 20
-119.4426662570317
 10
71.70690644908717
 20
-119.5422295165554
 10
71.40993921825863
 20
-119.7685722899363
 97
        0
 97
        0
 75
     2
 76
     1
 98
        0
  0
SPLINE
  5
113
330
10D
100
AcDbEntity
  8
_U+30EC_U+30A4_U+30E4_U+30FC 1
370
     0
100
AcDbSpline
210
0.0
220
0.0
230
1.0
 70
    11
 71
     3
 72
    62
 73
    58
 74
     0
 42
0.0000000001
 43
0.0000000001
 12
1.0
 22
0.0
 32
0.0
 13
1.0
 23
0.0
 33
0.0
 40
0.0
 40
0.0
 40
0.0
 40
0.0
 40
1.0
 40
1.0
 40
1.0
 40
2.0
 40
2.0
 40
2.0
 40
3.0
 40
3.0
 40
3.0
 40
4.0
 40
4.0
 40
4.0
 40
5.0
 40
5.0
 40
5.0
 40
6.0
 40
6.0
 40
6.0
 40
7.0
 40
7.0
 40
7.0
 40
8.0
 40
8.0
 40
8.0
 40
9.0
 40
9.0
 40
9.0
 40
10.0
 40
10.0
 40
10.0
 40
11.0
 40
11.0
 40
11.0
 40
12.0
 40
12.0
 40
12.0
 40
13.0
 40
13.0
 40
13.0
 40
14.0
 40
14.0
 40
14.0
 40
15.0
 40
15.0
 40
15.0
 40
16.0
 40
16.0
 40
16.0
 40
17.0
 40
17.0
 40
17.0
 40
18.0
 40
18.0
 40
18.0
 40
19.0
 40
19.0
 40
19.0
 40
19.0
 10
72.44346786383358
 20
-120.4009195662539
 30
0.0
 10
72.35182832392593
 20
-120.4009195662539
 30
0.0
 10
72.14219426364848
 20
-120.3799044837939
 30
0.0
 10
72.02213268598753
 20
-120.1938693275904
 30
0.0
 10
71.95099146421711
 20
-120.0815592147713
 30
0.0
 10
71.94685734963481
 20
-119.9821682100218
 30
0.0
 10
71.94289548982678
 20
-119.8975911158589
 30
0.0
 10
71.94289548982678
 20
-119.8975911158589
 30
0.0
 10
72.15442435262112
 20
-119.8975911158589
 30
0.0
 10
72.15442435262112
 20
-119.8975911158589
 30
0.0
 10
72.15649140991226
 20
-119.9716606687918
 30
0.0
 10
72.16665444159375
 20
-120.2062716713373
 30
0.0
 10
72.43933374925128
 20
-120.2062716713373
 30
0.0
 10
72.57162541588488
 20
-120.2062716713373
 30
0.0
 10
72.71804197400799
 20
-120.1366807425353
 30
0.0
 10
72.71804197400799
 20
-119.908098657089
 30
0.0
 10
72.71804197400799
 20
-119.7918266844618
 30
0.0
 10
72.68152396186434
 20
-119.7430785833455
 30
0.0
 10
72.65086261204561
 20
-119.7113837048812
 30
0.0
 10
72.57972139027521
 20
-119.6373141519483
 30
0.0
 10
72.46775578700459
 20
-119.6247395534271
 30
0.0
 10
72.414873571306
 20
-119.6247395534271
 30
0.0
 10
72.39661456523419
 20
-119.6247395534271
 30
0.0
 10
72.36199135560742
 20
-119.6268066107183
 30
0.0
 10
72.33563637514526
 20
-119.6309407253006
 30
0.0
 10
72.33563637514526
 20
-119.6309407253006
 30
0.0
 10
72.33563637514526
 20
-119.436292830384
 30
0.0
 10
72.33563637514526
 20
-119.436292830384
 30
0.0
 10
72.37215438728892
 20
-119.4426662570317
 30
0.0
 10
72.41280651401486
 20
-119.4449055690971
 30
0.0
 10
72.4190076858883
 20
-119.4449055690971
 30
0.0
 10
72.48205293326838
 20
-119.4449055690971
 30
0.0
 10
72.67325573269974
 20
-119.4237182318628
 30
0.0
 10
72.67325573269974
 20
-119.1866956624776
 30
0.0
 10
72.67325573269974
 20
-119.009100990213
 30
0.0
 10
72.5471652379396
 20
-118.953979462449
 30
0.0
 10
72.44140080654243
 20
-118.953979462449
 30
0.0
 10
72.18698050495674
 20
-118.953979462449
 30
0.0
 10
72.17888453056639
 20
-119.1866956624776
 30
0.0
 10
72.1747504159841
 20
-119.2586981581194
 30
0.0
 10
72.1747504159841
 20
-119.2586981581194
 30
0.0
 10
71.97941350197043
 20
-119.2586981581194
 30
0.0
 10
71.97941350197043
 20
-119.2586981581194
 30
0.0
 10
71.98768173113503
 20
-119.1338134467791
 30
0.0
 10
72.01403671159719
 20
-118.7572645102412
 30
0.0
 10
72.45363089551506
 20
-118.7572645102412
 30
0.0
 10
72.66929387289171
 20
-118.7572645102412
 30
0.0
 10
72.90114879904903
 20
-118.8842162788727
 30
0.0
 10
72.90114879904903
 20
-119.1803222358299
 30
0.0
 10
72.90114879904903
 20
-119.3665296468077
 30
0.0
 10
72.80968151391563
 20
-119.4490396836794
 30
0.0
 10
72.71408011419996
 20
-119.5103623833169
 30
0.0
 10
72.77299124699773
 20
-119.5379231471989
 30
0.0
 10
72.94800209764841
 20
-119.6183661267794
 30
0.0
 10
72.94800209764841
 20
-119.8955240585678
 30
0.0
 10
72.94800209764841
 20
-120.2338324352193
 30
0.0
 10
72.70994599961766
 20
-120.4009195662539
 30
0.0
 10
72.44346786383358
 20
-120.4009195662539
 30
0.0
  0
HATCH
  5
114
330
10D
100
AcDbEntity
  8
_U+30EC_U+30A4_U+30E4_U+30FC 1
 62
   179
420
  2234388
100
AcDbHatch
 10
0.0
 20
0.0
 30
0.0
210
0.0
220
0.0
230
1.0
  2
SOLID
 70
     1
 71
     0
 91
        1
 92
        1
 93
        1
 72
     4
 94
        3
 73
     0
 74
     1
 95
       62
 96
       58
 40
0.0
 40
0.0
 40
0.0
 40
0.0
 40
1.0
 40
1.0
 40
1.0
 40
2.0
 40
2.0
 40
2.0
 40
3.0
 40
3.0
 40
3.0
 40
4.0
 40
4.0
 40
4.0
 40
5.0
 40
5.0
 40
5.0
 40
6.0
 40
6.0
 40
6.0
 40
7.0
 40
7.0
 40
7.0
 40
8.0
 40
8.0
 40
8.0
 40
9.0
 40
9.0
 40
9.0
 40
10.0
 40
10.0
 40
10.0
 40
11.0
 40
11.0
 40
11.0
 40
12.0
 40
12.0
 40
12.0
 40
13.0
 40
13.0
 40
13.0
 40
14.0
 40
14.0
 40
14.0
 40
15.0
 40
15.0
 40
15.0
 40
16.0
 40
16.0
 40
16.0
 40
17.0
 40
17.0
 40
17.0
 40
18.0
 40
18.0
 40
18.0
 40
19.0
 40
19.0
 40
19.0
 40
19.0
 10
72.44346786383358
 20
-120.4009195662539
 10
72.35182832392593
 20
-120.4009195662539
 10
72.14219426364848
 20
-120.3799044837939
 10
72.02213268598753
 20
-120.1938693275904
 10
71.95099146421711
 20
-120.0815592147713
 10
71.94685734963481
 20
-119.9821682100218
 10
71.94289548982678
 20
-119.8975911158589
 10
71.94289548982678
 20
-119.8975911158589
 10
72.15442435262112
 20
-119.8975911158589
 10
72.15442435262112
 20
-119.8975911158589
 10
72.15649140991226
 20
-119.9716606687918
 10
72.16665444159375
 20
-120.2062716713373
 10
72.43933374925128
 20
-120.2062716713373
 10
72.57162541588488
 20
-120.2062716713373
 10
72.71804197400799
 20
-120.1366807425353
 10
72.71804197400799
 20
-119.908098657089
 10
72.71804197400799
 20
-119.7918266844618
 10
72.68152396186434
 20
-119.7430785833455
 10
72.65086261204561
 20
-119.7113837048812
 10
72.57972139027521
 20
-119.6373141519483
 10
72.46775578700459
 20
-119.6247395534271
 10
72.414873571306
 20
-119.6247395534271
 10
72.39661456523419
 20
-119.6247395534271
 10
72.36199135560742
 20
-119.6268066107183
 10
72.33563637514526
 20
-119.6309407253006
 10
72.33563637514526
 20
-119.6309407253006
 10
72.33563637514526
 20
-119.436292830384
 10
72.33563637514526
 20
-119.436292830384
 10
72.37215438728892
 20
-119.4426662570317
 10
72.41280651401486
 20
-119.4449055690971
 10
72.4190076858883
 20
-119.4449055690971
 10
72.48205293326838
 20
-119.4449055690971
 10
72.67325573269974
 20
-119.4237182318628
 10
72.67325573269974
 20
-119.1866956624776
 10
72.67325573269974
 20
-119.009100990213
 10
72.5471652379396
 20
-118.953979462449
 10
72.44140080654243
 20
-118.953979462449
 10
72.18698050495674
 20
-118.953979462449
 10
72.17888453056639
 20
-119.1866956624776
 10
72.1747504159841
 20
-119.2586981581194
 10
72.1747504159841
 20
-119.2586981581194
 10
71.97941350197043
 20
-119.2586981581194
 10
71.97941350197043
 20
-119.2586981581194
 10
71.98768173113503
 20
-119.1338134467791
 10
72.01403671159719
 20
-118.7572645102412
 10
72.45363089551506
 20
-118.7572645102412
 10
72.66929387289171
 20
-118.7572645102412
 10
72.90114879904903
 20
-118.8842162788727
 10
72.90114879904903
 20
-119.1803222358299
 10
72.90114879904903
 20
-119.3665296468077
 10
72.80968151391563
 20
-119.4490396836794
 10
72.71408011419996
 20
-119.5103623833169
 10
72.77299124699773
 20
-119.5379231471989
 10
72.94800209764841
 20
-119.6183661267794
 10
72.94800209764841
 20
-119.8955240585678
 10
72.94800209764841
 20
-120.2338324352193
 10
72.70994599961766
 20
-120.4009195662539
 10
72.44346786383358
 20
-120.4009195662539
 97
        0
 97
        0
 75
     2
 76
     1
 98
        0
  0
ENDBLK
  5
110
330
10D
100
AcDbEntity
  8
0
100
AcDbBlockEnd
  0
BLOCK
  5
119
330
117
100
AcDbEntity
  8
0
100
AcDbBlockBegin
  2
block 4
 70
     0
 10
0.0
 20
0.0
 30
0.0
  3
block 4
  1

  0
SPLINE
  5
11B
330
117
100
AcDbEntity
  8
_U+30EC_U+30A4_U+30E4_U+30FC 1
370
     0
100
AcDbSpline
210
0.0
220
0.0
230
1.0
 70
    11
 71
     3
 72
    62
 73
    58
 74
     0
 42
0.0000000001
 43
0.0000000001
 12
1.0
 22
0.0
 32
0.0
 13
1.0
 23
0.0
 33
0.0
 40
0.0
 40
0.0
 40
0.0
 40
0.0
 40
1.0
 40
1.0
 40
1.0
 40
2.0
 40
2.0
 40
2.0
 40
3.0
 40
3.0
 40
3.0
 40
4.0
 40
4.0
 40
4.0
 40
5.0
 40
5.0
 40
5.0
 40
6.0
 40
6.0
 40
6.0
 40
7.0
 40
7.0
 40
7.0
 40
8.0
 40
8.0
 40
8.0
 40
9.0
 40
9.0
 40
9.0
 40
10.0
 40
10.0
 40
10.0
 40
11.0
 40
11.0
 40
11.0
 40
12.0
 40
12.0
 40
12.0
 40
13.0
 40
13.0
 40
13.0
 40
14.0
 40
14.0
 40
14.0
 40
15.0
 40
15.0
 40
15.0
 40
16.0
 40
16.0
 40
16.0
 40
17.0
 40
17.0
 40
17.0
 40
18.0
 40
18.0
 40
18.0
 40
19.0
 40
19.0
 40
19.0
 40
19.0
 10
97.99160696334933
 20
-131.3814724063907
 30
0.0
 10
97.89996742344168
 20
-131.3814724063907
 30
0.0
 10
97.69050561793848
 20
-131.3604573239307
 30
0.0
 10
97.57061629505179
 20
-131.1744221677272
 30
0.0
 10
97.49930281850712
 20
-131.0621120549081
 30
0.0
 10
97.49516870392482
 20
-130.9628933049329
 30
0.0
 10
97.49137909889104
 20
-130.8781439559957
 30
0.0
 10
97.49137909889104
 20
-130.8781439559957
 30
0.0
 10
97.70290796168538
 20
-130.8781439559957
 30
0.0
 10
97.70290796168538
 20
-130.8781439559957
 30
0.0
 10
97.70497501897654
 20
-130.9522135089286
 30
0.0
 10
97.71496579588376
 20
-131.1868245114741
 30
0.0
 10
97.98747284876703
 20
-131.1868245114741
 30
0.0
 10
98.11976451540062
 20
-131.1868245114741
 30
0.0
 10
98.26652558307227
 20
-131.1172335826721
 30
0.0
 10
98.26652558307227
 20
-130.888823752
 30
0.0
 10
98.26652558307227
 20
-130.7723795245986
 30
0.0
 10
98.23000757092862
 20
-130.7238036782566
 30
0.0
 10
98.19934622110989
 20
-130.6921087997923
 30
0.0
 10
98.12803274456522
 20
-130.6180392468594
 30
0.0
 10
98.0160671412946
 20
-130.605292393564
 30
0.0
 10
97.96335718037028
 20
-130.605292393564
 30
0.0
 10
97.94475366474992
 20
-130.605292393564
 30
0.0
 10
97.91030270989742
 20
-130.6073594508551
 30
0.0
 10
97.88411998420953
 20
-130.6114935654374
 30
0.0
 10
97.88411998420953
 20
-130.6114935654374
 30
0.0
 10
97.88411998420953
 20
-130.4168456705208
 30
0.0
 10
97.88411998420953
 20
-130.4168456705208
 30
0.0
 10
97.92063799635318
 20
-130.4233913519428
 30
0.0
 10
97.96129012307912
 20
-130.4254584092339
 30
0.0
 10
97.96749129495258
 20
-130.4254584092339
 30
0.0
 10
98.03019203278413
 20
-130.4254584092339
 30
0.0
 10
98.22173934176402
 20
-130.4044433267739
 30
0.0
 10
98.22173934176402
 20
-130.1674207573887
 30
0.0
 10
98.22173934176402
 20
-129.9896538303498
 30
0.0
 10
98.09564884700387
 20
-129.9345323025858
 30
0.0
 10
97.98953990605817
 20
-129.9345323025858
 30
0.0
 10
97.73529185924674
 20
-129.9345323025858
 30
0.0
 10
97.72702363008214
 20
-130.1674207573887
 30
0.0
 10
97.72288951549984
 20
-130.2394232530304
 30
0.0
 10
97.72288951549984
 20
-130.2394232530304
 30
0.0
 10
97.52789711103469
 20
-130.2394232530304
 30
0.0
 10
97.52789711103469
 20
-130.2394232530304
 30
0.0
 10
97.53616534019929
 20
-130.1143662869159
 30
0.0
 10
97.56234806588719
 20
-129.737817350378
 30
0.0
 10
98.00194224980507
 20
-129.737817350378
 30
0.0
 10
98.21760522718172
 20
-129.737817350378
 30
0.0
 10
98.44946015333903
 20
-129.8649413737838
 30
0.0
 10
98.44946015333903
 20
-130.1608750759667
 30
0.0
 10
98.44946015333903
 20
-130.3472547417188
 30
0.0
 10
98.35816512297991
 20
-130.4295925238162
 30
0.0
 10
98.26239146848997
 20
-130.4909152234537
 30
0.0
 10
98.32130260128774
 20
-130.5184759873357
 30
0.0
 10
98.49631345193842
 20
-130.5990912216905
 30
0.0
 10
98.49631345193842
 20
-130.8760768987046
 30
0.0
 10
98.49631345193842
 20
-131.2143852753561
 30
0.0
 10
98.25825735390767
 20
-131.3814724063907
 30
0.0
 10
97.99160696334933
 20
-131.3814724063907
 30
0.0
  0
HATCH
  5
11C
330
117
100
AcDbEntity
  8
_U+30EC_U+30A4_U+30E4_U+30FC 1
 62
   179
420
  2234388
100
AcDbHatch
 10
0.0
 20
0.0
 30
0.0
210
0.0
220
0.0
230
1.0
  2
SOLID
 70
     1
 71
     0
 91
        1
 92
        1
 93
        1
 72
     4
 94
        3
 73
     0
 74
     1
 95
       62
 96
       58
 40
0.0
 40
0.0
 40
0.0
 40
0.0
 40
1.0
 40
1.0
 40
1.0
 40
2.0
 40
2.0
 40
2.0
 40
3.0
 40
3.0
 40
3.0
 40
4.0
 40
4.0
 40
4.0
 40
5.0
 40
5.0
 40
5.0
 40
6.0
 40
6.0
 40
6.0
 40
7.0
 40
7.0
 40
7.0
 40
8.0
 40
8.0
 40
8.0
 40
9.0
 40
9.0
 40
9.0
 40
10.0
 40
10.0
 40
10.0
 40
11.0
 40
11.0
 40
11.0
 40
12.0
 40
12.0
 40
12.0
 40
13.0
 40
13.0
 40
13.0
 40
14.0
 40
14.0
 40
14.0
 40
15.0
 40
15.0
 40
15.0
 40
16.0
 40
16.0
 40
16.0
 40
17.0
 40
17.0
 40
17.0
 40
18.0
 40
18.0
 40
18.0
 40
19.0
 40
19.0
 40
19.0
 40
19.0
 10
97.99160696334933
 20
-131.3814724063907
 10
97.89996742344168
 20
-131.3814724063907
 10
97.69050561793848
 20
-131.3604573239307
 10
97.57061629505179
 20
-131.1744221677272
 10
97.49930281850712
 20
-131.0621120549081
 10
97.49516870392482
 20
-130.9628933049329
 10
97.49137909889104
 20
-130.8781439559957
 10
97.49137909889104
 20
-130.8781439559957
 10
97.70290796168538
 20
-130.8781439559957
 10
97.70290796168538
 20
-130.8781439559957
 10
97.70497501897654
 20
-130.9522135089286
 10
97.71496579588376
 20
-131.1868245114741
 10
97.98747284876703
 20
-131.1868245114741
 10
98.11976451540062
 20
-131.1868245114741
 10
98.26652558307227
 20
-131.1172335826721
 10
98.26652558307227
 20
-130.888823752
 10
98.26652558307227
 20
-130.7723795245986
 10
98.23000757092862
 20
-130.7238036782566
 10
98.19934622110989
 20
-130.6921087997923
 10
98.12803274456522
 20
-130.6180392468594
 10
98.0160671412946
 20
-130.605292393564
 10
97.96335718037028
 20
-130.605292393564
 10
97.94475366474992
 20
-130.605292393564
 10
97.91030270989742
 20
-130.6073594508551
 10
97.88411998420953
 20
-130.6114935654374
 10
97.88411998420953
 20
-130.6114935654374
 10
97.88411998420953
 20
-130.4168456705208
 10
97.88411998420953
 20
-130.4168456705208
 10
97.92063799635318
 20
-130.4233913519428
 10
97.96129012307912
 20
-130.4254584092339
 10
97.96749129495258
 20
-130.4254584092339
 10
98.03019203278413
 20
-130.4254584092339
 10
98.22173934176402
 20
-130.4044433267739
 10
98.22173934176402
 20
-130.1674207573887
 10
98.22173934176402
 20
-129.9896538303498
 10
98.09564884700387
 20
-129.9345323025858
 10
97.98953990605817
 20
-129.9345323025858
 10
97.73529185924674
 20
-129.9345323025858
 10
97.72702363008214
 20
-130.1674207573887
 10
97.72288951549984
 20
-130.2394232530304
 10
97.72288951549984
 20
-130.2394232530304
 10
97.52789711103469
 20
-130.2394232530304
 10
97.52789711103469
 20
-130.2394232530304
 10
97.53616534019929
 20
-130.1143662869159
 10
97.56234806588719
 20
-129.737817350378
 10
98.00194224980507
 20
-129.737817350378
 10
98.21760522718172
 20
-129.737817350378
 10
98.44946015333903
 20
-129.8649413737838
 10
98.44946015333903
 20
-130.1608750759667
 10
98.44946015333903
 20
-130.3472547417188
 10
98.35816512297991
 20
-130.4295925238162
 10
98.26239146848997
 20
-130.4909152234537
 10
98.32130260128774
 20
-130.5184759873357
 10
98.49631345193842
 20
-130.5990912216905
 10
98.49631345193842
 20
-130.8760768987046
 10
98.49631345193842
 20
-131.2143852753561
 10
98.25825735390767
 20
-131.3814724063907
 10
97.99160696334933
 20
-131.3814724063907
 97
        0
 97
        0
 75
     2
 76
     1
 98
        0
  0
POLYLINE
  5
11D
330
117
100
AcDbEntity
  8
_U+30EC_U+30A4_U+30E4_U+30FC 1
370
     0
100
AcDb2dPolyline
 66
     1
 10
0.0
 20
0.0
 30
0.0
  0
VERTEX
  5
11E
330
11D
100
AcDbEntity
  8
_U+30EC_U+30A4_U+30E4_U+30FC 1
370
     0
100
AcDbVertex
100
AcDb2dVertex
 10
98.70784231473277
 20
-131.3308295027576
 30
0.0
  0
VERTEX
  5
11F
330
11D
100
AcDbEntity
  8
_U+30EC_U+30A4_U+30E4_U+30FC 1
370
     0
100
AcDbVertex
100
AcDb2dVertex
 10
98.70784231473277
 20
-131.0793375323343
 30
0.0
  0
VERTEX
  5
120
330
11D
100
AcDbEntity
  8
_U+30EC_U+30A4_U+30E4_U+30FC 1
370
     0
100
AcDbVertex
100
AcDb2dVertex
 10
98.95003252734583
 20
-131.0793375323343
 30
0.0
  0
VERTEX
  5
121
330
11D
100
AcDbEntity
  8
_U+30EC_U+30A4_U+30E4_U+30FC 1
370
     0
100
AcDbVertex
100
AcDb2dVertex
 10
98.95003252734583
 20
-131.3308295027576
 30
0.0
  0
VERTEX
  5
122
330
11D
100
AcDbEntity
  8
_U+30EC_U+30A4_U+30E4_U+30FC 1
370
     0
100
AcDbVertex
100
AcDb2dVertex
 10
98.70784231473277
 20
-131.3308295027576
 30
0.0
  0
SEQEND
  5
123
330
11D
100
AcDbEntity
  8
_U+30EC_U+30A4_U+30E4_U+30FC 1
370
     0
  0
HATCH
  5
124
330
117
100
AcDbEntity
  8
_U+30EC_U+30A4_U+30E4_U+30FC 1
 62
   179
420
  2234388
100
AcDbHatch
 10
0.0
 20
0.0
 30
0.0
210
0.0
220
0.0
230
1.0
  2
SOLID
 70
     1
 71
     0
 91
        1
 92
        1
 93
        4
 72
     1
 10
98.70784231473277
 20
-131.3308295027576
 11
98.70784231473277
 21
-131.0793375323343
 72
     1
 10
98.70784231473277
 20
-131.0793375323343
 11
98.95003252734583
 21
-131.0793375323343
 72
     1
 10
98.95003252734583
 20
-131.0793375323343
 11
98.95003252734583
 21
-131.3308295027576
 72
     1
 10
98.95003252734583
 20
-131.3308295027576
 11
98.70784231473277
 21
-131.3308295027576
 97
        0
 75
     2
 76
     1
 98
        0
  0
SPLINE
  5
125
330
117
100
AcDbEntity
  8
_U+30EC_U+30A4_U+30E4_U+30FC 1
370
     0
100
AcDbSpline
210
0.0
220
0.0
230
1.0
 70
    11
 71
     3
 72
    53
 73
    49
 74
     0
 42
0.0000000001
 43
0.0000000001
 12
1.0
 22
0.0
 32
0.0
 13
1.0
 23
0.0
 33
0.0
 40
0.0
 40
0.0
 40
0.0
 40
0.0
 40
1.0
 40
1.0
 40
1.0
 40
2.0
 40
2.0
 40
2.0
 40
3.0
 40
3.0
 40
3.0
 40
4.0
 40
4.0
 40
4.0
 40
5.0
 40
5.0
 40
5.0
 40
6.0
 40
6.0
 40
6.0
 40
7.0
 40
7.0
 40
7.0
 40
8.0
 40
8.0
 40
8.0
 40
9.0
 40
9.0
 40
9.0
 40
10.0
 40
10.0
 40
10.0
 40
11.0
 40
11.0
 40
11.0
 40
12.0
 40
12.0
 40
12.0
 40
13.0
 40
13.0
 40
13.0
 40
14.0
 40
14.0
 40
14.0
 40
15.0
 40
15.0
 40
15.0
 40
16.0
 40
16.0
 40
16.0
 40
16.0
 10
99.63974064349284
 20
-131.3814724063907
 30
0.0
 10
99.56429305236587
 20
-131.3814724063907
 30
0.0
 10
99.46645234058478
 20
-131.364591438513
 30
0.0
 10
99.3689561383522
 20
-131.3012016815844
 30
0.0
 10
99.20221351686612
 20
-131.191303135605
 30
0.0
 10
99.18154294395463
 20
-131.0600449976169
 30
0.0
 10
99.1632839378828
 20
-130.9522135089286
 30
0.0
 10
99.1632839378828
 20
-130.9522135089286
 30
0.0
 10
99.3772243675168
 20
-130.9522135089286
 30
0.0
 10
99.3772243675168
 20
-130.9522135089286
 30
0.0
 10
99.42993432844113
 20
-131.1509955184275
 30
0.0
 10
99.5522352181675
 20
-131.1806233396007
 30
0.0
 10
99.64146319123547
 20
-131.1806233396007
 30
0.0
 10
99.77582191516022
 20
-131.1806233396007
 30
0.0
 10
99.92223847328333
 20
-131.0814045896255
 30
0.0
 10
99.92223847328333
 20
-130.8485161348226
 30
0.0
 10
99.92223847328333
 20
-130.5925455402685
 30
0.0
 10
99.74929467992379
 20
-130.5229546114665
 30
0.0
 10
99.6335394716194
 20
-130.5229546114665
 30
0.0
 10
99.60287812180067
 20
-130.5229546114665
 30
0.0
 10
99.46645234058478
 20
-130.5229546114665
 30
0.0
 10
99.38101397255059
 20
-130.6518011826148
 30
0.0
 10
99.38101397255059
 20
-130.6518011826148
 30
0.0
 10
99.21220429377334
 20
-130.632853157446
 30
0.0
 10
99.21220429377334
 20
-130.632853157446
 30
0.0
 10
99.21220429377334
 20
-130.632853157446
 30
0.0
 10
99.32830401162626
 20
-129.7867377062686
 30
0.0
 10
99.32830401162626
 20
-129.7867377062686
 30
0.0
 10
99.32830401162626
 20
-129.7867377062686
 30
0.0
 10
100.076923260571
 20
-129.7867377062686
 30
0.0
 10
100.076923260571
 20
-129.7867377062686
 30
0.0
 10
100.076923260571
 20
-129.7867377062686
 30
0.0
 10
100.076923260571
 20
-129.9813856011852
 30
0.0
 10
100.076923260571
 20
-129.9813856011852
 30
0.0
 10
100.076923260571
 20
-129.9813856011852
 30
0.0
 10
99.48471134665661
 20
-129.9813856011852
 30
0.0
 10
99.48471134665661
 20
-129.9813856011852
 30
0.0
 10
99.48471134665661
 20
-129.9813856011852
 30
0.0
 10
99.42201060882506
 20
-130.4044433267739
 30
0.0
 10
99.42201060882506
 20
-130.4044433267739
 30
0.0
 10
99.48057723207431
 20
-130.3703368814699
 30
0.0
 10
99.56015893778357
 20
-130.330373773841
 30
0.0
 10
99.67419159834535
 20
-130.330373773841
 30
0.0
 10
99.91810435870103
 20
-130.330373773841
 30
0.0
 10
100.1461696798246
 20
-130.5164089300445
 30
0.0
 10
100.1461696798246
 20
-130.8295681096537
 30
0.0
 10
100.1461696798246
 20
-131.1468614038452
 30
0.0
 10
99.93050670244793
 20
-131.3814724063907
 30
0.0
 10
99.63974064349284
 20
-131.3814724063907
 30
0.0
  0
HATCH
  5
126
330
117
100
AcDbEntity
  8
_U+30EC_U+30A4_U+30E4_U+30FC 1
 62
   179
420
  2234388
100
AcDbHatch
 10
0.0
 20
0.0
 30
0.0
210
0.0
220
0.0
230
1.0
  2
SOLID
 70
     1
 71
     0
 91
        1
 92
        1
 93
        1
 72
     4
 94
        3
 73
     0
 74
     1
 95
       53
 96
       49
 40
0.0
 40
0.0
 40
0.0
 40
0.0
 40
1.0
 40
1.0
 40
1.0
 40
2.0
 40
2.0
 40
2.0
 40
3.0
 40
3.0
 40
3.0
 40
4.0
 40
4.0
 40
4.0
 40
5.0
 40
5.0
 40
5.0
 40
6.0
 40
6.0
 40
6.0
 40
7.0
 40
7.0
 40
7.0
 40
8.0
 40
8.0
 40
8.0
 40
9.0
 40
9.0
 40
9.0
 40
10.0
 40
10.0
 40
10.0
 40
11.0
 40
11.0
 40
11.0
 40
12.0
 40
12.0
 40
12.0
 40
13.0
 40
13.0
 40
13.0
 40
14.0
 40
14.0
 40
14.0
 40
15.0
 40
15.0
 40
15.0
 40
16.0
 40
16.0
 40
16.0
 40
16.0
 10
99.63974064349284
 20
-131.3814724063907
 10
99.56429305236587
 20
-131.3814724063907
 10
99.46645234058478
 20
-131.364591438513
 10
99.3689561383522
 20
-131.3012016815844
 10
99.20221351686612
 20
-131.191303135605
 10
99.18154294395463
 20
-131.0600449976169
 10
99.1632839378828
 20
-130.9522135089286
 10
99.1632839378828
 20
-130.9522135089286
 10
99.3772243675168
 20
-130.9522135089286
 10
99.3772243675168
 20
-130.9522135089286
 10
99.42993432844113
 20
-131.1509955184275
 10
99.5522352181675
 20
-131.1806233396007
 10
99.64146319123547
 20
-131.1806233396007
 10
99.77582191516022
 20
-131.1806233396007
 10
99.92223847328333
 20
-131.0814045896255
 10
99.92223847328333
 20
-130.8485161348226
 10
99.92223847328333
 20
-130.5925455402685
 10
99.74929467992379
 20
-130.5229546114665
 10
99.6335394716194
 20
-130.5229546114665
 10
99.60287812180067
 20
-130.5229546114665
 10
99.46645234058478
 20
-130.5229546114665
 10
99.38101397255059
 20
-130.6518011826148
 10
99.38101397255059
 20
-130.6518011826148
 10
99.21220429377334
 20
-130.632853157446
 10
99.21220429377334
 20
-130.632853157446
 10
99.21220429377334
 20
-130.632853157446
 10
99.32830401162626
 20
-129.7867377062686
 10
99.32830401162626
 20
-129.7867377062686
 10
99.32830401162626
 20
-129.7867377062686
 10
100.076923260571
 20
-129.7867377062686
 10
100.076923260571
 20
-129.7867377062686
 10
100.076923260571
 20
-129.7867377062686
 10
100.076923260571
 20
-129.9813856011852
 10
100.076923260571
 20
-129.9813856011852
 10
100.076923260571
 20
-129.9813856011852
 10
99.48471134665661
 20
-129.9813856011852
 10
99.48471134665661
 20
-129.9813856011852
 10
99.48471134665661
 20
-129.9813856011852
 10
99.42201060882506
 20
-130.4044433267739
 10
99.42201060882506
 20
-130.4044433267739
 10
99.48057723207431
 20
-130.3703368814699
 10
99.56015893778357
 20
-130.330373773841
 10
99.67419159834535
 20
-130.330373773841
 10
99.91810435870103
 20
-130.330373773841
 10
100.1461696798246
 20
-130.5164089300445
 10
100.1461696798246
 20
-130.8295681096537
 10
100.1461696798246
 20
-131.1468614038452
 10
99.93050670244793
 20
-131.3814724063907
 10
99.63974064349284
 20
-131.3814724063907
 97
        0
 97
        0
 75
     2
 76
     1
 98
        0
  0
ENDBLK
  5
11A
330
117
100
AcDbEntity
  8
0
100
AcDbBlockEnd
  0
BLOCK
  5
135
330
133
100
AcDbEntity
  8
0
100
AcDbBlockBegin
  2
block 5
 70
     0
 10
0.0
 20
0.0
 30
0.0
  3
block 5
  1

  0
SPLINE
  5
137
330
133
100
AcDbEntity
  8
_U+30EC_U+30A4_U+30E4_U+30FC 1
370
     0
100
AcDbSpline
210
0.0
220
0.0
230
1.0
 70
    11
 71
     3
 72
    44
 73
    40
 74
     0
 42
0.0000000001
 43
0.0000000001
 12
1.0
 22
0.0
 32
0.0
 13
1.0
 23
0.0
 33
0.0
 40
0.0
 40
0.0
 40
0.0
 40
0.0
 40
1.0
 40
1.0
 40
1.0
 40
2.0
 40
2.0
 40
2.0
 40
3.0
 40
3.0
 40
3.0
 40
4.0
 40
4.0
 40
4.0
 40
5.0
 40
5.0
 40
5.0
 40
6.0
 40
6.0
 40
6.0
 40
7.0
 40
7.0
 40
7.0
 40
8.0
 40
8.0
 40
8.0
 40
9.0
 40
9.0
 40
9.0
 40
10.0
 40
10.0
 40
10.0
 40
11.0
 40
11.0
 40
11.0
 40
12.0
 40
12.0
 40
12.0
 40
13.0
 40
13.0
 40
13.0
 40
13.0
 10
82.91001245757111
 20
-136.2686848617662
 30
0.0
 10
82.70020614251939
 20
-136.4275037636362
 30
0.0
 10
82.61097816945143
 20
-136.5015733165691
 30
0.0
 10
82.56412487085203
 20
-136.645233798304
 30
0.0
 10
82.56412487085203
 20
-136.645233798304
 30
0.0
 10
83.31274411979682
 20
-136.645233798304
 30
0.0
 10
83.31274411979682
 20
-136.645233798304
 30
0.0
 10
83.31274411979682
 20
-136.645233798304
 30
0.0
 10
83.31274411979682
 20
-136.8505614892249
 30
0.0
 10
83.31274411979682
 20
-136.8505614892249
 30
0.0
 10
83.31274411979682
 20
-136.8505614892249
 30
0.0
 10
82.32400171553012
 20
-136.8505614892249
 30
0.0
 10
82.32400171553012
 20
-136.8505614892249
 30
0.0
 10
82.35431855580032
 20
-136.4929605778559
 30
0.0
 10
82.41736380318038
 20
-136.4147569103408
 30
0.0
 10
82.78771156784474
 20
-136.1164116413181
 30
0.0
 10
83.0340358950401
 20
-135.9176296318192
 30
0.0
 10
83.09708114242018
 20
-135.8497612507598
 30
0.0
 10
83.09708114242018
 20
-135.7123019408983
 30
0.0
 10
83.09708114242018
 20
-135.5937906562057
 30
0.0
 10
83.02783472316666
 20
-135.4628770277662
 30
0.0
 10
82.83869898102644
 20
-135.4628770277662
 30
0.0
 10
82.5885850487973
 20
-135.4628770277662
 30
0.0
 10
82.5803168196327
 20
-135.6933539157294
 30
0.0
 10
82.5761827050504
 20
-135.8097981431309
 30
0.0
 10
82.5761827050504
 20
-135.8097981431309
 30
0.0
 10
82.36051972767376
 20
-135.8097981431309
 30
0.0
 10
82.36051972767376
 20
-135.8097981431309
 30
0.0
 10
82.36878795683836
 20
-135.6826741197252
 30
0.0
 10
82.37877873374559
 20
-135.5707085164545
 30
0.0
 10
82.45629338216371
 20
-135.4521972317619
 30
0.0
 10
82.56205781356088
 20
-135.2913112726008
 30
0.0
 10
82.74120277879386
 20
-135.2575493368453
 30
0.0
 10
82.85282387251597
 20
-135.2575493368453
 30
0.0
 10
83.1194742630743
 20
-135.2575493368453
 30
0.0
 10
83.31894529167026
 20
-135.4415174357577
 30
0.0
 10
83.31894529167026
 20
-135.7143689981895
 30
0.0
 10
83.31894529167026
 20
-135.9431233384101
 30
0.0
 10
83.20697968839964
 20
-136.0423420883853
 30
0.0
 10
82.91001245757111
 20
-136.2686848617662
 30
0.0
  0
HATCH
  5
138
330
133
100
AcDbEntity
  8
_U+30EC_U+30A4_U+30E4_U+30FC 1
 62
   179
420
  2234388
100
AcDbHatch
 10
0.0
 20
0.0
 30
0.0
210
0.0
220
0.0
230
1.0
  2
SOLID
 70
     1
 71
     0
 91
        1
 92
        1
 93
        1
 72
     4
 94
        3
 73
     0
 74
     1
 95
       44
 96
       40
 40
0.0
 40
0.0
 40
0.0
 40
0.0
 40
1.0
 40
1.0
 40
1.0
 40
2.0
 40
2.0
 40
2.0
 40
3.0
 40
3.0
 40
3.0
 40
4.0
 40
4.0
 40
4.0
 40
5.0
 40
5.0
 40
5.0
 40
6.0
 40
6.0
 40
6.0
 40
7.0
 40
7.0
 40
7.0
 40
8.0
 40
8.0
 40
8.0
 40
9.0
 40
9.0
 40
9.0
 40
10.0
 40
10.0
 40
10.0
 40
11.0
 40
11.0
 40
11.0
 40
12.0
 40
12.0
 40
12.0
 40
13.0
 40
13.0
 40
13.0
 40
13.0
 10
82.91001245757111
 20
-136.2686848617662
 10
82.70020614251939
 20
-136.4275037636362
 10
82.61097816945143
 20
-136.5015733165691
 10
82.56412487085203
 20
-136.645233798304
 10
82.56412487085203
 20
-136.645233798304
 10
83.31274411979682
 20
-136.645233798304
 10
83.31274411979682
 20
-136.645233798304
 10
83.31274411979682
 20
-136.645233798304
 10
83.31274411979682
 20
-136.8505614892249
 10
83.31274411979682
 20
-136.8505614892249
 10
83.31274411979682
 20
-136.8505614892249
 10
82.32400171553012
 20
-136.8505614892249
 10
82.32400171553012
 20
-136.8505614892249
 10
82.35431855580032
 20
-136.4929605778559
 10
82.41736380318038
 20
-136.4147569103408
 10
82.78771156784474
 20
-136.1164116413181
 10
83.0340358950401
 20
-135.9176296318192
 10
83.09708114242018
 20
-135.8497612507598
 10
83.09708114242018
 20
-135.7123019408983
 10
83.09708114242018
 20
-135.5937906562057
 10
83.02783472316666
 20
-135.4628770277662
 10
82.83869898102644
 20
-135.4628770277662
 10
82.5885850487973
 20
-135.4628770277662
 10
82.5803168196327
 20
-135.6933539157294
 10
82.5761827050504
 20
-135.8097981431309
 10
82.5761827050504
 20
-135.8097981431309
 10
82.36051972767376
 20
-135.8097981431309
 10
82.36051972767376
 20
-135.8097981431309
 10
82.36878795683836
 20
-135.6826741197252
 10
82.37877873374559
 20
-135.5707085164545
 10
82.45629338216371
 20
-135.4521972317619
 10
82.56205781356088
 20
-135.2913112726008
 10
82.74120277879386
 20
-135.2575493368453
 10
82.85282387251597
 20
-135.2575493368453
 10
83.1194742630743
 20
-135.2575493368453
 10
83.31894529167026
 20
-135.4415174357577
 10
83.31894529167026
 20
-135.7143689981895
 10
83.31894529167026
 20
-135.9431233384101
 10
83.20697968839964
 20
-136.0423420883853
 10
82.91001245757111
 20
-136.2686848617662
 97
        0
 97
        0
 75
     2
 76
     1
 98
        0
  0
SPLINE
  5
139
330
133
100
AcDbEntity
  8
_U+30EC_U+30A4_U+30E4_U+30FC 1
370
     0
100
AcDbSpline
210
0.0
220
0.0
230
1.0
 70
    11
 71
     3
 72
    29
 73
    25
 74
     0
 42
0.0000000001
 43
0.0000000001
 12
1.0
 22
0.0
 32
0.0
 13
1.0
 23
0.0
 33
0.0
 40
0.0
 40
0.0
 40
0.0
 40
0.0
 40
1.0
 40
1.0
 40
1.0
 40
2.0
 40
2.0
 40
2.0
 40
3.0
 40
3.0
 40
3.0
 40
4.0
 40
4.0
 40
4.0
 40
5.0
 40
5.0
 40
5.0
 40
6.0
 40
6.0
 40
6.0
 40
7.0
 40
7.0
 40
7.0
 40
8.0
 40
8.0
 40
8.0
 40
8.0
 10
84.33387042162487
 20
-136.672794562186
 30
0.0
 10
84.23017304751885
 20
-136.8822563676892
 30
0.0
 10
84.06343042603275
 20
-136.901204392858
 30
0.0
 10
83.95146482276213
 20
-136.901204392858
 30
0.0
 10
83.79678003547443
 20
-136.901204392858
 30
0.0
 10
83.66035425425852
 20
-136.8546956038072
 30
0.0
 10
83.5690592238994
 20
-136.672794562186
 30
0.0
 10
83.46915145482716
 20
-136.4781466672694
 30
0.0
 10
83.45089244875534
 20
-136.2411240978842
 30
0.0
 10
83.45089244875534
 20
-136.0785155909804
 30
0.0
 10
83.45089244875534
 20
-135.9345105996969
 30
0.0
 10
83.46708439753601
 20
-135.6826741197252
 30
0.0
 10
83.5690592238994
 20
-135.4838921102263
 30
0.0
 10
83.67275659800542
 20
-135.2809759861451
 30
0.0
 10
83.82744138529314
 20
-135.2575493368453
 30
0.0
 10
83.95146482276213
 20
-135.2575493368453
 30
0.0
 10
84.10408255275871
 20
-135.2575493368453
 30
0.0
 10
84.24257539126575
 20
-135.3019910686051
 30
0.0
 10
84.33387042162487
 20
-135.4838921102263
 30
0.0
 10
84.42964407611481
 20
-135.6764729478517
 30
0.0
 10
84.45203719676894
 20
-135.9048827785238
 30
0.0
 10
84.45203719676894
 20
-136.0785155909804
 30
0.0
 10
84.45203719676894
 20
-136.2497368365973
 30
0.0
 10
84.43171113340597
 20
-136.4802137245605
 30
0.0
 10
84.33387042162487
 20
-136.672794562186
 30
0.0
  0
SPLINE
  5
13A
330
133
100
AcDbEntity
  8
_U+30EC_U+30A4_U+30E4_U+30FC 1
370
     0
100
AcDbSpline
210
0.0
220
0.0
230
1.0
 70
    11
 71
     3
 72
    17
 73
    13
 74
     0
 42
0.0000000001
 43
0.0000000001
 12
1.0
 22
0.0
 32
0.0
 13
1.0
 23
0.0
 33
0.0
 40
0.0
 40
0.0
 40
0.0
 40
0.0
 40
1.0
 40
1.0
 40
1.0
 40
2.0
 40
2.0
 40
2.0
 40
3.0
 40
3.0
 40
3.0
 40
4.0
 40
4.0
 40
4.0
 40
4.0
 10
83.95146482276213
 20
-135.4501301744708
 30
0.0
 10
83.71134166744022
 20
-135.4501301744708
 30
0.0
 10
83.66655542613198
 20
-135.7336615329069
 30
0.0
 10
83.66655542613198
 20
-136.0785155909804
 30
0.0
 10
83.66655542613198
 20
-136.397875942463
 30
0.0
 10
83.70100638098448
 20
-136.7065564979414
 30
0.0
 10
83.95146482276213
 20
-136.7065564979414
 30
0.0
 10
84.1895209207929
 20
-136.7065564979414
 30
0.0
 10
84.2363742193923
 20
-136.425436706345
 30
0.0
 10
84.2363742193923
 20
-136.0785155909804
 30
0.0
 10
84.2363742193923
 20
-135.7588107299492
 30
0.0
 10
84.19985620724866
 20
-135.4501301744708
 30
0.0
 10
83.95146482276213
 20
-135.4501301744708
 30
0.0
  0
HATCH
  5
13B
330
133
100
AcDbEntity
  8
_U+30EC_U+30A4_U+30E4_U+30FC 1
 62
   179
420
  2234388
100
AcDbHatch
 10
0.0
 20
0.0
 30
0.0
210
0.0
220
0.0
230
1.0
  2
SOLID
 70
     1
 71
     0
 91
        2
 92
        1
 93
        1
 72
     4
 94
        3
 73
     0
 74
     1
 95
       29
 96
       25
 40
0.0
 40
0.0
 40
0.0
 40
0.0
 40
1.0
 40
1.0
 40
1.0
 40
2.0
 40
2.0
 40
2.0
 40
3.0
 40
3.0
 40
3.0
 40
4.0
 40
4.0
 40
4.0
 40
5.0
 40
5.0
 40
5.0
 40
6.0
 40
6.0
 40
6.0
 40
7.0
 40
7.0
 40
7.0
 40
8.0
 40
8.0
 40
8.0
 40
8.0
 10
84.33387042162487
 20
-136.672794562186
 10
84.23017304751885
 20
-136.8822563676892
 10
84.06343042603275
 20
-136.901204392858
 10
83.95146482276213
 20
-136.901204392858
 10
83.79678003547443
 20
-136.901204392858
 10
83.66035425425852
 20
-136.8546956038072
 10
83.5690592238994
 20
-136.672794562186
 10
83.46915145482716
 20
-136.4781466672694
 10
83.45089244875534
 20
-136.2411240978842
 10
83.45089244875534
 20
-136.0785155909804
 10
83.45089244875534
 20
-135.9345105996969
 10
83.46708439753601
 20
-135.6826741197252
 10
83.5690592238994
 20
-135.4838921102263
 10
83.67275659800542
 20
-135.2809759861451
 10
83.82744138529314
 20
-135.2575493368453
 10
83.95146482276213
 20
-135.2575493368453
 10
84.10408255275871
 20
-135.2575493368453
 10
84.24257539126575
 20
-135.3019910686051
 10
84.33387042162487
 20
-135.4838921102263
 10
84.42964407611481
 20
-135.6764729478517
 10
84.45203719676894
 20
-135.9048827785238
 10
84.45203719676894
 20
-136.0785155909804
 10
84.45203719676894
 20
-136.2497368365973
 10
84.43171113340597
 20
-136.4802137245605
 10
84.33387042162487
 20
-136.672794562186
 97
        0
 97
        0
 92
        1
 93
        1
 72
     4
 94
        3
 73
     0
 74
     1
 95
       17
 96
       13
 40
0.0
 40
0.0
 40
0.0
 40
0.0
 40
1.0
 40
1.0
 40
1.0
 40
2.0
 40
2.0
 40
2.0
 40
3.0
 40
3.0
 40
3.0
 40
4.0
 40
4.0
 40
4.0
 40
4.0
 10
83.95146482276213
 20
-135.4501301744708
 10
83.71134166744022
 20
-135.4501301744708
 10
83.66655542613198
 20
-135.7336615329069
 10
83.66655542613198
 20
-136.0785155909804
 10
83.66655542613198
 20
-136.397875942463
 10
83.70100638098448
 20
-136.7065564979414
 10
83.95146482276213
 20
-136.7065564979414
 10
84.1895209207929
 20
-136.7065564979414
 10
84.2363742193923
 20
-136.425436706345
 10
84.2363742193923
 20
-136.0785155909804
 10
84.2363742193923
 20
-135.7588107299492
 10
84.19985620724866
 20
-135.4501301744708
 10
83.95146482276213
 20
-135.4501301744708
 97
        0
 97
        0
 75
     2
 76
     1
 98
        0
  0
ENDBLK
  5
136
330
133
100
AcDbEntity
  8
0
100
AcDbBlockEnd
  0
BLOCK
  5
14A
330
148
100
AcDbEntity
  8
0
100
AcDbBlockBegin
  2
block 6
 70
     0
 10
0.0
 20
0.0
 30
0.0
  3
block 6
  1

  0
SPLINE
  5
14C
330
148
100
AcDbEntity
  8
_U+30EC_U+30A4_U+30E4_U+30FC 1
370
     0
100
AcDbSpline
210
0.0
220
0.0
230
1.0
 70
    11
 71
     3
 72
    32
 73
    28
 74
     0
 42
0.0000000001
 43
0.0000000001
 12
1.0
 22
0.0
 32
0.0
 13
1.0
 23
0.0
 33
0.0
 40
0.0
 40
0.0
 40
0.0
 40
0.0
 40
1.0
 40
1.0
 40
1.0
 40
2.0
 40
2.0
 40
2.0
 40
3.0
 40
3.0
 40
3.0
 40
4.0
 40
4.0
 40
4.0
 40
5.0
 40
5.0
 40
5.0
 40
6.0
 40
6.0
 40
6.0
 40
7.0
 40
7.0
 40
7.0
 40
8.0
 40
8.0
 40
8.0
 40
9.0
 40
9.0
 40
9.0
 40
9.0
 10
57.9614922272631
 20
-130.0296169379787
 30
0.0
 10
57.9614922272631
 20
-130.5260551974032
 30
0.0
 10
57.4071763636864
 20
-130.5343234265678
 30
0.0
 10
57.19358044360091
 20
-130.5343234265678
 30
0.0
 10
56.96293130086344
 20
-130.5343234265678
 30
0.0
 10
56.31559785918499
 20
-130.516064420496
 30
0.0
 10
56.31559785918499
 20
-129.9930989258351
 30
0.0
 10
56.31559785918499
 20
-129.826356304349
 30
0.0
 10
56.3853610427613
 20
-129.5900227540608
 30
0.0
 10
56.71746824753939
 20
-129.5535047419172
 30
0.0
 10
56.71746824753939
 20
-129.5535047419172
 30
0.0
 10
56.71746824753939
 20
-129.7591769423866
 30
0.0
 10
56.71746824753939
 20
-129.7591769423866
 30
0.0
 10
56.6604519172585
 20
-129.7691677192938
 30
0.0
 10
56.51231281139276
 20
-129.7998290691125
 30
0.0
 10
56.51231281139276
 20
-129.9951659831262
 30
0.0
 10
56.51231281139276
 20
-130.2759412651741
 30
0.0
 10
56.84028590158854
 20
-130.3145263346089
 30
0.0
 10
57.04544133773517
 20
-130.3269286783558
 30
0.0
 10
56.96723767022
 20
-130.2373561957393
 30
0.0
 10
56.9079820278737
 20
-130.1722438910681
 30
0.0
 10
56.9079820278737
 20
-129.9972330404174
 30
0.0
 10
56.9079820278737
 20
-129.8242892470578
 30
0.0
 10
57.01581351656202
 20
-129.5331786785542
 30
0.0
 10
57.42199027427298
 20
-129.5331786785542
 30
0.0
 10
57.74135062575564
 20
-129.5331786785542
 30
0.0
 10
57.9614922272631
 20
-129.7243814779856
 30
0.0
 10
57.9614922272631
 20
-130.0296169379787
 30
0.0
  0
SPLINE
  5
14D
330
148
100
AcDbEntity
  8
_U+30EC_U+30A4_U+30E4_U+30FC 1
370
     0
100
AcDbSpline
210
0.0
220
0.0
230
1.0
 70
    11
 71
     3
 72
    17
 73
    13
 74
     0
 42
0.0000000001
 43
0.0000000001
 12
1.0
 22
0.0
 32
0.0
 13
1.0
 23
0.0
 33
0.0
 40
0.0
 40
0.0
 40
0.0
 40
0.0
 40
1.0
 40
1.0
 40
1.0
 40
2.0
 40
2.0
 40
2.0
 40
3.0
 40
3.0
 40
3.0
 40
4.0
 40
4.0
 40
4.0
 40
4.0
 10
57.10262992279031
 20
-130.013424989198
 30
0.0
 10
57.10262992279031
 20
-130.2656059787183
 30
0.0
 10
57.31415878558466
 20
-130.3024685004105
 30
0.0
 10
57.43043075821184
 20
-130.3024685004105
 30
0.0
 10
57.60595837318532
 20
-130.3024685004105
 30
0.0
 10
57.76891138963764
 20
-130.2108289605029
 30
0.0
 10
57.76891138963764
 20
-130.033751052561
 30
0.0
 10
57.76891138963764
 20
-129.9176513347081
 30
0.0
 10
57.70965574729134
 20
-129.7488416559308
 30
0.0
 10
57.42405733156413
 20
-129.7488416559308
 30
0.0
 10
57.19978161547436
 20
-129.7488416559308
 30
0.0
 10
57.10262992279031
 20
-129.8832003798556
 30
0.0
 10
57.10262992279031
 20
-130.013424989198
 30
0.0
  0
HATCH
  5
14E
330
148
100
AcDbEntity
  8
_U+30EC_U+30A4_U+30E4_U+30FC 1
 62
   179
420
  2234388
100
AcDbHatch
 10
0.0
 20
0.0
 30
0.0
210
0.0
220
0.0
230
1.0
  2
SOLID
 70
     1
 71
     0
 91
        2
 92
        1
 93
        1
 72
     4
 94
        3
 73
     0
 74
     1
 95
       32
 96
       28
 40
0.0
 40
0.0
 40
0.0
 40
0.0
 40
1.0
 40
1.0
 40
1.0
 40
2.0
 40
2.0
 40
2.0
 40
3.0
 40
3.0
 40
3.0
 40
4.0
 40
4.0
 40
4.0
 40
5.0
 40
5.0
 40
5.0
 40
6.0
 40
6.0
 40
6.0
 40
7.0
 40
7.0
 40
7.0
 40
8.0
 40
8.0
 40
8.0
 40
9.0
 40
9.0
 40
9.0
 40
9.0
 10
57.9614922272631
 20
-130.0296169379787
 10
57.9614922272631
 20
-130.5260551974032
 10
57.4071763636864
 20
-130.5343234265678
 10
57.19358044360091
 20
-130.5343234265678
 10
56.96293130086344
 20
-130.5343234265678
 10
56.31559785918499
 20
-130.516064420496
 10
56.31559785918499
 20
-129.9930989258351
 10
56.31559785918499
 20
-129.826356304349
 10
56.3853610427613
 20
-129.5900227540608
 10
56.71746824753939
 20
-129.5535047419172
 10
56.71746824753939
 20
-129.5535047419172
 10
56.71746824753939
 20
-129.7591769423866
 10
56.71746824753939
 20
-129.7591769423866
 10
56.6604519172585
 20
-129.7691677192938
 10
56.51231281139276
 20
-129.7998290691125
 10
56.51231281139276
 20
-129.9951659831262
 10
56.51231281139276
 20
-130.2759412651741
 10
56.84028590158854
 20
-130.3145263346089
 10
57.04544133773517
 20
-130.3269286783558
 10
56.96723767022
 20
-130.2373561957393
 10
56.9079820278737
 20
-130.1722438910681
 10
56.9079820278737
 20
-129.9972330404174
 10
56.9079820278737
 20
-129.8242892470578
 10
57.01581351656202
 20
-129.5331786785542
 10
57.42199027427298
 20
-129.5331786785542
 10
57.74135062575564
 20
-129.5331786785542
 10
57.9614922272631
 20
-129.7243814779856
 10
57.9614922272631
 20
-130.0296169379787
 97
        0
 97
        0
 92
        1
 93
        1
 72
     4
 94
        3
 73
     0
 74
     1
 95
       17
 96
       13
 40
0.0
 40
0.0
 40
0.0
 40
0.0
 40
1.0
 40
1.0
 40
1.0
 40
2.0
 40
2.0
 40
2.0
 40
3.0
 40
3.0
 40
3.0
 40
4.0
 40
4.0
 40
4.0
 40
4.0
 10
57.10262992279031
 20
-130.013424989198
 10
57.10262992279031
 20
-130.2656059787183
 10
57.31415878558466
 20
-130.3024685004105
 10
57.43043075821184
 20
-130.3024685004105
 10
57.60595837318532
 20
-130.3024685004105
 10
57.76891138963764
 20
-130.2108289605029
 10
57.76891138963764
 20
-130.033751052561
 10
57.76891138963764
 20
-129.9176513347081
 10
57.70965574729134
 20
-129.7488416559308
 10
57.42405733156413
 20
-129.7488416559308
 10
57.19978161547436
 20
-129.7488416559308
 10
57.10262992279031
 20
-129.8832003798556
 10
57.10262992279031
 20
-130.013424989198
 97
        0
 97
        0
 75
     2
 76
     1
 98
        0
  0
POLYLINE
  5
14F
330
148
100
AcDbEntity
  8
_U+30EC_U+30A4_U+30E4_U+30FC 1
370
     0
100
AcDb2dPolyline
 66
     1
 10
0.0
 20
0.0
 30
0.0
  0
VERTEX
  5
150
330
14F
100
AcDbEntity
  8
_U+30EC_U+30A4_U+30E4_U+30FC 1
370
     0
100
AcDbVertex
100
AcDb2dVertex
 10
57.91067706885567
 20
-129.3261284398907
 30
0.0
  0
VERTEX
  5
151
330
14F
100
AcDbEntity
  8
_U+30EC_U+30A4_U+30E4_U+30FC 1
370
     0
100
AcDbVertex
100
AcDb2dVertex
 10
57.65901284365817
 20
-129.3261284398907
 30
0.0
  0
VERTEX
  5
152
330
14F
100
AcDbEntity
  8
_U+30EC_U+30A4_U+30E4_U+30FC 1
370
     0
100
AcDbVertex
100
AcDb2dVertex
 10
57.65901284365817
 20
-129.0839382272776
 30
0.0
  0
VERTEX
  5
153
330
14F
100
AcDbEntity
  8
_U+30EC_U+30A4_U+30E4_U+30FC 1
370
     0
100
AcDbVertex
100
AcDb2dVertex
 10
57.91067706885567
 20
-129.0839382272776
 30
0.0
  0
VERTEX
  5
154
330
14F
100
AcDbEntity
  8
_U+30EC_U+30A4_U+30E4_U+30FC 1
370
     0
100
AcDbVertex
100
AcDb2dVertex
 10
57.91067706885567
 20
-129.3261284398907
 30
0.0
  0
SEQEND
  5
155
330
14F
100
AcDbEntity
  8
_U+30EC_U+30A4_U+30E4_U+30FC 1
370
     0
  0
HATCH
  5
156
330
148
100
AcDbEntity
  8
_U+30EC_U+30A4_U+30E4_U+30FC 1
 62
   179
420
  2234388
100
AcDbHatch
 10
0.0
 20
0.0
 30
0.0
210
0.0
220
0.0
230
1.0
  2
SOLID
 70
     1
 71
     0
 91
        1
 92
        1
 93
        4
 72
     1
 10
57.91067706885567
 20
-129.3261284398907
 11
57.65901284365817
 21
-129.3261284398907
 72
     1
 10
57.65901284365817
 20
-129.3261284398907
 11
57.65901284365817
 21
-129.0839382272776
 72
     1
 10
57.65901284365817
 20
-129.0839382272776
 11
57.91067706885567
 21
-129.0839382272776
 72
     1
 10
57.91067706885567
 20
-129.0839382272776
 11
57.91067706885567
 21
-129.3261284398907
 97
        0
 75
     2
 76
     1
 98
        0
  0
SPLINE
  5
157
330
148
100
AcDbEntity
  8
_U+30EC_U+30A4_U+30E4_U+30FC 1
370
     0
100
AcDbSpline
210
0.0
220
0.0
230
1.0
 70
    11
 71
     3
 72
    53
 73
    49
 74
     0
 42
0.0000000001
 43
0.0000000001
 12
1.0
 22
0.0
 32
0.0
 13
1.0
 23
0.0
 33
0.0
 40
0.0
 40
0.0
 40
0.0
 40
0.0
 40
1.0
 40
1.0
 40
1.0
 40
2.0
 40
2.0
 40
2.0
 40
3.0
 40
3.0
 40
3.0
 40
4.0
 40
4.0
 40
4.0
 40
5.0
 40
5.0
 40
5.0
 40
6.0
 40
6.0
 40
6.0
 40
7.0
 40
7.0
 40
7.0
 40
8.0
 40
8.0
 40
8.0
 40
9.0
 40
9.0
 40
9.0
 40
10.0
 40
10.0
 40
10.0
 40
11.0
 40
11.0
 40
11.0
 40
12.0
 40
12.0
 40
12.0
 40
13.0
 40
13.0
 40
13.0
 40
14.0
 40
14.0
 40
14.0
 40
15.0
 40
15.0
 40
15.0
 40
16.0
 40
16.0
 40
16.0
 40
16.0
 10
57.9614922272631
 20
-128.3938856015821
 30
0.0
 10
57.9614922272631
 20
-128.4693331927091
 30
0.0
 10
57.94461125938538
 20
-128.5668293949416
 30
0.0
 10
57.88104924768252
 20
-128.6646701067227
 30
0.0
 10
57.77097844692879
 20
-128.8314127282088
 30
0.0
 10
57.63989256371503
 20
-128.8517387915718
 30
0.0
 10
57.53206107502671
 20
-128.8699977976436
 30
0.0
 10
57.53206107502671
 20
-128.8699977976436
 30
0.0
 10
57.53206107502671
 20
-128.6564018775581
 30
0.0
 10
57.53206107502671
 20
-128.6564018775581
 30
0.0
 10
57.73084308452562
 20
-128.6036919166338
 30
0.0
 10
57.76047090569877
 20
-128.4813910269074
 30
0.0
 10
57.76047090569877
 20
-128.3918185442909
 30
0.0
 10
57.76047090569877
 20
-128.2574598203662
 30
0.0
 10
57.66107990094932
 20
-128.1110432622431
 30
0.0
 10
57.42836370092069
 20
-128.1110432622431
 30
0.0
 10
57.17239310636663
 20
-128.1110432622431
 30
0.0
 10
57.10262992279031
 20
-128.2839870556026
 30
0.0
 10
57.10262992279031
 20
-128.4000867734555
 30
0.0
 10
57.10262992279031
 20
-128.4307481232743
 30
0.0
 10
57.10262992279031
 20
-128.5668293949416
 30
0.0
 10
57.23164874871292
 20
-128.6522677629758
 30
0.0
 10
57.23164874871292
 20
-128.6522677629758
 30
0.0
 10
57.21252846876979
 20
-128.8214219513016
 30
0.0
 10
57.21252846876979
 20
-128.8214219513016
 30
0.0
 10
57.21252846876979
 20
-128.8214219513016
 30
0.0
 10
56.36641301759243
 20
-128.7053222334487
 30
0.0
 10
56.36641301759243
 20
-128.7053222334487
 30
0.0
 10
56.36641301759243
 20
-128.7053222334487
 30
0.0
 10
56.36641301759243
 20
-127.9563584749554
 30
0.0
 10
56.36641301759243
 20
-127.9563584749554
 30
0.0
 10
56.36641301759243
 20
-127.9563584749554
 30
0.0
 10
56.56106091250904
 20
-127.9563584749554
 30
0.0
 10
56.56106091250904
 20
-127.9563584749554
 30
0.0
 10
56.56106091250904
 20
-127.9563584749554
 30
0.0
 10
56.56106091250904
 20
-128.5485703888698
 30
0.0
 10
56.56106091250904
 20
-128.5485703888698
 30
0.0
 10
56.56106091250904
 20
-128.5485703888698
 30
0.0
 10
56.98411863809773
 20
-128.6116156362499
 30
0.0
 10
56.98411863809773
 20
-128.6116156362499
 30
0.0
 10
56.95018444756801
 20
-128.5527045034521
 30
0.0
 10
56.91004908516485
 20
-128.4734673072914
 30
0.0
 10
56.91004908516485
 20
-128.3594346467296
 30
0.0
 10
56.91004908516485
 20
-128.1151773768254
 30
0.0
 10
57.09625649614261
 20
-127.8874565652504
 30
0.0
 10
57.40924342097755
 20
-127.8874565652504
 30
0.0
 10
57.72670896994332
 20
-127.8874565652504
 30
0.0
 10
57.9614922272631
 20
-128.103119542627
 30
0.0
 10
57.9614922272631
 20
-128.3938856015821
 30
0.0
  0
HATCH
  5
158
330
148
100
AcDbEntity
  8
_U+30EC_U+30A4_U+30E4_U+30FC 1
 62
   179
420
  2234388
100
AcDbHatch
 10
0.0
 20
0.0
 30
0.0
210
0.0
220
0.0
230
1.0
  2
SOLID
 70
     1
 71
     0
 91
        1
 92
        1
 93
        1
 72
     4
 94
        3
 73
     0
 74
     1
 95
       53
 96
       49
 40
0.0
 40
0.0
 40
0.0
 40
0.0
 40
1.0
 40
1.0
 40
1.0
 40
2.0
 40
2.0
 40
2.0
 40
3.0
 40
3.0
 40
3.0
 40
4.0
 40
4.0
 40
4.0
 40
5.0
 40
5.0
 40
5.0
 40
6.0
 40
6.0
 40
6.0
 40
7.0
 40
7.0
 40
7.0
 40
8.0
 40
8.0
 40
8.0
 40
9.0
 40
9.0
 40
9.0
 40
10.0
 40
10.0
 40
10.0
 40
11.0
 40
11.0
 40
11.0
 40
12.0
 40
12.0
 40
12.0
 40
13.0
 40
13.0
 40
13.0
 40
14.0
 40
14.0
 40
14.0
 40
15.0
 40
15.0
 40
15.0
 40
16.0
 40
16.0
 40
16.0
 40
16.0
 10
57.9614922272631
 20
-128.3938856015821
 10
57.9614922272631
 20
-128.4693331927091
 10
57.94461125938538
 20
-128.5668293949416
 10
57.88104924768252
 20
-128.6646701067227
 10
57.77097844692879
 20
-128.8314127282088
 10
57.63989256371503
 20
-128.8517387915718
 10
57.53206107502671
 20
-128.8699977976436
 10
57.53206107502671
 20
-128.8699977976436
 10
57.53206107502671
 20
-128.6564018775581
 10
57.53206107502671
 20
-128.6564018775581
 10
57.73084308452562
 20
-128.6036919166338
 10
57.76047090569877
 20
-128.4813910269074
 10
57.76047090569877
 20
-128.3918185442909
 10
57.76047090569877
 20
-128.2574598203662
 10
57.66107990094932
 20
-128.1110432622431
 10
57.42836370092069
 20
-128.1110432622431
 10
57.17239310636663
 20
-128.1110432622431
 10
57.10262992279031
 20
-128.2839870556026
 10
57.10262992279031
 20
-128.4000867734555
 10
57.10262992279031
 20
-128.4307481232743
 10
57.10262992279031
 20
-128.5668293949416
 10
57.23164874871292
 20
-128.6522677629758
 10
57.23164874871292
 20
-128.6522677629758
 10
57.21252846876979
 20
-128.8214219513016
 10
57.21252846876979
 20
-128.8214219513016
 10
57.21252846876979
 20
-128.8214219513016
 10
56.36641301759243
 20
-128.7053222334487
 10
56.36641301759243
 20
-128.7053222334487
 10
56.36641301759243
 20
-128.7053222334487
 10
56.36641301759243
 20
-127.9563584749554
 10
56.36641301759243
 20
-127.9563584749554
 10
56.36641301759243
 20
-127.9563584749554
 10
56.56106091250904
 20
-127.9563584749554
 10
56.56106091250904
 20
-127.9563584749554
 10
56.56106091250904
 20
-127.9563584749554
 10
56.56106091250904
 20
-128.5485703888698
 10
56.56106091250904
 20
-128.5485703888698
 10
56.56106091250904
 20
-128.5485703888698
 10
56.98411863809773
 20
-128.6116156362499
 10
56.98411863809773
 20
-128.6116156362499
 10
56.95018444756801
 20
-128.5527045034521
 10
56.91004908516485
 20
-128.4734673072914
 10
56.91004908516485
 20
-128.3594346467296
 10
56.91004908516485
 20
-128.1151773768254
 10
57.09625649614261
 20
-127.8874565652504
 10
57.40924342097755
 20
-127.8874565652504
 10
57.72670896994332
 20
-127.8874565652504
 10
57.9614922272631
 20
-128.103119542627
 10
57.9614922272631
 20
-128.3938856015821
 97
        0
 97
        0
 75
     2
 76
     1
 98
        0
  0
ENDBLK
  5
14B
330
148
100
AcDbEntity
  8
0
100
AcDbBlockEnd
  0
BLOCK
  5
165
330
163
100
AcDbEntity
  8
0
100
AcDbBlockBegin
  2
block 7
 70
     0
 10
0.0
 20
0.0
 30
0.0
  3
block 7
  1

  0
SPLINE
  5
167
330
163
100
AcDbEntity
  8
_U+30EC_U+30A4_U+30E4_U+30FC 1
370
     0
100
AcDbSpline
210
0.0
220
0.0
230
1.0
 70
    11
 71
     3
 72
    26
 73
    22
 74
     0
 42
0.0000000001
 43
0.0000000001
 12
1.0
 22
0.0
 32
0.0
 13
1.0
 23
0.0
 33
0.0
 40
0.0
 40
0.0
 40
0.0
 40
0.0
 40
1.0
 40
1.0
 40
1.0
 40
2.0
 40
2.0
 40
2.0
 40
3.0
 40
3.0
 40
3.0
 40
4.0
 40
4.0
 40
4.0
 40
5.0
 40
5.0
 40
5.0
 40
6.0
 40
6.0
 40
6.0
 40
7.0
 40
7.0
 40
7.0
 40
7.0
 10
85.11831866361626
 20
-128.3804497291896
 30
0.0
 10
85.11831866361626
 20
-128.3804497291896
 30
0.0
 10
85.11831866361626
 20
-127.2761243713928
 30
0.0
 10
85.11831866361626
 20
-127.2761243713928
 30
0.0
 10
85.11831866361626
 20
-127.2761243713928
 30
0.0
 10
84.78827851612932
 20
-127.2761243713928
 30
0.0
 10
84.78827851612932
 20
-127.2761243713928
 30
0.0
 10
84.78827851612932
 20
-127.2761243713928
 30
0.0
 10
84.78827851612932
 20
-127.1281575203013
 30
0.0
 10
84.78827851612932
 20
-127.1281575203013
 30
0.0
 10
85.12038572090741
 20
-127.1133436097147
 30
0.0
 10
85.16689450995828
 20
-126.9503905932624
 30
0.0
 10
85.19652233113143
 20
-126.8361856779264
 30
0.0
 10
85.19652233113143
 20
-126.8361856779264
 30
0.0
 10
85.34259437970603
 20
-126.8361856779264
 30
0.0
 10
85.34259437970603
 20
-126.8361856779264
 30
0.0
 10
85.34259437970603
 20
-126.8361856779264
 30
0.0
 10
85.34259437970603
 20
-128.3804497291896
 30
0.0
 10
85.34259437970603
 20
-128.3804497291896
 30
0.0
 10
85.34259437970603
 20
-128.3804497291896
 30
0.0
 10
85.11831866361626
 20
-128.3804497291896
 30
0.0
 10
85.11831866361626
 20
-128.3804497291896
 30
0.0
  0
HATCH
  5
168
330
163
100
AcDbEntity
  8
_U+30EC_U+30A4_U+30E4_U+30FC 1
 62
   179
420
  2234388
100
AcDbHatch
 10
0.0
 20
0.0
 30
0.0
210
0.0
220
0.0
230
1.0
  2
SOLID
 70
     1
 71
     0
 91
        1
 92
        1
 93
        1
 72
     4
 94
        3
 73
     0
 74
     1
 95
       26
 96
       22
 40
0.0
 40
0.0
 40
0.0
 40
0.0
 40
1.0
 40
1.0
 40
1.0
 40
2.0
 40
2.0
 40
2.0
 40
3.0
 40
3.0
 40
3.0
 40
4.0
 40
4.0
 40
4.0
 40
5.0
 40
5.0
 40
5.0
 40
6.0
 40
6.0
 40
6.0
 40
7.0
 40
7.0
 40
7.0
 40
7.0
 10
85.11831866361626
 20
-128.3804497291896
 10
85.11831866361626
 20
-128.3804497291896
 10
85.11831866361626
 20
-127.2761243713928
 10
85.11831866361626
 20
-127.2761243713928
 10
85.11831866361626
 20
-127.2761243713928
 10
84.78827851612932
 20
-127.2761243713928
 10
84.78827851612932
 20
-127.2761243713928
 10
84.78827851612932
 20
-127.2761243713928
 10
84.78827851612932
 20
-127.1281575203013
 10
84.78827851612932
 20
-127.1281575203013
 10
85.12038572090741
 20
-127.1133436097147
 10
85.16689450995828
 20
-126.9503905932624
 10
85.19652233113143
 20
-126.8361856779264
 10
85.19652233113143
 20
-126.8361856779264
 10
85.34259437970603
 20
-126.8361856779264
 10
85.34259437970603
 20
-126.8361856779264
 10
85.34259437970603
 20
-126.8361856779264
 10
85.34259437970603
 20
-128.3804497291896
 10
85.34259437970603
 20
-128.3804497291896
 10
85.34259437970603
 20
-128.3804497291896
 10
85.11831866361626
 20
-128.3804497291896
 10
85.11831866361626
 20
-128.3804497291896
 97
        0
 97
        0
 75
     2
 76
     1
 98
        0
  0
ENDBLK
  5
166
330
163
100
AcDbEntity
  8
0
100
AcDbBlockEnd
  0
ENDSEC
  0
SECTION
  2
ENTITIES
  0
POLYLINE
  5
41
330
1F
100
AcDbEntity
  8
_U+30EC_U+30A4_U+30E4_U+30FC 1
 62
   179
420
  2234388
370
     9
100
AcDb2dPolyline
 66
     1
 10
0.0
 20
0.0
 30
0.0
  0
VERTEX
  5
42
330
41
100
AcDbEntity
  8
_U+30EC_U+30A4_U+30E4_U+30FC 1
 62
   179
420
  2234388
370
     9
100
AcDbVertex
100
AcDb2dVertex
 10
91.4335065562258
 20
-130.2900760785384
 30
0.0
  0
VERTEX
  5
43
330
41
100
AcDbEntity
  8
_U+30EC_U+30A4_U+30E4_U+30FC 1
 62
   179
420
  2234388
370
     9
100
AcDbVertex
100
AcDb2dVertex
 10
90.11076631219393
 20
-130.2900760785384
 30
0.0
  0
SEQEND
  5
44
330
41
100
AcDbEntity
  8
_U+30EC_U+30A4_U+30E4_U+30FC 1
 62
   179
420
  2234388
370
     9
  0
POLYLINE
  5
45
330
1F
100
AcDbEntity
  8
_U+30EC_U+30A4_U+30E4_U+30FC 1
 62
   179
420
  2234388
370
     9
100
AcDb2dPolyline
 66
     1
 10
0.0
 20
0.0
 30
0.0
  0
VERTEX
  5
46
330
45
100
AcDbEntity
  8
_U+30EC_U+30A4_U+30E4_U+30FC 1
 62
   179
420
  2234388
370
     9
100
AcDbVertex
100
AcDb2dVertex
 10
96.72517308789081
 20
-130.2900760785384
 30
0.0
  0
VERTEX
  5
47
330
45
100
AcDbEntity
  8
_U+30EC_U+30A4_U+30E4_U+30FC 1
 62
   179
420
  2234388
370
     9
100
AcDbVertex
100
AcDb2dVertex
 10
95.40225645497456
 20
-130.2900760785384
 30
0.0
  0
SEQEND
  5
48
330
45
100
AcDbEntity
  8
_U+30EC_U+30A4_U+30E4_U+30FC 1
 62
   179
420
  2234388
370
     9
  0
POLYLINE
  5
49
330
1F
100
AcDbEntity
  8
_U+30EC_U+30A4_U+30E4_U+30FC 1
 62
   179
420
  2234388
370
     9
100
AcDb2dPolyline
 66
     1
 10
0.0
 20
0.0
 30
0.0
  0
VERTEX
  5
4A
330
49
100
AcDbEntity
  8
_U+30EC_U+30A4_U+30E4_U+30FC 1
 62
   179
420
  2234388
370
     9
100
AcDbVertex
100
AcDb2dVertex
 10
91.34548850291577
 20
-129.6727149675817
 30
0.0
  0
VERTEX
  5
4B
330
49
100
AcDbEntity
  8
_U+30EC_U+30A4_U+30E4_U+30FC 1
 62
   179
420
  2234388
370
     9
100
AcDbVertex
100
AcDb2dVertex
 10
91.34548850291577
 20
-131.08382607834
 30
0.0
  0
SEQEND
  5
4C
330
49
100
AcDbEntity
  8
_U+30EC_U+30A4_U+30E4_U+30FC 1
 62
   179
420
  2234388
370
     9
  0
POLYLINE
  5
4D
330
1F
100
AcDbEntity
  8
_U+30EC_U+30A4_U+30E4_U+30FC 1
 62
   179
420
  2234388
370
     9
100
AcDb2dPolyline
 66
     1
 10
0.0
 20
0.0
 30
0.0
  0
VERTEX
  5
4E
330
4D
100
AcDbEntity
  8
_U+30EC_U+30A4_U+30E4_U+30FC 1
 62
   179
420
  2234388
370
     9
100
AcDbVertex
100
AcDb2dVertex
 10
95.40225645497456
 20
-129.6727149675817
 30
0.0
  0
VERTEX
  5
4F
330
4D
100
AcDbEntity
  8
_U+30EC_U+30A4_U+30E4_U+30FC 1
 62
   179
420
  2234388
370
     9
100
AcDbVertex
100
AcDb2dVertex
 10
95.40225645497456
 20
-131.08382607834
 30
0.0
  0
SEQEND
  5
50
330
4D
100
AcDbEntity
  8
_U+30EC_U+30A4_U+30E4_U+30FC 1
 62
   179
420
  2234388
370
     9
  0
POLYLINE
  5
51
330
1F
100
AcDbEntity
  8
_U+30EC_U+30A4_U+30E4_U+30FC 1
 62
   179
420
  2234388
370
    25
100
AcDb2dPolyline
 66
     1
 10
0.0
 20
0.0
 30
0.0
  0
VERTEX
  5
52
330
51
100
AcDbEntity
  8
_U+30EC_U+30A4_U+30E4_U+30FC 1
 62
   179
420
  2234388
370
    25
100
AcDbVertex
100
AcDb2dVertex
 10
126.5314726052465
 20
-124.9603446909823
 30
0.0
  0
VERTEX
  5
53
330
51
100
AcDbEntity
  8
_U+30EC_U+30A4_U+30E4_U+30FC 1
 62
   179
420
  2234388
370
    25
100
AcDbVertex
100
AcDb2dVertex
 10
125.5317004085306
 20
-125.9607871907322
 30
0.0
  0
SEQEND
  5
54
330
51
100
AcDbEntity
  8
_U+30EC_U+30A4_U+30E4_U+30FC 1
 62
   179
420
  2234388
370
    25
  0
POLYLINE
  5
55
330
1F
100
AcDbEntity
  8
_U+30EC_U+30A4_U+30E4_U+30FC 1
 62
   179
420
  2234388
370
    25
100
AcDb2dPolyline
 66
     1
 10
0.0
 20
0.0
 30
0.0
  0
VERTEX
  5
56
330
55
100
AcDbEntity
  8
_U+30EC_U+30A4_U+30E4_U+30FC 1
 62
   179
420
  2234388
370
    25
100
AcDbVertex
100
AcDb2dVertex
 10
74.50726448805021
 20
-133.4464494110829
 30
0.0
  0
VERTEX
  5
57
330
55
100
AcDbEntity
  8
_U+30EC_U+30A4_U+30E4_U+30FC 1
 62
   179
420
  2234388
370
    25
100
AcDbVertex
100
AcDb2dVertex
 10
112.5071833052064
 20
-133.4464494110829
 30
0.0
  0
SEQEND
  5
58
330
55
100
AcDbEntity
  8
_U+30EC_U+30A4_U+30E4_U+30FC 1
 62
   179
420
  2234388
370
    25
  0
POLYLINE
  5
59
330
1F
100
AcDbEntity
  8
_U+30EC_U+30A4_U+30E4_U+30FC 1
 62
   179
420
  2234388
370
    25
100
AcDb2dPolyline
 66
     1
 10
0.0
 20
0.0
 30
0.0
  0
VERTEX
  5
5A
330
59
100
AcDbEntity
  8
_U+30EC_U+30A4_U+30E4_U+30FC 1
 62
   179
420
  2234388
370
    25
100
AcDbVertex
100
AcDb2dVertex
 10
83.50757786954419
 20
-131.9464735781248
 30
0.0
  0
VERTEX
  5
5B
330
59
100
AcDbEntity
  8
_U+30EC_U+30A4_U+30E4_U+30FC 1
 62
   179
420
  2234388
370
    25
100
AcDbVertex
100
AcDb2dVertex
 10
103.5072198593108
 20
-131.9464735781248
 30
0.0
  0
SEQEND
  5
5C
330
59
100
AcDbEntity
  8
_U+30EC_U+30A4_U+30E4_U+30FC 1
 62
   179
420
  2234388
370
    25
  0
POLYLINE
  5
5D
330
1F
100
AcDbEntity
  8
_U+30EC_U+30A4_U+30E4_U+30FC 1
 62
   179
420
  2234388
370
    25
100
AcDb2dPolyline
 66
     1
 10
0.0
 20
0.0
 30
0.0
  0
VERTEX
  5
5E
330
5D
100
AcDbEntity
  8
_U+30EC_U+30A4_U+30E4_U+30FC 1
 62
   179
420
  2234388
370
    25
100
AcDbVertex
100
AcDb2dVertex
 10
83.50757786954419
 20
-124.9465510798747
 30
0.0
  0
VERTEX
  5
5F
330
5D
100
AcDbEntity
  8
_U+30EC_U+30A4_U+30E4_U+30FC 1
 62
   179
420
  2234388
370
    25
100
AcDbVertex
100
AcDb2dVertex
 10
83.50757786954419
 20
-131.9464735781248
 30
0.0
  0
SEQEND
  5
60
330
5D
100
AcDbEntity
  8
_U+30EC_U+30A4_U+30E4_U+30FC 1
 62
   179
420
  2234388
370
    25
  0
POLYLINE
  5
61
330
1F
100
AcDbEntity
  8
_U+30EC_U+30A4_U+30E4_U+30FC 1
 62
   179
420
  2234388
370
    25
100
AcDb2dPolyline
 66
     1
 10
0.0
 20
0.0
 30
0.0
  0
VERTEX
  5
62
330
61
100
AcDbEntity
  8
_U+30EC_U+30A4_U+30E4_U+30FC 1
 62
   179
420
  2234388
370
    25
100
AcDbVertex
100
AcDb2dVertex
 10
73.5074922913343
 20
-132.4467124668885
 30
0.0
  0
VERTEX
  5
63
330
61
100
AcDbEntity
  8
_U+30EC_U+30A4_U+30E4_U+30FC 1
 62
   179
420
  2234388
370
    25
100
AcDbVertex
100
AcDb2dVertex
 10
82.50745289505952
 20
-132.4467124668885
 30
0.0
  0
SEQEND
  5
64
330
61
100
AcDbEntity
  8
_U+30EC_U+30A4_U+30E4_U+30FC 1
 62
   179
420
  2234388
370
    25
  0
POLYLINE
  5
65
330
1F
100
AcDbEntity
  8
_U+30EC_U+30A4_U+30E4_U+30FC 1
 62
   179
420
  2234388
370
    25
100
AcDb2dPolyline
 66
     1
 10
0.0
 20
0.0
 30
0.0
  0
VERTEX
  5
66
330
65
100
AcDbEntity
  8
_U+30EC_U+30A4_U+30E4_U+30FC 1
 62
   179
420
  2234388
370
    25
100
AcDbVertex
100
AcDb2dVertex
 10
73.5074922913343
 20
-132.4467124668885
 30
0.0
  0
VERTEX
  5
67
330
65
100
AcDbEntity
  8
_U+30EC_U+30A4_U+30E4_U+30FC 1
 62
   179
420
  2234388
370
    25
100
AcDbVertex
100
AcDb2dVertex
 10
74.50726448805021
 20
-133.4464494110829
 30
0.0
  0
SEQEND
  5
68
330
65
100
AcDbEntity
  8
_U+30EC_U+30A4_U+30E4_U+30FC 1
 62
   179
420
  2234388
370
    25
  0
POLYLINE
  5
69
330
1F
100
AcDbEntity
  8
_U+30EC_U+30A4_U+30E4_U+30FC 1
 62
   179
420
  2234388
370
    25
100
AcDb2dPolyline
 66
     1
 10
0.0
 20
0.0
 30
0.0
  0
VERTEX
  5
6A
330
69
100
AcDbEntity
  8
_U+30EC_U+30A4_U+30E4_U+30FC 1
 62
   179
420
  2234388
370
    25
100
AcDbVertex
100
AcDb2dVertex
 10
82.50745289505952
 20
-125.9463233018469
 30
0.0
  0
VERTEX
  5
6B
330
69
100
AcDbEntity
  8
_U+30EC_U+30A4_U+30E4_U+30FC 1
 62
   179
420
  2234388
370
    25
100
AcDbVertex
100
AcDb2dVertex
 10
82.50745289505952
 20
-132.4467124668885
 30
0.0
  0
SEQEND
  5
6C
330
69
100
AcDbEntity
  8
_U+30EC_U+30A4_U+30E4_U+30FC 1
 62
   179
420
  2234388
370
    25
  0
POLYLINE
  5
6D
330
1F
100
AcDbEntity
  8
_U+30EC_U+30A4_U+30E4_U+30FC 1
 62
   179
420
  2234388
370
    25
100
AcDb2dPolyline
 66
     1
 10
0.0
 20
0.0
 30
0.0
  0
VERTEX
  5
6E
330
6D
100
AcDbEntity
  8
_U+30EC_U+30A4_U+30E4_U+30FC 1
 62
   179
420
  2234388
370
    25
100
AcDbVertex
100
AcDb2dVertex
 10
61.5076859308082
 20
-125.9463233018469
 30
0.0
  0
VERTEX
  5
6F
330
6D
100
AcDbEntity
  8
_U+30EC_U+30A4_U+30E4_U+30FC 1
 62
   179
420
  2234388
370
    25
100
AcDbVertex
100
AcDb2dVertex
 10
82.50745289505952
 20
-125.9463233018469
 30
0.0
  0
SEQEND
  5
70
330
6D
100
AcDbEntity
  8
_U+30EC_U+30A4_U+30E4_U+30FC 1
 62
   179
420
  2234388
370
    25
  0
POLYLINE
  5
71
330
1F
100
AcDbEntity
  8
_U+30EC_U+30A4_U+30E4_U+30FC 1
 62
   179
420
  2234388
370
    25
100
AcDb2dPolyline
 66
     1
 10
0.0
 20
0.0
 30
0.0
  0
VERTEX
  5
72
330
71
100
AcDbEntity
  8
_U+30EC_U+30A4_U+30E4_U+30FC 1
 62
   179
420
  2234388
370
    25
100
AcDbVertex
100
AcDb2dVertex
 10
60.50777262298478
 20
-124.9465510798747
 30
0.0
  0
VERTEX
  5
73
330
71
100
AcDbEntity
  8
_U+30EC_U+30A4_U+30E4_U+30FC 1
 62
   179
420
  2234388
370
    25
100
AcDbVertex
100
AcDb2dVertex
 10
83.50757786954419
 20
-124.9465510798747
 30
0.0
  0
SEQEND
  5
74
330
71
100
AcDbEntity
  8
_U+30EC_U+30A4_U+30E4_U+30FC 1
 62
   179
420
  2234388
370
    25
  0
POLYLINE
  5
75
330
1F
100
AcDbEntity
  8
_U+30EC_U+30A4_U+30E4_U+30FC 1
 62
   179
420
  2234388
370
    25
100
AcDb2dPolyline
 66
     1
 10
0.0
 20
0.0
 30
0.0
  0
VERTEX
  5
76
330
75
100
AcDbEntity
  8
_U+30EC_U+30A4_U+30E4_U+30FC 1
 62
   179
420
  2234388
370
    25
100
AcDbVertex
100
AcDb2dVertex
 10
60.50777262298478
 20
-124.9465510798747
 30
0.0
  0
VERTEX
  5
77
330
75
100
AcDbEntity
  8
_U+30EC_U+30A4_U+30E4_U+30FC 1
 62
   179
420
  2234388
370
    25
100
AcDbVertex
100
AcDb2dVertex
 10
61.5076859308082
 20
-125.9463233018469
 30
0.0
  0
SEQEND
  5
78
330
75
100
AcDbEntity
  8
_U+30EC_U+30A4_U+30E4_U+30FC 1
 62
   179
420
  2234388
370
    25
  0
POLYLINE
  5
79
330
1F
100
AcDbEntity
  8
_U+30EC_U+30A4_U+30E4_U+30FC 1
 62
   179
420
  2234388
370
    25
100
AcDb2dPolyline
 66
     1
 10
0.0
 20
0.0
 30
0.0
  0
VERTEX
  5
7A
330
79
100
AcDbEntity
  8
_U+30EC_U+30A4_U+30E4_U+30FC 1
 62
   179
420
  2234388
370
    25
100
AcDbVertex
100
AcDb2dVertex
 10
91.50723710990033
 20
-131.9464735781248
 30
0.0
  0
VERTEX
  5
7B
330
79
100
AcDbEntity
  8
_U+30EC_U+30A4_U+30E4_U+30FC 1
 62
   179
420
  2234388
370
    25
100
AcDbVertex
100
AcDb2dVertex
 10
91.50723710990033
 20
-133.4464494110829
 30
0.0
  0
SEQEND
  5
7C
330
79
100
AcDbEntity
  8
_U+30EC_U+30A4_U+30E4_U+30FC 1
 62
   179
420
  2234388
370
    25
  0
POLYLINE
  5
7D
330
1F
100
AcDbEntity
  8
_U+30EC_U+30A4_U+30E4_U+30FC 1
 62
   179
420
  2234388
370
    25
100
AcDb2dPolyline
 66
     1
 10
0.0
 20
0.0
 30
0.0
  0
VERTEX
  5
7E
330
7D
100
AcDbEntity
  8
_U+30EC_U+30A4_U+30E4_U+30FC 1
 62
   179
420
  2234388
370
    25
100
AcDbVertex
100
AcDb2dVertex
 10
95.5077017300622
 20
-131.9464735781248
 30
0.0
  0
VERTEX
  5
7F
330
7D
100
AcDbEntity
  8
_U+30EC_U+30A4_U+30E4_U+30FC 1
 62
   179
420
  2234388
370
    25
100
AcDbVertex
100
AcDb2dVertex
 10
95.5077017300622
 20
-133.4464494110829
 30
0.0
  0
SEQEND
  5
80
330
7D
100
AcDbEntity
  8
_U+30EC_U+30A4_U+30E4_U+30FC 1
 62
   179
420
  2234388
370
    25
  0
POLYLINE
  5
81
330
1F
100
AcDbEntity
  8
_U+30EC_U+30A4_U+30E4_U+30FC 1
 62
   179
420
  2234388
370
    25
100
AcDb2dPolyline
 66
     1
 10
0.0
 20
0.0
 30
0.0
  0
VERTEX
  5
82
330
81
100
AcDbEntity
  8
_U+30EC_U+30A4_U+30E4_U+30FC 1
 62
   179
420
  2234388
370
    25
100
AcDbVertex
100
AcDb2dVertex
 10
125.5075704091462
 20
-125.9463233018469
 30
0.0
  0
VERTEX
  5
83
330
81
100
AcDbEntity
  8
_U+30EC_U+30A4_U+30E4_U+30FC 1
 62
   179
420
  2234388
370
    25
100
AcDbVertex
100
AcDb2dVertex
 10
104.5076623337874
 20
-125.9463233018469
 30
0.0
  0
SEQEND
  5
84
330
81
100
AcDbEntity
  8
_U+30EC_U+30A4_U+30E4_U+30FC 1
 62
   179
420
  2234388
370
    25
  0
POLYLINE
  5
85
330
1F
100
AcDbEntity
  8
_U+30EC_U+30A4_U+30E4_U+30FC 1
 62
   179
420
  2234388
370
    25
100
AcDb2dPolyline
 66
     1
 10
0.0
 20
0.0
 30
0.0
  0
VERTEX
  5
86
330
85
100
AcDbEntity
  8
_U+30EC_U+30A4_U+30E4_U+30FC 1
 62
   179
420
  2234388
370
    25
100
AcDbVertex
100
AcDb2dVertex
 10
113.5076229375126
 20
-132.4467124668885
 30
0.0
  0
VERTEX
  5
87
330
85
100
AcDbEntity
  8
_U+30EC_U+30A4_U+30E4_U+30FC 1
 62
   179
420
  2234388
370
    25
100
AcDbVertex
100
AcDb2dVertex
 10
112.5071833052064
 20
-133.4464494110829
 30
0.0
  0
SEQEND
  5
88
330
85
100
AcDbEntity
  8
_U+30EC_U+30A4_U+30E4_U+30FC 1
 62
   179
420
  2234388
370
    25
  0
POLYLINE
  5
89
330
1F
100
AcDbEntity
  8
_U+30EC_U+30A4_U+30E4_U+30FC 1
 62
   179
420
  2234388
370
    25
100
AcDb2dPolyline
 66
     1
 10
0.0
 20
0.0
 30
0.0
  0
VERTEX
  5
8A
330
89
100
AcDbEntity
  8
_U+30EC_U+30A4_U+30E4_U+30FC 1
 62
   179
420
  2234388
370
    25
100
AcDbVertex
100
AcDb2dVertex
 10
113.5076229375126
 20
-132.4467124668885
 30
0.0
  0
VERTEX
  5
8B
330
89
100
AcDbEntity
  8
_U+30EC_U+30A4_U+30E4_U+30FC 1
 62
   179
420
  2234388
370
    25
100
AcDbVertex
100
AcDb2dVertex
 10
104.5076623337874
 20
-132.4467124668885
 30
0.0
  0
SEQEND
  5
8C
330
89
100
AcDbEntity
  8
_U+30EC_U+30A4_U+30E4_U+30FC 1
 62
   179
420
  2234388
370
    25
  0
POLYLINE
  5
8D
330
1F
100
AcDbEntity
  8
_U+30EC_U+30A4_U+30E4_U+30FC 1
 62
   179
420
  2234388
370
    25
100
AcDb2dPolyline
 66
     1
 10
0.0
 20
0.0
 30
0.0
  0
VERTEX
  5
8E
330
8D
100
AcDbEntity
  8
_U+30EC_U+30A4_U+30E4_U+30FC 1
 62
   179
420
  2234388
370
    25
100
AcDbVertex
100
AcDb2dVertex
 10
104.5076623337874
 20
-125.9463233018469
 30
0.0
  0
VERTEX
  5
8F
330
8D
100
AcDbEntity
  8
_U+30EC_U+30A4_U+30E4_U+30FC 1
 62
   179
420
  2234388
370
    25
100
AcDbVertex
100
AcDb2dVertex
 10
104.5076623337874
 20
-132.4467124668885
 30
0.0
  0
SEQEND
  5
90
330
8D
100
AcDbEntity
  8
_U+30EC_U+30A4_U+30E4_U+30FC 1
 62
   179
420
  2234388
370
    25
  0
POLYLINE
  5
91
330
1F
100
AcDbEntity
  8
_U+30EC_U+30A4_U+30E4_U+30FC 1
 62
   179
420
  2234388
370
    25
100
AcDb2dPolyline
 66
     1
 10
0.0
 20
0.0
 30
0.0
  0
VERTEX
  5
92
330
91
100
AcDbEntity
  8
_U+30EC_U+30A4_U+30E4_U+30FC 1
 62
   179
420
  2234388
370
    25
100
AcDbVertex
100
AcDb2dVertex
 10
103.5072198593108
 20
-124.9465510798747
 30
0.0
  0
VERTEX
  5
93
330
91
100
AcDbEntity
  8
_U+30EC_U+30A4_U+30E4_U+30FC 1
 62
   179
420
  2234388
370
    25
100
AcDbVertex
100
AcDb2dVertex
 10
103.5072198593108
 20
-131.9464735781248
 30
0.0
  0
SEQEND
  5
94
330
91
100
AcDbEntity
  8
_U+30EC_U+30A4_U+30E4_U+30FC 1
 62
   179
420
  2234388
370
    25
  0
POLYLINE
  5
95
330
1F
100
AcDbEntity
  8
_U+30EC_U+30A4_U+30E4_U+30FC 1
 62
   179
420
  2234388
370
    25
100
AcDb2dPolyline
 66
     1
 10
0.0
 20
0.0
 30
0.0
  0
VERTEX
  5
96
330
95
100
AcDbEntity
  8
_U+30EC_U+30A4_U+30E4_U+30FC 1
 62
   179
420
  2234388
370
    25
100
AcDbVertex
100
AcDb2dVertex
 10
126.5073426058621
 20
-124.9465510798747
 30
0.0
  0
VERTEX
  5
97
330
95
100
AcDbEntity
  8
_U+30EC_U+30A4_U+30E4_U+30FC 1
 62
   179
420
  2234388
370
    25
100
AcDbVertex
100
AcDb2dVertex
 10
103.5072198593108
 20
-124.9465510798747
 30
0.0
  0
SEQEND
  5
98
330
95
100
AcDbEntity
  8
_U+30EC_U+30A4_U+30E4_U+30FC 1
 62
   179
420
  2234388
370
    25
  0
POLYLINE
  5
99
330
1F
100
AcDbEntity
  8
_U+30EC_U+30A4_U+30E4_U+30FC 1
 62
   179
420
  2234388
370
     9
100
AcDb2dPolyline
 66
     1
 10
0.0
 20
0.0
 30
0.0
  0
VERTEX
  5
9A
330
99
100
AcDbEntity
  8
_U+30EC_U+30A4_U+30E4_U+30FC 1
 62
   179
420
  2234388
370
     9
100
AcDbVertex
100
AcDb2dVertex
 10
93.50745178109283
 20
-130.9467013561522
 30
0.0
  0
VERTEX
  5
9B
330
99
100
AcDbEntity
  8
_U+30EC_U+30A4_U+30E4_U+30FC 1
 62
   179
420
  2234388
370
     9
100
AcDbVertex
100
AcDb2dVertex
 10
94.26814648390811
 20
-128.1077574679729
 30
0.0
  0
SEQEND
  5
9C
330
99
100
AcDbEntity
  8
_U+30EC_U+30A4_U+30E4_U+30FC 1
 62
   179
420
  2234388
370
     9
  0
POLYLINE
  5
9D
330
1F
100
AcDbEntity
  8
_U+30EC_U+30A4_U+30E4_U+30FC 1
 62
   179
420
  2234388
370
     9
100
AcDb2dPolyline
 66
     1
 10
0.0
 20
0.0
 30
0.0
  0
VERTEX
  5
9E
330
9D
100
AcDbEntity
  8
_U+30EC_U+30A4_U+30E4_U+30FC 1
 62
   179
420
  2234388
370
     9
100
AcDbVertex
100
AcDb2dVertex
 10
94.26814648390811
 20
-128.1077574679729
 30
0.0
  0
VERTEX
  5
9F
330
9D
100
AcDbEntity
  8
_U+30EC_U+30A4_U+30E4_U+30FC 1
 62
   179
420
  2234388
370
     9
100
AcDbVertex
100
AcDb2dVertex
 10
98.46701332123054
 20
-128.1077574679729
 30
0.0
  0
SEQEND
  5
A0
330
9D
100
AcDbEntity
  8
_U+30EC_U+30A4_U+30E4_U+30FC 1
 62
   179
420
  2234388
370
     9
  0
POLYLINE
  5
A1
330
1F
100
AcDbEntity
  8
_U+30EC_U+30A4_U+30E4_U+30FC 1
 62
   179
420
  2234388
370
     9
100
AcDb2dPolyline
 66
     1
 10
0.0
 20
0.0
 30
0.0
  0
VERTEX
  5
A2
330
A1
100
AcDbEntity
  8
_U+30EC_U+30A4_U+30E4_U+30FC 1
 62
   179
420
  2234388
370
     9
100
AcDbVertex
100
AcDb2dVertex
 10
93.50745178109283
 20
-130.9467013561522
 30
0.0
  0
VERTEX
  5
A3
330
A1
100
AcDbEntity
  8
_U+30EC_U+30A4_U+30E4_U+30FC 1
 62
   179
420
  2234388
370
     9
100
AcDbVertex
100
AcDb2dVertex
 10
94.00769065721956
 20
-130.0805966341468
 30
0.0
  0
SEQEND
  5
A4
330
A1
100
AcDbEntity
  8
_U+30EC_U+30A4_U+30E4_U+30FC 1
 62
   179
420
  2234388
370
     9
  0
POLYLINE
  5
A5
330
1F
100
AcDbEntity
  8
_U+30EC_U+30A4_U+30E4_U+30FC 1
 62
   179
420
  2234388
370
     9
100
AcDb2dPolyline
 66
     1
 10
0.0
 20
0.0
 30
0.0
  0
VERTEX
  5
A6
330
A5
100
AcDbEntity
  8
_U+30EC_U+30A4_U+30E4_U+30FC 1
 62
   179
420
  2234388
370
     9
100
AcDbVertex
100
AcDb2dVertex
 10
93.50745178109283
 20
-130.9467013561522
 30
0.0
  0
VERTEX
  5
A7
330
A5
100
AcDbEntity
  8
_U+30EC_U+30A4_U+30E4_U+30FC 1
 62
   179
420
  2234388
370
     9
100
AcDbVertex
100
AcDb2dVertex
 10
93.50745178109283
 20
-129.9469291341797
 30
0.0
  0
SEQEND
  5
A8
330
A5
100
AcDbEntity
  8
_U+30EC_U+30A4_U+30E4_U+30FC 1
 62
   179
420
  2234388
370
     9
  0
POLYLINE
  5
A9
330
1F
100
AcDbEntity
  8
_U+30EC_U+30A4_U+30E4_U+30FC 1
 62
   179
420
  2234388
370
     9
100
AcDb2dPolyline
 66
     1
 10
0.0
 20
0.0
 30
0.0
  0
VERTEX
  5
AA
330
A9
100
AcDbEntity
  8
_U+30EC_U+30A4_U+30E4_U+30FC 1
 62
   179
420
  2234388
370
     9
100
AcDbVertex
100
AcDb2dVertex
 10
93.50745178109283
 20
-130.9467013561522
 30
0.0
  0
VERTEX
  5
AB
330
A9
100
AcDbEntity
  8
_U+30EC_U+30A4_U+30E4_U+30FC 1
 62
   179
420
  2234388
370
     9
100
AcDbVertex
100
AcDb2dVertex
 10
94.26814648390811
 20
-128.1077574679729
 30
0.0
  0
SEQEND
  5
AC
330
A9
100
AcDbEntity
  8
_U+30EC_U+30A4_U+30E4_U+30FC 1
 62
   179
420
  2234388
370
     9
  0
POLYLINE
  5
AD
330
1F
100
AcDbEntity
  8
_U+30EC_U+30A4_U+30E4_U+30FC 1
 62
   179
420
  2234388
370
     9
100
AcDb2dPolyline
 66
     1
 10
0.0
 20
0.0
 30
0.0
  0
VERTEX
  5
AE
330
AD
100
AcDbEntity
  8
_U+30EC_U+30A4_U+30E4_U+30FC 1
 62
   179
420
  2234388
370
     9
100
AcDbVertex
100
AcDb2dVertex
 10
120.7361099753208
 20
-128.0691988568718
 30
0.0
  0
VERTEX
  5
AF
330
AD
100
AcDbEntity
  8
_U+30EC_U+30A4_U+30E4_U+30FC 1
 62
   179
420
  2234388
370
     9
100
AcDbVertex
100
AcDb2dVertex
 10
119.8100683322794
 20
-128.4467769123327
 30
0.0
  0
SEQEND
  5
B0
330
AD
100
AcDbEntity
  8
_U+30EC_U+30A4_U+30E4_U+30FC 1
 62
   179
420
  2234388
370
     9
  0
POLYLINE
  5
B1
330
1F
100
AcDbEntity
  8
_U+30EC_U+30A4_U+30E4_U+30FC 1
 62
   179
420
  2234388
370
     9
100
AcDb2dPolyline
 66
     1
 10
0.0
 20
0.0
 30
0.0
  0
VERTEX
  5
B2
330
B1
100
AcDbEntity
  8
_U+30EC_U+30A4_U+30E4_U+30FC 1
 62
   179
420
  2234388
370
     9
100
AcDbVertex
100
AcDb2dVertex
 10
120.4233019277456
 20
-127.6571544125301
 30
0.0
  0
VERTEX
  5
B3
330
B1
100
AcDbEntity
  8
_U+30EC_U+30A4_U+30E4_U+30FC 1
 62
   179
420
  2234388
370
     9
100
AcDbVertex
100
AcDb2dVertex
 10
119.8100683322794
 20
-128.4467769123327
 30
0.0
  0
SEQEND
  5
B4
330
B1
100
AcDbEntity
  8
_U+30EC_U+30A4_U+30E4_U+30FC 1
 62
   179
420
  2234388
370
     9
  0
POLYLINE
  5
B5
330
1F
100
AcDbEntity
  8
_U+30EC_U+30A4_U+30E4_U+30FC 1
 62
   179
420
  2234388
370
     9
100
AcDb2dPolyline
 66
     1
 10
0.0
 20
0.0
 30
0.0
  0
VERTEX
  5
B6
330
B5
100
AcDbEntity
  8
_U+30EC_U+30A4_U+30E4_U+30FC 1
 62
   179
420
  2234388
370
     9
100
AcDbVertex
100
AcDb2dVertex
 10
120.7361099753208
 20
-122.8236755248498
 30
0.0
  0
VERTEX
  5
B7
330
B5
100
AcDbEntity
  8
_U+30EC_U+30A4_U+30E4_U+30FC 1
 62
   179
420
  2234388
370
     9
100
AcDbVertex
100
AcDb2dVertex
 10
119.8100683322794
 20
-122.446803024944
 30
0.0
  0
SEQEND
  5
B8
330
B5
100
AcDbEntity
  8
_U+30EC_U+30A4_U+30E4_U+30FC 1
 62
   179
420
  2234388
370
     9
  0
POLYLINE
  5
B9
330
1F
100
AcDbEntity
  8
_U+30EC_U+30A4_U+30E4_U+30FC 1
 62
   179
420
  2234388
370
     9
100
AcDb2dPolyline
 66
     1
 10
0.0
 20
0.0
 30
0.0
  0
VERTEX
  5
BA
330
B9
100
AcDbEntity
  8
_U+30EC_U+30A4_U+30E4_U+30FC 1
 62
   179
420
  2234388
370
     9
100
AcDbVertex
100
AcDb2dVertex
 10
120.4233019277456
 20
-123.2365666358576
 30
0.0
  0
VERTEX
  5
BB
330
B9
100
AcDbEntity
  8
_U+30EC_U+30A4_U+30E4_U+30FC 1
 62
   179
420
  2234388
370
     9
100
AcDbVertex
100
AcDb2dVertex
 10
119.8100683322794
 20
-122.446803024944
 30
0.0
  0
SEQEND
  5
BC
330
B9
100
AcDbEntity
  8
_U+30EC_U+30A4_U+30E4_U+30FC 1
 62
   179
420
  2234388
370
     9
  0
SPLINE
  5
BD
330
1F
100
AcDbEntity
  8
_U+30EC_U+30A4_U+30E4_U+30FC 1
 62
   179
420
  2234388
370
     9
100
AcDbSpline
210
0.0
220
0.0
230
1.0
 70
     8
 71
     3
 72
     8
 73
     4
 74
     0
 42
0.0000000001
 43
0.0000000001
 12
1.0
 22
0.0
 32
0.0
 13
1.0
 23
0.0
 33
0.0
 40
0.0
 40
0.0
 40
0.0
 40
0.0
 40
1.0
 40
1.0
 40
1.0
 40
1.0
 10
119.8100683322794
 20
-128.4467769123327
 30
0.0
 10
120.5590508131713
 20
-127.9968441346676
 30
0.0
 10
121.1123121879453
 20
-127.2837038570681
 30
0.0
 10
121.361761348248
 20
-126.4465621906106
 30
0.0
  0
SPLINE
  5
BE
330
1F
100
AcDbEntity
  8
_U+30EC_U+30A4_U+30E4_U+30FC 1
 62
   179
420
  2234388
370
     9
100
AcDbSpline
210
0.0
220
0.0
230
1.0
 70
     8
 71
     3
 72
     8
 73
     4
 74
     0
 42
0.0000000001
 43
0.0000000001
 12
1.0
 22
0.0
 32
0.0
 13
1.0
 23
0.0
 33
0.0
 40
0.0
 40
0.0
 40
0.0
 40
0.0
 40
1.0
 40
1.0
 40
1.0
 40
1.0
 10
121.361761348248
 20
-124.4463121911106
 30
0.0
 10
121.1123121879453
 20
-123.6098408024307
 30
0.0
 10
120.5590508131713
 20
-122.8960302470539
 30
0.0
 10
119.8100683322794
 20
-122.446803024944
 30
0.0
  0
SPLINE
  5
BF
330
1F
100
AcDbEntity
  8
_U+30EC_U+30A4_U+30E4_U+30FC 1
 62
   179
420
  2234388
370
     9
100
AcDbSpline
210
0.0
220
0.0
230
1.0
 70
    11
 71
     3
 72
    17
 73
    13
 74
     0
 42
0.0000000001
 43
0.0000000001
 12
1.0
 22
0.0
 32
0.0
 13
1.0
 23
0.0
 33
0.0
 40
0.0
 40
0.0
 40
0.0
 40
0.0
 40
1.0
 40
1.0
 40
1.0
 40
2.0
 40
2.0
 40
2.0
 40
3.0
 40
3.0
 40
3.0
 40
4.0
 40
4.0
 40
4.0
 40
4.0
 10
93.60739372298754
 20
-137.4469141323053
 30
0.0
 10
93.60739372298754
 20
-137.3911046878742
 30
0.0
 10
93.56259094635277
 20
-137.3463019101081
 30
0.0
 10
93.50745178109283
 20
-137.3463019101081
 30
0.0
 10
93.45234789360975
 20
-137.3463019101081
 30
0.0
 10
93.40754511697499
 20
-137.3911046878742
 30
0.0
 10
93.40754511697499
 20
-137.4469141323053
 30
0.0
 10
93.40754511697499
 20
-137.5020180211802
 30
0.0
 10
93.45234789360975
 20
-137.5468207989469
 30
0.0
 10
93.50745178109283
 20
-137.5468207989469
 30
0.0
 10
93.56259094635277
 20
-137.5468207989469
 30
0.0
 10
93.60739372298754
 20
-137.5020180211802
 30
0.0
 10
93.60739372298754
 20
-137.4469141323053
 30
0.0
  0
SPLINE
  5
C0
330
1F
100
AcDbEntity
  8
_U+30EC_U+30A4_U+30E4_U+30FC 1
 62
   179
420
  2234388
370
     9
100
AcDbSpline
210
0.0
220
0.0
230
1.0
 70
    11
 71
     3
 72
    17
 73
    13
 74
     0
 42
0.0000000001
 43
0.0000000001
 12
1.0
 22
0.0
 32
0.0
 13
1.0
 23
0.0
 33
0.0
 40
0.0
 40
0.0
 40
0.0
 40
0.0
 40
1.0
 40
1.0
 40
1.0
 40
2.0
 40
2.0
 40
2.0
 40
3.0
 40
3.0
 40
3.0
 40
4.0
 40
4.0
 40
4.0
 40
4.0
 10
73.60739895545214
 20
-137.4469141323053
 30
0.0
 10
73.60739895545214
 20
-137.3911046878742
 30
0.0
 10
73.56259617881737
 20
-137.3463019101081
 30
0.0
 10
73.5074922913343
 20
-137.3463019101081
 30
0.0
 10
73.45235312607436
 20
-137.3463019101081
 30
0.0
 10
73.40758562721646
 20
-137.3911046878742
 30
0.0
 10
73.40758562721646
 20
-137.4469141323053
 30
0.0
 10
73.40758562721646
 20
-137.5020180211802
 30
0.0
 10
73.45235312607436
 20
-137.5468207989469
 30
0.0
 10
73.5074922913343
 20
-137.5468207989469
 30
0.0
 10
73.56259617881737
 20
-137.5468207989469
 30
0.0
 10
73.60739895545214
 20
-137.5020180211802
 30
0.0
 10
73.60739895545214
 20
-137.4469141323053
 30
0.0
  0
SPLINE
  5
C1
330
1F
100
AcDbEntity
  8
_U+30EC_U+30A4_U+30E4_U+30FC 1
 62
   179
420
  2234388
370
     9
100
AcDbSpline
210
0.0
220
0.0
230
1.0
 70
    11
 71
     3
 72
    17
 73
    13
 74
     0
 42
0.0000000001
 43
0.0000000001
 12
1.0
 22
0.0
 32
0.0
 13
1.0
 23
0.0
 33
0.0
 40
0.0
 40
0.0
 40
0.0
 40
0.0
 40
1.0
 40
1.0
 40
1.0
 40
2.0
 40
2.0
 40
2.0
 40
3.0
 40
3.0
 40
3.0
 40
4.0
 40
4.0
 40
4.0
 40
4.0
 10
58.60760572701763
 20
-132.4467124668885
 30
0.0
 10
58.60760572701763
 20
-132.3915733002354
 30
0.0
 10
58.56283822815975
 20
-132.3468058002468
 30
0.0
 10
58.50752267401541
 20
-132.3468058002468
 30
0.0
 10
58.45241878653234
 20
-132.3468058002468
 30
0.0
 10
58.40761600989757
 20
-132.3915733002354
 30
0.0
 10
58.40761600989757
 20
-132.4467124668885
 30
0.0
 10
58.40761600989757
 20
-132.5018163557634
 30
0.0
 10
58.45241878653234
 20
-132.5466191335301
 30
0.0
 10
58.50752267401541
 20
-132.5466191335301
 30
0.0
 10
58.56283822815975
 20
-132.5466191335301
 30
0.0
 10
58.60760572701763
 20
-132.5018163557634
 30
0.0
 10
58.60760572701763
 20
-132.4467124668885
 30
0.0
  0
SPLINE
  5
C2
330
1F
100
AcDbEntity
  8
_U+30EC_U+30A4_U+30E4_U+30FC 1
 62
   179
420
  2234388
370
     9
100
AcDbSpline
210
0.0
220
0.0
230
1.0
 70
    11
 71
     3
 72
    17
 73
    13
 74
     0
 42
0.0000000001
 43
0.0000000001
 12
1.0
 22
0.0
 32
0.0
 13
1.0
 23
0.0
 33
0.0
 40
0.0
 40
0.0
 40
0.0
 40
0.0
 40
1.0
 40
1.0
 40
1.0
 40
2.0
 40
2.0
 40
2.0
 40
3.0
 40
3.0
 40
3.0
 40
4.0
 40
4.0
 40
4.0
 40
4.0
 10
58.60760572701763
 20
-125.9463233018469
 30
0.0
 10
58.60760572701763
 20
-125.8911841351938
 30
0.0
 10
58.56283822815975
 20
-125.8464166352049
 30
0.0
 10
58.50752267401541
 20
-125.8464166352049
 30
0.0
 10
58.45241878653234
 20
-125.8464166352049
 30
0.0
 10
58.40761600989757
 20
-125.8911841351938
 30
0.0
 10
58.40761600989757
 20
-125.9463233018469
 30
0.0
 10
58.40761600989757
 20
-126.0021327462773
 30
0.0
 10
58.45241878653234
 20
-126.0462299684885
 30
0.0
 10
58.50752267401541
 20
-126.0462299684885
 30
0.0
 10
58.56283822815975
 20
-126.0462299684885
 30
0.0
 10
58.60760572701763
 20
-126.0021327462773
 30
0.0
 10
58.60760572701763
 20
-125.9463233018469
 30
0.0
  0
SPLINE
  5
C3
330
1F
100
AcDbEntity
  8
_U+30EC_U+30A4_U+30E4_U+30FC 1
 62
   179
420
  2234388
370
     9
100
AcDbSpline
210
0.0
220
0.0
230
1.0
 70
    11
 71
     3
 72
    17
 73
    13
 74
     0
 42
0.0000000001
 43
0.0000000001
 12
1.0
 22
0.0
 32
0.0
 13
1.0
 23
0.0
 33
0.0
 40
0.0
 40
0.0
 40
0.0
 40
0.0
 40
1.0
 40
1.0
 40
1.0
 40
2.0
 40
2.0
 40
2.0
 40
3.0
 40
3.0
 40
3.0
 40
4.0
 40
4.0
 40
4.0
 40
4.0
 10
60.60767928710262
 20
-120.9466155253189
 30
0.0
 10
60.60767928710262
 20
-120.8908060808885
 30
0.0
 10
60.56287651046785
 20
-120.8467088586772
 30
0.0
 10
60.50777262298478
 20
-120.8467088586772
 30
0.0
 10
60.45245706884045
 20
-120.8467088586772
 30
0.0
 10
60.40768956998256
 20
-120.8908060808885
 30
0.0
 10
60.40768956998256
 20
-120.9466155253189
 30
0.0
 10
60.40768956998256
 20
-121.0017546919716
 30
0.0
 10
60.45245706884045
 20
-121.0465221919605
 30
0.0
 10
60.50777262298478
 20
-121.0465221919605
 30
0.0
 10
60.56287651046785
 20
-121.0465221919605
 30
0.0
 10
60.60767928710262
 20
-121.0017546919716
 30
0.0
 10
60.60767928710262
 20
-120.9466155253189
 30
0.0
  0
SPLINE
  5
C4
330
1F
100
AcDbEntity
  8
_U+30EC_U+30A4_U+30E4_U+30FC 1
 62
   179
420
  2234388
370
     9
100
AcDbSpline
210
0.0
220
0.0
230
1.0
 70
    11
 71
     3
 72
    17
 73
    13
 74
     0
 42
0.0000000001
 43
0.0000000001
 12
1.0
 22
0.0
 32
0.0
 13
1.0
 23
0.0
 33
0.0
 40
0.0
 40
0.0
 40
0.0
 40
0.0
 40
1.0
 40
1.0
 40
1.0
 40
2.0
 40
2.0
 40
2.0
 40
3.0
 40
3.0
 40
3.0
 40
4.0
 40
4.0
 40
4.0
 40
4.0
 10
83.60748453366203
 20
-120.9466155253189
 30
0.0
 10
83.60748453366203
 20
-120.8908060808885
 30
0.0
 10
83.56268175702726
 20
-120.8467088586772
 30
0.0
 10
83.50757786954419
 20
-120.8467088586772
 30
0.0
 10
83.45243870428425
 20
-120.8467088586772
 30
0.0
 10
83.40767120542637
 20
-120.8908060808885
 30
0.0
 10
83.40767120542637
 20
-120.9466155253189
 30
0.0
 10
83.40767120542637
 20
-121.0017546919716
 30
0.0
 10
83.45243870428425
 20
-121.0465221919605
 30
0.0
 10
83.50757786954419
 20
-121.0465221919605
 30
0.0
 10
83.56268175702726
 20
-121.0465221919605
 30
0.0
 10
83.60748453366203
 20
-121.0017546919716
 30
0.0
 10
83.60748453366203
 20
-120.9466155253189
 30
0.0
  0
INSERT
  5
C6
330
1F
100
AcDbEntity
  8
_U+30EC_U+30A4_U+30E4_U+30FC 1
100
AcDbBlockReference
  2
block 2
 10
0.0
 20
0.0
 30
0.0
  0
POLYLINE
  5
101
330
1F
100
AcDbEntity
  8
_U+30EC_U+30A4_U+30E4_U+30FC 1
 62
   179
420
  2234388
370
     9
100
AcDb2dPolyline
 66
     1
 10
0.0
 20
0.0
 30
0.0
  0
VERTEX
  5
102
330
101
100
AcDbEntity
  8
_U+30EC_U+30A4_U+30E4_U+30FC 1
 62
   179
420
  2234388
370
     9
100
AcDbVertex
100
AcDb2dVertex
 10
60.50777262298478
 20
-120.9466155253189
 30
0.0
  0
VERTEX
  5
103
330
101
100
AcDbEntity
  8
_U+30EC_U+30A4_U+30E4_U+30FC 1
 62
   179
420
  2234388
370
     9
100
AcDbVertex
100
AcDb2dVertex
 10
83.50757786954419
 20
-120.9466155253189
 30
0.0
  0
SEQEND
  5
104
330
101
100
AcDbEntity
  8
_U+30EC_U+30A4_U+30E4_U+30FC 1
 62
   179
420
  2234388
370
     9
  0
POLYLINE
  5
105
330
1F
100
AcDbEntity
  8
_U+30EC_U+30A4_U+30E4_U+30FC 1
 62
   179
420
  2234388
370
     9
100
AcDb2dPolyline
 66
     1
 10
0.0
 20
0.0
 30
0.0
  0
VERTEX
  5
106
330
105
100
AcDbEntity
  8
_U+30EC_U+30A4_U+30E4_U+30FC 1
 62
   179
420
  2234388
370
     9
100
AcDbVertex
100
AcDb2dVertex
 10
60.50777262298478
 20
-122.4068333027315
 30
0.0
  0
VERTEX
  5
107
330
105
100
AcDbEntity
  8
_U+30EC_U+30A4_U+30E4_U+30FC 1
 62
   179
420
  2234388
370
     9
100
AcDbVertex
100
AcDb2dVertex
 10
60.50777262298478
 20
-119.946173025569
 30
0.0
  0
SEQEND
  5
108
330
105
100
AcDbEntity
  8
_U+30EC_U+30A4_U+30E4_U+30FC 1
 62
   179
420
  2234388
370
     9
  0
POLYLINE
  5
109
330
1F
100
AcDbEntity
  8
_U+30EC_U+30A4_U+30E4_U+30FC 1
 62
   179
420
  2234388
370
     9
100
AcDb2dPolyline
 66
     1
 10
0.0
 20
0.0
 30
0.0
  0
VERTEX
  5
10A
330
109
100
AcDbEntity
  8
_U+30EC_U+30A4_U+30E4_U+30FC 1
 62
   179
420
  2234388
370
     9
100
AcDbVertex
100
AcDb2dVertex
 10
83.50757786954419
 20
-122.4068333027315
 30
0.0
  0
VERTEX
  5
10B
330
109
100
AcDbEntity
  8
_U+30EC_U+30A4_U+30E4_U+30FC 1
 62
   179
420
  2234388
370
     9
100
AcDbVertex
100
AcDb2dVertex
 10
83.50757786954419
 20
-119.946173025569
 30
0.0
  0
SEQEND
  5
10C
330
109
100
AcDbEntity
  8
_U+30EC_U+30A4_U+30E4_U+30FC 1
 62
   179
420
  2234388
370
     9
  0
INSERT
  5
10E
330
1F
100
AcDbEntity
  8
_U+30EC_U+30A4_U+30E4_U+30FC 1
100
AcDbBlockReference
  2
block 3
 10
0.0
 20
0.0
 30
0.0
  0
SPLINE
  5
115
330
1F
100
AcDbEntity
  8
_U+30EC_U+30A4_U+30E4_U+30FC 1
 62
   179
420
  2234388
370
     9
100
AcDbSpline
210
0.0
220
0.0
230
1.0
 70
    11
 71
     3
 72
    17
 73
    13
 74
     0
 42
0.0000000001
 43
0.0000000001
 12
1.0
 22
0.0
 32
0.0
 13
1.0
 23
0.0
 33
0.0
 40
0.0
 40
0.0
 40
0.0
 40
0.0
 40
1.0
 40
1.0
 40
1.0
 40
2.0
 40
2.0
 40
2.0
 40
3.0
 40
3.0
 40
3.0
 40
4.0
 40
4.0
 40
4.0
 40
4.0
 10
95.49045089716897
 20
-130.2900760785384
 30
0.0
 10
95.49045089716897
 20
-130.234266634108
 30
0.0
 10
95.44568339831109
 20
-130.1894638563413
 30
0.0
 10
95.39054423305113
 20
-130.1894638563413
 30
0.0
 10
95.33544034556806
 20
-130.1894638563413
 30
0.0
 10
95.2906375689333
 20
-130.234266634108
 30
0.0
 10
95.2906375689333
 20
-130.2900760785384
 30
0.0
 10
95.2906375689333
 20
-130.345179967414
 30
0.0
 10
95.33544034556806
 20
-130.3899827451801
 30
0.0
 10
95.39054423305113
 20
-130.3899827451801
 30
0.0
 10
95.44568339831109
 20
-130.3899827451801
 30
0.0
 10
95.49045089716897
 20
-130.345179967414
 30
0.0
 10
95.49045089716897
 20
-130.2900760785384
 30
0.0
  0
SPLINE
  5
116
330
1F
100
AcDbEntity
  8
_U+30EC_U+30A4_U+30E4_U+30FC 1
 62
   179
420
  2234388
370
     9
100
AcDbSpline
210
0.0
220
0.0
230
1.0
 70
    11
 71
     3
 72
    17
 73
    13
 74
     0
 42
0.0000000001
 43
0.0000000001
 12
1.0
 22
0.0
 32
0.0
 13
1.0
 23
0.0
 33
0.0
 40
0.0
 40
0.0
 40
0.0
 40
0.0
 40
1.0
 40
1.0
 40
1.0
 40
2.0
 40
2.0
 40
2.0
 40
3.0
 40
3.0
 40
3.0
 40
4.0
 40
4.0
 40
4.0
 40
4.0
 10
91.4335065562258
 20
-130.2900760785384
 30
0.0
 10
91.4335065562258
 20
-130.234266634108
 30
0.0
 10
91.38873905736791
 20
-130.1894638563413
 30
0.0
 10
91.33377628099235
 20
-130.1894638563413
 30
0.0
 10
91.27867239350928
 20
-130.1894638563413
 30
0.0
 10
91.23386961687451
 20
-130.234266634108
 30
0.0
 10
91.23386961687451
 20
-130.2900760785384
 30
0.0
 10
91.23386961687451
 20
-130.345179967414
 30
0.0
 10
91.27867239350928
 20
-130.3899827451801
 30
0.0
 10
91.33377628099235
 20
-130.3899827451801
 30
0.0
 10
91.38873905736791
 20
-130.3899827451801
 30
0.0
 10
91.4335065562258
 20
-130.345179967414
 30
0.0
 10
91.4335065562258
 20
-130.2900760785384
 30
0.0
  0
INSERT
  5
118
330
1F
100
AcDbEntity
  8
_U+30EC_U+30A4_U+30E4_U+30FC 1
100
AcDbBlockReference
  2
block 4
 10
0.0
 20
0.0
 30
0.0
  0
POLYLINE
  5
127
330
1F
100
AcDbEntity
  8
_U+30EC_U+30A4_U+30E4_U+30FC 1
 62
   179
420
  2234388
370
     9
100
AcDb2dPolyline
 66
     1
 10
0.0
 20
0.0
 30
0.0
  0
VERTEX
  5
128
330
127
100
AcDbEntity
  8
_U+30EC_U+30A4_U+30E4_U+30FC 1
 62
   179
420
  2234388
370
     9
100
AcDbVertex
100
AcDb2dVertex
 10
93.50745178109283
 20
-137.4469141323053
 30
0.0
  0
VERTEX
  5
129
330
127
100
AcDbEntity
  8
_U+30EC_U+30A4_U+30E4_U+30FC 1
 62
   179
420
  2234388
370
     9
100
AcDbVertex
100
AcDb2dVertex
 10
73.5074922913343
 20
-137.4469141323053
 30
0.0
  0
SEQEND
  5
12A
330
127
100
AcDbEntity
  8
_U+30EC_U+30A4_U+30E4_U+30FC 1
 62
   179
420
  2234388
370
     9
  0
POLYLINE
  5
12B
330
1F
100
AcDbEntity
  8
_U+30EC_U+30A4_U+30E4_U+30FC 1
 62
   179
420
  2234388
370
     9
100
AcDb2dPolyline
 66
     1
 10
0.0
 20
0.0
 30
0.0
  0
VERTEX
  5
12C
330
12B
100
AcDbEntity
  8
_U+30EC_U+30A4_U+30E4_U+30FC 1
 62
   179
420
  2234388
370
     9
100
AcDbVertex
100
AcDb2dVertex
 10
93.50745178109283
 20
-135.9868727437809
 30
0.0
  0
VERTEX
  5
12D
330
12B
100
AcDbEntity
  8
_U+30EC_U+30A4_U+30E4_U+30FC 1
 62
   179
420
  2234388
370
     9
100
AcDbVertex
100
AcDb2dVertex
 10
93.50745178109283
 20
-138.4466863542771
 30
0.0
  0
SEQEND
  5
12E
330
12B
100
AcDbEntity
  8
_U+30EC_U+30A4_U+30E4_U+30FC 1
 62
   179
420
  2234388
370
     9
  0
POLYLINE
  5
12F
330
1F
100
AcDbEntity
  8
_U+30EC_U+30A4_U+30E4_U+30FC 1
 62
   179
420
  2234388
370
     9
100
AcDb2dPolyline
 66
     1
 10
0.0
 20
0.0
 30
0.0
  0
VERTEX
  5
130
330
12F
100
AcDbEntity
  8
_U+30EC_U+30A4_U+30E4_U+30FC 1
 62
   179
420
  2234388
370
     9
100
AcDbVertex
100
AcDb2dVertex
 10
73.5074922913343
 20
-134.986430244031
 30
0.0
  0
VERTEX
  5
131
330
12F
100
AcDbEntity
  8
_U+30EC_U+30A4_U+30E4_U+30FC 1
 62
   179
420
  2234388
370
     9
100
AcDbVertex
100
AcDb2dVertex
 10
73.5074922913343
 20
-138.4466863542771
 30
0.0
  0
SEQEND
  5
132
330
12F
100
AcDbEntity
  8
_U+30EC_U+30A4_U+30E4_U+30FC 1
 62
   179
420
  2234388
370
     9
  0
INSERT
  5
134
330
1F
100
AcDbEntity
  8
_U+30EC_U+30A4_U+30E4_U+30FC 1
100
AcDbBlockReference
  2
block 5
 10
0.0
 20
0.0
 30
0.0
  0
POLYLINE
  5
13C
330
1F
100
AcDbEntity
  8
_U+30EC_U+30A4_U+30E4_U+30FC 1
 62
   179
420
  2234388
370
     9
100
AcDb2dPolyline
 66
     1
 10
0.0
 20
0.0
 30
0.0
  0
VERTEX
  5
13D
330
13C
100
AcDbEntity
  8
_U+30EC_U+30A4_U+30E4_U+30FC 1
 62
   179
420
  2234388
370
     9
100
AcDbVertex
100
AcDb2dVertex
 10
58.50752267401541
 20
-132.4467124668885
 30
0.0
  0
VERTEX
  5
13E
330
13C
100
AcDbEntity
  8
_U+30EC_U+30A4_U+30E4_U+30FC 1
 62
   179
420
  2234388
370
     9
100
AcDbVertex
100
AcDb2dVertex
 10
58.50752267401541
 20
-125.9463233018469
 30
0.0
  0
SEQEND
  5
13F
330
13C
100
AcDbEntity
  8
_U+30EC_U+30A4_U+30E4_U+30FC 1
 62
   179
420
  2234388
370
     9
  0
POLYLINE
  5
140
330
1F
100
AcDbEntity
  8
_U+30EC_U+30A4_U+30E4_U+30FC 1
 62
   179
420
  2234388
370
     9
100
AcDb2dPolyline
 66
     1
 10
0.0
 20
0.0
 30
0.0
  0
VERTEX
  5
141
330
140
100
AcDbEntity
  8
_U+30EC_U+30A4_U+30E4_U+30FC 1
 62
   179
420
  2234388
370
     9
100
AcDbVertex
100
AcDb2dVertex
 10
70.96777457835012
 20
-132.4467124668885
 30
0.0
  0
VERTEX
  5
142
330
140
100
AcDbEntity
  8
_U+30EC_U+30A4_U+30E4_U+30FC 1
 62
   179
420
  2234388
370
     9
100
AcDbVertex
100
AcDb2dVertex
 10
57.50760936619199
 20
-132.4467124668885
 30
0.0
  0
SEQEND
  5
143
330
140
100
AcDbEntity
  8
_U+30EC_U+30A4_U+30E4_U+30FC 1
 62
   179
420
  2234388
370
     9
  0
POLYLINE
  5
144
330
1F
100
AcDbEntity
  8
_U+30EC_U+30A4_U+30E4_U+30FC 1
 62
   179
420
  2234388
370
     9
100
AcDb2dPolyline
 66
     1
 10
0.0
 20
0.0
 30
0.0
  0
VERTEX
  5
145
330
144
100
AcDbEntity
  8
_U+30EC_U+30A4_U+30E4_U+30FC 1
 62
   179
420
  2234388
370
     9
100
AcDbVertex
100
AcDb2dVertex
 10
59.96756402565554
 20
-125.9463233018469
 30
0.0
  0
VERTEX
  5
146
330
144
100
AcDbEntity
  8
_U+30EC_U+30A4_U+30E4_U+30FC 1
 62
   179
420
  2234388
370
     9
100
AcDbVertex
100
AcDb2dVertex
 10
57.50760936619199
 20
-125.9463233018469
 30
0.0
  0
SEQEND
  5
147
330
144
100
AcDbEntity
  8
_U+30EC_U+30A4_U+30E4_U+30FC 1
 62
   179
420
  2234388
370
     9
  0
INSERT
  5
149
330
1F
100
AcDbEntity
  8
_U+30EC_U+30A4_U+30E4_U+30FC 1
100
AcDbBlockReference
  2
block 6
 10
0.0
 20
0.0
 30
0.0
  0
SPLINE
  5
159
330
1F
100
AcDbEntity
  8
_U+30EC_U+30A4_U+30E4_U+30FC 1
 62
   179
420
  2234388
370
     9
100
AcDbSpline
210
0.0
220
0.0
230
1.0
 70
    11
 71
     3
 72
    17
 73
    13
 74
     0
 42
0.0000000001
 43
0.0000000001
 12
1.0
 22
0.0
 32
0.0
 13
1.0
 23
0.0
 33
0.0
 40
0.0
 40
0.0
 40
0.0
 40
0.0
 40
1.0
 40
1.0
 40
1.0
 40
2.0
 40
2.0
 40
2.0
 40
3.0
 40
3.0
 40
3.0
 40
4.0
 40
4.0
 40
4.0
 40
4.0
 10
82.61942455886954
 20
-129.0215930233001
 30
0.0
 10
82.61942455886954
 20
-128.966453856647
 30
0.0
 10
82.57462178223479
 20
-128.9216863566584
 30
0.0
 10
82.51916511698293
 20
-128.9216863566584
 30
0.0
 10
82.46402595172299
 20
-128.9216863566584
 30
0.0
 10
82.4192584528651
 20
-128.966453856647
 30
0.0
 10
82.4192584528651
 20
-129.0215930233001
 30
0.0
 10
82.4192584528651
 20
-129.076696912175
 30
0.0
 10
82.46402595172299
 20
-129.1214996899417
 30
0.0
 10
82.51916511698293
 20
-129.1214996899417
 30
0.0
 10
82.57462178223479
 20
-129.1214996899417
 30
0.0
 10
82.61942455886954
 20
-129.076696912175
 30
0.0
 10
82.61942455886954
 20
-129.0215930233001
 30
0.0
  0
SPLINE
  5
15A
330
1F
100
AcDbEntity
  8
_U+30EC_U+30A4_U+30E4_U+30FC 1
 62
   179
420
  2234388
370
     9
100
AcDbSpline
210
0.0
220
0.0
230
1.0
 70
    11
 71
     3
 72
    17
 73
    13
 74
     0
 42
0.0000000001
 43
0.0000000001
 12
1.0
 22
0.0
 32
0.0
 13
1.0
 23
0.0
 33
0.0
 40
0.0
 40
0.0
 40
0.0
 40
0.0
 40
1.0
 40
1.0
 40
1.0
 40
2.0
 40
2.0
 40
2.0
 40
3.0
 40
3.0
 40
3.0
 40
4.0
 40
4.0
 40
4.0
 40
4.0
 10
83.61813842227912
 20
-129.0215930233001
 30
0.0
 10
83.61813842227912
 20
-128.966453856647
 30
0.0
 10
83.57337092342124
 20
-128.9216863566584
 30
0.0
 10
83.51823175816128
 20
-128.9216863566584
 30
0.0
 10
83.4631278706782
 20
-128.9216863566584
 30
0.0
 10
83.41832509404345
 20
-128.966453856647
 30
0.0
 10
83.41832509404345
 20
-129.0215930233001
 30
0.0
 10
83.41832509404345
 20
-129.076696912175
 30
0.0
 10
83.4631278706782
 20
-129.1214996899417
 30
0.0
 10
83.51823175816128
 20
-129.1214996899417
 30
0.0
 10
83.57337092342124
 20
-129.1214996899417
 30
0.0
 10
83.61813842227912
 20
-129.076696912175
 30
0.0
 10
83.61813842227912
 20
-129.0215930233001
 30
0.0
  0
POLYLINE
  5
15B
330
1F
100
AcDbEntity
  8
_U+30EC_U+30A4_U+30E4_U+30FC 1
 62
   179
420
  2234388
370
     9
100
AcDb2dPolyline
 66
     1
 10
0.0
 20
0.0
 30
0.0
  0
VERTEX
  5
15C
330
15B
100
AcDbEntity
  8
_U+30EC_U+30A4_U+30E4_U+30FC 1
 62
   179
420
  2234388
370
     9
100
AcDbVertex
100
AcDb2dVertex
 10
86.39972057353727
 20
-129.0215930233001
 30
0.0
  0
VERTEX
  5
15D
330
15B
100
AcDbEntity
  8
_U+30EC_U+30A4_U+30E4_U+30FC 1
 62
   179
420
  2234388
370
     9
100
AcDbVertex
100
AcDb2dVertex
 10
82.6342412251582
 20
-129.0215930233001
 30
0.0
  0
SEQEND
  5
15E
330
15B
100
AcDbEntity
  8
_U+30EC_U+30A4_U+30E4_U+30FC 1
 62
   179
420
  2234388
370
     9
  0
POLYLINE
  5
15F
330
1F
100
AcDbEntity
  8
_U+30EC_U+30A4_U+30E4_U+30FC 1
 62
   179
420
  2234388
370
     9
100
AcDb2dPolyline
 66
     1
 10
0.0
 20
0.0
 30
0.0
  0
VERTEX
  5
160
330
15F
100
AcDbEntity
  8
_U+30EC_U+30A4_U+30E4_U+30FC 1
 62
   179
420
  2234388
370
     9
100
AcDbVertex
100
AcDb2dVertex
 10
81.81360957942759
 20
-129.0215930233001
 30
0.0
  0
VERTEX
  5
161
330
15F
100
AcDbEntity
  8
_U+30EC_U+30A4_U+30E4_U+30FC 1
 62
   179
420
  2234388
370
     9
100
AcDbVertex
100
AcDb2dVertex
 10
83.81177813956118
 20
-129.0215930233001
 30
0.0
  0
SEQEND
  5
162
330
15F
100
AcDbEntity
  8
_U+30EC_U+30A4_U+30E4_U+30FC 1
 62
   179
420
  2234388
370
     9
  0
INSERT
  5
164
330
1F
100
AcDbEntity
  8
_U+30EC_U+30A4_U+30E4_U+30FC 1
100
AcDbBlockReference
  2
block 7
 10
0.0
 20
0.0
 30
0.0
  0
ENDSEC
  0
SECTION
  2
OBJECTS
  0
DICTIONARY
  5
C
330
0
100
AcDbDictionary
281
     1
  3
ACAD_GROUP
350
D
  3
ACAD_LAYOUT
350
1A
  3
ACAD_MATERIAL
350
3B
  3
ACAD_MLEADERSTYLE
350
16A
  3
ACAD_MLINESTYLE
350
17
  3
ACAD_PLOTSETTINGS
350
19
  3
ACAD_PLOTSTYLENAME
350
E
  3
ACAD_TABLESTYLE
350
169
  3
ACAD_VISUALSTYLE
350
2A
  0
SUN
  5
3F
330
29
100
AcDbSun
 90
        1
290
     0
 63
     7
421
 16777215
 40
1.0
291
     1
 91
  2455826
 92
 54000000
292
     0
 70
     2
 71
   256
280
     1
  0
DICTIONARY
  5
D
102
{ACAD_REACTORS
330
C
102
}
330
C
100
AcDbDictionary
281
     1
  0
DICTIONARY
  5
1A
102
{ACAD_REACTORS
330
C
102
}
330
C
100
AcDbDictionary
281
     1
  3
Layout1
350
1E
  3
Layout2
350
26
  3
Model
350
22
  0
DICTIONARY
  5
3B
102
{ACAD_REACTORS
330
C
102
}
330
C
100
AcDbDictionary
281
     1
  3
ByBlock
350
3D
  3
ByLayer
350
3C
  3
Global
350
3E
  0
DICTIONARY
  5
16A
102
{ACAD_REACTORS
330
C
102
}
330
C
100
AcDbDictionary
281
     1
  0
DICTIONARY
  5
17
102
{ACAD_REACTORS
330
C
102
}
330
C
100
AcDbDictionary
281
     1
  3
Standard
350
18
  0
DICTIONARY
  5
19
102
{ACAD_REACTORS
330
C
102
}
330
C
100
AcDbDictionary
281
     1
  0
ACDBDICTIONARYWDFLT
  5
E
102
{ACAD_REACTORS
330
C
102
}
330
C
100
AcDbDictionary
281
     1
  3
Normal
350
F
100
AcDbDictionaryWithDefault
340
F
  0
DICTIONARY
  5
169
102
{ACAD_REACTORS
330
C
102
}
330
C
100
AcDbDictionary
281
     1
  0
DICTIONARY
  5
2A
102
{ACAD_REACTORS
330
C
102
}
330
C
100
AcDbDictionary
281
     1
  3
2dWireframe
350
2F
  3
3D Hidden
350
31
  3
3dWireframe
350
30
  3
Basic
350
32
  3
Brighten
350
36
  3
ColorChange
350
3A
  3
Conceptual
350
34
  3
Dim
350
35
  3
Facepattern
350
39
  3
Flat
350
2B
  3
FlatWithEdges
350
2C
  3
Gouraud
350
2D
  3
GouraudWithEdges
350
2E
  3
Linepattern
350
38
  3
Realistic
350
33
  3
Thicken
350
37
  0
LAYOUT
  5
1E
102
{ACAD_REACTORS
330
1A
102
}
330
1A
100
AcDbPlotSettings
  1

  2
none_device
  4

  6

 40
0.0
 41
0.0
 42
0.0
 43
0.0
 44
0.0
 45
0.0
 46
0.0
 47
0.0
 48
0.0
 49
0.0
140
0.0
141
0.0
142
1.0
143
1.0
 70
   688
 72
     0
 73
     0
 74
     5
  7

 75
    16
 76
     0
 77
     2
 78
   300
147
1.0
148
0.0
149
0.0
100
AcDbLayout
  1
Layout1
 70
     1
 71
     1
 10
0.0
 20
0.0
 11
12.0
 21
9.0
 12
0.0
 22
0.0
 32
0.0
 14
1.000000000000000E+20
 24
1.000000000000000E+20
 34
1.000000000000000E+20
 15
-1.000000000000000E+20
 25
-1.000000000000000E+20
 35
-1.000000000000000E+20
146
0.0
 13
0.0
 23
0.0
 33
0.0
 16
1.0
 26
0.0
 36
0.0
 17
0.0
 27
1.0
 37
0.0
 76
     0
330
1B
  0
LAYOUT
  5
26
102
{ACAD_REACTORS
330
1A
102
}
330
1A
100
AcDbPlotSettings
  1

  2
none_device
  4

  6

 40
0.0
 41
0.0
 42
0.0
 43
0.0
 44
0.0
 45
0.0
 46
0.0
 47
0.0
 48
0.0
 49
0.0
140
0.0
141
0.0
142
1.0
143
1.0
 70
   688
 72
     0
 73
     0
 74
     5
  7

 75
    16
 76
     0
 77
     2
 78
   300
147
1.0
148
0.0
149
0.0
100
AcDbLayout
  1
Layout2
 70
     1
 71
     2
 10
0.0
 20
0.0
 11
0.0
 21
0.0
 12
0.0
 22
0.0
 32
0.0
 14
0.0
 24
0.0
 34
0.0
 15
0.0
 25
0.0
 35
0.0
146
0.0
 13
0.0
 23
0.0
 33
0.0
 16
1.0
 26
0.0
 36
0.0
 17
0.0
 27
1.0
 37
0.0
 76
     0
330
23
  0
LAYOUT
  5
22
102
{ACAD_REACTORS
330
1A
102
}
330
1A
100
AcDbPlotSettings
  1

  2
none_device
  4

  6

 40
0.0
 41
0.0
 42
0.0
 43
0.0
 44
0.0
 45
0.0
 46
0.0
 47
0.0
 48
0.0
 49
0.0
140
0.0
141
0.0
142
1.0
143
1.0
 70
  1712
 72
     0
 73
     0
 74
     0
  7

 75
     0
 76
     0
 77
     2
 78
   300
147
1.0
148
0.0
149
0.0
100
AcDbLayout
  1
Model
 70
     1
 71
     0
 10
0.0
 20
0.0
 11
12.0
 21
9.0
 12
0.0
 22
0.0
 32
0.0
 14
1.000000000000000E+20
 24
1.000000000000000E+20
 34
1.000000000000000E+20
 15
-1.000000000000000E+20
 25
-1.000000000000000E+20
 35
-1.000000000000000E+20
146
0.0
 13
0.0
 23
0.0
 33
0.0
 16
1.0
 26
0.0
 36
0.0
 17
0.0
 27
1.0
 37
0.0
 76
     0
330
1F
331
29
  0
MATERIAL
  5
3D
102
{ACAD_REACTORS
330
3B
102
}
330
3B
100
AcDbMaterial
  1
ByBlock
 72
     1
 94
      127
  0
MATERIAL
  5
3C
102
{ACAD_REACTORS
330
3B
102
}
330
3B
100
AcDbMaterial
  1
ByLayer
 72
     1
 94
      127
  0
MATERIAL
  5
3E
102
{ACAD_REACTORS
330
3B
102
}
330
3B
100
AcDbMaterial
  1
Global
 72
     1
 94
      127
  0
MLINESTYLE
  5
18
102
{ACAD_REACTORS
330
17
102
}
330
17
100
AcDbMlineStyle
  2
Standard
 70
     0
  3

 62
   256
 51
90.0
 52
90.0
 71
     2
 49
0.5
 62
   256
  6
BYLAYER
 49
-0.5
 62
   256
  6
BYLAYER
  0
ACDBPLACEHOLDER
  5
F
102
{ACAD_REACTORS
330
E
102
}
330
E
  0
VISUALSTYLE
  5
2F
102
{ACAD_REACTORS
330
2A
102
}
330
2A
100
AcDbVisualStyle
  2
2dWireframe
 70
     4
177
     2
291
     0
 71
     0
176
     1
 72
     2
176
     1
 73
     0
176
     1
 90
        0
176
     1
 40
-0.6
176
     1
 41
-30.0
176
     1
 62
     5
 63
     7
421
 16777215
176
     1
 74
     1
176
     1
 91
        4
176
     1
 64
     7
176
     1
 65
   257
176
     1
 75
     1
176
     1
175
     1
176
     1
 42
1.0
176
     1
 92
        0
176
     1
 66
   257
176
     1
 43
1.0
176
     1
 76
     1
176
     1
 77
     6
176
     1
 78
     2
176
     1
 67
     7
176
     1
 79
     5
176
     1
170
     0
176
     1
171
     0
176
     1
290
     0
176
     1
 93
        1
176
     1
 44
0.0
176
     1
173
     0
176
     1
  0
VISUALSTYLE
  5
31
102
{ACAD_REACTORS
330
2A
102
}
330
2A
100
AcDbVisualStyle
  2
3D Hidden
 70
     6
177
     2
291
     0
 71
     1
176
     1
 72
     2
176
     1
 73
     2
176
     1
 90
        0
176
     1
 40
-0.6
176
     1
 41
-30.0
176
     1
 62
     5
 63
     7
421
 16777215
176
     1
 74
     2
176
     1
 91
        2
176
     1
 64
     7
176
     1
 65
   257
176
     1
 75
     2
176
     1
175
     1
176
     1
 42
40.0
176
     1
 92
        0
176
     1
 66
   257
176
     1
 43
1.0
176
     1
 76
     1
176
     1
 77
     6
176
     1
 78
     2
176
     1
 67
     7
176
     1
 79
     3
176
     1
170
     0
176
     1
171
     0
176
     1
290
     0
176
     1
 93
        1
176
     1
 44
0.0
176
     1
173
     0
176
     1
  0
VISUALSTYLE
  5
30
102
{ACAD_REACTORS
330
2A
102
}
330
2A
100
AcDbVisualStyle
  2
3dWireframe
 70
     5
177
     2
291
     0
 71
     0
176
     1
 72
     2
176
     1
 73
     0
176
     1
 90
        0
176
     1
 40
-0.6
176
     1
 41
-30.0
176
     1
 62
     5
 63
     7
421
 16777215
176
     1
 74
     1
176
     1
 91
        4
176
     1
 64
     7
176
     1
 65
   257
176
     1
 75
     1
176
     1
175
     1
176
     1
 42
1.0
176
     1
 92
        0
176
     1
 66
   257
176
     1
 43
1.0
176
     1
 76
     1
176
     1
 77
     6
176
     1
 78
     2
176
     1
 67
     7
176
     1
 79
     5
176
     1
170
     0
176
     1
171
     0
176
     1
290
     0
176
     1
 93
        1
176
     1
 44
0.0
176
     1
173
     0
176
     1
  0
VISUALSTYLE
  5
32
102
{ACAD_REACTORS
330
2A
102
}
330
2A
100
AcDbVisualStyle
  2
Basic
 70
     7
177
     2
291
     1
 71
     1
176
     1
 72
     0
176
     1
 73
     1
176
     1
 90
        0
176
     1
 40
-0.6
176
     1
 41
-30.0
176
     1
 62
     5
 63
     7
421
 16777215
176
     1
 74
     0
176
     1
 91
        4
176
     1
 64
     7
176
     1
 65
   257
176
     1
 75
     1
176
     1
175
     1
176
     1
 42
1.0
176
     1
 92
        8
176
     1
 66
     7
176
     1
 43
1.0
176
     1
 76
     1
176
     1
 77
     6
176
     1
 78
     2
176
     1
 67
     7
176
     1
 79
     5
176
     1
170
     0
176
     1
171
     0
176
     1
290
     0
176
     1
 93
        1
176
     1
 44
0.0
176
     1
173
     0
176
     1
  0
VISUALSTYLE
  5
36
102
{ACAD_REACTORS
330
2A
102
}
330
2A
100
AcDbVisualStyle
  2
Brighten
 70
    12
177
     2
291
     1
 71
     2
176
     1
 72
     2
176
     1
 73
     0
176
     1
 90
        0
176
     1
 40
-0.6
176
     1
 41
-30.0
176
     1
 62
     5
 63
     7
421
 16777215
176
     1
 74
     1
176
     1
 91
        4
176
     1
 64
     7
176
     1
 65
   257
176
     1
 75
     1
176
     1
175
     1
176
     1
 42
1.0
176
     1
 92
        8
176
     1
 66
     7
176
     1
 43
1.0
176
     1
 76
     1
176
     1
 77
     6
176
     1
 78
     2
176
     1
 67
     7
176
     1
 79
     5
176
     1
170
     0
176
     1
171
     0
176
     1
290
     0
176
     1
 93
        1
176
     1
 44
50.0
176
     1
173
     0
176
     1
  0
VISUALSTYLE
  5
3A
102
{ACAD_REACTORS
330
2A
102
}
330
2A
100
AcDbVisualStyle
  2
ColorChange
 70
    16
177
     2
291
     1
 71
     2
176
     1
 72
     2
176
     1
 73
     3
176
     1
 90
        0
176
     1
 40
-0.6
176
     1
 41
-30.0
176
     1
 62
     5
 63
     8
421
  8421504
176
     1
 74
     1
176
     1
 91
        4
176
     1
 64
     7
176
     1
 65
   257
176
     1
 75
     1
176
     1
175
     1
176
     1
 42
1.0
176
     1
 92
        8
176
     1
 66
     8
424
  8421504
176
     1
 43
1.0
176
     1
 76
     1
176
     1
 77
     6
176
     1
 78
     2
176
     1
 67
     7
176
     1
 79
     5
176
     1
170
     0
176
     1
171
     0
176
     1
290
     0
176
     1
 93
        1
176
     1
 44
0.0
176
     1
173
     0
176
     1
  0
VISUALSTYLE
  5
34
102
{ACAD_REACTORS
330
2A
102
}
330
2A
100
AcDbVisualStyle
  2
Conceptual
 70
     9
177
     2
291
     0
 71
     3
176
     1
 72
     2
176
     1
 73
     0
176
     1
 90
        0
176
     1
 40
-0.6
176
     1
 41
-30.0
176
     1
 62
     5
 63
     7
421
 16777215
176
     1
 74
     2
176
     1
 91
        2
176
     1
 64
     7
176
     1
 65
   257
176
     1
 75
     1
176
     1
175
     1
176
     1
 42
40.0
176
     1
 92
        8
176
     1
 66
     7
176
     1
 43
1.0
176
     1
 76
     1
176
     1
 77
     6
176
     1
 78
     2
176
     1
 67
     7
176
     1
 79
     3
176
     1
170
     0
176
     1
171
     0
176
     1
290
     0
176
     1
 93
        1
176
     1
 44
0.0
176
     1
173
     0
176
     1
  0
VISUALSTYLE
  5
35
102
{ACAD_REACTORS
330
2A
102
}
330
2A
100
AcDbVisualStyle
  2
Dim
 70
    11
177
     2
291
     1
 71
     2
176
     1
 72
     2
176
     1
 73
     0
176
     1
 90
        0
176
     1
 40
-0.6
176
     1
 41
-30.0
176
     1
 62
     5
 63
     7
421
 16777215
176
     1
 74
     1
176
     1
 91
        4
176
     1
 64
     7
176
     1
 65
   257
176
     1
 75
     1
176
     1
175
     1
176
     1
 42
1.0
176
     1
 92
        8
176
     1
 66
     7
176
     1
 43
1.0
176
     1
 76
     1
176
     1
 77
     6
176
     1
 78
     2
176
     1
 67
     7
176
     1
 79
     5
176
     1
170
     0
176
     1
171
     0
176
     1
290
     0
176
     1
 93
        1
176
     1
 44
-50.0
176
     1
173
     0
176
     1
  0
VISUALSTYLE
  5
39
102
{ACAD_REACTORS
330
2A
102
}
330
2A
100
AcDbVisualStyle
  2
Facepattern
 70
    15
177
     2
291
     1
 71
     2
176
     1
 72
     2
176
     1
 73
     0
176
     1
 90
        0
176
     1
 40
-0.6
176
     1
 41
-30.0
176
     1
 62
     5
 63
     7
421
 16777215
176
     1
 74
     1
176
     1
 91
        4
176
     1
 64
     7
176
     1
 65
   257
176
     1
 75
     1
176
     1
175
     1
176
     1
 42
1.0
176
     1
 92
        8
176
     1
 66
     7
176
     1
 43
1.0
176
     1
 76
     1
176
     1
 77
     6
176
     1
 78
     2
176
     1
 67
     7
176
     1
 79
     5
176
     1
170
     0
176
     1
171
     0
176
     1
290
     0
176
     1
 93
        1
176
     1
 44
0.0
176
     1
173
     0
176
     1
  0
VISUALSTYLE
  5
2B
102
{ACAD_REACTORS
330
2A
102
}
330
2A
100
AcDbVisualStyle
  2
Flat
 70
     0
177
     2
291
     1
 71
     2
176
     1
 72
     1
176
     1
 73
     1
176
     1
 90
        2
176
     1
 40
-0.6
176
     1
 41
30.0
176
     1
 62
     5
 63
     7
421
 16777215
176
     1
 74
     0
176
     1
 91
        4
176
     1
 64
     7
176
     1
 65
   257
176
     1
 75
     1
176
     1
175
     1
176
     1
 42
1.0
176
     1
 92
        8
176
     1
 66
     7
176
     1
 43
1.0
176
     1
 76
     1
176
     1
 77
     6
176
     1
 78
     2
176
     1
 67
     7
176
     1
 79
     5
176
     1
170
     0
176
     1
171
     0
176
     1
290
     0
176
     1
 93
       13
176
     1
 44
0.0
176
     1
173
     0
176
     1
  0
VISUALSTYLE
  5
2C
102
{ACAD_REACTORS
330
2A
102
}
330
2A
100
AcDbVisualStyle
  2
FlatWithEdges
 70
     1
177
     2
291
     1
 71
     2
176
     1
 72
     1
176
     1
 73
     1
176
     1
 90
        2
176
     1
 40
-0.6
176
     1
 41
30.0
176
     1
 62
     5
 63
     7
421
 16777215
176
     1
 74
     1
176
     1
 91
        4
176
     1
 64
     7
176
     1
 65
   257
176
     1
 75
     1
176
     1
175
     1
176
     1
 42
1.0
176
     1
 92
        0
176
     1
 66
   257
176
     1
 43
1.0
176
     1
 76
     1
176
     1
 77
     6
176
     1
 78
     2
176
     1
 67
     7
176
     1
 79
     5
176
     1
170
     0
176
     1
171
     0
176
     1
290
     0
176
     1
 93
       13
176
     1
 44
0.0
176
     1
173
     0
176
     1
  0
VISUALSTYLE
  5
2D
102
{ACAD_REACTORS
330
2A
102
}
330
2A
100
AcDbVisualStyle
  2
Gouraud
 70
     2
177
     2
291
     1
 71
     2
176
     1
 72
     2
176
     1
 73
     1
176
     1
 90
        2
176
     1
 40
-0.6
176
     1
 41
30.0
176
     1
 62
     5
 63
     7
421
 16777215
176
     1
 74
     0
176
     1
 91
        4
176
     1
 64
     7
176
     1
 65
   257
176
     1
 75
     1
176
     1
175
     1
176
     1
 42
1.0
176
     1
 92
        0
176
     1
 66
     7
176
     1
 43
1.0
176
     1
 76
     1
176
     1
 77
     6
176
     1
 78
     2
176
     1
 67
     7
176
     1
 79
     5
176
     1
170
     0
176
     1
171
     0
176
     1
290
     0
176
     1
 93
       13
176
     1
 44
0.0
176
     1
173
     0
176
     1
  0
VISUALSTYLE
  5
2E
102
{ACAD_REACTORS
330
2A
102
}
330
2A
100
AcDbVisualStyle
  2
GouraudWithEdges
 70
     3
177
     2
291
     1
 71
     2
176
     1
 72
     2
176
     1
 73
     1
176
     1
 90
        2
176
     1
 40
-0.6
176
     1
 41
30.0
176
     1
 62
     5
 63
     7
421
 16777215
176
     1
 74
     1
176
     1
 91
        4
176
     1
 64
     7
176
     1
 65
   257
176
     1
 75
     1
176
     1
175
     1
176
     1
 42
1.0
176
     1
 92
        0
176
     1
 66
   257
176
     1
 43
1.0
176
     1
 76
     1
176
     1
 77
     6
176
     1
 78
     2
176
     1
 67
     7
176
     1
 79
     5
176
     1
170
     0
176
     1
171
     0
176
     1
290
     0
176
     1
 93
       13
176
     1
 44
0.0
176
     1
173
     0
176
     1
  0
VISUALSTYLE
  5
38
102
{ACAD_REACTORS
330
2A
102
}
330
2A
100
AcDbVisualStyle
  2
Linepattern
 70
    14
177
     2
291
     1
 71
     2
176
     1
 72
     2
176
     1
 73
     0
176
     1
 90
        0
176
     1
 40
-0.6
176
     1
 41
-30.0
176
     1
 62
     5
 63
     7
421
 16777215
176
     1
 74
     1
176
     1
 91
        4
176
     1
 64
     7
176
     1
 65
   257
176
     1
 75
     7
176
     1
175
     7
176
     1
 42
1.0
176
     1
 92
        8
176
     1
 66
     7
176
     1
 43
1.0
176
     1
 76
     1
176
     1
 77
     6
176
     1
 78
     2
176
     1
 67
     7
176
     1
 79
     5
176
     1
170
     0
176
     1
171
     0
176
     1
290
     0
176
     1
 93
        1
176
     1
 44
0.0
176
     1
173
     0
176
     1
  0
VISUALSTYLE
  5
33
102
{ACAD_REACTORS
330
2A
102
}
330
2A
100
AcDbVisualStyle
  2
Realistic
 70
     8
177
     2
291
     0
 71
     2
176
     1
 72
     2
176
     1
 73
     0
176
     1
 90
        0
176
     1
 40
-0.6
176
     1
 41
-30.0
176
     1
 62
     5
 63
     7
421
 16777215
176
     1
 74
     1
176
     1
 91
        0
176
     1
 64
     7
176
     1
 65
   257
176
     1
 75
     1
176
     1
175
     1
176
     1
 42
1.0
176
     1
 92
        8
176
     1
 66
     8
424
  7895160
176
     1
 43
1.0
176
     1
 76
     1
176
     1
 77
     6
176
     1
 78
     2
176
     1
 67
     7
176
     1
 79
     5
176
     1
170
     0
176
     1
171
     0
176
     1
290
     0
176
     1
 93
       13
176
     1
 44
0.0
176
     1
173
     0
176
     1
  0
VISUALSTYLE
  5
37
102
{ACAD_REACTORS
330
2A
102
}
330
2A
100
AcDbVisualStyle
  2
Thicken
 70
    13
177
     2
291
     1
 71
     2
176
     1
 72
     2
176
     1
 73
     0
176
     1
 90
        0
176
     1
 40
-0.6
176
     1
 41
-30.0
176
     1
 62
     5
 63
     7
421
 16777215
176
     1
 74
     1
176
     1
 91
        4
176
     1
 64
     7
176
     1
 65
   257
176
     1
 75
     1
176
     1
175
     1
176
     1
 42
1.0
176
     1
 92
       12
176
     1
 66
     7
176
     1
 43
1.0
176
     1
 76
     1
176
     1
 77
     6
176
     1
 78
     2
176
     1
 67
     7
176
     1
 79
     5
176
     1
170
     0
176
     1
171
     0
176
     1
290
     0
176
     1
 93
        1
176
     1
 44
0.0
176
     1
173
     0
176
     1
  0
ENDSEC
  0
EOF
