  0
SECTION
  2
HEADER
  9
$ACADVER
  1
AC1024
  9
$ACADMAINTVER
 70
     6
  9
$DWGCODEPAGE
  3
UNDEFINED
  9
$INSBASE
 10
0.0
 20
0.0
 30
0.0
  9
$EXTMIN
 10
1.000000000000000E+20
 20
1.000000000000000E+20
 30
1.000000000000000E+20
  9
$EXTMAX
 10
-1.000000000000000E+20
 20
-1.000000000000000E+20
 30
-1.000000000000000E+20
  9
$LIMMIN
 10
0.0
 20
0.0
  9
$LIMMAX
 10
12.0
 20
9.0
  9
$ORTHOMODE
 70
     0
  9
$REGENMODE
 70
     1
  9
$FILLMODE
 70
     1
  9
$QTEXTMODE
 70
     0
  9
$MIRRTEXT
 70
     1
  9
$LTSCALE
 40
1.0
  9
$ATTMODE
 70
     1
  9
$TEXTSIZE
 40
0.2
  9
$TRACEWID
 40
0.05
  9
$TEXTSTYLE
  7
Standard
  9
$CLAYER
  8
0
  9
$CELTYPE
  6
ByLayer
  9
$CECOLOR
 62
   256
  9
$CELTSCALE
 40
1.0
  9
$DISPSILH
 70
     0
  9
$DIMSCALE
 40
1.0
  9
$DIMASZ
 40
0.18
  9
$DIMEXO
 40
0.0625
  9
$DIMDLI
 40
0.38
  9
$DIMRND
 40
0.0
  9
$DIMDLE
 40
0.0
  9
$DIMEXE
 40
0.18
  9
$DIMTP
 40
0.0
  9
$DIMTM
 40
0.0
  9
$DIMTXT
 40
0.18
  9
$DIMCEN
 40
0.09
  9
$DIMTSZ
 40
0.0
  9
$DIMTOL
 70
     0
  9
$DIMLIM
 70
     0
  9
$DIMTIH
 70
     1
  9
$DIMTOH
 70
     1
  9
$DIMSE1
 70
     0
  9
$DIMSE2
 70
     0
  9
$DIMTAD
 70
     0
  9
$DIMZIN
 70
     0
  9
$DIMBLK
  1

  9
$DIMASO
 70
     1
  9
$DIMSHO
 70
     1
  9
$DIMPOST
  1

  9
$DIMAPOST
  1

  9
$DIMALT
 70
     0
  9
$DIMALTD
 70
     2
  9
$DIMALTF
 40
25.4
  9
$DIMLFAC
 40
1.0
  9
$DIMTOFL
 70
     0
  9
$DIMTVP
 40
0.0
  9
$DIMTIX
 70
     0
  9
$DIMSOXD
 70
     0
  9
$DIMSAH
 70
     0
  9
$DIMBLK1
  1

  9
$DIMBLK2
  1

  9
$DIMSTYLE
  2
Standard
  9
$DIMCLRD
 70
     0
  9
$DIMCLRE
 70
     0
  9
$DIMCLRT
 70
     0
  9
$DIMTFAC
 40
1.0
  9
$DIMGAP
 40
0.09
  9
$DIMJUST
 70
     0
  9
$DIMSD1
 70
     0
  9
$DIMSD2
 70
     0
  9
$DIMTOLJ
 70
     1
  9
$DIMTZIN
 70
     0
  9
$DIMALTZ
 70
     0
  9
$DIMALTTZ
 70
     0
  9
$DIMUPT
 70
     0
  9
$DIMDEC
 70
     4
  9
$DIMTDEC
 70
     4
  9
$DIMALTU
 70
     2
  9
$DIMALTTD
 70
     2
  9
$DIMTXSTY
  7
Standard
  9
$DIMAUNIT
 70
     0
  9
$DIMADEC
 70
     0
  9
$DIMALTRND
 40
0.0
  9
$DIMAZIN
 70
     0
  9
$DIMDSEP
 70
    46
  9
$DIMATFIT
 70
     3
  9
$DIMFRAC
 70
     0
  9
$DIMLDRBLK
  1

  9
$DIMLUNIT
 70
     2
  9
$DIMLWD
 70
    -2
  9
$DIMLWE
 70
    -2
  9
$DIMTMOVE
 70
     0
  9
$DIMFXL
 40
1.0
  9
$DIMFXLON
 70
     0
  9
$DIMJOGANG
 40
0.7853981633974483
  9
$DIMTFILL
 70
     0
  9
$DIMTFILLCLR
 70
     0
  9
$DIMARCSYM
 70
     0
  9
$DIMLTYPE
  6

  9
$DIMLTEX1
  6

  9
$DIMLTEX2
  6

  9
$DIMTXTDIRECTION
 70
     0
  9
$LUNITS
 70
     2
  9
$LUPREC
 70
     4
  9
$SKETCHINC
 40
0.1
  9
$FILLETRAD
 40
0.5
  9
$AUNITS
 70
     0
  9
$AUPREC
 70
     0
  9
$MENU
  1
.
  9
$ELEVATION
 40
0.0
  9
$PELEVATION
 40
0.0
  9
$THICKNESS
 40
0.0
  9
$LIMCHECK
 70
     0
  9
$CHAMFERA
 40
0.5
  9
$CHAMFERB
 40
0.5
  9
$CHAMFERC
 40
1.0
  9
$CHAMFERD
 40
0.0
  9
$SKPOLY
 70
     0
  9
$TDCREATE
 40
2457917.585462952
  9
$TDUCREATE
 40
2457917.210462963
  9
$TDUPDATE
 40
2457917.585462952
  9
$TDUUPDATE
 40
2457917.210462963
  9
$TDINDWG
 40
0.0000000116
  9
$TDUSRTIMER
 40
0.0000000116
  9
$USRTIMER
 70
     1
  9
$ANGBASE
 50
0.0
  9
$ANGDIR
 70
     0
  9
$PDMODE
 70
     0
  9
$PDSIZE
 40
0.0
  9
$PLINEWID
 40
0.0
  9
$SPLFRAME
 70
     0
  9
$SPLINETYPE
 70
     6
  9
$SPLINESEGS
 70
     8
  9
$HANDSEED
  5
C1
  9
$SURFTAB1
 70
     6
  9
$SURFTAB2
 70
     6
  9
$SURFTYPE
 70
     6
  9
$SURFU
 70
     6
  9
$SURFV
 70
     6
  9
$UCSBASE
  2

  9
$UCSNAME
  2

  9
$UCSORG
 10
0.0
 20
0.0
 30
0.0
  9
$UCSXDIR
 10
1.0
 20
0.0
 30
0.0
  9
$UCSYDIR
 10
0.0
 20
1.0
 30
0.0
  9
$UCSORTHOREF
  2

  9
$UCSORTHOVIEW
 70
     0
  9
$UCSORGTOP
 10
0.0
 20
0.0
 30
0.0
  9
$UCSORGBOTTOM
 10
0.0
 20
0.0
 30
0.0
  9
$UCSORGLEFT
 10
0.0
 20
0.0
 30
0.0
  9
$UCSORGRIGHT
 10
0.0
 20
0.0
 30
0.0
  9
$UCSORGFRONT
 10
0.0
 20
0.0
 30
0.0
  9
$UCSORGBACK
 10
0.0
 20
0.0
 30
0.0
  9
$PUCSBASE
  2

  9
$PUCSNAME
  2

  9
$PUCSORG
 10
0.0
 20
0.0
 30
0.0
  9
$PUCSXDIR
 10
1.0
 20
0.0
 30
0.0
  9
$PUCSYDIR
 10
0.0
 20
1.0
 30
0.0
  9
$PUCSORTHOREF
  2

  9
$PUCSORTHOVIEW
 70
     0
  9
$PUCSORGTOP
 10
0.0
 20
0.0
 30
0.0
  9
$PUCSORGBOTTOM
 10
0.0
 20
0.0
 30
0.0
  9
$PUCSORGLEFT
 10
0.0
 20
0.0
 30
0.0
  9
$PUCSORGRIGHT
 10
0.0
 20
0.0
 30
0.0
  9
$PUCSORGFRONT
 10
0.0
 20
0.0
 30
0.0
  9
$PUCSORGBACK
 10
0.0
 20
0.0
 30
0.0
  9
$USERI1
 70
     0
  9
$USERI2
 70
     0
  9
$USERI3
 70
     0
  9
$USERI4
 70
     0
  9
$USERI5
 70
     0
  9
$USERR1
 40
0.0
  9
$USERR2
 40
0.0
  9
$USERR3
 40
0.0
  9
$USERR4
 40
0.0
  9
$USERR5
 40
0.0
  9
$WORLDVIEW
 70
     1
  9
$SHADEDGE
 70
     3
  9
$SHADEDIF
 70
    70
  9
$TILEMODE
 70
     1
  9
$MAXACTVP
 70
    64
  9
$PINSBASE
 10
0.0
 20
0.0
 30
0.0
  9
$PLIMCHECK
 70
     0
  9
$PEXTMIN
 10
1.000000000000000E+20
 20
1.000000000000000E+20
 30
1.000000000000000E+20
  9
$PEXTMAX
 10
-1.000000000000000E+20
 20
-1.000000000000000E+20
 30
-1.000000000000000E+20
  9
$PLIMMIN
 10
0.0
 20
0.0
  9
$PLIMMAX
 10
12.0
 20
9.0
  9
$UNITMODE
 70
     0
  9
$VISRETAIN
 70
     1
  9
$PLINEGEN
 70
     0
  9
$PSLTSCALE
 70
     1
  9
$TREEDEPTH
 70
  3020
  9
$CMLSTYLE
  2
Standard
  9
$CMLJUST
 70
     0
  9
$CMLSCALE
 40
1.0
  9
$PROXYGRAPHICS
 70
     1
  9
$MEASUREMENT
 70
     0
  9
$CELWEIGHT
370
    -1
  9
$ENDCAPS
280
     0
  9
$JOINSTYLE
280
     0
  9
$LWDISPLAY
290
     1
  9
$INSUNITS
 70
     1
  9
$HYPERLINKBASE
  1

  9
$STYLESHEET
  1

  9
$XEDIT
290
     1
  9
$CEPSNTYPE
380
     0
  9
$PSTYLEMODE
290
     1
  9
$FINGERPRINTGUID
  2
{2890C932-D156-DE06-EC8F-61D062C46058}
  9
$VERSIONGUID
  2
{FAEB1C32-E019-11D5-929B-00C0DF256EC4}
  9
$EXTNAMES
290
     1
  9
$PSVPSCALE
 40
0.0
  9
$OLESTARTUP
290
     0
  9
$SORTENTS
280
   127
  9
$INDEXCTL
280
     0
  9
$HIDETEXT
280
     1
  9
$XCLIPFRAME
280
     2
  9
$HALOGAP
280
     0
  9
$OBSCOLOR
 70
   257
  9
$OBSLTYPE
280
     0
  9
$INTERSECTIONDISPLAY
280
     0
  9
$INTERSECTIONCOLOR
 70
   257
  9
$DIMASSOC
280
     2
  9
$PROJECTNAME
  1

  9
$CAMERADISPLAY
290
     0
  9
$LENSLENGTH
 40
50.0
  9
$CAMERAHEIGHT
 40
0.0
  9
$STEPSPERSEC
 40
2.0
  9
$STEPSIZE
 40
6.0
  9
$3DDWFPREC
 40
2.0
  9
$PSOLWIDTH
 40
0.25
  9
$PSOLHEIGHT
 40
4.0
  9
$LOFTANG1
 40
1.570796326794897
  9
$LOFTANG2
 40
1.570796326794897
  9
$LOFTMAG1
 40
0.0
  9
$LOFTMAG2
 40
0.0
  9
$LOFTPARAM
 70
     7
  9
$LOFTNORMALS
280
     1
  9
$LATITUDE
 40
37.795
  9
$LONGITUDE
 40
-122.394
  9
$NORTHDIRECTION
 40
0.0
  9
$TIMEZONE
 70
 -8000
  9
$LIGHTGLYPHDISPLAY
280
     1
  9
$TILEMODELIGHTSYNCH
280
     1
  9
$CMATERIAL
347
3C
  9
$SOLIDHIST
280
     1
  9
$SHOWHIST
280
     1
  9
$DWFFRAME
280
     2
  9
$DGNFRAME
280
     2
  9
$REALWORLDSCALE
290
     1
  9
$INTERFERECOLOR
 62
   256
  9
$CSHADOW
280
     0
  9
$SHADOWPLANELOCATION
 40
0.0
  0
ENDSEC
  0
SECTION
  2
CLASSES
  0
CLASS
  1
ACDBDICTIONARYWDFLT
  2
AcDbDictionaryWithDefault
  3
ObjectDBX Classes
 90
        0
 91
        4
280
     0
281
     0
  0
CLASS
  1
VISUALSTYLE
  2
AcDbVisualStyle
  3
ObjectDBX Classes
 90
     4095
 91
        4
280
     0
281
     0
  0
CLASS
  1
MATERIAL
  2
AcDbMaterial
  3
ObjectDBX Classes
 90
     1153
 91
        4
280
     0
281
     0
  0
CLASS
  1
SUN
  2
AcDbSun
  3
SCENEOE
 90
     1024
 91
        4
280
     0
281
     0
  0
ENDSEC
  0
SECTION
  2
TABLES
  0
TABLE
  2
VPORT
  5
8
330
0
100
AcDbSymbolTable
 70
     1
  0
VPORT
  5
29
330
8
100
AcDbSymbolTableRecord
100
AcDbViewportTableRecord
  2
*Active
 70
     0
 10
0.0
 20
0.0
 11
1.0
 21
1.0
 12
0.0
 22
0.0
 13
0.0
 23
0.0
 14
0.5
 24
0.5
 15
0.5
 25
0.5
 16
0.0
 26
0.0
 36
1.0
 17
91.00082462281999
 27
-128.4993055234307
 37
0.0
 40
256.9986110468615
 41
0.7081814508812795
 42
50.0
 43
0.0
 44
0.0
 50
0.0
 51
0.0
 71
     0
 72
   100
 73
     1
 74
     3
 75
     0
 76
     0
 77
     0
 78
     0
281
     0
 65
     1
110
0.0
120
0.0
130
0.0
111
1.0
121
0.0
131
0.0
112
0.0
122
1.0
132
0.0
 79
     0
146
0.0
 60
     3
 61
     5
292
     1
282
     1
141
0.0
142
0.0
 63
   250
361
3F
  0
ENDTAB
  0
TABLE
  2
LTYPE
  5
5
330
0
100
AcDbSymbolTable
 70
     2
  0
LTYPE
  5
14
330
5
100
AcDbSymbolTableRecord
100
AcDbLinetypeTableRecord
  2
ByBlock
 70
     0
  3

 72
    65
 73
     0
 40
0.0
  0
LTYPE
  5
15
330
5
100
AcDbSymbolTableRecord
100
AcDbLinetypeTableRecord
  2
ByLayer
 70
     0
  3

 72
    65
 73
     0
 40
0.0
  0
LTYPE
  5
16
330
5
100
AcDbSymbolTableRecord
100
AcDbLinetypeTableRecord
  2
Continuous
 70
     0
  3
Solid line
 72
    65
 73
     0
 40
0.0
  0
LTYPE
  5
89
330
5
100
AcDbSymbolTableRecord
100
AcDbLinetypeTableRecord
  2
AI-Linetype-1
 70
     0
  3
Adobe Illustrator Linetype No. 1
 72
    65
 73
     2
 40
1.411111110758333
 49
0.7055555553791667
 74
     0
 49
-0.7055555553791667
 74
     0
  0
ENDTAB
  0
TABLE
  2
LAYER
  5
2
330
0
100
AcDbSymbolTable
 70
     2
  0
LAYER
  5
10
330
2
100
AcDbSymbolTableRecord
100
AcDbLayerTableRecord
  2
0
 70
     0
 62
     7
  6
Continuous
370
    -3
390
F
347
3E
  0
LAYER
  5
40
330
2
100
AcDbSymbolTableRecord
100
AcDbLayerTableRecord
  2
_U+30EC_U+30A4_U+30E4_U+30FC 1
 70
     0
 62
     7
  6
Continuous
370
    -3
390
F
347
3E
  0
ENDTAB
  0
TABLE
  2
STYLE
  5
3
330
0
100
AcDbSymbolTable
 70
     1
  0
STYLE
  5
11
330
3
100
AcDbSymbolTableRecord
100
AcDbTextStyleTableRecord
  2
Standard
 70
     0
 40
0.0
 41
1.0
 50
0.0
 71
     0
 42
0.2
  3
txt
  4

  0
ENDTAB
  0
TABLE
  2
VIEW
  5
6
330
0
100
AcDbSymbolTable
 70
     0
  0
ENDTAB
  0
TABLE
  2
UCS
  5
7
330
0
100
AcDbSymbolTable
 70
     0
  0
ENDTAB
  0
TABLE
  2
APPID
  5
9
330
0
100
AcDbSymbolTable
 70
     1
  0
APPID
  5
12
330
9
100
AcDbSymbolTableRecord
100
AcDbRegAppTableRecord
  2
ACAD
 70
     0
  0
ENDTAB
  0
TABLE
  2
DIMSTYLE
  5
A
330
0
100
AcDbSymbolTable
 70
     1
100
AcDbDimStyleTable
  0
DIMSTYLE
105
27
330
A
100
AcDbSymbolTableRecord
100
AcDbDimStyleTableRecord
  2
Standard
 70
     0
178
     0
340
11
  0
ENDTAB
  0
TABLE
  2
BLOCK_RECORD
  5
1
330
0
100
AcDbSymbolTable
 70
     4
  0
BLOCK_RECORD
  5
1F
330
1
100
AcDbSymbolTableRecord
100
AcDbBlockTableRecord
  2
*Model_Space
340
22
 70
     0
280
     1
281
     0
  0
BLOCK_RECORD
  5
1B
330
1
100
AcDbSymbolTableRecord
100
AcDbBlockTableRecord
  2
*Paper_Space
340
1E
 70
     0
280
     1
281
     0
  0
BLOCK_RECORD
  5
23
330
1
100
AcDbSymbolTableRecord
100
AcDbBlockTableRecord
  2
*Paper_Space0
340
26
 70
     0
280
     1
281
     0
  0
BLOCK_RECORD
  5
6A
330
1
100
AcDbSymbolTableRecord
100
AcDbBlockTableRecord
  2
block 2
340
0
102
{BLKREFS
331
6B
102
}
 70
     0
280
     1
281
     0
  0
BLOCK_RECORD
  5
7E
330
1
100
AcDbSymbolTableRecord
100
AcDbBlockTableRecord
  2
block 3
340
0
102
{BLKREFS
331
7F
102
}
 70
     0
280
     1
281
     0
  0
BLOCK_RECORD
  5
97
330
1
100
AcDbSymbolTableRecord
100
AcDbBlockTableRecord
  2
block 4
340
0
102
{BLKREFS
331
98
102
}
 70
     0
280
     1
281
     0
  0
ENDTAB
  0
ENDSEC
  0
SECTION
  2
BLOCKS
  0
BLOCK
  5
20
330
1F
100
AcDbEntity
  8
0
100
AcDbBlockBegin
  2
*Model_Space
 70
     0
 10
0.0
 20
0.0
 30
0.0
  3
*Model_Space
  1

  0
ENDBLK
  5
21
330
1F
100
AcDbEntity
  8
0
100
AcDbBlockEnd
  0
BLOCK
  5
1C
330
1B
100
AcDbEntity
 67
     1
  8
0
100
AcDbBlockBegin
  2
*Paper_Space
 70
     0
 10
0.0
 20
0.0
 30
0.0
  3
*Paper_Space
  1

  0
ENDBLK
  5
1D
330
1B
100
AcDbEntity
 67
     1
  8
0
100
AcDbBlockEnd
  0
BLOCK
  5
24
330
23
100
AcDbEntity
  8
0
100
AcDbBlockBegin
  2
*Paper_Space0
 70
     0
 10
0.0
 20
0.0
 30
0.0
  3
*Paper_Space0
  1

  0
ENDBLK
  5
25
330
23
100
AcDbEntity
  8
0
100
AcDbBlockEnd
  0
BLOCK
  5
6C
330
6A
100
AcDbEntity
  8
0
100
AcDbBlockBegin
  2
block 2
 70
     0
 10
0.0
 20
0.0
 30
0.0
  3
block 2
  1

  0
SPLINE
  5
6E
330
6A
100
AcDbEntity
  8
_U+30EC_U+30A4_U+30E4_U+30FC 1
370
     0
100
AcDbSpline
210
0.0
220
0.0
230
1.0
 70
    11
 71
     3
 72
    44
 73
    40
 74
     0
 42
0.0000000001
 43
0.0000000001
 12
1.0
 22
0.0
 32
0.0
 13
1.0
 23
0.0
 33
0.0
 40
0.0
 40
0.0
 40
0.0
 40
0.0
 40
1.0
 40
1.0
 40
1.0
 40
2.0
 40
2.0
 40
2.0
 40
3.0
 40
3.0
 40
3.0
 40
4.0
 40
4.0
 40
4.0
 40
5.0
 40
5.0
 40
5.0
 40
6.0
 40
6.0
 40
6.0
 40
7.0
 40
7.0
 40
7.0
 40
8.0
 40
8.0
 40
8.0
 40
9.0
 40
9.0
 40
9.0
 40
10.0
 40
10.0
 40
10.0
 40
11.0
 40
11.0
 40
11.0
 40
12.0
 40
12.0
 40
12.0
 40
13.0
 40
13.0
 40
13.0
 40
13.0
 10
93.9453423159234
 20
-136.0788601005289
 30
0.0
 10
93.71245386112051
 20
-136.2376790023989
 30
0.0
 10
93.61289060159679
 20
-136.3117485553318
 30
0.0
 10
93.56121416931803
 20
-136.4554090370667
 30
0.0
 10
93.56121416931803
 20
-136.4554090370667
 30
0.0
 10
94.39286021945735
 20
-136.4554090370667
 30
0.0
 10
94.39286021945735
 20
-136.4554090370667
 30
0.0
 10
94.39286021945735
 20
-136.4554090370667
 30
0.0
 10
94.39286021945735
 20
-136.6607367279876
 30
0.0
 10
94.39286021945735
 20
-136.6607367279876
 30
0.0
 10
94.39286021945735
 20
-136.6607367279876
 30
0.0
 10
93.29421926921117
 20
-136.6607367279876
 30
0.0
 10
93.29421926921117
 20
-136.6607367279876
 30
0.0
 10
93.32832571451515
 20
-136.3031358166187
 30
0.0
 10
93.39826115286571
 20
-136.2249321491035
 30
0.0
 10
93.80960555380454
 20
-135.9265868800809
 30
0.0
 10
94.08314613533338
 20
-135.7278048705819
 30
0.0
 10
94.15342608323247
 20
-135.6599364895225
 30
0.0
 10
94.15342608323247
 20
-135.5224771796611
 30
0.0
 10
94.15342608323247
 20
-135.4039658949685
 30
0.0
 10
94.07660045391141
 20
-135.273052266529
 30
0.0
 10
93.86610511976265
 20
-135.273052266529
 30
0.0
 10
93.58808591410298
 20
-135.273052266529
 30
0.0
 10
93.57912866584134
 20
-135.5035291544922
 30
0.0
 10
93.57465004171051
 20
-135.6199733818936
 30
0.0
 10
93.57465004171051
 20
-135.6199733818936
 30
0.0
 10
93.33487139593711
 20
-135.6199733818936
 30
0.0
 10
93.33487139593711
 20
-135.6199733818936
 30
0.0
 10
93.34417315374729
 20
-135.4928493584879
 30
0.0
 10
93.3551974593001
 20
-135.3808837552173
 30
0.0
 10
93.44132484643134
 20
-135.2623724705247
 30
0.0
 10
93.55880260247837
 20
-135.1014865113635
 30
0.0
 10
93.75758461197728
 20
-135.0677245756081
 30
0.0
 10
93.8819525589948
 20
-135.0677245756081
 30
0.0
 10
94.17823077072627
 20
-135.0677245756081
 30
0.0
 10
94.39975041042784
 20
-135.2516926745204
 30
0.0
 10
94.39975041042784
 20
-135.5245442369522
 30
0.0
 10
94.39975041042784
 20
-135.7532985771728
 30
0.0
 10
94.27538246341032
 20
-135.852517327148
 30
0.0
 10
93.9453423159234
 20
-136.0788601005289
 30
0.0
  0
HATCH
  5
6F
330
6A
100
AcDbEntity
  8
_U+30EC_U+30A4_U+30E4_U+30FC 1
 62
   179
420
  2234388
100
AcDbHatch
 10
0.0
 20
0.0
 30
0.0
210
0.0
220
0.0
230
1.0
  2
SOLID
 70
     1
 71
     0
 91
        1
 92
        1
 93
        1
 72
     4
 94
        3
 73
     0
 74
     1
 95
       44
 96
       40
 40
0.0
 40
0.0
 40
0.0
 40
0.0
 40
1.0
 40
1.0
 40
1.0
 40
2.0
 40
2.0
 40
2.0
 40
3.0
 40
3.0
 40
3.0
 40
4.0
 40
4.0
 40
4.0
 40
5.0
 40
5.0
 40
5.0
 40
6.0
 40
6.0
 40
6.0
 40
7.0
 40
7.0
 40
7.0
 40
8.0
 40
8.0
 40
8.0
 40
9.0
 40
9.0
 40
9.0
 40
10.0
 40
10.0
 40
10.0
 40
11.0
 40
11.0
 40
11.0
 40
12.0
 40
12.0
 40
12.0
 40
13.0
 40
13.0
 40
13.0
 40
13.0
 10
93.9453423159234
 20
-136.0788601005289
 10
93.71245386112051
 20
-136.2376790023989
 10
93.61289060159679
 20
-136.3117485553318
 10
93.56121416931803
 20
-136.4554090370667
 10
93.56121416931803
 20
-136.4554090370667
 10
94.39286021945735
 20
-136.4554090370667
 10
94.39286021945735
 20
-136.4554090370667
 10
94.39286021945735
 20
-136.4554090370667
 10
94.39286021945735
 20
-136.6607367279876
 10
94.39286021945735
 20
-136.6607367279876
 10
94.39286021945735
 20
-136.6607367279876
 10
93.29421926921117
 20
-136.6607367279876
 10
93.29421926921117
 20
-136.6607367279876
 10
93.32832571451515
 20
-136.3031358166187
 10
93.39826115286571
 20
-136.2249321491035
 10
93.80960555380454
 20
-135.9265868800809
 10
94.08314613533338
 20
-135.7278048705819
 10
94.15342608323247
 20
-135.6599364895225
 10
94.15342608323247
 20
-135.5224771796611
 10
94.15342608323247
 20
-135.4039658949685
 10
94.07660045391141
 20
-135.273052266529
 10
93.86610511976265
 20
-135.273052266529
 10
93.58808591410298
 20
-135.273052266529
 10
93.57912866584134
 20
-135.5035291544922
 10
93.57465004171051
 20
-135.6199733818936
 10
93.57465004171051
 20
-135.6199733818936
 10
93.33487139593711
 20
-135.6199733818936
 10
93.33487139593711
 20
-135.6199733818936
 10
93.34417315374729
 20
-135.4928493584879
 10
93.3551974593001
 20
-135.3808837552173
 10
93.44132484643134
 20
-135.2623724705247
 10
93.55880260247837
 20
-135.1014865113635
 10
93.75758461197728
 20
-135.0677245756081
 10
93.8819525589948
 20
-135.0677245756081
 10
94.17823077072627
 20
-135.0677245756081
 10
94.39975041042784
 20
-135.2516926745204
 10
94.39975041042784
 20
-135.5245442369522
 10
94.39975041042784
 20
-135.7532985771728
 10
94.27538246341032
 20
-135.852517327148
 10
93.9453423159234
 20
-136.0788601005289
 97
        0
 97
        0
 75
     2
 76
     1
 98
        0
  0
SPLINE
  5
70
330
6A
100
AcDbEntity
  8
_U+30EC_U+30A4_U+30E4_U+30FC 1
370
     0
100
AcDbSpline
210
0.0
220
0.0
230
1.0
 70
    11
 71
     3
 72
    53
 73
    49
 74
     0
 42
0.0000000001
 43
0.0000000001
 12
1.0
 22
0.0
 32
0.0
 13
1.0
 23
0.0
 33
0.0
 40
0.0
 40
0.0
 40
0.0
 40
0.0
 40
1.0
 40
1.0
 40
1.0
 40
2.0
 40
2.0
 40
2.0
 40
3.0
 40
3.0
 40
3.0
 40
4.0
 40
4.0
 40
4.0
 40
5.0
 40
5.0
 40
5.0
 40
6.0
 40
6.0
 40
6.0
 40
7.0
 40
7.0
 40
7.0
 40
8.0
 40
8.0
 40
8.0
 40
9.0
 40
9.0
 40
9.0
 40
10.0
 40
10.0
 40
10.0
 40
11.0
 40
11.0
 40
11.0
 40
12.0
 40
12.0
 40
12.0
 40
13.0
 40
13.0
 40
13.0
 40
14.0
 40
14.0
 40
14.0
 40
15.0
 40
15.0
 40
15.0
 40
16.0
 40
16.0
 40
16.0
 40
16.0
 10
95.08325735470142
 20
-136.7113796316208
 30
0.0
 10
94.99988604395837
 20
-136.7113796316208
 30
0.0
 10
94.89102102662447
 20
-136.694498663743
 30
0.0
 10
94.78284502838763
 20
-136.6311089068145
 30
0.0
 10
94.59715438173266
 20
-136.521210360835
 30
0.0
 10
94.57476126107854
 20
-136.389952222847
 30
0.0
 10
94.55443519771556
 20
-136.2821207341586
 30
0.0
 10
94.55443519771556
 20
-136.2821207341586
 30
0.0
 10
94.79180227664928
 20
-136.2821207341586
 30
0.0
 10
94.79180227664928
 20
-136.2821207341586
 30
0.0
 10
94.85036889989853
 20
-136.4809027436576
 30
0.0
 10
94.98610566201737
 20
-136.5105305648307
 30
0.0
 10
95.08566892154109
 20
-136.5105305648307
 30
0.0
 10
95.2348415560524
 20
-136.5105305648307
 30
0.0
 10
95.3974500629562
 20
-136.410967305307
 30
0.0
 10
95.3974500629562
 20
-136.1784233600526
 30
0.0
 10
95.3974500629562
 20
-135.9224527654985
 30
0.0
 10
95.20555824442778
 20
-135.852517327148
 30
0.0
 10
95.07671167327943
 20
-135.852517327148
 30
0.0
 10
95.04260522797546
 20
-135.852517327148
 30
0.0
 10
94.89102102662447
 20
-135.852517327148
 30
0.0
 10
94.7962809007801
 20
-135.9817084078448
 30
0.0
 10
94.7962809007801
 20
-135.9817084078448
 30
0.0
 10
94.60852319683399
 20
-135.962760382676
 30
0.0
 10
94.60852319683399
 20
-135.962760382676
 30
0.0
 10
94.60852319683399
 20
-135.962760382676
 30
0.0
 10
94.73736976798233
 20
-135.1163004219501
 30
0.0
 10
94.73736976798233
 20
-135.1163004219501
 30
0.0
 10
94.73736976798233
 20
-135.1163004219501
 30
0.0
 10
95.56936032767017
 20
-135.1163004219501
 30
0.0
 10
95.56936032767017
 20
-135.1163004219501
 30
0.0
 10
95.56936032767017
 20
-135.1163004219501
 30
0.0
 10
95.56936032767017
 20
-135.3109483168667
 30
0.0
 10
95.56936032767017
 20
-135.3109483168667
 30
0.0
 10
95.56936032767017
 20
-135.3109483168667
 30
0.0
 10
94.91169159953597
 20
-135.3109483168667
 30
0.0
 10
94.91169159953597
 20
-135.3109483168667
 30
0.0
 10
94.91169159953597
 20
-135.3109483168667
 30
0.0
 10
94.84141165163688
 20
-135.7340060424554
 30
0.0
 10
94.84141165163688
 20
-135.7340060424554
 30
0.0
 10
94.90686846585662
 20
-135.7002441067
 30
0.0
 10
94.99506291027902
 20
-135.6599364895225
 30
0.0
 10
95.1218424241362
 20
-135.6599364895225
 30
0.0
 10
95.39297143882537
 20
-135.6599364895225
 30
0.0
 10
95.64618595699123
 20
-135.8463161552745
 30
0.0
 10
95.64618595699123
 20
-136.1594753348838
 30
0.0
 10
95.64618595699123
 20
-136.4767686290753
 30
0.0
 10
95.40675182076637
 20
-136.7113796316208
 30
0.0
 10
95.08325735470142
 20
-136.7113796316208
 30
0.0
  0
HATCH
  5
71
330
6A
100
AcDbEntity
  8
_U+30EC_U+30A4_U+30E4_U+30FC 1
 62
   179
420
  2234388
100
AcDbHatch
 10
0.0
 20
0.0
 30
0.0
210
0.0
220
0.0
230
1.0
  2
SOLID
 70
     1
 71
     0
 91
        1
 92
        1
 93
        1
 72
     4
 94
        3
 73
     0
 74
     1
 95
       53
 96
       49
 40
0.0
 40
0.0
 40
0.0
 40
0.0
 40
1.0
 40
1.0
 40
1.0
 40
2.0
 40
2.0
 40
2.0
 40
3.0
 40
3.0
 40
3.0
 40
4.0
 40
4.0
 40
4.0
 40
5.0
 40
5.0
 40
5.0
 40
6.0
 40
6.0
 40
6.0
 40
7.0
 40
7.0
 40
7.0
 40
8.0
 40
8.0
 40
8.0
 40
9.0
 40
9.0
 40
9.0
 40
10.0
 40
10.0
 40
10.0
 40
11.0
 40
11.0
 40
11.0
 40
12.0
 40
12.0
 40
12.0
 40
13.0
 40
13.0
 40
13.0
 40
14.0
 40
14.0
 40
14.0
 40
15.0
 40
15.0
 40
15.0
 40
16.0
 40
16.0
 40
16.0
 40
16.0
 10
95.08325735470142
 20
-136.7113796316208
 10
94.99988604395837
 20
-136.7113796316208
 10
94.89102102662447
 20
-136.694498663743
 10
94.78284502838763
 20
-136.6311089068145
 10
94.59715438173266
 20
-136.521210360835
 10
94.57476126107854
 20
-136.389952222847
 10
94.55443519771556
 20
-136.2821207341586
 10
94.55443519771556
 20
-136.2821207341586
 10
94.79180227664928
 20
-136.2821207341586
 10
94.79180227664928
 20
-136.2821207341586
 10
94.85036889989853
 20
-136.4809027436576
 10
94.98610566201737
 20
-136.5105305648307
 10
95.08566892154109
 20
-136.5105305648307
 10
95.2348415560524
 20
-136.5105305648307
 10
95.3974500629562
 20
-136.410967305307
 10
95.3974500629562
 20
-136.1784233600526
 10
95.3974500629562
 20
-135.9224527654985
 10
95.20555824442778
 20
-135.852517327148
 10
95.07671167327943
 20
-135.852517327148
 10
95.04260522797546
 20
-135.852517327148
 10
94.89102102662447
 20
-135.852517327148
 10
94.7962809007801
 20
-135.9817084078448
 10
94.7962809007801
 20
-135.9817084078448
 10
94.60852319683399
 20
-135.962760382676
 10
94.60852319683399
 20
-135.962760382676
 10
94.60852319683399
 20
-135.962760382676
 10
94.73736976798233
 20
-135.1163004219501
 10
94.73736976798233
 20
-135.1163004219501
 10
94.73736976798233
 20
-135.1163004219501
 10
95.56936032767017
 20
-135.1163004219501
 10
95.56936032767017
 20
-135.1163004219501
 10
95.56936032767017
 20
-135.1163004219501
 10
95.56936032767017
 20
-135.3109483168667
 10
95.56936032767017
 20
-135.3109483168667
 10
95.56936032767017
 20
-135.3109483168667
 10
94.91169159953597
 20
-135.3109483168667
 10
94.91169159953597
 20
-135.3109483168667
 10
94.91169159953597
 20
-135.3109483168667
 10
94.84141165163688
 20
-135.7340060424554
 10
94.84141165163688
 20
-135.7340060424554
 10
94.90686846585662
 20
-135.7002441067
 10
94.99506291027902
 20
-135.6599364895225
 10
95.1218424241362
 20
-135.6599364895225
 10
95.39297143882537
 20
-135.6599364895225
 10
95.64618595699123
 20
-135.8463161552745
 10
95.64618595699123
 20
-136.1594753348838
 10
95.64618595699123
 20
-136.4767686290753
 10
95.40675182076637
 20
-136.7113796316208
 10
95.08325735470142
 20
-136.7113796316208
 97
        0
 97
        0
 75
     2
 76
     1
 98
        0
  0
ENDBLK
  5
6D
330
6A
100
AcDbEntity
  8
0
100
AcDbBlockEnd
  0
BLOCK
  5
80
330
7E
100
AcDbEntity
  8
0
100
AcDbBlockBegin
  2
block 3
 70
     0
 10
0.0
 20
0.0
 30
0.0
  3
block 3
  1

  0
SPLINE
  5
82
330
7E
100
AcDbEntity
  8
_U+30EC_U+30A4_U+30E4_U+30FC 1
370
     0
100
AcDbSpline
210
0.0
220
0.0
230
1.0
 70
    11
 71
     3
 72
    26
 73
    22
 74
     0
 42
0.0000000001
 43
0.0000000001
 12
1.0
 22
0.0
 32
0.0
 13
1.0
 23
0.0
 33
0.0
 40
0.0
 40
0.0
 40
0.0
 40
0.0
 40
1.0
 40
1.0
 40
1.0
 40
2.0
 40
2.0
 40
2.0
 40
3.0
 40
3.0
 40
3.0
 40
4.0
 40
4.0
 40
4.0
 40
5.0
 40
5.0
 40
5.0
 40
6.0
 40
6.0
 40
6.0
 40
7.0
 40
7.0
 40
7.0
 40
7.0
 10
77.25712753059892
 20
-126.2806640309298
 30
0.0
 10
77.25712753059892
 20
-126.2806640309298
 30
0.0
 10
76.15280217280208
 20
-126.2806640309298
 30
0.0
 10
76.15280217280208
 20
-126.2806640309298
 30
0.0
 10
76.15280217280208
 20
-126.2806640309298
 30
0.0
 10
76.15280217280208
 20
-126.6330972990709
 30
0.0
 10
76.15280217280208
 20
-126.6330972990709
 30
0.0
 10
76.15280217280208
 20
-126.6330972990709
 30
0.0
 10
76.0048353217106
 20
-126.6330972990709
 30
0.0
 10
76.0048353217106
 20
-126.6330972990709
 30
0.0
 10
75.99002141112402
 20
-126.2782524640902
 30
0.0
 10
75.82706839467171
 20
-126.2286430891026
 30
0.0
 10
75.71286347933568
 20
-126.1969482106383
 30
0.0
 10
75.71286347933568
 20
-126.1969482106383
 30
0.0
 10
75.71286347933568
 20
-126.0408853851565
 30
0.0
 10
75.71286347933568
 20
-126.0408853851565
 30
0.0
 10
75.71286347933568
 20
-126.0408853851565
 30
0.0
 10
77.25712753059892
 20
-126.0408853851565
 30
0.0
 10
77.25712753059892
 20
-126.0408853851565
 30
0.0
 10
77.25712753059892
 20
-126.0408853851565
 30
0.0
 10
77.25712753059892
 20
-126.2806640309298
 30
0.0
 10
77.25712753059892
 20
-126.2806640309298
 30
0.0
  0
HATCH
  5
83
330
7E
100
AcDbEntity
  8
_U+30EC_U+30A4_U+30E4_U+30FC 1
 62
   179
420
  2234388
100
AcDbHatch
 10
0.0
 20
0.0
 30
0.0
210
0.0
220
0.0
230
1.0
  2
SOLID
 70
     1
 71
     0
 91
        1
 92
        1
 93
        1
 72
     4
 94
        3
 73
     0
 74
     1
 95
       26
 96
       22
 40
0.0
 40
0.0
 40
0.0
 40
0.0
 40
1.0
 40
1.0
 40
1.0
 40
2.0
 40
2.0
 40
2.0
 40
3.0
 40
3.0
 40
3.0
 40
4.0
 40
4.0
 40
4.0
 40
5.0
 40
5.0
 40
5.0
 40
6.0
 40
6.0
 40
6.0
 40
7.0
 40
7.0
 40
7.0
 40
7.0
 10
77.25712753059892
 20
-126.2806640309298
 10
77.25712753059892
 20
-126.2806640309298
 10
76.15280217280208
 20
-126.2806640309298
 10
76.15280217280208
 20
-126.2806640309298
 10
76.15280217280208
 20
-126.2806640309298
 10
76.15280217280208
 20
-126.6330972990709
 10
76.15280217280208
 20
-126.6330972990709
 10
76.15280217280208
 20
-126.6330972990709
 10
76.0048353217106
 20
-126.6330972990709
 10
76.0048353217106
 20
-126.6330972990709
 10
75.99002141112402
 20
-126.2782524640902
 10
75.82706839467171
 20
-126.2286430891026
 10
75.71286347933568
 20
-126.1969482106383
 10
75.71286347933568
 20
-126.1969482106383
 10
75.71286347933568
 20
-126.0408853851565
 10
75.71286347933568
 20
-126.0408853851565
 10
75.71286347933568
 20
-126.0408853851565
 10
77.25712753059892
 20
-126.0408853851565
 10
77.25712753059892
 20
-126.0408853851565
 10
77.25712753059892
 20
-126.0408853851565
 10
77.25712753059892
 20
-126.2806640309298
 10
77.25712753059892
 20
-126.2806640309298
 97
        0
 97
        0
 75
     2
 76
     1
 98
        0
  0
SPLINE
  5
84
330
7E
100
AcDbEntity
  8
_U+30EC_U+30A4_U+30E4_U+30FC 1
370
     0
100
AcDbSpline
210
0.0
220
0.0
230
1.0
 70
    11
 71
     3
 72
    53
 73
    49
 74
     0
 42
0.0000000001
 43
0.0000000001
 12
1.0
 22
0.0
 32
0.0
 13
1.0
 23
0.0
 33
0.0
 40
0.0
 40
0.0
 40
0.0
 40
0.0
 40
1.0
 40
1.0
 40
1.0
 40
2.0
 40
2.0
 40
2.0
 40
3.0
 40
3.0
 40
3.0
 40
4.0
 40
4.0
 40
4.0
 40
5.0
 40
5.0
 40
5.0
 40
6.0
 40
6.0
 40
6.0
 40
7.0
 40
7.0
 40
7.0
 40
8.0
 40
8.0
 40
8.0
 40
9.0
 40
9.0
 40
9.0
 40
10.0
 40
10.0
 40
10.0
 40
11.0
 40
11.0
 40
11.0
 40
12.0
 40
12.0
 40
12.0
 40
13.0
 40
13.0
 40
13.0
 40
14.0
 40
14.0
 40
14.0
 40
15.0
 40
15.0
 40
15.0
 40
16.0
 40
16.0
 40
16.0
 40
16.0
 10
77.30794268900635
 20
-124.9911647908008
 30
0.0
 10
77.30794268900635
 20
-125.0745361015439
 30
0.0
 10
77.29088946635436
 20
-125.1834011188778
 30
0.0
 10
77.22749970942577
 20
-125.2915771171146
 30
0.0
 10
77.11742890867204
 20
-125.4772677637696
 30
0.0
 10
76.98634302545828
 20
-125.4996608844237
 30
0.0
 10
76.87851153676996
 20
-125.5199869477867
 30
0.0
 10
76.87851153676996
 20
-125.5199869477867
 30
0.0
 10
76.87851153676996
 20
-125.282619868853
 30
0.0
 10
76.87851153676996
 20
-125.282619868853
 30
0.0
 10
77.07729354626888
 20
-125.2240532456037
 30
0.0
 10
77.10692136744203
 20
-125.0883164834849
 30
0.0
 10
77.10692136744203
 20
-124.9887532239612
 30
0.0
 10
77.10692136744203
 20
-124.8395805894498
 30
0.0
 10
77.00753036269256
 20
-124.676972082546
 30
0.0
 10
76.77481416266394
 20
-124.676972082546
 30
0.0
 10
76.51884356810987
 20
-124.676972082546
 30
0.0
 10
76.44908038453357
 20
-124.8688639010745
 30
0.0
 10
76.44908038453357
 20
-124.9977104722228
 30
0.0
 10
76.44908038453357
 20
-125.0318169175268
 30
0.0
 10
76.44908038453357
 20
-125.1834011188778
 30
0.0
 10
76.57809921045617
 20
-125.2781412447221
 30
0.0
 10
76.57809921045617
 20
-125.2781412447221
 30
0.0
 10
76.55897893051304
 20
-125.4658989486683
 30
0.0
 10
76.55897893051304
 20
-125.4658989486683
 30
0.0
 10
76.55897893051304
 20
-125.4658989486683
 30
0.0
 10
75.71286347933568
 20
-125.3370523775199
 30
0.0
 10
75.71286347933568
 20
-125.3370523775199
 30
0.0
 10
75.71286347933568
 20
-125.3370523775199
 30
0.0
 10
75.71286347933568
 20
-124.5050618178321
 30
0.0
 10
75.71286347933568
 20
-124.5050618178321
 30
0.0
 10
75.71286347933568
 20
-124.5050618178321
 30
0.0
 10
75.9075113742523
 20
-124.5050618178321
 30
0.0
 10
75.9075113742523
 20
-124.5050618178321
 30
0.0
 10
75.9075113742523
 20
-124.5050618178321
 30
0.0
 10
75.9075113742523
 20
-125.1627305459663
 30
0.0
 10
75.9075113742523
 20
-125.1627305459663
 30
0.0
 10
75.9075113742523
 20
-125.1627305459663
 30
0.0
 10
76.33056909984097
 20
-125.2330104938654
 30
0.0
 10
76.33056909984097
 20
-125.2330104938654
 30
0.0
 10
76.29663490931127
 20
-125.1675536796456
 30
0.0
 10
76.2564995469081
 20
-125.0793592352232
 30
0.0
 10
76.2564995469081
 20
-124.952579721366
 30
0.0
 10
76.2564995469081
 20
-124.6814507066769
 30
0.0
 10
76.44270695788586
 20
-124.428236188511
 30
0.0
 10
76.7556938827208
 20
-124.428236188511
 30
0.0
 10
77.07315943168658
 20
-124.428236188511
 30
0.0
 10
77.30794268900635
 20
-124.6676703247359
 30
0.0
 10
77.30794268900635
 20
-124.9911647908008
 30
0.0
  0
HATCH
  5
85
330
7E
100
AcDbEntity
  8
_U+30EC_U+30A4_U+30E4_U+30FC 1
 62
   179
420
  2234388
100
AcDbHatch
 10
0.0
 20
0.0
 30
0.0
210
0.0
220
0.0
230
1.0
  2
SOLID
 70
     1
 71
     0
 91
        1
 92
        1
 93
        1
 72
     4
 94
        3
 73
     0
 74
     1
 95
       53
 96
       49
 40
0.0
 40
0.0
 40
0.0
 40
0.0
 40
1.0
 40
1.0
 40
1.0
 40
2.0
 40
2.0
 40
2.0
 40
3.0
 40
3.0
 40
3.0
 40
4.0
 40
4.0
 40
4.0
 40
5.0
 40
5.0
 40
5.0
 40
6.0
 40
6.0
 40
6.0
 40
7.0
 40
7.0
 40
7.0
 40
8.0
 40
8.0
 40
8.0
 40
9.0
 40
9.0
 40
9.0
 40
10.0
 40
10.0
 40
10.0
 40
11.0
 40
11.0
 40
11.0
 40
12.0
 40
12.0
 40
12.0
 40
13.0
 40
13.0
 40
13.0
 40
14.0
 40
14.0
 40
14.0
 40
15.0
 40
15.0
 40
15.0
 40
16.0
 40
16.0
 40
16.0
 40
16.0
 10
77.30794268900635
 20
-124.9911647908008
 10
77.30794268900635
 20
-125.0745361015439
 10
77.29088946635436
 20
-125.1834011188778
 10
77.22749970942577
 20
-125.2915771171146
 10
77.11742890867204
 20
-125.4772677637696
 10
76.98634302545828
 20
-125.4996608844237
 10
76.87851153676996
 20
-125.5199869477867
 10
76.87851153676996
 20
-125.5199869477867
 10
76.87851153676996
 20
-125.282619868853
 10
76.87851153676996
 20
-125.282619868853
 10
77.07729354626888
 20
-125.2240532456037
 10
77.10692136744203
 20
-125.0883164834849
 10
77.10692136744203
 20
-124.9887532239612
 10
77.10692136744203
 20
-124.8395805894498
 10
77.00753036269256
 20
-124.676972082546
 10
76.77481416266394
 20
-124.676972082546
 10
76.51884356810987
 20
-124.676972082546
 10
76.44908038453357
 20
-124.8688639010745
 10
76.44908038453357
 20
-124.9977104722228
 10
76.44908038453357
 20
-125.0318169175268
 10
76.44908038453357
 20
-125.1834011188778
 10
76.57809921045617
 20
-125.2781412447221
 10
76.57809921045617
 20
-125.2781412447221
 10
76.55897893051304
 20
-125.4658989486683
 10
76.55897893051304
 20
-125.4658989486683
 10
76.55897893051304
 20
-125.4658989486683
 10
75.71286347933568
 20
-125.3370523775199
 10
75.71286347933568
 20
-125.3370523775199
 10
75.71286347933568
 20
-125.3370523775199
 10
75.71286347933568
 20
-124.5050618178321
 10
75.71286347933568
 20
-124.5050618178321
 10
75.71286347933568
 20
-124.5050618178321
 10
75.9075113742523
 20
-124.5050618178321
 10
75.9075113742523
 20
-124.5050618178321
 10
75.9075113742523
 20
-124.5050618178321
 10
75.9075113742523
 20
-125.1627305459663
 10
75.9075113742523
 20
-125.1627305459663
 10
75.9075113742523
 20
-125.1627305459663
 10
76.33056909984097
 20
-125.2330104938654
 10
76.33056909984097
 20
-125.2330104938654
 10
76.29663490931127
 20
-125.1675536796456
 10
76.2564995469081
 20
-125.0793592352232
 10
76.2564995469081
 20
-124.952579721366
 10
76.2564995469081
 20
-124.6814507066769
 10
76.44270695788586
 20
-124.428236188511
 10
76.7556938827208
 20
-124.428236188511
 10
77.07315943168658
 20
-124.428236188511
 10
77.30794268900635
 20
-124.6676703247359
 10
77.30794268900635
 20
-124.9911647908008
 97
        0
 97
        0
 75
     2
 76
     1
 98
        0
  0
ENDBLK
  5
81
330
7E
100
AcDbEntity
  8
0
100
AcDbBlockEnd
  0
BLOCK
  5
99
330
97
100
AcDbEntity
  8
0
100
AcDbBlockBegin
  2
block 4
 70
     0
 10
0.0
 20
0.0
 30
0.0
  3
block 4
  1

  0
SPLINE
  5
9B
330
97
100
AcDbEntity
  8
_U+30EC_U+30A4_U+30E4_U+30FC 1
370
     0
100
AcDbSpline
210
0.0
220
0.0
230
1.0
 70
    11
 71
     3
 72
   242
 73
   238
 74
     0
 42
0.0000000001
 43
0.0000000001
 12
1.0
 22
0.0
 32
0.0
 13
1.0
 23
0.0
 33
0.0
 40
0.0
 40
0.0
 40
0.0
 40
0.0
 40
1.0
 40
1.0
 40
1.0
 40
2.0
 40
2.0
 40
2.0
 40
3.0
 40
3.0
 40
3.0
 40
4.0
 40
4.0
 40
4.0
 40
5.0
 40
5.0
 40
5.0
 40
6.0
 40
6.0
 40
6.0
 40
7.0
 40
7.0
 40
7.0
 40
8.0
 40
8.0
 40
8.0
 40
9.0
 40
9.0
 40
9.0
 40
10.0
 40
10.0
 40
10.0
 40
11.0
 40
11.0
 40
11.0
 40
12.0
 40
12.0
 40
12.0
 40
13.0
 40
13.0
 40
13.0
 40
14.0
 40
14.0
 40
14.0
 40
15.0
 40
15.0
 40
15.0
 40
16.0
 40
16.0
 40
16.0
 40
17.0
 40
17.0
 40
17.0
 40
18.0
 40
18.0
 40
18.0
 40
19.0
 40
19.0
 40
19.0
 40
20.0
 40
20.0
 40
20.0
 40
21.0
 40
21.0
 40
21.0
 40
22.0
 40
22.0
 40
22.0
 40
23.0
 40
23.0
 40
23.0
 40
24.0
 40
24.0
 40
24.0
 40
25.0
 40
25.0
 40
25.0
 40
26.0
 40
26.0
 40
26.0
 40
27.0
 40
27.0
 40
27.0
 40
28.0
 40
28.0
 40
28.0
 40
29.0
 40
29.0
 40
29.0
 40
30.0
 40
30.0
 40
30.0
 40
31.0
 40
31.0
 40
31.0
 40
32.0
 40
32.0
 40
32.0
 40
33.0
 40
33.0
 40
33.0
 40
34.0
 40
34.0
 40
34.0
 40
35.0
 40
35.0
 40
35.0
 40
36.0
 40
36.0
 40
36.0
 40
37.0
 40
37.0
 40
37.0
 40
38.0
 40
38.0
 40
38.0
 40
39.0
 40
39.0
 40
39.0
 40
40.0
 40
40.0
 40
40.0
 40
41.0
 40
41.0
 40
41.0
 40
42.0
 40
42.0
 40
42.0
 40
43.0
 40
43.0
 40
43.0
 40
44.0
 40
44.0
 40
44.0
 40
45.0
 40
45.0
 40
45.0
 40
46.0
 40
46.0
 40
46.0
 40
47.0
 40
47.0
 40
47.0
 40
48.0
 40
48.0
 40
48.0
 40
49.0
 40
49.0
 40
49.0
 40
50.0
 40
50.0
 40
50.0
 40
51.0
 40
51.0
 40
51.0
 40
52.0
 40
52.0
 40
52.0
 40
53.0
 40
53.0
 40
53.0
 40
54.0
 40
54.0
 40
54.0
 40
55.0
 40
55.0
 40
55.0
 40
56.0
 40
56.0
 40
56.0
 40
57.0
 40
57.0
 40
57.0
 40
58.0
 40
58.0
 40
58.0
 40
59.0
 40
59.0
 40
59.0
 40
60.0
 40
60.0
 40
60.0
 40
61.0
 40
61.0
 40
61.0
 40
62.0
 40
62.0
 40
62.0
 40
63.0
 40
63.0
 40
63.0
 40
64.0
 40
64.0
 40
64.0
 40
65.0
 40
65.0
 40
65.0
 40
66.0
 40
66.0
 40
66.0
 40
67.0
 40
67.0
 40
67.0
 40
68.0
 40
68.0
 40
68.0
 40
69.0
 40
69.0
 40
69.0
 40
70.0
 40
70.0
 40
70.0
 40
71.0
 40
71.0
 40
71.0
 40
72.0
 40
72.0
 40
72.0
 40
73.0
 40
73.0
 40
73.0
 40
74.0
 40
74.0
 40
74.0
 40
75.0
 40
75.0
 40
75.0
 40
76.0
 40
76.0
 40
76.0
 40
77.0
 40
77.0
 40
77.0
 40
78.0
 40
78.0
 40
78.0
 40
79.0
 40
79.0
 40
79.0
 40
79.0
 10
97.74493812660543
 20
-119.7661607230967
 30
0.0
 10
97.74493812660543
 20
-119.7661607230967
 30
0.0
 10
97.52307397735535
 20
-119.7661607230967
 30
0.0
 10
97.52307397735535
 20
-119.7661607230967
 30
0.0
 10
97.52307397735535
 20
-119.7661607230967
 30
0.0
 10
97.28019474564523
 20
-119.7661607230967
 30
0.0
 10
97.28019474564523
 20
-119.7661607230967
 30
0.0
 10
97.28019474564523
 20
-119.7661607230967
 30
0.0
 10
97.3914713298188
 20
-119.8085353975652
 30
0.0
 10
97.3914713298188
 20
-119.8085353975652
 30
0.0
 10
97.40077308762898
 20
-119.8128417669218
 30
0.0
 10
97.41179739318177
 20
-119.8190429387952
 30
0.0
 10
97.41179739318177
 20
-119.8317897920907
 30
0.0
 10
97.41179739318177
 20
-119.852977129325
 30
0.0
 10
97.38389211975125
 20
-119.8593505559727
 30
0.0
 10
97.36563311367944
 20
-119.863484670555
 30
0.0
 10
97.35633135586926
 20
-119.8867390650804
 30
0.0
 10
97.33014863018136
 20
-119.9523681340744
 30
0.0
 10
97.31361217185216
 20
-119.9968098658341
 30
0.0
 10
97.31361217185216
 20
-119.9968098658341
 30
0.0
 10
97.55063474123735
 20
-119.9968098658341
 30
0.0
 10
97.55063474123735
 20
-119.9968098658341
 30
0.0
 10
97.63021644694662
 20
-119.9968098658341
 30
0.0
 10
97.8024712212091
 20
-119.9925034964776
 30
0.0
 10
97.92649465867811
 20
-119.9840630125387
 30
0.0
 10
97.92649465867811
 20
-119.9840630125387
 30
0.0
 10
97.92649465867811
 20
-120.1618299395776
 30
0.0
 10
97.92649465867811
 20
-120.1618299395776
 30
0.0
 10
97.85449216303638
 20
-120.157523570221
 30
0.0
 10
97.83588864741603
 20
-120.157523570221
 30
0.0
 10
97.67844778374011
 20
-120.1533894556387
 30
0.0
 10
97.65054251030959
 20
-120.3077297333779
 30
0.0
 10
97.61195744087479
 20
-120.3881727129585
 30
0.0
 10
97.57302786189148
 20
-120.4579358965348
 30
0.0
 10
97.67844778374011
 20
-120.5171915388811
 30
0.0
 10
97.77112085229334
 20
-120.5848876651663
 30
0.0
 10
97.8617268635554
 20
-120.667397702038
 30
0.0
 10
97.8617268635554
 20
-120.667397702038
 30
0.0
 10
97.75802948944938
 20
-120.8344848330726
 30
0.0
 10
97.75802948944938
 20
-120.8344848330726
 30
0.0
 10
97.73770342608641
 20
-120.8155368079038
 30
0.0
 10
97.72667912053362
 20
-120.8070963239649
 30
0.0
 10
97.62849389920399
 20
-120.7223469750277
 30
0.0
 10
97.5857747151869
 20
-120.6842786699157
 30
0.0
 10
97.53409828290815
 20
-120.6484496768691
 30
0.0
 10
97.46381833500905
 20
-120.6040079451094
 30
0.0
 10
97.2784721979026
 20
-120.7902153560872
 30
0.0
 10
97.0989827231211
 20
-120.8134697506126
 30
0.0
 10
96.84507918585818
 20
-120.8430975717858
 30
0.0
 10
96.84507918585818
 20
-120.8430975717858
 30
0.0
 10
96.75447317459611
 20
-120.6632635874557
 30
0.0
 10
96.75447317459611
 20
-120.6632635874557
 30
0.0
 10
97.03214787070725
 20
-120.6589572180992
 30
0.0
 10
97.18579912934939
 20
-120.6336357662826
 30
0.0
 10
97.31912432462856
 20
-120.5235649655288
 30
0.0
 10
97.21542695052254
 20
-120.4727498071214
 30
0.0
 10
97.13791230210441
 20
-120.4453612980137
 30
0.0
 10
97.10621742364012
 20
-120.4326144447182
 30
0.0
 10
97.08968096531092
 20
-120.4601752086002
 30
0.0
 10
97.07658960246697
 20
-120.4791232337691
 30
0.0
 10
97.05247393407022
 20
-120.5130574242988
 30
0.0
 10
97.05247393407022
 20
-120.5130574242988
 30
0.0
 10
96.88021915980772
 20
-120.4305473874271
 30
0.0
 10
96.88021915980772
 20
-120.4305473874271
 30
0.0
 10
96.95256616499798
 20
-120.3501044078465
 30
0.0
 10
97.00630965456787
 20
-120.2548475176794
 30
0.0
 10
97.056263539104
 20
-120.1533894556387
 30
0.0
 10
96.8895209176179
 20
-120.157523570221
 30
0.0
 10
96.87126191154607
 20
-120.157523570221
 30
0.0
 10
96.79891490635583
 20
-120.1618299395776
 30
0.0
 10
96.79891490635583
 20
-120.1618299395776
 30
0.0
 10
96.79891490635583
 20
-119.9840630125387
 30
0.0
 10
96.79891490635583
 20
-119.9840630125387
 30
0.0
 10
96.9212157960822
 20
-119.9904364391864
 30
0.0
 10
97.10449487589749
 20
-119.994742808543
 30
0.0
 10
97.12654348700309
 20
-119.994742808543
 30
0.0
 10
97.14135739758966
 20
-119.9608086180133
 30
0.0
 10
97.18958873438316
 20
-119.8402302760295
 30
0.0
 10
97.20612519271236
 20
-119.7661607230967
 30
0.0
 10
97.18958873438316
 20
-119.7661607230967
 30
0.0
 10
97.03387041844987
 20
-119.7725341497444
 30
0.0
 10
96.86368270147852
 20
-119.7852810030398
 30
0.0
 10
96.86368270147852
 20
-119.7852810030398
 30
0.0
 10
96.86368270147852
 20
-119.918606198319
 30
0.0
 10
96.86368270147852
 20
-119.918606198319
 30
0.0
 10
96.82096351746144
 20
-119.9439276501355
 30
0.0
 10
96.76928708518268
 20
-119.9756225285999
 30
0.0
 10
96.65249834823271
 20
-120.0412515975939
 30
0.0
 10
96.65249834823271
 20
-120.0412515975939
 30
0.0
 10
96.65249834823271
 20
-120.1871513913942
 30
0.0
 10
96.65249834823271
 20
-120.1871513913942
 30
0.0
 10
96.65249834823271
 20
-120.1871513913942
 30
0.0
 10
96.65249834823271
 20
-120.6548231035169
 30
0.0
 10
96.65249834823271
 20
-120.6548231035169
 30
0.0
 10
96.65249834823271
 20
-120.781602617374
 30
0.0
 10
96.62114797931694
 20
-120.8408582597203
 30
0.0
 10
96.37310110437895
 20
-120.8324177757815
 30
0.0
 10
96.37310110437895
 20
-120.8324177757815
 30
0.0
 10
96.28215058356835
 20
-120.6251952823437
 30
0.0
 10
96.28215058356835
 20
-120.6251952823437
 30
0.0
 10
96.3379611304294
 20
-120.6377698808649
 30
0.0
 10
96.38033580489798
 20
-120.6420762502214
 30
0.0
 10
96.41547577884752
 20
-120.6420762502214
 30
0.0
 10
96.48231063126137
 20
-120.6420762502214
 30
0.0
 10
96.49161238907155
 20
-120.618821855696
 30
0.0
 10
96.49161238907155
 20
-120.553192786702
 30
0.0
 10
96.49161238907155
 20
-120.553192786702
 30
0.0
 10
96.49161238907155
 20
-120.1237616344656
 30
0.0
 10
96.49161238907155
 20
-120.1237616344656
 30
0.0
 10
96.40617402103734
 20
-120.1638969968688
 30
0.0
 10
96.39136011045078
 20
-120.1702704235165
 30
0.0
 10
96.35070798372483
 20
-120.1893907034596
 30
0.0
 10
96.34691837869106
 20
-120.2104057859196
 30
0.0
 10
96.3434732832058
 20
-120.2400336070928
 30
0.0
 10
96.32659231532809
 20
-120.2400336070928
 30
0.0
 10
96.31935761480905
 20
-120.2400336070928
 30
0.0
 10
96.31005585699889
 20
-120.2358994925105
 30
0.0
 10
96.30454370422248
 20
-120.212645097985
 30
0.0
 10
96.30454370422248
 20
-120.212645097985
 30
0.0
 10
96.2580349151716
 20
-120.0200642603596
 30
0.0
 10
96.2580349151716
 20
-120.0200642603596
 30
0.0
 10
96.38584795767437
 20
-119.9735554713087
 30
0.0
 10
96.44338105227804
 20
-119.9503010767833
 30
0.0
 10
96.49161238907155
 20
-119.929113739549
 30
0.0
 10
96.49161238907155
 20
-119.929113739549
 30
0.0
 10
96.49161238907155
 20
-119.5165635551903
 30
0.0
 10
96.49161238907155
 20
-119.5165635551903
 30
0.0
 10
96.49161238907155
 20
-119.5165635551903
 30
0.0
 10
96.44510360002067
 20
-119.5165635551903
 30
0.0
 10
96.44510360002067
 20
-119.5165635551903
 30
0.0
 10
96.44510360002067
 20
-119.5165635551903
 30
0.0
 10
96.37654619986421
 20
-119.5165635551903
 30
0.0
 10
96.37654619986421
 20
-119.5165635551903
 30
0.0
 10
96.31729055751791
 20
-119.5165635551903
 30
0.0
 10
96.31005585699889
 20
-119.5165635551903
 30
0.0
 10
96.2787054880831
 20
-119.522936981838
 30
0.0
 10
96.2787054880831
 20
-119.522936981838
 30
0.0
 10
96.2787054880831
 20
-119.3282890869214
 30
0.0
 10
96.2787054880831
 20
-119.3282890869214
 30
0.0
 10
96.30247664693132
 20
-119.3346625135691
 30
0.0
 10
96.31005585699889
 20
-119.3346625135691
 30
0.0
 10
96.3710340470878
 20
-119.3346625135691
 30
0.0
 10
96.3710340470878
 20
-119.3346625135691
 30
0.0
 10
96.48782278403777
 20
-119.3346625135691
 30
0.0
 10
96.48782278403777
 20
-119.3346625135691
 30
0.0
 10
96.48782278403777
 20
-119.2648993299928
 30
0.0
 10
96.48782278403777
 20
-119.1823892931211
 30
0.0
 10
96.48610023629514
 20
-119.1780829237645
 30
0.0
 10
96.4785210262276
 20
-118.9982489394345
 30
0.0
 10
96.4785210262276
 20
-118.9793009142656
 30
0.0
 10
96.47679847848497
 20
-118.9327921252147
 30
0.0
 10
96.47679847848497
 20
-118.9327921252147
 30
0.0
 10
96.66558971107666
 20
-118.9412326091536
 30
0.0
 10
96.66558971107666
 20
-118.9412326091536
 30
0.0
 10
96.67489146888684
 20
-118.9412326091536
 30
0.0
 10
96.69349498450718
 20
-118.9432996664447
 30
0.0
 10
96.69349498450718
 20
-118.9601806343225
 30
0.0
 10
96.69349498450718
 20
-118.9793009142656
 30
0.0
 10
96.68040362166323
 20
-118.9898084554956
 30
0.0
 10
96.65801050100912
 20
-119.0089287354387
 30
0.0
 10
96.65801050100912
 20
-119.0595716390719
 30
0.0
 10
96.65249834823271
 20
-119.2881537245182
 30
0.0
 10
96.65456540552387
 20
-119.3346625135691
 30
0.0
 10
96.76722002789154
 20
-119.3346625135691
 30
0.0
 10
96.77858884299286
 20
-119.3346625135691
 30
0.0
 10
96.86368270147852
 20
-119.3262220296303
 30
0.0
 10
96.86368270147852
 20
-119.3262220296303
 30
0.0
 10
96.86368270147852
 20
-119.5208699245469
 30
0.0
 10
96.86368270147852
 20
-119.5208699245469
 30
0.0
 10
96.8302652752716
 20
-119.5186306124815
 30
0.0
 10
96.77100963292531
 20
-119.5144964978992
 30
0.0
 10
96.65249834823271
 20
-119.5165635551903
 30
0.0
 10
96.65249834823271
 20
-119.5165635551903
 30
0.0
 10
96.65249834823271
 20
-119.8550441866161
 30
0.0
 10
96.65249834823271
 20
-119.8550441866161
 30
0.0
 10
96.70072968502622
 20
-119.8317897920907
 30
0.0
 10
96.75826277962989
 20
-119.8042290282087
 30
0.0
 10
96.80063745409845
 20
-119.7809746336832
 30
0.0
 10
96.80063745409845
 20
-119.7809746336832
 30
0.0
 10
96.80063745409845
 20
-119.6033799614186
 30
0.0
 10
96.80063745409845
 20
-119.6033799614186
 30
0.0
 10
96.90088973271922
 20
-119.6159545599398
 30
0.0
 10
97.00424259727671
 20
-119.6159545599398
 30
0.0
 10
97.10621742364012
 20
-119.6159545599398
 30
0.0
 10
97.08589136027715
 20
-119.5208699245469
 30
0.0
 10
97.0617756918804
 20
-119.4383598876751
 30
0.0
 10
97.00630965456787
 20
-119.305034692396
 30
0.0
 10
96.96738007558454
 20
-119.3071017496871
 30
0.0
 10
96.8950330703943
 20
-119.3114081190437
 30
0.0
 10
96.86196015373591
 20
-119.3134751763348
 30
0.0
 10
96.86196015373591
 20
-119.3134751763348
 30
0.0
 10
96.86196015373591
 20
-119.1336411920048
 30
0.0
 10
96.86196015373591
 20
-119.1336411920048
 30
0.0
 10
96.97116968061832
 20
-119.1420816759437
 30
0.0
 10
97.12275388196932
 20
-119.1463880453002
 30
0.0
 10
97.19510088715957
 20
-119.1463880453002
 30
0.0
 10
97.19510088715957
 20
-119.1463880453002
 30
0.0
 10
97.26744789234981
 20
-119.1463880453002
 30
0.0
 10
97.26744789234981
 20
-119.1463880453002
 30
0.0
 10
97.26744789234981
 20
-118.9834350288479
 30
0.0
 10
97.26744789234981
 20
-118.9729274876179
 30
0.0
 10
97.26538083505866
 20
-118.9179782146281
 30
0.0
 10
97.26538083505866
 20
-118.9179782146281
 30
0.0
 10
97.4617512777179
 20
-118.9432996664447
 30
0.0
 10
97.4617512777179
 20
-118.9432996664447
 30
0.0
 10
97.46554088275167
 20
-118.9432996664447
 30
0.0
 10
97.48414439837202
 20
-118.9453667237359
 30
0.0
 10
97.48414439837202
 20
-118.9622476916136
 30
0.0
 10
97.48414439837202
 20
-118.9770616022002
 30
0.0
 10
97.47484264056185
 20
-118.9856743409133
 30
0.0
 10
97.4507269721651
 20
-119.0004882514999
 30
0.0
 10
97.4452148193887
 20
-119.0659450657196
 30
0.0
 10
97.44314776209755
 20
-119.0871324029539
 30
0.0
 10
97.44314776209755
 20
-119.1463880453002
 30
0.0
 10
97.44314776209755
 20
-119.1463880453002
 30
0.0
 10
97.5265190728406
 20
-119.1463880453002
 30
0.0
 10
97.5265190728406
 20
-119.1463880453002
 30
0.0
 10
97.59886607803084
 20
-119.1463880453002
 30
0.0
 10
97.75079478893036
 20
-119.1420816759437
 30
0.0
 10
97.86000431581279
 20
-119.1336411920048
 30
0.0
 10
97.86000431581279
 20
-119.1336411920048
 30
0.0
 10
97.86000431581279
 20
-119.3134751763348
 30
0.0
 10
97.86000431581279
 20
-119.3134751763348
 30
0.0
 10
97.83382159012488
 20
-119.3114081190437
 30
0.0
 10
97.73046872556739
 20
-119.3071017496871
 30
0.0
 10
97.69498424206931
 20
-119.305034692396
 30
0.0
 10
97.68223738877388
 20
-119.3558498508034
 30
0.0
 10
97.65260956760073
 20
-119.4679877088483
 30
0.0
 10
97.59507647299706
 20
-119.6075140760009
 30
0.0
 10
97.63228350423776
 20
-119.6075140760009
 30
0.0
 10
97.87481822639936
 20
-119.588566050832
 30
0.0
 10
97.92856171596925
 20
-119.5863267387666
 30
0.0
 10
97.92856171596925
 20
-119.5863267387666
 30
0.0
 10
97.92856171596925
 20
-119.7704670924532
 30
0.0
 10
97.92856171596925
 20
-119.7704670924532
 30
0.0
 10
97.90237899028135
 20
-119.7704670924532
 30
0.0
 10
97.88756507969478
 20
-119.7661607230967
 30
0.0
 10
97.74493812660543
 20
-119.7661607230967
 30
0.0
  0
SPLINE
  5
9C
330
97
100
AcDbEntity
  8
_U+30EC_U+30A4_U+30E4_U+30FC 1
370
     0
100
AcDbSpline
210
0.0
220
0.0
230
1.0
 70
    11
 71
     3
 72
    20
 73
    16
 74
     0
 42
0.0000000001
 43
0.0000000001
 12
1.0
 22
0.0
 32
0.0
 13
1.0
 23
0.0
 33
0.0
 40
0.0
 40
0.0
 40
0.0
 40
0.0
 40
1.0
 40
1.0
 40
1.0
 40
2.0
 40
2.0
 40
2.0
 40
3.0
 40
3.0
 40
3.0
 40
4.0
 40
4.0
 40
4.0
 40
5.0
 40
5.0
 40
5.0
 40
5.0
 10
97.19510088715957
 20
-119.3009005778137
 30
0.0
 10
97.19510088715957
 20
-119.3009005778137
 30
0.0
 10
97.16754012327756
 20
-119.3009005778137
 30
0.0
 10
97.16754012327756
 20
-119.3009005778137
 30
0.0
 10
97.2081922500035
 20
-119.4002915825631
 30
0.0
 10
97.23575301388551
 20
-119.4805623073695
 30
0.0
 10
97.26538083505866
 20
-119.6075140760009
 30
0.0
 10
97.26538083505866
 20
-119.6075140760009
 30
0.0
 10
97.44693736713133
 20
-119.6075140760009
 30
0.0
 10
97.44693736713133
 20
-119.6075140760009
 30
0.0
 10
97.47484264056185
 20
-119.5144964978992
 30
0.0
 10
97.49516870392482
 20
-119.4299194037363
 30
0.0
 10
97.51549476728779
 20
-119.3009005778137
 30
0.0
 10
97.51549476728779
 20
-119.3009005778137
 30
0.0
 10
97.19510088715957
 20
-119.3009005778137
 30
0.0
 10
97.19510088715957
 20
-119.3009005778137
 30
0.0
  0
SPLINE
  5
9D
330
97
100
AcDbEntity
  8
_U+30EC_U+30A4_U+30E4_U+30FC 1
370
     0
100
AcDbSpline
210
0.0
220
0.0
230
1.0
 70
    11
 71
     3
 72
    17
 73
    13
 74
     0
 42
0.0000000001
 43
0.0000000001
 12
1.0
 22
0.0
 32
0.0
 13
1.0
 23
0.0
 33
0.0
 40
0.0
 40
0.0
 40
0.0
 40
0.0
 40
1.0
 40
1.0
 40
1.0
 40
2.0
 40
2.0
 40
2.0
 40
3.0
 40
3.0
 40
3.0
 40
4.0
 40
4.0
 40
4.0
 40
4.0
 10
97.25056692447208
 20
-120.1513223983476
 30
0.0
 10
97.23575301388551
 20
-120.1807779647465
 30
0.0
 10
97.19131128212578
 20
-120.2739677976225
 30
0.0
 10
97.18200952431562
 20
-120.2929158227914
 30
0.0
 10
97.34875214580171
 20
-120.3521714651377
 30
0.0
 10
97.36735566142205
 20
-120.3585448917854
 30
0.0
 10
97.43040090880213
 20
-120.3861056556674
 30
0.0
 10
97.4782877360471
 20
-120.2992892494391
 30
0.0
 10
97.49895830895859
 20
-120.2252196965062
 30
0.0
 10
97.51170516225402
 20
-120.1513223983476
 30
0.0
 10
97.51170516225402
 20
-120.1513223983476
 30
0.0
 10
97.25056692447208
 20
-120.1513223983476
 30
0.0
 10
97.25056692447208
 20
-120.1513223983476
 30
0.0
  0
HATCH
  5
9E
330
97
100
AcDbEntity
  8
_U+30EC_U+30A4_U+30E4_U+30FC 1
 62
   179
420
  2234388
100
AcDbHatch
 10
0.0
 20
0.0
 30
0.0
210
0.0
220
0.0
230
1.0
  2
SOLID
 70
     1
 71
     0
 91
        3
 92
        1
 93
        1
 72
     4
 94
        3
 73
     0
 74
     1
 95
      242
 96
      238
 40
0.0
 40
0.0
 40
0.0
 40
0.0
 40
1.0
 40
1.0
 40
1.0
 40
2.0
 40
2.0
 40
2.0
 40
3.0
 40
3.0
 40
3.0
 40
4.0
 40
4.0
 40
4.0
 40
5.0
 40
5.0
 40
5.0
 40
6.0
 40
6.0
 40
6.0
 40
7.0
 40
7.0
 40
7.0
 40
8.0
 40
8.0
 40
8.0
 40
9.0
 40
9.0
 40
9.0
 40
10.0
 40
10.0
 40
10.0
 40
11.0
 40
11.0
 40
11.0
 40
12.0
 40
12.0
 40
12.0
 40
13.0
 40
13.0
 40
13.0
 40
14.0
 40
14.0
 40
14.0
 40
15.0
 40
15.0
 40
15.0
 40
16.0
 40
16.0
 40
16.0
 40
17.0
 40
17.0
 40
17.0
 40
18.0
 40
18.0
 40
18.0
 40
19.0
 40
19.0
 40
19.0
 40
20.0
 40
20.0
 40
20.0
 40
21.0
 40
21.0
 40
21.0
 40
22.0
 40
22.0
 40
22.0
 40
23.0
 40
23.0
 40
23.0
 40
24.0
 40
24.0
 40
24.0
 40
25.0
 40
25.0
 40
25.0
 40
26.0
 40
26.0
 40
26.0
 40
27.0
 40
27.0
 40
27.0
 40
28.0
 40
28.0
 40
28.0
 40
29.0
 40
29.0
 40
29.0
 40
30.0
 40
30.0
 40
30.0
 40
31.0
 40
31.0
 40
31.0
 40
32.0
 40
32.0
 40
32.0
 40
33.0
 40
33.0
 40
33.0
 40
34.0
 40
34.0
 40
34.0
 40
35.0
 40
35.0
 40
35.0
 40
36.0
 40
36.0
 40
36.0
 40
37.0
 40
37.0
 40
37.0
 40
38.0
 40
38.0
 40
38.0
 40
39.0
 40
39.0
 40
39.0
 40
40.0
 40
40.0
 40
40.0
 40
41.0
 40
41.0
 40
41.0
 40
42.0
 40
42.0
 40
42.0
 40
43.0
 40
43.0
 40
43.0
 40
44.0
 40
44.0
 40
44.0
 40
45.0
 40
45.0
 40
45.0
 40
46.0
 40
46.0
 40
46.0
 40
47.0
 40
47.0
 40
47.0
 40
48.0
 40
48.0
 40
48.0
 40
49.0
 40
49.0
 40
49.0
 40
50.0
 40
50.0
 40
50.0
 40
51.0
 40
51.0
 40
51.0
 40
52.0
 40
52.0
 40
52.0
 40
53.0
 40
53.0
 40
53.0
 40
54.0
 40
54.0
 40
54.0
 40
55.0
 40
55.0
 40
55.0
 40
56.0
 40
56.0
 40
56.0
 40
57.0
 40
57.0
 40
57.0
 40
58.0
 40
58.0
 40
58.0
 40
59.0
 40
59.0
 40
59.0
 40
60.0
 40
60.0
 40
60.0
 40
61.0
 40
61.0
 40
61.0
 40
62.0
 40
62.0
 40
62.0
 40
63.0
 40
63.0
 40
63.0
 40
64.0
 40
64.0
 40
64.0
 40
65.0
 40
65.0
 40
65.0
 40
66.0
 40
66.0
 40
66.0
 40
67.0
 40
67.0
 40
67.0
 40
68.0
 40
68.0
 40
68.0
 40
69.0
 40
69.0
 40
69.0
 40
70.0
 40
70.0
 40
70.0
 40
71.0
 40
71.0
 40
71.0
 40
72.0
 40
72.0
 40
72.0
 40
73.0
 40
73.0
 40
73.0
 40
74.0
 40
74.0
 40
74.0
 40
75.0
 40
75.0
 40
75.0
 40
76.0
 40
76.0
 40
76.0
 40
77.0
 40
77.0
 40
77.0
 40
78.0
 40
78.0
 40
78.0
 40
79.0
 40
79.0
 40
79.0
 40
79.0
 10
97.74493812660543
 20
-119.7661607230967
 10
97.74493812660543
 20
-119.7661607230967
 10
97.52307397735535
 20
-119.7661607230967
 10
97.52307397735535
 20
-119.7661607230967
 10
97.52307397735535
 20
-119.7661607230967
 10
97.28019474564523
 20
-119.7661607230967
 10
97.28019474564523
 20
-119.7661607230967
 10
97.28019474564523
 20
-119.7661607230967
 10
97.3914713298188
 20
-119.8085353975652
 10
97.3914713298188
 20
-119.8085353975652
 10
97.40077308762898
 20
-119.8128417669218
 10
97.41179739318177
 20
-119.8190429387952
 10
97.41179739318177
 20
-119.8317897920907
 10
97.41179739318177
 20
-119.852977129325
 10
97.38389211975125
 20
-119.8593505559727
 10
97.36563311367944
 20
-119.863484670555
 10
97.35633135586926
 20
-119.8867390650804
 10
97.33014863018136
 20
-119.9523681340744
 10
97.31361217185216
 20
-119.9968098658341
 10
97.31361217185216
 20
-119.9968098658341
 10
97.55063474123735
 20
-119.9968098658341
 10
97.55063474123735
 20
-119.9968098658341
 10
97.63021644694662
 20
-119.9968098658341
 10
97.8024712212091
 20
-119.9925034964776
 10
97.92649465867811
 20
-119.9840630125387
 10
97.92649465867811
 20
-119.9840630125387
 10
97.92649465867811
 20
-120.1618299395776
 10
97.92649465867811
 20
-120.1618299395776
 10
97.85449216303638
 20
-120.157523570221
 10
97.83588864741603
 20
-120.157523570221
 10
97.67844778374011
 20
-120.1533894556387
 10
97.65054251030959
 20
-120.3077297333779
 10
97.61195744087479
 20
-120.3881727129585
 10
97.57302786189148
 20
-120.4579358965348
 10
97.67844778374011
 20
-120.5171915388811
 10
97.77112085229334
 20
-120.5848876651663
 10
97.8617268635554
 20
-120.667397702038
 10
97.8617268635554
 20
-120.667397702038
 10
97.75802948944938
 20
-120.8344848330726
 10
97.75802948944938
 20
-120.8344848330726
 10
97.73770342608641
 20
-120.8155368079038
 10
97.72667912053362
 20
-120.8070963239649
 10
97.62849389920399
 20
-120.7223469750277
 10
97.5857747151869
 20
-120.6842786699157
 10
97.53409828290815
 20
-120.6484496768691
 10
97.46381833500905
 20
-120.6040079451094
 10
97.2784721979026
 20
-120.7902153560872
 10
97.0989827231211
 20
-120.8134697506126
 10
96.84507918585818
 20
-120.8430975717858
 10
96.84507918585818
 20
-120.8430975717858
 10
96.75447317459611
 20
-120.6632635874557
 10
96.75447317459611
 20
-120.6632635874557
 10
97.03214787070725
 20
-120.6589572180992
 10
97.18579912934939
 20
-120.6336357662826
 10
97.31912432462856
 20
-120.5235649655288
 10
97.21542695052254
 20
-120.4727498071214
 10
97.13791230210441
 20
-120.4453612980137
 10
97.10621742364012
 20
-120.4326144447182
 10
97.08968096531092
 20
-120.4601752086002
 10
97.07658960246697
 20
-120.4791232337691
 10
97.05247393407022
 20
-120.5130574242988
 10
97.05247393407022
 20
-120.5130574242988
 10
96.88021915980772
 20
-120.4305473874271
 10
96.88021915980772
 20
-120.4305473874271
 10
96.95256616499798
 20
-120.3501044078465
 10
97.00630965456787
 20
-120.2548475176794
 10
97.056263539104
 20
-120.1533894556387
 10
96.8895209176179
 20
-120.157523570221
 10
96.87126191154607
 20
-120.157523570221
 10
96.79891490635583
 20
-120.1618299395776
 10
96.79891490635583
 20
-120.1618299395776
 10
96.79891490635583
 20
-119.9840630125387
 10
96.79891490635583
 20
-119.9840630125387
 10
96.9212157960822
 20
-119.9904364391864
 10
97.10449487589749
 20
-119.994742808543
 10
97.12654348700309
 20
-119.994742808543
 10
97.14135739758966
 20
-119.9608086180133
 10
97.18958873438316
 20
-119.8402302760295
 10
97.20612519271236
 20
-119.7661607230967
 10
97.18958873438316
 20
-119.7661607230967
 10
97.03387041844987
 20
-119.7725341497444
 10
96.86368270147852
 20
-119.7852810030398
 10
96.86368270147852
 20
-119.7852810030398
 10
96.86368270147852
 20
-119.918606198319
 10
96.86368270147852
 20
-119.918606198319
 10
96.82096351746144
 20
-119.9439276501355
 10
96.76928708518268
 20
-119.9756225285999
 10
96.65249834823271
 20
-120.0412515975939
 10
96.65249834823271
 20
-120.0412515975939
 10
96.65249834823271
 20
-120.1871513913942
 10
96.65249834823271
 20
-120.1871513913942
 10
96.65249834823271
 20
-120.1871513913942
 10
96.65249834823271
 20
-120.6548231035169
 10
96.65249834823271
 20
-120.6548231035169
 10
96.65249834823271
 20
-120.781602617374
 10
96.62114797931694
 20
-120.8408582597203
 10
96.37310110437895
 20
-120.8324177757815
 10
96.37310110437895
 20
-120.8324177757815
 10
96.28215058356835
 20
-120.6251952823437
 10
96.28215058356835
 20
-120.6251952823437
 10
96.3379611304294
 20
-120.6377698808649
 10
96.38033580489798
 20
-120.6420762502214
 10
96.41547577884752
 20
-120.6420762502214
 10
96.48231063126137
 20
-120.6420762502214
 10
96.49161238907155
 20
-120.618821855696
 10
96.49161238907155
 20
-120.553192786702
 10
96.49161238907155
 20
-120.553192786702
 10
96.49161238907155
 20
-120.1237616344656
 10
96.49161238907155
 20
-120.1237616344656
 10
96.40617402103734
 20
-120.1638969968688
 10
96.39136011045078
 20
-120.1702704235165
 10
96.35070798372483
 20
-120.1893907034596
 10
96.34691837869106
 20
-120.2104057859196
 10
96.3434732832058
 20
-120.2400336070928
 10
96.32659231532809
 20
-120.2400336070928
 10
96.31935761480905
 20
-120.2400336070928
 10
96.31005585699889
 20
-120.2358994925105
 10
96.30454370422248
 20
-120.212645097985
 10
96.30454370422248
 20
-120.212645097985
 10
96.2580349151716
 20
-120.0200642603596
 10
96.2580349151716
 20
-120.0200642603596
 10
96.38584795767437
 20
-119.9735554713087
 10
96.44338105227804
 20
-119.9503010767833
 10
96.49161238907155
 20
-119.929113739549
 10
96.49161238907155
 20
-119.929113739549
 10
96.49161238907155
 20
-119.5165635551903
 10
96.49161238907155
 20
-119.5165635551903
 10
96.49161238907155
 20
-119.5165635551903
 10
96.44510360002067
 20
-119.5165635551903
 10
96.44510360002067
 20
-119.5165635551903
 10
96.44510360002067
 20
-119.5165635551903
 10
96.37654619986421
 20
-119.5165635551903
 10
96.37654619986421
 20
-119.5165635551903
 10
96.31729055751791
 20
-119.5165635551903
 10
96.31005585699889
 20
-119.5165635551903
 10
96.2787054880831
 20
-119.522936981838
 10
96.2787054880831
 20
-119.522936981838
 10
96.2787054880831
 20
-119.3282890869214
 10
96.2787054880831
 20
-119.3282890869214
 10
96.30247664693132
 20
-119.3346625135691
 10
96.31005585699889
 20
-119.3346625135691
 10
96.3710340470878
 20
-119.3346625135691
 10
96.3710340470878
 20
-119.3346625135691
 10
96.48782278403777
 20
-119.3346625135691
 10
96.48782278403777
 20
-119.3346625135691
 10
96.48782278403777
 20
-119.2648993299928
 10
96.48782278403777
 20
-119.1823892931211
 10
96.48610023629514
 20
-119.1780829237645
 10
96.4785210262276
 20
-118.9982489394345
 10
96.4785210262276
 20
-118.9793009142656
 10
96.47679847848497
 20
-118.9327921252147
 10
96.47679847848497
 20
-118.9327921252147
 10
96.66558971107666
 20
-118.9412326091536
 10
96.66558971107666
 20
-118.9412326091536
 10
96.67489146888684
 20
-118.9412326091536
 10
96.69349498450718
 20
-118.9432996664447
 10
96.69349498450718
 20
-118.9601806343225
 10
96.69349498450718
 20
-118.9793009142656
 10
96.68040362166323
 20
-118.9898084554956
 10
96.65801050100912
 20
-119.0089287354387
 10
96.65801050100912
 20
-119.0595716390719
 10
96.65249834823271
 20
-119.2881537245182
 10
96.65456540552387
 20
-119.3346625135691
 10
96.76722002789154
 20
-119.3346625135691
 10
96.77858884299286
 20
-119.3346625135691
 10
96.86368270147852
 20
-119.3262220296303
 10
96.86368270147852
 20
-119.3262220296303
 10
96.86368270147852
 20
-119.5208699245469
 10
96.86368270147852
 20
-119.5208699245469
 10
96.8302652752716
 20
-119.5186306124815
 10
96.77100963292531
 20
-119.5144964978992
 10
96.65249834823271
 20
-119.5165635551903
 10
96.65249834823271
 20
-119.5165635551903
 10
96.65249834823271
 20
-119.8550441866161
 10
96.65249834823271
 20
-119.8550441866161
 10
96.70072968502622
 20
-119.8317897920907
 10
96.75826277962989
 20
-119.8042290282087
 10
96.80063745409845
 20
-119.7809746336832
 10
96.80063745409845
 20
-119.7809746336832
 10
96.80063745409845
 20
-119.6033799614186
 10
96.80063745409845
 20
-119.6033799614186
 10
96.90088973271922
 20
-119.6159545599398
 10
97.00424259727671
 20
-119.6159545599398
 10
97.10621742364012
 20
-119.6159545599398
 10
97.08589136027715
 20
-119.5208699245469
 10
97.0617756918804
 20
-119.4383598876751
 10
97.00630965456787
 20
-119.305034692396
 10
96.96738007558454
 20
-119.3071017496871
 10
96.8950330703943
 20
-119.3114081190437
 10
96.86196015373591
 20
-119.3134751763348
 10
96.86196015373591
 20
-119.3134751763348
 10
96.86196015373591
 20
-119.1336411920048
 10
96.86196015373591
 20
-119.1336411920048
 10
96.97116968061832
 20
-119.1420816759437
 10
97.12275388196932
 20
-119.1463880453002
 10
97.19510088715957
 20
-119.1463880453002
 10
97.19510088715957
 20
-119.1463880453002
 10
97.26744789234981
 20
-119.1463880453002
 10
97.26744789234981
 20
-119.1463880453002
 10
97.26744789234981
 20
-118.9834350288479
 10
97.26744789234981
 20
-118.9729274876179
 10
97.26538083505866
 20
-118.9179782146281
 10
97.26538083505866
 20
-118.9179782146281
 10
97.4617512777179
 20
-118.9432996664447
 10
97.4617512777179
 20
-118.9432996664447
 10
97.46554088275167
 20
-118.9432996664447
 10
97.48414439837202
 20
-118.9453667237359
 10
97.48414439837202
 20
-118.9622476916136
 10
97.48414439837202
 20
-118.9770616022002
 10
97.47484264056185
 20
-118.9856743409133
 10
97.4507269721651
 20
-119.0004882514999
 10
97.4452148193887
 20
-119.0659450657196
 10
97.44314776209755
 20
-119.0871324029539
 10
97.44314776209755
 20
-119.1463880453002
 10
97.44314776209755
 20
-119.1463880453002
 10
97.5265190728406
 20
-119.1463880453002
 10
97.5265190728406
 20
-119.1463880453002
 10
97.59886607803084
 20
-119.1463880453002
 10
97.75079478893036
 20
-119.1420816759437
 10
97.86000431581279
 20
-119.1336411920048
 10
97.86000431581279
 20
-119.1336411920048
 10
97.86000431581279
 20
-119.3134751763348
 10
97.86000431581279
 20
-119.3134751763348
 10
97.83382159012488
 20
-119.3114081190437
 10
97.73046872556739
 20
-119.3071017496871
 10
97.69498424206931
 20
-119.305034692396
 10
97.68223738877388
 20
-119.3558498508034
 10
97.65260956760073
 20
-119.4679877088483
 10
97.59507647299706
 20
-119.6075140760009
 10
97.63228350423776
 20
-119.6075140760009
 10
97.87481822639936
 20
-119.588566050832
 10
97.92856171596925
 20
-119.5863267387666
 10
97.92856171596925
 20
-119.5863267387666
 10
97.92856171596925
 20
-119.7704670924532
 10
97.92856171596925
 20
-119.7704670924532
 10
97.90237899028135
 20
-119.7704670924532
 10
97.88756507969478
 20
-119.7661607230967
 10
97.74493812660543
 20
-119.7661607230967
 97
        0
 97
        0
 92
        1
 93
        1
 72
     4
 94
        3
 73
     0
 74
     1
 95
       20
 96
       16
 40
0.0
 40
0.0
 40
0.0
 40
0.0
 40
1.0
 40
1.0
 40
1.0
 40
2.0
 40
2.0
 40
2.0
 40
3.0
 40
3.0
 40
3.0
 40
4.0
 40
4.0
 40
4.0
 40
5.0
 40
5.0
 40
5.0
 40
5.0
 10
97.19510088715957
 20
-119.3009005778137
 10
97.19510088715957
 20
-119.3009005778137
 10
97.16754012327756
 20
-119.3009005778137
 10
97.16754012327756
 20
-119.3009005778137
 10
97.2081922500035
 20
-119.4002915825631
 10
97.23575301388551
 20
-119.4805623073695
 10
97.26538083505866
 20
-119.6075140760009
 10
97.26538083505866
 20
-119.6075140760009
 10
97.44693736713133
 20
-119.6075140760009
 10
97.44693736713133
 20
-119.6075140760009
 10
97.47484264056185
 20
-119.5144964978992
 10
97.49516870392482
 20
-119.4299194037363
 10
97.51549476728779
 20
-119.3009005778137
 10
97.51549476728779
 20
-119.3009005778137
 10
97.19510088715957
 20
-119.3009005778137
 10
97.19510088715957
 20
-119.3009005778137
 97
        0
 97
        0
 92
        1
 93
        1
 72
     4
 94
        3
 73
     0
 74
     1
 95
       17
 96
       13
 40
0.0
 40
0.0
 40
0.0
 40
0.0
 40
1.0
 40
1.0
 40
1.0
 40
2.0
 40
2.0
 40
2.0
 40
3.0
 40
3.0
 40
3.0
 40
4.0
 40
4.0
 40
4.0
 40
4.0
 10
97.25056692447208
 20
-120.1513223983476
 10
97.23575301388551
 20
-120.1807779647465
 10
97.19131128212578
 20
-120.2739677976225
 10
97.18200952431562
 20
-120.2929158227914
 10
97.34875214580171
 20
-120.3521714651377
 10
97.36735566142205
 20
-120.3585448917854
 10
97.43040090880213
 20
-120.3861056556674
 10
97.4782877360471
 20
-120.2992892494391
 10
97.49895830895859
 20
-120.2252196965062
 10
97.51170516225402
 20
-120.1513223983476
 10
97.51170516225402
 20
-120.1513223983476
 10
97.25056692447208
 20
-120.1513223983476
 10
97.25056692447208
 20
-120.1513223983476
 97
        0
 97
        0
 75
     2
 76
     1
 98
        0
  0
SPLINE
  5
9F
330
97
100
AcDbEntity
  8
_U+30EC_U+30A4_U+30E4_U+30FC 1
370
     0
100
AcDbSpline
210
0.0
220
0.0
230
1.0
 70
    11
 71
     3
 72
   203
 73
   199
 74
     0
 42
0.0000000001
 43
0.0000000001
 12
1.0
 22
0.0
 32
0.0
 13
1.0
 23
0.0
 33
0.0
 40
0.0
 40
0.0
 40
0.0
 40
0.0
 40
1.0
 40
1.0
 40
1.0
 40
2.0
 40
2.0
 40
2.0
 40
3.0
 40
3.0
 40
3.0
 40
4.0
 40
4.0
 40
4.0
 40
5.0
 40
5.0
 40
5.0
 40
6.0
 40
6.0
 40
6.0
 40
7.0
 40
7.0
 40
7.0
 40
8.0
 40
8.0
 40
8.0
 40
9.0
 40
9.0
 40
9.0
 40
10.0
 40
10.0
 40
10.0
 40
11.0
 40
11.0
 40
11.0
 40
12.0
 40
12.0
 40
12.0
 40
13.0
 40
13.0
 40
13.0
 40
14.0
 40
14.0
 40
14.0
 40
15.0
 40
15.0
 40
15.0
 40
16.0
 40
16.0
 40
16.0
 40
17.0
 40
17.0
 40
17.0
 40
18.0
 40
18.0
 40
18.0
 40
19.0
 40
19.0
 40
19.0
 40
20.0
 40
20.0
 40
20.0
 40
21.0
 40
21.0
 40
21.0
 40
22.0
 40
22.0
 40
22.0
 40
23.0
 40
23.0
 40
23.0
 40
24.0
 40
24.0
 40
24.0
 40
25.0
 40
25.0
 40
25.0
 40
26.0
 40
26.0
 40
26.0
 40
27.0
 40
27.0
 40
27.0
 40
28.0
 40
28.0
 40
28.0
 40
29.0
 40
29.0
 40
29.0
 40
30.0
 40
30.0
 40
30.0
 40
31.0
 40
31.0
 40
31.0
 40
32.0
 40
32.0
 40
32.0
 40
33.0
 40
33.0
 40
33.0
 40
34.0
 40
34.0
 40
34.0
 40
35.0
 40
35.0
 40
35.0
 40
36.0
 40
36.0
 40
36.0
 40
37.0
 40
37.0
 40
37.0
 40
38.0
 40
38.0
 40
38.0
 40
39.0
 40
39.0
 40
39.0
 40
40.0
 40
40.0
 40
40.0
 40
41.0
 40
41.0
 40
41.0
 40
42.0
 40
42.0
 40
42.0
 40
43.0
 40
43.0
 40
43.0
 40
44.0
 40
44.0
 40
44.0
 40
45.0
 40
45.0
 40
45.0
 40
46.0
 40
46.0
 40
46.0
 40
47.0
 40
47.0
 40
47.0
 40
48.0
 40
48.0
 40
48.0
 40
49.0
 40
49.0
 40
49.0
 40
50.0
 40
50.0
 40
50.0
 40
51.0
 40
51.0
 40
51.0
 40
52.0
 40
52.0
 40
52.0
 40
53.0
 40
53.0
 40
53.0
 40
54.0
 40
54.0
 40
54.0
 40
55.0
 40
55.0
 40
55.0
 40
56.0
 40
56.0
 40
56.0
 40
57.0
 40
57.0
 40
57.0
 40
58.0
 40
58.0
 40
58.0
 40
59.0
 40
59.0
 40
59.0
 40
60.0
 40
60.0
 40
60.0
 40
61.0
 40
61.0
 40
61.0
 40
62.0
 40
62.0
 40
62.0
 40
63.0
 40
63.0
 40
63.0
 40
64.0
 40
64.0
 40
64.0
 40
65.0
 40
65.0
 40
65.0
 40
66.0
 40
66.0
 40
66.0
 40
66.0
 10
99.22701820435992
 20
-119.8338568493818
 30
0.0
 10
99.22701820435992
 20
-119.8338568493818
 30
0.0
 10
98.73815915500296
 20
-119.8338568493818
 30
0.0
 10
98.73815915500296
 20
-119.8338568493818
 30
0.0
 10
98.72885739719278
 20
-119.8782985811415
 30
0.0
 10
98.72162269667376
 20
-119.9099934596058
 30
0.0
 10
98.71025388157244
 20
-119.9482340194921
 30
0.0
 10
98.73264700222657
 20
-119.9482340194921
 30
0.0
 10
98.74573836507051
 20
-119.9503010767833
 30
0.0
 10
98.75125051784691
 20
-119.9503010767833
 30
0.0
 10
98.75125051784691
 20
-119.9503010767833
 30
0.0
 10
98.91592608204185
 20
-119.9503010767833
 30
0.0
 10
98.91592608204185
 20
-119.9503010767833
 30
0.0
 10
98.91592608204185
 20
-119.9503010767833
 30
0.0
 10
99.24355466268912
 20
-119.9503010767833
 30
0.0
 10
99.24355466268912
 20
-119.9503010767833
 30
0.0
 10
99.28834090399737
 20
-119.9503010767833
 30
0.0
 10
99.53638777893535
 20
-119.9375542234878
 30
0.0
 10
99.56394854281736
 20
-119.9375542234878
 30
0.0
 10
99.56222599507473
 20
-119.9651149873698
 30
0.0
 10
99.5605034473321
 20
-119.9840630125387
 30
0.0
 10
99.5605034473321
 20
-120.0136908337119
 30
0.0
 10
99.55843639004095
 20
-120.0453857121762
 30
0.0
 10
99.55843639004095
 20
-120.1807779647465
 30
0.0
 10
99.55843639004095
 20
-120.2083387286285
 30
0.0
 10
99.55843639004095
 20
-120.2083387286285
 30
0.0
 10
99.55843639004095
 20
-120.4538017819525
 30
0.0
 10
99.55843639004095
 20
-120.4538017819525
 30
0.0
 10
99.55843639004095
 20
-120.4982435137123
 30
0.0
 10
99.56222599507473
 20
-120.69495846592
 30
0.0
 10
99.5660156001085
 20
-120.8472316863681
 30
0.0
 10
99.5660156001085
 20
-120.8472316863681
 30
0.0
 10
99.36792260970664
 20
-120.8472316863681
 30
0.0
 10
99.36792260970664
 20
-120.8472316863681
 30
0.0
 10
99.36792260970664
 20
-120.8472316863681
 30
0.0
 10
99.36964515744926
 20
-120.8134697506126
 30
0.0
 10
99.36964515744926
 20
-120.8134697506126
 30
0.0
 10
99.36964515744926
 20
-120.8134697506126
 30
0.0
 10
98.75504012288069
 20
-120.8134697506126
 30
0.0
 10
98.75504012288069
 20
-120.8134697506126
 30
0.0
 10
98.75504012288069
 20
-120.8134697506126
 30
0.0
 10
98.75676267062332
 20
-120.8472316863681
 30
0.0
 10
98.75676267062332
 20
-120.8472316863681
 30
0.0
 10
98.75676267062332
 20
-120.8472316863681
 30
0.0
 10
98.56590438074048
 20
-120.8472316863681
 30
0.0
 10
98.56590438074048
 20
-120.8472316863681
 30
0.0
 10
98.56969398577425
 20
-120.7922824133783
 30
0.0
 10
98.56969398577425
 20
-120.7795355600829
 30
0.0
 10
98.57520613855064
 20
-120.6653306447469
 30
0.0
 10
98.5772731958418
 20
-120.6377698808649
 30
0.0
 10
98.57899574358443
 20
-120.50461694036
 30
0.0
 10
98.57899574358443
 20
-120.4854966604168
 30
0.0
 10
98.57899574358443
 20
-120.4854966604168
 30
0.0
 10
98.57899574358443
 20
-120.2824082815613
 30
0.0
 10
98.57899574358443
 20
-120.2824082815613
 30
0.0
 10
98.45669485385805
 20
-120.5320054494677
 30
0.0
 10
98.30855574799232
 20
-120.6632635874557
 30
0.0
 10
98.21588267943909
 20
-120.7287204016755
 30
0.0
 10
98.21588267943909
 20
-120.7287204016755
 30
0.0
 10
98.06429847808809
 20
-120.5891940345228
 30
0.0
 10
98.06429847808809
 20
-120.5891940345228
 30
0.0
 10
98.14181312650622
 20
-120.5383788761154
 30
0.0
 10
98.26790362126636
 20
-120.4515624698871
 30
0.0
 10
98.38813745370157
 20
-120.2570868297448
 30
0.0
 10
98.46771915941085
 20
-120.1301350611133
 30
0.0
 10
98.52525225401452
 20
-119.9863023246041
 30
0.0
 10
98.55488007518767
 20
-119.8338568493818
 30
0.0
 10
98.35472002749466
 20
-119.8360961614472
 30
0.0
 10
98.19762367336726
 20
-119.8424695880949
 30
0.0
 10
98.11425236262421
 20
-119.8445366453861
 30
0.0
 10
98.11425236262421
 20
-119.8445366453861
 30
0.0
 10
98.11425236262421
 20
-119.6667697183472
 30
0.0
 10
98.11425236262421
 20
-119.6667697183472
 30
0.0
 10
98.28650713688671
 20
-119.6731431449949
 30
0.0
 10
98.5345540118247
 20
-119.6774495143515
 30
0.0
 10
98.66615665936125
 20
-119.6774495143515
 30
0.0
 10
98.66615665936125
 20
-119.6774495143515
 30
0.0
 10
98.85288083466179
 20
-119.6774495143515
 30
0.0
 10
98.85288083466179
 20
-119.6774495143515
 30
0.0
 10
98.85288083466179
 20
-119.6774495143515
 30
0.0
 10
98.85288083466179
 20
-119.5694457708889
 30
0.0
 10
98.85288083466179
 20
-119.5694457708889
 30
0.0
 10
98.85288083466179
 20
-119.5694457708889
 30
0.0
 10
98.72541230170754
 20
-119.5694457708889
 30
0.0
 10
98.72541230170754
 20
-119.5694457708889
 30
0.0
 10
98.5772731958418
 20
-119.5694457708889
 30
0.0
 10
98.42913408997606
 20
-119.5737521402455
 30
0.0
 10
98.28271753185294
 20
-119.5801255668932
 30
0.0
 10
98.28271753185294
 20
-119.5801255668932
 30
0.0
 10
98.28271753185294
 20
-119.408732066502
 30
0.0
 10
98.28271753185294
 20
-119.408732066502
 30
0.0
 10
98.41776527487472
 20
-119.419239607732
 30
0.0
 10
98.58071829132705
 20
-119.419239607732
 30
0.0
 10
98.72541230170754
 20
-119.419239607732
 30
0.0
 10
98.72541230170754
 20
-119.419239607732
 30
0.0
 10
98.85288083466179
 20
-119.419239607732
 30
0.0
 10
98.85288083466179
 20
-119.419239607732
 30
0.0
 10
98.85288083466179
 20
-119.419239607732
 30
0.0
 10
98.85288083466179
 20
-119.3009005778137
 30
0.0
 10
98.85288083466179
 20
-119.3009005778137
 30
0.0
 10
98.85288083466179
 20
-119.3009005778137
 30
0.0
 10
98.73815915500296
 20
-119.3009005778137
 30
0.0
 10
98.73815915500296
 20
-119.3009005778137
 30
0.0
 10
98.69750702827702
 20
-119.3009005778137
 30
0.0
 10
98.51974010123813
 20
-119.3093410617525
 30
0.0
 10
98.48253306999743
 20
-119.3093410617525
 30
0.0
 10
98.30476614295854
 20
-119.3134751763348
 30
0.0
 10
98.23827580009322
 20
-119.315542233626
 30
0.0
 10
98.16971839993674
 20
-119.3177815456914
 30
0.0
 10
98.16971839993674
 20
-119.3177815456914
 30
0.0
 10
98.16971839993674
 20
-119.1336411920048
 30
0.0
 10
98.16971839993674
 20
-119.1336411920048
 30
0.0
 10
98.26962616900899
 20
-119.1420816759437
 30
0.0
 10
98.30855574799232
 20
-119.1420816759437
 30
0.0
 10
98.64376353870712
 20
-119.1506944146568
 30
0.0
 10
98.58829750139459
 20
-119.0554375244896
 30
0.0
 10
98.56418183299785
 20
-119.0278767606076
 30
0.0
 10
98.53248695453355
 20
-118.9918755127868
 30
0.0
 10
98.53248695453355
 20
-118.9918755127868
 30
0.0
 10
98.68648272272422
 20
-118.909365475915
 30
0.0
 10
98.68648272272422
 20
-118.909365475915
 30
0.0
 10
98.72162269667376
 20
-118.9453667237359
 30
0.0
 10
98.76055227565709
 20
-118.9877413982045
 30
0.0
 10
98.82532007077978
 20
-119.0976399441839
 30
0.0
 10
98.82532007077978
 20
-119.0976399441839
 30
0.0
 10
98.72541230170754
 20
-119.1527614719479
 30
0.0
 10
98.72541230170754
 20
-119.1527614719479
 30
0.0
 10
98.72541230170754
 20
-119.1527614719479
 30
0.0
 10
98.73436954996919
 20
-119.1527614719479
 30
0.0
 10
98.73436954996919
 20
-119.1527614719479
 30
0.0
 10
98.73436954996919
 20
-119.1527614719479
 30
0.0
 10
99.19187823041037
 20
-119.1527614719479
 30
0.0
 10
99.19187823041037
 20
-119.1527614719479
 30
0.0
 10
99.19187823041037
 20
-119.1527614719479
 30
0.0
 10
99.10850691966732
 20
-119.1083197401882
 30
0.0
 10
99.10850691966732
 20
-119.1083197401882
 30
0.0
 10
99.13262258806407
 20
-119.0702514350762
 30
0.0
 10
99.18257647260019
 20
-118.9898084554956
 30
0.0
 10
99.19566783544414
 20
-118.9157389025627
 30
0.0
 10
99.19566783544414
 20
-118.9157389025627
 30
0.0
 10
99.38273652029321
 20
-118.9793009142656
 30
0.0
 10
99.38273652029321
 20
-118.9793009142656
 30
0.0
 10
99.38997122081223
 20
-118.9813679715568
 30
0.0
 10
99.40857473643258
 20
-118.9918755127868
 30
0.0
 10
99.40857473643258
 20
-119.013062850021
 30
0.0
 10
99.40857473643258
 20
-119.051131155133
 30
0.0
 10
99.35104164182891
 20
-119.051131155133
 30
0.0
 10
99.33450518349972
 20
-119.051131155133
 30
0.0
 10
99.32520342568954
 20
-119.0702514350762
 30
0.0
 10
99.30487736232656
 20
-119.1103867974794
 30
0.0
 10
99.27903914618719
 20
-119.1506944146568
 30
0.0
 10
99.62871633794005
 20
-119.1443209880091
 30
0.0
 10
99.65489906362795
 20
-119.1420816759437
 30
0.0
 10
99.72138940649327
 20
-119.1358805040702
 30
0.0
 10
99.72138940649327
 20
-119.1358805040702
 30
0.0
 10
99.72138940649327
 20
-119.3177815456914
 30
0.0
 10
99.72138940649327
 20
-119.3177815456914
 30
0.0
 10
99.70485294816407
 20
-119.3177815456914
 30
0.0
 10
99.68245982750994
 20
-119.315542233626
 30
0.0
 10
99.48987898988447
 20
-119.3071017496871
 30
0.0
 10
99.44543725812476
 20
-119.305034692396
 30
0.0
 10
99.25285642049928
 20
-119.3009005778137
 30
0.0
 10
99.21392684151597
 20
-119.3009005778137
 30
0.0
 10
99.21392684151597
 20
-119.3009005778137
 30
0.0
 10
99.02513560892427
 20
-119.3009005778137
 30
0.0
 10
99.02513560892427
 20
-119.3009005778137
 30
0.0
 10
99.02513560892427
 20
-119.3009005778137
 30
0.0
 10
99.02513560892427
 20
-119.419239607732
 30
0.0
 10
99.02513560892427
 20
-119.419239607732
 30
0.0
 10
99.02513560892427
 20
-119.419239607732
 30
0.0
 10
99.1770643198238
 20
-119.419239607732
 30
0.0
 10
99.1770643198238
 20
-119.419239607732
 30
0.0
 10
99.31969127291313
 20
-119.419239607732
 30
0.0
 10
99.48643389439923
 20
-119.419239607732
 30
0.0
 10
99.62320418516364
 20
-119.408732066502
 30
0.0
 10
99.62320418516364
 20
-119.408732066502
 30
0.0
 10
99.62320418516364
 20
-119.5801255668932
 30
0.0
 10
99.62320418516364
 20
-119.5801255668932
 30
0.0
 10
99.43992510534835
 20
-119.5716850829543
 30
0.0
 10
99.26767033108587
 20
-119.5694457708889
 30
0.0
 10
99.1770643198238
 20
-119.5694457708889
 30
0.0
 10
99.1770643198238
 20
-119.5694457708889
 30
0.0
 10
99.02513560892427
 20
-119.5694457708889
 30
0.0
 10
99.02513560892427
 20
-119.5694457708889
 30
0.0
 10
99.02513560892427
 20
-119.5694457708889
 30
0.0
 10
99.02513560892427
 20
-119.6774495143515
 30
0.0
 10
99.02513560892427
 20
-119.6774495143515
 30
0.0
 10
99.02513560892427
 20
-119.6774495143515
 30
0.0
 10
99.22701820435992
 20
-119.6774495143515
 30
0.0
 10
99.22701820435992
 20
-119.6774495143515
 30
0.0
 10
99.3438069413099
 20
-119.6774495143515
 30
0.0
 10
99.59564342128165
 20
-119.6731431449949
 30
0.0
 10
99.77892250109694
 20
-119.6667697183472
 30
0.0
 10
99.77892250109694
 20
-119.6667697183472
 30
0.0
 10
99.77892250109694
 20
-119.8445366453861
 30
0.0
 10
99.77892250109694
 20
-119.8445366453861
 30
0.0
 10
99.61045733186822
 20
-119.8381632187384
 30
0.0
 10
99.33622773124233
 20
-119.8338568493818
 30
0.0
 10
99.22701820435992
 20
-119.8338568493818
 30
0.0
  0
POLYLINE
  5
A0
330
97
100
AcDbEntity
  8
_U+30EC_U+30A4_U+30E4_U+30FC 1
370
     0
100
AcDb2dPolyline
 66
     1
 10
0.0
 20
0.0
 30
0.0
  0
VERTEX
  5
A1
330
A0
100
AcDbEntity
  8
_U+30EC_U+30A4_U+30E4_U+30FC 1
370
     0
100
AcDbVertex
100
AcDb2dVertex
 10
99.37136770519189
 20
-120.0898274439359
 30
0.0
  0
VERTEX
  5
A2
330
A0
100
AcDbEntity
  8
_U+30EC_U+30A4_U+30E4_U+30FC 1
370
     0
100
AcDbVertex
100
AcDb2dVertex
 10
98.75297306558954
 20
-120.0898274439359
 30
0.0
  0
VERTEX
  5
A3
330
A0
100
AcDbEntity
  8
_U+30EC_U+30A4_U+30E4_U+30FC 1
370
     0
100
AcDbVertex
100
AcDb2dVertex
 10
98.75297306558954
 20
-120.1978311873985
 30
0.0
  0
VERTEX
  5
A4
330
A0
100
AcDbEntity
  8
_U+30EC_U+30A4_U+30E4_U+30FC 1
370
     0
100
AcDbVertex
100
AcDb2dVertex
 10
99.37136770519189
 20
-120.1978311873985
 30
0.0
  0
VERTEX
  5
A5
330
A0
100
AcDbEntity
  8
_U+30EC_U+30A4_U+30E4_U+30FC 1
370
     0
100
AcDbVertex
100
AcDb2dVertex
 10
99.37136770519189
 20
-120.0898274439359
 30
0.0
  0
SEQEND
  5
A6
330
A0
100
AcDbEntity
  8
_U+30EC_U+30A4_U+30E4_U+30FC 1
370
     0
  0
POLYLINE
  5
A7
330
97
100
AcDbEntity
  8
_U+30EC_U+30A4_U+30E4_U+30FC 1
370
     0
100
AcDb2dPolyline
 66
     1
 10
0.0
 20
0.0
 30
0.0
  0
VERTEX
  5
A8
330
A7
100
AcDbEntity
  8
_U+30EC_U+30A4_U+30E4_U+30FC 1
370
     0
100
AcDbVertex
100
AcDb2dVertex
 10
99.37136770519189
 20
-120.3225436439645
 30
0.0
  0
VERTEX
  5
A9
330
A7
100
AcDbEntity
  8
_U+30EC_U+30A4_U+30E4_U+30FC 1
370
     0
100
AcDbVertex
100
AcDb2dVertex
 10
98.75297306558954
 20
-120.3225436439645
 30
0.0
  0
VERTEX
  5
AA
330
A7
100
AcDbEntity
  8
_U+30EC_U+30A4_U+30E4_U+30FC 1
370
     0
100
AcDbVertex
100
AcDb2dVertex
 10
98.75297306558954
 20
-120.4369208140748
 30
0.0
  0
VERTEX
  5
AB
330
A7
100
AcDbEntity
  8
_U+30EC_U+30A4_U+30E4_U+30FC 1
370
     0
100
AcDbVertex
100
AcDb2dVertex
 10
99.37136770519189
 20
-120.4369208140748
 30
0.0
  0
VERTEX
  5
AC
330
A7
100
AcDbEntity
  8
_U+30EC_U+30A4_U+30E4_U+30FC 1
370
     0
100
AcDbVertex
100
AcDb2dVertex
 10
99.37136770519189
 20
-120.3225436439645
 30
0.0
  0
SEQEND
  5
AD
330
A7
100
AcDbEntity
  8
_U+30EC_U+30A4_U+30E4_U+30FC 1
370
     0
  0
POLYLINE
  5
AE
330
97
100
AcDbEntity
  8
_U+30EC_U+30A4_U+30E4_U+30FC 1
370
     0
100
AcDb2dPolyline
 66
     1
 10
0.0
 20
0.0
 30
0.0
  0
VERTEX
  5
AF
330
AE
100
AcDbEntity
  8
_U+30EC_U+30A4_U+30E4_U+30FC 1
370
     0
100
AcDbVertex
100
AcDb2dVertex
 10
99.37136770519189
 20
-120.5659396399974
 30
0.0
  0
VERTEX
  5
B0
330
AE
100
AcDbEntity
  8
_U+30EC_U+30A4_U+30E4_U+30FC 1
370
     0
100
AcDbVertex
100
AcDb2dVertex
 10
98.75297306558954
 20
-120.5659396399974
 30
0.0
  0
VERTEX
  5
B1
330
AE
100
AcDbEntity
  8
_U+30EC_U+30A4_U+30E4_U+30FC 1
370
     0
100
AcDbVertex
100
AcDb2dVertex
 10
98.75297306558954
 20
-120.6801445553334
 30
0.0
  0
VERTEX
  5
B2
330
AE
100
AcDbEntity
  8
_U+30EC_U+30A4_U+30E4_U+30FC 1
370
     0
100
AcDbVertex
100
AcDb2dVertex
 10
99.37136770519189
 20
-120.6801445553334
 30
0.0
  0
VERTEX
  5
B3
330
AE
100
AcDbEntity
  8
_U+30EC_U+30A4_U+30E4_U+30FC 1
370
     0
100
AcDbVertex
100
AcDb2dVertex
 10
99.37136770519189
 20
-120.5659396399974
 30
0.0
  0
SEQEND
  5
B4
330
AE
100
AcDbEntity
  8
_U+30EC_U+30A4_U+30E4_U+30FC 1
370
     0
  0
HATCH
  5
B5
330
97
100
AcDbEntity
  8
_U+30EC_U+30A4_U+30E4_U+30FC 1
 62
   179
420
  2234388
100
AcDbHatch
 10
0.0
 20
0.0
 30
0.0
210
0.0
220
0.0
230
1.0
  2
SOLID
 70
     1
 71
     0
 91
        4
 92
        1
 93
        1
 72
     4
 94
        3
 73
     0
 74
     1
 95
      203
 96
      199
 40
0.0
 40
0.0
 40
0.0
 40
0.0
 40
1.0
 40
1.0
 40
1.0
 40
2.0
 40
2.0
 40
2.0
 40
3.0
 40
3.0
 40
3.0
 40
4.0
 40
4.0
 40
4.0
 40
5.0
 40
5.0
 40
5.0
 40
6.0
 40
6.0
 40
6.0
 40
7.0
 40
7.0
 40
7.0
 40
8.0
 40
8.0
 40
8.0
 40
9.0
 40
9.0
 40
9.0
 40
10.0
 40
10.0
 40
10.0
 40
11.0
 40
11.0
 40
11.0
 40
12.0
 40
12.0
 40
12.0
 40
13.0
 40
13.0
 40
13.0
 40
14.0
 40
14.0
 40
14.0
 40
15.0
 40
15.0
 40
15.0
 40
16.0
 40
16.0
 40
16.0
 40
17.0
 40
17.0
 40
17.0
 40
18.0
 40
18.0
 40
18.0
 40
19.0
 40
19.0
 40
19.0
 40
20.0
 40
20.0
 40
20.0
 40
21.0
 40
21.0
 40
21.0
 40
22.0
 40
22.0
 40
22.0
 40
23.0
 40
23.0
 40
23.0
 40
24.0
 40
24.0
 40
24.0
 40
25.0
 40
25.0
 40
25.0
 40
26.0
 40
26.0
 40
26.0
 40
27.0
 40
27.0
 40
27.0
 40
28.0
 40
28.0
 40
28.0
 40
29.0
 40
29.0
 40
29.0
 40
30.0
 40
30.0
 40
30.0
 40
31.0
 40
31.0
 40
31.0
 40
32.0
 40
32.0
 40
32.0
 40
33.0
 40
33.0
 40
33.0
 40
34.0
 40
34.0
 40
34.0
 40
35.0
 40
35.0
 40
35.0
 40
36.0
 40
36.0
 40
36.0
 40
37.0
 40
37.0
 40
37.0
 40
38.0
 40
38.0
 40
38.0
 40
39.0
 40
39.0
 40
39.0
 40
40.0
 40
40.0
 40
40.0
 40
41.0
 40
41.0
 40
41.0
 40
42.0
 40
42.0
 40
42.0
 40
43.0
 40
43.0
 40
43.0
 40
44.0
 40
44.0
 40
44.0
 40
45.0
 40
45.0
 40
45.0
 40
46.0
 40
46.0
 40
46.0
 40
47.0
 40
47.0
 40
47.0
 40
48.0
 40
48.0
 40
48.0
 40
49.0
 40
49.0
 40
49.0
 40
50.0
 40
50.0
 40
50.0
 40
51.0
 40
51.0
 40
51.0
 40
52.0
 40
52.0
 40
52.0
 40
53.0
 40
53.0
 40
53.0
 40
54.0
 40
54.0
 40
54.0
 40
55.0
 40
55.0
 40
55.0
 40
56.0
 40
56.0
 40
56.0
 40
57.0
 40
57.0
 40
57.0
 40
58.0
 40
58.0
 40
58.0
 40
59.0
 40
59.0
 40
59.0
 40
60.0
 40
60.0
 40
60.0
 40
61.0
 40
61.0
 40
61.0
 40
62.0
 40
62.0
 40
62.0
 40
63.0
 40
63.0
 40
63.0
 40
64.0
 40
64.0
 40
64.0
 40
65.0
 40
65.0
 40
65.0
 40
66.0
 40
66.0
 40
66.0
 40
66.0
 10
99.22701820435992
 20
-119.8338568493818
 10
99.22701820435992
 20
-119.8338568493818
 10
98.73815915500296
 20
-119.8338568493818
 10
98.73815915500296
 20
-119.8338568493818
 10
98.72885739719278
 20
-119.8782985811415
 10
98.72162269667376
 20
-119.9099934596058
 10
98.71025388157244
 20
-119.9482340194921
 10
98.73264700222657
 20
-119.9482340194921
 10
98.74573836507051
 20
-119.9503010767833
 10
98.75125051784691
 20
-119.9503010767833
 10
98.75125051784691
 20
-119.9503010767833
 10
98.91592608204185
 20
-119.9503010767833
 10
98.91592608204185
 20
-119.9503010767833
 10
98.91592608204185
 20
-119.9503010767833
 10
99.24355466268912
 20
-119.9503010767833
 10
99.24355466268912
 20
-119.9503010767833
 10
99.28834090399737
 20
-119.9503010767833
 10
99.53638777893535
 20
-119.9375542234878
 10
99.56394854281736
 20
-119.9375542234878
 10
99.56222599507473
 20
-119.9651149873698
 10
99.5605034473321
 20
-119.9840630125387
 10
99.5605034473321
 20
-120.0136908337119
 10
99.55843639004095
 20
-120.0453857121762
 10
99.55843639004095
 20
-120.1807779647465
 10
99.55843639004095
 20
-120.2083387286285
 10
99.55843639004095
 20
-120.2083387286285
 10
99.55843639004095
 20
-120.4538017819525
 10
99.55843639004095
 20
-120.4538017819525
 10
99.55843639004095
 20
-120.4982435137123
 10
99.56222599507473
 20
-120.69495846592
 10
99.5660156001085
 20
-120.8472316863681
 10
99.5660156001085
 20
-120.8472316863681
 10
99.36792260970664
 20
-120.8472316863681
 10
99.36792260970664
 20
-120.8472316863681
 10
99.36792260970664
 20
-120.8472316863681
 10
99.36964515744926
 20
-120.8134697506126
 10
99.36964515744926
 20
-120.8134697506126
 10
99.36964515744926
 20
-120.8134697506126
 10
98.75504012288069
 20
-120.8134697506126
 10
98.75504012288069
 20
-120.8134697506126
 10
98.75504012288069
 20
-120.8134697506126
 10
98.75676267062332
 20
-120.8472316863681
 10
98.75676267062332
 20
-120.8472316863681
 10
98.75676267062332
 20
-120.8472316863681
 10
98.56590438074048
 20
-120.8472316863681
 10
98.56590438074048
 20
-120.8472316863681
 10
98.56969398577425
 20
-120.7922824133783
 10
98.56969398577425
 20
-120.7795355600829
 10
98.57520613855064
 20
-120.6653306447469
 10
98.5772731958418
 20
-120.6377698808649
 10
98.57899574358443
 20
-120.50461694036
 10
98.57899574358443
 20
-120.4854966604168
 10
98.57899574358443
 20
-120.4854966604168
 10
98.57899574358443
 20
-120.2824082815613
 10
98.57899574358443
 20
-120.2824082815613
 10
98.45669485385805
 20
-120.5320054494677
 10
98.30855574799232
 20
-120.6632635874557
 10
98.21588267943909
 20
-120.7287204016755
 10
98.21588267943909
 20
-120.7287204016755
 10
98.06429847808809
 20
-120.5891940345228
 10
98.06429847808809
 20
-120.5891940345228
 10
98.14181312650622
 20
-120.5383788761154
 10
98.26790362126636
 20
-120.4515624698871
 10
98.38813745370157
 20
-120.2570868297448
 10
98.46771915941085
 20
-120.1301350611133
 10
98.52525225401452
 20
-119.9863023246041
 10
98.55488007518767
 20
-119.8338568493818
 10
98.35472002749466
 20
-119.8360961614472
 10
98.19762367336726
 20
-119.8424695880949
 10
98.11425236262421
 20
-119.8445366453861
 10
98.11425236262421
 20
-119.8445366453861
 10
98.11425236262421
 20
-119.6667697183472
 10
98.11425236262421
 20
-119.6667697183472
 10
98.28650713688671
 20
-119.6731431449949
 10
98.5345540118247
 20
-119.6774495143515
 10
98.66615665936125
 20
-119.6774495143515
 10
98.66615665936125
 20
-119.6774495143515
 10
98.85288083466179
 20
-119.6774495143515
 10
98.85288083466179
 20
-119.6774495143515
 10
98.85288083466179
 20
-119.6774495143515
 10
98.85288083466179
 20
-119.5694457708889
 10
98.85288083466179
 20
-119.5694457708889
 10
98.85288083466179
 20
-119.5694457708889
 10
98.72541230170754
 20
-119.5694457708889
 10
98.72541230170754
 20
-119.5694457708889
 10
98.5772731958418
 20
-119.5694457708889
 10
98.42913408997606
 20
-119.5737521402455
 10
98.28271753185294
 20
-119.5801255668932
 10
98.28271753185294
 20
-119.5801255668932
 10
98.28271753185294
 20
-119.408732066502
 10
98.28271753185294
 20
-119.408732066502
 10
98.41776527487472
 20
-119.419239607732
 10
98.58071829132705
 20
-119.419239607732
 10
98.72541230170754
 20
-119.419239607732
 10
98.72541230170754
 20
-119.419239607732
 10
98.85288083466179
 20
-119.419239607732
 10
98.85288083466179
 20
-119.419239607732
 10
98.85288083466179
 20
-119.419239607732
 10
98.85288083466179
 20
-119.3009005778137
 10
98.85288083466179
 20
-119.3009005778137
 10
98.85288083466179
 20
-119.3009005778137
 10
98.73815915500296
 20
-119.3009005778137
 10
98.73815915500296
 20
-119.3009005778137
 10
98.69750702827702
 20
-119.3009005778137
 10
98.51974010123813
 20
-119.3093410617525
 10
98.48253306999743
 20
-119.3093410617525
 10
98.30476614295854
 20
-119.3134751763348
 10
98.23827580009322
 20
-119.315542233626
 10
98.16971839993674
 20
-119.3177815456914
 10
98.16971839993674
 20
-119.3177815456914
 10
98.16971839993674
 20
-119.1336411920048
 10
98.16971839993674
 20
-119.1336411920048
 10
98.26962616900899
 20
-119.1420816759437
 10
98.30855574799232
 20
-119.1420816759437
 10
98.64376353870712
 20
-119.1506944146568
 10
98.58829750139459
 20
-119.0554375244896
 10
98.56418183299785
 20
-119.0278767606076
 10
98.53248695453355
 20
-118.9918755127868
 10
98.53248695453355
 20
-118.9918755127868
 10
98.68648272272422
 20
-118.909365475915
 10
98.68648272272422
 20
-118.909365475915
 10
98.72162269667376
 20
-118.9453667237359
 10
98.76055227565709
 20
-118.9877413982045
 10
98.82532007077978
 20
-119.0976399441839
 10
98.82532007077978
 20
-119.0976399441839
 10
98.72541230170754
 20
-119.1527614719479
 10
98.72541230170754
 20
-119.1527614719479
 10
98.72541230170754
 20
-119.1527614719479
 10
98.73436954996919
 20
-119.1527614719479
 10
98.73436954996919
 20
-119.1527614719479
 10
98.73436954996919
 20
-119.1527614719479
 10
99.19187823041037
 20
-119.1527614719479
 10
99.19187823041037
 20
-119.1527614719479
 10
99.19187823041037
 20
-119.1527614719479
 10
99.10850691966732
 20
-119.1083197401882
 10
99.10850691966732
 20
-119.1083197401882
 10
99.13262258806407
 20
-119.0702514350762
 10
99.18257647260019
 20
-118.9898084554956
 10
99.19566783544414
 20
-118.9157389025627
 10
99.19566783544414
 20
-118.9157389025627
 10
99.38273652029321
 20
-118.9793009142656
 10
99.38273652029321
 20
-118.9793009142656
 10
99.38997122081223
 20
-118.9813679715568
 10
99.40857473643258
 20
-118.9918755127868
 10
99.40857473643258
 20
-119.013062850021
 10
99.40857473643258
 20
-119.051131155133
 10
99.35104164182891
 20
-119.051131155133
 10
99.33450518349972
 20
-119.051131155133
 10
99.32520342568954
 20
-119.0702514350762
 10
99.30487736232656
 20
-119.1103867974794
 10
99.27903914618719
 20
-119.1506944146568
 10
99.62871633794005
 20
-119.1443209880091
 10
99.65489906362795
 20
-119.1420816759437
 10
99.72138940649327
 20
-119.1358805040702
 10
99.72138940649327
 20
-119.1358805040702
 10
99.72138940649327
 20
-119.3177815456914
 10
99.72138940649327
 20
-119.3177815456914
 10
99.70485294816407
 20
-119.3177815456914
 10
99.68245982750994
 20
-119.315542233626
 10
99.48987898988447
 20
-119.3071017496871
 10
99.44543725812476
 20
-119.305034692396
 10
99.25285642049928
 20
-119.3009005778137
 10
99.21392684151597
 20
-119.3009005778137
 10
99.21392684151597
 20
-119.3009005778137
 10
99.02513560892427
 20
-119.3009005778137
 10
99.02513560892427
 20
-119.3009005778137
 10
99.02513560892427
 20
-119.3009005778137
 10
99.02513560892427
 20
-119.419239607732
 10
99.02513560892427
 20
-119.419239607732
 10
99.02513560892427
 20
-119.419239607732
 10
99.1770643198238
 20
-119.419239607732
 10
99.1770643198238
 20
-119.419239607732
 10
99.31969127291313
 20
-119.419239607732
 10
99.48643389439923
 20
-119.419239607732
 10
99.62320418516364
 20
-119.408732066502
 10
99.62320418516364
 20
-119.408732066502
 10
99.62320418516364
 20
-119.5801255668932
 10
99.62320418516364
 20
-119.5801255668932
 10
99.43992510534835
 20
-119.5716850829543
 10
99.26767033108587
 20
-119.5694457708889
 10
99.1770643198238
 20
-119.5694457708889
 10
99.1770643198238
 20
-119.5694457708889
 10
99.02513560892427
 20
-119.5694457708889
 10
99.02513560892427
 20
-119.5694457708889
 10
99.02513560892427
 20
-119.5694457708889
 10
99.02513560892427
 20
-119.6774495143515
 10
99.02513560892427
 20
-119.6774495143515
 10
99.02513560892427
 20
-119.6774495143515
 10
99.22701820435992
 20
-119.6774495143515
 10
99.22701820435992
 20
-119.6774495143515
 10
99.3438069413099
 20
-119.6774495143515
 10
99.59564342128165
 20
-119.6731431449949
 10
99.77892250109694
 20
-119.6667697183472
 10
99.77892250109694
 20
-119.6667697183472
 10
99.77892250109694
 20
-119.8445366453861
 10
99.77892250109694
 20
-119.8445366453861
 10
99.61045733186822
 20
-119.8381632187384
 10
99.33622773124233
 20
-119.8338568493818
 10
99.22701820435992
 20
-119.8338568493818
 97
        0
 97
        0
 92
        1
 93
        4
 72
     1
 10
99.37136770519189
 20
-120.0898274439359
 11
98.75297306558954
 21
-120.0898274439359
 72
     1
 10
98.75297306558954
 20
-120.0898274439359
 11
98.75297306558954
 21
-120.1978311873985
 72
     1
 10
98.75297306558954
 20
-120.1978311873985
 11
99.37136770519189
 21
-120.1978311873985
 72
     1
 10
99.37136770519189
 20
-120.1978311873985
 11
99.37136770519189
 21
-120.0898274439359
 97
        0
 92
        1
 93
        4
 72
     1
 10
99.37136770519189
 20
-120.3225436439645
 11
98.75297306558954
 21
-120.3225436439645
 72
     1
 10
98.75297306558954
 20
-120.3225436439645
 11
98.75297306558954
 21
-120.4369208140748
 72
     1
 10
98.75297306558954
 20
-120.4369208140748
 11
99.37136770519189
 21
-120.4369208140748
 72
     1
 10
99.37136770519189
 20
-120.4369208140748
 11
99.37136770519189
 21
-120.3225436439645
 97
        0
 92
        1
 93
        4
 72
     1
 10
99.37136770519189
 20
-120.5659396399974
 11
98.75297306558954
 21
-120.5659396399974
 72
     1
 10
98.75297306558954
 20
-120.5659396399974
 11
98.75297306558954
 21
-120.6801445553334
 72
     1
 10
98.75297306558954
 20
-120.6801445553334
 11
99.37136770519189
 21
-120.6801445553334
 72
     1
 10
99.37136770519189
 20
-120.6801445553334
 11
99.37136770519189
 21
-120.5659396399974
 97
        0
 75
     2
 76
     1
 98
        0
  0
SPLINE
  5
B6
330
97
100
AcDbEntity
  8
_U+30EC_U+30A4_U+30E4_U+30FC 1
370
     0
100
AcDbSpline
210
0.0
220
0.0
230
1.0
 70
    11
 71
     3
 72
    47
 73
    43
 74
     0
 42
0.0000000001
 43
0.0000000001
 12
1.0
 22
0.0
 32
0.0
 13
1.0
 23
0.0
 33
0.0
 40
0.0
 40
0.0
 40
0.0
 40
0.0
 40
1.0
 40
1.0
 40
1.0
 40
2.0
 40
2.0
 40
2.0
 40
3.0
 40
3.0
 40
3.0
 40
4.0
 40
4.0
 40
4.0
 40
5.0
 40
5.0
 40
5.0
 40
6.0
 40
6.0
 40
6.0
 40
7.0
 40
7.0
 40
7.0
 40
8.0
 40
8.0
 40
8.0
 40
9.0
 40
9.0
 40
9.0
 40
10.0
 40
10.0
 40
10.0
 40
11.0
 40
11.0
 40
11.0
 40
12.0
 40
12.0
 40
12.0
 40
13.0
 40
13.0
 40
13.0
 40
14.0
 40
14.0
 40
14.0
 40
14.0
 10
100.958867704795
 20
-119.8106024548564
 30
0.0
 10
100.958867704795
 20
-119.8106024548564
 30
0.0
 10
100.8699842412756
 20
-119.8106024548564
 30
0.0
 10
100.8699842412756
 20
-119.8106024548564
 30
0.0
 10
100.8699842412756
 20
-119.8974188610847
 30
0.0
 10
100.8513807256552
 20
-120.2867146509179
 30
0.0
 10
100.6791259513927
 20
-120.5066839976511
 30
0.0
 10
100.5458007561136
 20
-120.6758381859769
 30
0.0
 10
100.3642442240409
 20
-120.7457736243275
 30
0.0
 10
100.290174671108
 20
-120.7731621334352
 30
0.0
 10
100.290174671108
 20
-120.7731621334352
 30
0.0
 10
100.1199869541367
 20
-120.6060750024006
 30
0.0
 10
100.1199869541367
 20
-120.6060750024006
 30
0.0
 10
100.2050808126223
 20
-120.5933281491051
 30
0.0
 10
100.3587320712645
 20
-120.5700737545797
 30
0.0
 10
100.523752145008
 20
-120.3817992863108
 30
0.0
 10
100.5885199401307
 20
-120.3099690454434
 30
0.0
 10
100.6791259513927
 20
-120.1702704235165
 30
0.0
 10
100.6791259513927
 20
-119.8106024548564
 30
0.0
 10
100.6791259513927
 20
-119.8106024548564
 30
0.0
 10
100.4772433559571
 20
-119.8106024548564
 30
0.0
 10
100.4772433559571
 20
-119.8106024548564
 30
0.0
 10
100.3142903395048
 20
-119.8106024548564
 30
0.0
 10
100.1513373230524
 20
-119.8149088242129
 30
0.0
 10
99.98838430660012
 20
-119.8297227347995
 30
0.0
 10
99.98838430660012
 20
-119.8297227347995
 30
0.0
 10
99.98838430660012
 20
-119.6097533880663
 30
0.0
 10
99.98838430660012
 20
-119.6097533880663
 30
0.0
 10
100.1530598707951
 20
-119.6245672986529
 30
0.0
 10
100.4031738030242
 20
-119.6287014132352
 30
0.0
 10
100.4772433559571
 20
-119.6287014132352
 30
0.0
 10
100.4772433559571
 20
-119.6287014132352
 30
0.0
 10
100.958867704795
 20
-119.6287014132352
 30
0.0
 10
100.958867704795
 20
-119.6287014132352
 30
0.0
 10
100.9754041631242
 20
-119.6287014132352
 30
0.0
 10
101.2530788592353
 20
-119.6287014132352
 30
0.0
 10
101.4532389069284
 20
-119.6097533880663
 30
0.0
 10
101.4532389069284
 20
-119.6097533880663
 30
0.0
 10
101.4532389069284
 20
-119.8297227347995
 30
0.0
 10
101.4532389069284
 20
-119.8297227347995
 30
0.0
 10
101.2882188331849
 20
-119.8149088242129
 30
0.0
 10
101.1235432689899
 20
-119.8106024548564
 30
0.0
 10
100.958867704795
 20
-119.8106024548564
 30
0.0
  0
SPLINE
  5
B7
330
97
100
AcDbEntity
  8
_U+30EC_U+30A4_U+30E4_U+30FC 1
370
     0
100
AcDbSpline
210
0.0
220
0.0
230
1.0
 70
    11
 71
     3
 72
    29
 73
    25
 74
     0
 42
0.0000000001
 43
0.0000000001
 12
1.0
 22
0.0
 32
0.0
 13
1.0
 23
0.0
 33
0.0
 40
0.0
 40
0.0
 40
0.0
 40
0.0
 40
1.0
 40
1.0
 40
1.0
 40
2.0
 40
2.0
 40
2.0
 40
3.0
 40
3.0
 40
3.0
 40
4.0
 40
4.0
 40
4.0
 40
5.0
 40
5.0
 40
5.0
 40
6.0
 40
6.0
 40
6.0
 40
7.0
 40
7.0
 40
7.0
 40
8.0
 40
8.0
 40
8.0
 40
8.0
 10
100.8699842412756
 20
-119.2817802978705
 30
0.0
 10
100.8699842412756
 20
-119.2817802978705
 30
0.0
 10
100.5606146667001
 20
-119.2817802978705
 30
0.0
 10
100.5606146667001
 20
-119.2817802978705
 30
0.0
 10
100.4624294453705
 20
-119.2817802978705
 30
0.0
 10
100.3401285556441
 20
-119.2881537245182
 30
0.0
 10
100.2457329393483
 20
-119.3009005778137
 30
0.0
 10
100.2457329393483
 20
-119.3009005778137
 30
0.0
 10
100.2457329393483
 20
-119.0659450657196
 30
0.0
 10
100.2457329393483
 20
-119.0659450657196
 30
0.0
 10
100.3494303134543
 20
-119.0807589763062
 30
0.0
 10
100.510660782164
 20
-119.0850653456628
 30
0.0
 10
100.5606146667001
 20
-119.0850653456628
 30
0.0
 10
100.5606146667001
 20
-119.0850653456628
 30
0.0
 10
100.8699842412756
 20
-119.0850653456628
 30
0.0
 10
100.8699842412756
 20
-119.0850653456628
 30
0.0
 10
100.8865206996048
 20
-119.0850653456628
 30
0.0
 10
101.0642876266437
 20
-119.0850653456628
 30
0.0
 10
101.1883110641127
 20
-119.0659450657196
 30
0.0
 10
101.1883110641127
 20
-119.0659450657196
 30
0.0
 10
101.1883110641127
 20
-119.3009005778137
 30
0.0
 10
101.1883110641127
 20
-119.3009005778137
 30
0.0
 10
101.0511962637997
 20
-119.2817802978705
 30
0.0
 10
100.8847981518621
 20
-119.2817802978705
 30
0.0
 10
100.8699842412756
 20
-119.2817802978705
 30
0.0
  0
HATCH
  5
B8
330
97
100
AcDbEntity
  8
_U+30EC_U+30A4_U+30E4_U+30FC 1
 62
   179
420
  2234388
100
AcDbHatch
 10
0.0
 20
0.0
 30
0.0
210
0.0
220
0.0
230
1.0
  2
SOLID
 70
     1
 71
     0
 91
        2
 92
        1
 93
        1
 72
     4
 94
        3
 73
     0
 74
     1
 95
       47
 96
       43
 40
0.0
 40
0.0
 40
0.0
 40
0.0
 40
1.0
 40
1.0
 40
1.0
 40
2.0
 40
2.0
 40
2.0
 40
3.0
 40
3.0
 40
3.0
 40
4.0
 40
4.0
 40
4.0
 40
5.0
 40
5.0
 40
5.0
 40
6.0
 40
6.0
 40
6.0
 40
7.0
 40
7.0
 40
7.0
 40
8.0
 40
8.0
 40
8.0
 40
9.0
 40
9.0
 40
9.0
 40
10.0
 40
10.0
 40
10.0
 40
11.0
 40
11.0
 40
11.0
 40
12.0
 40
12.0
 40
12.0
 40
13.0
 40
13.0
 40
13.0
 40
14.0
 40
14.0
 40
14.0
 40
14.0
 10
100.958867704795
 20
-119.8106024548564
 10
100.958867704795
 20
-119.8106024548564
 10
100.8699842412756
 20
-119.8106024548564
 10
100.8699842412756
 20
-119.8106024548564
 10
100.8699842412756
 20
-119.8974188610847
 10
100.8513807256552
 20
-120.2867146509179
 10
100.6791259513927
 20
-120.5066839976511
 10
100.5458007561136
 20
-120.6758381859769
 10
100.3642442240409
 20
-120.7457736243275
 10
100.290174671108
 20
-120.7731621334352
 10
100.290174671108
 20
-120.7731621334352
 10
100.1199869541367
 20
-120.6060750024006
 10
100.1199869541367
 20
-120.6060750024006
 10
100.2050808126223
 20
-120.5933281491051
 10
100.3587320712645
 20
-120.5700737545797
 10
100.523752145008
 20
-120.3817992863108
 10
100.5885199401307
 20
-120.3099690454434
 10
100.6791259513927
 20
-120.1702704235165
 10
100.6791259513927
 20
-119.8106024548564
 10
100.6791259513927
 20
-119.8106024548564
 10
100.4772433559571
 20
-119.8106024548564
 10
100.4772433559571
 20
-119.8106024548564
 10
100.3142903395048
 20
-119.8106024548564
 10
100.1513373230524
 20
-119.8149088242129
 10
99.98838430660012
 20
-119.8297227347995
 10
99.98838430660012
 20
-119.8297227347995
 10
99.98838430660012
 20
-119.6097533880663
 10
99.98838430660012
 20
-119.6097533880663
 10
100.1530598707951
 20
-119.6245672986529
 10
100.4031738030242
 20
-119.6287014132352
 10
100.4772433559571
 20
-119.6287014132352
 10
100.4772433559571
 20
-119.6287014132352
 10
100.958867704795
 20
-119.6287014132352
 10
100.958867704795
 20
-119.6287014132352
 10
100.9754041631242
 20
-119.6287014132352
 10
101.2530788592353
 20
-119.6287014132352
 10
101.4532389069284
 20
-119.6097533880663
 10
101.4532389069284
 20
-119.6097533880663
 10
101.4532389069284
 20
-119.8297227347995
 10
101.4532389069284
 20
-119.8297227347995
 10
101.2882188331849
 20
-119.8149088242129
 10
101.1235432689899
 20
-119.8106024548564
 10
100.958867704795
 20
-119.8106024548564
 97
        0
 97
        0
 92
        1
 93
        1
 72
     4
 94
        3
 73
     0
 74
     1
 95
       29
 96
       25
 40
0.0
 40
0.0
 40
0.0
 40
0.0
 40
1.0
 40
1.0
 40
1.0
 40
2.0
 40
2.0
 40
2.0
 40
3.0
 40
3.0
 40
3.0
 40
4.0
 40
4.0
 40
4.0
 40
5.0
 40
5.0
 40
5.0
 40
6.0
 40
6.0
 40
6.0
 40
7.0
 40
7.0
 40
7.0
 40
8.0
 40
8.0
 40
8.0
 40
8.0
 10
100.8699842412756
 20
-119.2817802978705
 10
100.8699842412756
 20
-119.2817802978705
 10
100.5606146667001
 20
-119.2817802978705
 10
100.5606146667001
 20
-119.2817802978705
 10
100.4624294453705
 20
-119.2817802978705
 10
100.3401285556441
 20
-119.2881537245182
 10
100.2457329393483
 20
-119.3009005778137
 10
100.2457329393483
 20
-119.3009005778137
 10
100.2457329393483
 20
-119.0659450657196
 10
100.2457329393483
 20
-119.0659450657196
 10
100.3494303134543
 20
-119.0807589763062
 10
100.510660782164
 20
-119.0850653456628
 10
100.5606146667001
 20
-119.0850653456628
 10
100.5606146667001
 20
-119.0850653456628
 10
100.8699842412756
 20
-119.0850653456628
 10
100.8699842412756
 20
-119.0850653456628
 10
100.8865206996048
 20
-119.0850653456628
 10
101.0642876266437
 20
-119.0850653456628
 10
101.1883110641127
 20
-119.0659450657196
 10
101.1883110641127
 20
-119.0659450657196
 10
101.1883110641127
 20
-119.3009005778137
 10
101.1883110641127
 20
-119.3009005778137
 10
101.0511962637997
 20
-119.2817802978705
 10
100.8847981518621
 20
-119.2817802978705
 10
100.8699842412756
 20
-119.2817802978705
 97
        0
 97
        0
 75
     2
 76
     1
 98
        0
  0
SPLINE
  5
B9
330
97
100
AcDbEntity
  8
_U+30EC_U+30A4_U+30E4_U+30FC 1
370
     0
100
AcDbSpline
210
0.0
220
0.0
230
1.0
 70
    11
 71
     3
 72
    29
 73
    25
 74
     0
 42
0.0000000001
 43
0.0000000001
 12
1.0
 22
0.0
 32
0.0
 13
1.0
 23
0.0
 33
0.0
 40
0.0
 40
0.0
 40
0.0
 40
0.0
 40
1.0
 40
1.0
 40
1.0
 40
2.0
 40
2.0
 40
2.0
 40
3.0
 40
3.0
 40
3.0
 40
4.0
 40
4.0
 40
4.0
 40
5.0
 40
5.0
 40
5.0
 40
6.0
 40
6.0
 40
6.0
 40
7.0
 40
7.0
 40
7.0
 40
8.0
 40
8.0
 40
8.0
 40
8.0
 10
102.5756510160228
 20
-119.9735554713087
 30
0.0
 10
102.5756510160228
 20
-119.9735554713087
 30
0.0
 10
102.1515597617885
 20
-119.9735554713087
 30
0.0
 10
102.1515597617885
 20
-119.9735554713087
 30
0.0
 10
102.1274440933918
 20
-119.9735554713087
 30
0.0
 10
101.8494248877321
 20
-119.9735554713087
 30
0.0
 10
101.6644232601742
 20
-119.9988769231253
 30
0.0
 10
101.6644232601742
 20
-119.9988769231253
 30
0.0
 10
101.6644232601742
 20
-119.7684000351621
 30
0.0
 10
101.6644232601742
 20
-119.7684000351621
 30
0.0
 10
101.8032606082297
 20
-119.7916544296875
 30
0.0
 10
101.9700032297158
 20
-119.7937214869787
 30
0.0
 10
102.1515597617885
 20
-119.7937214869787
 30
0.0
 10
102.1515597617885
 20
-119.7937214869787
 30
0.0
 10
102.5756510160228
 20
-119.7937214869787
 30
0.0
 10
102.5756510160228
 20
-119.7937214869787
 30
0.0
 10
102.7382595229266
 20
-119.7937214869787
 30
0.0
 10
102.9015570489274
 20
-119.7916544296875
 30
0.0
 10
103.0624430080886
 20
-119.7684000351621
 30
0.0
 10
103.0624430080886
 20
-119.7684000351621
 30
0.0
 10
103.0624430080886
 20
-119.9988769231253
 30
0.0
 10
103.0624430080886
 20
-119.9988769231253
 30
0.0
 10
102.9015570489274
 20
-119.9756225285999
 30
0.0
 10
102.6848605429052
 20
-119.9735554713087
 30
0.0
 10
102.5756510160228
 20
-119.9735554713087
 30
0.0
  0
HATCH
  5
BA
330
97
100
AcDbEntity
  8
_U+30EC_U+30A4_U+30E4_U+30FC 1
 62
   179
420
  2234388
100
AcDbHatch
 10
0.0
 20
0.0
 30
0.0
210
0.0
220
0.0
230
1.0
  2
SOLID
 70
     1
 71
     0
 91
        1
 92
        1
 93
        1
 72
     4
 94
        3
 73
     0
 74
     1
 95
       29
 96
       25
 40
0.0
 40
0.0
 40
0.0
 40
0.0
 40
1.0
 40
1.0
 40
1.0
 40
2.0
 40
2.0
 40
2.0
 40
3.0
 40
3.0
 40
3.0
 40
4.0
 40
4.0
 40
4.0
 40
5.0
 40
5.0
 40
5.0
 40
6.0
 40
6.0
 40
6.0
 40
7.0
 40
7.0
 40
7.0
 40
8.0
 40
8.0
 40
8.0
 40
8.0
 10
102.5756510160228
 20
-119.9735554713087
 10
102.5756510160228
 20
-119.9735554713087
 10
102.1515597617885
 20
-119.9735554713087
 10
102.1515597617885
 20
-119.9735554713087
 10
102.1274440933918
 20
-119.9735554713087
 10
101.8494248877321
 20
-119.9735554713087
 10
101.6644232601742
 20
-119.9988769231253
 10
101.6644232601742
 20
-119.9988769231253
 10
101.6644232601742
 20
-119.7684000351621
 10
101.6644232601742
 20
-119.7684000351621
 10
101.8032606082297
 20
-119.7916544296875
 10
101.9700032297158
 20
-119.7937214869787
 10
102.1515597617885
 20
-119.7937214869787
 10
102.1515597617885
 20
-119.7937214869787
 10
102.5756510160228
 20
-119.7937214869787
 10
102.5756510160228
 20
-119.7937214869787
 10
102.7382595229266
 20
-119.7937214869787
 10
102.9015570489274
 20
-119.7916544296875
 10
103.0624430080886
 20
-119.7684000351621
 10
103.0624430080886
 20
-119.7684000351621
 10
103.0624430080886
 20
-119.9988769231253
 10
103.0624430080886
 20
-119.9988769231253
 10
102.9015570489274
 20
-119.9756225285999
 10
102.6848605429052
 20
-119.9735554713087
 10
102.5756510160228
 20
-119.9735554713087
 97
        0
 97
        0
 75
     2
 76
     1
 98
        0
  0
SPLINE
  5
BB
330
97
100
AcDbEntity
  8
_U+30EC_U+30A4_U+30E4_U+30FC 1
370
     0
100
AcDbSpline
210
0.0
220
0.0
230
1.0
 70
    11
 71
     3
 72
    44
 73
    40
 74
     0
 42
0.0000000001
 43
0.0000000001
 12
1.0
 22
0.0
 32
0.0
 13
1.0
 23
0.0
 33
0.0
 40
0.0
 40
0.0
 40
0.0
 40
0.0
 40
1.0
 40
1.0
 40
1.0
 40
2.0
 40
2.0
 40
2.0
 40
3.0
 40
3.0
 40
3.0
 40
4.0
 40
4.0
 40
4.0
 40
5.0
 40
5.0
 40
5.0
 40
6.0
 40
6.0
 40
6.0
 40
7.0
 40
7.0
 40
7.0
 40
8.0
 40
8.0
 40
8.0
 40
9.0
 40
9.0
 40
9.0
 40
10.0
 40
10.0
 40
10.0
 40
11.0
 40
11.0
 40
11.0
 40
12.0
 40
12.0
 40
12.0
 40
13.0
 40
13.0
 40
13.0
 40
13.0
 10
104.5124836978302
 20
-119.5356838351334
 30
0.0
 10
104.4142984765006
 20
-119.9037922877324
 30
0.0
 10
104.3698567447409
 20
-120.0624389348282
 30
0.0
 10
104.1976019704784
 20
-120.3120361027345
 30
0.0
 10
104.0367160113172
 20
-120.542685245472
 30
0.0
 10
103.8293212631052
 20
-120.7287204016755
 30
0.0
 10
103.5847194836524
 20
-120.8219102345515
 30
0.0
 10
103.5847194836524
 20
-120.8219102345515
 30
0.0
 10
103.4162543144237
 20
-120.6420762502214
 30
0.0
 10
103.4162543144237
 20
-120.6420762502214
 30
0.0
 10
103.9774603689709
 20
-120.4898030297734
 30
0.0
 10
104.2661593706349
 20
-119.9334201089055
 30
0.0
 10
104.3216254079474
 20
-119.4933091606649
 30
0.0
 10
104.3216254079474
 20
-119.4933091606649
 30
0.0
 10
103.6515543360663
 20
-119.4933091606649
 30
0.0
 10
103.6515543360663
 20
-119.4933091606649
 30
0.0
 10
103.5699055730659
 20
-119.4933091606649
 30
0.0
 10
103.4090196139047
 20
-119.4976155300214
 30
0.0
 10
103.2719048135917
 20
-119.5165635551903
 30
0.0
 10
103.2719048135917
 20
-119.5165635551903
 30
0.0
 10
103.2719048135917
 20
-119.2965942084571
 30
0.0
 10
103.2719048135917
 20
-119.2965942084571
 30
0.0
 10
103.3476969142672
 20
-119.3177815456914
 30
0.0
 10
103.5681830253232
 20
-119.3177815456914
 30
0.0
 10
103.6553439411001
 20
-119.3177815456914
 30
0.0
 10
103.6553439411001
 20
-119.3177815456914
 30
0.0
 10
104.0329264062834
 20
-119.3177815456914
 30
0.0
 10
104.0329264062834
 20
-119.3177815456914
 30
0.0
 10
104.0701334375241
 20
-119.3177815456914
 30
0.0
 10
104.275461128445
 20
-119.315542233626
 30
0.0
 10
104.308878554652
 20
-119.3093410617525
 30
0.0
 10
104.3457410763441
 20
-119.3029676351048
 30
0.0
 10
104.3478081336353
 20
-119.3009005778137
 30
0.0
 10
104.4015516232052
 20
-119.2605929606362
 30
0.0
 10
104.4015516232052
 20
-119.2605929606362
 30
0.0
 10
104.5662271874001
 20
-119.4151054931497
 30
0.0
 10
104.5662271874001
 20
-119.4151054931497
 30
0.0
 10
104.5403889712607
 20
-119.4447333143228
 30
0.0
 10
104.5272976084168
 20
-119.4764281927872
 30
0.0
 10
104.5124836978302
 20
-119.5356838351334
 30
0.0
  0
SPLINE
  5
BC
330
97
100
AcDbEntity
  8
_U+30EC_U+30A4_U+30E4_U+30FC 1
370
     0
100
AcDbSpline
210
0.0
220
0.0
230
1.0
 70
    11
 71
     3
 72
    17
 73
    13
 74
     0
 42
0.0000000001
 43
0.0000000001
 12
1.0
 22
0.0
 32
0.0
 13
1.0
 23
0.0
 33
0.0
 40
0.0
 40
0.0
 40
0.0
 40
0.0
 40
1.0
 40
1.0
 40
1.0
 40
2.0
 40
2.0
 40
2.0
 40
3.0
 40
3.0
 40
3.0
 40
4.0
 40
4.0
 40
4.0
 40
4.0
 10
104.6957627776455
 20
-119.3367295708603
 30
0.0
 10
104.5848307030205
 20
-119.3367295708603
 30
0.0
 10
104.495947239501
 20
-119.2352715088197
 30
0.0
 10
104.495947239501
 20
-119.1083197401882
 30
0.0
 10
104.495947239501
 20
-118.9813679715568
 30
0.0
 10
104.5848307030205
 20
-118.8776705974507
 30
0.0
 10
104.6957627776455
 20
-118.8776705974507
 30
0.0
 10
104.8070393618191
 20
-118.8776705974507
 30
0.0
 10
104.8976453730811
 20
-118.9813679715568
 30
0.0
 10
104.8976453730811
 20
-119.1083197401882
 30
0.0
 10
104.8976453730811
 20
-119.2352715088197
 30
0.0
 10
104.8070393618191
 20
-119.3367295708603
 30
0.0
 10
104.6957627776455
 20
-119.3367295708603
 30
0.0
  0
SPLINE
  5
BD
330
97
100
AcDbEntity
  8
_U+30EC_U+30A4_U+30E4_U+30FC 1
370
     0
100
AcDbSpline
210
0.0
220
0.0
230
1.0
 70
    11
 71
     3
 72
    17
 73
    13
 74
     0
 42
0.0000000001
 43
0.0000000001
 12
1.0
 22
0.0
 32
0.0
 13
1.0
 23
0.0
 33
0.0
 40
0.0
 40
0.0
 40
0.0
 40
0.0
 40
1.0
 40
1.0
 40
1.0
 40
2.0
 40
2.0
 40
2.0
 40
3.0
 40
3.0
 40
3.0
 40
4.0
 40
4.0
 40
4.0
 40
4.0
 10
104.6940402299029
 20
-119.0066894233733
 30
0.0
 10
104.6458088931094
 20
-119.0066894233733
 30
0.0
 10
104.6068793141261
 20
-119.051131155133
 30
0.0
 10
104.6068793141261
 20
-119.1062526828971
 30
0.0
 10
104.6068793141261
 20
-119.1632690131779
 30
0.0
 10
104.6458088931094
 20
-119.2120171142942
 30
0.0
 10
104.6978298349367
 20
-119.2120171142942
 30
0.0
 10
104.7495062672154
 20
-119.2120171142942
 30
0.0
 10
104.7846462411649
 20
-119.1612019558868
 30
0.0
 10
104.7846462411649
 20
-119.1083197401882
 30
0.0
 10
104.7846462411649
 20
-119.051131155133
 30
0.0
 10
104.743994114439
 20
-119.0066894233733
 30
0.0
 10
104.6940402299029
 20
-119.0066894233733
 30
0.0
  0
HATCH
  5
BE
330
97
100
AcDbEntity
  8
_U+30EC_U+30A4_U+30E4_U+30FC 1
 62
   179
420
  2234388
100
AcDbHatch
 10
0.0
 20
0.0
 30
0.0
210
0.0
220
0.0
230
1.0
  2
SOLID
 70
     1
 71
     0
 91
        3
 92
        1
 93
        1
 72
     4
 94
        3
 73
     0
 74
     1
 95
       44
 96
       40
 40
0.0
 40
0.0
 40
0.0
 40
0.0
 40
1.0
 40
1.0
 40
1.0
 40
2.0
 40
2.0
 40
2.0
 40
3.0
 40
3.0
 40
3.0
 40
4.0
 40
4.0
 40
4.0
 40
5.0
 40
5.0
 40
5.0
 40
6.0
 40
6.0
 40
6.0
 40
7.0
 40
7.0
 40
7.0
 40
8.0
 40
8.0
 40
8.0
 40
9.0
 40
9.0
 40
9.0
 40
10.0
 40
10.0
 40
10.0
 40
11.0
 40
11.0
 40
11.0
 40
12.0
 40
12.0
 40
12.0
 40
13.0
 40
13.0
 40
13.0
 40
13.0
 10
104.5124836978302
 20
-119.5356838351334
 10
104.4142984765006
 20
-119.9037922877324
 10
104.3698567447409
 20
-120.0624389348282
 10
104.1976019704784
 20
-120.3120361027345
 10
104.0367160113172
 20
-120.542685245472
 10
103.8293212631052
 20
-120.7287204016755
 10
103.5847194836524
 20
-120.8219102345515
 10
103.5847194836524
 20
-120.8219102345515
 10
103.4162543144237
 20
-120.6420762502214
 10
103.4162543144237
 20
-120.6420762502214
 10
103.9774603689709
 20
-120.4898030297734
 10
104.2661593706349
 20
-119.9334201089055
 10
104.3216254079474
 20
-119.4933091606649
 10
104.3216254079474
 20
-119.4933091606649
 10
103.6515543360663
 20
-119.4933091606649
 10
103.6515543360663
 20
-119.4933091606649
 10
103.5699055730659
 20
-119.4933091606649
 10
103.4090196139047
 20
-119.4976155300214
 10
103.2719048135917
 20
-119.5165635551903
 10
103.2719048135917
 20
-119.5165635551903
 10
103.2719048135917
 20
-119.2965942084571
 10
103.2719048135917
 20
-119.2965942084571
 10
103.3476969142672
 20
-119.3177815456914
 10
103.5681830253232
 20
-119.3177815456914
 10
103.6553439411001
 20
-119.3177815456914
 10
103.6553439411001
 20
-119.3177815456914
 10
104.0329264062834
 20
-119.3177815456914
 10
104.0329264062834
 20
-119.3177815456914
 10
104.0701334375241
 20
-119.3177815456914
 10
104.275461128445
 20
-119.315542233626
 10
104.308878554652
 20
-119.3093410617525
 10
104.3457410763441
 20
-119.3029676351048
 10
104.3478081336353
 20
-119.3009005778137
 10
104.4015516232052
 20
-119.2605929606362
 10
104.4015516232052
 20
-119.2605929606362
 10
104.5662271874001
 20
-119.4151054931497
 10
104.5662271874001
 20
-119.4151054931497
 10
104.5403889712607
 20
-119.4447333143228
 10
104.5272976084168
 20
-119.4764281927872
 10
104.5124836978302
 20
-119.5356838351334
 97
        0
 97
        0
 92
        1
 93
        1
 72
     4
 94
        3
 73
     0
 74
     1
 95
       17
 96
       13
 40
0.0
 40
0.0
 40
0.0
 40
0.0
 40
1.0
 40
1.0
 40
1.0
 40
2.0
 40
2.0
 40
2.0
 40
3.0
 40
3.0
 40
3.0
 40
4.0
 40
4.0
 40
4.0
 40
4.0
 10
104.6957627776455
 20
-119.3367295708603
 10
104.5848307030205
 20
-119.3367295708603
 10
104.495947239501
 20
-119.2352715088197
 10
104.495947239501
 20
-119.1083197401882
 10
104.495947239501
 20
-118.9813679715568
 10
104.5848307030205
 20
-118.8776705974507
 10
104.6957627776455
 20
-118.8776705974507
 10
104.8070393618191
 20
-118.8776705974507
 10
104.8976453730811
 20
-118.9813679715568
 10
104.8976453730811
 20
-119.1083197401882
 10
104.8976453730811
 20
-119.2352715088197
 10
104.8070393618191
 20
-119.3367295708603
 10
104.6957627776455
 20
-119.3367295708603
 97
        0
 97
        0
 92
        1
 93
        1
 72
     4
 94
        3
 73
     0
 74
     1
 95
       17
 96
       13
 40
0.0
 40
0.0
 40
0.0
 40
0.0
 40
1.0
 40
1.0
 40
1.0
 40
2.0
 40
2.0
 40
2.0
 40
3.0
 40
3.0
 40
3.0
 40
4.0
 40
4.0
 40
4.0
 40
4.0
 10
104.6940402299029
 20
-119.0066894233733
 10
104.6458088931094
 20
-119.0066894233733
 10
104.6068793141261
 20
-119.051131155133
 10
104.6068793141261
 20
-119.1062526828971
 10
104.6068793141261
 20
-119.1632690131779
 10
104.6458088931094
 20
-119.2120171142942
 10
104.6978298349367
 20
-119.2120171142942
 10
104.7495062672154
 20
-119.2120171142942
 10
104.7846462411649
 20
-119.1612019558868
 10
104.7846462411649
 20
-119.1083197401882
 10
104.7846462411649
 20
-119.051131155133
 10
104.743994114439
 20
-119.0066894233733
 10
104.6940402299029
 20
-119.0066894233733
 97
        0
 97
        0
 75
     2
 76
     1
 98
        0
  0
ENDBLK
  5
9A
330
97
100
AcDbEntity
  8
0
100
AcDbBlockEnd
  0
ENDSEC
  0
SECTION
  2
ENTITIES
  0
POLYLINE
  5
41
330
1F
100
AcDbEntity
  8
_U+30EC_U+30A4_U+30E4_U+30FC 1
 62
   179
420
  2234388
370
    25
100
AcDb2dPolyline
 66
     1
 10
0.0
 20
0.0
 30
0.0
  0
VERTEX
  5
42
330
41
100
AcDbEntity
  8
_U+30EC_U+30A4_U+30E4_U+30FC 1
 62
   179
420
  2234388
370
    25
100
AcDbVertex
100
AcDb2dVertex
 10
106.9702275487399
 20
-132.3736521891291
 30
0.0
  0
VERTEX
  5
43
330
41
100
AcDbEntity
  8
_U+30EC_U+30A4_U+30E4_U+30FC 1
 62
   179
420
  2234388
370
    25
100
AcDbVertex
100
AcDb2dVertex
 10
106.9702275487399
 20
-132.8738910778928
 30
0.0
  0
SEQEND
  5
44
330
41
100
AcDbEntity
  8
_U+30EC_U+30A4_U+30E4_U+30FC 1
 62
   179
420
  2234388
370
    25
  0
POLYLINE
  5
45
330
1F
100
AcDbEntity
  8
_U+30EC_U+30A4_U+30E4_U+30FC 1
 62
   179
420
  2234388
370
    25
100
AcDb2dPolyline
 66
     1
 10
0.0
 20
0.0
 30
0.0
  0
VERTEX
  5
46
330
45
100
AcDbEntity
  8
_U+30EC_U+30A4_U+30E4_U+30FC 1
 62
   179
420
  2234388
370
    25
100
AcDbVertex
100
AcDb2dVertex
 10
82.9704737165802
 20
-132.3736521891291
 30
0.0
  0
VERTEX
  5
47
330
45
100
AcDbEntity
  8
_U+30EC_U+30A4_U+30E4_U+30FC 1
 62
   179
420
  2234388
370
    25
100
AcDbVertex
100
AcDb2dVertex
 10
106.9702275487399
 20
-132.3736521891291
 30
0.0
  0
SEQEND
  5
48
330
45
100
AcDbEntity
  8
_U+30EC_U+30A4_U+30E4_U+30FC 1
 62
   179
420
  2234388
370
    25
  0
POLYLINE
  5
49
330
1F
100
AcDbEntity
  8
_U+30EC_U+30A4_U+30E4_U+30FC 1
 62
   179
420
  2234388
370
    25
100
AcDb2dPolyline
 66
     1
 10
0.0
 20
0.0
 30
0.0
  0
VERTEX
  5
4A
330
49
100
AcDbEntity
  8
_U+30EC_U+30A4_U+30E4_U+30FC 1
 62
   179
420
  2234388
370
    25
100
AcDbVertex
100
AcDb2dVertex
 10
106.9702275487399
 20
-132.8738910778928
 30
0.0
  0
VERTEX
  5
4B
330
49
100
AcDbEntity
  8
_U+30EC_U+30A4_U+30E4_U+30FC 1
 62
   179
420
  2234388
370
    25
100
AcDbVertex
100
AcDb2dVertex
 10
82.78685288793143
 20
-133.373424411101
 30
0.0
  0
SEQEND
  5
4C
330
49
100
AcDbEntity
  8
_U+30EC_U+30A4_U+30E4_U+30FC 1
 62
   179
420
  2234388
370
    25
  0
POLYLINE
  5
4D
330
1F
100
AcDbEntity
  8
_U+30EC_U+30A4_U+30E4_U+30FC 1
 62
   179
420
  2234388
370
    25
100
AcDb2dPolyline
 66
     1
 10
0.0
 20
0.0
 30
0.0
  0
VERTEX
  5
4E
330
4D
100
AcDbEntity
  8
_U+30EC_U+30A4_U+30E4_U+30FC 1
 62
   179
420
  2234388
370
    25
100
AcDbVertex
100
AcDb2dVertex
 10
82.9704737165802
 20
-118.3738424704064
 30
0.0
  0
VERTEX
  5
4F
330
4D
100
AcDbEntity
  8
_U+30EC_U+30A4_U+30E4_U+30FC 1
 62
   179
420
  2234388
370
    25
100
AcDbVertex
100
AcDb2dVertex
 10
82.9704737165802
 20
-132.3736521891291
 30
0.0
  0
SEQEND
  5
50
330
4D
100
AcDbEntity
  8
_U+30EC_U+30A4_U+30E4_U+30FC 1
 62
   179
420
  2234388
370
    25
  0
POLYLINE
  5
51
330
1F
100
AcDbEntity
  8
_U+30EC_U+30A4_U+30E4_U+30FC 1
 62
   179
420
  2234388
370
    25
100
AcDb2dPolyline
 66
     1
 10
0.0
 20
0.0
 30
0.0
  0
VERTEX
  5
52
330
51
100
AcDbEntity
  8
_U+30EC_U+30A4_U+30E4_U+30FC 1
 62
   179
420
  2234388
370
    25
100
AcDbVertex
100
AcDb2dVertex
 10
82.47506789588573
 20
-118.3183505259759
 30
0.0
  0
VERTEX
  5
53
330
51
100
AcDbEntity
  8
_U+30EC_U+30A4_U+30E4_U+30FC 1
 62
   179
420
  2234388
370
    25
100
AcDbVertex
100
AcDb2dVertex
 10
82.97495399424368
 20
-118.3183505259759
 30
0.0
  0
SEQEND
  5
54
330
51
100
AcDbEntity
  8
_U+30EC_U+30A4_U+30E4_U+30FC 1
 62
   179
420
  2234388
370
    25
  0
POLYLINE
  5
55
330
1F
100
AcDbEntity
  8
_U+30EC_U+30A4_U+30E4_U+30FC 1
 62
   179
420
  2234388
370
    25
100
AcDb2dPolyline
 66
     1
 10
0.0
 20
0.0
 30
0.0
  0
VERTEX
  5
56
330
55
100
AcDbEntity
  8
_U+30EC_U+30A4_U+30E4_U+30FC 1
 62
   179
420
  2234388
370
    25
100
AcDbVertex
100
AcDb2dVertex
 10
82.47058761822224
 20
-118.3738424704064
 30
0.0
  0
VERTEX
  5
57
330
55
100
AcDbEntity
  8
_U+30EC_U+30A4_U+30E4_U+30FC 1
 62
   179
420
  2234388
370
    25
100
AcDbVertex
100
AcDb2dVertex
 10
81.97105429763307
 20
-132.5379760779769
 30
0.0
  0
SEQEND
  5
58
330
55
100
AcDbEntity
  8
_U+30EC_U+30A4_U+30E4_U+30FC 1
 62
   179
420
  2234388
370
    25
  0
SPLINE
  5
59
330
1F
100
AcDbEntity
  8
_U+30EC_U+30A4_U+30E4_U+30FC 1
 62
   179
420
  2234388
370
    25
100
AcDbSpline
210
0.0
220
0.0
230
1.0
 70
     8
 71
     3
 72
    11
 73
     7
 74
     0
 42
0.0000000001
 43
0.0000000001
 12
1.0
 22
0.0
 32
0.0
 13
1.0
 23
0.0
 33
0.0
 40
0.0
 40
0.0
 40
0.0
 40
0.0
 40
1.0
 40
1.0
 40
1.0
 40
2.0
 40
2.0
 40
2.0
 40
2.0
 10
81.97105429763307
 20
-132.5379760779769
 30
0.0
 10
81.95140457591215
 20
-132.979301077866
 30
0.0
 10
82.29349317829586
 20
-133.3534571888838
 30
0.0
 10
82.73446538926794
 20
-133.3727541333236
 30
0.0
 10
82.75206899992995
 20
-133.3737771888788
 30
0.0
 10
82.76963733281508
 20
-133.3741299666565
 30
0.0
 10
82.78685288793143
 20
-133.373424411101
 30
0.0
  0
SPLINE
  5
5A
330
1F
100
AcDbEntity
  8
_U+30EC_U+30A4_U+30E4_U+30FC 1
 62
   179
420
  2234388
370
     9
100
AcDbSpline
210
0.0
220
0.0
230
1.0
 70
    11
 71
     3
 72
    17
 73
    13
 74
     0
 42
0.0000000001
 43
0.0000000001
 12
1.0
 22
0.0
 32
0.0
 13
1.0
 23
0.0
 33
0.0
 40
0.0
 40
0.0
 40
0.0
 40
0.0
 40
1.0
 40
1.0
 40
1.0
 40
2.0
 40
2.0
 40
2.0
 40
3.0
 40
3.0
 40
3.0
 40
4.0
 40
4.0
 40
4.0
 40
4.0
 10
107.0701342128578
 20
-137.3738891323234
 30
0.0
 10
107.0701342128578
 20
-137.3183971878925
 30
0.0
 10
107.025331436223
 20
-137.273629687904
 30
0.0
 10
106.9702275487399
 20
-137.273629687904
 30
0.0
 10
106.91508838348
 20
-137.273629687904
 30
0.0
 10
106.8703208846221
 20
-137.3183971878925
 30
0.0
 10
106.8703208846221
 20
-137.3738891323234
 30
0.0
 10
106.8703208846221
 20
-137.4289930211983
 30
0.0
 10
106.91508838348
 20
-137.473795798965
 30
0.0
 10
106.9702275487399
 20
-137.473795798965
 30
0.0
 10
107.025331436223
 20
-137.473795798965
 30
0.0
 10
107.0701342128578
 20
-137.4289930211983
 30
0.0
 10
107.0701342128578
 20
-137.3738891323234
 30
0.0
  0
SPLINE
  5
5B
330
1F
100
AcDbEntity
  8
_U+30EC_U+30A4_U+30E4_U+30FC 1
 62
   179
420
  2234388
370
     9
100
AcDbSpline
210
0.0
220
0.0
230
1.0
 70
    11
 71
     3
 72
    17
 73
    13
 74
     0
 42
0.0000000001
 43
0.0000000001
 12
1.0
 22
0.0
 32
0.0
 13
1.0
 23
0.0
 33
0.0
 40
0.0
 40
0.0
 40
0.0
 40
0.0
 40
1.0
 40
1.0
 40
1.0
 40
2.0
 40
2.0
 40
2.0
 40
3.0
 40
3.0
 40
3.0
 40
4.0
 40
4.0
 40
4.0
 40
4.0
 10
78.07049634158903
 20
-133.3737771888788
 30
0.0
 10
78.07049634158903
 20
-133.3183205222261
 30
0.0
 10
78.02572884273116
 20
-133.2738705222371
 30
0.0
 10
77.9705916471741
 20
-133.2738705222371
 30
0.0
 10
77.91513301221936
 20
-133.2738705222371
 30
0.0
 10
77.87036551336146
 20
-133.3183205222261
 30
0.0
 10
77.87036551336146
 20
-133.3737771888788
 30
0.0
 10
77.87036551336146
 20
-133.4288810777537
 30
0.0
 10
77.91513301221936
 20
-133.4736838555204
 30
0.0
 10
77.9705916471741
 20
-133.4736838555204
 30
0.0
 10
78.02572884273116
 20
-133.4736838555204
 30
0.0
 10
78.07049634158903
 20
-133.4288810777537
 30
0.0
 10
78.07049634158903
 20
-133.3737771888788
 30
0.0
  0
SPLINE
  5
5C
330
1F
100
AcDbEntity
  8
_U+30EC_U+30A4_U+30E4_U+30FC 1
 62
   179
420
  2234388
370
     9
100
AcDbSpline
210
0.0
220
0.0
230
1.0
 70
    11
 71
     3
 72
    17
 73
    13
 74
     0
 42
0.0000000001
 43
0.0000000001
 12
1.0
 22
0.0
 32
0.0
 13
1.0
 23
0.0
 33
0.0
 40
0.0
 40
0.0
 40
0.0
 40
0.0
 40
1.0
 40
1.0
 40
1.0
 40
2.0
 40
2.0
 40
2.0
 40
3.0
 40
3.0
 40
3.0
 40
4.0
 40
4.0
 40
4.0
 40
4.0
 10
82.07025540621335
 20
-137.3738891323234
 30
0.0
 10
82.07025540621335
 20
-137.3183971878925
 30
0.0
 10
82.02548790735547
 20
-137.273629687904
 30
0.0
 10
81.97034874209551
 20
-137.273629687904
 30
0.0
 10
81.91524485461244
 20
-137.273629687904
 30
0.0
 10
81.87044207797769
 20
-137.3183971878925
 30
0.0
 10
81.87044207797769
 20
-137.3738891323234
 30
0.0
 10
81.87044207797769
 20
-137.4289930211983
 30
0.0
 10
81.91524485461244
 20
-137.473795798965
 30
0.0
 10
81.97034874209551
 20
-137.473795798965
 30
0.0
 10
82.02548790735547
 20
-137.473795798965
 30
0.0
 10
82.07025540621335
 20
-137.4289930211983
 30
0.0
 10
82.07025540621335
 20
-137.3738891323234
 30
0.0
  0
SPLINE
  5
5D
330
1F
100
AcDbEntity
  8
_U+30EC_U+30A4_U+30E4_U+30FC 1
 62
   179
420
  2234388
370
     9
100
AcDbSpline
210
0.0
220
0.0
230
1.0
 70
    11
 71
     3
 72
    17
 73
    13
 74
     0
 42
0.0000000001
 43
0.0000000001
 12
1.0
 22
0.0
 32
0.0
 13
1.0
 23
0.0
 33
0.0
 40
0.0
 40
0.0
 40
0.0
 40
0.0
 40
1.0
 40
1.0
 40
1.0
 40
2.0
 40
2.0
 40
2.0
 40
3.0
 40
3.0
 40
3.0
 40
4.0
 40
4.0
 40
4.0
 40
4.0
 10
78.07049634158903
 20
-118.3669280259638
 30
0.0
 10
78.07049634158903
 20
-118.3114713593111
 30
0.0
 10
78.02572884273116
 20
-118.2666685815444
 30
0.0
 10
77.9705916471741
 20
-118.2666685815444
 30
0.0
 10
77.91513301221936
 20
-118.2666685815444
 30
0.0
 10
77.87036551336146
 20
-118.3114713593111
 30
0.0
 10
77.87036551336146
 20
-118.3669280259638
 30
0.0
 10
77.87036551336146
 20
-118.4220671926166
 30
0.0
 10
77.91513301221936
 20
-118.4668346926054
 30
0.0
 10
77.9705916471741
 20
-118.4668346926054
 30
0.0
 10
78.02572884273116
 20
-118.4668346926054
 30
0.0
 10
78.07049634158903
 20
-118.4220671926166
 30
0.0
 10
78.07049634158903
 20
-118.3669280259638
 30
0.0
  0
POLYLINE
  5
5E
330
1F
100
AcDbEntity
  8
_U+30EC_U+30A4_U+30E4_U+30FC 1
 62
   179
420
  2234388
370
     9
100
AcDb2dPolyline
 66
     1
 10
0.0
 20
0.0
 30
0.0
  0
VERTEX
  5
5F
330
5E
100
AcDbEntity
  8
_U+30EC_U+30A4_U+30E4_U+30FC 1
 62
   179
420
  2234388
370
     9
100
AcDbVertex
100
AcDb2dVertex
 10
81.97034874209551
 20
-137.3738891323234
 30
0.0
  0
VERTEX
  5
60
330
5E
100
AcDbEntity
  8
_U+30EC_U+30A4_U+30E4_U+30FC 1
 62
   179
420
  2234388
370
     9
100
AcDbVertex
100
AcDb2dVertex
 10
106.9702275487399
 20
-137.3738891323234
 30
0.0
  0
SEQEND
  5
61
330
5E
100
AcDbEntity
  8
_U+30EC_U+30A4_U+30E4_U+30FC 1
 62
   179
420
  2234388
370
     9
  0
POLYLINE
  5
62
330
1F
100
AcDbEntity
  8
_U+30EC_U+30A4_U+30E4_U+30FC 1
 62
   179
420
  2234388
370
     9
100
AcDb2dPolyline
 66
     1
 10
0.0
 20
0.0
 30
0.0
  0
VERTEX
  5
63
330
62
100
AcDbEntity
  8
_U+30EC_U+30A4_U+30E4_U+30FC 1
 62
   179
420
  2234388
370
     9
100
AcDbVertex
100
AcDb2dVertex
 10
81.97034874209551
 20
-135.1138888551104
 30
0.0
  0
VERTEX
  5
64
330
62
100
AcDbEntity
  8
_U+30EC_U+30A4_U+30E4_U+30FC 1
 62
   179
420
  2234388
370
     9
100
AcDbVertex
100
AcDb2dVertex
 10
81.97034874209551
 20
-138.3736260765178
 30
0.0
  0
SEQEND
  5
65
330
62
100
AcDbEntity
  8
_U+30EC_U+30A4_U+30E4_U+30FC 1
 62
   179
420
  2234388
370
     9
  0
POLYLINE
  5
66
330
1F
100
AcDbEntity
  8
_U+30EC_U+30A4_U+30E4_U+30FC 1
 62
   179
420
  2234388
370
     9
100
AcDb2dPolyline
 66
     1
 10
0.0
 20
0.0
 30
0.0
  0
VERTEX
  5
67
330
66
100
AcDbEntity
  8
_U+30EC_U+30A4_U+30E4_U+30FC 1
 62
   179
420
  2234388
370
     9
100
AcDbVertex
100
AcDb2dVertex
 10
106.9702275487399
 20
-135.4136088550353
 30
0.0
  0
VERTEX
  5
68
330
66
100
AcDbEntity
  8
_U+30EC_U+30A4_U+30E4_U+30FC 1
 62
   179
420
  2234388
370
     9
100
AcDbVertex
100
AcDb2dVertex
 10
106.9702275487399
 20
-138.3736260765178
 30
0.0
  0
SEQEND
  5
69
330
66
100
AcDbEntity
  8
_U+30EC_U+30A4_U+30E4_U+30FC 1
 62
   179
420
  2234388
370
     9
  0
INSERT
  5
6B
330
1F
100
AcDbEntity
  8
_U+30EC_U+30A4_U+30E4_U+30FC 1
100
AcDbBlockReference
  2
block 2
 10
0.0
 20
0.0
 30
0.0
  0
POLYLINE
  5
72
330
1F
100
AcDbEntity
  8
_U+30EC_U+30A4_U+30E4_U+30FC 1
 62
   179
420
  2234388
370
     9
100
AcDb2dPolyline
 66
     1
 10
0.0
 20
0.0
 30
0.0
  0
VERTEX
  5
73
330
72
100
AcDbEntity
  8
_U+30EC_U+30A4_U+30E4_U+30FC 1
 62
   179
420
  2234388
370
     9
100
AcDbVertex
100
AcDb2dVertex
 10
77.9705916471741
 20
-118.3738424704064
 30
0.0
  0
VERTEX
  5
74
330
72
100
AcDbEntity
  8
_U+30EC_U+30A4_U+30E4_U+30FC 1
 62
   179
420
  2234388
370
     9
100
AcDbVertex
100
AcDb2dVertex
 10
77.9705916471741
 20
-133.3737771888788
 30
0.0
  0
SEQEND
  5
75
330
72
100
AcDbEntity
  8
_U+30EC_U+30A4_U+30E4_U+30FC 1
 62
   179
420
  2234388
370
     9
  0
POLYLINE
  5
76
330
1F
100
AcDbEntity
  8
_U+30EC_U+30A4_U+30E4_U+30FC 1
 62
   179
420
  2234388
370
     9
100
AcDb2dPolyline
 66
     1
 10
0.0
 20
0.0
 30
0.0
  0
VERTEX
  5
77
330
76
100
AcDbEntity
  8
_U+30EC_U+30A4_U+30E4_U+30FC 1
 62
   179
420
  2234388
370
     9
100
AcDbVertex
100
AcDb2dVertex
 10
79.93464462736398
 20
-118.3352485815274
 30
0.0
  0
VERTEX
  5
78
330
76
100
AcDbEntity
  8
_U+30EC_U+30A4_U+30E4_U+30FC 1
 62
   179
420
  2234388
370
     9
100
AcDbVertex
100
AcDb2dVertex
 10
76.97498025842687
 20
-118.3352485815274
 30
0.0
  0
SEQEND
  5
79
330
76
100
AcDbEntity
  8
_U+30EC_U+30A4_U+30E4_U+30FC 1
 62
   179
420
  2234388
370
     9
  0
POLYLINE
  5
7A
330
1F
100
AcDbEntity
  8
_U+30EC_U+30A4_U+30E4_U+30FC 1
 62
   179
420
  2234388
370
     9
100
AcDb2dPolyline
 66
     1
 10
0.0
 20
0.0
 30
0.0
  0
VERTEX
  5
7B
330
7A
100
AcDbEntity
  8
_U+30EC_U+30A4_U+30E4_U+30FC 1
 62
   179
420
  2234388
370
     9
100
AcDbVertex
100
AcDb2dVertex
 10
80.23058989759157
 20
-133.3737771888788
 30
0.0
  0
VERTEX
  5
7C
330
7A
100
AcDbEntity
  8
_U+30EC_U+30A4_U+30E4_U+30FC 1
 62
   179
420
  2234388
370
     9
100
AcDbVertex
100
AcDb2dVertex
 10
76.97049998076339
 20
-133.3737771888788
 30
0.0
  0
SEQEND
  5
7D
330
7A
100
AcDbEntity
  8
_U+30EC_U+30A4_U+30E4_U+30FC 1
 62
   179
420
  2234388
370
     9
  0
INSERT
  5
7F
330
1F
100
AcDbEntity
  8
_U+30EC_U+30A4_U+30E4_U+30FC 1
100
AcDbBlockReference
  2
block 3
 10
0.0
 20
0.0
 30
0.0
  0
POLYLINE
  5
86
330
1F
100
AcDbEntity
  8
_U+30EC_U+30A4_U+30E4_U+30FC 1
  6
AI-Linetype-1
 62
   154
420
    23468
370
    25
100
AcDb2dPolyline
 66
     1
 10
0.0
 20
0.0
 30
0.0
  0
VERTEX
  5
87
330
86
100
AcDbEntity
  8
_U+30EC_U+30A4_U+30E4_U+30FC 1
  6
AI-Linetype-1
 62
   154
420
    23468
370
    25
100
AcDbVertex
100
AcDb2dVertex
 10
96.90434891665298
 20
-131.6429435782001
 30
0.0
  0
VERTEX
  5
88
330
86
100
AcDbEntity
  8
_U+30EC_U+30A4_U+30E4_U+30FC 1
  6
AI-Linetype-1
 62
   154
420
    23468
370
    25
100
AcDbVertex
100
AcDb2dVertex
 10
106.9040817170941
 20
-131.6429435782001
 30
0.0
  0
SEQEND
  5
8A
330
86
100
AcDbEntity
  8
_U+30EC_U+30A4_U+30E4_U+30FC 1
  6
AI-Linetype-1
 62
   154
420
    23468
370
    25
  0
POLYLINE
  5
8B
330
1F
100
AcDbEntity
  8
_U+30EC_U+30A4_U+30E4_U+30FC 1
 62
   179
420
  2234388
370
     9
100
AcDb2dPolyline
 66
     1
 10
0.0
 20
0.0
 30
0.0
  0
VERTEX
  5
8C
330
8B
100
AcDbEntity
  8
_U+30EC_U+30A4_U+30E4_U+30FC 1
 62
   179
420
  2234388
370
     9
100
AcDbVertex
100
AcDb2dVertex
 10
98.94866080894269
 20
-131.1427399672146
 30
0.0
  0
VERTEX
  5
8D
330
8B
100
AcDbEntity
  8
_U+30EC_U+30A4_U+30E4_U+30FC 1
 62
   179
420
  2234388
370
     9
100
AcDbVertex
100
AcDb2dVertex
 10
99.20703524679546
 20
-130.1767285785669
 30
0.0
  0
SEQEND
  5
8E
330
8B
100
AcDbEntity
  8
_U+30EC_U+30A4_U+30E4_U+30FC 1
 62
   179
420
  2234388
370
     9
  0
POLYLINE
  5
8F
330
1F
100
AcDbEntity
  8
_U+30EC_U+30A4_U+30E4_U+30FC 1
 62
   179
420
  2234388
370
     9
100
AcDb2dPolyline
 66
     1
 10
0.0
 20
0.0
 30
0.0
  0
VERTEX
  5
90
330
8F
100
AcDbEntity
  8
_U+30EC_U+30A4_U+30E4_U+30FC 1
 62
   179
420
  2234388
370
     9
100
AcDbVertex
100
AcDb2dVertex
 10
98.94866080894269
 20
-131.1427399672146
 30
0.0
  0
VERTEX
  5
91
330
8F
100
AcDbEntity
  8
_U+30EC_U+30A4_U+30E4_U+30FC 1
 62
   179
420
  2234388
370
     9
100
AcDbVertex
100
AcDb2dVertex
 10
98.94866080894269
 20
-121.7672471917805
 30
0.0
  0
SEQEND
  5
92
330
8F
100
AcDbEntity
  8
_U+30EC_U+30A4_U+30E4_U+30FC 1
 62
   179
420
  2234388
370
     9
  0
POLYLINE
  5
93
330
1F
100
AcDbEntity
  8
_U+30EC_U+30A4_U+30E4_U+30FC 1
 62
   179
420
  2234388
370
     9
100
AcDb2dPolyline
 66
     1
 10
0.0
 20
0.0
 30
0.0
  0
VERTEX
  5
94
330
93
100
AcDbEntity
  8
_U+30EC_U+30A4_U+30E4_U+30FC 1
 62
   179
420
  2234388
370
     9
100
AcDbVertex
100
AcDb2dVertex
 10
98.94866080894269
 20
-131.1427399672146
 30
0.0
  0
VERTEX
  5
95
330
93
100
AcDbEntity
  8
_U+30EC_U+30A4_U+30E4_U+30FC 1
 62
   179
420
  2234388
370
     9
100
AcDbVertex
100
AcDb2dVertex
 10
98.68958330866094
 20
-130.1767285785669
 30
0.0
  0
SEQEND
  5
96
330
93
100
AcDbEntity
  8
_U+30EC_U+30A4_U+30E4_U+30FC 1
 62
   179
420
  2234388
370
     9
  0
INSERT
  5
98
330
1F
100
AcDbEntity
  8
_U+30EC_U+30A4_U+30E4_U+30FC 1
100
AcDbBlockReference
  2
block 4
 10
0.0
 20
0.0
 30
0.0
  0
ENDSEC
  0
SECTION
  2
OBJECTS
  0
DICTIONARY
  5
C
330
0
100
AcDbDictionary
281
     1
  3
ACAD_GROUP
350
D
  3
ACAD_LAYOUT
350
1A
  3
ACAD_MATERIAL
350
3B
  3
ACAD_MLEADERSTYLE
350
C0
  3
ACAD_MLINESTYLE
350
17
  3
ACAD_PLOTSETTINGS
350
19
  3
ACAD_PLOTSTYLENAME
350
E
  3
ACAD_TABLESTYLE
350
BF
  3
ACAD_VISUALSTYLE
350
2A
  0
SUN
  5
3F
330
29
100
AcDbSun
 90
        1
290
     0
 63
     7
421
 16777215
 40
1.0
291
     1
 91
  2455826
 92
 54000000
292
     0
 70
     2
 71
   256
280
     1
  0
DICTIONARY
  5
D
102
{ACAD_REACTORS
330
C
102
}
330
C
100
AcDbDictionary
281
     1
  0
DICTIONARY
  5
1A
102
{ACAD_REACTORS
330
C
102
}
330
C
100
AcDbDictionary
281
     1
  3
Layout1
350
1E
  3
Layout2
350
26
  3
Model
350
22
  0
DICTIONARY
  5
3B
102
{ACAD_REACTORS
330
C
102
}
330
C
100
AcDbDictionary
281
     1
  3
ByBlock
350
3D
  3
ByLayer
350
3C
  3
Global
350
3E
  0
DICTIONARY
  5
C0
102
{ACAD_REACTORS
330
C
102
}
330
C
100
AcDbDictionary
281
     1
  0
DICTIONARY
  5
17
102
{ACAD_REACTORS
330
C
102
}
330
C
100
AcDbDictionary
281
     1
  3
Standard
350
18
  0
DICTIONARY
  5
19
102
{ACAD_REACTORS
330
C
102
}
330
C
100
AcDbDictionary
281
     1
  0
ACDBDICTIONARYWDFLT
  5
E
102
{ACAD_REACTORS
330
C
102
}
330
C
100
AcDbDictionary
281
     1
  3
Normal
350
F
100
AcDbDictionaryWithDefault
340
F
  0
DICTIONARY
  5
BF
102
{ACAD_REACTORS
330
C
102
}
330
C
100
AcDbDictionary
281
     1
  0
DICTIONARY
  5
2A
102
{ACAD_REACTORS
330
C
102
}
330
C
100
AcDbDictionary
281
     1
  3
2dWireframe
350
2F
  3
3D Hidden
350
31
  3
3dWireframe
350
30
  3
Basic
350
32
  3
Brighten
350
36
  3
ColorChange
350
3A
  3
Conceptual
350
34
  3
Dim
350
35
  3
Facepattern
350
39
  3
Flat
350
2B
  3
FlatWithEdges
350
2C
  3
Gouraud
350
2D
  3
GouraudWithEdges
350
2E
  3
Linepattern
350
38
  3
Realistic
350
33
  3
Thicken
350
37
  0
LAYOUT
  5
1E
102
{ACAD_REACTORS
330
1A
102
}
330
1A
100
AcDbPlotSettings
  1

  2
none_device
  4

  6

 40
0.0
 41
0.0
 42
0.0
 43
0.0
 44
0.0
 45
0.0
 46
0.0
 47
0.0
 48
0.0
 49
0.0
140
0.0
141
0.0
142
1.0
143
1.0
 70
   688
 72
     0
 73
     0
 74
     5
  7

 75
    16
 76
     0
 77
     2
 78
   300
147
1.0
148
0.0
149
0.0
100
AcDbLayout
  1
Layout1
 70
     1
 71
     1
 10
0.0
 20
0.0
 11
12.0
 21
9.0
 12
0.0
 22
0.0
 32
0.0
 14
1.000000000000000E+20
 24
1.000000000000000E+20
 34
1.000000000000000E+20
 15
-1.000000000000000E+20
 25
-1.000000000000000E+20
 35
-1.000000000000000E+20
146
0.0
 13
0.0
 23
0.0
 33
0.0
 16
1.0
 26
0.0
 36
0.0
 17
0.0
 27
1.0
 37
0.0
 76
     0
330
1B
  0
LAYOUT
  5
26
102
{ACAD_REACTORS
330
1A
102
}
330
1A
100
AcDbPlotSettings
  1

  2
none_device
  4

  6

 40
0.0
 41
0.0
 42
0.0
 43
0.0
 44
0.0
 45
0.0
 46
0.0
 47
0.0
 48
0.0
 49
0.0
140
0.0
141
0.0
142
1.0
143
1.0
 70
   688
 72
     0
 73
     0
 74
     5
  7

 75
    16
 76
     0
 77
     2
 78
   300
147
1.0
148
0.0
149
0.0
100
AcDbLayout
  1
Layout2
 70
     1
 71
     2
 10
0.0
 20
0.0
 11
0.0
 21
0.0
 12
0.0
 22
0.0
 32
0.0
 14
0.0
 24
0.0
 34
0.0
 15
0.0
 25
0.0
 35
0.0
146
0.0
 13
0.0
 23
0.0
 33
0.0
 16
1.0
 26
0.0
 36
0.0
 17
0.0
 27
1.0
 37
0.0
 76
     0
330
23
  0
LAYOUT
  5
22
102
{ACAD_REACTORS
330
1A
102
}
330
1A
100
AcDbPlotSettings
  1

  2
none_device
  4

  6

 40
0.0
 41
0.0
 42
0.0
 43
0.0
 44
0.0
 45
0.0
 46
0.0
 47
0.0
 48
0.0
 49
0.0
140
0.0
141
0.0
142
1.0
143
1.0
 70
  1712
 72
     0
 73
     0
 74
     0
  7

 75
     0
 76
     0
 77
     2
 78
   300
147
1.0
148
0.0
149
0.0
100
AcDbLayout
  1
Model
 70
     1
 71
     0
 10
0.0
 20
0.0
 11
12.0
 21
9.0
 12
0.0
 22
0.0
 32
0.0
 14
1.000000000000000E+20
 24
1.000000000000000E+20
 34
1.000000000000000E+20
 15
-1.000000000000000E+20
 25
-1.000000000000000E+20
 35
-1.000000000000000E+20
146
0.0
 13
0.0
 23
0.0
 33
0.0
 16
1.0
 26
0.0
 36
0.0
 17
0.0
 27
1.0
 37
0.0
 76
     0
330
1F
331
29
  0
MATERIAL
  5
3D
102
{ACAD_REACTORS
330
3B
102
}
330
3B
100
AcDbMaterial
  1
ByBlock
 72
     1
 94
      127
  0
MATERIAL
  5
3C
102
{ACAD_REACTORS
330
3B
102
}
330
3B
100
AcDbMaterial
  1
ByLayer
 72
     1
 94
      127
  0
MATERIAL
  5
3E
102
{ACAD_REACTORS
330
3B
102
}
330
3B
100
AcDbMaterial
  1
Global
 72
     1
 94
      127
  0
MLINESTYLE
  5
18
102
{ACAD_REACTORS
330
17
102
}
330
17
100
AcDbMlineStyle
  2
Standard
 70
     0
  3

 62
   256
 51
90.0
 52
90.0
 71
     2
 49
0.5
 62
   256
  6
BYLAYER
 49
-0.5
 62
   256
  6
BYLAYER
  0
ACDBPLACEHOLDER
  5
F
102
{ACAD_REACTORS
330
E
102
}
330
E
  0
VISUALSTYLE
  5
2F
102
{ACAD_REACTORS
330
2A
102
}
330
2A
100
AcDbVisualStyle
  2
2dWireframe
 70
     4
177
     2
291
     0
 71
     0
176
     1
 72
     2
176
     1
 73
     0
176
     1
 90
        0
176
     1
 40
-0.6
176
     1
 41
-30.0
176
     1
 62
     5
 63
     7
421
 16777215
176
     1
 74
     1
176
     1
 91
        4
176
     1
 64
     7
176
     1
 65
   257
176
     1
 75
     1
176
     1
175
     1
176
     1
 42
1.0
176
     1
 92
        0
176
     1
 66
   257
176
     1
 43
1.0
176
     1
 76
     1
176
     1
 77
     6
176
     1
 78
     2
176
     1
 67
     7
176
     1
 79
     5
176
     1
170
     0
176
     1
171
     0
176
     1
290
     0
176
     1
 93
        1
176
     1
 44
0.0
176
     1
173
     0
176
     1
  0
VISUALSTYLE
  5
31
102
{ACAD_REACTORS
330
2A
102
}
330
2A
100
AcDbVisualStyle
  2
3D Hidden
 70
     6
177
     2
291
     0
 71
     1
176
     1
 72
     2
176
     1
 73
     2
176
     1
 90
        0
176
     1
 40
-0.6
176
     1
 41
-30.0
176
     1
 62
     5
 63
     7
421
 16777215
176
     1
 74
     2
176
     1
 91
        2
176
     1
 64
     7
176
     1
 65
   257
176
     1
 75
     2
176
     1
175
     1
176
     1
 42
40.0
176
     1
 92
        0
176
     1
 66
   257
176
     1
 43
1.0
176
     1
 76
     1
176
     1
 77
     6
176
     1
 78
     2
176
     1
 67
     7
176
     1
 79
     3
176
     1
170
     0
176
     1
171
     0
176
     1
290
     0
176
     1
 93
        1
176
     1
 44
0.0
176
     1
173
     0
176
     1
  0
VISUALSTYLE
  5
30
102
{ACAD_REACTORS
330
2A
102
}
330
2A
100
AcDbVisualStyle
  2
3dWireframe
 70
     5
177
     2
291
     0
 71
     0
176
     1
 72
     2
176
     1
 73
     0
176
     1
 90
        0
176
     1
 40
-0.6
176
     1
 41
-30.0
176
     1
 62
     5
 63
     7
421
 16777215
176
     1
 74
     1
176
     1
 91
        4
176
     1
 64
     7
176
     1
 65
   257
176
     1
 75
     1
176
     1
175
     1
176
     1
 42
1.0
176
     1
 92
        0
176
     1
 66
   257
176
     1
 43
1.0
176
     1
 76
     1
176
     1
 77
     6
176
     1
 78
     2
176
     1
 67
     7
176
     1
 79
     5
176
     1
170
     0
176
     1
171
     0
176
     1
290
     0
176
     1
 93
        1
176
     1
 44
0.0
176
     1
173
     0
176
     1
  0
VISUALSTYLE
  5
32
102
{ACAD_REACTORS
330
2A
102
}
330
2A
100
AcDbVisualStyle
  2
Basic
 70
     7
177
     2
291
     1
 71
     1
176
     1
 72
     0
176
     1
 73
     1
176
     1
 90
        0
176
     1
 40
-0.6
176
     1
 41
-30.0
176
     1
 62
     5
 63
     7
421
 16777215
176
     1
 74
     0
176
     1
 91
        4
176
     1
 64
     7
176
     1
 65
   257
176
     1
 75
     1
176
     1
175
     1
176
     1
 42
1.0
176
     1
 92
        8
176
     1
 66
     7
176
     1
 43
1.0
176
     1
 76
     1
176
     1
 77
     6
176
     1
 78
     2
176
     1
 67
     7
176
     1
 79
     5
176
     1
170
     0
176
     1
171
     0
176
     1
290
     0
176
     1
 93
        1
176
     1
 44
0.0
176
     1
173
     0
176
     1
  0
VISUALSTYLE
  5
36
102
{ACAD_REACTORS
330
2A
102
}
330
2A
100
AcDbVisualStyle
  2
Brighten
 70
    12
177
     2
291
     1
 71
     2
176
     1
 72
     2
176
     1
 73
     0
176
     1
 90
        0
176
     1
 40
-0.6
176
     1
 41
-30.0
176
     1
 62
     5
 63
     7
421
 16777215
176
     1
 74
     1
176
     1
 91
        4
176
     1
 64
     7
176
     1
 65
   257
176
     1
 75
     1
176
     1
175
     1
176
     1
 42
1.0
176
     1
 92
        8
176
     1
 66
     7
176
     1
 43
1.0
176
     1
 76
     1
176
     1
 77
     6
176
     1
 78
     2
176
     1
 67
     7
176
     1
 79
     5
176
     1
170
     0
176
     1
171
     0
176
     1
290
     0
176
     1
 93
        1
176
     1
 44
50.0
176
     1
173
     0
176
     1
  0
VISUALSTYLE
  5
3A
102
{ACAD_REACTORS
330
2A
102
}
330
2A
100
AcDbVisualStyle
  2
ColorChange
 70
    16
177
     2
291
     1
 71
     2
176
     1
 72
     2
176
     1
 73
     3
176
     1
 90
        0
176
     1
 40
-0.6
176
     1
 41
-30.0
176
     1
 62
     5
 63
     8
421
  8421504
176
     1
 74
     1
176
     1
 91
        4
176
     1
 64
     7
176
     1
 65
   257
176
     1
 75
     1
176
     1
175
     1
176
     1
 42
1.0
176
     1
 92
        8
176
     1
 66
     8
424
  8421504
176
     1
 43
1.0
176
     1
 76
     1
176
     1
 77
     6
176
     1
 78
     2
176
     1
 67
     7
176
     1
 79
     5
176
     1
170
     0
176
     1
171
     0
176
     1
290
     0
176
     1
 93
        1
176
     1
 44
0.0
176
     1
173
     0
176
     1
  0
VISUALSTYLE
  5
34
102
{ACAD_REACTORS
330
2A
102
}
330
2A
100
AcDbVisualStyle
  2
Conceptual
 70
     9
177
     2
291
     0
 71
     3
176
     1
 72
     2
176
     1
 73
     0
176
     1
 90
        0
176
     1
 40
-0.6
176
     1
 41
-30.0
176
     1
 62
     5
 63
     7
421
 16777215
176
     1
 74
     2
176
     1
 91
        2
176
     1
 64
     7
176
     1
 65
   257
176
     1
 75
     1
176
     1
175
     1
176
     1
 42
40.0
176
     1
 92
        8
176
     1
 66
     7
176
     1
 43
1.0
176
     1
 76
     1
176
     1
 77
     6
176
     1
 78
     2
176
     1
 67
     7
176
     1
 79
     3
176
     1
170
     0
176
     1
171
     0
176
     1
290
     0
176
     1
 93
        1
176
     1
 44
0.0
176
     1
173
     0
176
     1
  0
VISUALSTYLE
  5
35
102
{ACAD_REACTORS
330
2A
102
}
330
2A
100
AcDbVisualStyle
  2
Dim
 70
    11
177
     2
291
     1
 71
     2
176
     1
 72
     2
176
     1
 73
     0
176
     1
 90
        0
176
     1
 40
-0.6
176
     1
 41
-30.0
176
     1
 62
     5
 63
     7
421
 16777215
176
     1
 74
     1
176
     1
 91
        4
176
     1
 64
     7
176
     1
 65
   257
176
     1
 75
     1
176
     1
175
     1
176
     1
 42
1.0
176
     1
 92
        8
176
     1
 66
     7
176
     1
 43
1.0
176
     1
 76
     1
176
     1
 77
     6
176
     1
 78
     2
176
     1
 67
     7
176
     1
 79
     5
176
     1
170
     0
176
     1
171
     0
176
     1
290
     0
176
     1
 93
        1
176
     1
 44
-50.0
176
     1
173
     0
176
     1
  0
VISUALSTYLE
  5
39
102
{ACAD_REACTORS
330
2A
102
}
330
2A
100
AcDbVisualStyle
  2
Facepattern
 70
    15
177
     2
291
     1
 71
     2
176
     1
 72
     2
176
     1
 73
     0
176
     1
 90
        0
176
     1
 40
-0.6
176
     1
 41
-30.0
176
     1
 62
     5
 63
     7
421
 16777215
176
     1
 74
     1
176
     1
 91
        4
176
     1
 64
     7
176
     1
 65
   257
176
     1
 75
     1
176
     1
175
     1
176
     1
 42
1.0
176
     1
 92
        8
176
     1
 66
     7
176
     1
 43
1.0
176
     1
 76
     1
176
     1
 77
     6
176
     1
 78
     2
176
     1
 67
     7
176
     1
 79
     5
176
     1
170
     0
176
     1
171
     0
176
     1
290
     0
176
     1
 93
        1
176
     1
 44
0.0
176
     1
173
     0
176
     1
  0
VISUALSTYLE
  5
2B
102
{ACAD_REACTORS
330
2A
102
}
330
2A
100
AcDbVisualStyle
  2
Flat
 70
     0
177
     2
291
     1
 71
     2
176
     1
 72
     1
176
     1
 73
     1
176
     1
 90
        2
176
     1
 40
-0.6
176
     1
 41
30.0
176
     1
 62
     5
 63
     7
421
 16777215
176
     1
 74
     0
176
     1
 91
        4
176
     1
 64
     7
176
     1
 65
   257
176
     1
 75
     1
176
     1
175
     1
176
     1
 42
1.0
176
     1
 92
        8
176
     1
 66
     7
176
     1
 43
1.0
176
     1
 76
     1
176
     1
 77
     6
176
     1
 78
     2
176
     1
 67
     7
176
     1
 79
     5
176
     1
170
     0
176
     1
171
     0
176
     1
290
     0
176
     1
 93
       13
176
     1
 44
0.0
176
     1
173
     0
176
     1
  0
VISUALSTYLE
  5
2C
102
{ACAD_REACTORS
330
2A
102
}
330
2A
100
AcDbVisualStyle
  2
FlatWithEdges
 70
     1
177
     2
291
     1
 71
     2
176
     1
 72
     1
176
     1
 73
     1
176
     1
 90
        2
176
     1
 40
-0.6
176
     1
 41
30.0
176
     1
 62
     5
 63
     7
421
 16777215
176
     1
 74
     1
176
     1
 91
        4
176
     1
 64
     7
176
     1
 65
   257
176
     1
 75
     1
176
     1
175
     1
176
     1
 42
1.0
176
     1
 92
        0
176
     1
 66
   257
176
     1
 43
1.0
176
     1
 76
     1
176
     1
 77
     6
176
     1
 78
     2
176
     1
 67
     7
176
     1
 79
     5
176
     1
170
     0
176
     1
171
     0
176
     1
290
     0
176
     1
 93
       13
176
     1
 44
0.0
176
     1
173
     0
176
     1
  0
VISUALSTYLE
  5
2D
102
{ACAD_REACTORS
330
2A
102
}
330
2A
100
AcDbVisualStyle
  2
Gouraud
 70
     2
177
     2
291
     1
 71
     2
176
     1
 72
     2
176
     1
 73
     1
176
     1
 90
        2
176
     1
 40
-0.6
176
     1
 41
30.0
176
     1
 62
     5
 63
     7
421
 16777215
176
     1
 74
     0
176
     1
 91
        4
176
     1
 64
     7
176
     1
 65
   257
176
     1
 75
     1
176
     1
175
     1
176
     1
 42
1.0
176
     1
 92
        0
176
     1
 66
     7
176
     1
 43
1.0
176
     1
 76
     1
176
     1
 77
     6
176
     1
 78
     2
176
     1
 67
     7
176
     1
 79
     5
176
     1
170
     0
176
     1
171
     0
176
     1
290
     0
176
     1
 93
       13
176
     1
 44
0.0
176
     1
173
     0
176
     1
  0
VISUALSTYLE
  5
2E
102
{ACAD_REACTORS
330
2A
102
}
330
2A
100
AcDbVisualStyle
  2
GouraudWithEdges
 70
     3
177
     2
291
     1
 71
     2
176
     1
 72
     2
176
     1
 73
     1
176
     1
 90
        2
176
     1
 40
-0.6
176
     1
 41
30.0
176
     1
 62
     5
 63
     7
421
 16777215
176
     1
 74
     1
176
     1
 91
        4
176
     1
 64
     7
176
     1
 65
   257
176
     1
 75
     1
176
     1
175
     1
176
     1
 42
1.0
176
     1
 92
        0
176
     1
 66
   257
176
     1
 43
1.0
176
     1
 76
     1
176
     1
 77
     6
176
     1
 78
     2
176
     1
 67
     7
176
     1
 79
     5
176
     1
170
     0
176
     1
171
     0
176
     1
290
     0
176
     1
 93
       13
176
     1
 44
0.0
176
     1
173
     0
176
     1
  0
VISUALSTYLE
  5
38
102
{ACAD_REACTORS
330
2A
102
}
330
2A
100
AcDbVisualStyle
  2
Linepattern
 70
    14
177
     2
291
     1
 71
     2
176
     1
 72
     2
176
     1
 73
     0
176
     1
 90
        0
176
     1
 40
-0.6
176
     1
 41
-30.0
176
     1
 62
     5
 63
     7
421
 16777215
176
     1
 74
     1
176
     1
 91
        4
176
     1
 64
     7
176
     1
 65
   257
176
     1
 75
     7
176
     1
175
     7
176
     1
 42
1.0
176
     1
 92
        8
176
     1
 66
     7
176
     1
 43
1.0
176
     1
 76
     1
176
     1
 77
     6
176
     1
 78
     2
176
     1
 67
     7
176
     1
 79
     5
176
     1
170
     0
176
     1
171
     0
176
     1
290
     0
176
     1
 93
        1
176
     1
 44
0.0
176
     1
173
     0
176
     1
  0
VISUALSTYLE
  5
33
102
{ACAD_REACTORS
330
2A
102
}
330
2A
100
AcDbVisualStyle
  2
Realistic
 70
     8
177
     2
291
     0
 71
     2
176
     1
 72
     2
176
     1
 73
     0
176
     1
 90
        0
176
     1
 40
-0.6
176
     1
 41
-30.0
176
     1
 62
     5
 63
     7
421
 16777215
176
     1
 74
     1
176
     1
 91
        0
176
     1
 64
     7
176
     1
 65
   257
176
     1
 75
     1
176
     1
175
     1
176
     1
 42
1.0
176
     1
 92
        8
176
     1
 66
     8
424
  7895160
176
     1
 43
1.0
176
     1
 76
     1
176
     1
 77
     6
176
     1
 78
     2
176
     1
 67
     7
176
     1
 79
     5
176
     1
170
     0
176
     1
171
     0
176
     1
290
     0
176
     1
 93
       13
176
     1
 44
0.0
176
     1
173
     0
176
     1
  0
VISUALSTYLE
  5
37
102
{ACAD_REACTORS
330
2A
102
}
330
2A
100
AcDbVisualStyle
  2
Thicken
 70
    13
177
     2
291
     1
 71
     2
176
     1
 72
     2
176
     1
 73
     0
176
     1
 90
        0
176
     1
 40
-0.6
176
     1
 41
-30.0
176
     1
 62
     5
 63
     7
421
 16777215
176
     1
 74
     1
176
     1
 91
        4
176
     1
 64
     7
176
     1
 65
   257
176
     1
 75
     1
176
     1
175
     1
176
     1
 42
1.0
176
     1
 92
       12
176
     1
 66
     7
176
     1
 43
1.0
176
     1
 76
     1
176
     1
 77
     6
176
     1
 78
     2
176
     1
 67
     7
176
     1
 79
     5
176
     1
170
     0
176
     1
171
     0
176
     1
290
     0
176
     1
 93
        1
176
     1
 44
0.0
176
     1
173
     0
176
     1
  0
ENDSEC
  0
EOF
