  0
SECTION
  2
HEADER
  9
$ACADVER
  1
AC1024
  9
$ACADMAINTVER
 70
     6
  9
$DWGCODEPAGE
  3
UNDEFINED
  9
$INSBASE
 10
0.0
 20
0.0
 30
0.0
  9
$EXTMIN
 10
1.000000000000000E+20
 20
1.000000000000000E+20
 30
1.000000000000000E+20
  9
$EXTMAX
 10
-1.000000000000000E+20
 20
-1.000000000000000E+20
 30
-1.000000000000000E+20
  9
$LIMMIN
 10
0.0
 20
0.0
  9
$LIMMAX
 10
12.0
 20
9.0
  9
$ORTHOMODE
 70
     0
  9
$REGENMODE
 70
     1
  9
$FILLMODE
 70
     1
  9
$QTEXTMODE
 70
     0
  9
$MIRRTEXT
 70
     1
  9
$LTSCALE
 40
1.0
  9
$ATTMODE
 70
     1
  9
$TEXTSIZE
 40
0.2
  9
$TRACEWID
 40
0.05
  9
$TEXTSTYLE
  7
Standard
  9
$CLAYER
  8
0
  9
$CELTYPE
  6
ByLayer
  9
$CECOLOR
 62
   256
  9
$CELTSCALE
 40
1.0
  9
$DISPSILH
 70
     0
  9
$DIMSCALE
 40
1.0
  9
$DIMASZ
 40
0.18
  9
$DIMEXO
 40
0.0625
  9
$DIMDLI
 40
0.38
  9
$DIMRND
 40
0.0
  9
$DIMDLE
 40
0.0
  9
$DIMEXE
 40
0.18
  9
$DIMTP
 40
0.0
  9
$DIMTM
 40
0.0
  9
$DIMTXT
 40
0.18
  9
$DIMCEN
 40
0.09
  9
$DIMTSZ
 40
0.0
  9
$DIMTOL
 70
     0
  9
$DIMLIM
 70
     0
  9
$DIMTIH
 70
     1
  9
$DIMTOH
 70
     1
  9
$DIMSE1
 70
     0
  9
$DIMSE2
 70
     0
  9
$DIMTAD
 70
     0
  9
$DIMZIN
 70
     0
  9
$DIMBLK
  1

  9
$DIMASO
 70
     1
  9
$DIMSHO
 70
     1
  9
$DIMPOST
  1

  9
$DIMAPOST
  1

  9
$DIMALT
 70
     0
  9
$DIMALTD
 70
     2
  9
$DIMALTF
 40
25.4
  9
$DIMLFAC
 40
1.0
  9
$DIMTOFL
 70
     0
  9
$DIMTVP
 40
0.0
  9
$DIMTIX
 70
     0
  9
$DIMSOXD
 70
     0
  9
$DIMSAH
 70
     0
  9
$DIMBLK1
  1

  9
$DIMBLK2
  1

  9
$DIMSTYLE
  2
Standard
  9
$DIMCLRD
 70
     0
  9
$DIMCLRE
 70
     0
  9
$DIMCLRT
 70
     0
  9
$DIMTFAC
 40
1.0
  9
$DIMGAP
 40
0.09
  9
$DIMJUST
 70
     0
  9
$DIMSD1
 70
     0
  9
$DIMSD2
 70
     0
  9
$DIMTOLJ
 70
     1
  9
$DIMTZIN
 70
     0
  9
$DIMALTZ
 70
     0
  9
$DIMALTTZ
 70
     0
  9
$DIMUPT
 70
     0
  9
$DIMDEC
 70
     4
  9
$DIMTDEC
 70
     4
  9
$DIMALTU
 70
     2
  9
$DIMALTTD
 70
     2
  9
$DIMTXSTY
  7
Standard
  9
$DIMAUNIT
 70
     0
  9
$DIMADEC
 70
     0
  9
$DIMALTRND
 40
0.0
  9
$DIMAZIN
 70
     0
  9
$DIMDSEP
 70
    46
  9
$DIMATFIT
 70
     3
  9
$DIMFRAC
 70
     0
  9
$DIMLDRBLK
  1

  9
$DIMLUNIT
 70
     2
  9
$DIMLWD
 70
    -2
  9
$DIMLWE
 70
    -2
  9
$DIMTMOVE
 70
     0
  9
$DIMFXL
 40
1.0
  9
$DIMFXLON
 70
     0
  9
$DIMJOGANG
 40
0.7853981633974483
  9
$DIMTFILL
 70
     0
  9
$DIMTFILLCLR
 70
     0
  9
$DIMARCSYM
 70
     0
  9
$DIMLTYPE
  6

  9
$DIMLTEX1
  6

  9
$DIMLTEX2
  6

  9
$DIMTXTDIRECTION
 70
     0
  9
$LUNITS
 70
     2
  9
$LUPREC
 70
     4
  9
$SKETCHINC
 40
0.1
  9
$FILLETRAD
 40
0.5
  9
$AUNITS
 70
     0
  9
$AUPREC
 70
     0
  9
$MENU
  1
.
  9
$ELEVATION
 40
0.0
  9
$PELEVATION
 40
0.0
  9
$THICKNESS
 40
0.0
  9
$LIMCHECK
 70
     0
  9
$CHAMFERA
 40
0.5
  9
$CHAMFERB
 40
0.5
  9
$CHAMFERC
 40
1.0
  9
$CHAMFERD
 40
0.0
  9
$SKPOLY
 70
     0
  9
$TDCREATE
 40
2457917.585393519
  9
$TDUCREATE
 40
2457917.210393519
  9
$TDUPDATE
 40
2457917.585393519
  9
$TDUUPDATE
 40
2457917.210393519
  9
$TDINDWG
 40
0.0000000116
  9
$TDUSRTIMER
 40
0.0000000116
  9
$USRTIMER
 70
     1
  9
$ANGBASE
 50
0.0
  9
$ANGDIR
 70
     0
  9
$PDMODE
 70
     0
  9
$PDSIZE
 40
0.0
  9
$PLINEWID
 40
0.0
  9
$SPLFRAME
 70
     0
  9
$SPLINETYPE
 70
     6
  9
$SPLINESEGS
 70
     8
  9
$HANDSEED
  5
C5
  9
$SURFTAB1
 70
     6
  9
$SURFTAB2
 70
     6
  9
$SURFTYPE
 70
     6
  9
$SURFU
 70
     6
  9
$SURFV
 70
     6
  9
$UCSBASE
  2

  9
$UCSNAME
  2

  9
$UCSORG
 10
0.0
 20
0.0
 30
0.0
  9
$UCSXDIR
 10
1.0
 20
0.0
 30
0.0
  9
$UCSYDIR
 10
0.0
 20
1.0
 30
0.0
  9
$UCSORTHOREF
  2

  9
$UCSORTHOVIEW
 70
     0
  9
$UCSORGTOP
 10
0.0
 20
0.0
 30
0.0
  9
$UCSORGBOTTOM
 10
0.0
 20
0.0
 30
0.0
  9
$UCSORGLEFT
 10
0.0
 20
0.0
 30
0.0
  9
$UCSORGRIGHT
 10
0.0
 20
0.0
 30
0.0
  9
$UCSORGFRONT
 10
0.0
 20
0.0
 30
0.0
  9
$UCSORGBACK
 10
0.0
 20
0.0
 30
0.0
  9
$PUCSBASE
  2

  9
$PUCSNAME
  2

  9
$PUCSORG
 10
0.0
 20
0.0
 30
0.0
  9
$PUCSXDIR
 10
1.0
 20
0.0
 30
0.0
  9
$PUCSYDIR
 10
0.0
 20
1.0
 30
0.0
  9
$PUCSORTHOREF
  2

  9
$PUCSORTHOVIEW
 70
     0
  9
$PUCSORGTOP
 10
0.0
 20
0.0
 30
0.0
  9
$PUCSORGBOTTOM
 10
0.0
 20
0.0
 30
0.0
  9
$PUCSORGLEFT
 10
0.0
 20
0.0
 30
0.0
  9
$PUCSORGRIGHT
 10
0.0
 20
0.0
 30
0.0
  9
$PUCSORGFRONT
 10
0.0
 20
0.0
 30
0.0
  9
$PUCSORGBACK
 10
0.0
 20
0.0
 30
0.0
  9
$USERI1
 70
     0
  9
$USERI2
 70
     0
  9
$USERI3
 70
     0
  9
$USERI4
 70
     0
  9
$USERI5
 70
     0
  9
$USERR1
 40
0.0
  9
$USERR2
 40
0.0
  9
$USERR3
 40
0.0
  9
$USERR4
 40
0.0
  9
$USERR5
 40
0.0
  9
$WORLDVIEW
 70
     1
  9
$SHADEDGE
 70
     3
  9
$SHADEDIF
 70
    70
  9
$TILEMODE
 70
     1
  9
$MAXACTVP
 70
    64
  9
$PINSBASE
 10
0.0
 20
0.0
 30
0.0
  9
$PLIMCHECK
 70
     0
  9
$PEXTMIN
 10
1.000000000000000E+20
 20
1.000000000000000E+20
 30
1.000000000000000E+20
  9
$PEXTMAX
 10
-1.000000000000000E+20
 20
-1.000000000000000E+20
 30
-1.000000000000000E+20
  9
$PLIMMIN
 10
0.0
 20
0.0
  9
$PLIMMAX
 10
12.0
 20
9.0
  9
$UNITMODE
 70
     0
  9
$VISRETAIN
 70
     1
  9
$PLINEGEN
 70
     0
  9
$PSLTSCALE
 70
     1
  9
$TREEDEPTH
 70
  3020
  9
$CMLSTYLE
  2
Standard
  9
$CMLJUST
 70
     0
  9
$CMLSCALE
 40
1.0
  9
$PROXYGRAPHICS
 70
     1
  9
$MEASUREMENT
 70
     0
  9
$CELWEIGHT
370
    -1
  9
$ENDCAPS
280
     0
  9
$JOINSTYLE
280
     0
  9
$LWDISPLAY
290
     1
  9
$INSUNITS
 70
     1
  9
$HYPERLINKBASE
  1

  9
$STYLESHEET
  1

  9
$XEDIT
290
     1
  9
$CEPSNTYPE
380
     0
  9
$PSTYLEMODE
290
     1
  9
$FINGERPRINTGUID
  2
{1242E71F-2701-BBC2-FD82-29FEE7626FAD}
  9
$VERSIONGUID
  2
{FAEB1C32-E019-11D5-929B-00C0DF256EC4}
  9
$EXTNAMES
290
     1
  9
$PSVPSCALE
 40
0.0
  9
$OLESTARTUP
290
     0
  9
$SORTENTS
280
   127
  9
$INDEXCTL
280
     0
  9
$HIDETEXT
280
     1
  9
$XCLIPFRAME
280
     2
  9
$HALOGAP
280
     0
  9
$OBSCOLOR
 70
   257
  9
$OBSLTYPE
280
     0
  9
$INTERSECTIONDISPLAY
280
     0
  9
$INTERSECTIONCOLOR
 70
   257
  9
$DIMASSOC
280
     2
  9
$PROJECTNAME
  1

  9
$CAMERADISPLAY
290
     0
  9
$LENSLENGTH
 40
50.0
  9
$CAMERAHEIGHT
 40
0.0
  9
$STEPSPERSEC
 40
2.0
  9
$STEPSIZE
 40
6.0
  9
$3DDWFPREC
 40
2.0
  9
$PSOLWIDTH
 40
0.25
  9
$PSOLHEIGHT
 40
4.0
  9
$LOFTANG1
 40
1.570796326794897
  9
$LOFTANG2
 40
1.570796326794897
  9
$LOFTMAG1
 40
0.0
  9
$LOFTMAG2
 40
0.0
  9
$LOFTPARAM
 70
     7
  9
$LOFTNORMALS
280
     1
  9
$LATITUDE
 40
37.795
  9
$LONGITUDE
 40
-122.394
  9
$NORTHDIRECTION
 40
0.0
  9
$TIMEZONE
 70
 -8000
  9
$LIGHTGLYPHDISPLAY
280
     1
  9
$TILEMODELIGHTSYNCH
280
     1
  9
$CMATERIAL
347
3C
  9
$SOLIDHIST
280
     1
  9
$SHOWHIST
280
     1
  9
$DWFFRAME
280
     2
  9
$DGNFRAME
280
     2
  9
$REALWORLDSCALE
290
     1
  9
$INTERFERECOLOR
 62
   256
  9
$CSHADOW
280
     0
  9
$SHADOWPLANELOCATION
 40
0.0
  0
ENDSEC
  0
SECTION
  2
CLASSES
  0
CLASS
  1
ACDBDICTIONARYWDFLT
  2
AcDbDictionaryWithDefault
  3
ObjectDBX Classes
 90
        0
 91
        4
280
     0
281
     0
  0
CLASS
  1
VISUALSTYLE
  2
AcDbVisualStyle
  3
ObjectDBX Classes
 90
     4095
 91
        4
280
     0
281
     0
  0
CLASS
  1
MATERIAL
  2
AcDbMaterial
  3
ObjectDBX Classes
 90
     1153
 91
        4
280
     0
281
     0
  0
CLASS
  1
SUN
  2
AcDbSun
  3
SCENEOE
 90
     1024
 91
        4
280
     0
281
     0
  0
ENDSEC
  0
SECTION
  2
TABLES
  0
TABLE
  2
VPORT
  5
8
330
0
100
AcDbSymbolTable
 70
     1
  0
VPORT
  5
29
330
8
100
AcDbSymbolTableRecord
100
AcDbViewportTableRecord
  2
*Active
 70
     0
 10
0.0
 20
0.0
 11
1.0
 21
1.0
 12
0.0
 22
0.0
 13
0.0
 23
0.0
 14
0.5
 24
0.5
 15
0.5
 25
0.5
 16
0.0
 26
0.0
 36
1.0
 17
91.00082462281999
 27
-128.4993055234307
 37
0.0
 40
256.9986110468615
 41
0.7081814508812795
 42
50.0
 43
0.0
 44
0.0
 50
0.0
 51
0.0
 71
     0
 72
   100
 73
     1
 74
     3
 75
     0
 76
     0
 77
     0
 78
     0
281
     0
 65
     1
110
0.0
120
0.0
130
0.0
111
1.0
121
0.0
131
0.0
112
0.0
122
1.0
132
0.0
 79
     0
146
0.0
 60
     3
 61
     5
292
     1
282
     1
141
0.0
142
0.0
 63
   250
361
3F
  0
ENDTAB
  0
TABLE
  2
LTYPE
  5
5
330
0
100
AcDbSymbolTable
 70
     2
  0
LTYPE
  5
14
330
5
100
AcDbSymbolTableRecord
100
AcDbLinetypeTableRecord
  2
ByBlock
 70
     0
  3

 72
    65
 73
     0
 40
0.0
  0
LTYPE
  5
15
330
5
100
AcDbSymbolTableRecord
100
AcDbLinetypeTableRecord
  2
ByLayer
 70
     0
  3

 72
    65
 73
     0
 40
0.0
  0
LTYPE
  5
16
330
5
100
AcDbSymbolTableRecord
100
AcDbLinetypeTableRecord
  2
Continuous
 70
     0
  3
Solid line
 72
    65
 73
     0
 40
0.0
  0
LTYPE
  5
8D
330
5
100
AcDbSymbolTableRecord
100
AcDbLinetypeTableRecord
  2
AI-Linetype-1
 70
     0
  3
Adobe Illustrator Linetype No. 1
 72
    65
 73
     2
 40
1.411111110758333
 49
0.7055555553791667
 74
     0
 49
-0.7055555553791667
 74
     0
  0
ENDTAB
  0
TABLE
  2
LAYER
  5
2
330
0
100
AcDbSymbolTable
 70
     2
  0
LAYER
  5
10
330
2
100
AcDbSymbolTableRecord
100
AcDbLayerTableRecord
  2
0
 70
     0
 62
     7
  6
Continuous
370
    -3
390
F
347
3E
  0
LAYER
  5
40
330
2
100
AcDbSymbolTableRecord
100
AcDbLayerTableRecord
  2
_U+30EC_U+30A4_U+30E4_U+30FC 1
 70
     0
 62
     7
  6
Continuous
370
    -3
390
F
347
3E
  0
ENDTAB
  0
TABLE
  2
STYLE
  5
3
330
0
100
AcDbSymbolTable
 70
     1
  0
STYLE
  5
11
330
3
100
AcDbSymbolTableRecord
100
AcDbTextStyleTableRecord
  2
Standard
 70
     0
 40
0.0
 41
1.0
 50
0.0
 71
     0
 42
0.2
  3
txt
  4

  0
ENDTAB
  0
TABLE
  2
VIEW
  5
6
330
0
100
AcDbSymbolTable
 70
     0
  0
ENDTAB
  0
TABLE
  2
UCS
  5
7
330
0
100
AcDbSymbolTable
 70
     0
  0
ENDTAB
  0
TABLE
  2
APPID
  5
9
330
0
100
AcDbSymbolTable
 70
     1
  0
APPID
  5
12
330
9
100
AcDbSymbolTableRecord
100
AcDbRegAppTableRecord
  2
ACAD
 70
     0
  0
ENDTAB
  0
TABLE
  2
DIMSTYLE
  5
A
330
0
100
AcDbSymbolTable
 70
     1
100
AcDbDimStyleTable
  0
DIMSTYLE
105
27
330
A
100
AcDbSymbolTableRecord
100
AcDbDimStyleTableRecord
  2
Standard
 70
     0
178
     0
340
11
  0
ENDTAB
  0
TABLE
  2
BLOCK_RECORD
  5
1
330
0
100
AcDbSymbolTable
 70
     5
  0
BLOCK_RECORD
  5
1F
330
1
100
AcDbSymbolTableRecord
100
AcDbBlockTableRecord
  2
*Model_Space
340
22
 70
     0
280
     1
281
     0
  0
BLOCK_RECORD
  5
1B
330
1
100
AcDbSymbolTableRecord
100
AcDbBlockTableRecord
  2
*Paper_Space
340
1E
 70
     0
280
     1
281
     0
  0
BLOCK_RECORD
  5
23
330
1
100
AcDbSymbolTableRecord
100
AcDbBlockTableRecord
  2
*Paper_Space0
340
26
 70
     0
280
     1
281
     0
  0
BLOCK_RECORD
  5
41
330
1
100
AcDbSymbolTableRecord
100
AcDbBlockTableRecord
  2
block 2
340
0
102
{BLKREFS
331
42
102
}
 70
     0
280
     1
281
     0
  0
BLOCK_RECORD
  5
6E
330
1
100
AcDbSymbolTableRecord
100
AcDbBlockTableRecord
  2
block 3
340
0
102
{BLKREFS
331
6F
102
}
 70
     0
280
     1
281
     0
  0
BLOCK_RECORD
  5
82
330
1
100
AcDbSymbolTableRecord
100
AcDbBlockTableRecord
  2
block 4
340
0
102
{BLKREFS
331
83
102
}
 70
     0
280
     1
281
     0
  0
BLOCK_RECORD
  5
9B
330
1
100
AcDbSymbolTableRecord
100
AcDbBlockTableRecord
  2
block 5
340
0
102
{BLKREFS
331
9C
102
}
 70
     0
280
     1
281
     0
  0
ENDTAB
  0
ENDSEC
  0
SECTION
  2
BLOCKS
  0
BLOCK
  5
20
330
1F
100
AcDbEntity
  8
0
100
AcDbBlockBegin
  2
*Model_Space
 70
     0
 10
0.0
 20
0.0
 30
0.0
  3
*Model_Space
  1

  0
ENDBLK
  5
21
330
1F
100
AcDbEntity
  8
0
100
AcDbBlockEnd
  0
BLOCK
  5
1C
330
1B
100
AcDbEntity
 67
     1
  8
0
100
AcDbBlockBegin
  2
*Paper_Space
 70
     0
 10
0.0
 20
0.0
 30
0.0
  3
*Paper_Space
  1

  0
ENDBLK
  5
1D
330
1B
100
AcDbEntity
 67
     1
  8
0
100
AcDbBlockEnd
  0
BLOCK
  5
24
330
23
100
AcDbEntity
  8
0
100
AcDbBlockBegin
  2
*Paper_Space0
 70
     0
 10
0.0
 20
0.0
 30
0.0
  3
*Paper_Space0
  1

  0
ENDBLK
  5
25
330
23
100
AcDbEntity
  8
0
100
AcDbBlockEnd
  0
BLOCK
  5
43
330
41
100
AcDbEntity
  8
0
100
AcDbBlockBegin
  2
block 2
 70
     0
 10
0.0
 20
0.0
 30
0.0
  3
block 2
  1

  0
POLYLINE
  5
45
330
41
100
AcDbEntity
  8
_U+30EC_U+30A4_U+30E4_U+30FC 1
 62
   179
420
  2234388
370
    25
100
AcDb2dPolyline
 66
     1
 10
0.0
 20
0.0
 30
0.0
  0
VERTEX
  5
46
330
45
100
AcDbEntity
  8
_U+30EC_U+30A4_U+30E4_U+30FC 1
 62
   179
420
  2234388
370
    25
100
AcDbVertex
100
AcDb2dVertex
 10
106.7593749733102
 20
-132.2592816336018
 30
0.0
  0
VERTEX
  5
47
330
45
100
AcDbEntity
  8
_U+30EC_U+30A4_U+30E4_U+30FC 1
 62
   179
420
  2234388
370
    25
100
AcDbVertex
100
AcDb2dVertex
 10
106.7593749733102
 20
-132.7595205223655
 30
0.0
  0
SEQEND
  5
48
330
45
100
AcDbEntity
  8
_U+30EC_U+30A4_U+30E4_U+30FC 1
 62
   179
420
  2234388
370
    25
  0
POLYLINE
  5
49
330
41
100
AcDbEntity
  8
_U+30EC_U+30A4_U+30E4_U+30FC 1
 62
   179
420
  2234388
370
    25
100
AcDb2dPolyline
 66
     1
 10
0.0
 20
0.0
 30
0.0
  0
VERTEX
  5
4A
330
49
100
AcDbEntity
  8
_U+30EC_U+30A4_U+30E4_U+30FC 1
 62
   179
420
  2234388
370
    25
100
AcDbVertex
100
AcDb2dVertex
 10
82.75961844418178
 20
-132.2592816336018
 30
0.0
  0
VERTEX
  5
4B
330
49
100
AcDbEntity
  8
_U+30EC_U+30A4_U+30E4_U+30FC 1
 62
   179
420
  2234388
370
    25
100
AcDbVertex
100
AcDb2dVertex
 10
106.7593749733102
 20
-132.2592816336018
 30
0.0
  0
SEQEND
  5
4C
330
49
100
AcDbEntity
  8
_U+30EC_U+30A4_U+30E4_U+30FC 1
 62
   179
420
  2234388
370
    25
  0
POLYLINE
  5
4D
330
41
100
AcDbEntity
  8
_U+30EC_U+30A4_U+30E4_U+30FC 1
 62
   179
420
  2234388
370
    25
100
AcDb2dPolyline
 66
     1
 10
0.0
 20
0.0
 30
0.0
  0
VERTEX
  5
4E
330
4D
100
AcDbEntity
  8
_U+30EC_U+30A4_U+30E4_U+30FC 1
 62
   179
420
  2234388
370
    25
100
AcDbVertex
100
AcDb2dVertex
 10
106.7593749733102
 20
-132.7595205223655
 30
0.0
  0
VERTEX
  5
4F
330
4D
100
AcDbEntity
  8
_U+30EC_U+30A4_U+30E4_U+30FC 1
 62
   179
420
  2234388
370
    25
100
AcDbVertex
100
AcDb2dVertex
 10
82.57599761553301
 20
-133.2590538555743
 30
0.0
  0
SEQEND
  5
50
330
4D
100
AcDbEntity
  8
_U+30EC_U+30A4_U+30E4_U+30FC 1
 62
   179
420
  2234388
370
    25
  0
POLYLINE
  5
51
330
41
100
AcDbEntity
  8
_U+30EC_U+30A4_U+30E4_U+30FC 1
 62
   179
420
  2234388
370
    25
100
AcDb2dPolyline
 66
     1
 10
0.0
 20
0.0
 30
0.0
  0
VERTEX
  5
52
330
51
100
AcDbEntity
  8
_U+30EC_U+30A4_U+30E4_U+30FC 1
 62
   179
420
  2234388
370
    25
100
AcDbVertex
100
AcDb2dVertex
 10
82.75961844418178
 20
-121.2595999696851
 30
0.0
  0
VERTEX
  5
53
330
51
100
AcDbEntity
  8
_U+30EC_U+30A4_U+30E4_U+30FC 1
 62
   179
420
  2234388
370
    25
100
AcDbVertex
100
AcDb2dVertex
 10
82.75961844418178
 20
-132.2592816336018
 30
0.0
  0
SEQEND
  5
54
330
51
100
AcDbEntity
  8
_U+30EC_U+30A4_U+30E4_U+30FC 1
 62
   179
420
  2234388
370
    25
  0
POLYLINE
  5
55
330
41
100
AcDbEntity
  8
_U+30EC_U+30A4_U+30E4_U+30FC 1
 62
   179
420
  2234388
370
    25
100
AcDb2dPolyline
 66
     1
 10
0.0
 20
0.0
 30
0.0
  0
VERTEX
  5
56
330
55
100
AcDbEntity
  8
_U+30EC_U+30A4_U+30E4_U+30FC 1
 62
   179
420
  2234388
370
    25
100
AcDbVertex
100
AcDb2dVertex
 10
82.26421262348731
 20
-121.2279205252487
 30
0.0
  0
VERTEX
  5
57
330
55
100
AcDbEntity
  8
_U+30EC_U+30A4_U+30E4_U+30FC 1
 62
   179
420
  2234388
370
    25
100
AcDbVertex
100
AcDb2dVertex
 10
82.76409872184527
 20
-121.2279205252487
 30
0.0
  0
SEQEND
  5
58
330
55
100
AcDbEntity
  8
_U+30EC_U+30A4_U+30E4_U+30FC 1
 62
   179
420
  2234388
370
    25
  0
POLYLINE
  5
59
330
41
100
AcDbEntity
  8
_U+30EC_U+30A4_U+30E4_U+30FC 1
 62
   179
420
  2234388
370
    25
100
AcDb2dPolyline
 66
     1
 10
0.0
 20
0.0
 30
0.0
  0
VERTEX
  5
5A
330
59
100
AcDbEntity
  8
_U+30EC_U+30A4_U+30E4_U+30FC 1
 62
   179
420
  2234388
370
    25
100
AcDbVertex
100
AcDb2dVertex
 10
82.25973234582383
 20
-121.2595999696851
 30
0.0
  0
VERTEX
  5
5B
330
59
100
AcDbEntity
  8
_U+30EC_U+30A4_U+30E4_U+30FC 1
 62
   179
420
  2234388
370
    25
100
AcDbVertex
100
AcDb2dVertex
 10
81.76019902523466
 20
-132.4239583002274
 30
0.0
  0
SEQEND
  5
5C
330
59
100
AcDbEntity
  8
_U+30EC_U+30A4_U+30E4_U+30FC 1
 62
   179
420
  2234388
370
    25
  0
SPLINE
  5
5D
330
41
100
AcDbEntity
  8
_U+30EC_U+30A4_U+30E4_U+30FC 1
 62
   179
420
  2234388
370
    25
100
AcDbSpline
210
0.0
220
0.0
230
1.0
 70
     8
 71
     3
 72
    11
 73
     7
 74
     0
 42
0.0000000001
 43
0.0000000001
 12
1.0
 22
0.0
 32
0.0
 13
1.0
 23
0.0
 33
0.0
 40
0.0
 40
0.0
 40
0.0
 40
0.0
 40
1.0
 40
1.0
 40
1.0
 40
2.0
 40
2.0
 40
2.0
 40
2.0
 10
81.76019902523466
 20
-132.4239583002274
 30
0.0
 10
81.74058458129062
 20
-132.8649305223393
 30
0.0
 10
82.08267318367432
 20
-133.239051355579
 30
0.0
 10
82.52364539464641
 20
-133.2583483000188
 30
0.0
 10
82.54121372753154
 20
-133.2597241333517
 30
0.0
 10
82.55878206041666
 20
-133.2597241333517
 30
0.0
 10
82.57599761553301
 20
-133.2590538555743
 30
0.0
  0
SPLINE
  5
5E
330
41
100
AcDbEntity
  8
_U+30EC_U+30A4_U+30E4_U+30FC 1
 62
   179
420
  2234388
370
     9
100
AcDbSpline
210
0.0
220
0.0
230
1.0
 70
    11
 71
     3
 72
    17
 73
    13
 74
     0
 42
0.0000000001
 43
0.0000000001
 12
1.0
 22
0.0
 32
0.0
 13
1.0
 23
0.0
 33
0.0
 40
0.0
 40
0.0
 40
0.0
 40
0.0
 40
1.0
 40
1.0
 40
1.0
 40
2.0
 40
2.0
 40
2.0
 40
3.0
 40
3.0
 40
3.0
 40
4.0
 40
4.0
 40
4.0
 40
4.0
 10
106.8592789404593
 20
-137.2594832990186
 30
0.0
 10
106.8592789404593
 20
-137.2043794101437
 30
0.0
 10
106.8145114416015
 20
-137.1595766323769
 30
0.0
 10
106.7593749733102
 20
-137.1595766323769
 30
0.0
 10
106.7042683888584
 20
-137.1595766323769
 30
0.0
 10
106.6594656122237
 20
-137.2043794101437
 30
0.0
 10
106.6594656122237
 20
-137.2594832990186
 30
0.0
 10
106.6594656122237
 20
-137.3146224656717
 30
0.0
 10
106.7042683888584
 20
-137.3593899656602
 30
0.0
 10
106.7593749733102
 20
-137.3593899656602
 30
0.0
 10
106.8145114416015
 20
-137.3593899656602
 30
0.0
 10
106.8592789404593
 20
-137.3146224656717
 30
0.0
 10
106.8592789404593
 20
-137.2594832990186
 30
0.0
  0
SPLINE
  5
5F
330
41
100
AcDbEntity
  8
_U+30EC_U+30A4_U+30E4_U+30FC 1
 62
   179
420
  2234388
370
     9
100
AcDbSpline
210
0.0
220
0.0
230
1.0
 70
    11
 71
     3
 72
    17
 73
    13
 74
     0
 42
0.0000000001
 43
0.0000000001
 12
1.0
 22
0.0
 32
0.0
 13
1.0
 23
0.0
 33
0.0
 40
0.0
 40
0.0
 40
0.0
 40
0.0
 40
1.0
 40
1.0
 40
1.0
 40
2.0
 40
2.0
 40
2.0
 40
3.0
 40
3.0
 40
3.0
 40
4.0
 40
4.0
 40
4.0
 40
4.0
 10
77.8596763469675
 20
-133.2597241333517
 30
0.0
 10
77.8596763469675
 20
-133.2039146889213
 30
0.0
 10
77.81487357033274
 20
-133.1598174667101
 30
0.0
 10
77.75976968284967
 20
-133.1598174667101
 30
0.0
 10
77.70431301759783
 20
-133.1598174667101
 30
0.0
 10
77.65951024096306
 20
-133.2039146889213
 30
0.0
 10
77.65951024096306
 20
-133.2597241333517
 30
0.0
 10
77.65951024096306
 20
-133.3148633000048
 30
0.0
 10
77.70431301759783
 20
-133.3596307999933
 30
0.0
 10
77.75976968284967
 20
-133.3596307999933
 30
0.0
 10
77.81487357033274
 20
-133.3596307999933
 30
0.0
 10
77.8596763469675
 20
-133.3148633000048
 30
0.0
 10
77.8596763469675
 20
-133.2597241333517
 30
0.0
  0
SPLINE
  5
60
330
41
100
AcDbEntity
  8
_U+30EC_U+30A4_U+30E4_U+30FC 1
 62
   179
420
  2234388
370
     9
100
AcDbSpline
210
0.0
220
0.0
230
1.0
 70
    11
 71
     3
 72
    17
 73
    13
 74
     0
 42
0.0000000001
 43
0.0000000001
 12
1.0
 22
0.0
 32
0.0
 13
1.0
 23
0.0
 33
0.0
 40
0.0
 40
0.0
 40
0.0
 40
0.0
 40
1.0
 40
1.0
 40
1.0
 40
2.0
 40
2.0
 40
2.0
 40
3.0
 40
3.0
 40
3.0
 40
4.0
 40
4.0
 40
4.0
 40
4.0
 10
81.85943541159182
 20
-137.2594832990186
 30
0.0
 10
81.85943541159182
 20
-137.2043794101437
 30
0.0
 10
81.81463263495705
 20
-137.1595766323769
 30
0.0
 10
81.75952874747398
 20
-137.1595766323769
 30
0.0
 10
81.7043916462406
 20
-137.1595766323769
 30
0.0
 10
81.65962208335614
 20
-137.2043794101437
 30
0.0
 10
81.65962208335614
 20
-137.2594832990186
 30
0.0
 10
81.65962208335614
 20
-137.3146224656717
 30
0.0
 10
81.7043916462406
 20
-137.3593899656602
 30
0.0
 10
81.75952874747398
 20
-137.3593899656602
 30
0.0
 10
81.81463263495705
 20
-137.3593899656602
 30
0.0
 10
81.85943541159182
 20
-137.3146224656717
 30
0.0
 10
81.85943541159182
 20
-137.2594832990186
 30
0.0
  0
SPLINE
  5
61
330
41
100
AcDbEntity
  8
_U+30EC_U+30A4_U+30E4_U+30FC 1
 62
   179
420
  2234388
370
     9
100
AcDbSpline
210
0.0
220
0.0
230
1.0
 70
    11
 71
     3
 72
    17
 73
    13
 74
     0
 42
0.0000000001
 43
0.0000000001
 12
1.0
 22
0.0
 32
0.0
 13
1.0
 23
0.0
 33
0.0
 40
0.0
 40
0.0
 40
0.0
 40
0.0
 40
1.0
 40
1.0
 40
1.0
 40
2.0
 40
2.0
 40
2.0
 40
3.0
 40
3.0
 40
3.0
 40
4.0
 40
4.0
 40
4.0
 40
4.0
 10
77.8596763469675
 20
-121.2595999696851
 30
0.0
 10
77.8596763469675
 20
-121.2041433030325
 30
0.0
 10
77.81487357033274
 20
-121.1593405252657
 30
0.0
 10
77.75976968284967
 20
-121.1593405252657
 30
0.0
 10
77.70431301759783
 20
-121.1593405252657
 30
0.0
 10
77.65951024096306
 20
-121.2041433030325
 30
0.0
 10
77.65951024096306
 20
-121.2595999696851
 30
0.0
 10
77.65951024096306
 20
-121.3147391363379
 30
0.0
 10
77.70431301759783
 20
-121.3595066363268
 30
0.0
 10
77.75976968284967
 20
-121.3595066363268
 30
0.0
 10
77.81487357033274
 20
-121.3595066363268
 30
0.0
 10
77.8596763469675
 20
-121.3147391363379
 30
0.0
 10
77.8596763469675
 20
-121.2595999696851
 30
0.0
  0
POLYLINE
  5
62
330
41
100
AcDbEntity
  8
_U+30EC_U+30A4_U+30E4_U+30FC 1
 62
   179
420
  2234388
370
     9
100
AcDb2dPolyline
 66
     1
 10
0.0
 20
0.0
 30
0.0
  0
VERTEX
  5
63
330
62
100
AcDbEntity
  8
_U+30EC_U+30A4_U+30E4_U+30FC 1
 62
   179
420
  2234388
370
     9
100
AcDbVertex
100
AcDb2dVertex
 10
81.75952874747398
 20
-137.2594832990186
 30
0.0
  0
VERTEX
  5
64
330
62
100
AcDbEntity
  8
_U+30EC_U+30A4_U+30E4_U+30FC 1
 62
   179
420
  2234388
370
     9
100
AcDbVertex
100
AcDb2dVertex
 10
106.7593749733102
 20
-137.2594832990186
 30
0.0
  0
SEQEND
  5
65
330
62
100
AcDbEntity
  8
_U+30EC_U+30A4_U+30E4_U+30FC 1
 62
   179
420
  2234388
370
     9
  0
POLYLINE
  5
66
330
41
100
AcDbEntity
  8
_U+30EC_U+30A4_U+30E4_U+30FC 1
 62
   179
420
  2234388
370
     9
100
AcDb2dPolyline
 66
     1
 10
0.0
 20
0.0
 30
0.0
  0
VERTEX
  5
67
330
66
100
AcDbEntity
  8
_U+30EC_U+30A4_U+30E4_U+30FC 1
 62
   179
420
  2234388
370
     9
100
AcDbVertex
100
AcDb2dVertex
 10
81.75952874747398
 20
-134.9995182995838
 30
0.0
  0
VERTEX
  5
68
330
66
100
AcDbEntity
  8
_U+30EC_U+30A4_U+30E4_U+30FC 1
 62
   179
420
  2234388
370
     9
100
AcDbVertex
100
AcDb2dVertex
 10
81.75952874747398
 20
-138.2592555209905
 30
0.0
  0
SEQEND
  5
69
330
66
100
AcDbEntity
  8
_U+30EC_U+30A4_U+30E4_U+30FC 1
 62
   179
420
  2234388
370
     9
  0
POLYLINE
  5
6A
330
41
100
AcDbEntity
  8
_U+30EC_U+30A4_U+30E4_U+30FC 1
 62
   179
420
  2234388
370
     9
100
AcDb2dPolyline
 66
     1
 10
0.0
 20
0.0
 30
0.0
  0
VERTEX
  5
6B
330
6A
100
AcDbEntity
  8
_U+30EC_U+30A4_U+30E4_U+30FC 1
 62
   179
420
  2234388
370
     9
100
AcDbVertex
100
AcDb2dVertex
 10
106.7593749733102
 20
-135.2992382995087
 30
0.0
  0
VERTEX
  5
6C
330
6A
100
AcDbEntity
  8
_U+30EC_U+30A4_U+30E4_U+30FC 1
 62
   179
420
  2234388
370
     9
100
AcDbVertex
100
AcDb2dVertex
 10
106.7593749733102
 20
-138.2592555209905
 30
0.0
  0
SEQEND
  5
6D
330
6A
100
AcDbEntity
  8
_U+30EC_U+30A4_U+30E4_U+30FC 1
 62
   179
420
  2234388
370
     9
  0
INSERT
  5
6F
330
41
100
AcDbEntity
  8
_U+30EC_U+30A4_U+30E4_U+30FC 1
100
AcDbBlockReference
  2
block 3
 10
0.0
 20
0.0
 30
0.0
  0
POLYLINE
  5
76
330
41
100
AcDbEntity
  8
_U+30EC_U+30A4_U+30E4_U+30FC 1
 62
   179
420
  2234388
370
     9
100
AcDb2dPolyline
 66
     1
 10
0.0
 20
0.0
 30
0.0
  0
VERTEX
  5
77
330
76
100
AcDbEntity
  8
_U+30EC_U+30A4_U+30E4_U+30FC 1
 62
   179
420
  2234388
370
     9
100
AcDbVertex
100
AcDb2dVertex
 10
77.75976968284967
 20
-121.2595999696851
 30
0.0
  0
VERTEX
  5
78
330
76
100
AcDbEntity
  8
_U+30EC_U+30A4_U+30E4_U+30FC 1
 62
   179
420
  2234388
370
     9
100
AcDbVertex
100
AcDb2dVertex
 10
77.75976968284967
 20
-133.2597241333517
 30
0.0
  0
SEQEND
  5
79
330
76
100
AcDbEntity
  8
_U+30EC_U+30A4_U+30E4_U+30FC 1
 62
   179
420
  2234388
370
     9
  0
POLYLINE
  5
7A
330
41
100
AcDbEntity
  8
_U+30EC_U+30A4_U+30E4_U+30FC 1
 62
   179
420
  2234388
370
     9
100
AcDb2dPolyline
 66
     1
 10
0.0
 20
0.0
 30
0.0
  0
VERTEX
  5
7B
330
7A
100
AcDbEntity
  8
_U+30EC_U+30A4_U+30E4_U+30FC 1
 62
   179
420
  2234388
370
     9
100
AcDbVertex
100
AcDb2dVertex
 10
79.72382463274245
 20
-121.2279205252487
 30
0.0
  0
VERTEX
  5
7C
330
7A
100
AcDbEntity
  8
_U+30EC_U+30A4_U+30E4_U+30FC 1
 62
   179
420
  2234388
370
     9
100
AcDbVertex
100
AcDb2dVertex
 10
76.76412498602846
 20
-121.2279205252487
 30
0.0
  0
SEQEND
  5
7D
330
7A
100
AcDbEntity
  8
_U+30EC_U+30A4_U+30E4_U+30FC 1
 62
   179
420
  2234388
370
     9
  0
POLYLINE
  5
7E
330
41
100
AcDbEntity
  8
_U+30EC_U+30A4_U+30E4_U+30FC 1
 62
   179
420
  2234388
370
     9
100
AcDb2dPolyline
 66
     1
 10
0.0
 20
0.0
 30
0.0
  0
VERTEX
  5
7F
330
7E
100
AcDbEntity
  8
_U+30EC_U+30A4_U+30E4_U+30FC 1
 62
   179
420
  2234388
370
     9
100
AcDbVertex
100
AcDb2dVertex
 10
80.01973462519317
 20
-133.2597241333517
 30
0.0
  0
VERTEX
  5
80
330
7E
100
AcDbEntity
  8
_U+30EC_U+30A4_U+30E4_U+30FC 1
 62
   179
420
  2234388
370
     9
100
AcDbVertex
100
AcDb2dVertex
 10
76.75964470836499
 20
-133.2597241333517
 30
0.0
  0
SEQEND
  5
81
330
7E
100
AcDbEntity
  8
_U+30EC_U+30A4_U+30E4_U+30FC 1
 62
   179
420
  2234388
370
     9
  0
INSERT
  5
83
330
41
100
AcDbEntity
  8
_U+30EC_U+30A4_U+30E4_U+30FC 1
100
AcDbBlockReference
  2
block 4
 10
0.0
 20
0.0
 30
0.0
  0
ENDBLK
  5
44
330
41
100
AcDbEntity
  8
0
100
AcDbBlockEnd
  0
BLOCK
  5
70
330
6E
100
AcDbEntity
  8
0
100
AcDbBlockBegin
  2
block 3
 70
     0
 10
0.0
 20
0.0
 30
0.0
  3
block 3
  1

  0
SPLINE
  5
72
330
6E
100
AcDbEntity
  8
_U+30EC_U+30A4_U+30E4_U+30FC 1
370
     0
100
AcDbSpline
210
0.0
220
0.0
230
1.0
 70
    11
 71
     3
 72
    44
 73
    40
 74
     0
 42
0.0000000001
 43
0.0000000001
 12
1.0
 22
0.0
 32
0.0
 13
1.0
 23
0.0
 33
0.0
 40
0.0
 40
0.0
 40
0.0
 40
0.0
 40
1.0
 40
1.0
 40
1.0
 40
2.0
 40
2.0
 40
2.0
 40
3.0
 40
3.0
 40
3.0
 40
4.0
 40
4.0
 40
4.0
 40
5.0
 40
5.0
 40
5.0
 40
6.0
 40
6.0
 40
6.0
 40
7.0
 40
7.0
 40
7.0
 40
8.0
 40
8.0
 40
8.0
 40
9.0
 40
9.0
 40
9.0
 40
10.0
 40
10.0
 40
10.0
 40
11.0
 40
11.0
 40
11.0
 40
12.0
 40
12.0
 40
12.0
 40
13.0
 40
13.0
 40
13.0
 40
13.0
 10
93.7345024722261
 20
-135.9644829304186
 30
0.0
 10
93.50161401742321
 20
-136.1233018322886
 30
0.0
 10
93.40205075789949
 20
-136.1973713852215
 30
0.0
 10
93.35037432562075
 20
-136.3410318669564
 30
0.0
 10
93.35037432562075
 20
-136.3410318669564
 30
0.0
 10
94.18202037576006
 20
-136.3410318669564
 30
0.0
 10
94.18202037576006
 20
-136.3410318669564
 30
0.0
 10
94.18202037576006
 20
-136.3410318669564
 30
0.0
 10
94.18202037576006
 20
-136.5463595578773
 30
0.0
 10
94.18202037576006
 20
-136.5463595578773
 30
0.0
 10
94.18202037576006
 20
-136.5463595578773
 30
0.0
 10
93.08337942551388
 20
-136.5463595578773
 30
0.0
 10
93.08337942551388
 20
-136.5463595578773
 30
0.0
 10
93.11748587081786
 20
-136.1887586465084
 30
0.0
 10
93.18742130916843
 20
-136.1105549789932
 30
0.0
 10
93.59876571010726
 20
-135.8122097099706
 30
0.0
 10
93.8723062916361
 20
-135.6134277004716
 30
0.0
 10
93.94258623953519
 20
-135.5455593194122
 30
0.0
 10
93.94258623953519
 20
-135.4081000095508
 30
0.0
 10
93.94258623953519
 20
-135.2895887248582
 30
0.0
 10
93.86576061021412
 20
-135.1586750964187
 30
0.0
 10
93.65526527606535
 20
-135.1586750964187
 30
0.0
 10
93.37724607040569
 20
-135.1586750964187
 30
0.0
 10
93.36828882214404
 20
-135.3891519843819
 30
0.0
 10
93.36381019801321
 20
-135.5055962117833
 30
0.0
 10
93.36381019801321
 20
-135.5055962117833
 30
0.0
 10
93.12403155223983
 20
-135.5055962117833
 30
0.0
 10
93.12403155223983
 20
-135.5055962117833
 30
0.0
 10
93.13333331005
 20
-135.3784721883776
 30
0.0
 10
93.1443576156028
 20
-135.266506585107
 30
0.0
 10
93.23048500273406
 20
-135.1479953004144
 30
0.0
 10
93.34796275878107
 20
-134.9871093412532
 30
0.0
 10
93.54674476827998
 20
-134.9533474054978
 30
0.0
 10
93.67111271529751
 20
-134.9533474054978
 30
0.0
 10
93.96739092702899
 20
-134.9533474054978
 30
0.0
 10
94.18891056673056
 20
-135.1373155044101
 30
0.0
 10
94.18891056673056
 20
-135.4101670668419
 30
0.0
 10
94.18891056673056
 20
-135.6389214070625
 30
0.0
 10
94.06454261971304
 20
-135.7381401570377
 30
0.0
 10
93.7345024722261
 20
-135.9644829304186
 30
0.0
  0
HATCH
  5
73
330
6E
100
AcDbEntity
  8
_U+30EC_U+30A4_U+30E4_U+30FC 1
 62
   179
420
  2234388
100
AcDbHatch
 10
0.0
 20
0.0
 30
0.0
210
0.0
220
0.0
230
1.0
  2
SOLID
 70
     1
 71
     0
 91
        1
 92
        1
 93
        1
 72
     4
 94
        3
 73
     0
 74
     1
 95
       44
 96
       40
 40
0.0
 40
0.0
 40
0.0
 40
0.0
 40
1.0
 40
1.0
 40
1.0
 40
2.0
 40
2.0
 40
2.0
 40
3.0
 40
3.0
 40
3.0
 40
4.0
 40
4.0
 40
4.0
 40
5.0
 40
5.0
 40
5.0
 40
6.0
 40
6.0
 40
6.0
 40
7.0
 40
7.0
 40
7.0
 40
8.0
 40
8.0
 40
8.0
 40
9.0
 40
9.0
 40
9.0
 40
10.0
 40
10.0
 40
10.0
 40
11.0
 40
11.0
 40
11.0
 40
12.0
 40
12.0
 40
12.0
 40
13.0
 40
13.0
 40
13.0
 40
13.0
 10
93.7345024722261
 20
-135.9644829304186
 10
93.50161401742321
 20
-136.1233018322886
 10
93.40205075789949
 20
-136.1973713852215
 10
93.35037432562075
 20
-136.3410318669564
 10
93.35037432562075
 20
-136.3410318669564
 10
94.18202037576006
 20
-136.3410318669564
 10
94.18202037576006
 20
-136.3410318669564
 10
94.18202037576006
 20
-136.3410318669564
 10
94.18202037576006
 20
-136.5463595578773
 10
94.18202037576006
 20
-136.5463595578773
 10
94.18202037576006
 20
-136.5463595578773
 10
93.08337942551388
 20
-136.5463595578773
 10
93.08337942551388
 20
-136.5463595578773
 10
93.11748587081786
 20
-136.1887586465084
 10
93.18742130916843
 20
-136.1105549789932
 10
93.59876571010726
 20
-135.8122097099706
 10
93.8723062916361
 20
-135.6134277004716
 10
93.94258623953519
 20
-135.5455593194122
 10
93.94258623953519
 20
-135.4081000095508
 10
93.94258623953519
 20
-135.2895887248582
 10
93.86576061021412
 20
-135.1586750964187
 10
93.65526527606535
 20
-135.1586750964187
 10
93.37724607040569
 20
-135.1586750964187
 10
93.36828882214404
 20
-135.3891519843819
 10
93.36381019801321
 20
-135.5055962117833
 10
93.36381019801321
 20
-135.5055962117833
 10
93.12403155223983
 20
-135.5055962117833
 10
93.12403155223983
 20
-135.5055962117833
 10
93.13333331005
 20
-135.3784721883776
 10
93.1443576156028
 20
-135.266506585107
 10
93.23048500273406
 20
-135.1479953004144
 10
93.34796275878107
 20
-134.9871093412532
 10
93.54674476827998
 20
-134.9533474054978
 10
93.67111271529751
 20
-134.9533474054978
 10
93.96739092702899
 20
-134.9533474054978
 10
94.18891056673056
 20
-135.1373155044101
 10
94.18891056673056
 20
-135.4101670668419
 10
94.18891056673056
 20
-135.6389214070625
 10
94.06454261971304
 20
-135.7381401570377
 10
93.7345024722261
 20
-135.9644829304186
 97
        0
 97
        0
 75
     2
 76
     1
 98
        0
  0
SPLINE
  5
74
330
6E
100
AcDbEntity
  8
_U+30EC_U+30A4_U+30E4_U+30FC 1
370
     0
100
AcDbSpline
210
0.0
220
0.0
230
1.0
 70
    11
 71
     3
 72
    53
 73
    49
 74
     0
 42
0.0000000001
 43
0.0000000001
 12
1.0
 22
0.0
 32
0.0
 13
1.0
 23
0.0
 33
0.0
 40
0.0
 40
0.0
 40
0.0
 40
0.0
 40
1.0
 40
1.0
 40
1.0
 40
2.0
 40
2.0
 40
2.0
 40
3.0
 40
3.0
 40
3.0
 40
4.0
 40
4.0
 40
4.0
 40
5.0
 40
5.0
 40
5.0
 40
6.0
 40
6.0
 40
6.0
 40
7.0
 40
7.0
 40
7.0
 40
8.0
 40
8.0
 40
8.0
 40
9.0
 40
9.0
 40
9.0
 40
10.0
 40
10.0
 40
10.0
 40
11.0
 40
11.0
 40
11.0
 40
12.0
 40
12.0
 40
12.0
 40
13.0
 40
13.0
 40
13.0
 40
14.0
 40
14.0
 40
14.0
 40
15.0
 40
15.0
 40
15.0
 40
16.0
 40
16.0
 40
16.0
 40
16.0
 10
94.87241751100412
 20
-136.5970024615105
 30
0.0
 10
94.78904620026108
 20
-136.5970024615105
 30
0.0
 10
94.68018118292719
 20
-136.5801214936328
 30
0.0
 10
94.57200518469034
 20
-136.5167317367041
 30
0.0
 10
94.38631453803536
 20
-136.4068331907247
 30
0.0
 10
94.36392141738125
 20
-136.2755750527367
 30
0.0
 10
94.34359535401828
 20
-136.1677435640484
 30
0.0
 10
94.34359535401828
 20
-136.1677435640484
 30
0.0
 10
94.58096243295199
 20
-136.1677435640484
 30
0.0
 10
94.58096243295199
 20
-136.1677435640484
 30
0.0
 10
94.63952905620123
 20
-136.3665255735472
 30
0.0
 10
94.77526581832008
 20
-136.3961533947204
 30
0.0
 10
94.8748290778438
 20
-136.3961533947204
 30
0.0
 10
95.02400171235512
 20
-136.3961533947204
 30
0.0
 10
95.18661021925891
 20
-136.2965901351967
 30
0.0
 10
95.18661021925891
 20
-136.0640461899423
 30
0.0
 10
95.18661021925891
 20
-135.8080755953883
 30
0.0
 10
94.99471840073049
 20
-135.7381401570377
 30
0.0
 10
94.86587182958215
 20
-135.7381401570377
 30
0.0
 10
94.83176538427817
 20
-135.7381401570377
 30
0.0
 10
94.68018118292719
 20
-135.7381401570377
 30
0.0
 10
94.5854410570828
 20
-135.8673312377346
 30
0.0
 10
94.5854410570828
 20
-135.8673312377346
 30
0.0
 10
94.3976833531367
 20
-135.8483832125657
 30
0.0
 10
94.3976833531367
 20
-135.8483832125657
 30
0.0
 10
94.3976833531367
 20
-135.8483832125657
 30
0.0
 10
94.52652992428504
 20
-135.0019232518398
 30
0.0
 10
94.52652992428504
 20
-135.0019232518398
 30
0.0
 10
94.52652992428504
 20
-135.0019232518398
 30
0.0
 10
95.35852048397287
 20
-135.0019232518398
 30
0.0
 10
95.35852048397287
 20
-135.0019232518398
 30
0.0
 10
95.35852048397287
 20
-135.0019232518398
 30
0.0
 10
95.35852048397287
 20
-135.1965711467564
 30
0.0
 10
95.35852048397287
 20
-135.1965711467564
 30
0.0
 10
95.35852048397287
 20
-135.1965711467564
 30
0.0
 10
94.70085175583868
 20
-135.1965711467564
 30
0.0
 10
94.70085175583868
 20
-135.1965711467564
 30
0.0
 10
94.70085175583868
 20
-135.1965711467564
 30
0.0
 10
94.63057180793959
 20
-135.6196288723451
 30
0.0
 10
94.63057180793959
 20
-135.6196288723451
 30
0.0
 10
94.69602862215933
 20
-135.5858669365896
 30
0.0
 10
94.78422306658173
 20
-135.5455593194122
 30
0.0
 10
94.91100258043892
 20
-135.5455593194122
 30
0.0
 10
95.18213159512808
 20
-135.5455593194122
 30
0.0
 10
95.43534611329395
 20
-135.7319389851642
 30
0.0
 10
95.43534611329395
 20
-136.0450981647735
 30
0.0
 10
95.43534611329395
 20
-136.362391458965
 30
0.0
 10
95.19591197706909
 20
-136.5970024615105
 30
0.0
 10
94.87241751100412
 20
-136.5970024615105
 30
0.0
  0
HATCH
  5
75
330
6E
100
AcDbEntity
  8
_U+30EC_U+30A4_U+30E4_U+30FC 1
 62
   179
420
  2234388
100
AcDbHatch
 10
0.0
 20
0.0
 30
0.0
210
0.0
220
0.0
230
1.0
  2
SOLID
 70
     1
 71
     0
 91
        1
 92
        1
 93
        1
 72
     4
 94
        3
 73
     0
 74
     1
 95
       53
 96
       49
 40
0.0
 40
0.0
 40
0.0
 40
0.0
 40
1.0
 40
1.0
 40
1.0
 40
2.0
 40
2.0
 40
2.0
 40
3.0
 40
3.0
 40
3.0
 40
4.0
 40
4.0
 40
4.0
 40
5.0
 40
5.0
 40
5.0
 40
6.0
 40
6.0
 40
6.0
 40
7.0
 40
7.0
 40
7.0
 40
8.0
 40
8.0
 40
8.0
 40
9.0
 40
9.0
 40
9.0
 40
10.0
 40
10.0
 40
10.0
 40
11.0
 40
11.0
 40
11.0
 40
12.0
 40
12.0
 40
12.0
 40
13.0
 40
13.0
 40
13.0
 40
14.0
 40
14.0
 40
14.0
 40
15.0
 40
15.0
 40
15.0
 40
16.0
 40
16.0
 40
16.0
 40
16.0
 10
94.87241751100412
 20
-136.5970024615105
 10
94.78904620026108
 20
-136.5970024615105
 10
94.68018118292719
 20
-136.5801214936328
 10
94.57200518469034
 20
-136.5167317367041
 10
94.38631453803536
 20
-136.4068331907247
 10
94.36392141738125
 20
-136.2755750527367
 10
94.34359535401828
 20
-136.1677435640484
 10
94.34359535401828
 20
-136.1677435640484
 10
94.58096243295199
 20
-136.1677435640484
 10
94.58096243295199
 20
-136.1677435640484
 10
94.63952905620123
 20
-136.3665255735472
 10
94.77526581832008
 20
-136.3961533947204
 10
94.8748290778438
 20
-136.3961533947204
 10
95.02400171235512
 20
-136.3961533947204
 10
95.18661021925891
 20
-136.2965901351967
 10
95.18661021925891
 20
-136.0640461899423
 10
95.18661021925891
 20
-135.8080755953883
 10
94.99471840073049
 20
-135.7381401570377
 10
94.86587182958215
 20
-135.7381401570377
 10
94.83176538427817
 20
-135.7381401570377
 10
94.68018118292719
 20
-135.7381401570377
 10
94.5854410570828
 20
-135.8673312377346
 10
94.5854410570828
 20
-135.8673312377346
 10
94.3976833531367
 20
-135.8483832125657
 10
94.3976833531367
 20
-135.8483832125657
 10
94.3976833531367
 20
-135.8483832125657
 10
94.52652992428504
 20
-135.0019232518398
 10
94.52652992428504
 20
-135.0019232518398
 10
94.52652992428504
 20
-135.0019232518398
 10
95.35852048397287
 20
-135.0019232518398
 10
95.35852048397287
 20
-135.0019232518398
 10
95.35852048397287
 20
-135.0019232518398
 10
95.35852048397287
 20
-135.1965711467564
 10
95.35852048397287
 20
-135.1965711467564
 10
95.35852048397287
 20
-135.1965711467564
 10
94.70085175583868
 20
-135.1965711467564
 10
94.70085175583868
 20
-135.1965711467564
 10
94.70085175583868
 20
-135.1965711467564
 10
94.63057180793959
 20
-135.6196288723451
 10
94.63057180793959
 20
-135.6196288723451
 10
94.69602862215933
 20
-135.5858669365896
 10
94.78422306658173
 20
-135.5455593194122
 10
94.91100258043892
 20
-135.5455593194122
 10
95.18213159512808
 20
-135.5455593194122
 10
95.43534611329395
 20
-135.7319389851642
 10
95.43534611329395
 20
-136.0450981647735
 10
95.43534611329395
 20
-136.362391458965
 10
95.19591197706909
 20
-136.5970024615105
 10
94.87241751100412
 20
-136.5970024615105
 97
        0
 97
        0
 75
     2
 76
     1
 98
        0
  0
ENDBLK
  5
71
330
6E
100
AcDbEntity
  8
0
100
AcDbBlockEnd
  0
BLOCK
  5
84
330
82
100
AcDbEntity
  8
0
100
AcDbBlockBegin
  2
block 4
 70
     0
 10
0.0
 20
0.0
 30
0.0
  3
block 4
  1

  0
SPLINE
  5
86
330
82
100
AcDbEntity
  8
_U+30EC_U+30A4_U+30E4_U+30FC 1
370
     0
100
AcDbSpline
210
0.0
220
0.0
230
1.0
 70
    11
 71
     3
 72
    26
 73
    22
 74
     0
 42
0.0000000001
 43
0.0000000001
 12
1.0
 22
0.0
 32
0.0
 13
1.0
 23
0.0
 33
0.0
 40
0.0
 40
0.0
 40
0.0
 40
0.0
 40
1.0
 40
1.0
 40
1.0
 40
2.0
 40
2.0
 40
2.0
 40
3.0
 40
3.0
 40
3.0
 40
4.0
 40
4.0
 40
4.0
 40
5.0
 40
5.0
 40
5.0
 40
6.0
 40
6.0
 40
6.0
 40
7.0
 40
7.0
 40
7.0
 40
7.0
 10
77.04611543212737
 20
-127.9349988829468
 30
0.0
 10
77.04611543212737
 20
-127.9349988829468
 30
0.0
 10
75.94179007433053
 20
-127.9349988829468
 30
0.0
 10
75.94179007433053
 20
-127.9349988829468
 30
0.0
 10
75.94179007433053
 20
-127.9349988829468
 30
0.0
 10
75.94179007433053
 20
-128.2874321510879
 30
0.0
 10
75.94179007433053
 20
-128.2874321510879
 30
0.0
 10
75.94179007433053
 20
-128.2874321510879
 30
0.0
 10
75.79382322323904
 20
-128.2874321510879
 30
0.0
 10
75.79382322323904
 20
-128.2874321510879
 30
0.0
 10
75.77900931265248
 20
-127.9325873161071
 30
0.0
 10
75.61605629620016
 20
-127.8829779411195
 30
0.0
 10
75.50185138086412
 20
-127.8512830626552
 30
0.0
 10
75.50185138086412
 20
-127.8512830626552
 30
0.0
 10
75.50185138086412
 20
-127.6952202371734
 30
0.0
 10
75.50185138086412
 20
-127.6952202371734
 30
0.0
 10
75.50185138086412
 20
-127.6952202371734
 30
0.0
 10
77.04611543212737
 20
-127.6952202371734
 30
0.0
 10
77.04611543212737
 20
-127.6952202371734
 30
0.0
 10
77.04611543212737
 20
-127.6952202371734
 30
0.0
 10
77.04611543212737
 20
-127.9349988829468
 30
0.0
 10
77.04611543212737
 20
-127.9349988829468
 30
0.0
  0
HATCH
  5
87
330
82
100
AcDbEntity
  8
_U+30EC_U+30A4_U+30E4_U+30FC 1
 62
   179
420
  2234388
100
AcDbHatch
 10
0.0
 20
0.0
 30
0.0
210
0.0
220
0.0
230
1.0
  2
SOLID
 70
     1
 71
     0
 91
        1
 92
        1
 93
        1
 72
     4
 94
        3
 73
     0
 74
     1
 95
       26
 96
       22
 40
0.0
 40
0.0
 40
0.0
 40
0.0
 40
1.0
 40
1.0
 40
1.0
 40
2.0
 40
2.0
 40
2.0
 40
3.0
 40
3.0
 40
3.0
 40
4.0
 40
4.0
 40
4.0
 40
5.0
 40
5.0
 40
5.0
 40
6.0
 40
6.0
 40
6.0
 40
7.0
 40
7.0
 40
7.0
 40
7.0
 10
77.04611543212737
 20
-127.9349988829468
 10
77.04611543212737
 20
-127.9349988829468
 10
75.94179007433053
 20
-127.9349988829468
 10
75.94179007433053
 20
-127.9349988829468
 10
75.94179007433053
 20
-127.9349988829468
 10
75.94179007433053
 20
-128.2874321510879
 10
75.94179007433053
 20
-128.2874321510879
 10
75.94179007433053
 20
-128.2874321510879
 10
75.79382322323904
 20
-128.2874321510879
 10
75.79382322323904
 20
-128.2874321510879
 10
75.77900931265248
 20
-127.9325873161071
 10
75.61605629620016
 20
-127.8829779411195
 10
75.50185138086412
 20
-127.8512830626552
 10
75.50185138086412
 20
-127.8512830626552
 10
75.50185138086412
 20
-127.6952202371734
 10
75.50185138086412
 20
-127.6952202371734
 10
75.50185138086412
 20
-127.6952202371734
 10
77.04611543212737
 20
-127.6952202371734
 10
77.04611543212737
 20
-127.6952202371734
 10
77.04611543212737
 20
-127.6952202371734
 10
77.04611543212737
 20
-127.9349988829468
 10
77.04611543212737
 20
-127.9349988829468
 97
        0
 97
        0
 75
     2
 76
     1
 98
        0
  0
SPLINE
  5
88
330
82
100
AcDbEntity
  8
_U+30EC_U+30A4_U+30E4_U+30FC 1
370
     0
100
AcDbSpline
210
0.0
220
0.0
230
1.0
 70
    11
 71
     3
 72
    44
 73
    40
 74
     0
 42
0.0000000001
 43
0.0000000001
 12
1.0
 22
0.0
 32
0.0
 13
1.0
 23
0.0
 33
0.0
 40
0.0
 40
0.0
 40
0.0
 40
0.0
 40
1.0
 40
1.0
 40
1.0
 40
2.0
 40
2.0
 40
2.0
 40
3.0
 40
3.0
 40
3.0
 40
4.0
 40
4.0
 40
4.0
 40
5.0
 40
5.0
 40
5.0
 40
6.0
 40
6.0
 40
6.0
 40
7.0
 40
7.0
 40
7.0
 40
8.0
 40
8.0
 40
8.0
 40
9.0
 40
9.0
 40
9.0
 40
10.0
 40
10.0
 40
10.0
 40
11.0
 40
11.0
 40
11.0
 40
12.0
 40
12.0
 40
12.0
 40
13.0
 40
13.0
 40
13.0
 40
13.0
 10
76.46441105944292
 20
-126.5256103199311
 30
0.0
 10
76.62305770653869
 20
-126.758498774734
 30
0.0
 10
76.69712725947156
 20
-126.8580620342577
 30
0.0
 10
76.84095999598074
 20
-126.910082976085
 30
0.0
 10
76.84095999598074
 20
-126.910082976085
 30
0.0
 10
76.84095999598074
 20
-126.0777479068486
 30
0.0
 10
76.84095999598074
 20
-126.0777479068486
 30
0.0
 10
76.84095999598074
 20
-126.0777479068486
 30
0.0
 10
77.04611543212737
 20
-126.0777479068486
 30
0.0
 10
77.04611543212737
 20
-126.0777479068486
 30
0.0
 10
77.04611543212737
 20
-126.0777479068486
 30
0.0
 10
77.04611543212737
 20
-127.1767333666433
 30
0.0
 10
77.04611543212737
 20
-127.1767333666433
 30
0.0
 10
76.68851452075843
 20
-127.1426269213393
 30
0.0
 10
76.61031085324326
 20
-127.0726914829888
 30
0.0
 10
76.31196558422063
 20
-126.6613470820499
 30
0.0
 10
76.1131835747217
 20
-126.3878065005211
 30
0.0
 10
76.04548744843655
 20
-126.317526552622
 30
0.0
 10
75.90802813857508
 20
-126.317526552622
 30
0.0
 10
75.78951685388249
 20
-126.317526552622
 30
0.0
 10
75.65843097066873
 20
-126.3943521819431
 30
0.0
 10
75.65843097066873
 20
-126.6048475160919
 30
0.0
 10
75.65843097066873
 20
-126.8828667217515
 30
0.0
 10
75.88890785863194
 20
-126.8918239700132
 30
0.0
 10
76.00535208603338
 20
-126.896302594144
 30
0.0
 10
76.00535208603338
 20
-126.896302594144
 30
0.0
 10
76.00535208603338
 20
-127.1360812399174
 30
0.0
 10
76.00535208603338
 20
-127.1360812399174
 30
0.0
 10
75.87840031740193
 20
-127.1271239916557
 30
0.0
 10
75.76626245935705
 20
-127.1157551765544
 30
0.0
 10
75.64775117466445
 20
-127.0296277894232
 30
0.0
 10
75.48703747027756
 20
-126.9121500333761
 30
0.0
 10
75.45310327974784
 20
-126.7133680238772
 30
0.0
 10
75.45310327974784
 20
-126.5890000768597
 30
0.0
 10
75.45310327974784
 20
-126.2927218651282
 30
0.0
 10
75.63724363343444
 20
-126.0712022254266
 30
0.0
 10
75.91009519586623
 20
-126.0712022254266
 30
0.0
 10
76.1385050265383
 20
-126.0712022254266
 30
0.0
 10
76.23806828606202
 20
-126.1955701724442
 30
0.0
 10
76.46441105944292
 20
-126.5256103199311
 30
0.0
  0
HATCH
  5
89
330
82
100
AcDbEntity
  8
_U+30EC_U+30A4_U+30E4_U+30FC 1
 62
   179
420
  2234388
100
AcDbHatch
 10
0.0
 20
0.0
 30
0.0
210
0.0
220
0.0
230
1.0
  2
SOLID
 70
     1
 71
     0
 91
        1
 92
        1
 93
        1
 72
     4
 94
        3
 73
     0
 74
     1
 95
       44
 96
       40
 40
0.0
 40
0.0
 40
0.0
 40
0.0
 40
1.0
 40
1.0
 40
1.0
 40
2.0
 40
2.0
 40
2.0
 40
3.0
 40
3.0
 40
3.0
 40
4.0
 40
4.0
 40
4.0
 40
5.0
 40
5.0
 40
5.0
 40
6.0
 40
6.0
 40
6.0
 40
7.0
 40
7.0
 40
7.0
 40
8.0
 40
8.0
 40
8.0
 40
9.0
 40
9.0
 40
9.0
 40
10.0
 40
10.0
 40
10.0
 40
11.0
 40
11.0
 40
11.0
 40
12.0
 40
12.0
 40
12.0
 40
13.0
 40
13.0
 40
13.0
 40
13.0
 10
76.46441105944292
 20
-126.5256103199311
 10
76.62305770653869
 20
-126.758498774734
 10
76.69712725947156
 20
-126.8580620342577
 10
76.84095999598074
 20
-126.910082976085
 10
76.84095999598074
 20
-126.910082976085
 10
76.84095999598074
 20
-126.0777479068486
 10
76.84095999598074
 20
-126.0777479068486
 10
76.84095999598074
 20
-126.0777479068486
 10
77.04611543212737
 20
-126.0777479068486
 10
77.04611543212737
 20
-126.0777479068486
 10
77.04611543212737
 20
-126.0777479068486
 10
77.04611543212737
 20
-127.1767333666433
 10
77.04611543212737
 20
-127.1767333666433
 10
76.68851452075843
 20
-127.1426269213393
 10
76.61031085324326
 20
-127.0726914829888
 10
76.31196558422063
 20
-126.6613470820499
 10
76.1131835747217
 20
-126.3878065005211
 10
76.04548744843655
 20
-126.317526552622
 10
75.90802813857508
 20
-126.317526552622
 10
75.78951685388249
 20
-126.317526552622
 10
75.65843097066873
 20
-126.3943521819431
 10
75.65843097066873
 20
-126.6048475160919
 10
75.65843097066873
 20
-126.8828667217515
 10
75.88890785863194
 20
-126.8918239700132
 10
76.00535208603338
 20
-126.896302594144
 10
76.00535208603338
 20
-126.896302594144
 10
76.00535208603338
 20
-127.1360812399174
 10
76.00535208603338
 20
-127.1360812399174
 10
75.87840031740193
 20
-127.1271239916557
 10
75.76626245935705
 20
-127.1157551765544
 10
75.64775117466445
 20
-127.0296277894232
 10
75.48703747027756
 20
-126.9121500333761
 10
75.45310327974784
 20
-126.7133680238772
 10
75.45310327974784
 20
-126.5890000768597
 10
75.45310327974784
 20
-126.2927218651282
 10
75.63724363343444
 20
-126.0712022254266
 10
75.91009519586623
 20
-126.0712022254266
 10
76.1385050265383
 20
-126.0712022254266
 10
76.23806828606202
 20
-126.1955701724442
 10
76.46441105944292
 20
-126.5256103199311
 97
        0
 97
        0
 75
     2
 76
     1
 98
        0
  0
ENDBLK
  5
85
330
82
100
AcDbEntity
  8
0
100
AcDbBlockEnd
  0
BLOCK
  5
9D
330
9B
100
AcDbEntity
  8
0
100
AcDbBlockBegin
  2
block 5
 70
     0
 10
0.0
 20
0.0
 30
0.0
  3
block 5
  1

  0
SPLINE
  5
9F
330
9B
100
AcDbEntity
  8
_U+30EC_U+30A4_U+30E4_U+30FC 1
370
     0
100
AcDbSpline
210
0.0
220
0.0
230
1.0
 70
    11
 71
     3
 72
   242
 73
   238
 74
     0
 42
0.0000000001
 43
0.0000000001
 12
1.0
 22
0.0
 32
0.0
 13
1.0
 23
0.0
 33
0.0
 40
0.0
 40
0.0
 40
0.0
 40
0.0
 40
1.0
 40
1.0
 40
1.0
 40
2.0
 40
2.0
 40
2.0
 40
3.0
 40
3.0
 40
3.0
 40
4.0
 40
4.0
 40
4.0
 40
5.0
 40
5.0
 40
5.0
 40
6.0
 40
6.0
 40
6.0
 40
7.0
 40
7.0
 40
7.0
 40
8.0
 40
8.0
 40
8.0
 40
9.0
 40
9.0
 40
9.0
 40
10.0
 40
10.0
 40
10.0
 40
11.0
 40
11.0
 40
11.0
 40
12.0
 40
12.0
 40
12.0
 40
13.0
 40
13.0
 40
13.0
 40
14.0
 40
14.0
 40
14.0
 40
15.0
 40
15.0
 40
15.0
 40
16.0
 40
16.0
 40
16.0
 40
17.0
 40
17.0
 40
17.0
 40
18.0
 40
18.0
 40
18.0
 40
19.0
 40
19.0
 40
19.0
 40
20.0
 40
20.0
 40
20.0
 40
21.0
 40
21.0
 40
21.0
 40
22.0
 40
22.0
 40
22.0
 40
23.0
 40
23.0
 40
23.0
 40
24.0
 40
24.0
 40
24.0
 40
25.0
 40
25.0
 40
25.0
 40
26.0
 40
26.0
 40
26.0
 40
27.0
 40
27.0
 40
27.0
 40
28.0
 40
28.0
 40
28.0
 40
29.0
 40
29.0
 40
29.0
 40
30.0
 40
30.0
 40
30.0
 40
31.0
 40
31.0
 40
31.0
 40
32.0
 40
32.0
 40
32.0
 40
33.0
 40
33.0
 40
33.0
 40
34.0
 40
34.0
 40
34.0
 40
35.0
 40
35.0
 40
35.0
 40
36.0
 40
36.0
 40
36.0
 40
37.0
 40
37.0
 40
37.0
 40
38.0
 40
38.0
 40
38.0
 40
39.0
 40
39.0
 40
39.0
 40
40.0
 40
40.0
 40
40.0
 40
41.0
 40
41.0
 40
41.0
 40
42.0
 40
42.0
 40
42.0
 40
43.0
 40
43.0
 40
43.0
 40
44.0
 40
44.0
 40
44.0
 40
45.0
 40
45.0
 40
45.0
 40
46.0
 40
46.0
 40
46.0
 40
47.0
 40
47.0
 40
47.0
 40
48.0
 40
48.0
 40
48.0
 40
49.0
 40
49.0
 40
49.0
 40
50.0
 40
50.0
 40
50.0
 40
51.0
 40
51.0
 40
51.0
 40
52.0
 40
52.0
 40
52.0
 40
53.0
 40
53.0
 40
53.0
 40
54.0
 40
54.0
 40
54.0
 40
55.0
 40
55.0
 40
55.0
 40
56.0
 40
56.0
 40
56.0
 40
57.0
 40
57.0
 40
57.0
 40
58.0
 40
58.0
 40
58.0
 40
59.0
 40
59.0
 40
59.0
 40
60.0
 40
60.0
 40
60.0
 40
61.0
 40
61.0
 40
61.0
 40
62.0
 40
62.0
 40
62.0
 40
63.0
 40
63.0
 40
63.0
 40
64.0
 40
64.0
 40
64.0
 40
65.0
 40
65.0
 40
65.0
 40
66.0
 40
66.0
 40
66.0
 40
67.0
 40
67.0
 40
67.0
 40
68.0
 40
68.0
 40
68.0
 40
69.0
 40
69.0
 40
69.0
 40
70.0
 40
70.0
 40
70.0
 40
71.0
 40
71.0
 40
71.0
 40
72.0
 40
72.0
 40
72.0
 40
73.0
 40
73.0
 40
73.0
 40
74.0
 40
74.0
 40
74.0
 40
75.0
 40
75.0
 40
75.0
 40
76.0
 40
76.0
 40
76.0
 40
77.0
 40
77.0
 40
77.0
 40
78.0
 40
78.0
 40
78.0
 40
79.0
 40
79.0
 40
79.0
 40
79.0
 10
97.62504880371874
 20
-119.660051782151
 30
0.0
 10
97.62504880371874
 20
-119.660051782151
 30
0.0
 10
97.40318465446865
 20
-119.660051782151
 30
0.0
 10
97.40318465446865
 20
-119.660051782151
 30
0.0
 10
97.40318465446865
 20
-119.660051782151
 30
0.0
 10
97.16030542275854
 20
-119.660051782151
 30
0.0
 10
97.16030542275854
 20
-119.660051782151
 30
0.0
 10
97.16030542275854
 20
-119.660051782151
 30
0.0
 10
97.2715820069321
 20
-119.7024264566195
 30
0.0
 10
97.2715820069321
 20
-119.7024264566195
 30
0.0
 10
97.28088376474228
 20
-119.7067328259761
 30
0.0
 10
97.29190807029508
 20
-119.7129339978495
 30
0.0
 10
97.29190807029508
 20
-119.725680851145
 30
0.0
 10
97.29190807029508
 20
-119.7468681883793
 30
0.0
 10
97.26400279686456
 20
-119.753241615027
 30
0.0
 10
97.24574379079273
 20
-119.7573757296093
 30
0.0
 10
97.23644203298257
 20
-119.7806301241347
 30
0.0
 10
97.21025930729466
 20
-119.8462591931287
 30
0.0
 10
97.19372284896546
 20
-119.8907009248884
 30
0.0
 10
97.19372284896546
 20
-119.8907009248884
 30
0.0
 10
97.43074541835065
 20
-119.8907009248884
 30
0.0
 10
97.43074541835065
 20
-119.8907009248884
 30
0.0
 10
97.51032712405993
 20
-119.8907009248884
 30
0.0
 10
97.68258189832241
 20
-119.8863945555319
 30
0.0
 10
97.8066053357914
 20
-119.877954071593
 30
0.0
 10
97.8066053357914
 20
-119.877954071593
 30
0.0
 10
97.8066053357914
 20
-120.0557209986319
 30
0.0
 10
97.8066053357914
 20
-120.0557209986319
 30
0.0
 10
97.73460284014969
 20
-120.0514146292753
 30
0.0
 10
97.71599932452934
 20
-120.0514146292753
 30
0.0
 10
97.55855846085342
 20
-120.047280514693
 30
0.0
 10
97.5306531874229
 20
-120.2016207924322
 30
0.0
 10
97.4920681179881
 20
-120.2820637720128
 30
0.0
 10
97.45313853900477
 20
-120.3518269555891
 30
0.0
 10
97.55855846085342
 20
-120.4110825979354
 30
0.0
 10
97.65123152940664
 20
-120.4787787242206
 30
0.0
 10
97.74183754066871
 20
-120.5612887610923
 30
0.0
 10
97.74183754066871
 20
-120.5612887610923
 30
0.0
 10
97.63814016656269
 20
-120.7283758921269
 30
0.0
 10
97.63814016656269
 20
-120.7283758921269
 30
0.0
 10
97.61781410319972
 20
-120.7094278669581
 30
0.0
 10
97.60678979764691
 20
-120.7009873830192
 30
0.0
 10
97.5086045763173
 20
-120.6162380340821
 30
0.0
 10
97.4658853923002
 20
-120.5781697289701
 30
0.0
 10
97.41420896002145
 20
-120.5423407359234
 30
0.0
 10
97.34392901212236
 20
-120.4978990041637
 30
0.0
 10
97.15858287501591
 20
-120.6841064151415
 30
0.0
 10
96.9790934002344
 20
-120.7073608096669
 30
0.0
 10
96.72518986297149
 20
-120.7369886308401
 30
0.0
 10
96.72518986297149
 20
-120.7369886308401
 30
0.0
 10
96.63458385170941
 20
-120.55715464651
 30
0.0
 10
96.63458385170941
 20
-120.55715464651
 30
0.0
 10
96.91225854782056
 20
-120.5528482771535
 30
0.0
 10
97.0659098064627
 20
-120.5275268253369
 30
0.0
 10
97.19923500174187
 20
-120.4174560245831
 30
0.0
 10
97.09553762763585
 20
-120.3666408661757
 30
0.0
 10
97.01802297921772
 20
-120.339252357068
 30
0.0
 10
96.98632810075343
 20
-120.3265055037726
 30
0.0
 10
96.96979164242423
 20
-120.3540662676545
 30
0.0
 10
96.95670027958028
 20
-120.3730142928234
 30
0.0
 10
96.93258461118353
 20
-120.4069484833531
 30
0.0
 10
96.93258461118353
 20
-120.4069484833531
 30
0.0
 10
96.76032983692103
 20
-120.3244384464814
 30
0.0
 10
96.76032983692103
 20
-120.3244384464814
 30
0.0
 10
96.83267684211128
 20
-120.2439954669008
 30
0.0
 10
96.88642033168118
 20
-120.1487385767336
 30
0.0
 10
96.9363742162173
 20
-120.047280514693
 30
0.0
 10
96.76963159473121
 20
-120.0514146292753
 30
0.0
 10
96.75137258865938
 20
-120.0514146292753
 30
0.0
 10
96.67902558346914
 20
-120.0557209986319
 30
0.0
 10
96.67902558346914
 20
-120.0557209986319
 30
0.0
 10
96.67902558346914
 20
-119.877954071593
 30
0.0
 10
96.67902558346914
 20
-119.877954071593
 30
0.0
 10
96.8013264731955
 20
-119.8843274982407
 30
0.0
 10
96.9846055530108
 20
-119.8886338675973
 30
0.0
 10
97.0066541641164
 20
-119.8886338675973
 30
0.0
 10
97.02146807470297
 20
-119.8546996770676
 30
0.0
 10
97.06969941149647
 20
-119.7341213350838
 30
0.0
 10
97.08623586982567
 20
-119.660051782151
 30
0.0
 10
97.06969941149647
 20
-119.660051782151
 30
0.0
 10
96.91398109556317
 20
-119.6664252087987
 30
0.0
 10
96.74379337859183
 20
-119.6791720620941
 30
0.0
 10
96.74379337859183
 20
-119.6791720620941
 30
0.0
 10
96.74379337859183
 20
-119.8124972573733
 30
0.0
 10
96.74379337859183
 20
-119.8124972573733
 30
0.0
 10
96.70107419457473
 20
-119.8378187091899
 30
0.0
 10
96.64939776229599
 20
-119.8695135876542
 30
0.0
 10
96.53260902534602
 20
-119.9351426566482
 30
0.0
 10
96.53260902534602
 20
-119.9351426566482
 30
0.0
 10
96.53260902534602
 20
-120.0810424504485
 30
0.0
 10
96.53260902534602
 20
-120.0810424504485
 30
0.0
 10
96.53260902534602
 20
-120.0810424504485
 30
0.0
 10
96.53260902534602
 20
-120.5487141625712
 30
0.0
 10
96.53260902534602
 20
-120.5487141625712
 30
0.0
 10
96.53260902534602
 20
-120.6754936764284
 30
0.0
 10
96.50125865643025
 20
-120.7347493187746
 30
0.0
 10
96.25321178149225
 20
-120.7263088348358
 30
0.0
 10
96.25321178149225
 20
-120.7263088348358
 30
0.0
 10
96.16226126068166
 20
-120.519086341398
 30
0.0
 10
96.16226126068166
 20
-120.519086341398
 30
0.0
 10
96.21807180754271
 20
-120.5316609399192
 30
0.0
 10
96.26044648201128
 20
-120.5359673092757
 30
0.0
 10
96.29558645596083
 20
-120.5359673092757
 30
0.0
 10
96.36242130837468
 20
-120.5359673092757
 30
0.0
 10
96.37172306618486
 20
-120.5127129147503
 30
0.0
 10
96.37172306618486
 20
-120.4470838457563
 30
0.0
 10
96.37172306618486
 20
-120.4470838457563
 30
0.0
 10
96.37172306618486
 20
-120.0176526935199
 30
0.0
 10
96.37172306618486
 20
-120.0176526935199
 30
0.0
 10
96.28628469815065
 20
-120.0577880559231
 30
0.0
 10
96.27147078756408
 20
-120.0641614825708
 30
0.0
 10
96.23081866083814
 20
-120.0832817625139
 30
0.0
 10
96.22702905580435
 20
-120.1042968449739
 30
0.0
 10
96.2235839603191
 20
-120.1339246661471
 30
0.0
 10
96.20670299244138
 20
-120.1339246661471
 30
0.0
 10
96.19946829192236
 20
-120.1339246661471
 30
0.0
 10
96.19016653411218
 20
-120.1297905515648
 30
0.0
 10
96.18465438133579
 20
-120.1065361570393
 30
0.0
 10
96.18465438133579
 20
-120.1065361570393
 30
0.0
 10
96.13814559228491
 20
-119.9139553194139
 30
0.0
 10
96.13814559228491
 20
-119.9139553194139
 30
0.0
 10
96.26595863478768
 20
-119.867446530363
 30
0.0
 10
96.32349172939135
 20
-119.8441921358376
 30
0.0
 10
96.37172306618486
 20
-119.8230047986033
 30
0.0
 10
96.37172306618486
 20
-119.8230047986033
 30
0.0
 10
96.37172306618486
 20
-119.4104546142446
 30
0.0
 10
96.37172306618486
 20
-119.4104546142446
 30
0.0
 10
96.37172306618486
 20
-119.4104546142446
 30
0.0
 10
96.32521427713398
 20
-119.4104546142446
 30
0.0
 10
96.32521427713398
 20
-119.4104546142446
 30
0.0
 10
96.32521427713398
 20
-119.4104546142446
 30
0.0
 10
96.2566568769775
 20
-119.4104546142446
 30
0.0
 10
96.2566568769775
 20
-119.4104546142446
 30
0.0
 10
96.19740123463122
 20
-119.4104546142446
 30
0.0
 10
96.19016653411218
 20
-119.4104546142446
 30
0.0
 10
96.15881616519641
 20
-119.4168280408923
 30
0.0
 10
96.15881616519641
 20
-119.4168280408923
 30
0.0
 10
96.15881616519641
 20
-119.2221801459757
 30
0.0
 10
96.15881616519641
 20
-119.2221801459757
 30
0.0
 10
96.18258732404463
 20
-119.2285535726234
 30
0.0
 10
96.19016653411218
 20
-119.2285535726234
 30
0.0
 10
96.25114472420111
 20
-119.2285535726234
 30
0.0
 10
96.25114472420111
 20
-119.2285535726234
 30
0.0
 10
96.36793346115108
 20
-119.2285535726234
 30
0.0
 10
96.36793346115108
 20
-119.2285535726234
 30
0.0
 10
96.36793346115108
 20
-119.1587903890471
 30
0.0
 10
96.36793346115108
 20
-119.0762803521754
 30
0.0
 10
96.36621091340845
 20
-119.0719739828188
 30
0.0
 10
96.3586317033409
 20
-118.8921399984888
 30
0.0
 10
96.3586317033409
 20
-118.8731919733199
 30
0.0
 10
96.35690915559827
 20
-118.826683184269
 30
0.0
 10
96.35690915559827
 20
-118.826683184269
 30
0.0
 10
96.54570038818997
 20
-118.8351236682079
 30
0.0
 10
96.54570038818997
 20
-118.8351236682079
 30
0.0
 10
96.55500214600015
 20
-118.8351236682079
 30
0.0
 10
96.57360566162049
 20
-118.837190725499
 30
0.0
 10
96.57360566162049
 20
-118.8540716933768
 30
0.0
 10
96.57360566162049
 20
-118.8731919733199
 30
0.0
 10
96.56051429877654
 20
-118.8836995145499
 30
0.0
 10
96.53812117812242
 20
-118.9028197944931
 30
0.0
 10
96.53812117812242
 20
-118.9534626981262
 30
0.0
 10
96.53260902534602
 20
-119.1820447835726
 30
0.0
 10
96.53467608263716
 20
-119.2285535726234
 30
0.0
 10
96.64733070500483
 20
-119.2285535726234
 30
0.0
 10
96.65869952010617
 20
-119.2285535726234
 30
0.0
 10
96.74379337859183
 20
-119.2201130886846
 30
0.0
 10
96.74379337859183
 20
-119.2201130886846
 30
0.0
 10
96.74379337859183
 20
-119.4147609836012
 30
0.0
 10
96.74379337859183
 20
-119.4147609836012
 30
0.0
 10
96.71037595238491
 20
-119.4125216715358
 30
0.0
 10
96.6511203100386
 20
-119.4083875569535
 30
0.0
 10
96.53260902534602
 20
-119.4104546142446
 30
0.0
 10
96.53260902534602
 20
-119.4104546142446
 30
0.0
 10
96.53260902534602
 20
-119.7489352456704
 30
0.0
 10
96.53260902534602
 20
-119.7489352456704
 30
0.0
 10
96.58084036213951
 20
-119.725680851145
 30
0.0
 10
96.6383734567432
 20
-119.698120087263
 30
0.0
 10
96.68074813121176
 20
-119.6748656927375
 30
0.0
 10
96.68074813121176
 20
-119.6748656927375
 30
0.0
 10
96.68074813121176
 20
-119.4972710204729
 30
0.0
 10
96.68074813121176
 20
-119.4972710204729
 30
0.0
 10
96.78100040983253
 20
-119.5098456189941
 30
0.0
 10
96.88435327439002
 20
-119.5098456189941
 30
0.0
 10
96.98632810075343
 20
-119.5098456189941
 30
0.0
 10
96.96600203739045
 20
-119.4147609836012
 30
0.0
 10
96.94188636899369
 20
-119.3322509467294
 30
0.0
 10
96.88642033168118
 20
-119.1989257514503
 30
0.0
 10
96.84749075269785
 20
-119.2009928087414
 30
0.0
 10
96.77514374750761
 20
-119.205299178098
 30
0.0
 10
96.74207083084922
 20
-119.2073662353891
 30
0.0
 10
96.74207083084922
 20
-119.2073662353891
 30
0.0
 10
96.74207083084922
 20
-119.0275322510591
 30
0.0
 10
96.74207083084922
 20
-119.0275322510591
 30
0.0
 10
96.85128035773162
 20
-119.035972734998
 30
0.0
 10
97.00286455908262
 20
-119.0402791043545
 30
0.0
 10
97.07521156427286
 20
-119.0402791043545
 30
0.0
 10
97.07521156427286
 20
-119.0402791043545
 30
0.0
 10
97.14755856946311
 20
-119.0402791043545
 30
0.0
 10
97.14755856946311
 20
-119.0402791043545
 30
0.0
 10
97.14755856946311
 20
-118.8773260879022
 30
0.0
 10
97.14755856946311
 20
-118.8668185466722
 30
0.0
 10
97.14549151217196
 20
-118.8118692736825
 30
0.0
 10
97.14549151217196
 20
-118.8118692736825
 30
0.0
 10
97.3418619548312
 20
-118.837190725499
 30
0.0
 10
97.3418619548312
 20
-118.837190725499
 30
0.0
 10
97.34565155986498
 20
-118.837190725499
 30
0.0
 10
97.36425507548533
 20
-118.8392577827902
 30
0.0
 10
97.36425507548533
 20
-118.8561387506679
 30
0.0
 10
97.36425507548533
 20
-118.8709526612545
 30
0.0
 10
97.35495331767515
 20
-118.8795653999676
 30
0.0
 10
97.33083764927841
 20
-118.8943793105542
 30
0.0
 10
97.325325496502
 20
-118.9598361247739
 30
0.0
 10
97.32325843921086
 20
-118.9810234620082
 30
0.0
 10
97.32325843921086
 20
-119.0402791043545
 30
0.0
 10
97.32325843921086
 20
-119.0402791043545
 30
0.0
 10
97.40662974995391
 20
-119.0402791043545
 30
0.0
 10
97.40662974995391
 20
-119.0402791043545
 30
0.0
 10
97.47897675514415
 20
-119.0402791043545
 30
0.0
 10
97.63090546604367
 20
-119.035972734998
 30
0.0
 10
97.74011499292608
 20
-119.0275322510591
 30
0.0
 10
97.74011499292608
 20
-119.0275322510591
 30
0.0
 10
97.74011499292608
 20
-119.2073662353891
 30
0.0
 10
97.74011499292608
 20
-119.2073662353891
 30
0.0
 10
97.71393226723819
 20
-119.205299178098
 30
0.0
 10
97.6105794026807
 20
-119.2009928087414
 30
0.0
 10
97.57509491918262
 20
-119.1989257514503
 30
0.0
 10
97.56234806588719
 20
-119.2497409098577
 30
0.0
 10
97.53272024471404
 20
-119.3618787679026
 30
0.0
 10
97.47518715011037
 20
-119.5014051350552
 30
0.0
 10
97.51239418135107
 20
-119.5014051350552
 30
0.0
 10
97.75492890351266
 20
-119.4824571098863
 30
0.0
 10
97.80867239308256
 20
-119.4802177978209
 30
0.0
 10
97.80867239308256
 20
-119.4802177978209
 30
0.0
 10
97.80867239308256
 20
-119.6643581515075
 30
0.0
 10
97.80867239308256
 20
-119.6643581515075
 30
0.0
 10
97.78248966739466
 20
-119.6643581515075
 30
0.0
 10
97.76767575680809
 20
-119.660051782151
 30
0.0
 10
97.62504880371874
 20
-119.660051782151
 30
0.0
  0
SPLINE
  5
A0
330
9B
100
AcDbEntity
  8
_U+30EC_U+30A4_U+30E4_U+30FC 1
370
     0
100
AcDbSpline
210
0.0
220
0.0
230
1.0
 70
    11
 71
     3
 72
    20
 73
    16
 74
     0
 42
0.0000000001
 43
0.0000000001
 12
1.0
 22
0.0
 32
0.0
 13
1.0
 23
0.0
 33
0.0
 40
0.0
 40
0.0
 40
0.0
 40
0.0
 40
1.0
 40
1.0
 40
1.0
 40
2.0
 40
2.0
 40
2.0
 40
3.0
 40
3.0
 40
3.0
 40
4.0
 40
4.0
 40
4.0
 40
5.0
 40
5.0
 40
5.0
 40
5.0
 10
97.07521156427286
 20
-119.194791636868
 30
0.0
 10
97.07521156427286
 20
-119.194791636868
 30
0.0
 10
97.04765080039087
 20
-119.194791636868
 30
0.0
 10
97.04765080039087
 20
-119.194791636868
 30
0.0
 10
97.08830292711681
 20
-119.2941826416174
 30
0.0
 10
97.11586369099882
 20
-119.3744533664238
 30
0.0
 10
97.14549151217196
 20
-119.5014051350552
 30
0.0
 10
97.14549151217196
 20
-119.5014051350552
 30
0.0
 10
97.32704804424463
 20
-119.5014051350552
 30
0.0
 10
97.32704804424463
 20
-119.5014051350552
 30
0.0
 10
97.35495331767515
 20
-119.4083875569535
 30
0.0
 10
97.37527938103813
 20
-119.3238104627906
 30
0.0
 10
97.3956054444011
 20
-119.194791636868
 30
0.0
 10
97.3956054444011
 20
-119.194791636868
 30
0.0
 10
97.07521156427286
 20
-119.194791636868
 30
0.0
 10
97.07521156427286
 20
-119.194791636868
 30
0.0
  0
SPLINE
  5
A1
330
9B
100
AcDbEntity
  8
_U+30EC_U+30A4_U+30E4_U+30FC 1
370
     0
100
AcDbSpline
210
0.0
220
0.0
230
1.0
 70
    11
 71
     3
 72
    17
 73
    13
 74
     0
 42
0.0000000001
 43
0.0000000001
 12
1.0
 22
0.0
 32
0.0
 13
1.0
 23
0.0
 33
0.0
 40
0.0
 40
0.0
 40
0.0
 40
0.0
 40
1.0
 40
1.0
 40
1.0
 40
2.0
 40
2.0
 40
2.0
 40
3.0
 40
3.0
 40
3.0
 40
4.0
 40
4.0
 40
4.0
 40
4.0
 10
97.13067760158539
 20
-120.0452134574019
 30
0.0
 10
97.11586369099882
 20
-120.0746690238008
 30
0.0
 10
97.07142195923909
 20
-120.1678588566768
 30
0.0
 10
97.06212020142893
 20
-120.1868068818457
 30
0.0
 10
97.228862822915
 20
-120.246062524192
 30
0.0
 10
97.24746633853536
 20
-120.2524359508397
 30
0.0
 10
97.31051158591544
 20
-120.2799967147217
 30
0.0
 10
97.3583984131604
 20
-120.1931803084934
 30
0.0
 10
97.3790689860719
 20
-120.1191107555605
 30
0.0
 10
97.39181583936733
 20
-120.0452134574019
 30
0.0
 10
97.39181583936733
 20
-120.0452134574019
 30
0.0
 10
97.13067760158539
 20
-120.0452134574019
 30
0.0
 10
97.13067760158539
 20
-120.0452134574019
 30
0.0
  0
HATCH
  5
A2
330
9B
100
AcDbEntity
  8
_U+30EC_U+30A4_U+30E4_U+30FC 1
 62
   179
420
  2234388
100
AcDbHatch
 10
0.0
 20
0.0
 30
0.0
210
0.0
220
0.0
230
1.0
  2
SOLID
 70
     1
 71
     0
 91
        3
 92
        1
 93
        1
 72
     4
 94
        3
 73
     0
 74
     1
 95
      242
 96
      238
 40
0.0
 40
0.0
 40
0.0
 40
0.0
 40
1.0
 40
1.0
 40
1.0
 40
2.0
 40
2.0
 40
2.0
 40
3.0
 40
3.0
 40
3.0
 40
4.0
 40
4.0
 40
4.0
 40
5.0
 40
5.0
 40
5.0
 40
6.0
 40
6.0
 40
6.0
 40
7.0
 40
7.0
 40
7.0
 40
8.0
 40
8.0
 40
8.0
 40
9.0
 40
9.0
 40
9.0
 40
10.0
 40
10.0
 40
10.0
 40
11.0
 40
11.0
 40
11.0
 40
12.0
 40
12.0
 40
12.0
 40
13.0
 40
13.0
 40
13.0
 40
14.0
 40
14.0
 40
14.0
 40
15.0
 40
15.0
 40
15.0
 40
16.0
 40
16.0
 40
16.0
 40
17.0
 40
17.0
 40
17.0
 40
18.0
 40
18.0
 40
18.0
 40
19.0
 40
19.0
 40
19.0
 40
20.0
 40
20.0
 40
20.0
 40
21.0
 40
21.0
 40
21.0
 40
22.0
 40
22.0
 40
22.0
 40
23.0
 40
23.0
 40
23.0
 40
24.0
 40
24.0
 40
24.0
 40
25.0
 40
25.0
 40
25.0
 40
26.0
 40
26.0
 40
26.0
 40
27.0
 40
27.0
 40
27.0
 40
28.0
 40
28.0
 40
28.0
 40
29.0
 40
29.0
 40
29.0
 40
30.0
 40
30.0
 40
30.0
 40
31.0
 40
31.0
 40
31.0
 40
32.0
 40
32.0
 40
32.0
 40
33.0
 40
33.0
 40
33.0
 40
34.0
 40
34.0
 40
34.0
 40
35.0
 40
35.0
 40
35.0
 40
36.0
 40
36.0
 40
36.0
 40
37.0
 40
37.0
 40
37.0
 40
38.0
 40
38.0
 40
38.0
 40
39.0
 40
39.0
 40
39.0
 40
40.0
 40
40.0
 40
40.0
 40
41.0
 40
41.0
 40
41.0
 40
42.0
 40
42.0
 40
42.0
 40
43.0
 40
43.0
 40
43.0
 40
44.0
 40
44.0
 40
44.0
 40
45.0
 40
45.0
 40
45.0
 40
46.0
 40
46.0
 40
46.0
 40
47.0
 40
47.0
 40
47.0
 40
48.0
 40
48.0
 40
48.0
 40
49.0
 40
49.0
 40
49.0
 40
50.0
 40
50.0
 40
50.0
 40
51.0
 40
51.0
 40
51.0
 40
52.0
 40
52.0
 40
52.0
 40
53.0
 40
53.0
 40
53.0
 40
54.0
 40
54.0
 40
54.0
 40
55.0
 40
55.0
 40
55.0
 40
56.0
 40
56.0
 40
56.0
 40
57.0
 40
57.0
 40
57.0
 40
58.0
 40
58.0
 40
58.0
 40
59.0
 40
59.0
 40
59.0
 40
60.0
 40
60.0
 40
60.0
 40
61.0
 40
61.0
 40
61.0
 40
62.0
 40
62.0
 40
62.0
 40
63.0
 40
63.0
 40
63.0
 40
64.0
 40
64.0
 40
64.0
 40
65.0
 40
65.0
 40
65.0
 40
66.0
 40
66.0
 40
66.0
 40
67.0
 40
67.0
 40
67.0
 40
68.0
 40
68.0
 40
68.0
 40
69.0
 40
69.0
 40
69.0
 40
70.0
 40
70.0
 40
70.0
 40
71.0
 40
71.0
 40
71.0
 40
72.0
 40
72.0
 40
72.0
 40
73.0
 40
73.0
 40
73.0
 40
74.0
 40
74.0
 40
74.0
 40
75.0
 40
75.0
 40
75.0
 40
76.0
 40
76.0
 40
76.0
 40
77.0
 40
77.0
 40
77.0
 40
78.0
 40
78.0
 40
78.0
 40
79.0
 40
79.0
 40
79.0
 40
79.0
 10
97.62504880371874
 20
-119.660051782151
 10
97.62504880371874
 20
-119.660051782151
 10
97.40318465446865
 20
-119.660051782151
 10
97.40318465446865
 20
-119.660051782151
 10
97.40318465446865
 20
-119.660051782151
 10
97.16030542275854
 20
-119.660051782151
 10
97.16030542275854
 20
-119.660051782151
 10
97.16030542275854
 20
-119.660051782151
 10
97.2715820069321
 20
-119.7024264566195
 10
97.2715820069321
 20
-119.7024264566195
 10
97.28088376474228
 20
-119.7067328259761
 10
97.29190807029508
 20
-119.7129339978495
 10
97.29190807029508
 20
-119.725680851145
 10
97.29190807029508
 20
-119.7468681883793
 10
97.26400279686456
 20
-119.753241615027
 10
97.24574379079273
 20
-119.7573757296093
 10
97.23644203298257
 20
-119.7806301241347
 10
97.21025930729466
 20
-119.8462591931287
 10
97.19372284896546
 20
-119.8907009248884
 10
97.19372284896546
 20
-119.8907009248884
 10
97.43074541835065
 20
-119.8907009248884
 10
97.43074541835065
 20
-119.8907009248884
 10
97.51032712405993
 20
-119.8907009248884
 10
97.68258189832241
 20
-119.8863945555319
 10
97.8066053357914
 20
-119.877954071593
 10
97.8066053357914
 20
-119.877954071593
 10
97.8066053357914
 20
-120.0557209986319
 10
97.8066053357914
 20
-120.0557209986319
 10
97.73460284014969
 20
-120.0514146292753
 10
97.71599932452934
 20
-120.0514146292753
 10
97.55855846085342
 20
-120.047280514693
 10
97.5306531874229
 20
-120.2016207924322
 10
97.4920681179881
 20
-120.2820637720128
 10
97.45313853900477
 20
-120.3518269555891
 10
97.55855846085342
 20
-120.4110825979354
 10
97.65123152940664
 20
-120.4787787242206
 10
97.74183754066871
 20
-120.5612887610923
 10
97.74183754066871
 20
-120.5612887610923
 10
97.63814016656269
 20
-120.7283758921269
 10
97.63814016656269
 20
-120.7283758921269
 10
97.61781410319972
 20
-120.7094278669581
 10
97.60678979764691
 20
-120.7009873830192
 10
97.5086045763173
 20
-120.6162380340821
 10
97.4658853923002
 20
-120.5781697289701
 10
97.41420896002145
 20
-120.5423407359234
 10
97.34392901212236
 20
-120.4978990041637
 10
97.15858287501591
 20
-120.6841064151415
 10
96.9790934002344
 20
-120.7073608096669
 10
96.72518986297149
 20
-120.7369886308401
 10
96.72518986297149
 20
-120.7369886308401
 10
96.63458385170941
 20
-120.55715464651
 10
96.63458385170941
 20
-120.55715464651
 10
96.91225854782056
 20
-120.5528482771535
 10
97.0659098064627
 20
-120.5275268253369
 10
97.19923500174187
 20
-120.4174560245831
 10
97.09553762763585
 20
-120.3666408661757
 10
97.01802297921772
 20
-120.339252357068
 10
96.98632810075343
 20
-120.3265055037726
 10
96.96979164242423
 20
-120.3540662676545
 10
96.95670027958028
 20
-120.3730142928234
 10
96.93258461118353
 20
-120.4069484833531
 10
96.93258461118353
 20
-120.4069484833531
 10
96.76032983692103
 20
-120.3244384464814
 10
96.76032983692103
 20
-120.3244384464814
 10
96.83267684211128
 20
-120.2439954669008
 10
96.88642033168118
 20
-120.1487385767336
 10
96.9363742162173
 20
-120.047280514693
 10
96.76963159473121
 20
-120.0514146292753
 10
96.75137258865938
 20
-120.0514146292753
 10
96.67902558346914
 20
-120.0557209986319
 10
96.67902558346914
 20
-120.0557209986319
 10
96.67902558346914
 20
-119.877954071593
 10
96.67902558346914
 20
-119.877954071593
 10
96.8013264731955
 20
-119.8843274982407
 10
96.9846055530108
 20
-119.8886338675973
 10
97.0066541641164
 20
-119.8886338675973
 10
97.02146807470297
 20
-119.8546996770676
 10
97.06969941149647
 20
-119.7341213350838
 10
97.08623586982567
 20
-119.660051782151
 10
97.06969941149647
 20
-119.660051782151
 10
96.91398109556317
 20
-119.6664252087987
 10
96.74379337859183
 20
-119.6791720620941
 10
96.74379337859183
 20
-119.6791720620941
 10
96.74379337859183
 20
-119.8124972573733
 10
96.74379337859183
 20
-119.8124972573733
 10
96.70107419457473
 20
-119.8378187091899
 10
96.64939776229599
 20
-119.8695135876542
 10
96.53260902534602
 20
-119.9351426566482
 10
96.53260902534602
 20
-119.9351426566482
 10
96.53260902534602
 20
-120.0810424504485
 10
96.53260902534602
 20
-120.0810424504485
 10
96.53260902534602
 20
-120.0810424504485
 10
96.53260902534602
 20
-120.5487141625712
 10
96.53260902534602
 20
-120.5487141625712
 10
96.53260902534602
 20
-120.6754936764284
 10
96.50125865643025
 20
-120.7347493187746
 10
96.25321178149225
 20
-120.7263088348358
 10
96.25321178149225
 20
-120.7263088348358
 10
96.16226126068166
 20
-120.519086341398
 10
96.16226126068166
 20
-120.519086341398
 10
96.21807180754271
 20
-120.5316609399192
 10
96.26044648201128
 20
-120.5359673092757
 10
96.29558645596083
 20
-120.5359673092757
 10
96.36242130837468
 20
-120.5359673092757
 10
96.37172306618486
 20
-120.5127129147503
 10
96.37172306618486
 20
-120.4470838457563
 10
96.37172306618486
 20
-120.4470838457563
 10
96.37172306618486
 20
-120.0176526935199
 10
96.37172306618486
 20
-120.0176526935199
 10
96.28628469815065
 20
-120.0577880559231
 10
96.27147078756408
 20
-120.0641614825708
 10
96.23081866083814
 20
-120.0832817625139
 10
96.22702905580435
 20
-120.1042968449739
 10
96.2235839603191
 20
-120.1339246661471
 10
96.20670299244138
 20
-120.1339246661471
 10
96.19946829192236
 20
-120.1339246661471
 10
96.19016653411218
 20
-120.1297905515648
 10
96.18465438133579
 20
-120.1065361570393
 10
96.18465438133579
 20
-120.1065361570393
 10
96.13814559228491
 20
-119.9139553194139
 10
96.13814559228491
 20
-119.9139553194139
 10
96.26595863478768
 20
-119.867446530363
 10
96.32349172939135
 20
-119.8441921358376
 10
96.37172306618486
 20
-119.8230047986033
 10
96.37172306618486
 20
-119.8230047986033
 10
96.37172306618486
 20
-119.4104546142446
 10
96.37172306618486
 20
-119.4104546142446
 10
96.37172306618486
 20
-119.4104546142446
 10
96.32521427713398
 20
-119.4104546142446
 10
96.32521427713398
 20
-119.4104546142446
 10
96.32521427713398
 20
-119.4104546142446
 10
96.2566568769775
 20
-119.4104546142446
 10
96.2566568769775
 20
-119.4104546142446
 10
96.19740123463122
 20
-119.4104546142446
 10
96.19016653411218
 20
-119.4104546142446
 10
96.15881616519641
 20
-119.4168280408923
 10
96.15881616519641
 20
-119.4168280408923
 10
96.15881616519641
 20
-119.2221801459757
 10
96.15881616519641
 20
-119.2221801459757
 10
96.18258732404463
 20
-119.2285535726234
 10
96.19016653411218
 20
-119.2285535726234
 10
96.25114472420111
 20
-119.2285535726234
 10
96.25114472420111
 20
-119.2285535726234
 10
96.36793346115108
 20
-119.2285535726234
 10
96.36793346115108
 20
-119.2285535726234
 10
96.36793346115108
 20
-119.1587903890471
 10
96.36793346115108
 20
-119.0762803521754
 10
96.36621091340845
 20
-119.0719739828188
 10
96.3586317033409
 20
-118.8921399984888
 10
96.3586317033409
 20
-118.8731919733199
 10
96.35690915559827
 20
-118.826683184269
 10
96.35690915559827
 20
-118.826683184269
 10
96.54570038818997
 20
-118.8351236682079
 10
96.54570038818997
 20
-118.8351236682079
 10
96.55500214600015
 20
-118.8351236682079
 10
96.57360566162049
 20
-118.837190725499
 10
96.57360566162049
 20
-118.8540716933768
 10
96.57360566162049
 20
-118.8731919733199
 10
96.56051429877654
 20
-118.8836995145499
 10
96.53812117812242
 20
-118.9028197944931
 10
96.53812117812242
 20
-118.9534626981262
 10
96.53260902534602
 20
-119.1820447835726
 10
96.53467608263716
 20
-119.2285535726234
 10
96.64733070500483
 20
-119.2285535726234
 10
96.65869952010617
 20
-119.2285535726234
 10
96.74379337859183
 20
-119.2201130886846
 10
96.74379337859183
 20
-119.2201130886846
 10
96.74379337859183
 20
-119.4147609836012
 10
96.74379337859183
 20
-119.4147609836012
 10
96.71037595238491
 20
-119.4125216715358
 10
96.6511203100386
 20
-119.4083875569535
 10
96.53260902534602
 20
-119.4104546142446
 10
96.53260902534602
 20
-119.4104546142446
 10
96.53260902534602
 20
-119.7489352456704
 10
96.53260902534602
 20
-119.7489352456704
 10
96.58084036213951
 20
-119.725680851145
 10
96.6383734567432
 20
-119.698120087263
 10
96.68074813121176
 20
-119.6748656927375
 10
96.68074813121176
 20
-119.6748656927375
 10
96.68074813121176
 20
-119.4972710204729
 10
96.68074813121176
 20
-119.4972710204729
 10
96.78100040983253
 20
-119.5098456189941
 10
96.88435327439002
 20
-119.5098456189941
 10
96.98632810075343
 20
-119.5098456189941
 10
96.96600203739045
 20
-119.4147609836012
 10
96.94188636899369
 20
-119.3322509467294
 10
96.88642033168118
 20
-119.1989257514503
 10
96.84749075269785
 20
-119.2009928087414
 10
96.77514374750761
 20
-119.205299178098
 10
96.74207083084922
 20
-119.2073662353891
 10
96.74207083084922
 20
-119.2073662353891
 10
96.74207083084922
 20
-119.0275322510591
 10
96.74207083084922
 20
-119.0275322510591
 10
96.85128035773162
 20
-119.035972734998
 10
97.00286455908262
 20
-119.0402791043545
 10
97.07521156427286
 20
-119.0402791043545
 10
97.07521156427286
 20
-119.0402791043545
 10
97.14755856946311
 20
-119.0402791043545
 10
97.14755856946311
 20
-119.0402791043545
 10
97.14755856946311
 20
-118.8773260879022
 10
97.14755856946311
 20
-118.8668185466722
 10
97.14549151217196
 20
-118.8118692736825
 10
97.14549151217196
 20
-118.8118692736825
 10
97.3418619548312
 20
-118.837190725499
 10
97.3418619548312
 20
-118.837190725499
 10
97.34565155986498
 20
-118.837190725499
 10
97.36425507548533
 20
-118.8392577827902
 10
97.36425507548533
 20
-118.8561387506679
 10
97.36425507548533
 20
-118.8709526612545
 10
97.35495331767515
 20
-118.8795653999676
 10
97.33083764927841
 20
-118.8943793105542
 10
97.325325496502
 20
-118.9598361247739
 10
97.32325843921086
 20
-118.9810234620082
 10
97.32325843921086
 20
-119.0402791043545
 10
97.32325843921086
 20
-119.0402791043545
 10
97.40662974995391
 20
-119.0402791043545
 10
97.40662974995391
 20
-119.0402791043545
 10
97.47897675514415
 20
-119.0402791043545
 10
97.63090546604367
 20
-119.035972734998
 10
97.74011499292608
 20
-119.0275322510591
 10
97.74011499292608
 20
-119.0275322510591
 10
97.74011499292608
 20
-119.2073662353891
 10
97.74011499292608
 20
-119.2073662353891
 10
97.71393226723819
 20
-119.205299178098
 10
97.6105794026807
 20
-119.2009928087414
 10
97.57509491918262
 20
-119.1989257514503
 10
97.56234806588719
 20
-119.2497409098577
 10
97.53272024471404
 20
-119.3618787679026
 10
97.47518715011037
 20
-119.5014051350552
 10
97.51239418135107
 20
-119.5014051350552
 10
97.75492890351266
 20
-119.4824571098863
 10
97.80867239308256
 20
-119.4802177978209
 10
97.80867239308256
 20
-119.4802177978209
 10
97.80867239308256
 20
-119.6643581515075
 10
97.80867239308256
 20
-119.6643581515075
 10
97.78248966739466
 20
-119.6643581515075
 10
97.76767575680809
 20
-119.660051782151
 10
97.62504880371874
 20
-119.660051782151
 97
        0
 97
        0
 92
        1
 93
        1
 72
     4
 94
        3
 73
     0
 74
     1
 95
       20
 96
       16
 40
0.0
 40
0.0
 40
0.0
 40
0.0
 40
1.0
 40
1.0
 40
1.0
 40
2.0
 40
2.0
 40
2.0
 40
3.0
 40
3.0
 40
3.0
 40
4.0
 40
4.0
 40
4.0
 40
5.0
 40
5.0
 40
5.0
 40
5.0
 10
97.07521156427286
 20
-119.194791636868
 10
97.07521156427286
 20
-119.194791636868
 10
97.04765080039087
 20
-119.194791636868
 10
97.04765080039087
 20
-119.194791636868
 10
97.08830292711681
 20
-119.2941826416174
 10
97.11586369099882
 20
-119.3744533664238
 10
97.14549151217196
 20
-119.5014051350552
 10
97.14549151217196
 20
-119.5014051350552
 10
97.32704804424463
 20
-119.5014051350552
 10
97.32704804424463
 20
-119.5014051350552
 10
97.35495331767515
 20
-119.4083875569535
 10
97.37527938103813
 20
-119.3238104627906
 10
97.3956054444011
 20
-119.194791636868
 10
97.3956054444011
 20
-119.194791636868
 10
97.07521156427286
 20
-119.194791636868
 10
97.07521156427286
 20
-119.194791636868
 97
        0
 97
        0
 92
        1
 93
        1
 72
     4
 94
        3
 73
     0
 74
     1
 95
       17
 96
       13
 40
0.0
 40
0.0
 40
0.0
 40
0.0
 40
1.0
 40
1.0
 40
1.0
 40
2.0
 40
2.0
 40
2.0
 40
3.0
 40
3.0
 40
3.0
 40
4.0
 40
4.0
 40
4.0
 40
4.0
 10
97.13067760158539
 20
-120.0452134574019
 10
97.11586369099882
 20
-120.0746690238008
 10
97.07142195923909
 20
-120.1678588566768
 10
97.06212020142893
 20
-120.1868068818457
 10
97.228862822915
 20
-120.246062524192
 10
97.24746633853536
 20
-120.2524359508397
 10
97.31051158591544
 20
-120.2799967147217
 10
97.3583984131604
 20
-120.1931803084934
 10
97.3790689860719
 20
-120.1191107555605
 10
97.39181583936733
 20
-120.0452134574019
 10
97.39181583936733
 20
-120.0452134574019
 10
97.13067760158539
 20
-120.0452134574019
 10
97.13067760158539
 20
-120.0452134574019
 97
        0
 97
        0
 75
     2
 76
     1
 98
        0
  0
SPLINE
  5
A3
330
9B
100
AcDbEntity
  8
_U+30EC_U+30A4_U+30E4_U+30FC 1
370
     0
100
AcDbSpline
210
0.0
220
0.0
230
1.0
 70
    11
 71
     3
 72
   203
 73
   199
 74
     0
 42
0.0000000001
 43
0.0000000001
 12
1.0
 22
0.0
 32
0.0
 13
1.0
 23
0.0
 33
0.0
 40
0.0
 40
0.0
 40
0.0
 40
0.0
 40
1.0
 40
1.0
 40
1.0
 40
2.0
 40
2.0
 40
2.0
 40
3.0
 40
3.0
 40
3.0
 40
4.0
 40
4.0
 40
4.0
 40
5.0
 40
5.0
 40
5.0
 40
6.0
 40
6.0
 40
6.0
 40
7.0
 40
7.0
 40
7.0
 40
8.0
 40
8.0
 40
8.0
 40
9.0
 40
9.0
 40
9.0
 40
10.0
 40
10.0
 40
10.0
 40
11.0
 40
11.0
 40
11.0
 40
12.0
 40
12.0
 40
12.0
 40
13.0
 40
13.0
 40
13.0
 40
14.0
 40
14.0
 40
14.0
 40
15.0
 40
15.0
 40
15.0
 40
16.0
 40
16.0
 40
16.0
 40
17.0
 40
17.0
 40
17.0
 40
18.0
 40
18.0
 40
18.0
 40
19.0
 40
19.0
 40
19.0
 40
20.0
 40
20.0
 40
20.0
 40
21.0
 40
21.0
 40
21.0
 40
22.0
 40
22.0
 40
22.0
 40
23.0
 40
23.0
 40
23.0
 40
24.0
 40
24.0
 40
24.0
 40
25.0
 40
25.0
 40
25.0
 40
26.0
 40
26.0
 40
26.0
 40
27.0
 40
27.0
 40
27.0
 40
28.0
 40
28.0
 40
28.0
 40
29.0
 40
29.0
 40
29.0
 40
30.0
 40
30.0
 40
30.0
 40
31.0
 40
31.0
 40
31.0
 40
32.0
 40
32.0
 40
32.0
 40
33.0
 40
33.0
 40
33.0
 40
34.0
 40
34.0
 40
34.0
 40
35.0
 40
35.0
 40
35.0
 40
36.0
 40
36.0
 40
36.0
 40
37.0
 40
37.0
 40
37.0
 40
38.0
 40
38.0
 40
38.0
 40
39.0
 40
39.0
 40
39.0
 40
40.0
 40
40.0
 40
40.0
 40
41.0
 40
41.0
 40
41.0
 40
42.0
 40
42.0
 40
42.0
 40
43.0
 40
43.0
 40
43.0
 40
44.0
 40
44.0
 40
44.0
 40
45.0
 40
45.0
 40
45.0
 40
46.0
 40
46.0
 40
46.0
 40
47.0
 40
47.0
 40
47.0
 40
48.0
 40
48.0
 40
48.0
 40
49.0
 40
49.0
 40
49.0
 40
50.0
 40
50.0
 40
50.0
 40
51.0
 40
51.0
 40
51.0
 40
52.0
 40
52.0
 40
52.0
 40
53.0
 40
53.0
 40
53.0
 40
54.0
 40
54.0
 40
54.0
 40
55.0
 40
55.0
 40
55.0
 40
56.0
 40
56.0
 40
56.0
 40
57.0
 40
57.0
 40
57.0
 40
58.0
 40
58.0
 40
58.0
 40
59.0
 40
59.0
 40
59.0
 40
60.0
 40
60.0
 40
60.0
 40
61.0
 40
61.0
 40
61.0
 40
62.0
 40
62.0
 40
62.0
 40
63.0
 40
63.0
 40
63.0
 40
64.0
 40
64.0
 40
64.0
 40
65.0
 40
65.0
 40
65.0
 40
66.0
 40
66.0
 40
66.0
 40
66.0
 10
99.10712888147322
 20
-119.7277479084361
 30
0.0
 10
99.10712888147322
 20
-119.7277479084361
 30
0.0
 10
98.61826983211627
 20
-119.7277479084361
 30
0.0
 10
98.61826983211627
 20
-119.7277479084361
 30
0.0
 10
98.60896807430609
 20
-119.7721896401958
 30
0.0
 10
98.60173337378707
 20
-119.8038845186601
 30
0.0
 10
98.59036455868575
 20
-119.8421250785464
 30
0.0
 10
98.61275767933986
 20
-119.8421250785464
 30
0.0
 10
98.62584904218382
 20
-119.8441921358376
 30
0.0
 10
98.63136119496022
 20
-119.8441921358376
 30
0.0
 10
98.63136119496022
 20
-119.8441921358376
 30
0.0
 10
98.79603675915516
 20
-119.8441921358376
 30
0.0
 10
98.79603675915516
 20
-119.8441921358376
 30
0.0
 10
98.79603675915516
 20
-119.8441921358376
 30
0.0
 10
99.12366533980241
 20
-119.8441921358376
 30
0.0
 10
99.12366533980241
 20
-119.8441921358376
 30
0.0
 10
99.16845158111067
 20
-119.8441921358376
 30
0.0
 10
99.41649845604866
 20
-119.8314452825421
 30
0.0
 10
99.44405921993065
 20
-119.8314452825421
 30
0.0
 10
99.44233667218803
 20
-119.8590060464241
 30
0.0
 10
99.4406141244454
 20
-119.877954071593
 30
0.0
 10
99.4406141244454
 20
-119.9075818927662
 30
0.0
 10
99.43854706715426
 20
-119.9392767712305
 30
0.0
 10
99.43854706715426
 20
-120.0746690238008
 30
0.0
 10
99.43854706715426
 20
-120.1022297876828
 30
0.0
 10
99.43854706715426
 20
-120.1022297876828
 30
0.0
 10
99.43854706715426
 20
-120.3476928410068
 30
0.0
 10
99.43854706715426
 20
-120.3476928410068
 30
0.0
 10
99.43854706715426
 20
-120.3921345727666
 30
0.0
 10
99.44233667218803
 20
-120.5888495249743
 30
0.0
 10
99.44612627722181
 20
-120.7411227454224
 30
0.0
 10
99.44612627722181
 20
-120.7411227454224
 30
0.0
 10
99.24803328681995
 20
-120.7411227454224
 30
0.0
 10
99.24803328681995
 20
-120.7411227454224
 30
0.0
 10
99.24803328681995
 20
-120.7411227454224
 30
0.0
 10
99.24975583456256
 20
-120.7073608096669
 30
0.0
 10
99.24975583456256
 20
-120.7073608096669
 30
0.0
 10
99.24975583456256
 20
-120.7073608096669
 30
0.0
 10
98.635150799994
 20
-120.7073608096669
 30
0.0
 10
98.635150799994
 20
-120.7073608096669
 30
0.0
 10
98.635150799994
 20
-120.7073608096669
 30
0.0
 10
98.63687334773662
 20
-120.7411227454224
 30
0.0
 10
98.63687334773662
 20
-120.7411227454224
 30
0.0
 10
98.63687334773662
 20
-120.7411227454224
 30
0.0
 10
98.44601505785378
 20
-120.7411227454224
 30
0.0
 10
98.44601505785378
 20
-120.7411227454224
 30
0.0
 10
98.44980466288756
 20
-120.6861734724326
 30
0.0
 10
98.44980466288756
 20
-120.6734266191372
 30
0.0
 10
98.45531681566395
 20
-120.5592217038012
 30
0.0
 10
98.4573838729551
 20
-120.5316609399192
 30
0.0
 10
98.45910642069772
 20
-120.3985079994143
 30
0.0
 10
98.45910642069772
 20
-120.3793877194711
 30
0.0
 10
98.45910642069772
 20
-120.3793877194711
 30
0.0
 10
98.45910642069772
 20
-120.1762993406157
 30
0.0
 10
98.45910642069772
 20
-120.1762993406157
 30
0.0
 10
98.33680553097136
 20
-120.425896508522
 30
0.0
 10
98.18866642510561
 20
-120.55715464651
 30
0.0
 10
98.0959933565524
 20
-120.6226114607298
 30
0.0
 10
98.0959933565524
 20
-120.6226114607298
 30
0.0
 10
97.9444091552014
 20
-120.4830850935771
 30
0.0
 10
97.9444091552014
 20
-120.4830850935771
 30
0.0
 10
98.02192380361953
 20
-120.4322699351697
 30
0.0
 10
98.14801429837966
 20
-120.3454535289414
 30
0.0
 10
98.26824813081488
 20
-120.1509778887991
 30
0.0
 10
98.34782983652416
 20
-120.0240261201676
 30
0.0
 10
98.40536293112783
 20
-119.8801933836584
 30
0.0
 10
98.43499075230098
 20
-119.7277479084361
 30
0.0
 10
98.23483070460796
 20
-119.7299872205015
 30
0.0
 10
98.07773435048057
 20
-119.7363606471493
 30
0.0
 10
97.99436303973752
 20
-119.7384277044404
 30
0.0
 10
97.99436303973752
 20
-119.7384277044404
 30
0.0
 10
97.99436303973752
 20
-119.5606607774015
 30
0.0
 10
97.99436303973752
 20
-119.5606607774015
 30
0.0
 10
98.16661781400002
 20
-119.5670342040492
 30
0.0
 10
98.414664688938
 20
-119.5713405734058
 30
0.0
 10
98.54626733647454
 20
-119.5713405734058
 30
0.0
 10
98.54626733647454
 20
-119.5713405734058
 30
0.0
 10
98.73299151177508
 20
-119.5713405734058
 30
0.0
 10
98.73299151177508
 20
-119.5713405734058
 30
0.0
 10
98.73299151177508
 20
-119.5713405734058
 30
0.0
 10
98.73299151177508
 20
-119.4633368299432
 30
0.0
 10
98.73299151177508
 20
-119.4633368299432
 30
0.0
 10
98.73299151177508
 20
-119.4633368299432
 30
0.0
 10
98.60552297882084
 20
-119.4633368299432
 30
0.0
 10
98.60552297882084
 20
-119.4633368299432
 30
0.0
 10
98.4573838729551
 20
-119.4633368299432
 30
0.0
 10
98.30924476708935
 20
-119.4676431992998
 30
0.0
 10
98.16282820896625
 20
-119.4740166259475
 30
0.0
 10
98.16282820896625
 20
-119.4740166259475
 30
0.0
 10
98.16282820896625
 20
-119.3026231255563
 30
0.0
 10
98.16282820896625
 20
-119.3026231255563
 30
0.0
 10
98.29787595198803
 20
-119.3131306667863
 30
0.0
 10
98.46082896844035
 20
-119.3131306667863
 30
0.0
 10
98.60552297882084
 20
-119.3131306667863
 30
0.0
 10
98.60552297882084
 20
-119.3131306667863
 30
0.0
 10
98.73299151177508
 20
-119.3131306667863
 30
0.0
 10
98.73299151177508
 20
-119.3131306667863
 30
0.0
 10
98.73299151177508
 20
-119.3131306667863
 30
0.0
 10
98.73299151177508
 20
-119.194791636868
 30
0.0
 10
98.73299151177508
 20
-119.194791636868
 30
0.0
 10
98.73299151177508
 20
-119.194791636868
 30
0.0
 10
98.61826983211627
 20
-119.194791636868
 30
0.0
 10
98.61826983211627
 20
-119.194791636868
 30
0.0
 10
98.57761770539032
 20
-119.194791636868
 30
0.0
 10
98.39985077835144
 20
-119.2032321208068
 30
0.0
 10
98.36264374711074
 20
-119.2032321208068
 30
0.0
 10
98.18487682007184
 20
-119.2073662353891
 30
0.0
 10
98.11838647720651
 20
-119.2094332926803
 30
0.0
 10
98.04982907705005
 20
-119.2116726047457
 30
0.0
 10
98.04982907705005
 20
-119.2116726047457
 30
0.0
 10
98.04982907705005
 20
-119.0275322510591
 30
0.0
 10
98.04982907705005
 20
-119.0275322510591
 30
0.0
 10
98.1497368461223
 20
-119.035972734998
 30
0.0
 10
98.18866642510561
 20
-119.035972734998
 30
0.0
 10
98.52387421582043
 20
-119.0445854737111
 30
0.0
 10
98.4684081785079
 20
-118.9493285835439
 30
0.0
 10
98.44429251011115
 20
-118.9217678196619
 30
0.0
 10
98.41259763164686
 20
-118.8857665718411
 30
0.0
 10
98.41259763164686
 20
-118.8857665718411
 30
0.0
 10
98.56659339983753
 20
-118.8032565349693
 30
0.0
 10
98.56659339983753
 20
-118.8032565349693
 30
0.0
 10
98.60173337378707
 20
-118.8392577827902
 30
0.0
 10
98.6406629527704
 20
-118.8816324572588
 30
0.0
 10
98.70543074789309
 20
-118.9915310032382
 30
0.0
 10
98.70543074789309
 20
-118.9915310032382
 30
0.0
 10
98.60552297882084
 20
-119.0466525310022
 30
0.0
 10
98.60552297882084
 20
-119.0466525310022
 30
0.0
 10
98.60552297882084
 20
-119.0466525310022
 30
0.0
 10
98.6144802270825
 20
-119.0466525310022
 30
0.0
 10
98.6144802270825
 20
-119.0466525310022
 30
0.0
 10
98.6144802270825
 20
-119.0466525310022
 30
0.0
 10
99.07198890752368
 20
-119.0466525310022
 30
0.0
 10
99.07198890752368
 20
-119.0466525310022
 30
0.0
 10
99.07198890752368
 20
-119.0466525310022
 30
0.0
 10
98.98861759678063
 20
-119.0022107992425
 30
0.0
 10
98.98861759678063
 20
-119.0022107992425
 30
0.0
 10
99.01273326517737
 20
-118.9641424941305
 30
0.0
 10
99.0626871497135
 20
-118.8836995145499
 30
0.0
 10
99.07577851255745
 20
-118.809629961617
 30
0.0
 10
99.07577851255745
 20
-118.809629961617
 30
0.0
 10
99.26284719740651
 20
-118.8731919733199
 30
0.0
 10
99.26284719740651
 20
-118.8731919733199
 30
0.0
 10
99.27008189792554
 20
-118.875259030611
 30
0.0
 10
99.28868541354589
 20
-118.8857665718411
 30
0.0
 10
99.28868541354589
 20
-118.9069539090754
 30
0.0
 10
99.28868541354589
 20
-118.9450222141874
 30
0.0
 10
99.23115231894222
 20
-118.9450222141874
 30
0.0
 10
99.21461586061302
 20
-118.9450222141874
 30
0.0
 10
99.20531410280284
 20
-118.9641424941305
 30
0.0
 10
99.18498803943987
 20
-119.0042778565337
 30
0.0
 10
99.1591498233005
 20
-119.0445854737111
 30
0.0
 10
99.50882701505336
 20
-119.0382120470634
 30
0.0
 10
99.53500974074126
 20
-119.035972734998
 30
0.0
 10
99.60150008360658
 20
-119.0297715631245
 30
0.0
 10
99.60150008360658
 20
-119.0297715631245
 30
0.0
 10
99.60150008360658
 20
-119.2116726047457
 30
0.0
 10
99.60150008360658
 20
-119.2116726047457
 30
0.0
 10
99.58496362527737
 20
-119.2116726047457
 30
0.0
 10
99.56257050462325
 20
-119.2094332926803
 30
0.0
 10
99.36998966699778
 20
-119.2009928087414
 30
0.0
 10
99.32554793523806
 20
-119.1989257514503
 30
0.0
 10
99.13296709761259
 20
-119.194791636868
 30
0.0
 10
99.09403751862928
 20
-119.194791636868
 30
0.0
 10
99.09403751862928
 20
-119.194791636868
 30
0.0
 10
98.90524628603758
 20
-119.194791636868
 30
0.0
 10
98.90524628603758
 20
-119.194791636868
 30
0.0
 10
98.90524628603758
 20
-119.194791636868
 30
0.0
 10
98.90524628603758
 20
-119.3131306667863
 30
0.0
 10
98.90524628603758
 20
-119.3131306667863
 30
0.0
 10
98.90524628603758
 20
-119.3131306667863
 30
0.0
 10
99.05717499693709
 20
-119.3131306667863
 30
0.0
 10
99.05717499693709
 20
-119.3131306667863
 30
0.0
 10
99.19980195002644
 20
-119.3131306667863
 30
0.0
 10
99.36654457151253
 20
-119.3131306667863
 30
0.0
 10
99.50331486227695
 20
-119.3026231255563
 30
0.0
 10
99.50331486227695
 20
-119.3026231255563
 30
0.0
 10
99.50331486227695
 20
-119.4740166259475
 30
0.0
 10
99.50331486227695
 20
-119.4740166259475
 30
0.0
 10
99.32003578246166
 20
-119.4655761420086
 30
0.0
 10
99.14778100819917
 20
-119.4633368299432
 30
0.0
 10
99.05717499693709
 20
-119.4633368299432
 30
0.0
 10
99.05717499693709
 20
-119.4633368299432
 30
0.0
 10
98.90524628603758
 20
-119.4633368299432
 30
0.0
 10
98.90524628603758
 20
-119.4633368299432
 30
0.0
 10
98.90524628603758
 20
-119.4633368299432
 30
0.0
 10
98.90524628603758
 20
-119.5713405734058
 30
0.0
 10
98.90524628603758
 20
-119.5713405734058
 30
0.0
 10
98.90524628603758
 20
-119.5713405734058
 30
0.0
 10
99.10712888147322
 20
-119.5713405734058
 30
0.0
 10
99.10712888147322
 20
-119.5713405734058
 30
0.0
 10
99.22391761842319
 20
-119.5713405734058
 30
0.0
 10
99.47575409839496
 20
-119.5670342040492
 30
0.0
 10
99.65903317821025
 20
-119.5606607774015
 30
0.0
 10
99.65903317821025
 20
-119.5606607774015
 30
0.0
 10
99.65903317821025
 20
-119.7384277044404
 30
0.0
 10
99.65903317821025
 20
-119.7384277044404
 30
0.0
 10
99.49056800898153
 20
-119.7320542777927
 30
0.0
 10
99.21633840835564
 20
-119.7277479084361
 30
0.0
 10
99.10712888147322
 20
-119.7277479084361
 30
0.0
  0
POLYLINE
  5
A4
330
9B
100
AcDbEntity
  8
_U+30EC_U+30A4_U+30E4_U+30FC 1
370
     0
100
AcDb2dPolyline
 66
     1
 10
0.0
 20
0.0
 30
0.0
  0
VERTEX
  5
A5
330
A4
100
AcDbEntity
  8
_U+30EC_U+30A4_U+30E4_U+30FC 1
370
     0
100
AcDbVertex
100
AcDb2dVertex
 10
99.2514783823052
 20
-119.9837185029902
 30
0.0
  0
VERTEX
  5
A6
330
A4
100
AcDbEntity
  8
_U+30EC_U+30A4_U+30E4_U+30FC 1
370
     0
100
AcDbVertex
100
AcDb2dVertex
 10
98.63308374270285
 20
-119.9837185029902
 30
0.0
  0
VERTEX
  5
A7
330
A4
100
AcDbEntity
  8
_U+30EC_U+30A4_U+30E4_U+30FC 1
370
     0
100
AcDbVertex
100
AcDb2dVertex
 10
98.63308374270285
 20
-120.0917222464528
 30
0.0
  0
VERTEX
  5
A8
330
A4
100
AcDbEntity
  8
_U+30EC_U+30A4_U+30E4_U+30FC 1
370
     0
100
AcDbVertex
100
AcDb2dVertex
 10
99.2514783823052
 20
-120.0917222464528
 30
0.0
  0
VERTEX
  5
A9
330
A4
100
AcDbEntity
  8
_U+30EC_U+30A4_U+30E4_U+30FC 1
370
     0
100
AcDbVertex
100
AcDb2dVertex
 10
99.2514783823052
 20
-119.9837185029902
 30
0.0
  0
SEQEND
  5
AA
330
A4
100
AcDbEntity
  8
_U+30EC_U+30A4_U+30E4_U+30FC 1
370
     0
  0
POLYLINE
  5
AB
330
9B
100
AcDbEntity
  8
_U+30EC_U+30A4_U+30E4_U+30FC 1
370
     0
100
AcDb2dPolyline
 66
     1
 10
0.0
 20
0.0
 30
0.0
  0
VERTEX
  5
AC
330
AB
100
AcDbEntity
  8
_U+30EC_U+30A4_U+30E4_U+30FC 1
370
     0
100
AcDbVertex
100
AcDb2dVertex
 10
99.2514783823052
 20
-120.2164347030188
 30
0.0
  0
VERTEX
  5
AD
330
AB
100
AcDbEntity
  8
_U+30EC_U+30A4_U+30E4_U+30FC 1
370
     0
100
AcDbVertex
100
AcDb2dVertex
 10
98.63308374270285
 20
-120.2164347030188
 30
0.0
  0
VERTEX
  5
AE
330
AB
100
AcDbEntity
  8
_U+30EC_U+30A4_U+30E4_U+30FC 1
370
     0
100
AcDbVertex
100
AcDb2dVertex
 10
98.63308374270285
 20
-120.3308118731291
 30
0.0
  0
VERTEX
  5
AF
330
AB
100
AcDbEntity
  8
_U+30EC_U+30A4_U+30E4_U+30FC 1
370
     0
100
AcDbVertex
100
AcDb2dVertex
 10
99.2514783823052
 20
-120.3308118731291
 30
0.0
  0
VERTEX
  5
B0
330
AB
100
AcDbEntity
  8
_U+30EC_U+30A4_U+30E4_U+30FC 1
370
     0
100
AcDbVertex
100
AcDb2dVertex
 10
99.2514783823052
 20
-120.2164347030188
 30
0.0
  0
SEQEND
  5
B1
330
AB
100
AcDbEntity
  8
_U+30EC_U+30A4_U+30E4_U+30FC 1
370
     0
  0
POLYLINE
  5
B2
330
9B
100
AcDbEntity
  8
_U+30EC_U+30A4_U+30E4_U+30FC 1
370
     0
100
AcDb2dPolyline
 66
     1
 10
0.0
 20
0.0
 30
0.0
  0
VERTEX
  5
B3
330
B2
100
AcDbEntity
  8
_U+30EC_U+30A4_U+30E4_U+30FC 1
370
     0
100
AcDbVertex
100
AcDb2dVertex
 10
99.2514783823052
 20
-120.4598306990517
 30
0.0
  0
VERTEX
  5
B4
330
B2
100
AcDbEntity
  8
_U+30EC_U+30A4_U+30E4_U+30FC 1
370
     0
100
AcDbVertex
100
AcDb2dVertex
 10
98.63308374270285
 20
-120.4598306990517
 30
0.0
  0
VERTEX
  5
B5
330
B2
100
AcDbEntity
  8
_U+30EC_U+30A4_U+30E4_U+30FC 1
370
     0
100
AcDbVertex
100
AcDb2dVertex
 10
98.63308374270285
 20
-120.5740356143878
 30
0.0
  0
VERTEX
  5
B6
330
B2
100
AcDbEntity
  8
_U+30EC_U+30A4_U+30E4_U+30FC 1
370
     0
100
AcDbVertex
100
AcDb2dVertex
 10
99.2514783823052
 20
-120.5740356143878
 30
0.0
  0
VERTEX
  5
B7
330
B2
100
AcDbEntity
  8
_U+30EC_U+30A4_U+30E4_U+30FC 1
370
     0
100
AcDbVertex
100
AcDb2dVertex
 10
99.2514783823052
 20
-120.4598306990517
 30
0.0
  0
SEQEND
  5
B8
330
B2
100
AcDbEntity
  8
_U+30EC_U+30A4_U+30E4_U+30FC 1
370
     0
  0
HATCH
  5
B9
330
9B
100
AcDbEntity
  8
_U+30EC_U+30A4_U+30E4_U+30FC 1
 62
   179
420
  2234388
100
AcDbHatch
 10
0.0
 20
0.0
 30
0.0
210
0.0
220
0.0
230
1.0
  2
SOLID
 70
     1
 71
     0
 91
        4
 92
        1
 93
        1
 72
     4
 94
        3
 73
     0
 74
     1
 95
      203
 96
      199
 40
0.0
 40
0.0
 40
0.0
 40
0.0
 40
1.0
 40
1.0
 40
1.0
 40
2.0
 40
2.0
 40
2.0
 40
3.0
 40
3.0
 40
3.0
 40
4.0
 40
4.0
 40
4.0
 40
5.0
 40
5.0
 40
5.0
 40
6.0
 40
6.0
 40
6.0
 40
7.0
 40
7.0
 40
7.0
 40
8.0
 40
8.0
 40
8.0
 40
9.0
 40
9.0
 40
9.0
 40
10.0
 40
10.0
 40
10.0
 40
11.0
 40
11.0
 40
11.0
 40
12.0
 40
12.0
 40
12.0
 40
13.0
 40
13.0
 40
13.0
 40
14.0
 40
14.0
 40
14.0
 40
15.0
 40
15.0
 40
15.0
 40
16.0
 40
16.0
 40
16.0
 40
17.0
 40
17.0
 40
17.0
 40
18.0
 40
18.0
 40
18.0
 40
19.0
 40
19.0
 40
19.0
 40
20.0
 40
20.0
 40
20.0
 40
21.0
 40
21.0
 40
21.0
 40
22.0
 40
22.0
 40
22.0
 40
23.0
 40
23.0
 40
23.0
 40
24.0
 40
24.0
 40
24.0
 40
25.0
 40
25.0
 40
25.0
 40
26.0
 40
26.0
 40
26.0
 40
27.0
 40
27.0
 40
27.0
 40
28.0
 40
28.0
 40
28.0
 40
29.0
 40
29.0
 40
29.0
 40
30.0
 40
30.0
 40
30.0
 40
31.0
 40
31.0
 40
31.0
 40
32.0
 40
32.0
 40
32.0
 40
33.0
 40
33.0
 40
33.0
 40
34.0
 40
34.0
 40
34.0
 40
35.0
 40
35.0
 40
35.0
 40
36.0
 40
36.0
 40
36.0
 40
37.0
 40
37.0
 40
37.0
 40
38.0
 40
38.0
 40
38.0
 40
39.0
 40
39.0
 40
39.0
 40
40.0
 40
40.0
 40
40.0
 40
41.0
 40
41.0
 40
41.0
 40
42.0
 40
42.0
 40
42.0
 40
43.0
 40
43.0
 40
43.0
 40
44.0
 40
44.0
 40
44.0
 40
45.0
 40
45.0
 40
45.0
 40
46.0
 40
46.0
 40
46.0
 40
47.0
 40
47.0
 40
47.0
 40
48.0
 40
48.0
 40
48.0
 40
49.0
 40
49.0
 40
49.0
 40
50.0
 40
50.0
 40
50.0
 40
51.0
 40
51.0
 40
51.0
 40
52.0
 40
52.0
 40
52.0
 40
53.0
 40
53.0
 40
53.0
 40
54.0
 40
54.0
 40
54.0
 40
55.0
 40
55.0
 40
55.0
 40
56.0
 40
56.0
 40
56.0
 40
57.0
 40
57.0
 40
57.0
 40
58.0
 40
58.0
 40
58.0
 40
59.0
 40
59.0
 40
59.0
 40
60.0
 40
60.0
 40
60.0
 40
61.0
 40
61.0
 40
61.0
 40
62.0
 40
62.0
 40
62.0
 40
63.0
 40
63.0
 40
63.0
 40
64.0
 40
64.0
 40
64.0
 40
65.0
 40
65.0
 40
65.0
 40
66.0
 40
66.0
 40
66.0
 40
66.0
 10
99.10712888147322
 20
-119.7277479084361
 10
99.10712888147322
 20
-119.7277479084361
 10
98.61826983211627
 20
-119.7277479084361
 10
98.61826983211627
 20
-119.7277479084361
 10
98.60896807430609
 20
-119.7721896401958
 10
98.60173337378707
 20
-119.8038845186601
 10
98.59036455868575
 20
-119.8421250785464
 10
98.61275767933986
 20
-119.8421250785464
 10
98.62584904218382
 20
-119.8441921358376
 10
98.63136119496022
 20
-119.8441921358376
 10
98.63136119496022
 20
-119.8441921358376
 10
98.79603675915516
 20
-119.8441921358376
 10
98.79603675915516
 20
-119.8441921358376
 10
98.79603675915516
 20
-119.8441921358376
 10
99.12366533980241
 20
-119.8441921358376
 10
99.12366533980241
 20
-119.8441921358376
 10
99.16845158111067
 20
-119.8441921358376
 10
99.41649845604866
 20
-119.8314452825421
 10
99.44405921993065
 20
-119.8314452825421
 10
99.44233667218803
 20
-119.8590060464241
 10
99.4406141244454
 20
-119.877954071593
 10
99.4406141244454
 20
-119.9075818927662
 10
99.43854706715426
 20
-119.9392767712305
 10
99.43854706715426
 20
-120.0746690238008
 10
99.43854706715426
 20
-120.1022297876828
 10
99.43854706715426
 20
-120.1022297876828
 10
99.43854706715426
 20
-120.3476928410068
 10
99.43854706715426
 20
-120.3476928410068
 10
99.43854706715426
 20
-120.3921345727666
 10
99.44233667218803
 20
-120.5888495249743
 10
99.44612627722181
 20
-120.7411227454224
 10
99.44612627722181
 20
-120.7411227454224
 10
99.24803328681995
 20
-120.7411227454224
 10
99.24803328681995
 20
-120.7411227454224
 10
99.24803328681995
 20
-120.7411227454224
 10
99.24975583456256
 20
-120.7073608096669
 10
99.24975583456256
 20
-120.7073608096669
 10
99.24975583456256
 20
-120.7073608096669
 10
98.635150799994
 20
-120.7073608096669
 10
98.635150799994
 20
-120.7073608096669
 10
98.635150799994
 20
-120.7073608096669
 10
98.63687334773662
 20
-120.7411227454224
 10
98.63687334773662
 20
-120.7411227454224
 10
98.63687334773662
 20
-120.7411227454224
 10
98.44601505785378
 20
-120.7411227454224
 10
98.44601505785378
 20
-120.7411227454224
 10
98.44980466288756
 20
-120.6861734724326
 10
98.44980466288756
 20
-120.6734266191372
 10
98.45531681566395
 20
-120.5592217038012
 10
98.4573838729551
 20
-120.5316609399192
 10
98.45910642069772
 20
-120.3985079994143
 10
98.45910642069772
 20
-120.3793877194711
 10
98.45910642069772
 20
-120.3793877194711
 10
98.45910642069772
 20
-120.1762993406157
 10
98.45910642069772
 20
-120.1762993406157
 10
98.33680553097136
 20
-120.425896508522
 10
98.18866642510561
 20
-120.55715464651
 10
98.0959933565524
 20
-120.6226114607298
 10
98.0959933565524
 20
-120.6226114607298
 10
97.9444091552014
 20
-120.4830850935771
 10
97.9444091552014
 20
-120.4830850935771
 10
98.02192380361953
 20
-120.4322699351697
 10
98.14801429837966
 20
-120.3454535289414
 10
98.26824813081488
 20
-120.1509778887991
 10
98.34782983652416
 20
-120.0240261201676
 10
98.40536293112783
 20
-119.8801933836584
 10
98.43499075230098
 20
-119.7277479084361
 10
98.23483070460796
 20
-119.7299872205015
 10
98.07773435048057
 20
-119.7363606471493
 10
97.99436303973752
 20
-119.7384277044404
 10
97.99436303973752
 20
-119.7384277044404
 10
97.99436303973752
 20
-119.5606607774015
 10
97.99436303973752
 20
-119.5606607774015
 10
98.16661781400002
 20
-119.5670342040492
 10
98.414664688938
 20
-119.5713405734058
 10
98.54626733647454
 20
-119.5713405734058
 10
98.54626733647454
 20
-119.5713405734058
 10
98.73299151177508
 20
-119.5713405734058
 10
98.73299151177508
 20
-119.5713405734058
 10
98.73299151177508
 20
-119.5713405734058
 10
98.73299151177508
 20
-119.4633368299432
 10
98.73299151177508
 20
-119.4633368299432
 10
98.73299151177508
 20
-119.4633368299432
 10
98.60552297882084
 20
-119.4633368299432
 10
98.60552297882084
 20
-119.4633368299432
 10
98.4573838729551
 20
-119.4633368299432
 10
98.30924476708935
 20
-119.4676431992998
 10
98.16282820896625
 20
-119.4740166259475
 10
98.16282820896625
 20
-119.4740166259475
 10
98.16282820896625
 20
-119.3026231255563
 10
98.16282820896625
 20
-119.3026231255563
 10
98.29787595198803
 20
-119.3131306667863
 10
98.46082896844035
 20
-119.3131306667863
 10
98.60552297882084
 20
-119.3131306667863
 10
98.60552297882084
 20
-119.3131306667863
 10
98.73299151177508
 20
-119.3131306667863
 10
98.73299151177508
 20
-119.3131306667863
 10
98.73299151177508
 20
-119.3131306667863
 10
98.73299151177508
 20
-119.194791636868
 10
98.73299151177508
 20
-119.194791636868
 10
98.73299151177508
 20
-119.194791636868
 10
98.61826983211627
 20
-119.194791636868
 10
98.61826983211627
 20
-119.194791636868
 10
98.57761770539032
 20
-119.194791636868
 10
98.39985077835144
 20
-119.2032321208068
 10
98.36264374711074
 20
-119.2032321208068
 10
98.18487682007184
 20
-119.2073662353891
 10
98.11838647720651
 20
-119.2094332926803
 10
98.04982907705005
 20
-119.2116726047457
 10
98.04982907705005
 20
-119.2116726047457
 10
98.04982907705005
 20
-119.0275322510591
 10
98.04982907705005
 20
-119.0275322510591
 10
98.1497368461223
 20
-119.035972734998
 10
98.18866642510561
 20
-119.035972734998
 10
98.52387421582043
 20
-119.0445854737111
 10
98.4684081785079
 20
-118.9493285835439
 10
98.44429251011115
 20
-118.9217678196619
 10
98.41259763164686
 20
-118.8857665718411
 10
98.41259763164686
 20
-118.8857665718411
 10
98.56659339983753
 20
-118.8032565349693
 10
98.56659339983753
 20
-118.8032565349693
 10
98.60173337378707
 20
-118.8392577827902
 10
98.6406629527704
 20
-118.8816324572588
 10
98.70543074789309
 20
-118.9915310032382
 10
98.70543074789309
 20
-118.9915310032382
 10
98.60552297882084
 20
-119.0466525310022
 10
98.60552297882084
 20
-119.0466525310022
 10
98.60552297882084
 20
-119.0466525310022
 10
98.6144802270825
 20
-119.0466525310022
 10
98.6144802270825
 20
-119.0466525310022
 10
98.6144802270825
 20
-119.0466525310022
 10
99.07198890752368
 20
-119.0466525310022
 10
99.07198890752368
 20
-119.0466525310022
 10
99.07198890752368
 20
-119.0466525310022
 10
98.98861759678063
 20
-119.0022107992425
 10
98.98861759678063
 20
-119.0022107992425
 10
99.01273326517737
 20
-118.9641424941305
 10
99.0626871497135
 20
-118.8836995145499
 10
99.07577851255745
 20
-118.809629961617
 10
99.07577851255745
 20
-118.809629961617
 10
99.26284719740651
 20
-118.8731919733199
 10
99.26284719740651
 20
-118.8731919733199
 10
99.27008189792554
 20
-118.875259030611
 10
99.28868541354589
 20
-118.8857665718411
 10
99.28868541354589
 20
-118.9069539090754
 10
99.28868541354589
 20
-118.9450222141874
 10
99.23115231894222
 20
-118.9450222141874
 10
99.21461586061302
 20
-118.9450222141874
 10
99.20531410280284
 20
-118.9641424941305
 10
99.18498803943987
 20
-119.0042778565337
 10
99.1591498233005
 20
-119.0445854737111
 10
99.50882701505336
 20
-119.0382120470634
 10
99.53500974074126
 20
-119.035972734998
 10
99.60150008360658
 20
-119.0297715631245
 10
99.60150008360658
 20
-119.0297715631245
 10
99.60150008360658
 20
-119.2116726047457
 10
99.60150008360658
 20
-119.2116726047457
 10
99.58496362527737
 20
-119.2116726047457
 10
99.56257050462325
 20
-119.2094332926803
 10
99.36998966699778
 20
-119.2009928087414
 10
99.32554793523806
 20
-119.1989257514503
 10
99.13296709761259
 20
-119.194791636868
 10
99.09403751862928
 20
-119.194791636868
 10
99.09403751862928
 20
-119.194791636868
 10
98.90524628603758
 20
-119.194791636868
 10
98.90524628603758
 20
-119.194791636868
 10
98.90524628603758
 20
-119.194791636868
 10
98.90524628603758
 20
-119.3131306667863
 10
98.90524628603758
 20
-119.3131306667863
 10
98.90524628603758
 20
-119.3131306667863
 10
99.05717499693709
 20
-119.3131306667863
 10
99.05717499693709
 20
-119.3131306667863
 10
99.19980195002644
 20
-119.3131306667863
 10
99.36654457151253
 20
-119.3131306667863
 10
99.50331486227695
 20
-119.3026231255563
 10
99.50331486227695
 20
-119.3026231255563
 10
99.50331486227695
 20
-119.4740166259475
 10
99.50331486227695
 20
-119.4740166259475
 10
99.32003578246166
 20
-119.4655761420086
 10
99.14778100819917
 20
-119.4633368299432
 10
99.05717499693709
 20
-119.4633368299432
 10
99.05717499693709
 20
-119.4633368299432
 10
98.90524628603758
 20
-119.4633368299432
 10
98.90524628603758
 20
-119.4633368299432
 10
98.90524628603758
 20
-119.4633368299432
 10
98.90524628603758
 20
-119.5713405734058
 10
98.90524628603758
 20
-119.5713405734058
 10
98.90524628603758
 20
-119.5713405734058
 10
99.10712888147322
 20
-119.5713405734058
 10
99.10712888147322
 20
-119.5713405734058
 10
99.22391761842319
 20
-119.5713405734058
 10
99.47575409839496
 20
-119.5670342040492
 10
99.65903317821025
 20
-119.5606607774015
 10
99.65903317821025
 20
-119.5606607774015
 10
99.65903317821025
 20
-119.7384277044404
 10
99.65903317821025
 20
-119.7384277044404
 10
99.49056800898153
 20
-119.7320542777927
 10
99.21633840835564
 20
-119.7277479084361
 10
99.10712888147322
 20
-119.7277479084361
 97
        0
 97
        0
 92
        1
 93
        4
 72
     1
 10
99.2514783823052
 20
-119.9837185029902
 11
98.63308374270285
 21
-119.9837185029902
 72
     1
 10
98.63308374270285
 20
-119.9837185029902
 11
98.63308374270285
 21
-120.0917222464528
 72
     1
 10
98.63308374270285
 20
-120.0917222464528
 11
99.2514783823052
 21
-120.0917222464528
 72
     1
 10
99.2514783823052
 20
-120.0917222464528
 11
99.2514783823052
 21
-119.9837185029902
 97
        0
 92
        1
 93
        4
 72
     1
 10
99.2514783823052
 20
-120.2164347030188
 11
98.63308374270285
 21
-120.2164347030188
 72
     1
 10
98.63308374270285
 20
-120.2164347030188
 11
98.63308374270285
 21
-120.3308118731291
 72
     1
 10
98.63308374270285
 20
-120.3308118731291
 11
99.2514783823052
 21
-120.3308118731291
 72
     1
 10
99.2514783823052
 20
-120.3308118731291
 11
99.2514783823052
 21
-120.2164347030188
 97
        0
 92
        1
 93
        4
 72
     1
 10
99.2514783823052
 20
-120.4598306990517
 11
98.63308374270285
 21
-120.4598306990517
 72
     1
 10
98.63308374270285
 20
-120.4598306990517
 11
98.63308374270285
 21
-120.5740356143878
 72
     1
 10
98.63308374270285
 20
-120.5740356143878
 11
99.2514783823052
 21
-120.5740356143878
 72
     1
 10
99.2514783823052
 20
-120.5740356143878
 11
99.2514783823052
 21
-120.4598306990517
 97
        0
 75
     2
 76
     1
 98
        0
  0
SPLINE
  5
BA
330
9B
100
AcDbEntity
  8
_U+30EC_U+30A4_U+30E4_U+30FC 1
370
     0
100
AcDbSpline
210
0.0
220
0.0
230
1.0
 70
    11
 71
     3
 72
    47
 73
    43
 74
     0
 42
0.0000000001
 43
0.0000000001
 12
1.0
 22
0.0
 32
0.0
 13
1.0
 23
0.0
 33
0.0
 40
0.0
 40
0.0
 40
0.0
 40
0.0
 40
1.0
 40
1.0
 40
1.0
 40
2.0
 40
2.0
 40
2.0
 40
3.0
 40
3.0
 40
3.0
 40
4.0
 40
4.0
 40
4.0
 40
5.0
 40
5.0
 40
5.0
 40
6.0
 40
6.0
 40
6.0
 40
7.0
 40
7.0
 40
7.0
 40
8.0
 40
8.0
 40
8.0
 40
9.0
 40
9.0
 40
9.0
 40
10.0
 40
10.0
 40
10.0
 40
11.0
 40
11.0
 40
11.0
 40
12.0
 40
12.0
 40
12.0
 40
13.0
 40
13.0
 40
13.0
 40
14.0
 40
14.0
 40
14.0
 40
14.0
 10
100.8389783819083
 20
-119.7044935139107
 30
0.0
 10
100.8389783819083
 20
-119.7044935139107
 30
0.0
 10
100.7500949183889
 20
-119.7044935139107
 30
0.0
 10
100.7500949183889
 20
-119.7044935139107
 30
0.0
 10
100.7500949183889
 20
-119.791309920139
 30
0.0
 10
100.7314914027685
 20
-120.1806057099722
 30
0.0
 10
100.559236628506
 20
-120.4005750567054
 30
0.0
 10
100.4259114332269
 20
-120.5697292450312
 30
0.0
 10
100.2443549011542
 20
-120.6396646833818
 30
0.0
 10
100.1702853482213
 20
-120.6670531924895
 30
0.0
 10
100.1702853482213
 20
-120.6670531924895
 30
0.0
 10
100.00009763125
 20
-120.4999660614549
 30
0.0
 10
100.00009763125
 20
-120.4999660614549
 30
0.0
 10
100.0851914897356
 20
-120.4872192081594
 30
0.0
 10
100.2388427483778
 20
-120.463964813634
 30
0.0
 10
100.4038628221213
 20
-120.2756903453651
 30
0.0
 10
100.468630617244
 20
-120.2038601044977
 30
0.0
 10
100.559236628506
 20
-120.0641614825708
 30
0.0
 10
100.559236628506
 20
-119.7044935139107
 30
0.0
 10
100.559236628506
 20
-119.7044935139107
 30
0.0
 10
100.3573540330704
 20
-119.7044935139107
 30
0.0
 10
100.3573540330704
 20
-119.7044935139107
 30
0.0
 10
100.1944010166181
 20
-119.7044935139107
 30
0.0
 10
100.0314480001658
 20
-119.7087998832672
 30
0.0
 10
99.86849498371343
 20
-119.7236137938538
 30
0.0
 10
99.86849498371343
 20
-119.7236137938538
 30
0.0
 10
99.86849498371343
 20
-119.5036444471206
 30
0.0
 10
99.86849498371343
 20
-119.5036444471206
 30
0.0
 10
100.0331705479084
 20
-119.5184583577072
 30
0.0
 10
100.2832844801375
 20
-119.5225924722895
 30
0.0
 10
100.3573540330704
 20
-119.5225924722895
 30
0.0
 10
100.3573540330704
 20
-119.5225924722895
 30
0.0
 10
100.8389783819083
 20
-119.5225924722895
 30
0.0
 10
100.8389783819083
 20
-119.5225924722895
 30
0.0
 10
100.8555148402375
 20
-119.5225924722895
 30
0.0
 10
101.1331895363487
 20
-119.5225924722895
 30
0.0
 10
101.3333495840417
 20
-119.5036444471206
 30
0.0
 10
101.3333495840417
 20
-119.5036444471206
 30
0.0
 10
101.3333495840417
 20
-119.7236137938538
 30
0.0
 10
101.3333495840417
 20
-119.7236137938538
 30
0.0
 10
101.1683295102982
 20
-119.7087998832672
 30
0.0
 10
101.0036539461033
 20
-119.7044935139107
 30
0.0
 10
100.8389783819083
 20
-119.7044935139107
 30
0.0
  0
SPLINE
  5
BB
330
9B
100
AcDbEntity
  8
_U+30EC_U+30A4_U+30E4_U+30FC 1
370
     0
100
AcDbSpline
210
0.0
220
0.0
230
1.0
 70
    11
 71
     3
 72
    29
 73
    25
 74
     0
 42
0.0000000001
 43
0.0000000001
 12
1.0
 22
0.0
 32
0.0
 13
1.0
 23
0.0
 33
0.0
 40
0.0
 40
0.0
 40
0.0
 40
0.0
 40
1.0
 40
1.0
 40
1.0
 40
2.0
 40
2.0
 40
2.0
 40
3.0
 40
3.0
 40
3.0
 40
4.0
 40
4.0
 40
4.0
 40
5.0
 40
5.0
 40
5.0
 40
6.0
 40
6.0
 40
6.0
 40
7.0
 40
7.0
 40
7.0
 40
8.0
 40
8.0
 40
8.0
 40
8.0
 10
100.7500949183889
 20
-119.1756713569248
 30
0.0
 10
100.7500949183889
 20
-119.1756713569248
 30
0.0
 10
100.4407253438134
 20
-119.1756713569248
 30
0.0
 10
100.4407253438134
 20
-119.1756713569248
 30
0.0
 10
100.3425401224838
 20
-119.1756713569248
 30
0.0
 10
100.2202392327575
 20
-119.1820447835726
 30
0.0
 10
100.1258436164616
 20
-119.194791636868
 30
0.0
 10
100.1258436164616
 20
-119.194791636868
 30
0.0
 10
100.1258436164616
 20
-118.9598361247739
 30
0.0
 10
100.1258436164616
 20
-118.9598361247739
 30
0.0
 10
100.2295409905676
 20
-118.9746500353605
 30
0.0
 10
100.3907714592773
 20
-118.9789564047171
 30
0.0
 10
100.4407253438134
 20
-118.9789564047171
 30
0.0
 10
100.4407253438134
 20
-118.9789564047171
 30
0.0
 10
100.7500949183889
 20
-118.9789564047171
 30
0.0
 10
100.7500949183889
 20
-118.9789564047171
 30
0.0
 10
100.7666313767181
 20
-118.9789564047171
 30
0.0
 10
100.944398303757
 20
-118.9789564047171
 30
0.0
 10
101.068421741226
 20
-118.9598361247739
 30
0.0
 10
101.068421741226
 20
-118.9598361247739
 30
0.0
 10
101.068421741226
 20
-119.194791636868
 30
0.0
 10
101.068421741226
 20
-119.194791636868
 30
0.0
 10
100.931306940913
 20
-119.1756713569248
 30
0.0
 10
100.7649088289755
 20
-119.1756713569248
 30
0.0
 10
100.7500949183889
 20
-119.1756713569248
 30
0.0
  0
HATCH
  5
BC
330
9B
100
AcDbEntity
  8
_U+30EC_U+30A4_U+30E4_U+30FC 1
 62
   179
420
  2234388
100
AcDbHatch
 10
0.0
 20
0.0
 30
0.0
210
0.0
220
0.0
230
1.0
  2
SOLID
 70
     1
 71
     0
 91
        2
 92
        1
 93
        1
 72
     4
 94
        3
 73
     0
 74
     1
 95
       47
 96
       43
 40
0.0
 40
0.0
 40
0.0
 40
0.0
 40
1.0
 40
1.0
 40
1.0
 40
2.0
 40
2.0
 40
2.0
 40
3.0
 40
3.0
 40
3.0
 40
4.0
 40
4.0
 40
4.0
 40
5.0
 40
5.0
 40
5.0
 40
6.0
 40
6.0
 40
6.0
 40
7.0
 40
7.0
 40
7.0
 40
8.0
 40
8.0
 40
8.0
 40
9.0
 40
9.0
 40
9.0
 40
10.0
 40
10.0
 40
10.0
 40
11.0
 40
11.0
 40
11.0
 40
12.0
 40
12.0
 40
12.0
 40
13.0
 40
13.0
 40
13.0
 40
14.0
 40
14.0
 40
14.0
 40
14.0
 10
100.8389783819083
 20
-119.7044935139107
 10
100.8389783819083
 20
-119.7044935139107
 10
100.7500949183889
 20
-119.7044935139107
 10
100.7500949183889
 20
-119.7044935139107
 10
100.7500949183889
 20
-119.791309920139
 10
100.7314914027685
 20
-120.1806057099722
 10
100.559236628506
 20
-120.4005750567054
 10
100.4259114332269
 20
-120.5697292450312
 10
100.2443549011542
 20
-120.6396646833818
 10
100.1702853482213
 20
-120.6670531924895
 10
100.1702853482213
 20
-120.6670531924895
 10
100.00009763125
 20
-120.4999660614549
 10
100.00009763125
 20
-120.4999660614549
 10
100.0851914897356
 20
-120.4872192081594
 10
100.2388427483778
 20
-120.463964813634
 10
100.4038628221213
 20
-120.2756903453651
 10
100.468630617244
 20
-120.2038601044977
 10
100.559236628506
 20
-120.0641614825708
 10
100.559236628506
 20
-119.7044935139107
 10
100.559236628506
 20
-119.7044935139107
 10
100.3573540330704
 20
-119.7044935139107
 10
100.3573540330704
 20
-119.7044935139107
 10
100.1944010166181
 20
-119.7044935139107
 10
100.0314480001658
 20
-119.7087998832672
 10
99.86849498371343
 20
-119.7236137938538
 10
99.86849498371343
 20
-119.7236137938538
 10
99.86849498371343
 20
-119.5036444471206
 10
99.86849498371343
 20
-119.5036444471206
 10
100.0331705479084
 20
-119.5184583577072
 10
100.2832844801375
 20
-119.5225924722895
 10
100.3573540330704
 20
-119.5225924722895
 10
100.3573540330704
 20
-119.5225924722895
 10
100.8389783819083
 20
-119.5225924722895
 10
100.8389783819083
 20
-119.5225924722895
 10
100.8555148402375
 20
-119.5225924722895
 10
101.1331895363487
 20
-119.5225924722895
 10
101.3333495840417
 20
-119.5036444471206
 10
101.3333495840417
 20
-119.5036444471206
 10
101.3333495840417
 20
-119.7236137938538
 10
101.3333495840417
 20
-119.7236137938538
 10
101.1683295102982
 20
-119.7087998832672
 10
101.0036539461033
 20
-119.7044935139107
 10
100.8389783819083
 20
-119.7044935139107
 97
        0
 97
        0
 92
        1
 93
        1
 72
     4
 94
        3
 73
     0
 74
     1
 95
       29
 96
       25
 40
0.0
 40
0.0
 40
0.0
 40
0.0
 40
1.0
 40
1.0
 40
1.0
 40
2.0
 40
2.0
 40
2.0
 40
3.0
 40
3.0
 40
3.0
 40
4.0
 40
4.0
 40
4.0
 40
5.0
 40
5.0
 40
5.0
 40
6.0
 40
6.0
 40
6.0
 40
7.0
 40
7.0
 40
7.0
 40
8.0
 40
8.0
 40
8.0
 40
8.0
 10
100.7500949183889
 20
-119.1756713569248
 10
100.7500949183889
 20
-119.1756713569248
 10
100.4407253438134
 20
-119.1756713569248
 10
100.4407253438134
 20
-119.1756713569248
 10
100.3425401224838
 20
-119.1756713569248
 10
100.2202392327575
 20
-119.1820447835726
 10
100.1258436164616
 20
-119.194791636868
 10
100.1258436164616
 20
-119.194791636868
 10
100.1258436164616
 20
-118.9598361247739
 10
100.1258436164616
 20
-118.9598361247739
 10
100.2295409905676
 20
-118.9746500353605
 10
100.3907714592773
 20
-118.9789564047171
 10
100.4407253438134
 20
-118.9789564047171
 10
100.4407253438134
 20
-118.9789564047171
 10
100.7500949183889
 20
-118.9789564047171
 10
100.7500949183889
 20
-118.9789564047171
 10
100.7666313767181
 20
-118.9789564047171
 10
100.944398303757
 20
-118.9789564047171
 10
101.068421741226
 20
-118.9598361247739
 10
101.068421741226
 20
-118.9598361247739
 10
101.068421741226
 20
-119.194791636868
 10
101.068421741226
 20
-119.194791636868
 10
100.931306940913
 20
-119.1756713569248
 10
100.7649088289755
 20
-119.1756713569248
 10
100.7500949183889
 20
-119.1756713569248
 97
        0
 97
        0
 75
     2
 76
     1
 98
        0
  0
SPLINE
  5
BD
330
9B
100
AcDbEntity
  8
_U+30EC_U+30A4_U+30E4_U+30FC 1
370
     0
100
AcDbSpline
210
0.0
220
0.0
230
1.0
 70
    11
 71
     3
 72
    29
 73
    25
 74
     0
 42
0.0000000001
 43
0.0000000001
 12
1.0
 22
0.0
 32
0.0
 13
1.0
 23
0.0
 33
0.0
 40
0.0
 40
0.0
 40
0.0
 40
0.0
 40
1.0
 40
1.0
 40
1.0
 40
2.0
 40
2.0
 40
2.0
 40
3.0
 40
3.0
 40
3.0
 40
4.0
 40
4.0
 40
4.0
 40
5.0
 40
5.0
 40
5.0
 40
6.0
 40
6.0
 40
6.0
 40
7.0
 40
7.0
 40
7.0
 40
8.0
 40
8.0
 40
8.0
 40
8.0
 10
102.4557616931361
 20
-119.867446530363
 30
0.0
 10
102.4557616931361
 20
-119.867446530363
 30
0.0
 10
102.0316704389018
 20
-119.867446530363
 30
0.0
 10
102.0316704389018
 20
-119.867446530363
 30
0.0
 10
102.0075547705051
 20
-119.867446530363
 30
0.0
 10
101.7295355648454
 20
-119.867446530363
 30
0.0
 10
101.5445339372875
 20
-119.8927679821796
 30
0.0
 10
101.5445339372875
 20
-119.8927679821796
 30
0.0
 10
101.5445339372875
 20
-119.6622910942164
 30
0.0
 10
101.5445339372875
 20
-119.6622910942164
 30
0.0
 10
101.6833712853431
 20
-119.6855454887418
 30
0.0
 10
101.8501139068291
 20
-119.687612546033
 30
0.0
 10
102.0316704389018
 20
-119.687612546033
 30
0.0
 10
102.0316704389018
 20
-119.687612546033
 30
0.0
 10
102.4557616931361
 20
-119.687612546033
 30
0.0
 10
102.4557616931361
 20
-119.687612546033
 30
0.0
 10
102.6183702000399
 20
-119.687612546033
 30
0.0
 10
102.7816677260407
 20
-119.6855454887418
 30
0.0
 10
102.9425536852019
 20
-119.6622910942164
 30
0.0
 10
102.9425536852019
 20
-119.6622910942164
 30
0.0
 10
102.9425536852019
 20
-119.8927679821796
 30
0.0
 10
102.9425536852019
 20
-119.8927679821796
 30
0.0
 10
102.7816677260407
 20
-119.8695135876542
 30
0.0
 10
102.5649712200185
 20
-119.867446530363
 30
0.0
 10
102.4557616931361
 20
-119.867446530363
 30
0.0
  0
HATCH
  5
BE
330
9B
100
AcDbEntity
  8
_U+30EC_U+30A4_U+30E4_U+30FC 1
 62
   179
420
  2234388
100
AcDbHatch
 10
0.0
 20
0.0
 30
0.0
210
0.0
220
0.0
230
1.0
  2
SOLID
 70
     1
 71
     0
 91
        1
 92
        1
 93
        1
 72
     4
 94
        3
 73
     0
 74
     1
 95
       29
 96
       25
 40
0.0
 40
0.0
 40
0.0
 40
0.0
 40
1.0
 40
1.0
 40
1.0
 40
2.0
 40
2.0
 40
2.0
 40
3.0
 40
3.0
 40
3.0
 40
4.0
 40
4.0
 40
4.0
 40
5.0
 40
5.0
 40
5.0
 40
6.0
 40
6.0
 40
6.0
 40
7.0
 40
7.0
 40
7.0
 40
8.0
 40
8.0
 40
8.0
 40
8.0
 10
102.4557616931361
 20
-119.867446530363
 10
102.4557616931361
 20
-119.867446530363
 10
102.0316704389018
 20
-119.867446530363
 10
102.0316704389018
 20
-119.867446530363
 10
102.0075547705051
 20
-119.867446530363
 10
101.7295355648454
 20
-119.867446530363
 10
101.5445339372875
 20
-119.8927679821796
 10
101.5445339372875
 20
-119.8927679821796
 10
101.5445339372875
 20
-119.6622910942164
 10
101.5445339372875
 20
-119.6622910942164
 10
101.6833712853431
 20
-119.6855454887418
 10
101.8501139068291
 20
-119.687612546033
 10
102.0316704389018
 20
-119.687612546033
 10
102.0316704389018
 20
-119.687612546033
 10
102.4557616931361
 20
-119.687612546033
 10
102.4557616931361
 20
-119.687612546033
 10
102.6183702000399
 20
-119.687612546033
 10
102.7816677260407
 20
-119.6855454887418
 10
102.9425536852019
 20
-119.6622910942164
 10
102.9425536852019
 20
-119.6622910942164
 10
102.9425536852019
 20
-119.8927679821796
 10
102.9425536852019
 20
-119.8927679821796
 10
102.7816677260407
 20
-119.8695135876542
 10
102.5649712200185
 20
-119.867446530363
 10
102.4557616931361
 20
-119.867446530363
 97
        0
 97
        0
 75
     2
 76
     1
 98
        0
  0
SPLINE
  5
BF
330
9B
100
AcDbEntity
  8
_U+30EC_U+30A4_U+30E4_U+30FC 1
370
     0
100
AcDbSpline
210
0.0
220
0.0
230
1.0
 70
    11
 71
     3
 72
    44
 73
    40
 74
     0
 42
0.0000000001
 43
0.0000000001
 12
1.0
 22
0.0
 32
0.0
 13
1.0
 23
0.0
 33
0.0
 40
0.0
 40
0.0
 40
0.0
 40
0.0
 40
1.0
 40
1.0
 40
1.0
 40
2.0
 40
2.0
 40
2.0
 40
3.0
 40
3.0
 40
3.0
 40
4.0
 40
4.0
 40
4.0
 40
5.0
 40
5.0
 40
5.0
 40
6.0
 40
6.0
 40
6.0
 40
7.0
 40
7.0
 40
7.0
 40
8.0
 40
8.0
 40
8.0
 40
9.0
 40
9.0
 40
9.0
 40
10.0
 40
10.0
 40
10.0
 40
11.0
 40
11.0
 40
11.0
 40
12.0
 40
12.0
 40
12.0
 40
13.0
 40
13.0
 40
13.0
 40
13.0
 10
104.3925943749435
 20
-119.4295748941878
 30
0.0
 10
104.2944091536139
 20
-119.7976833467867
 30
0.0
 10
104.2499674218542
 20
-119.9563299938824
 30
0.0
 10
104.0777126475917
 20
-120.2059271617888
 30
0.0
 10
103.9168266884305
 20
-120.4365763045263
 30
0.0
 10
103.7094319402185
 20
-120.6226114607298
 30
0.0
 10
103.4648301607657
 20
-120.7158012936058
 30
0.0
 10
103.4648301607657
 20
-120.7158012936058
 30
0.0
 10
103.296364991537
 20
-120.5359673092757
 30
0.0
 10
103.296364991537
 20
-120.5359673092757
 30
0.0
 10
103.8575710460842
 20
-120.3836940888277
 30
0.0
 10
104.1462700477482
 20
-119.8273111679598
 30
0.0
 10
104.2017360850607
 20
-119.3872002197192
 30
0.0
 10
104.2017360850607
 20
-119.3872002197192
 30
0.0
 10
103.5316650131796
 20
-119.3872002197192
 30
0.0
 10
103.5316650131796
 20
-119.3872002197192
 30
0.0
 10
103.4500162501792
 20
-119.3872002197192
 30
0.0
 10
103.289130291018
 20
-119.3915065890757
 30
0.0
 10
103.1520154907051
 20
-119.4104546142446
 30
0.0
 10
103.1520154907051
 20
-119.4104546142446
 30
0.0
 10
103.1520154907051
 20
-119.1904852675114
 30
0.0
 10
103.1520154907051
 20
-119.1904852675114
 30
0.0
 10
103.2278075913806
 20
-119.2116726047457
 30
0.0
 10
103.4482937024365
 20
-119.2116726047457
 30
0.0
 10
103.5354546182134
 20
-119.2116726047457
 30
0.0
 10
103.5354546182134
 20
-119.2116726047457
 30
0.0
 10
103.9130370833967
 20
-119.2116726047457
 30
0.0
 10
103.9130370833967
 20
-119.2116726047457
 30
0.0
 10
103.9502441146374
 20
-119.2116726047457
 30
0.0
 10
104.1555718055583
 20
-119.2094332926803
 30
0.0
 10
104.1889892317653
 20
-119.2032321208068
 30
0.0
 10
104.2258517534574
 20
-119.1968586941591
 30
0.0
 10
104.2279188107486
 20
-119.194791636868
 30
0.0
 10
104.2816623003185
 20
-119.1544840196906
 30
0.0
 10
104.2816623003185
 20
-119.1544840196906
 30
0.0
 10
104.4463378645134
 20
-119.308996552204
 30
0.0
 10
104.4463378645134
 20
-119.308996552204
 30
0.0
 10
104.420499648374
 20
-119.3386243733772
 30
0.0
 10
104.4074082855301
 20
-119.3703192518415
 30
0.0
 10
104.3925943749435
 20
-119.4295748941878
 30
0.0
  0
SPLINE
  5
C0
330
9B
100
AcDbEntity
  8
_U+30EC_U+30A4_U+30E4_U+30FC 1
370
     0
100
AcDbSpline
210
0.0
220
0.0
230
1.0
 70
    11
 71
     3
 72
    17
 73
    13
 74
     0
 42
0.0000000001
 43
0.0000000001
 12
1.0
 22
0.0
 32
0.0
 13
1.0
 23
0.0
 33
0.0
 40
0.0
 40
0.0
 40
0.0
 40
0.0
 40
1.0
 40
1.0
 40
1.0
 40
2.0
 40
2.0
 40
2.0
 40
3.0
 40
3.0
 40
3.0
 40
4.0
 40
4.0
 40
4.0
 40
4.0
 10
104.5758734547588
 20
-119.2306206299146
 30
0.0
 10
104.4649413801338
 20
-119.2306206299146
 30
0.0
 10
104.3760579166143
 20
-119.129162567874
 30
0.0
 10
104.3760579166143
 20
-119.0022107992425
 30
0.0
 10
104.3760579166143
 20
-118.875259030611
 30
0.0
 10
104.4649413801338
 20
-118.771561656505
 30
0.0
 10
104.5758734547588
 20
-118.771561656505
 30
0.0
 10
104.6871500389324
 20
-118.771561656505
 30
0.0
 10
104.7777560501945
 20
-118.875259030611
 30
0.0
 10
104.7777560501945
 20
-119.0022107992425
 30
0.0
 10
104.7777560501945
 20
-119.129162567874
 30
0.0
 10
104.6871500389324
 20
-119.2306206299146
 30
0.0
 10
104.5758734547588
 20
-119.2306206299146
 30
0.0
  0
SPLINE
  5
C1
330
9B
100
AcDbEntity
  8
_U+30EC_U+30A4_U+30E4_U+30FC 1
370
     0
100
AcDbSpline
210
0.0
220
0.0
230
1.0
 70
    11
 71
     3
 72
    17
 73
    13
 74
     0
 42
0.0000000001
 43
0.0000000001
 12
1.0
 22
0.0
 32
0.0
 13
1.0
 23
0.0
 33
0.0
 40
0.0
 40
0.0
 40
0.0
 40
0.0
 40
1.0
 40
1.0
 40
1.0
 40
2.0
 40
2.0
 40
2.0
 40
3.0
 40
3.0
 40
3.0
 40
4.0
 40
4.0
 40
4.0
 40
4.0
 10
104.5741509070162
 20
-118.9005804824276
 30
0.0
 10
104.5259195702227
 20
-118.9005804824276
 30
0.0
 10
104.4869899912394
 20
-118.9450222141874
 30
0.0
 10
104.4869899912394
 20
-119.0001437419514
 30
0.0
 10
104.4869899912394
 20
-119.0571600722323
 30
0.0
 10
104.5259195702227
 20
-119.1059081733485
 30
0.0
 10
104.57794051205
 20
-119.1059081733485
 30
0.0
 10
104.6296169443287
 20
-119.1059081733485
 30
0.0
 10
104.6647569182783
 20
-119.0550930149411
 30
0.0
 10
104.6647569182783
 20
-119.0022107992425
 30
0.0
 10
104.6647569182783
 20
-118.9450222141874
 30
0.0
 10
104.6241047915523
 20
-118.9005804824276
 30
0.0
 10
104.5741509070162
 20
-118.9005804824276
 30
0.0
  0
HATCH
  5
C2
330
9B
100
AcDbEntity
  8
_U+30EC_U+30A4_U+30E4_U+30FC 1
 62
   179
420
  2234388
100
AcDbHatch
 10
0.0
 20
0.0
 30
0.0
210
0.0
220
0.0
230
1.0
  2
SOLID
 70
     1
 71
     0
 91
        3
 92
        1
 93
        1
 72
     4
 94
        3
 73
     0
 74
     1
 95
       44
 96
       40
 40
0.0
 40
0.0
 40
0.0
 40
0.0
 40
1.0
 40
1.0
 40
1.0
 40
2.0
 40
2.0
 40
2.0
 40
3.0
 40
3.0
 40
3.0
 40
4.0
 40
4.0
 40
4.0
 40
5.0
 40
5.0
 40
5.0
 40
6.0
 40
6.0
 40
6.0
 40
7.0
 40
7.0
 40
7.0
 40
8.0
 40
8.0
 40
8.0
 40
9.0
 40
9.0
 40
9.0
 40
10.0
 40
10.0
 40
10.0
 40
11.0
 40
11.0
 40
11.0
 40
12.0
 40
12.0
 40
12.0
 40
13.0
 40
13.0
 40
13.0
 40
13.0
 10
104.3925943749435
 20
-119.4295748941878
 10
104.2944091536139
 20
-119.7976833467867
 10
104.2499674218542
 20
-119.9563299938824
 10
104.0777126475917
 20
-120.2059271617888
 10
103.9168266884305
 20
-120.4365763045263
 10
103.7094319402185
 20
-120.6226114607298
 10
103.4648301607657
 20
-120.7158012936058
 10
103.4648301607657
 20
-120.7158012936058
 10
103.296364991537
 20
-120.5359673092757
 10
103.296364991537
 20
-120.5359673092757
 10
103.8575710460842
 20
-120.3836940888277
 10
104.1462700477482
 20
-119.8273111679598
 10
104.2017360850607
 20
-119.3872002197192
 10
104.2017360850607
 20
-119.3872002197192
 10
103.5316650131796
 20
-119.3872002197192
 10
103.5316650131796
 20
-119.3872002197192
 10
103.4500162501792
 20
-119.3872002197192
 10
103.289130291018
 20
-119.3915065890757
 10
103.1520154907051
 20
-119.4104546142446
 10
103.1520154907051
 20
-119.4104546142446
 10
103.1520154907051
 20
-119.1904852675114
 10
103.1520154907051
 20
-119.1904852675114
 10
103.2278075913806
 20
-119.2116726047457
 10
103.4482937024365
 20
-119.2116726047457
 10
103.5354546182134
 20
-119.2116726047457
 10
103.5354546182134
 20
-119.2116726047457
 10
103.9130370833967
 20
-119.2116726047457
 10
103.9130370833967
 20
-119.2116726047457
 10
103.9502441146374
 20
-119.2116726047457
 10
104.1555718055583
 20
-119.2094332926803
 10
104.1889892317653
 20
-119.2032321208068
 10
104.2258517534574
 20
-119.1968586941591
 10
104.2279188107486
 20
-119.194791636868
 10
104.2816623003185
 20
-119.1544840196906
 10
104.2816623003185
 20
-119.1544840196906
 10
104.4463378645134
 20
-119.308996552204
 10
104.4463378645134
 20
-119.308996552204
 10
104.420499648374
 20
-119.3386243733772
 10
104.4074082855301
 20
-119.3703192518415
 10
104.3925943749435
 20
-119.4295748941878
 97
        0
 97
        0
 92
        1
 93
        1
 72
     4
 94
        3
 73
     0
 74
     1
 95
       17
 96
       13
 40
0.0
 40
0.0
 40
0.0
 40
0.0
 40
1.0
 40
1.0
 40
1.0
 40
2.0
 40
2.0
 40
2.0
 40
3.0
 40
3.0
 40
3.0
 40
4.0
 40
4.0
 40
4.0
 40
4.0
 10
104.5758734547588
 20
-119.2306206299146
 10
104.4649413801338
 20
-119.2306206299146
 10
104.3760579166143
 20
-119.129162567874
 10
104.3760579166143
 20
-119.0022107992425
 10
104.3760579166143
 20
-118.875259030611
 10
104.4649413801338
 20
-118.771561656505
 10
104.5758734547588
 20
-118.771561656505
 10
104.6871500389324
 20
-118.771561656505
 10
104.7777560501945
 20
-118.875259030611
 10
104.7777560501945
 20
-119.0022107992425
 10
104.7777560501945
 20
-119.129162567874
 10
104.6871500389324
 20
-119.2306206299146
 10
104.5758734547588
 20
-119.2306206299146
 97
        0
 97
        0
 92
        1
 93
        1
 72
     4
 94
        3
 73
     0
 74
     1
 95
       17
 96
       13
 40
0.0
 40
0.0
 40
0.0
 40
0.0
 40
1.0
 40
1.0
 40
1.0
 40
2.0
 40
2.0
 40
2.0
 40
3.0
 40
3.0
 40
3.0
 40
4.0
 40
4.0
 40
4.0
 40
4.0
 10
104.5741509070162
 20
-118.9005804824276
 10
104.5259195702227
 20
-118.9005804824276
 10
104.4869899912394
 20
-118.9450222141874
 10
104.4869899912394
 20
-119.0001437419514
 10
104.4869899912394
 20
-119.0571600722323
 10
104.5259195702227
 20
-119.1059081733485
 10
104.57794051205
 20
-119.1059081733485
 10
104.6296169443287
 20
-119.1059081733485
 10
104.6647569182783
 20
-119.0550930149411
 10
104.6647569182783
 20
-119.0022107992425
 10
104.6647569182783
 20
-118.9450222141874
 10
104.6241047915523
 20
-118.9005804824276
 10
104.5741509070162
 20
-118.9005804824276
 97
        0
 97
        0
 75
     2
 76
     1
 98
        0
  0
ENDBLK
  5
9E
330
9B
100
AcDbEntity
  8
0
100
AcDbBlockEnd
  0
ENDSEC
  0
SECTION
  2
ENTITIES
  0
INSERT
  5
42
330
1F
100
AcDbEntity
  8
_U+30EC_U+30A4_U+30E4_U+30FC 1
100
AcDbBlockReference
  2
block 2
 10
0.0
 20
0.0
 30
0.0
  0
POLYLINE
  5
8A
330
1F
100
AcDbEntity
  8
_U+30EC_U+30A4_U+30E4_U+30FC 1
  6
AI-Linetype-1
 62
   154
420
    23468
370
    25
100
AcDb2dPolyline
 66
     1
 10
0.0
 20
0.0
 30
0.0
  0
VERTEX
  5
8B
330
8A
100
AcDbEntity
  8
_U+30EC_U+30A4_U+30E4_U+30FC 1
  6
AI-Linetype-1
 62
   154
420
    23468
370
    25
100
AcDbVertex
100
AcDb2dVertex
 10
96.78514530858301
 20
-131.5371808004492
 30
0.0
  0
VERTEX
  5
8C
330
8A
100
AcDbEntity
  8
_U+30EC_U+30A4_U+30E4_U+30FC 1
  6
AI-Linetype-1
 62
   154
420
    23468
370
    25
100
AcDbVertex
100
AcDb2dVertex
 10
106.7845253312554
 20
-131.5371808004492
 30
0.0
  0
SEQEND
  5
8E
330
8A
100
AcDbEntity
  8
_U+30EC_U+30A4_U+30E4_U+30FC 1
  6
AI-Linetype-1
 62
   154
420
    23468
370
    25
  0
POLYLINE
  5
8F
330
1F
100
AcDbEntity
  8
_U+30EC_U+30A4_U+30E4_U+30FC 1
 62
   179
420
  2234388
370
     9
100
AcDb2dPolyline
 66
     1
 10
0.0
 20
0.0
 30
0.0
  0
VERTEX
  5
90
330
8F
100
AcDbEntity
  8
_U+30EC_U+30A4_U+30E4_U+30FC 1
 62
   179
420
  2234388
370
     9
100
AcDbVertex
100
AcDb2dVertex
 10
98.82910442310394
 20
-131.036977189463
 30
0.0
  0
VERTEX
  5
91
330
8F
100
AcDbEntity
  8
_U+30EC_U+30A4_U+30E4_U+30FC 1
 62
   179
420
  2234388
370
     9
100
AcDbVertex
100
AcDb2dVertex
 10
99.0874788609567
 20
-130.0709658008153
 30
0.0
  0
SEQEND
  5
92
330
8F
100
AcDbEntity
  8
_U+30EC_U+30A4_U+30E4_U+30FC 1
 62
   179
420
  2234388
370
     9
  0
POLYLINE
  5
93
330
1F
100
AcDbEntity
  8
_U+30EC_U+30A4_U+30E4_U+30FC 1
 62
   179
420
  2234388
370
     9
100
AcDb2dPolyline
 66
     1
 10
0.0
 20
0.0
 30
0.0
  0
VERTEX
  5
94
330
93
100
AcDbEntity
  8
_U+30EC_U+30A4_U+30E4_U+30FC 1
 62
   179
420
  2234388
370
     9
100
AcDbVertex
100
AcDb2dVertex
 10
98.82910442310394
 20
-131.036977189463
 30
0.0
  0
VERTEX
  5
95
330
93
100
AcDbEntity
  8
_U+30EC_U+30A4_U+30E4_U+30FC 1
 62
   179
420
  2234388
370
     9
100
AcDbVertex
100
AcDb2dVertex
 10
98.82910442310394
 20
-121.6616608029179
 30
0.0
  0
SEQEND
  5
96
330
93
100
AcDbEntity
  8
_U+30EC_U+30A4_U+30E4_U+30FC 1
 62
   179
420
  2234388
370
     9
  0
POLYLINE
  5
97
330
1F
100
AcDbEntity
  8
_U+30EC_U+30A4_U+30E4_U+30FC 1
 62
   179
420
  2234388
370
     9
100
AcDb2dPolyline
 66
     1
 10
0.0
 20
0.0
 30
0.0
  0
VERTEX
  5
98
330
97
100
AcDbEntity
  8
_U+30EC_U+30A4_U+30E4_U+30FC 1
 62
   179
420
  2234388
370
     9
100
AcDbVertex
100
AcDb2dVertex
 10
98.82910442310394
 20
-131.036977189463
 30
0.0
  0
VERTEX
  5
99
330
97
100
AcDbEntity
  8
_U+30EC_U+30A4_U+30E4_U+30FC 1
 62
   179
420
  2234388
370
     9
100
AcDbVertex
100
AcDb2dVertex
 10
98.57002442971361
 20
-130.0709658008153
 30
0.0
  0
SEQEND
  5
9A
330
97
100
AcDbEntity
  8
_U+30EC_U+30A4_U+30E4_U+30FC 1
 62
   179
420
  2234388
370
     9
  0
INSERT
  5
9C
330
1F
100
AcDbEntity
  8
_U+30EC_U+30A4_U+30E4_U+30FC 1
100
AcDbBlockReference
  2
block 5
 10
0.0
 20
0.0
 30
0.0
  0
ENDSEC
  0
SECTION
  2
OBJECTS
  0
DICTIONARY
  5
C
330
0
100
AcDbDictionary
281
     1
  3
ACAD_GROUP
350
D
  3
ACAD_LAYOUT
350
1A
  3
ACAD_MATERIAL
350
3B
  3
ACAD_MLEADERSTYLE
350
C4
  3
ACAD_MLINESTYLE
350
17
  3
ACAD_PLOTSETTINGS
350
19
  3
ACAD_PLOTSTYLENAME
350
E
  3
ACAD_TABLESTYLE
350
C3
  3
ACAD_VISUALSTYLE
350
2A
  0
SUN
  5
3F
330
29
100
AcDbSun
 90
        1
290
     0
 63
     7
421
 16777215
 40
1.0
291
     1
 91
  2455826
 92
 54000000
292
     0
 70
     2
 71
   256
280
     1
  0
DICTIONARY
  5
D
102
{ACAD_REACTORS
330
C
102
}
330
C
100
AcDbDictionary
281
     1
  0
DICTIONARY
  5
1A
102
{ACAD_REACTORS
330
C
102
}
330
C
100
AcDbDictionary
281
     1
  3
Layout1
350
1E
  3
Layout2
350
26
  3
Model
350
22
  0
DICTIONARY
  5
3B
102
{ACAD_REACTORS
330
C
102
}
330
C
100
AcDbDictionary
281
     1
  3
ByBlock
350
3D
  3
ByLayer
350
3C
  3
Global
350
3E
  0
DICTIONARY
  5
C4
102
{ACAD_REACTORS
330
C
102
}
330
C
100
AcDbDictionary
281
     1
  0
DICTIONARY
  5
17
102
{ACAD_REACTORS
330
C
102
}
330
C
100
AcDbDictionary
281
     1
  3
Standard
350
18
  0
DICTIONARY
  5
19
102
{ACAD_REACTORS
330
C
102
}
330
C
100
AcDbDictionary
281
     1
  0
ACDBDICTIONARYWDFLT
  5
E
102
{ACAD_REACTORS
330
C
102
}
330
C
100
AcDbDictionary
281
     1
  3
Normal
350
F
100
AcDbDictionaryWithDefault
340
F
  0
DICTIONARY
  5
C3
102
{ACAD_REACTORS
330
C
102
}
330
C
100
AcDbDictionary
281
     1
  0
DICTIONARY
  5
2A
102
{ACAD_REACTORS
330
C
102
}
330
C
100
AcDbDictionary
281
     1
  3
2dWireframe
350
2F
  3
3D Hidden
350
31
  3
3dWireframe
350
30
  3
Basic
350
32
  3
Brighten
350
36
  3
ColorChange
350
3A
  3
Conceptual
350
34
  3
Dim
350
35
  3
Facepattern
350
39
  3
Flat
350
2B
  3
FlatWithEdges
350
2C
  3
Gouraud
350
2D
  3
GouraudWithEdges
350
2E
  3
Linepattern
350
38
  3
Realistic
350
33
  3
Thicken
350
37
  0
LAYOUT
  5
1E
102
{ACAD_REACTORS
330
1A
102
}
330
1A
100
AcDbPlotSettings
  1

  2
none_device
  4

  6

 40
0.0
 41
0.0
 42
0.0
 43
0.0
 44
0.0
 45
0.0
 46
0.0
 47
0.0
 48
0.0
 49
0.0
140
0.0
141
0.0
142
1.0
143
1.0
 70
   688
 72
     0
 73
     0
 74
     5
  7

 75
    16
 76
     0
 77
     2
 78
   300
147
1.0
148
0.0
149
0.0
100
AcDbLayout
  1
Layout1
 70
     1
 71
     1
 10
0.0
 20
0.0
 11
12.0
 21
9.0
 12
0.0
 22
0.0
 32
0.0
 14
1.000000000000000E+20
 24
1.000000000000000E+20
 34
1.000000000000000E+20
 15
-1.000000000000000E+20
 25
-1.000000000000000E+20
 35
-1.000000000000000E+20
146
0.0
 13
0.0
 23
0.0
 33
0.0
 16
1.0
 26
0.0
 36
0.0
 17
0.0
 27
1.0
 37
0.0
 76
     0
330
1B
  0
LAYOUT
  5
26
102
{ACAD_REACTORS
330
1A
102
}
330
1A
100
AcDbPlotSettings
  1

  2
none_device
  4

  6

 40
0.0
 41
0.0
 42
0.0
 43
0.0
 44
0.0
 45
0.0
 46
0.0
 47
0.0
 48
0.0
 49
0.0
140
0.0
141
0.0
142
1.0
143
1.0
 70
   688
 72
     0
 73
     0
 74
     5
  7

 75
    16
 76
     0
 77
     2
 78
   300
147
1.0
148
0.0
149
0.0
100
AcDbLayout
  1
Layout2
 70
     1
 71
     2
 10
0.0
 20
0.0
 11
0.0
 21
0.0
 12
0.0
 22
0.0
 32
0.0
 14
0.0
 24
0.0
 34
0.0
 15
0.0
 25
0.0
 35
0.0
146
0.0
 13
0.0
 23
0.0
 33
0.0
 16
1.0
 26
0.0
 36
0.0
 17
0.0
 27
1.0
 37
0.0
 76
     0
330
23
  0
LAYOUT
  5
22
102
{ACAD_REACTORS
330
1A
102
}
330
1A
100
AcDbPlotSettings
  1

  2
none_device
  4

  6

 40
0.0
 41
0.0
 42
0.0
 43
0.0
 44
0.0
 45
0.0
 46
0.0
 47
0.0
 48
0.0
 49
0.0
140
0.0
141
0.0
142
1.0
143
1.0
 70
  1712
 72
     0
 73
     0
 74
     0
  7

 75
     0
 76
     0
 77
     2
 78
   300
147
1.0
148
0.0
149
0.0
100
AcDbLayout
  1
Model
 70
     1
 71
     0
 10
0.0
 20
0.0
 11
12.0
 21
9.0
 12
0.0
 22
0.0
 32
0.0
 14
1.000000000000000E+20
 24
1.000000000000000E+20
 34
1.000000000000000E+20
 15
-1.000000000000000E+20
 25
-1.000000000000000E+20
 35
-1.000000000000000E+20
146
0.0
 13
0.0
 23
0.0
 33
0.0
 16
1.0
 26
0.0
 36
0.0
 17
0.0
 27
1.0
 37
0.0
 76
     0
330
1F
331
29
  0
MATERIAL
  5
3D
102
{ACAD_REACTORS
330
3B
102
}
330
3B
100
AcDbMaterial
  1
ByBlock
 72
     1
 94
      127
  0
MATERIAL
  5
3C
102
{ACAD_REACTORS
330
3B
102
}
330
3B
100
AcDbMaterial
  1
ByLayer
 72
     1
 94
      127
  0
MATERIAL
  5
3E
102
{ACAD_REACTORS
330
3B
102
}
330
3B
100
AcDbMaterial
  1
Global
 72
     1
 94
      127
  0
MLINESTYLE
  5
18
102
{ACAD_REACTORS
330
17
102
}
330
17
100
AcDbMlineStyle
  2
Standard
 70
     0
  3

 62
   256
 51
90.0
 52
90.0
 71
     2
 49
0.5
 62
   256
  6
BYLAYER
 49
-0.5
 62
   256
  6
BYLAYER
  0
ACDBPLACEHOLDER
  5
F
102
{ACAD_REACTORS
330
E
102
}
330
E
  0
VISUALSTYLE
  5
2F
102
{ACAD_REACTORS
330
2A
102
}
330
2A
100
AcDbVisualStyle
  2
2dWireframe
 70
     4
177
     2
291
     0
 71
     0
176
     1
 72
     2
176
     1
 73
     0
176
     1
 90
        0
176
     1
 40
-0.6
176
     1
 41
-30.0
176
     1
 62
     5
 63
     7
421
 16777215
176
     1
 74
     1
176
     1
 91
        4
176
     1
 64
     7
176
     1
 65
   257
176
     1
 75
     1
176
     1
175
     1
176
     1
 42
1.0
176
     1
 92
        0
176
     1
 66
   257
176
     1
 43
1.0
176
     1
 76
     1
176
     1
 77
     6
176
     1
 78
     2
176
     1
 67
     7
176
     1
 79
     5
176
     1
170
     0
176
     1
171
     0
176
     1
290
     0
176
     1
 93
        1
176
     1
 44
0.0
176
     1
173
     0
176
     1
  0
VISUALSTYLE
  5
31
102
{ACAD_REACTORS
330
2A
102
}
330
2A
100
AcDbVisualStyle
  2
3D Hidden
 70
     6
177
     2
291
     0
 71
     1
176
     1
 72
     2
176
     1
 73
     2
176
     1
 90
        0
176
     1
 40
-0.6
176
     1
 41
-30.0
176
     1
 62
     5
 63
     7
421
 16777215
176
     1
 74
     2
176
     1
 91
        2
176
     1
 64
     7
176
     1
 65
   257
176
     1
 75
     2
176
     1
175
     1
176
     1
 42
40.0
176
     1
 92
        0
176
     1
 66
   257
176
     1
 43
1.0
176
     1
 76
     1
176
     1
 77
     6
176
     1
 78
     2
176
     1
 67
     7
176
     1
 79
     3
176
     1
170
     0
176
     1
171
     0
176
     1
290
     0
176
     1
 93
        1
176
     1
 44
0.0
176
     1
173
     0
176
     1
  0
VISUALSTYLE
  5
30
102
{ACAD_REACTORS
330
2A
102
}
330
2A
100
AcDbVisualStyle
  2
3dWireframe
 70
     5
177
     2
291
     0
 71
     0
176
     1
 72
     2
176
     1
 73
     0
176
     1
 90
        0
176
     1
 40
-0.6
176
     1
 41
-30.0
176
     1
 62
     5
 63
     7
421
 16777215
176
     1
 74
     1
176
     1
 91
        4
176
     1
 64
     7
176
     1
 65
   257
176
     1
 75
     1
176
     1
175
     1
176
     1
 42
1.0
176
     1
 92
        0
176
     1
 66
   257
176
     1
 43
1.0
176
     1
 76
     1
176
     1
 77
     6
176
     1
 78
     2
176
     1
 67
     7
176
     1
 79
     5
176
     1
170
     0
176
     1
171
     0
176
     1
290
     0
176
     1
 93
        1
176
     1
 44
0.0
176
     1
173
     0
176
     1
  0
VISUALSTYLE
  5
32
102
{ACAD_REACTORS
330
2A
102
}
330
2A
100
AcDbVisualStyle
  2
Basic
 70
     7
177
     2
291
     1
 71
     1
176
     1
 72
     0
176
     1
 73
     1
176
     1
 90
        0
176
     1
 40
-0.6
176
     1
 41
-30.0
176
     1
 62
     5
 63
     7
421
 16777215
176
     1
 74
     0
176
     1
 91
        4
176
     1
 64
     7
176
     1
 65
   257
176
     1
 75
     1
176
     1
175
     1
176
     1
 42
1.0
176
     1
 92
        8
176
     1
 66
     7
176
     1
 43
1.0
176
     1
 76
     1
176
     1
 77
     6
176
     1
 78
     2
176
     1
 67
     7
176
     1
 79
     5
176
     1
170
     0
176
     1
171
     0
176
     1
290
     0
176
     1
 93
        1
176
     1
 44
0.0
176
     1
173
     0
176
     1
  0
VISUALSTYLE
  5
36
102
{ACAD_REACTORS
330
2A
102
}
330
2A
100
AcDbVisualStyle
  2
Brighten
 70
    12
177
     2
291
     1
 71
     2
176
     1
 72
     2
176
     1
 73
     0
176
     1
 90
        0
176
     1
 40
-0.6
176
     1
 41
-30.0
176
     1
 62
     5
 63
     7
421
 16777215
176
     1
 74
     1
176
     1
 91
        4
176
     1
 64
     7
176
     1
 65
   257
176
     1
 75
     1
176
     1
175
     1
176
     1
 42
1.0
176
     1
 92
        8
176
     1
 66
     7
176
     1
 43
1.0
176
     1
 76
     1
176
     1
 77
     6
176
     1
 78
     2
176
     1
 67
     7
176
     1
 79
     5
176
     1
170
     0
176
     1
171
     0
176
     1
290
     0
176
     1
 93
        1
176
     1
 44
50.0
176
     1
173
     0
176
     1
  0
VISUALSTYLE
  5
3A
102
{ACAD_REACTORS
330
2A
102
}
330
2A
100
AcDbVisualStyle
  2
ColorChange
 70
    16
177
     2
291
     1
 71
     2
176
     1
 72
     2
176
     1
 73
     3
176
     1
 90
        0
176
     1
 40
-0.6
176
     1
 41
-30.0
176
     1
 62
     5
 63
     8
421
  8421504
176
     1
 74
     1
176
     1
 91
        4
176
     1
 64
     7
176
     1
 65
   257
176
     1
 75
     1
176
     1
175
     1
176
     1
 42
1.0
176
     1
 92
        8
176
     1
 66
     8
424
  8421504
176
     1
 43
1.0
176
     1
 76
     1
176
     1
 77
     6
176
     1
 78
     2
176
     1
 67
     7
176
     1
 79
     5
176
     1
170
     0
176
     1
171
     0
176
     1
290
     0
176
     1
 93
        1
176
     1
 44
0.0
176
     1
173
     0
176
     1
  0
VISUALSTYLE
  5
34
102
{ACAD_REACTORS
330
2A
102
}
330
2A
100
AcDbVisualStyle
  2
Conceptual
 70
     9
177
     2
291
     0
 71
     3
176
     1
 72
     2
176
     1
 73
     0
176
     1
 90
        0
176
     1
 40
-0.6
176
     1
 41
-30.0
176
     1
 62
     5
 63
     7
421
 16777215
176
     1
 74
     2
176
     1
 91
        2
176
     1
 64
     7
176
     1
 65
   257
176
     1
 75
     1
176
     1
175
     1
176
     1
 42
40.0
176
     1
 92
        8
176
     1
 66
     7
176
     1
 43
1.0
176
     1
 76
     1
176
     1
 77
     6
176
     1
 78
     2
176
     1
 67
     7
176
     1
 79
     3
176
     1
170
     0
176
     1
171
     0
176
     1
290
     0
176
     1
 93
        1
176
     1
 44
0.0
176
     1
173
     0
176
     1
  0
VISUALSTYLE
  5
35
102
{ACAD_REACTORS
330
2A
102
}
330
2A
100
AcDbVisualStyle
  2
Dim
 70
    11
177
     2
291
     1
 71
     2
176
     1
 72
     2
176
     1
 73
     0
176
     1
 90
        0
176
     1
 40
-0.6
176
     1
 41
-30.0
176
     1
 62
     5
 63
     7
421
 16777215
176
     1
 74
     1
176
     1
 91
        4
176
     1
 64
     7
176
     1
 65
   257
176
     1
 75
     1
176
     1
175
     1
176
     1
 42
1.0
176
     1
 92
        8
176
     1
 66
     7
176
     1
 43
1.0
176
     1
 76
     1
176
     1
 77
     6
176
     1
 78
     2
176
     1
 67
     7
176
     1
 79
     5
176
     1
170
     0
176
     1
171
     0
176
     1
290
     0
176
     1
 93
        1
176
     1
 44
-50.0
176
     1
173
     0
176
     1
  0
VISUALSTYLE
  5
39
102
{ACAD_REACTORS
330
2A
102
}
330
2A
100
AcDbVisualStyle
  2
Facepattern
 70
    15
177
     2
291
     1
 71
     2
176
     1
 72
     2
176
     1
 73
     0
176
     1
 90
        0
176
     1
 40
-0.6
176
     1
 41
-30.0
176
     1
 62
     5
 63
     7
421
 16777215
176
     1
 74
     1
176
     1
 91
        4
176
     1
 64
     7
176
     1
 65
   257
176
     1
 75
     1
176
     1
175
     1
176
     1
 42
1.0
176
     1
 92
        8
176
     1
 66
     7
176
     1
 43
1.0
176
     1
 76
     1
176
     1
 77
     6
176
     1
 78
     2
176
     1
 67
     7
176
     1
 79
     5
176
     1
170
     0
176
     1
171
     0
176
     1
290
     0
176
     1
 93
        1
176
     1
 44
0.0
176
     1
173
     0
176
     1
  0
VISUALSTYLE
  5
2B
102
{ACAD_REACTORS
330
2A
102
}
330
2A
100
AcDbVisualStyle
  2
Flat
 70
     0
177
     2
291
     1
 71
     2
176
     1
 72
     1
176
     1
 73
     1
176
     1
 90
        2
176
     1
 40
-0.6
176
     1
 41
30.0
176
     1
 62
     5
 63
     7
421
 16777215
176
     1
 74
     0
176
     1
 91
        4
176
     1
 64
     7
176
     1
 65
   257
176
     1
 75
     1
176
     1
175
     1
176
     1
 42
1.0
176
     1
 92
        8
176
     1
 66
     7
176
     1
 43
1.0
176
     1
 76
     1
176
     1
 77
     6
176
     1
 78
     2
176
     1
 67
     7
176
     1
 79
     5
176
     1
170
     0
176
     1
171
     0
176
     1
290
     0
176
     1
 93
       13
176
     1
 44
0.0
176
     1
173
     0
176
     1
  0
VISUALSTYLE
  5
2C
102
{ACAD_REACTORS
330
2A
102
}
330
2A
100
AcDbVisualStyle
  2
FlatWithEdges
 70
     1
177
     2
291
     1
 71
     2
176
     1
 72
     1
176
     1
 73
     1
176
     1
 90
        2
176
     1
 40
-0.6
176
     1
 41
30.0
176
     1
 62
     5
 63
     7
421
 16777215
176
     1
 74
     1
176
     1
 91
        4
176
     1
 64
     7
176
     1
 65
   257
176
     1
 75
     1
176
     1
175
     1
176
     1
 42
1.0
176
     1
 92
        0
176
     1
 66
   257
176
     1
 43
1.0
176
     1
 76
     1
176
     1
 77
     6
176
     1
 78
     2
176
     1
 67
     7
176
     1
 79
     5
176
     1
170
     0
176
     1
171
     0
176
     1
290
     0
176
     1
 93
       13
176
     1
 44
0.0
176
     1
173
     0
176
     1
  0
VISUALSTYLE
  5
2D
102
{ACAD_REACTORS
330
2A
102
}
330
2A
100
AcDbVisualStyle
  2
Gouraud
 70
     2
177
     2
291
     1
 71
     2
176
     1
 72
     2
176
     1
 73
     1
176
     1
 90
        2
176
     1
 40
-0.6
176
     1
 41
30.0
176
     1
 62
     5
 63
     7
421
 16777215
176
     1
 74
     0
176
     1
 91
        4
176
     1
 64
     7
176
     1
 65
   257
176
     1
 75
     1
176
     1
175
     1
176
     1
 42
1.0
176
     1
 92
        0
176
     1
 66
     7
176
     1
 43
1.0
176
     1
 76
     1
176
     1
 77
     6
176
     1
 78
     2
176
     1
 67
     7
176
     1
 79
     5
176
     1
170
     0
176
     1
171
     0
176
     1
290
     0
176
     1
 93
       13
176
     1
 44
0.0
176
     1
173
     0
176
     1
  0
VISUALSTYLE
  5
2E
102
{ACAD_REACTORS
330
2A
102
}
330
2A
100
AcDbVisualStyle
  2
GouraudWithEdges
 70
     3
177
     2
291
     1
 71
     2
176
     1
 72
     2
176
     1
 73
     1
176
     1
 90
        2
176
     1
 40
-0.6
176
     1
 41
30.0
176
     1
 62
     5
 63
     7
421
 16777215
176
     1
 74
     1
176
     1
 91
        4
176
     1
 64
     7
176
     1
 65
   257
176
     1
 75
     1
176
     1
175
     1
176
     1
 42
1.0
176
     1
 92
        0
176
     1
 66
   257
176
     1
 43
1.0
176
     1
 76
     1
176
     1
 77
     6
176
     1
 78
     2
176
     1
 67
     7
176
     1
 79
     5
176
     1
170
     0
176
     1
171
     0
176
     1
290
     0
176
     1
 93
       13
176
     1
 44
0.0
176
     1
173
     0
176
     1
  0
VISUALSTYLE
  5
38
102
{ACAD_REACTORS
330
2A
102
}
330
2A
100
AcDbVisualStyle
  2
Linepattern
 70
    14
177
     2
291
     1
 71
     2
176
     1
 72
     2
176
     1
 73
     0
176
     1
 90
        0
176
     1
 40
-0.6
176
     1
 41
-30.0
176
     1
 62
     5
 63
     7
421
 16777215
176
     1
 74
     1
176
     1
 91
        4
176
     1
 64
     7
176
     1
 65
   257
176
     1
 75
     7
176
     1
175
     7
176
     1
 42
1.0
176
     1
 92
        8
176
     1
 66
     7
176
     1
 43
1.0
176
     1
 76
     1
176
     1
 77
     6
176
     1
 78
     2
176
     1
 67
     7
176
     1
 79
     5
176
     1
170
     0
176
     1
171
     0
176
     1
290
     0
176
     1
 93
        1
176
     1
 44
0.0
176
     1
173
     0
176
     1
  0
VISUALSTYLE
  5
33
102
{ACAD_REACTORS
330
2A
102
}
330
2A
100
AcDbVisualStyle
  2
Realistic
 70
     8
177
     2
291
     0
 71
     2
176
     1
 72
     2
176
     1
 73
     0
176
     1
 90
        0
176
     1
 40
-0.6
176
     1
 41
-30.0
176
     1
 62
     5
 63
     7
421
 16777215
176
     1
 74
     1
176
     1
 91
        0
176
     1
 64
     7
176
     1
 65
   257
176
     1
 75
     1
176
     1
175
     1
176
     1
 42
1.0
176
     1
 92
        8
176
     1
 66
     8
424
  7895160
176
     1
 43
1.0
176
     1
 76
     1
176
     1
 77
     6
176
     1
 78
     2
176
     1
 67
     7
176
     1
 79
     5
176
     1
170
     0
176
     1
171
     0
176
     1
290
     0
176
     1
 93
       13
176
     1
 44
0.0
176
     1
173
     0
176
     1
  0
VISUALSTYLE
  5
37
102
{ACAD_REACTORS
330
2A
102
}
330
2A
100
AcDbVisualStyle
  2
Thicken
 70
    13
177
     2
291
     1
 71
     2
176
     1
 72
     2
176
     1
 73
     0
176
     1
 90
        0
176
     1
 40
-0.6
176
     1
 41
-30.0
176
     1
 62
     5
 63
     7
421
 16777215
176
     1
 74
     1
176
     1
 91
        4
176
     1
 64
     7
176
     1
 65
   257
176
     1
 75
     1
176
     1
175
     1
176
     1
 42
1.0
176
     1
 92
       12
176
     1
 66
     7
176
     1
 43
1.0
176
     1
 76
     1
176
     1
 77
     6
176
     1
 78
     2
176
     1
 67
     7
176
     1
 79
     5
176
     1
170
     0
176
     1
171
     0
176
     1
290
     0
176
     1
 93
        1
176
     1
 44
0.0
176
     1
173
     0
176
     1
  0
ENDSEC
  0
EOF
