  0
SECTION
  2
HEADER
  9
$ACADVER
  1
AC1024
  9
$ACADMAINTVER
 70
     6
  9
$DWGCODEPAGE
  3
UNDEFINED
  9
$INSBASE
 10
0.0
 20
0.0
 30
0.0
  9
$EXTMIN
 10
1.000000000000000E+20
 20
1.000000000000000E+20
 30
1.000000000000000E+20
  9
$EXTMAX
 10
-1.000000000000000E+20
 20
-1.000000000000000E+20
 30
-1.000000000000000E+20
  9
$LIMMIN
 10
0.0
 20
0.0
  9
$LIMMAX
 10
12.0
 20
9.0
  9
$ORTHOMODE
 70
     0
  9
$REGENMODE
 70
     1
  9
$FILLMODE
 70
     1
  9
$QTEXTMODE
 70
     0
  9
$MIRRTEXT
 70
     1
  9
$LTSCALE
 40
1.0
  9
$ATTMODE
 70
     1
  9
$TEXTSIZE
 40
0.2
  9
$TRACEWID
 40
0.05
  9
$TEXTSTYLE
  7
Standard
  9
$CLAYER
  8
0
  9
$CELTYPE
  6
ByLayer
  9
$CECOLOR
 62
   256
  9
$CELTSCALE
 40
1.0
  9
$DISPSILH
 70
     0
  9
$DIMSCALE
 40
1.0
  9
$DIMASZ
 40
0.18
  9
$DIMEXO
 40
0.0625
  9
$DIMDLI
 40
0.38
  9
$DIMRND
 40
0.0
  9
$DIMDLE
 40
0.0
  9
$DIMEXE
 40
0.18
  9
$DIMTP
 40
0.0
  9
$DIMTM
 40
0.0
  9
$DIMTXT
 40
0.18
  9
$DIMCEN
 40
0.09
  9
$DIMTSZ
 40
0.0
  9
$DIMTOL
 70
     0
  9
$DIMLIM
 70
     0
  9
$DIMTIH
 70
     1
  9
$DIMTOH
 70
     1
  9
$DIMSE1
 70
     0
  9
$DIMSE2
 70
     0
  9
$DIMTAD
 70
     0
  9
$DIMZIN
 70
     0
  9
$DIMBLK
  1

  9
$DIMASO
 70
     1
  9
$DIMSHO
 70
     1
  9
$DIMPOST
  1

  9
$DIMAPOST
  1

  9
$DIMALT
 70
     0
  9
$DIMALTD
 70
     2
  9
$DIMALTF
 40
25.4
  9
$DIMLFAC
 40
1.0
  9
$DIMTOFL
 70
     0
  9
$DIMTVP
 40
0.0
  9
$DIMTIX
 70
     0
  9
$DIMSOXD
 70
     0
  9
$DIMSAH
 70
     0
  9
$DIMBLK1
  1

  9
$DIMBLK2
  1

  9
$DIMSTYLE
  2
Standard
  9
$DIMCLRD
 70
     0
  9
$DIMCLRE
 70
     0
  9
$DIMCLRT
 70
     0
  9
$DIMTFAC
 40
1.0
  9
$DIMGAP
 40
0.09
  9
$DIMJUST
 70
     0
  9
$DIMSD1
 70
     0
  9
$DIMSD2
 70
     0
  9
$DIMTOLJ
 70
     1
  9
$DIMTZIN
 70
     0
  9
$DIMALTZ
 70
     0
  9
$DIMALTTZ
 70
     0
  9
$DIMUPT
 70
     0
  9
$DIMDEC
 70
     4
  9
$DIMTDEC
 70
     4
  9
$DIMALTU
 70
     2
  9
$DIMALTTD
 70
     2
  9
$DIMTXSTY
  7
Standard
  9
$DIMAUNIT
 70
     0
  9
$DIMADEC
 70
     0
  9
$DIMALTRND
 40
0.0
  9
$DIMAZIN
 70
     0
  9
$DIMDSEP
 70
    46
  9
$DIMATFIT
 70
     3
  9
$DIMFRAC
 70
     0
  9
$DIMLDRBLK
  1

  9
$DIMLUNIT
 70
     2
  9
$DIMLWD
 70
    -2
  9
$DIMLWE
 70
    -2
  9
$DIMTMOVE
 70
     0
  9
$DIMFXL
 40
1.0
  9
$DIMFXLON
 70
     0
  9
$DIMJOGANG
 40
0.7853981633974483
  9
$DIMTFILL
 70
     0
  9
$DIMTFILLCLR
 70
     0
  9
$DIMARCSYM
 70
     0
  9
$DIMLTYPE
  6

  9
$DIMLTEX1
  6

  9
$DIMLTEX2
  6

  9
$DIMTXTDIRECTION
 70
     0
  9
$LUNITS
 70
     2
  9
$LUPREC
 70
     4
  9
$SKETCHINC
 40
0.1
  9
$FILLETRAD
 40
0.5
  9
$AUNITS
 70
     0
  9
$AUPREC
 70
     0
  9
$MENU
  1
.
  9
$ELEVATION
 40
0.0
  9
$PELEVATION
 40
0.0
  9
$THICKNESS
 40
0.0
  9
$LIMCHECK
 70
     0
  9
$CHAMFERA
 40
0.5
  9
$CHAMFERB
 40
0.5
  9
$CHAMFERC
 40
1.0
  9
$CHAMFERD
 40
0.0
  9
$SKPOLY
 70
     0
  9
$TDCREATE
 40
2457917.584247673
  9
$TDUCREATE
 40
2457917.209247685
  9
$TDUPDATE
 40
2457917.584247673
  9
$TDUUPDATE
 40
2457917.209247685
  9
$TDINDWG
 40
0.0000000116
  9
$TDUSRTIMER
 40
0.0000000116
  9
$USRTIMER
 70
     1
  9
$ANGBASE
 50
0.0
  9
$ANGDIR
 70
     0
  9
$PDMODE
 70
     0
  9
$PDSIZE
 40
0.0
  9
$PLINEWID
 40
0.0
  9
$SPLFRAME
 70
     0
  9
$SPLINETYPE
 70
     6
  9
$SPLINESEGS
 70
     8
  9
$HANDSEED
  5
F6
  9
$SURFTAB1
 70
     6
  9
$SURFTAB2
 70
     6
  9
$SURFTYPE
 70
     6
  9
$SURFU
 70
     6
  9
$SURFV
 70
     6
  9
$UCSBASE
  2

  9
$UCSNAME
  2

  9
$UCSORG
 10
0.0
 20
0.0
 30
0.0
  9
$UCSXDIR
 10
1.0
 20
0.0
 30
0.0
  9
$UCSYDIR
 10
0.0
 20
1.0
 30
0.0
  9
$UCSORTHOREF
  2

  9
$UCSORTHOVIEW
 70
     0
  9
$UCSORGTOP
 10
0.0
 20
0.0
 30
0.0
  9
$UCSORGBOTTOM
 10
0.0
 20
0.0
 30
0.0
  9
$UCSORGLEFT
 10
0.0
 20
0.0
 30
0.0
  9
$UCSORGRIGHT
 10
0.0
 20
0.0
 30
0.0
  9
$UCSORGFRONT
 10
0.0
 20
0.0
 30
0.0
  9
$UCSORGBACK
 10
0.0
 20
0.0
 30
0.0
  9
$PUCSBASE
  2

  9
$PUCSNAME
  2

  9
$PUCSORG
 10
0.0
 20
0.0
 30
0.0
  9
$PUCSXDIR
 10
1.0
 20
0.0
 30
0.0
  9
$PUCSYDIR
 10
0.0
 20
1.0
 30
0.0
  9
$PUCSORTHOREF
  2

  9
$PUCSORTHOVIEW
 70
     0
  9
$PUCSORGTOP
 10
0.0
 20
0.0
 30
0.0
  9
$PUCSORGBOTTOM
 10
0.0
 20
0.0
 30
0.0
  9
$PUCSORGLEFT
 10
0.0
 20
0.0
 30
0.0
  9
$PUCSORGRIGHT
 10
0.0
 20
0.0
 30
0.0
  9
$PUCSORGFRONT
 10
0.0
 20
0.0
 30
0.0
  9
$PUCSORGBACK
 10
0.0
 20
0.0
 30
0.0
  9
$USERI1
 70
     0
  9
$USERI2
 70
     0
  9
$USERI3
 70
     0
  9
$USERI4
 70
     0
  9
$USERI5
 70
     0
  9
$USERR1
 40
0.0
  9
$USERR2
 40
0.0
  9
$USERR3
 40
0.0
  9
$USERR4
 40
0.0
  9
$USERR5
 40
0.0
  9
$WORLDVIEW
 70
     1
  9
$SHADEDGE
 70
     3
  9
$SHADEDIF
 70
    70
  9
$TILEMODE
 70
     1
  9
$MAXACTVP
 70
    64
  9
$PINSBASE
 10
0.0
 20
0.0
 30
0.0
  9
$PLIMCHECK
 70
     0
  9
$PEXTMIN
 10
1.000000000000000E+20
 20
1.000000000000000E+20
 30
1.000000000000000E+20
  9
$PEXTMAX
 10
-1.000000000000000E+20
 20
-1.000000000000000E+20
 30
-1.000000000000000E+20
  9
$PLIMMIN
 10
0.0
 20
0.0
  9
$PLIMMAX
 10
12.0
 20
9.0
  9
$UNITMODE
 70
     0
  9
$VISRETAIN
 70
     1
  9
$PLINEGEN
 70
     0
  9
$PSLTSCALE
 70
     1
  9
$TREEDEPTH
 70
  3020
  9
$CMLSTYLE
  2
Standard
  9
$CMLJUST
 70
     0
  9
$CMLSCALE
 40
1.0
  9
$PROXYGRAPHICS
 70
     1
  9
$MEASUREMENT
 70
     0
  9
$CELWEIGHT
370
    -1
  9
$ENDCAPS
280
     0
  9
$JOINSTYLE
280
     0
  9
$LWDISPLAY
290
     1
  9
$INSUNITS
 70
     1
  9
$HYPERLINKBASE
  1

  9
$STYLESHEET
  1

  9
$XEDIT
290
     1
  9
$CEPSNTYPE
380
     0
  9
$PSTYLEMODE
290
     1
  9
$FINGERPRINTGUID
  2
{0107D027-5606-DA32-75EF-925264D76B24}
  9
$VERSIONGUID
  2
{FAEB1C32-E019-11D5-929B-00C0DF256EC4}
  9
$EXTNAMES
290
     1
  9
$PSVPSCALE
 40
0.0
  9
$OLESTARTUP
290
     0
  9
$SORTENTS
280
   127
  9
$INDEXCTL
280
     0
  9
$HIDETEXT
280
     1
  9
$XCLIPFRAME
280
     2
  9
$HALOGAP
280
     0
  9
$OBSCOLOR
 70
   257
  9
$OBSLTYPE
280
     0
  9
$INTERSECTIONDISPLAY
280
     0
  9
$INTERSECTIONCOLOR
 70
   257
  9
$DIMASSOC
280
     2
  9
$PROJECTNAME
  1

  9
$CAMERADISPLAY
290
     0
  9
$LENSLENGTH
 40
50.0
  9
$CAMERAHEIGHT
 40
0.0
  9
$STEPSPERSEC
 40
2.0
  9
$STEPSIZE
 40
6.0
  9
$3DDWFPREC
 40
2.0
  9
$PSOLWIDTH
 40
0.25
  9
$PSOLHEIGHT
 40
4.0
  9
$LOFTANG1
 40
1.570796326794897
  9
$LOFTANG2
 40
1.570796326794897
  9
$LOFTMAG1
 40
0.0
  9
$LOFTMAG2
 40
0.0
  9
$LOFTPARAM
 70
     7
  9
$LOFTNORMALS
280
     1
  9
$LATITUDE
 40
37.795
  9
$LONGITUDE
 40
-122.394
  9
$NORTHDIRECTION
 40
0.0
  9
$TIMEZONE
 70
 -8000
  9
$LIGHTGLYPHDISPLAY
280
     1
  9
$TILEMODELIGHTSYNCH
280
     1
  9
$CMATERIAL
347
3C
  9
$SOLIDHIST
280
     1
  9
$SHOWHIST
280
     1
  9
$DWFFRAME
280
     2
  9
$DGNFRAME
280
     2
  9
$REALWORLDSCALE
290
     1
  9
$INTERFERECOLOR
 62
   256
  9
$CSHADOW
280
     0
  9
$SHADOWPLANELOCATION
 40
0.0
  0
ENDSEC
  0
SECTION
  2
CLASSES
  0
CLASS
  1
ACDBDICTIONARYWDFLT
  2
AcDbDictionaryWithDefault
  3
ObjectDBX Classes
 90
        0
 91
        4
280
     0
281
     0
  0
CLASS
  1
VISUALSTYLE
  2
AcDbVisualStyle
  3
ObjectDBX Classes
 90
     4095
 91
        4
280
     0
281
     0
  0
CLASS
  1
MATERIAL
  2
AcDbMaterial
  3
ObjectDBX Classes
 90
     1153
 91
        4
280
     0
281
     0
  0
CLASS
  1
SUN
  2
AcDbSun
  3
SCENEOE
 90
     1024
 91
        4
280
     0
281
     0
  0
ENDSEC
  0
SECTION
  2
TABLES
  0
TABLE
  2
VPORT
  5
8
330
0
100
AcDbSymbolTable
 70
     1
  0
VPORT
  5
29
330
8
100
AcDbSymbolTableRecord
100
AcDbViewportTableRecord
  2
*Active
 70
     0
 10
0.0
 20
0.0
 11
1.0
 21
1.0
 12
0.0
 22
0.0
 13
0.0
 23
0.0
 14
0.5
 24
0.5
 15
0.5
 25
0.5
 16
0.0
 26
0.0
 36
1.0
 17
91.00082462281999
 27
-128.4993055234307
 37
0.0
 40
256.9986110468615
 41
0.7081814508812795
 42
50.0
 43
0.0
 44
0.0
 50
0.0
 51
0.0
 71
     0
 72
   100
 73
     1
 74
     3
 75
     0
 76
     0
 77
     0
 78
     0
281
     0
 65
     1
110
0.0
120
0.0
130
0.0
111
1.0
121
0.0
131
0.0
112
0.0
122
1.0
132
0.0
 79
     0
146
0.0
 60
     3
 61
     5
292
     1
282
     1
141
0.0
142
0.0
 63
   250
361
3F
  0
ENDTAB
  0
TABLE
  2
LTYPE
  5
5
330
0
100
AcDbSymbolTable
 70
     1
  0
LTYPE
  5
14
330
5
100
AcDbSymbolTableRecord
100
AcDbLinetypeTableRecord
  2
ByBlock
 70
     0
  3

 72
    65
 73
     0
 40
0.0
  0
LTYPE
  5
15
330
5
100
AcDbSymbolTableRecord
100
AcDbLinetypeTableRecord
  2
ByLayer
 70
     0
  3

 72
    65
 73
     0
 40
0.0
  0
LTYPE
  5
16
330
5
100
AcDbSymbolTableRecord
100
AcDbLinetypeTableRecord
  2
Continuous
 70
     0
  3
Solid line
 72
    65
 73
     0
 40
0.0
  0
ENDTAB
  0
TABLE
  2
LAYER
  5
2
330
0
100
AcDbSymbolTable
 70
     2
  0
LAYER
  5
10
330
2
100
AcDbSymbolTableRecord
100
AcDbLayerTableRecord
  2
0
 70
     0
 62
     7
  6
Continuous
370
    -3
390
F
347
3E
  0
LAYER
  5
40
330
2
100
AcDbSymbolTableRecord
100
AcDbLayerTableRecord
  2
_U+30EC_U+30A4_U+30E4_U+30FC 1
 70
     0
 62
     7
  6
Continuous
370
    -3
390
F
347
3E
  0
ENDTAB
  0
TABLE
  2
STYLE
  5
3
330
0
100
AcDbSymbolTable
 70
     1
  0
STYLE
  5
11
330
3
100
AcDbSymbolTableRecord
100
AcDbTextStyleTableRecord
  2
Standard
 70
     0
 40
0.0
 41
1.0
 50
0.0
 71
     0
 42
0.2
  3
txt
  4

  0
ENDTAB
  0
TABLE
  2
VIEW
  5
6
330
0
100
AcDbSymbolTable
 70
     0
  0
ENDTAB
  0
TABLE
  2
UCS
  5
7
330
0
100
AcDbSymbolTable
 70
     0
  0
ENDTAB
  0
TABLE
  2
APPID
  5
9
330
0
100
AcDbSymbolTable
 70
     1
  0
APPID
  5
12
330
9
100
AcDbSymbolTableRecord
100
AcDbRegAppTableRecord
  2
ACAD
 70
     0
  0
ENDTAB
  0
TABLE
  2
DIMSTYLE
  5
A
330
0
100
AcDbSymbolTable
 70
     1
100
AcDbDimStyleTable
  0
DIMSTYLE
105
27
330
A
100
AcDbSymbolTableRecord
100
AcDbDimStyleTableRecord
  2
Standard
 70
     0
178
     0
340
11
  0
ENDTAB
  0
TABLE
  2
BLOCK_RECORD
  5
1
330
0
100
AcDbSymbolTable
 70
     8
  0
BLOCK_RECORD
  5
1F
330
1
100
AcDbSymbolTableRecord
100
AcDbBlockTableRecord
  2
*Model_Space
340
22
 70
     0
280
     1
281
     0
  0
BLOCK_RECORD
  5
1B
330
1
100
AcDbSymbolTableRecord
100
AcDbBlockTableRecord
  2
*Paper_Space
340
1E
 70
     0
280
     1
281
     0
  0
BLOCK_RECORD
  5
23
330
1
100
AcDbSymbolTableRecord
100
AcDbBlockTableRecord
  2
*Paper_Space0
340
26
 70
     0
280
     1
281
     0
  0
BLOCK_RECORD
  5
80
330
1
100
AcDbSymbolTableRecord
100
AcDbBlockTableRecord
  2
block 2
340
0
102
{BLKREFS
331
81
102
}
 70
     0
280
     1
281
     0
  0
BLOCK_RECORD
  5
9C
330
1
100
AcDbSymbolTableRecord
100
AcDbBlockTableRecord
  2
block 3
340
0
102
{BLKREFS
331
9D
102
}
 70
     0
280
     1
281
     0
  0
BLOCK_RECORD
  5
AA
330
1
100
AcDbSymbolTableRecord
100
AcDbBlockTableRecord
  2
block 4
340
0
102
{BLKREFS
331
AB
102
}
 70
     0
280
     1
281
     0
  0
BLOCK_RECORD
  5
C4
330
1
100
AcDbSymbolTableRecord
100
AcDbBlockTableRecord
  2
block 5
340
0
102
{BLKREFS
331
C5
102
}
 70
     0
280
     1
281
     0
  0
BLOCK_RECORD
  5
E2
330
1
100
AcDbSymbolTableRecord
100
AcDbBlockTableRecord
  2
block 6
340
0
102
{BLKREFS
331
E3
102
}
 70
     0
280
     1
281
     0
  0
BLOCK_RECORD
  5
EA
330
1
100
AcDbSymbolTableRecord
100
AcDbBlockTableRecord
  2
block 7
340
0
102
{BLKREFS
331
EB
102
}
 70
     0
280
     1
281
     0
  0
BLOCK_RECORD
  5
EF
330
1
100
AcDbSymbolTableRecord
100
AcDbBlockTableRecord
  2
block 8
340
0
102
{BLKREFS
331
F0
102
}
 70
     0
280
     1
281
     0
  0
ENDTAB
  0
ENDSEC
  0
SECTION
  2
BLOCKS
  0
BLOCK
  5
20
330
1F
100
AcDbEntity
  8
0
100
AcDbBlockBegin
  2
*Model_Space
 70
     0
 10
0.0
 20
0.0
 30
0.0
  3
*Model_Space
  1

  0
ENDBLK
  5
21
330
1F
100
AcDbEntity
  8
0
100
AcDbBlockEnd
  0
BLOCK
  5
1C
330
1B
100
AcDbEntity
 67
     1
  8
0
100
AcDbBlockBegin
  2
*Paper_Space
 70
     0
 10
0.0
 20
0.0
 30
0.0
  3
*Paper_Space
  1

  0
ENDBLK
  5
1D
330
1B
100
AcDbEntity
 67
     1
  8
0
100
AcDbBlockEnd
  0
BLOCK
  5
24
330
23
100
AcDbEntity
  8
0
100
AcDbBlockBegin
  2
*Paper_Space0
 70
     0
 10
0.0
 20
0.0
 30
0.0
  3
*Paper_Space0
  1

  0
ENDBLK
  5
25
330
23
100
AcDbEntity
  8
0
100
AcDbBlockEnd
  0
BLOCK
  5
82
330
80
100
AcDbEntity
  8
0
100
AcDbBlockBegin
  2
block 2
 70
     0
 10
0.0
 20
0.0
 30
0.0
  3
block 2
  1

  0
SPLINE
  5
84
330
80
100
AcDbEntity
  8
_U+30EC_U+30A4_U+30E4_U+30FC 1
370
     0
100
AcDbSpline
210
0.0
220
0.0
230
1.0
 70
    11
 71
     3
 72
    62
 73
    58
 74
     0
 42
0.0000000001
 43
0.0000000001
 12
1.0
 22
0.0
 32
0.0
 13
1.0
 23
0.0
 33
0.0
 40
0.0
 40
0.0
 40
0.0
 40
0.0
 40
1.0
 40
1.0
 40
1.0
 40
2.0
 40
2.0
 40
2.0
 40
3.0
 40
3.0
 40
3.0
 40
4.0
 40
4.0
 40
4.0
 40
5.0
 40
5.0
 40
5.0
 40
6.0
 40
6.0
 40
6.0
 40
7.0
 40
7.0
 40
7.0
 40
8.0
 40
8.0
 40
8.0
 40
9.0
 40
9.0
 40
9.0
 40
10.0
 40
10.0
 40
10.0
 40
11.0
 40
11.0
 40
11.0
 40
12.0
 40
12.0
 40
12.0
 40
13.0
 40
13.0
 40
13.0
 40
14.0
 40
14.0
 40
14.0
 40
15.0
 40
15.0
 40
15.0
 40
16.0
 40
16.0
 40
16.0
 40
17.0
 40
17.0
 40
17.0
 40
18.0
 40
18.0
 40
18.0
 40
19.0
 40
19.0
 40
19.0
 40
19.0
 10
77.97663572269335
 20
-136.0606010944571
 30
0.0
 10
77.88137883252618
 20
-136.0606010944571
 30
0.0
 10
77.66347654308413
 20
-136.039586011997
 30
0.0
 10
77.53876408651809
 20
-135.8535508557936
 30
0.0
 10
77.46469453358522
 20
-135.7412407429744
 30
0.0
 10
77.46038816422866
 20
-135.6420219929992
 30
0.0
 10
77.45625404964636
 20
-135.5572726440621
 30
0.0
 10
77.45625404964636
 20
-135.5572726440621
 30
0.0
 10
77.67622339637956
 20
-135.5572726440621
 30
0.0
 10
77.67622339637956
 20
-135.5572726440621
 30
0.0
 10
77.67829045367071
 20
-135.631342196995
 30
0.0
 10
77.68897024967498
 20
-135.8659531995405
 30
0.0
 10
77.97232935333679
 20
-135.8659531995405
 30
0.0
 10
78.10996091797251
 20
-135.8659531995405
 30
0.0
 10
78.26223413842055
 20
-135.7963622707384
 30
0.0
 10
78.26223413842055
 20
-135.5679524400664
 30
0.0
 10
78.26223413842055
 20
-135.4515082126649
 30
0.0
 10
78.22416583330855
 20
-135.4029323663229
 30
0.0
 10
78.19247095484425
 20
-135.3712374878586
 30
0.0
 10
78.11840140191137
 20
-135.2971679349257
 30
0.0
 10
78.00195717450993
 20
-135.2844210816303
 30
0.0
 10
77.9470079015202
 20
-135.2844210816303
 30
0.0
 10
77.92805987635133
 20
-135.2844210816303
 30
0.0
 10
77.89205862853046
 20
-135.2864881389214
 30
0.0
 10
77.86449786464846
 20
-135.2906222535037
 30
0.0
 10
77.86449786464846
 20
-135.2906222535037
 30
0.0
 10
77.86449786464846
 20
-135.0959743585871
 30
0.0
 10
77.86449786464846
 20
-135.0959743585871
 30
0.0
 10
77.90256616976048
 20
-135.1025200400091
 30
0.0
 10
77.94494084422905
 20
-135.1045870973003
 30
0.0
 10
77.95131427087676
 20
-135.1045870973003
 30
0.0
 10
78.01677108509651
 20
-135.1045870973003
 30
0.0
 10
78.21572534936968
 20
-135.0832275052917
 30
0.0
 10
78.21572534936968
 20
-134.846549445455
 30
0.0
 10
78.21572534936968
 20
-134.6687825184162
 30
0.0
 10
78.08446721138166
 20
-134.6136609906521
 30
0.0
 10
77.97456866540219
 20
-134.6136609906521
 30
0.0
 10
77.71015758690928
 20
-134.6136609906521
 30
0.0
 10
77.70154484819615
 20
-134.846549445455
 30
0.0
 10
77.69741073361385
 20
-134.9182074315482
 30
0.0
 10
77.69741073361385
 20
-134.9182074315482
 30
0.0
 10
77.49432235475837
 20
-134.9182074315482
 30
0.0
 10
77.49432235475837
 20
-134.9182074315482
 30
0.0
 10
77.50276283869722
 20
-134.7934949749822
 30
0.0
 10
77.53032360257923
 20
-134.4169460384444
 30
0.0
 10
77.98714326392336
 20
-134.4169460384444
 30
0.0
 10
78.21141898001312
 20
-134.4169460384444
 30
0.0
 10
78.45257566398061
 20
-134.5440700618501
 30
0.0
 10
78.45257566398061
 20
-134.8400037640331
 30
0.0
 10
78.45257566398061
 20
-135.0263834297851
 30
0.0
 10
78.35749102858772
 20
-135.1087212118825
 30
0.0
 10
78.257927769064
 20
-135.17004391152
 30
0.0
 10
78.3194227234757
 20
-135.197604675402
 30
0.0
 10
78.5013237650969
 20
-135.2778754002083
 30
0.0
 10
78.5013237650969
 20
-135.5552055867709
 30
0.0
 10
78.5013237650969
 20
-135.8935139634225
 30
0.0
 10
78.2537936544817
 20
-136.0606010944571
 30
0.0
 10
77.97663572269335
 20
-136.0606010944571
 30
0.0
  0
HATCH
  5
85
330
80
100
AcDbEntity
  8
_U+30EC_U+30A4_U+30E4_U+30FC 1
 62
   179
420
  2234388
100
AcDbHatch
 10
0.0
 20
0.0
 30
0.0
210
0.0
220
0.0
230
1.0
  2
SOLID
 70
     1
 71
     0
 91
        1
 92
        1
 93
        1
 72
     4
 94
        3
 73
     0
 74
     1
 95
       62
 96
       58
 40
0.0
 40
0.0
 40
0.0
 40
0.0
 40
1.0
 40
1.0
 40
1.0
 40
2.0
 40
2.0
 40
2.0
 40
3.0
 40
3.0
 40
3.0
 40
4.0
 40
4.0
 40
4.0
 40
5.0
 40
5.0
 40
5.0
 40
6.0
 40
6.0
 40
6.0
 40
7.0
 40
7.0
 40
7.0
 40
8.0
 40
8.0
 40
8.0
 40
9.0
 40
9.0
 40
9.0
 40
10.0
 40
10.0
 40
10.0
 40
11.0
 40
11.0
 40
11.0
 40
12.0
 40
12.0
 40
12.0
 40
13.0
 40
13.0
 40
13.0
 40
14.0
 40
14.0
 40
14.0
 40
15.0
 40
15.0
 40
15.0
 40
16.0
 40
16.0
 40
16.0
 40
17.0
 40
17.0
 40
17.0
 40
18.0
 40
18.0
 40
18.0
 40
19.0
 40
19.0
 40
19.0
 40
19.0
 10
77.97663572269335
 20
-136.0606010944571
 10
77.88137883252618
 20
-136.0606010944571
 10
77.66347654308413
 20
-136.039586011997
 10
77.53876408651809
 20
-135.8535508557936
 10
77.46469453358522
 20
-135.7412407429744
 10
77.46038816422866
 20
-135.6420219929992
 10
77.45625404964636
 20
-135.5572726440621
 10
77.45625404964636
 20
-135.5572726440621
 10
77.67622339637956
 20
-135.5572726440621
 10
77.67622339637956
 20
-135.5572726440621
 10
77.67829045367071
 20
-135.631342196995
 10
77.68897024967498
 20
-135.8659531995405
 10
77.97232935333679
 20
-135.8659531995405
 10
78.10996091797251
 20
-135.8659531995405
 10
78.26223413842055
 20
-135.7963622707384
 10
78.26223413842055
 20
-135.5679524400664
 10
78.26223413842055
 20
-135.4515082126649
 10
78.22416583330855
 20
-135.4029323663229
 10
78.19247095484425
 20
-135.3712374878586
 10
78.11840140191137
 20
-135.2971679349257
 10
78.00195717450993
 20
-135.2844210816303
 10
77.9470079015202
 20
-135.2844210816303
 10
77.92805987635133
 20
-135.2844210816303
 10
77.89205862853046
 20
-135.2864881389214
 10
77.86449786464846
 20
-135.2906222535037
 10
77.86449786464846
 20
-135.2906222535037
 10
77.86449786464846
 20
-135.0959743585871
 10
77.86449786464846
 20
-135.0959743585871
 10
77.90256616976048
 20
-135.1025200400091
 10
77.94494084422905
 20
-135.1045870973003
 10
77.95131427087676
 20
-135.1045870973003
 10
78.01677108509651
 20
-135.1045870973003
 10
78.21572534936968
 20
-135.0832275052917
 10
78.21572534936968
 20
-134.846549445455
 10
78.21572534936968
 20
-134.6687825184162
 10
78.08446721138166
 20
-134.6136609906521
 10
77.97456866540219
 20
-134.6136609906521
 10
77.71015758690928
 20
-134.6136609906521
 10
77.70154484819615
 20
-134.846549445455
 10
77.69741073361385
 20
-134.9182074315482
 10
77.69741073361385
 20
-134.9182074315482
 10
77.49432235475837
 20
-134.9182074315482
 10
77.49432235475837
 20
-134.9182074315482
 10
77.50276283869722
 20
-134.7934949749822
 10
77.53032360257923
 20
-134.4169460384444
 10
77.98714326392336
 20
-134.4169460384444
 10
78.21141898001312
 20
-134.4169460384444
 10
78.45257566398061
 20
-134.5440700618501
 10
78.45257566398061
 20
-134.8400037640331
 10
78.45257566398061
 20
-135.0263834297851
 10
78.35749102858772
 20
-135.1087212118825
 10
78.257927769064
 20
-135.17004391152
 10
78.3194227234757
 20
-135.197604675402
 10
78.5013237650969
 20
-135.2778754002083
 10
78.5013237650969
 20
-135.5552055867709
 10
78.5013237650969
 20
-135.8935139634225
 10
78.2537936544817
 20
-136.0606010944571
 10
77.97663572269335
 20
-136.0606010944571
 97
        0
 97
        0
 75
     2
 76
     1
 98
        0
  0
SPLINE
  5
86
330
80
100
AcDbEntity
  8
_U+30EC_U+30A4_U+30E4_U+30FC 1
370
     0
100
AcDbSpline
210
0.0
220
0.0
230
1.0
 70
    11
 71
     3
 72
    29
 73
    25
 74
     0
 42
0.0000000001
 43
0.0000000001
 12
1.0
 22
0.0
 32
0.0
 13
1.0
 23
0.0
 33
0.0
 40
0.0
 40
0.0
 40
0.0
 40
0.0
 40
1.0
 40
1.0
 40
1.0
 40
2.0
 40
2.0
 40
2.0
 40
3.0
 40
3.0
 40
3.0
 40
4.0
 40
4.0
 40
4.0
 40
5.0
 40
5.0
 40
5.0
 40
6.0
 40
6.0
 40
6.0
 40
7.0
 40
7.0
 40
7.0
 40
8.0
 40
8.0
 40
8.0
 40
8.0
 10
79.55965709816564
 20
-135.832191263785
 30
0.0
 10
79.45182560947732
 20
-136.0416530692882
 30
0.0
 10
79.27836505179499
 20
-136.0606010944571
 30
0.0
 10
79.16192082439355
 20
-136.0606010944571
 30
0.0
 10
79.00120712000664
 20
-136.0606010944571
 30
0.0
 10
78.85944144078861
 20
-136.0140923054062
 30
0.0
 10
78.76418455062145
 20
-135.832191263785
 30
0.0
 10
78.6606594312897
 20
-135.6375433688684
 30
0.0
 10
78.64153915134656
 20
-135.4005207994832
 30
0.0
 10
78.64153915134656
 20
-135.2379122925794
 30
0.0
 10
78.64153915134656
 20
-135.093907301296
 30
0.0
 10
78.65842011922429
 20
-134.8420708213242
 30
0.0
 10
78.76418455062145
 20
-134.6432888118253
 30
0.0
 10
78.87218829408404
 20
-134.4403726877441
 30
0.0
 10
79.03290199847095
 20
-134.4169460384444
 30
0.0
 10
79.16192082439355
 20
-134.4169460384444
 30
0.0
 10
79.32056747148931
 20
-134.4169460384444
 30
0.0
 10
79.46440020799848
 20
-134.4613877702041
 30
0.0
 10
79.55965709816564
 20
-134.6432888118253
 30
0.0
 10
79.65904810291511
 20
-134.8358696494508
 30
0.0
 10
79.68230249744055
 20
-135.0642794801228
 30
0.0
 10
79.68230249744055
 20
-135.2379122925794
 30
0.0
 10
79.68230249744055
 20
-135.4091335381963
 30
0.0
 10
79.66128741498052
 20
-135.6396104261595
 30
0.0
 10
79.55965709816564
 20
-135.832191263785
 30
0.0
  0
SPLINE
  5
87
330
80
100
AcDbEntity
  8
_U+30EC_U+30A4_U+30E4_U+30FC 1
370
     0
100
AcDbSpline
210
0.0
220
0.0
230
1.0
 70
    11
 71
     3
 72
    17
 73
    13
 74
     0
 42
0.0000000001
 43
0.0000000001
 12
1.0
 22
0.0
 32
0.0
 13
1.0
 23
0.0
 33
0.0
 40
0.0
 40
0.0
 40
0.0
 40
0.0
 40
1.0
 40
1.0
 40
1.0
 40
2.0
 40
2.0
 40
2.0
 40
3.0
 40
3.0
 40
3.0
 40
4.0
 40
4.0
 40
4.0
 40
4.0
 10
79.16192082439355
 20
-134.6095268760699
 30
0.0
 10
78.9123236564872
 20
-134.6095268760699
 30
0.0
 10
78.86581486743633
 20
-134.8930582345059
 30
0.0
 10
78.86581486743633
 20
-135.2379122925794
 30
0.0
 10
78.86581486743633
 20
-135.5572726440621
 30
0.0
 10
78.90181611525719
 20
-135.8659531995405
 30
0.0
 10
79.16192082439355
 20
-135.8659531995405
 30
0.0
 10
79.40945093500875
 20
-135.8659531995405
 30
0.0
 10
79.45819903612504
 20
-135.5848334079441
 30
0.0
 10
79.45819903612504
 20
-135.2379122925794
 30
0.0
 10
79.45819903612504
 20
-134.9182074315482
 30
0.0
 10
79.41995847623876
 20
-134.6095268760699
 30
0.0
 10
79.16192082439355
 20
-134.6095268760699
 30
0.0
  0
HATCH
  5
88
330
80
100
AcDbEntity
  8
_U+30EC_U+30A4_U+30E4_U+30FC 1
 62
   179
420
  2234388
100
AcDbHatch
 10
0.0
 20
0.0
 30
0.0
210
0.0
220
0.0
230
1.0
  2
SOLID
 70
     1
 71
     0
 91
        2
 92
        1
 93
        1
 72
     4
 94
        3
 73
     0
 74
     1
 95
       29
 96
       25
 40
0.0
 40
0.0
 40
0.0
 40
0.0
 40
1.0
 40
1.0
 40
1.0
 40
2.0
 40
2.0
 40
2.0
 40
3.0
 40
3.0
 40
3.0
 40
4.0
 40
4.0
 40
4.0
 40
5.0
 40
5.0
 40
5.0
 40
6.0
 40
6.0
 40
6.0
 40
7.0
 40
7.0
 40
7.0
 40
8.0
 40
8.0
 40
8.0
 40
8.0
 10
79.55965709816564
 20
-135.832191263785
 10
79.45182560947732
 20
-136.0416530692882
 10
79.27836505179499
 20
-136.0606010944571
 10
79.16192082439355
 20
-136.0606010944571
 10
79.00120712000664
 20
-136.0606010944571
 10
78.85944144078861
 20
-136.0140923054062
 10
78.76418455062145
 20
-135.832191263785
 10
78.6606594312897
 20
-135.6375433688684
 10
78.64153915134656
 20
-135.4005207994832
 10
78.64153915134656
 20
-135.2379122925794
 10
78.64153915134656
 20
-135.093907301296
 10
78.65842011922429
 20
-134.8420708213242
 10
78.76418455062145
 20
-134.6432888118253
 10
78.87218829408404
 20
-134.4403726877441
 10
79.03290199847095
 20
-134.4169460384444
 10
79.16192082439355
 20
-134.4169460384444
 10
79.32056747148931
 20
-134.4169460384444
 10
79.46440020799848
 20
-134.4613877702041
 10
79.55965709816564
 20
-134.6432888118253
 10
79.65904810291511
 20
-134.8358696494508
 10
79.68230249744055
 20
-135.0642794801228
 10
79.68230249744055
 20
-135.2379122925794
 10
79.68230249744055
 20
-135.4091335381963
 10
79.66128741498052
 20
-135.6396104261595
 10
79.55965709816564
 20
-135.832191263785
 97
        0
 97
        0
 92
        1
 93
        1
 72
     4
 94
        3
 73
     0
 74
     1
 95
       17
 96
       13
 40
0.0
 40
0.0
 40
0.0
 40
0.0
 40
1.0
 40
1.0
 40
1.0
 40
2.0
 40
2.0
 40
2.0
 40
3.0
 40
3.0
 40
3.0
 40
4.0
 40
4.0
 40
4.0
 40
4.0
 10
79.16192082439355
 20
-134.6095268760699
 10
78.9123236564872
 20
-134.6095268760699
 10
78.86581486743633
 20
-134.8930582345059
 10
78.86581486743633
 20
-135.2379122925794
 10
78.86581486743633
 20
-135.5572726440621
 10
78.90181611525719
 20
-135.8659531995405
 10
79.16192082439355
 20
-135.8659531995405
 10
79.40945093500875
 20
-135.8659531995405
 10
79.45819903612504
 20
-135.5848334079441
 10
79.45819903612504
 20
-135.2379122925794
 10
79.45819903612504
 20
-134.9182074315482
 10
79.41995847623876
 20
-134.6095268760699
 10
79.16192082439355
 20
-134.6095268760699
 97
        0
 97
        0
 75
     2
 76
     1
 98
        0
  0
SPLINE
  5
89
330
80
100
AcDbEntity
  8
_U+30EC_U+30A4_U+30E4_U+30FC 1
370
     0
100
AcDbSpline
210
0.0
220
0.0
230
1.0
 70
    11
 71
     3
 72
    44
 73
    40
 74
     0
 42
0.0000000001
 43
0.0000000001
 12
1.0
 22
0.0
 32
0.0
 13
1.0
 23
0.0
 33
0.0
 40
0.0
 40
0.0
 40
0.0
 40
0.0
 40
1.0
 40
1.0
 40
1.0
 40
2.0
 40
2.0
 40
2.0
 40
3.0
 40
3.0
 40
3.0
 40
4.0
 40
4.0
 40
4.0
 40
5.0
 40
5.0
 40
5.0
 40
6.0
 40
6.0
 40
6.0
 40
7.0
 40
7.0
 40
7.0
 40
8.0
 40
8.0
 40
8.0
 40
9.0
 40
9.0
 40
9.0
 40
10.0
 40
10.0
 40
10.0
 40
11.0
 40
11.0
 40
11.0
 40
12.0
 40
12.0
 40
12.0
 40
13.0
 40
13.0
 40
13.0
 40
13.0
 10
80.85294594332844
 20
-136.0099581908239
 30
0.0
 10
80.82951929402873
 20
-135.9655164590642
 30
0.0
 10
80.80850421156872
 20
-135.9128064981399
 30
0.0
 10
80.8062648995033
 20
-135.6819851006281
 30
0.0
 10
80.802130784921
 20
-135.4387613593695
 30
0.0
 10
80.7428751425747
 20
-135.3688259210189
 30
0.0
 10
80.56510821553582
 20
-135.3688259210189
 30
0.0
 10
80.56510821553582
 20
-135.3688259210189
 30
0.0
 10
80.1568644005337
 20
-135.3688259210189
 30
0.0
 10
80.1568644005337
 20
-135.3688259210189
 30
0.0
 10
80.1568644005337
 20
-135.3688259210189
 30
0.0
 10
80.1568644005337
 20
-136.0099581908239
 30
0.0
 10
80.1568644005337
 20
-136.0099581908239
 30
0.0
 10
80.1568644005337
 20
-136.0099581908239
 30
0.0
 10
79.92208114321393
 20
-136.0099581908239
 30
0.0
 10
79.92208114321393
 20
-136.0099581908239
 30
0.0
 10
79.92208114321393
 20
-136.0099581908239
 30
0.0
 10
79.92208114321393
 20
-134.4655218847864
 30
0.0
 10
79.92208114321393
 20
-134.4655218847864
 30
0.0
 10
79.92208114321393
 20
-134.4655218847864
 30
0.0
 10
80.59680309400011
 20
-134.4655218847864
 30
0.0
 10
80.59680309400011
 20
-134.4655218847864
 30
0.0
 10
80.90358884696161
 20
-134.4655218847864
 30
0.0
 10
81.07084823277049
 20
-134.6370876399519
 30
0.0
 10
81.07084823277049
 20
-134.8930582345059
 30
0.0
 10
81.07084823277049
 20
-134.9437011381391
 30
0.0
 10
81.06223549405736
 20
-135.0263834297851
 30
0.0
 10
81.01779376229764
 20
-135.1066541545914
 30
0.0
 10
80.9587103747256
 20
-135.2103515286974
 30
0.0
 10
80.8930813057316
 20
-135.2292995538663
 30
0.0
 10
80.83175860609414
 20
-135.246180521744
 30
0.0
 10
80.96921791595561
 20
-135.2885551962126
 30
0.0
 10
81.03691404224078
 20
-135.3371310425546
 30
0.0
 10
81.04122041159734
 20
-135.652357279455
 30
0.0
 10
81.04535452617964
 20
-135.9231417845956
 30
0.0
 10
81.0813557740005
 20
-135.9548366630599
 30
0.0
 10
81.14905190028566
 20
-136.0099581908239
 30
0.0
 10
81.14905190028566
 20
-136.0099581908239
 30
0.0
 10
80.85294594332844
 20
-136.0099581908239
 30
0.0
 10
80.85294594332844
 20
-136.0099581908239
 30
0.0
  0
SPLINE
  5
8A
330
80
100
AcDbEntity
  8
_U+30EC_U+30A4_U+30E4_U+30FC 1
370
     0
100
AcDbSpline
210
0.0
220
0.0
230
1.0
 70
    11
 71
     3
 72
    20
 73
    16
 74
     0
 42
0.0000000001
 43
0.0000000001
 12
1.0
 22
0.0
 32
0.0
 13
1.0
 23
0.0
 33
0.0
 40
0.0
 40
0.0
 40
0.0
 40
0.0
 40
1.0
 40
1.0
 40
1.0
 40
2.0
 40
2.0
 40
2.0
 40
3.0
 40
3.0
 40
3.0
 40
4.0
 40
4.0
 40
4.0
 40
5.0
 40
5.0
 40
5.0
 40
5.0
 10
80.60110946335666
 20
-134.6770507475808
 30
0.0
 10
80.60110946335666
 20
-134.6770507475808
 30
0.0
 10
80.1568644005337
 20
-134.6770507475808
 30
0.0
 10
80.1568644005337
 20
-134.6770507475808
 30
0.0
 10
80.1568644005337
 20
-134.6770507475808
 30
0.0
 10
80.1568644005337
 20
-135.1572970582246
 30
0.0
 10
80.1568644005337
 20
-135.1572970582246
 30
0.0
 10
80.1568644005337
 20
-135.1572970582246
 30
0.0
 10
80.59904240606552
 20
-135.1572970582246
 30
0.0
 10
80.59904240606552
 20
-135.1572970582246
 30
0.0
 10
80.69843341081499
 20
-135.1572970582246
 30
0.0
 10
80.8338256633853
 20
-135.0811604480006
 30
0.0
 10
80.8338256633853
 20
-134.9099392023836
 30
0.0
 10
80.8338256633853
 20
-134.8317355348685
 30
0.0
 10
80.80006372762985
 20
-134.6770507475808
 30
0.0
 10
80.60110946335666
 20
-134.6770507475808
 30
0.0
  0
HATCH
  5
8B
330
80
100
AcDbEntity
  8
_U+30EC_U+30A4_U+30E4_U+30FC 1
 62
   179
420
  2234388
100
AcDbHatch
 10
0.0
 20
0.0
 30
0.0
210
0.0
220
0.0
230
1.0
  2
SOLID
 70
     1
 71
     0
 91
        2
 92
        1
 93
        1
 72
     4
 94
        3
 73
     0
 74
     1
 95
       44
 96
       40
 40
0.0
 40
0.0
 40
0.0
 40
0.0
 40
1.0
 40
1.0
 40
1.0
 40
2.0
 40
2.0
 40
2.0
 40
3.0
 40
3.0
 40
3.0
 40
4.0
 40
4.0
 40
4.0
 40
5.0
 40
5.0
 40
5.0
 40
6.0
 40
6.0
 40
6.0
 40
7.0
 40
7.0
 40
7.0
 40
8.0
 40
8.0
 40
8.0
 40
9.0
 40
9.0
 40
9.0
 40
10.0
 40
10.0
 40
10.0
 40
11.0
 40
11.0
 40
11.0
 40
12.0
 40
12.0
 40
12.0
 40
13.0
 40
13.0
 40
13.0
 40
13.0
 10
80.85294594332844
 20
-136.0099581908239
 10
80.82951929402873
 20
-135.9655164590642
 10
80.80850421156872
 20
-135.9128064981399
 10
80.8062648995033
 20
-135.6819851006281
 10
80.802130784921
 20
-135.4387613593695
 10
80.7428751425747
 20
-135.3688259210189
 10
80.56510821553582
 20
-135.3688259210189
 10
80.56510821553582
 20
-135.3688259210189
 10
80.1568644005337
 20
-135.3688259210189
 10
80.1568644005337
 20
-135.3688259210189
 10
80.1568644005337
 20
-135.3688259210189
 10
80.1568644005337
 20
-136.0099581908239
 10
80.1568644005337
 20
-136.0099581908239
 10
80.1568644005337
 20
-136.0099581908239
 10
79.92208114321393
 20
-136.0099581908239
 10
79.92208114321393
 20
-136.0099581908239
 10
79.92208114321393
 20
-136.0099581908239
 10
79.92208114321393
 20
-134.4655218847864
 10
79.92208114321393
 20
-134.4655218847864
 10
79.92208114321393
 20
-134.4655218847864
 10
80.59680309400011
 20
-134.4655218847864
 10
80.59680309400011
 20
-134.4655218847864
 10
80.90358884696161
 20
-134.4655218847864
 10
81.07084823277049
 20
-134.6370876399519
 10
81.07084823277049
 20
-134.8930582345059
 10
81.07084823277049
 20
-134.9437011381391
 10
81.06223549405736
 20
-135.0263834297851
 10
81.01779376229764
 20
-135.1066541545914
 10
80.9587103747256
 20
-135.2103515286974
 10
80.8930813057316
 20
-135.2292995538663
 10
80.83175860609414
 20
-135.246180521744
 10
80.96921791595561
 20
-135.2885551962126
 10
81.03691404224078
 20
-135.3371310425546
 10
81.04122041159734
 20
-135.652357279455
 10
81.04535452617964
 20
-135.9231417845956
 10
81.0813557740005
 20
-135.9548366630599
 10
81.14905190028566
 20
-136.0099581908239
 10
81.14905190028566
 20
-136.0099581908239
 10
80.85294594332844
 20
-136.0099581908239
 10
80.85294594332844
 20
-136.0099581908239
 97
        0
 97
        0
 92
        1
 93
        1
 72
     4
 94
        3
 73
     0
 74
     1
 95
       20
 96
       16
 40
0.0
 40
0.0
 40
0.0
 40
0.0
 40
1.0
 40
1.0
 40
1.0
 40
2.0
 40
2.0
 40
2.0
 40
3.0
 40
3.0
 40
3.0
 40
4.0
 40
4.0
 40
4.0
 40
5.0
 40
5.0
 40
5.0
 40
5.0
 10
80.60110946335666
 20
-134.6770507475808
 10
80.60110946335666
 20
-134.6770507475808
 10
80.1568644005337
 20
-134.6770507475808
 10
80.1568644005337
 20
-134.6770507475808
 10
80.1568644005337
 20
-134.6770507475808
 10
80.1568644005337
 20
-135.1572970582246
 10
80.1568644005337
 20
-135.1572970582246
 10
80.1568644005337
 20
-135.1572970582246
 10
80.59904240606552
 20
-135.1572970582246
 10
80.59904240606552
 20
-135.1572970582246
 10
80.69843341081499
 20
-135.1572970582246
 10
80.8338256633853
 20
-135.0811604480006
 10
80.8338256633853
 20
-134.9099392023836
 10
80.8338256633853
 20
-134.8317355348685
 10
80.80006372762985
 20
-134.6770507475808
 10
80.60110946335666
 20
-134.6770507475808
 97
        0
 97
        0
 75
     2
 76
     1
 98
        0
  0
ENDBLK
  5
83
330
80
100
AcDbEntity
  8
0
100
AcDbBlockEnd
  0
BLOCK
  5
9E
330
9C
100
AcDbEntity
  8
0
100
AcDbBlockBegin
  2
block 3
 70
     0
 10
0.0
 20
0.0
 30
0.0
  3
block 3
  1

  0
SPLINE
  5
A0
330
9C
100
AcDbEntity
  8
_U+30EC_U+30A4_U+30E4_U+30FC 1
370
     0
100
AcDbSpline
210
0.0
220
0.0
230
1.0
 70
    11
 71
     3
 72
    26
 73
    22
 74
     0
 42
0.0000000001
 43
0.0000000001
 12
1.0
 22
0.0
 32
0.0
 13
1.0
 23
0.0
 33
0.0
 40
0.0
 40
0.0
 40
0.0
 40
0.0
 40
1.0
 40
1.0
 40
1.0
 40
2.0
 40
2.0
 40
2.0
 40
3.0
 40
3.0
 40
3.0
 40
4.0
 40
4.0
 40
4.0
 40
5.0
 40
5.0
 40
5.0
 40
6.0
 40
6.0
 40
6.0
 40
7.0
 40
7.0
 40
7.0
 40
7.0
 10
114.0333495808667
 20
-132.8411593634911
 30
0.0
 10
114.0333495808667
 20
-132.8411593634911
 30
0.0
 10
112.9291964778441
 20
-132.8411593634911
 30
0.0
 10
112.9291964778441
 20
-132.8411593634911
 30
0.0
 10
112.9291964778441
 20
-132.8411593634911
 30
0.0
 10
112.9291964778441
 20
-133.171199510978
 30
0.0
 10
112.9291964778441
 20
-133.171199510978
 30
0.0
 10
112.9291964778441
 20
-133.171199510978
 30
0.0
 10
112.7810573719783
 20
-133.171199510978
 30
0.0
 10
112.7810573719783
 20
-133.171199510978
 30
0.0
 10
112.7662434613918
 20
-132.8390923061999
 30
0.0
 10
112.6032904449395
 20
-132.7925835171491
 30
0.0
 10
112.4889132748292
 20
-132.7629556959759
 30
0.0
 10
112.4889132748292
 20
-132.7629556959759
 30
0.0
 10
112.4889132748292
 20
-132.6168836474014
 30
0.0
 10
112.4889132748292
 20
-132.6168836474014
 30
0.0
 10
112.4889132748292
 20
-132.6168836474014
 30
0.0
 10
114.0333495808667
 20
-132.6168836474014
 30
0.0
 10
114.0333495808667
 20
-132.6168836474014
 30
0.0
 10
114.0333495808667
 20
-132.6168836474014
 30
0.0
 10
114.0333495808667
 20
-132.8411593634911
 30
0.0
 10
114.0333495808667
 20
-132.8411593634911
 30
0.0
  0
HATCH
  5
A1
330
9C
100
AcDbEntity
  8
_U+30EC_U+30A4_U+30E4_U+30FC 1
 62
   179
420
  2234388
100
AcDbHatch
 10
0.0
 20
0.0
 30
0.0
210
0.0
220
0.0
230
1.0
  2
SOLID
 70
     1
 71
     0
 91
        1
 92
        1
 93
        1
 72
     4
 94
        3
 73
     0
 74
     1
 95
       26
 96
       22
 40
0.0
 40
0.0
 40
0.0
 40
0.0
 40
1.0
 40
1.0
 40
1.0
 40
2.0
 40
2.0
 40
2.0
 40
3.0
 40
3.0
 40
3.0
 40
4.0
 40
4.0
 40
4.0
 40
5.0
 40
5.0
 40
5.0
 40
6.0
 40
6.0
 40
6.0
 40
7.0
 40
7.0
 40
7.0
 40
7.0
 10
114.0333495808667
 20
-132.8411593634911
 10
114.0333495808667
 20
-132.8411593634911
 10
112.9291964778441
 20
-132.8411593634911
 10
112.9291964778441
 20
-132.8411593634911
 10
112.9291964778441
 20
-132.8411593634911
 10
112.9291964778441
 20
-133.171199510978
 10
112.9291964778441
 20
-133.171199510978
 10
112.9291964778441
 20
-133.171199510978
 10
112.7810573719783
 20
-133.171199510978
 10
112.7810573719783
 20
-133.171199510978
 10
112.7662434613918
 20
-132.8390923061999
 10
112.6032904449395
 20
-132.7925835171491
 10
112.4889132748292
 20
-132.7629556959759
 10
112.4889132748292
 20
-132.7629556959759
 10
112.4889132748292
 20
-132.6168836474014
 10
112.4889132748292
 20
-132.6168836474014
 10
112.4889132748292
 20
-132.6168836474014
 10
114.0333495808667
 20
-132.6168836474014
 10
114.0333495808667
 20
-132.6168836474014
 10
114.0333495808667
 20
-132.6168836474014
 10
114.0333495808667
 20
-132.8411593634911
 10
114.0333495808667
 20
-132.8411593634911
 97
        0
 97
        0
 75
     2
 76
     1
 98
        0
  0
ENDBLK
  5
9F
330
9C
100
AcDbEntity
  8
0
100
AcDbBlockEnd
  0
BLOCK
  5
AC
330
AA
100
AcDbEntity
  8
0
100
AcDbBlockBegin
  2
block 4
 70
     0
 10
0.0
 20
0.0
 30
0.0
  3
block 4
  1

  0
SPLINE
  5
AE
330
AA
100
AcDbEntity
  8
_U+30EC_U+30A4_U+30E4_U+30FC 1
370
     0
100
AcDbSpline
210
0.0
220
0.0
230
1.0
 70
    11
 71
     3
 72
    26
 73
    22
 74
     0
 42
0.0000000001
 43
0.0000000001
 12
1.0
 22
0.0
 32
0.0
 13
1.0
 23
0.0
 33
0.0
 40
0.0
 40
0.0
 40
0.0
 40
0.0
 40
1.0
 40
1.0
 40
1.0
 40
2.0
 40
2.0
 40
2.0
 40
3.0
 40
3.0
 40
3.0
 40
4.0
 40
4.0
 40
4.0
 40
5.0
 40
5.0
 40
5.0
 40
6.0
 40
6.0
 40
6.0
 40
7.0
 40
7.0
 40
7.0
 40
7.0
 10
113.6192491035396
 20
-143.5426594693227
 30
0.0
 10
113.6192491035396
 20
-143.5426594693227
 30
0.0
 10
112.5150960005171
 20
-143.5426594693227
 30
0.0
 10
112.5150960005171
 20
-143.5426594693227
 30
0.0
 10
112.5150960005171
 20
-143.5426594693227
 30
0.0
 10
112.5150960005171
 20
-143.8726996168096
 30
0.0
 10
112.5150960005171
 20
-143.8726996168096
 30
0.0
 10
112.5150960005171
 20
-143.8726996168096
 30
0.0
 10
112.3669568946513
 20
-143.8726996168096
 30
0.0
 10
112.3669568946513
 20
-143.8726996168096
 30
0.0
 10
112.3521429840647
 20
-143.5405924120315
 30
0.0
 10
112.1891899676124
 20
-143.4940836229806
 30
0.0
 10
112.0748127975021
 20
-143.4644558018075
 30
0.0
 10
112.0748127975021
 20
-143.4644558018075
 30
0.0
 10
112.0748127975021
 20
-143.3183837532329
 30
0.0
 10
112.0748127975021
 20
-143.3183837532329
 30
0.0
 10
112.0748127975021
 20
-143.3183837532329
 30
0.0
 10
113.6192491035396
 20
-143.3183837532329
 30
0.0
 10
113.6192491035396
 20
-143.3183837532329
 30
0.0
 10
113.6192491035396
 20
-143.3183837532329
 30
0.0
 10
113.6192491035396
 20
-143.5426594693227
 30
0.0
 10
113.6192491035396
 20
-143.5426594693227
 30
0.0
  0
HATCH
  5
AF
330
AA
100
AcDbEntity
  8
_U+30EC_U+30A4_U+30E4_U+30FC 1
 62
   179
420
  2234388
100
AcDbHatch
 10
0.0
 20
0.0
 30
0.0
210
0.0
220
0.0
230
1.0
  2
SOLID
 70
     1
 71
     0
 91
        1
 92
        1
 93
        1
 72
     4
 94
        3
 73
     0
 74
     1
 95
       26
 96
       22
 40
0.0
 40
0.0
 40
0.0
 40
0.0
 40
1.0
 40
1.0
 40
1.0
 40
2.0
 40
2.0
 40
2.0
 40
3.0
 40
3.0
 40
3.0
 40
4.0
 40
4.0
 40
4.0
 40
5.0
 40
5.0
 40
5.0
 40
6.0
 40
6.0
 40
6.0
 40
7.0
 40
7.0
 40
7.0
 40
7.0
 10
113.6192491035396
 20
-143.5426594693227
 10
113.6192491035396
 20
-143.5426594693227
 10
112.5150960005171
 20
-143.5426594693227
 10
112.5150960005171
 20
-143.5426594693227
 10
112.5150960005171
 20
-143.5426594693227
 10
112.5150960005171
 20
-143.8726996168096
 10
112.5150960005171
 20
-143.8726996168096
 10
112.5150960005171
 20
-143.8726996168096
 10
112.3669568946513
 20
-143.8726996168096
 10
112.3669568946513
 20
-143.8726996168096
 10
112.3521429840647
 20
-143.5405924120315
 10
112.1891899676124
 20
-143.4940836229806
 10
112.0748127975021
 20
-143.4644558018075
 10
112.0748127975021
 20
-143.4644558018075
 10
112.0748127975021
 20
-143.3183837532329
 10
112.0748127975021
 20
-143.3183837532329
 10
112.0748127975021
 20
-143.3183837532329
 10
113.6192491035396
 20
-143.3183837532329
 10
113.6192491035396
 20
-143.3183837532329
 10
113.6192491035396
 20
-143.3183837532329
 10
113.6192491035396
 20
-143.5426594693227
 10
113.6192491035396
 20
-143.5426594693227
 97
        0
 97
        0
 75
     2
 76
     1
 98
        0
  0
SPLINE
  5
B0
330
AA
100
AcDbEntity
  8
_U+30EC_U+30A4_U+30E4_U+30FC 1
370
     0
100
AcDbSpline
210
0.0
220
0.0
230
1.0
 70
    11
 71
     3
 72
    44
 73
    40
 74
     0
 42
0.0000000001
 43
0.0000000001
 12
1.0
 22
0.0
 32
0.0
 13
1.0
 23
0.0
 33
0.0
 40
0.0
 40
0.0
 40
0.0
 40
0.0
 40
1.0
 40
1.0
 40
1.0
 40
2.0
 40
2.0
 40
2.0
 40
3.0
 40
3.0
 40
3.0
 40
4.0
 40
4.0
 40
4.0
 40
5.0
 40
5.0
 40
5.0
 40
6.0
 40
6.0
 40
6.0
 40
7.0
 40
7.0
 40
7.0
 40
8.0
 40
8.0
 40
8.0
 40
9.0
 40
9.0
 40
9.0
 40
10.0
 40
10.0
 40
10.0
 40
11.0
 40
11.0
 40
11.0
 40
12.0
 40
12.0
 40
12.0
 40
13.0
 40
13.0
 40
13.0
 40
13.0
 10
113.0373724760809
 20
-142.2242214271176
 30
0.0
 10
113.196191377951
 20
-142.4419514617854
 30
0.0
 10
113.2702609308838
 20
-142.5349690398871
 30
0.0
 10
113.4139214126187
 20
-142.5838893957776
 30
0.0
 10
113.4139214126187
 20
-142.5838893957776
 30
0.0
 10
113.4139214126187
 20
-141.8052978161112
 30
0.0
 10
113.4139214126187
 20
-141.8052978161112
 30
0.0
 10
113.4139214126187
 20
-141.8052978161112
 30
0.0
 10
113.6192491035396
 20
-141.8052978161112
 30
0.0
 10
113.6192491035396
 20
-141.8052978161112
 30
0.0
 10
113.6192491035396
 20
-141.8052978161112
 30
0.0
 10
113.6192491035396
 20
-142.8333143089097
 30
0.0
 10
113.6192491035396
 20
-142.8333143089097
 30
0.0
 10
113.2616481921707
 20
-142.8016194304454
 30
0.0
 10
113.1834445246555
 20
-142.7361626162257
 30
0.0
 10
112.8850992556329
 20
-142.3510009409748
 30
0.0
 10
112.686317246134
 20
-142.0950303464207
 30
0.0
 10
112.6184488650746
 20
-142.0295735322009
 30
0.0
 10
112.4809895552131
 20
-142.0295735322009
 30
0.0
 10
112.3624782705205
 20
-142.0295735322009
 30
0.0
 10
112.231564642081
 20
-142.1015760278427
 30
0.0
 10
112.231564642081
 20
-142.2982909800504
 30
0.0
 10
112.231564642081
 20
-142.5583956891868
 30
0.0
 10
112.4620415300442
 20
-142.5670084278999
 30
0.0
 10
112.5784857574457
 20
-142.5711425424822
 30
0.0
 10
112.5784857574457
 20
-142.5711425424822
 30
0.0
 10
112.5784857574457
 20
-142.795418258572
 30
0.0
 10
112.5784857574457
 20
-142.795418258572
 30
0.0
 10
112.4513617340399
 20
-142.7868055198589
 30
0.0
 10
112.3393961307693
 20
-142.7761257238546
 30
0.0
 10
112.2208848460767
 20
-142.6958549990483
 30
0.0
 10
112.0599988869156
 20
-142.5859564530688
 30
0.0
 10
112.0262369511601
 20
-142.3995767873168
 30
0.0
 10
112.0262369511601
 20
-142.2834770694639
 30
0.0
 10
112.0262369511601
 20
-142.0061468829012
 30
0.0
 10
112.2102050500725
 20
-141.7987521346892
 30
0.0
 10
112.4830566125042
 20
-141.7987521346892
 30
0.0
 10
112.7118109527248
 20
-141.7987521346892
 30
0.0
 10
112.8110297027
 20
-141.9151963620907
 30
0.0
 10
113.0373724760809
 20
-142.2242214271176
 30
0.0
  0
HATCH
  5
B1
330
AA
100
AcDbEntity
  8
_U+30EC_U+30A4_U+30E4_U+30FC 1
 62
   179
420
  2234388
100
AcDbHatch
 10
0.0
 20
0.0
 30
0.0
210
0.0
220
0.0
230
1.0
  2
SOLID
 70
     1
 71
     0
 91
        1
 92
        1
 93
        1
 72
     4
 94
        3
 73
     0
 74
     1
 95
       44
 96
       40
 40
0.0
 40
0.0
 40
0.0
 40
0.0
 40
1.0
 40
1.0
 40
1.0
 40
2.0
 40
2.0
 40
2.0
 40
3.0
 40
3.0
 40
3.0
 40
4.0
 40
4.0
 40
4.0
 40
5.0
 40
5.0
 40
5.0
 40
6.0
 40
6.0
 40
6.0
 40
7.0
 40
7.0
 40
7.0
 40
8.0
 40
8.0
 40
8.0
 40
9.0
 40
9.0
 40
9.0
 40
10.0
 40
10.0
 40
10.0
 40
11.0
 40
11.0
 40
11.0
 40
12.0
 40
12.0
 40
12.0
 40
13.0
 40
13.0
 40
13.0
 40
13.0
 10
113.0373724760809
 20
-142.2242214271176
 10
113.196191377951
 20
-142.4419514617854
 10
113.2702609308838
 20
-142.5349690398871
 10
113.4139214126187
 20
-142.5838893957776
 10
113.4139214126187
 20
-142.5838893957776
 10
113.4139214126187
 20
-141.8052978161112
 10
113.4139214126187
 20
-141.8052978161112
 10
113.4139214126187
 20
-141.8052978161112
 10
113.6192491035396
 20
-141.8052978161112
 10
113.6192491035396
 20
-141.8052978161112
 10
113.6192491035396
 20
-141.8052978161112
 10
113.6192491035396
 20
-142.8333143089097
 10
113.6192491035396
 20
-142.8333143089097
 10
113.2616481921707
 20
-142.8016194304454
 10
113.1834445246555
 20
-142.7361626162257
 10
112.8850992556329
 20
-142.3510009409748
 10
112.686317246134
 20
-142.0950303464207
 10
112.6184488650746
 20
-142.0295735322009
 10
112.4809895552131
 20
-142.0295735322009
 10
112.3624782705205
 20
-142.0295735322009
 10
112.231564642081
 20
-142.1015760278427
 10
112.231564642081
 20
-142.2982909800504
 10
112.231564642081
 20
-142.5583956891868
 10
112.4620415300442
 20
-142.5670084278999
 10
112.5784857574457
 20
-142.5711425424822
 10
112.5784857574457
 20
-142.5711425424822
 10
112.5784857574457
 20
-142.795418258572
 10
112.5784857574457
 20
-142.795418258572
 10
112.4513617340399
 20
-142.7868055198589
 10
112.3393961307693
 20
-142.7761257238546
 10
112.2208848460767
 20
-142.6958549990483
 10
112.0599988869156
 20
-142.5859564530688
 10
112.0262369511601
 20
-142.3995767873168
 10
112.0262369511601
 20
-142.2834770694639
 10
112.0262369511601
 20
-142.0061468829012
 10
112.2102050500725
 20
-141.7987521346892
 10
112.4830566125042
 20
-141.7987521346892
 10
112.7118109527248
 20
-141.7987521346892
 10
112.8110297027
 20
-141.9151963620907
 10
113.0373724760809
 20
-142.2242214271176
 97
        0
 97
        0
 75
     2
 76
     1
 98
        0
  0
POLYLINE
  5
B2
330
AA
100
AcDbEntity
  8
_U+30EC_U+30A4_U+30E4_U+30FC 1
370
     0
100
AcDb2dPolyline
 66
     1
 10
0.0
 20
0.0
 30
0.0
  0
VERTEX
  5
B3
330
B2
100
AcDbEntity
  8
_U+30EC_U+30A4_U+30E4_U+30FC 1
370
     0
100
AcDbVertex
100
AcDb2dVertex
 10
113.6192491035396
 20
-141.5803330809244
 30
0.0
  0
VERTEX
  5
B4
330
B2
100
AcDbEntity
  8
_U+30EC_U+30A4_U+30E4_U+30FC 1
370
     0
100
AcDbVertex
100
AcDb2dVertex
 10
113.3674126235679
 20
-141.5803330809244
 30
0.0
  0
VERTEX
  5
B5
330
B2
100
AcDbEntity
  8
_U+30EC_U+30A4_U+30E4_U+30FC 1
370
     0
100
AcDbVertex
100
AcDb2dVertex
 10
113.3674126235679
 20
-141.3284966009526
 30
0.0
  0
VERTEX
  5
B6
330
B2
100
AcDbEntity
  8
_U+30EC_U+30A4_U+30E4_U+30FC 1
370
     0
100
AcDbVertex
100
AcDb2dVertex
 10
113.6192491035396
 20
-141.3284966009526
 30
0.0
  0
VERTEX
  5
B7
330
B2
100
AcDbEntity
  8
_U+30EC_U+30A4_U+30E4_U+30FC 1
370
     0
100
AcDbVertex
100
AcDb2dVertex
 10
113.6192491035396
 20
-141.5803330809244
 30
0.0
  0
SEQEND
  5
B8
330
B2
100
AcDbEntity
  8
_U+30EC_U+30A4_U+30E4_U+30FC 1
370
     0
  0
HATCH
  5
B9
330
AA
100
AcDbEntity
  8
_U+30EC_U+30A4_U+30E4_U+30FC 1
 62
   179
420
  2234388
100
AcDbHatch
 10
0.0
 20
0.0
 30
0.0
210
0.0
220
0.0
230
1.0
  2
SOLID
 70
     1
 71
     0
 91
        1
 92
        1
 93
        4
 72
     1
 10
113.6192491035396
 20
-141.5803330809244
 11
113.3674126235679
 21
-141.5803330809244
 72
     1
 10
113.3674126235679
 20
-141.5803330809244
 11
113.3674126235679
 21
-141.3284966009526
 72
     1
 10
113.3674126235679
 20
-141.3284966009526
 11
113.6192491035396
 21
-141.3284966009526
 72
     1
 10
113.6192491035396
 20
-141.3284966009526
 11
113.6192491035396
 21
-141.5803330809244
 97
        0
 75
     2
 76
     1
 98
        0
  0
SPLINE
  5
BA
330
AA
100
AcDbEntity
  8
_U+30EC_U+30A4_U+30E4_U+30FC 1
370
     0
100
AcDbSpline
210
0.0
220
0.0
230
1.0
 70
    11
 71
     3
 72
    53
 73
    49
 74
     0
 42
0.0000000001
 43
0.0000000001
 12
1.0
 22
0.0
 32
0.0
 13
1.0
 23
0.0
 33
0.0
 40
0.0
 40
0.0
 40
0.0
 40
0.0
 40
1.0
 40
1.0
 40
1.0
 40
2.0
 40
2.0
 40
2.0
 40
3.0
 40
3.0
 40
3.0
 40
4.0
 40
4.0
 40
4.0
 40
5.0
 40
5.0
 40
5.0
 40
6.0
 40
6.0
 40
6.0
 40
7.0
 40
7.0
 40
7.0
 40
8.0
 40
8.0
 40
8.0
 40
9.0
 40
9.0
 40
9.0
 40
10.0
 40
10.0
 40
10.0
 40
11.0
 40
11.0
 40
11.0
 40
12.0
 40
12.0
 40
12.0
 40
13.0
 40
13.0
 40
13.0
 40
14.0
 40
14.0
 40
14.0
 40
15.0
 40
15.0
 40
15.0
 40
16.0
 40
16.0
 40
16.0
 40
16.0
 10
113.6698920071728
 20
-140.6112277209236
 30
0.0
 10
113.6698920071728
 20
-140.6894313884387
 30
0.0
 10
113.6530110392951
 20
-140.7910617052536
 30
0.0
 10
113.5896212823665
 20
-140.8926920220685
 30
0.0
 10
113.479722736387
 20
-141.0659803249766
 30
0.0
 10
113.348464598399
 20
-141.0873399169851
 30
0.0
 10
113.2406331097107
 20
-141.106287942154
 30
0.0
 10
113.2406331097107
 20
-141.106287942154
 30
0.0
 10
113.2406331097107
 20
-140.8840792833554
 30
0.0
 10
113.2406331097107
 20
-140.8840792833554
 30
0.0
 10
113.4394151192096
 20
-140.8293022651399
 30
0.0
 10
113.4690429403827
 20
-140.7021782417342
 30
0.0
 10
113.4690429403827
 20
-140.6091606636325
 30
0.0
 10
113.4690429403827
 20
-140.4696342964798
 30
0.0
 10
113.369479680859
 20
-140.3173610760318
 30
0.0
 10
113.1369357356047
 20
-140.3173610760318
 30
0.0
 10
112.8809651410506
 20
-140.3173610760318
 30
0.0
 10
112.8110297027
 20
-140.4971950603618
 30
0.0
 10
112.8110297027
 20
-140.6177734023456
 30
0.0
 10
112.8110297027
 20
-140.6494682808099
 30
0.0
 10
112.8110297027
 20
-140.7910617052536
 30
0.0
 10
112.9402207833969
 20
-140.8799451687731
 30
0.0
 10
112.9402207833969
 20
-140.8799451687731
 30
0.0
 10
112.921272758228
 20
-141.0556450385208
 30
0.0
 10
112.921272758228
 20
-141.0556450385208
 30
0.0
 10
112.921272758228
 20
-141.0556450385208
 30
0.0
 10
112.0748127975021
 20
-140.9350666965371
 30
0.0
 10
112.0748127975021
 20
-140.9350666965371
 30
0.0
 10
112.0748127975021
 20
-140.9350666965371
 30
0.0
 10
112.0748127975021
 20
-140.1564751168706
 30
0.0
 10
112.0748127975021
 20
-140.1564751168706
 30
0.0
 10
112.0748127975021
 20
-140.1564751168706
 30
0.0
 10
112.2694606924187
 20
-140.1564751168706
 30
0.0
 10
112.2694606924187
 20
-140.1564751168706
 30
0.0
 10
112.2694606924187
 20
-140.1564751168706
 30
0.0
 10
112.2694606924187
 20
-140.7721136800847
 30
0.0
 10
112.2694606924187
 20
-140.7721136800847
 30
0.0
 10
112.2694606924187
 20
-140.7721136800847
 30
0.0
 10
112.6925184180074
 20
-140.8375704943045
 30
0.0
 10
112.6925184180074
 20
-140.8375704943045
 30
0.0
 10
112.658756482252
 20
-140.7762477946671
 30
0.0
 10
112.6184488650746
 20
-140.6939100125696
 30
0.0
 10
112.6184488650746
 20
-140.575398727877
 30
0.0
 10
112.6184488650746
 20
-140.3214951906141
 30
0.0
 10
112.8048285308266
 20
-140.0844726212289
 30
0.0
 10
113.1179877104358
 20
-140.0844726212289
 30
0.0
 10
113.4352810046273
 20
-140.0844726212289
 30
0.0
 10
113.6698920071728
 20
-140.3087483373187
 30
0.0
 10
113.6698920071728
 20
-140.6112277209236
 30
0.0
  0
HATCH
  5
BB
330
AA
100
AcDbEntity
  8
_U+30EC_U+30A4_U+30E4_U+30FC 1
 62
   179
420
  2234388
100
AcDbHatch
 10
0.0
 20
0.0
 30
0.0
210
0.0
220
0.0
230
1.0
  2
SOLID
 70
     1
 71
     0
 91
        1
 92
        1
 93
        1
 72
     4
 94
        3
 73
     0
 74
     1
 95
       53
 96
       49
 40
0.0
 40
0.0
 40
0.0
 40
0.0
 40
1.0
 40
1.0
 40
1.0
 40
2.0
 40
2.0
 40
2.0
 40
3.0
 40
3.0
 40
3.0
 40
4.0
 40
4.0
 40
4.0
 40
5.0
 40
5.0
 40
5.0
 40
6.0
 40
6.0
 40
6.0
 40
7.0
 40
7.0
 40
7.0
 40
8.0
 40
8.0
 40
8.0
 40
9.0
 40
9.0
 40
9.0
 40
10.0
 40
10.0
 40
10.0
 40
11.0
 40
11.0
 40
11.0
 40
12.0
 40
12.0
 40
12.0
 40
13.0
 40
13.0
 40
13.0
 40
14.0
 40
14.0
 40
14.0
 40
15.0
 40
15.0
 40
15.0
 40
16.0
 40
16.0
 40
16.0
 40
16.0
 10
113.6698920071728
 20
-140.6112277209236
 10
113.6698920071728
 20
-140.6894313884387
 10
113.6530110392951
 20
-140.7910617052536
 10
113.5896212823665
 20
-140.8926920220685
 10
113.479722736387
 20
-141.0659803249766
 10
113.348464598399
 20
-141.0873399169851
 10
113.2406331097107
 20
-141.106287942154
 10
113.2406331097107
 20
-141.106287942154
 10
113.2406331097107
 20
-140.8840792833554
 10
113.2406331097107
 20
-140.8840792833554
 10
113.4394151192096
 20
-140.8293022651399
 10
113.4690429403827
 20
-140.7021782417342
 10
113.4690429403827
 20
-140.6091606636325
 10
113.4690429403827
 20
-140.4696342964798
 10
113.369479680859
 20
-140.3173610760318
 10
113.1369357356047
 20
-140.3173610760318
 10
112.8809651410506
 20
-140.3173610760318
 10
112.8110297027
 20
-140.4971950603618
 10
112.8110297027
 20
-140.6177734023456
 10
112.8110297027
 20
-140.6494682808099
 10
112.8110297027
 20
-140.7910617052536
 10
112.9402207833969
 20
-140.8799451687731
 10
112.9402207833969
 20
-140.8799451687731
 10
112.921272758228
 20
-141.0556450385208
 10
112.921272758228
 20
-141.0556450385208
 10
112.921272758228
 20
-141.0556450385208
 10
112.0748127975021
 20
-140.9350666965371
 10
112.0748127975021
 20
-140.9350666965371
 10
112.0748127975021
 20
-140.9350666965371
 10
112.0748127975021
 20
-140.1564751168706
 10
112.0748127975021
 20
-140.1564751168706
 10
112.0748127975021
 20
-140.1564751168706
 10
112.2694606924187
 20
-140.1564751168706
 10
112.2694606924187
 20
-140.1564751168706
 10
112.2694606924187
 20
-140.1564751168706
 10
112.2694606924187
 20
-140.7721136800847
 10
112.2694606924187
 20
-140.7721136800847
 10
112.2694606924187
 20
-140.7721136800847
 10
112.6925184180074
 20
-140.8375704943045
 10
112.6925184180074
 20
-140.8375704943045
 10
112.658756482252
 20
-140.7762477946671
 10
112.6184488650746
 20
-140.6939100125696
 10
112.6184488650746
 20
-140.575398727877
 10
112.6184488650746
 20
-140.3214951906141
 10
112.8048285308266
 20
-140.0844726212289
 10
113.1179877104358
 20
-140.0844726212289
 10
113.4352810046273
 20
-140.0844726212289
 10
113.6698920071728
 20
-140.3087483373187
 10
113.6698920071728
 20
-140.6112277209236
 97
        0
 97
        0
 75
     2
 76
     1
 98
        0
  0
ENDBLK
  5
AD
330
AA
100
AcDbEntity
  8
0
100
AcDbBlockEnd
  0
BLOCK
  5
C6
330
C4
100
AcDbEntity
  8
0
100
AcDbBlockBegin
  2
block 5
 70
     0
 10
0.0
 20
0.0
 30
0.0
  3
block 5
  1

  0
SPLINE
  5
C8
330
C4
100
AcDbEntity
  8
_U+30EC_U+30A4_U+30E4_U+30FC 1
370
     0
100
AcDbSpline
210
0.0
220
0.0
230
1.0
 70
    11
 71
     3
 72
    26
 73
    22
 74
     0
 42
0.0000000001
 43
0.0000000001
 12
1.0
 22
0.0
 32
0.0
 13
1.0
 23
0.0
 33
0.0
 40
0.0
 40
0.0
 40
0.0
 40
0.0
 40
1.0
 40
1.0
 40
1.0
 40
2.0
 40
2.0
 40
2.0
 40
3.0
 40
3.0
 40
3.0
 40
4.0
 40
4.0
 40
4.0
 40
5.0
 40
5.0
 40
5.0
 40
6.0
 40
6.0
 40
6.0
 40
7.0
 40
7.0
 40
7.0
 40
7.0
 10
70.23585067688549
 20
-112.093071803574
 30
0.0
 10
70.23585067688549
 20
-112.093071803574
 30
0.0
 10
70.23585067688549
 20
-110.9887464457771
 30
0.0
 10
70.23585067688549
 20
-110.9887464457771
 30
0.0
 10
70.23585067688549
 20
-110.9887464457771
 30
0.0
 10
69.90581052939855
 20
-110.9887464457771
 30
0.0
 10
69.90581052939855
 20
-110.9887464457771
 30
0.0
 10
69.90581052939855
 20
-110.9887464457771
 30
0.0
 10
69.90581052939855
 20
-110.8407795946856
 30
0.0
 10
69.90581052939855
 20
-110.8407795946856
 30
0.0
 10
70.23791773417663
 20
-110.8259656840991
 30
0.0
 10
70.28442652322751
 20
-110.6630126676468
 30
0.0
 10
70.31405434440066
 20
-110.5488077523107
 30
0.0
 10
70.31405434440066
 20
-110.5488077523107
 30
0.0
 10
70.46012639297525
 20
-110.5488077523107
 30
0.0
 10
70.46012639297525
 20
-110.5488077523107
 30
0.0
 10
70.46012639297525
 20
-110.5488077523107
 30
0.0
 10
70.46012639297525
 20
-112.093071803574
 30
0.0
 10
70.46012639297525
 20
-112.093071803574
 30
0.0
 10
70.46012639297525
 20
-112.093071803574
 30
0.0
 10
70.23585067688549
 20
-112.093071803574
 30
0.0
 10
70.23585067688549
 20
-112.093071803574
 30
0.0
  0
HATCH
  5
C9
330
C4
100
AcDbEntity
  8
_U+30EC_U+30A4_U+30E4_U+30FC 1
 62
   179
420
  2234388
100
AcDbHatch
 10
0.0
 20
0.0
 30
0.0
210
0.0
220
0.0
230
1.0
  2
SOLID
 70
     1
 71
     0
 91
        1
 92
        1
 93
        1
 72
     4
 94
        3
 73
     0
 74
     1
 95
       26
 96
       22
 40
0.0
 40
0.0
 40
0.0
 40
0.0
 40
1.0
 40
1.0
 40
1.0
 40
2.0
 40
2.0
 40
2.0
 40
3.0
 40
3.0
 40
3.0
 40
4.0
 40
4.0
 40
4.0
 40
5.0
 40
5.0
 40
5.0
 40
6.0
 40
6.0
 40
6.0
 40
7.0
 40
7.0
 40
7.0
 40
7.0
 10
70.23585067688549
 20
-112.093071803574
 10
70.23585067688549
 20
-112.093071803574
 10
70.23585067688549
 20
-110.9887464457771
 10
70.23585067688549
 20
-110.9887464457771
 10
70.23585067688549
 20
-110.9887464457771
 10
69.90581052939855
 20
-110.9887464457771
 10
69.90581052939855
 20
-110.9887464457771
 10
69.90581052939855
 20
-110.9887464457771
 10
69.90581052939855
 20
-110.8407795946856
 10
69.90581052939855
 20
-110.8407795946856
 10
70.23791773417663
 20
-110.8259656840991
 10
70.28442652322751
 20
-110.6630126676468
 10
70.31405434440066
 20
-110.5488077523107
 10
70.31405434440066
 20
-110.5488077523107
 10
70.46012639297525
 20
-110.5488077523107
 10
70.46012639297525
 20
-110.5488077523107
 10
70.46012639297525
 20
-110.5488077523107
 10
70.46012639297525
 20
-112.093071803574
 10
70.46012639297525
 20
-112.093071803574
 10
70.46012639297525
 20
-112.093071803574
 10
70.23585067688549
 20
-112.093071803574
 10
70.23585067688549
 20
-112.093071803574
 97
        0
 97
        0
 75
     2
 76
     1
 98
        0
  0
SPLINE
  5
CA
330
C4
100
AcDbEntity
  8
_U+30EC_U+30A4_U+30E4_U+30FC 1
370
     0
100
AcDbSpline
210
0.0
220
0.0
230
1.0
 70
    11
 71
     3
 72
    44
 73
    40
 74
     0
 42
0.0000000001
 43
0.0000000001
 12
1.0
 22
0.0
 32
0.0
 13
1.0
 23
0.0
 33
0.0
 40
0.0
 40
0.0
 40
0.0
 40
0.0
 40
1.0
 40
1.0
 40
1.0
 40
2.0
 40
2.0
 40
2.0
 40
3.0
 40
3.0
 40
3.0
 40
4.0
 40
4.0
 40
4.0
 40
5.0
 40
5.0
 40
5.0
 40
6.0
 40
6.0
 40
6.0
 40
7.0
 40
7.0
 40
7.0
 40
8.0
 40
8.0
 40
8.0
 40
9.0
 40
9.0
 40
9.0
 40
10.0
 40
10.0
 40
10.0
 40
11.0
 40
11.0
 40
11.0
 40
12.0
 40
12.0
 40
12.0
 40
13.0
 40
13.0
 40
13.0
 40
13.0
 10
71.55446097386486
 20
-111.5113674308895
 30
0.0
 10
71.33655868442281
 20
-111.6700140779853
 30
0.0
 10
71.2433688515468
 20
-111.7440836309182
 30
0.0
 10
71.19479300520477
 20
-111.8879163674273
 30
0.0
 10
71.19479300520477
 20
-111.8879163674273
 30
0.0
 10
71.97321233009698
 20
-111.8879163674273
 30
0.0
 10
71.97321233009698
 20
-111.8879163674273
 30
0.0
 10
71.97321233009698
 20
-111.8879163674273
 30
0.0
 10
71.97321233009698
 20
-112.093071803574
 30
0.0
 10
71.97321233009698
 20
-112.093071803574
 30
0.0
 10
71.97321233009698
 20
-112.093071803574
 30
0.0
 10
70.94519583729843
 20
-112.093071803574
 30
0.0
 10
70.94519583729843
 20
-112.093071803574
 30
0.0
 10
70.97689071576272
 20
-111.735470892205
 30
0.0
 10
71.04234752998248
 20
-111.6572672246899
 30
0.0
 10
71.4275092052334
 20
-111.3589219556672
 30
0.0
 10
71.68347979978746
 20
-111.1601399461683
 30
0.0
 10
71.74893661400722
 20
-111.0924438198831
 30
0.0
 10
71.74893661400722
 20
-110.9549845100217
 30
0.0
 10
71.74893661400722
 20
-110.8364732253291
 30
0.0
 10
71.67710637313975
 20
-110.7053873421153
 30
0.0
 10
71.480391420932
 20
-110.7053873421153
 30
0.0
 10
71.22011445702137
 20
-110.7053873421153
 30
0.0
 10
71.2116739730825
 20
-110.9358642300785
 30
0.0
 10
71.20736760372594
 20
-111.05230845748
 30
0.0
 10
71.20736760372594
 20
-111.05230845748
 30
0.0
 10
70.98326414241043
 20
-111.05230845748
 30
0.0
 10
70.98326414241043
 20
-111.05230845748
 30
0.0
 10
70.9917046263493
 20
-110.9253566888485
 30
0.0
 10
71.00221216757932
 20
-110.8132188308036
 30
0.0
 10
71.0826551471599
 20
-110.694707546111
 30
0.0
 10
71.19255369313936
 20
-110.5339938417241
 30
0.0
 10
71.37876110411712
 20
-110.5000596511944
 30
0.0
 10
71.49520533151856
 20
-110.5000596511944
 30
0.0
 10
71.77236326330691
 20
-110.5000596511944
 30
0.0
 10
71.9795857567447
 20
-110.684200004881
 30
0.0
 10
71.9795857567447
 20
-110.9570515673128
 30
0.0
 10
71.9795857567447
 20
-111.1854613979849
 30
0.0
 10
71.86331378411751
 20
-111.2850246575086
 30
0.0
 10
71.55446097386486
 20
-111.5113674308895
 30
0.0
  0
HATCH
  5
CB
330
C4
100
AcDbEntity
  8
_U+30EC_U+30A4_U+30E4_U+30FC 1
 62
   179
420
  2234388
100
AcDbHatch
 10
0.0
 20
0.0
 30
0.0
210
0.0
220
0.0
230
1.0
  2
SOLID
 70
     1
 71
     0
 91
        1
 92
        1
 93
        1
 72
     4
 94
        3
 73
     0
 74
     1
 95
       44
 96
       40
 40
0.0
 40
0.0
 40
0.0
 40
0.0
 40
1.0
 40
1.0
 40
1.0
 40
2.0
 40
2.0
 40
2.0
 40
3.0
 40
3.0
 40
3.0
 40
4.0
 40
4.0
 40
4.0
 40
5.0
 40
5.0
 40
5.0
 40
6.0
 40
6.0
 40
6.0
 40
7.0
 40
7.0
 40
7.0
 40
8.0
 40
8.0
 40
8.0
 40
9.0
 40
9.0
 40
9.0
 40
10.0
 40
10.0
 40
10.0
 40
11.0
 40
11.0
 40
11.0
 40
12.0
 40
12.0
 40
12.0
 40
13.0
 40
13.0
 40
13.0
 40
13.0
 10
71.55446097386486
 20
-111.5113674308895
 10
71.33655868442281
 20
-111.6700140779853
 10
71.2433688515468
 20
-111.7440836309182
 10
71.19479300520477
 20
-111.8879163674273
 10
71.19479300520477
 20
-111.8879163674273
 10
71.97321233009698
 20
-111.8879163674273
 10
71.97321233009698
 20
-111.8879163674273
 10
71.97321233009698
 20
-111.8879163674273
 10
71.97321233009698
 20
-112.093071803574
 10
71.97321233009698
 20
-112.093071803574
 10
71.97321233009698
 20
-112.093071803574
 10
70.94519583729843
 20
-112.093071803574
 10
70.94519583729843
 20
-112.093071803574
 10
70.97689071576272
 20
-111.735470892205
 10
71.04234752998248
 20
-111.6572672246899
 10
71.4275092052334
 20
-111.3589219556672
 10
71.68347979978746
 20
-111.1601399461683
 10
71.74893661400722
 20
-111.0924438198831
 10
71.74893661400722
 20
-110.9549845100217
 10
71.74893661400722
 20
-110.8364732253291
 10
71.67710637313975
 20
-110.7053873421153
 10
71.480391420932
 20
-110.7053873421153
 10
71.22011445702137
 20
-110.7053873421153
 10
71.2116739730825
 20
-110.9358642300785
 10
71.20736760372594
 20
-111.05230845748
 10
71.20736760372594
 20
-111.05230845748
 10
70.98326414241043
 20
-111.05230845748
 10
70.98326414241043
 20
-111.05230845748
 10
70.9917046263493
 20
-110.9253566888485
 10
71.00221216757932
 20
-110.8132188308036
 10
71.0826551471599
 20
-110.694707546111
 10
71.19255369313936
 20
-110.5339938417241
 10
71.37876110411712
 20
-110.5000596511944
 10
71.49520533151856
 20
-110.5000596511944
 10
71.77236326330691
 20
-110.5000596511944
 10
71.9795857567447
 20
-110.684200004881
 10
71.9795857567447
 20
-110.9570515673128
 10
71.9795857567447
 20
-111.1854613979849
 10
71.86331378411751
 20
-111.2850246575086
 10
71.55446097386486
 20
-111.5113674308895
 97
        0
 97
        0
 75
     2
 76
     1
 98
        0
  0
POLYLINE
  5
CC
330
C4
100
AcDbEntity
  8
_U+30EC_U+30A4_U+30E4_U+30FC 1
370
     0
100
AcDb2dPolyline
 66
     1
 10
0.0
 20
0.0
 30
0.0
  0
VERTEX
  5
CD
330
CC
100
AcDbEntity
  8
_U+30EC_U+30A4_U+30E4_U+30FC 1
370
     0
100
AcDbVertex
100
AcDb2dVertex
 10
72.19817706528379
 20
-112.093071803574
 30
0.0
  0
VERTEX
  5
CE
330
CC
100
AcDbEntity
  8
_U+30EC_U+30A4_U+30E4_U+30FC 1
370
     0
100
AcDbVertex
100
AcDb2dVertex
 10
72.19817706528379
 20
-111.8414075783765
 30
0.0
  0
VERTEX
  5
CF
330
CC
100
AcDbEntity
  8
_U+30EC_U+30A4_U+30E4_U+30FC 1
370
     0
100
AcDbVertex
100
AcDb2dVertex
 10
72.44984129048129
 20
-111.8414075783765
 30
0.0
  0
VERTEX
  5
D0
330
CC
100
AcDbEntity
  8
_U+30EC_U+30A4_U+30E4_U+30FC 1
370
     0
100
AcDbVertex
100
AcDb2dVertex
 10
72.44984129048129
 20
-112.093071803574
 30
0.0
  0
VERTEX
  5
D1
330
CC
100
AcDbEntity
  8
_U+30EC_U+30A4_U+30E4_U+30FC 1
370
     0
100
AcDbVertex
100
AcDb2dVertex
 10
72.19817706528379
 20
-112.093071803574
 30
0.0
  0
SEQEND
  5
D2
330
CC
100
AcDbEntity
  8
_U+30EC_U+30A4_U+30E4_U+30FC 1
370
     0
  0
HATCH
  5
D3
330
C4
100
AcDbEntity
  8
_U+30EC_U+30A4_U+30E4_U+30FC 1
 62
   179
420
  2234388
100
AcDbHatch
 10
0.0
 20
0.0
 30
0.0
210
0.0
220
0.0
230
1.0
  2
SOLID
 70
     1
 71
     0
 91
        1
 92
        1
 93
        4
 72
     1
 10
72.19817706528379
 20
-112.093071803574
 11
72.19817706528379
 21
-111.8414075783765
 72
     1
 10
72.19817706528379
 20
-111.8414075783765
 11
72.44984129048129
 21
-111.8414075783765
 72
     1
 10
72.44984129048129
 20
-111.8414075783765
 11
72.44984129048129
 21
-112.093071803574
 72
     1
 10
72.44984129048129
 20
-112.093071803574
 11
72.19817706528379
 21
-112.093071803574
 97
        0
 75
     2
 76
     1
 98
        0
  0
SPLINE
  5
D4
330
C4
100
AcDbEntity
  8
_U+30EC_U+30A4_U+30E4_U+30FC 1
370
     0
100
AcDbSpline
210
0.0
220
0.0
230
1.0
 70
    11
 71
     3
 72
    53
 73
    49
 74
     0
 42
0.0000000001
 43
0.0000000001
 12
1.0
 22
0.0
 32
0.0
 13
1.0
 23
0.0
 33
0.0
 40
0.0
 40
0.0
 40
0.0
 40
0.0
 40
1.0
 40
1.0
 40
1.0
 40
2.0
 40
2.0
 40
2.0
 40
3.0
 40
3.0
 40
3.0
 40
4.0
 40
4.0
 40
4.0
 40
5.0
 40
5.0
 40
5.0
 40
6.0
 40
6.0
 40
6.0
 40
7.0
 40
7.0
 40
7.0
 40
8.0
 40
8.0
 40
8.0
 40
9.0
 40
9.0
 40
9.0
 40
10.0
 40
10.0
 40
10.0
 40
11.0
 40
11.0
 40
11.0
 40
12.0
 40
12.0
 40
12.0
 40
13.0
 40
13.0
 40
13.0
 40
14.0
 40
14.0
 40
14.0
 40
15.0
 40
15.0
 40
15.0
 40
16.0
 40
16.0
 40
16.0
 40
16.0
 10
73.16728242528457
 20
-112.1438869619814
 30
0.0
 10
73.08890650299514
 20
-112.1438869619814
 30
0.0
 10
72.98744844095452
 20
-112.1268337393294
 30
0.0
 10
72.88581812413966
 20
-112.0634439824008
 30
0.0
 10
72.71235756645733
 20
-111.9533731816471
 30
0.0
 10
72.69117022922305
 20
-111.8222872984333
 30
0.0
 10
72.67222220405417
 20
-111.714455809745
 30
0.0
 10
72.67222220405417
 20
-111.714455809745
 30
0.0
 10
72.89425860807852
 20
-111.714455809745
 30
0.0
 10
72.89425860807852
 20
-111.714455809745
 30
0.0
 10
72.94938013584252
 20
-111.9132378192439
 30
0.0
 10
73.07633190447397
 20
-111.9428656404171
 30
0.0
 10
73.16934948257573
 20
-111.9428656404171
 30
0.0
 10
73.30887584972834
 20
-111.9428656404171
 30
0.0
 10
73.46132132495065
 20
-111.8434746356676
 30
0.0
 10
73.46132132495065
 20
-111.610758435639
 30
0.0
 10
73.46132132495065
 20
-111.3547878410849
 30
0.0
 10
73.2814873406206
 20
-111.2850246575086
 30
0.0
 10
73.16090899863686
 20
-111.2850246575086
 30
0.0
 10
73.12921412017256
 20
-111.2850246575086
 30
0.0
 10
72.98744844095452
 20
-111.2850246575086
 30
0.0
 10
72.89856497743509
 20
-111.4140434834312
 30
0.0
 10
72.89856497743509
 20
-111.4140434834312
 30
0.0
 10
72.72303736246161
 20
-111.3949232034881
 30
0.0
 10
72.72303736246161
 20
-111.3949232034881
 30
0.0
 10
72.72303736246161
 20
-111.3949232034881
 30
0.0
 10
72.84361570444536
 20
-110.5488077523107
 30
0.0
 10
72.84361570444536
 20
-110.5488077523107
 30
0.0
 10
72.84361570444536
 20
-110.5488077523107
 30
0.0
 10
73.62203502933755
 20
-110.5488077523107
 30
0.0
 10
73.62203502933755
 20
-110.5488077523107
 30
0.0
 10
73.62203502933755
 20
-110.5488077523107
 30
0.0
 10
73.62203502933755
 20
-110.7434556472273
 30
0.0
 10
73.62203502933755
 20
-110.7434556472273
 30
0.0
 10
73.62203502933755
 20
-110.7434556472273
 30
0.0
 10
73.0063964661234
 20
-110.7434556472273
 30
0.0
 10
73.0063964661234
 20
-110.7434556472273
 30
0.0
 10
73.0063964661234
 20
-110.7434556472273
 30
0.0
 10
72.94093965190366
 20
-111.166513372816
 30
0.0
 10
72.94093965190366
 20
-111.166513372816
 30
0.0
 10
73.0022623515411
 20
-111.1325791822863
 30
0.0
 10
73.08477238841284
 20
-111.0924438198831
 30
0.0
 10
73.20311141833118
 20
-111.0924438198831
 30
0.0
 10
73.45701495559408
 20
-111.0924438198831
 30
0.0
 10
73.69403752497927
 20
-111.2786512308609
 30
0.0
 10
73.69403752497927
 20
-111.5916381556958
 30
0.0
 10
73.69403752497927
 20
-111.9091037046616
 30
0.0
 10
73.4697618088895
 20
-112.1438869619814
 30
0.0
 10
73.16728242528457
 20
-112.1438869619814
 30
0.0
  0
HATCH
  5
D5
330
C4
100
AcDbEntity
  8
_U+30EC_U+30A4_U+30E4_U+30FC 1
 62
   179
420
  2234388
100
AcDbHatch
 10
0.0
 20
0.0
 30
0.0
210
0.0
220
0.0
230
1.0
  2
SOLID
 70
     1
 71
     0
 91
        1
 92
        1
 93
        1
 72
     4
 94
        3
 73
     0
 74
     1
 95
       53
 96
       49
 40
0.0
 40
0.0
 40
0.0
 40
0.0
 40
1.0
 40
1.0
 40
1.0
 40
2.0
 40
2.0
 40
2.0
 40
3.0
 40
3.0
 40
3.0
 40
4.0
 40
4.0
 40
4.0
 40
5.0
 40
5.0
 40
5.0
 40
6.0
 40
6.0
 40
6.0
 40
7.0
 40
7.0
 40
7.0
 40
8.0
 40
8.0
 40
8.0
 40
9.0
 40
9.0
 40
9.0
 40
10.0
 40
10.0
 40
10.0
 40
11.0
 40
11.0
 40
11.0
 40
12.0
 40
12.0
 40
12.0
 40
13.0
 40
13.0
 40
13.0
 40
14.0
 40
14.0
 40
14.0
 40
15.0
 40
15.0
 40
15.0
 40
16.0
 40
16.0
 40
16.0
 40
16.0
 10
73.16728242528457
 20
-112.1438869619814
 10
73.08890650299514
 20
-112.1438869619814
 10
72.98744844095452
 20
-112.1268337393294
 10
72.88581812413966
 20
-112.0634439824008
 10
72.71235756645733
 20
-111.9533731816471
 10
72.69117022922305
 20
-111.8222872984333
 10
72.67222220405417
 20
-111.714455809745
 10
72.67222220405417
 20
-111.714455809745
 10
72.89425860807852
 20
-111.714455809745
 10
72.89425860807852
 20
-111.714455809745
 10
72.94938013584252
 20
-111.9132378192439
 10
73.07633190447397
 20
-111.9428656404171
 10
73.16934948257573
 20
-111.9428656404171
 10
73.30887584972834
 20
-111.9428656404171
 10
73.46132132495065
 20
-111.8434746356676
 10
73.46132132495065
 20
-111.610758435639
 10
73.46132132495065
 20
-111.3547878410849
 10
73.2814873406206
 20
-111.2850246575086
 10
73.16090899863686
 20
-111.2850246575086
 10
73.12921412017256
 20
-111.2850246575086
 10
72.98744844095452
 20
-111.2850246575086
 10
72.89856497743509
 20
-111.4140434834312
 10
72.89856497743509
 20
-111.4140434834312
 10
72.72303736246161
 20
-111.3949232034881
 10
72.72303736246161
 20
-111.3949232034881
 10
72.72303736246161
 20
-111.3949232034881
 10
72.84361570444536
 20
-110.5488077523107
 10
72.84361570444536
 20
-110.5488077523107
 10
72.84361570444536
 20
-110.5488077523107
 10
73.62203502933755
 20
-110.5488077523107
 10
73.62203502933755
 20
-110.5488077523107
 10
73.62203502933755
 20
-110.5488077523107
 10
73.62203502933755
 20
-110.7434556472273
 10
73.62203502933755
 20
-110.7434556472273
 10
73.62203502933755
 20
-110.7434556472273
 10
73.0063964661234
 20
-110.7434556472273
 10
73.0063964661234
 20
-110.7434556472273
 10
73.0063964661234
 20
-110.7434556472273
 10
72.94093965190366
 20
-111.166513372816
 10
72.94093965190366
 20
-111.166513372816
 10
73.0022623515411
 20
-111.1325791822863
 10
73.08477238841284
 20
-111.0924438198831
 10
73.20311141833118
 20
-111.0924438198831
 10
73.45701495559408
 20
-111.0924438198831
 10
73.69403752497927
 20
-111.2786512308609
 10
73.69403752497927
 20
-111.5916381556958
 10
73.69403752497927
 20
-111.9091037046616
 10
73.4697618088895
 20
-112.1438869619814
 10
73.16728242528457
 20
-112.1438869619814
 97
        0
 97
        0
 75
     2
 76
     1
 98
        0
  0
ENDBLK
  5
C7
330
C4
100
AcDbEntity
  8
0
100
AcDbBlockEnd
  0
BLOCK
  5
E4
330
E2
100
AcDbEntity
  8
0
100
AcDbBlockBegin
  2
block 6
 70
     0
 10
0.0
 20
0.0
 30
0.0
  3
block 6
  1

  0
SPLINE
  5
E6
330
E2
100
AcDbEntity
  8
_U+30EC_U+30A4_U+30E4_U+30FC 1
370
     0
100
AcDbSpline
210
0.0
220
0.0
230
1.0
 70
    11
 71
     3
 72
    26
 73
    22
 74
     0
 42
0.0000000001
 43
0.0000000001
 12
1.0
 22
0.0
 32
0.0
 13
1.0
 23
0.0
 33
0.0
 40
0.0
 40
0.0
 40
0.0
 40
0.0
 40
1.0
 40
1.0
 40
1.0
 40
2.0
 40
2.0
 40
2.0
 40
3.0
 40
3.0
 40
3.0
 40
4.0
 40
4.0
 40
4.0
 40
5.0
 40
5.0
 40
5.0
 40
6.0
 40
6.0
 40
6.0
 40
7.0
 40
7.0
 40
7.0
 40
7.0
 10
102.3486192235448
 20
-151.5218451227098
 30
0.0
 10
102.3486192235448
 20
-151.5218451227098
 30
0.0
 10
102.3486192235448
 20
-150.4176920196873
 30
0.0
 10
102.3486192235448
 20
-150.4176920196873
 30
0.0
 10
102.3486192235448
 20
-150.4176920196873
 30
0.0
 10
102.0185790760579
 20
-150.4176920196873
 30
0.0
 10
102.0185790760579
 20
-150.4176920196873
 30
0.0
 10
102.0185790760579
 20
-150.4176920196873
 30
0.0
 10
102.0185790760579
 20
-150.2695529138215
 30
0.0
 10
102.0185790760579
 20
-150.2695529138215
 30
0.0
 10
102.3506862808359
 20
-150.2547390032349
 30
0.0
 10
102.3971950698868
 20
-150.0917859867826
 30
0.0
 10
102.42682289106
 20
-149.9774088166723
 30
0.0
 10
102.42682289106
 20
-149.9774088166723
 30
0.0
 10
102.5728949396346
 20
-149.9774088166723
 30
0.0
 10
102.5728949396346
 20
-149.9774088166723
 30
0.0
 10
102.5728949396346
 20
-149.9774088166723
 30
0.0
 10
102.5728949396346
 20
-151.5218451227098
 30
0.0
 10
102.5728949396346
 20
-151.5218451227098
 30
0.0
 10
102.5728949396346
 20
-151.5218451227098
 30
0.0
 10
102.3486192235448
 20
-151.5218451227098
 30
0.0
 10
102.3486192235448
 20
-151.5218451227098
 30
0.0
  0
HATCH
  5
E7
330
E2
100
AcDbEntity
  8
_U+30EC_U+30A4_U+30E4_U+30FC 1
 62
   179
420
  2234388
100
AcDbHatch
 10
0.0
 20
0.0
 30
0.0
210
0.0
220
0.0
230
1.0
  2
SOLID
 70
     1
 71
     0
 91
        1
 92
        1
 93
        1
 72
     4
 94
        3
 73
     0
 74
     1
 95
       26
 96
       22
 40
0.0
 40
0.0
 40
0.0
 40
0.0
 40
1.0
 40
1.0
 40
1.0
 40
2.0
 40
2.0
 40
2.0
 40
3.0
 40
3.0
 40
3.0
 40
4.0
 40
4.0
 40
4.0
 40
5.0
 40
5.0
 40
5.0
 40
6.0
 40
6.0
 40
6.0
 40
7.0
 40
7.0
 40
7.0
 40
7.0
 10
102.3486192235448
 20
-151.5218451227098
 10
102.3486192235448
 20
-151.5218451227098
 10
102.3486192235448
 20
-150.4176920196873
 10
102.3486192235448
 20
-150.4176920196873
 10
102.3486192235448
 20
-150.4176920196873
 10
102.0185790760579
 20
-150.4176920196873
 10
102.0185790760579
 20
-150.4176920196873
 10
102.0185790760579
 20
-150.4176920196873
 10
102.0185790760579
 20
-150.2695529138215
 10
102.0185790760579
 20
-150.2695529138215
 10
102.3506862808359
 20
-150.2547390032349
 10
102.3971950698868
 20
-150.0917859867826
 10
102.42682289106
 20
-149.9774088166723
 10
102.42682289106
 20
-149.9774088166723
 10
102.5728949396346
 20
-149.9774088166723
 10
102.5728949396346
 20
-149.9774088166723
 10
102.5728949396346
 20
-149.9774088166723
 10
102.5728949396346
 20
-151.5218451227098
 10
102.5728949396346
 20
-151.5218451227098
 10
102.5728949396346
 20
-151.5218451227098
 10
102.3486192235448
 20
-151.5218451227098
 10
102.3486192235448
 20
-151.5218451227098
 97
        0
 97
        0
 75
     2
 76
     1
 98
        0
  0
SPLINE
  5
E8
330
E2
100
AcDbEntity
  8
_U+30EC_U+30A4_U+30E4_U+30FC 1
370
     0
100
AcDbSpline
210
0.0
220
0.0
230
1.0
 70
    11
 71
     3
 72
    53
 73
    49
 74
     0
 42
0.0000000001
 43
0.0000000001
 12
1.0
 22
0.0
 32
0.0
 13
1.0
 23
0.0
 33
0.0
 40
0.0
 40
0.0
 40
0.0
 40
0.0
 40
1.0
 40
1.0
 40
1.0
 40
2.0
 40
2.0
 40
2.0
 40
3.0
 40
3.0
 40
3.0
 40
4.0
 40
4.0
 40
4.0
 40
5.0
 40
5.0
 40
5.0
 40
6.0
 40
6.0
 40
6.0
 40
7.0
 40
7.0
 40
7.0
 40
8.0
 40
8.0
 40
8.0
 40
9.0
 40
9.0
 40
9.0
 40
10.0
 40
10.0
 40
10.0
 40
11.0
 40
11.0
 40
11.0
 40
12.0
 40
12.0
 40
12.0
 40
13.0
 40
13.0
 40
13.0
 40
14.0
 40
14.0
 40
14.0
 40
15.0
 40
15.0
 40
15.0
 40
16.0
 40
16.0
 40
16.0
 40
16.0
 10
103.5550916624793
 20
-151.572488026343
 30
0.0
 10
103.4768879949641
 20
-151.572488026343
 30
0.0
 10
103.3752576781492
 20
-151.5556070584653
 30
0.0
 10
103.2736273613344
 20
-151.4922173015367
 30
0.0
 10
103.1003390584263
 20
-151.3823187555572
 30
0.0
 10
103.0789794664178
 20
-151.2510606175692
 30
0.0
 10
103.0600314412489
 20
-151.1432291288809
 30
0.0
 10
103.0600314412489
 20
-151.1432291288809
 30
0.0
 10
103.2822401000475
 20
-151.1432291288809
 30
0.0
 10
103.2822401000475
 20
-151.1432291288809
 30
0.0
 10
103.337017118263
 20
-151.3420111383798
 30
0.0
 10
103.4641411416687
 20
-151.3716389595529
 30
0.0
 10
103.5571587197704
 20
-151.3716389595529
 30
0.0
 10
103.6966850869231
 20
-151.3716389595529
 30
0.0
 10
103.8489583073711
 20
-151.2720757000292
 30
0.0
 10
103.8489583073711
 20
-151.0395317547749
 30
0.0
 10
103.8489583073711
 20
-150.7835611602208
 30
0.0
 10
103.6691243230411
 20
-150.7136257218702
 30
0.0
 10
103.5485459810573
 20
-150.7136257218702
 30
0.0
 10
103.516851102593
 20
-150.7136257218702
 30
0.0
 10
103.3752576781492
 20
-150.7136257218702
 30
0.0
 10
103.2863742146298
 20
-150.8428168025671
 30
0.0
 10
103.2863742146298
 20
-150.8428168025671
 30
0.0
 10
103.1106743448821
 20
-150.8238687773982
 30
0.0
 10
103.1106743448821
 20
-150.8238687773982
 30
0.0
 10
103.1106743448821
 20
-150.8238687773982
 30
0.0
 10
103.2312526868658
 20
-149.9774088166723
 30
0.0
 10
103.2312526868658
 20
-149.9774088166723
 30
0.0
 10
103.2312526868658
 20
-149.9774088166723
 30
0.0
 10
104.0098442665323
 20
-149.9774088166723
 30
0.0
 10
104.0098442665323
 20
-149.9774088166723
 30
0.0
 10
104.0098442665323
 20
-149.9774088166723
 30
0.0
 10
104.0098442665323
 20
-150.1720567115889
 30
0.0
 10
104.0098442665323
 20
-150.1720567115889
 30
0.0
 10
104.0098442665323
 20
-150.1720567115889
 30
0.0
 10
103.3942057033181
 20
-150.1720567115889
 30
0.0
 10
103.3942057033181
 20
-150.1720567115889
 30
0.0
 10
103.3942057033181
 20
-150.1720567115889
 30
0.0
 10
103.3287488890984
 20
-150.5951144371776
 30
0.0
 10
103.3287488890984
 20
-150.5951144371776
 30
0.0
 10
103.3900715887358
 20
-150.5613525014222
 30
0.0
 10
103.4724093708333
 20
-150.5210448842448
 30
0.0
 10
103.5909206555259
 20
-150.5210448842448
 30
0.0
 10
103.8448241927888
 20
-150.5210448842448
 30
0.0
 10
104.081846762174
 20
-150.7074245499968
 30
0.0
 10
104.081846762174
 20
-151.020583729606
 30
0.0
 10
104.081846762174
 20
-151.3378770237975
 30
0.0
 10
103.8575710460842
 20
-151.572488026343
 30
0.0
 10
103.5550916624793
 20
-151.572488026343
 30
0.0
  0
HATCH
  5
E9
330
E2
100
AcDbEntity
  8
_U+30EC_U+30A4_U+30E4_U+30FC 1
 62
   179
420
  2234388
100
AcDbHatch
 10
0.0
 20
0.0
 30
0.0
210
0.0
220
0.0
230
1.0
  2
SOLID
 70
     1
 71
     0
 91
        1
 92
        1
 93
        1
 72
     4
 94
        3
 73
     0
 74
     1
 95
       53
 96
       49
 40
0.0
 40
0.0
 40
0.0
 40
0.0
 40
1.0
 40
1.0
 40
1.0
 40
2.0
 40
2.0
 40
2.0
 40
3.0
 40
3.0
 40
3.0
 40
4.0
 40
4.0
 40
4.0
 40
5.0
 40
5.0
 40
5.0
 40
6.0
 40
6.0
 40
6.0
 40
7.0
 40
7.0
 40
7.0
 40
8.0
 40
8.0
 40
8.0
 40
9.0
 40
9.0
 40
9.0
 40
10.0
 40
10.0
 40
10.0
 40
11.0
 40
11.0
 40
11.0
 40
12.0
 40
12.0
 40
12.0
 40
13.0
 40
13.0
 40
13.0
 40
14.0
 40
14.0
 40
14.0
 40
15.0
 40
15.0
 40
15.0
 40
16.0
 40
16.0
 40
16.0
 40
16.0
 10
103.5550916624793
 20
-151.572488026343
 10
103.4768879949641
 20
-151.572488026343
 10
103.3752576781492
 20
-151.5556070584653
 10
103.2736273613344
 20
-151.4922173015367
 10
103.1003390584263
 20
-151.3823187555572
 10
103.0789794664178
 20
-151.2510606175692
 10
103.0600314412489
 20
-151.1432291288809
 10
103.0600314412489
 20
-151.1432291288809
 10
103.2822401000475
 20
-151.1432291288809
 10
103.2822401000475
 20
-151.1432291288809
 10
103.337017118263
 20
-151.3420111383798
 10
103.4641411416687
 20
-151.3716389595529
 10
103.5571587197704
 20
-151.3716389595529
 10
103.6966850869231
 20
-151.3716389595529
 10
103.8489583073711
 20
-151.2720757000292
 10
103.8489583073711
 20
-151.0395317547749
 10
103.8489583073711
 20
-150.7835611602208
 10
103.6691243230411
 20
-150.7136257218702
 10
103.5485459810573
 20
-150.7136257218702
 10
103.516851102593
 20
-150.7136257218702
 10
103.3752576781492
 20
-150.7136257218702
 10
103.2863742146298
 20
-150.8428168025671
 10
103.2863742146298
 20
-150.8428168025671
 10
103.1106743448821
 20
-150.8238687773982
 10
103.1106743448821
 20
-150.8238687773982
 10
103.1106743448821
 20
-150.8238687773982
 10
103.2312526868658
 20
-149.9774088166723
 10
103.2312526868658
 20
-149.9774088166723
 10
103.2312526868658
 20
-149.9774088166723
 10
104.0098442665323
 20
-149.9774088166723
 10
104.0098442665323
 20
-149.9774088166723
 10
104.0098442665323
 20
-149.9774088166723
 10
104.0098442665323
 20
-150.1720567115889
 10
104.0098442665323
 20
-150.1720567115889
 10
104.0098442665323
 20
-150.1720567115889
 10
103.3942057033181
 20
-150.1720567115889
 10
103.3942057033181
 20
-150.1720567115889
 10
103.3942057033181
 20
-150.1720567115889
 10
103.3287488890984
 20
-150.5951144371776
 10
103.3287488890984
 20
-150.5951144371776
 10
103.3900715887358
 20
-150.5613525014222
 10
103.4724093708333
 20
-150.5210448842448
 10
103.5909206555259
 20
-150.5210448842448
 10
103.8448241927888
 20
-150.5210448842448
 10
104.081846762174
 20
-150.7074245499968
 10
104.081846762174
 20
-151.020583729606
 10
104.081846762174
 20
-151.3378770237975
 10
103.8575710460842
 20
-151.572488026343
 10
103.5550916624793
 20
-151.572488026343
 97
        0
 97
        0
 75
     2
 76
     1
 98
        0
  0
ENDBLK
  5
E5
330
E2
100
AcDbEntity
  8
0
100
AcDbBlockEnd
  0
BLOCK
  5
EC
330
EA
100
AcDbEntity
  8
0
100
AcDbBlockBegin
  2
block 7
 70
     0
 10
0.0
 20
0.0
 30
0.0
  3
block 7
  1

  0
SPLINE
  5
EE
330
EA
100
AcDbEntity
  8
_U+30EC_U+30A4_U+30E4_U+30FC 1
 62
   179
420
  2234388
370
    25
100
AcDbSpline
210
0.0
220
0.0
230
1.0
 70
     8
 71
     3
 72
     8
 73
     4
 74
     0
 42
0.0000000001
 43
0.0000000001
 12
1.0
 22
0.0
 32
0.0
 13
1.0
 23
0.0
 33
0.0
 40
0.0
 40
0.0
 40
0.0
 40
0.0
 40
1.0
 40
1.0
 40
1.0
 40
1.0
 10
65.48521999599951
 20
-118.2925271926491
 30
0.0
 10
65.4855727737683
 20
-134.861723299618
 30
0.0
 10
78.91698659777104
 20
-148.2927494073715
 30
0.0
 10
95.48565553168403
 20
-148.2927494073715
 30
0.0
  0
ENDBLK
  5
ED
330
EA
100
AcDbEntity
  8
0
100
AcDbBlockEnd
  0
BLOCK
  5
F1
330
EF
100
AcDbEntity
  8
0
100
AcDbBlockBegin
  2
block 8
 70
     0
 10
0.0
 20
0.0
 30
0.0
  3
block 8
  1

  0
SPLINE
  5
F3
330
EF
100
AcDbEntity
  8
_U+30EC_U+30A4_U+30E4_U+30FC 1
 62
   179
420
  2234388
370
    25
100
AcDbSpline
210
0.0
220
0.0
230
1.0
 70
     8
 71
     3
 72
     8
 73
     4
 74
     0
 42
0.0000000001
 43
0.0000000001
 12
1.0
 22
0.0
 32
0.0
 13
1.0
 23
0.0
 33
0.0
 40
0.0
 40
0.0
 40
0.0
 40
0.0
 40
1.0
 40
1.0
 40
1.0
 40
1.0
 10
66.51427274752398
 20
-119.4071991368149
 30
0.0
 10
67.08753662178768
 20
-134.5337457996998
 30
0.0
 10
79.2401310339714
 20
-146.688033852217
 30
0.0
 10
94.36734997640802
 20
-147.263379129851
 30
0.0
  0
ENDBLK
  5
F2
330
EF
100
AcDbEntity
  8
0
100
AcDbBlockEnd
  0
ENDSEC
  0
SECTION
  2
ENTITIES
  0
POLYLINE
  5
41
330
1F
100
AcDbEntity
  8
_U+30EC_U+30A4_U+30E4_U+30FC 1
 62
   179
420
  2234388
370
     9
100
AcDb2dPolyline
 66
     1
 10
0.0
 20
0.0
 30
0.0
  0
VERTEX
  5
42
330
41
100
AcDbEntity
  8
_U+30EC_U+30A4_U+30E4_U+30FC 1
 62
   179
420
  2234388
370
     9
100
AcDbVertex
100
AcDb2dVertex
 10
77.22922719638494
 20
-136.5704730214129
 30
0.0
  0
VERTEX
  5
43
330
41
100
AcDbEntity
  8
_U+30EC_U+30A4_U+30E4_U+30FC 1
 62
   179
420
  2234388
370
     9
100
AcDbVertex
100
AcDb2dVertex
 10
74.30985004864223
 20
-139.4898502429054
 30
0.0
  0
SEQEND
  5
44
330
41
100
AcDbEntity
  8
_U+30EC_U+30A4_U+30E4_U+30FC 1
 62
   179
420
  2234388
370
     9
  0
POLYLINE
  5
45
330
1F
100
AcDbEntity
  8
_U+30EC_U+30A4_U+30E4_U+30FC 1
 62
   179
420
  2234388
370
     9
100
AcDb2dPolyline
 66
     1
 10
0.0
 20
0.0
 30
0.0
  0
VERTEX
  5
46
330
45
100
AcDbEntity
  8
_U+30EC_U+30A4_U+30E4_U+30FC 1
 62
   179
420
  2234388
370
     9
100
AcDbVertex
100
AcDb2dVertex
 10
77.22922719638494
 20
-136.5704730214129
 30
0.0
  0
VERTEX
  5
47
330
45
100
AcDbEntity
  8
_U+30EC_U+30A4_U+30E4_U+30FC 1
 62
   179
420
  2234388
370
     9
100
AcDbVertex
100
AcDb2dVertex
 10
81.85700124498725
 20
-136.5704730214129
 30
0.0
  0
SEQEND
  5
48
330
45
100
AcDbEntity
  8
_U+30EC_U+30A4_U+30E4_U+30FC 1
 62
   179
420
  2234388
370
     9
  0
POLYLINE
  5
49
330
1F
100
AcDbEntity
  8
_U+30EC_U+30A4_U+30E4_U+30FC 1
 62
   179
420
  2234388
370
     9
100
AcDb2dPolyline
 66
     1
 10
0.0
 20
0.0
 30
0.0
  0
VERTEX
  5
4A
330
49
100
AcDbEntity
  8
_U+30EC_U+30A4_U+30E4_U+30FC 1
 62
   179
420
  2234388
370
     9
100
AcDbVertex
100
AcDb2dVertex
 10
75.34959196656065
 20
-138.8897046875
 30
0.0
  0
VERTEX
  5
4B
330
49
100
AcDbEntity
  8
_U+30EC_U+30A4_U+30E4_U+30FC 1
 62
   179
420
  2234388
370
     9
100
AcDbVertex
100
AcDb2dVertex
 10
74.30985004864223
 20
-139.4898502429054
 30
0.0
  0
SEQEND
  5
4C
330
49
100
AcDbEntity
  8
_U+30EC_U+30A4_U+30E4_U+30FC 1
 62
   179
420
  2234388
370
     9
  0
POLYLINE
  5
4D
330
1F
100
AcDbEntity
  8
_U+30EC_U+30A4_U+30E4_U+30FC 1
 62
   179
420
  2234388
370
     9
100
AcDb2dPolyline
 66
     1
 10
0.0
 20
0.0
 30
0.0
  0
VERTEX
  5
4E
330
4D
100
AcDbEntity
  8
_U+30EC_U+30A4_U+30E4_U+30FC 1
 62
   179
420
  2234388
370
     9
100
AcDbVertex
100
AcDb2dVertex
 10
74.9099955888868
 20
-138.4508138542764
 30
0.0
  0
VERTEX
  5
4F
330
4D
100
AcDbEntity
  8
_U+30EC_U+30A4_U+30E4_U+30FC 1
 62
   179
420
  2234388
370
     9
100
AcDbVertex
100
AcDb2dVertex
 10
74.30985004864223
 20
-139.4898502429054
 30
0.0
  0
SEQEND
  5
50
330
4D
100
AcDbEntity
  8
_U+30EC_U+30A4_U+30E4_U+30FC 1
 62
   179
420
  2234388
370
     9
  0
POLYLINE
  5
51
330
1F
100
AcDbEntity
  8
_U+30EC_U+30A4_U+30E4_U+30FC 1
 62
   179
420
  2234388
370
    25
100
AcDb2dPolyline
 66
     1
 10
0.0
 20
0.0
 30
0.0
  0
VERTEX
  5
52
330
51
100
AcDbEntity
  8
_U+30EC_U+30A4_U+30E4_U+30FC 1
 62
   179
420
  2234388
370
    25
100
AcDbVertex
100
AcDb2dVertex
 10
94.59679425330138
 20
-135.7932682993853
 30
0.0
  0
VERTEX
  5
53
330
51
100
AcDbEntity
  8
_U+30EC_U+30A4_U+30E4_U+30FC 1
 62
   179
420
  2234388
370
    25
100
AcDbVertex
100
AcDb2dVertex
 10
110.4862930145932
 20
-135.7932682993853
 30
0.0
  0
SEQEND
  5
54
330
51
100
AcDbEntity
  8
_U+30EC_U+30A4_U+30E4_U+30FC 1
 62
   179
420
  2234388
370
    25
  0
POLYLINE
  5
55
330
1F
100
AcDbEntity
  8
_U+30EC_U+30A4_U+30E4_U+30FC 1
 62
   179
420
  2234388
370
    25
100
AcDb2dPolyline
 66
     1
 10
0.0
 20
0.0
 30
0.0
  0
VERTEX
  5
56
330
55
100
AcDbEntity
  8
_U+30EC_U+30A4_U+30E4_U+30FC 1
 62
   179
420
  2234388
370
    25
100
AcDbVertex
100
AcDb2dVertex
 10
93.48611108773959
 20
-134.7927905218573
 30
0.0
  0
VERTEX
  5
57
330
55
100
AcDbEntity
  8
_U+30EC_U+30A4_U+30E4_U+30FC 1
 62
   179
420
  2234388
370
    25
100
AcDbVertex
100
AcDb2dVertex
 10
110.4862930145932
 20
-134.7927905218573
 30
0.0
  0
SEQEND
  5
58
330
55
100
AcDbEntity
  8
_U+30EC_U+30A4_U+30E4_U+30FC 1
 62
   179
420
  2234388
370
    25
  0
POLYLINE
  5
59
330
1F
100
AcDbEntity
  8
_U+30EC_U+30A4_U+30E4_U+30FC 1
 62
   179
420
  2234388
370
    25
100
AcDb2dPolyline
 66
     1
 10
0.0
 20
0.0
 30
0.0
  0
VERTEX
  5
5A
330
59
100
AcDbEntity
  8
_U+30EC_U+30A4_U+30E4_U+30FC 1
 62
   179
420
  2234388
370
    25
100
AcDbVertex
100
AcDb2dVertex
 10
110.4862930145932
 20
-134.7927905218573
 30
0.0
  0
VERTEX
  5
5B
330
59
100
AcDbEntity
  8
_U+30EC_U+30A4_U+30E4_U+30FC 1
 62
   179
420
  2234388
370
    25
100
AcDbVertex
100
AcDb2dVertex
 10
110.4862930145932
 20
-135.7932682993853
 30
0.0
  0
SEQEND
  5
5C
330
59
100
AcDbEntity
  8
_U+30EC_U+30A4_U+30E4_U+30FC 1
 62
   179
420
  2234388
370
    25
  0
POLYLINE
  5
5D
330
1F
100
AcDbEntity
  8
_U+30EC_U+30A4_U+30E4_U+30FC 1
 62
   179
420
  2234388
370
    25
100
AcDb2dPolyline
 66
     1
 10
0.0
 20
0.0
 30
0.0
  0
VERTEX
  5
5E
330
5D
100
AcDbEntity
  8
_U+30EC_U+30A4_U+30E4_U+30FC 1
 62
   179
420
  2234388
370
    25
100
AcDbVertex
100
AcDb2dVertex
 10
94.59679425330138
 20
-135.7932682993853
 30
0.0
  0
VERTEX
  5
5F
330
5D
100
AcDbEntity
  8
_U+30EC_U+30A4_U+30E4_U+30FC 1
 62
   179
420
  2234388
370
    25
100
AcDbVertex
100
AcDb2dVertex
 10
95.48565553168403
 20
-148.2927494073715
 30
0.0
  0
SEQEND
  5
60
330
5D
100
AcDbEntity
  8
_U+30EC_U+30A4_U+30E4_U+30FC 1
 62
   179
420
  2234388
370
    25
  0
POLYLINE
  5
61
330
1F
100
AcDbEntity
  8
_U+30EC_U+30A4_U+30E4_U+30FC 1
 62
   179
420
  2234388
370
    25
100
AcDb2dPolyline
 66
     1
 10
0.0
 20
0.0
 30
0.0
  0
VERTEX
  5
62
330
61
100
AcDbEntity
  8
_U+30EC_U+30A4_U+30E4_U+30FC 1
 62
   179
420
  2234388
370
    25
100
AcDbVertex
100
AcDb2dVertex
 10
93.48611108773959
 20
-134.7927905218573
 30
0.0
  0
VERTEX
  5
63
330
61
100
AcDbEntity
  8
_U+30EC_U+30A4_U+30E4_U+30FC 1
 62
   179
420
  2234388
370
    25
100
AcDbVertex
100
AcDb2dVertex
 10
94.37151037015997
 20
-147.260592185407
 30
0.0
  0
SEQEND
  5
64
330
61
100
AcDbEntity
  8
_U+30EC_U+30A4_U+30E4_U+30FC 1
 62
   179
420
  2234388
370
    25
  0
POLYLINE
  5
65
330
1F
100
AcDbEntity
  8
_U+30EC_U+30A4_U+30E4_U+30FC 1
 62
   179
420
  2234388
370
    25
100
AcDb2dPolyline
 66
     1
 10
0.0
 20
0.0
 30
0.0
  0
VERTEX
  5
66
330
65
100
AcDbEntity
  8
_U+30EC_U+30A4_U+30E4_U+30FC 1
 62
   179
420
  2234388
370
    25
100
AcDbVertex
100
AcDb2dVertex
 10
78.98518053580942
 20
-120.2927419143712
 30
0.0
  0
VERTEX
  5
67
330
65
100
AcDbEntity
  8
_U+30EC_U+30A4_U+30E4_U+30FC 1
 62
   179
420
  2234388
370
    25
100
AcDbVertex
100
AcDb2dVertex
 10
78.98518053580942
 20
-103.2927335852881
 30
0.0
  0
SEQEND
  5
68
330
65
100
AcDbEntity
  8
_U+30EC_U+30A4_U+30E4_U+30FC 1
 62
   179
420
  2234388
370
    25
  0
POLYLINE
  5
69
330
1F
100
AcDbEntity
  8
_U+30EC_U+30A4_U+30E4_U+30FC 1
 62
   179
420
  2234388
370
    25
100
AcDb2dPolyline
 66
     1
 10
0.0
 20
0.0
 30
0.0
  0
VERTEX
  5
6A
330
69
100
AcDbEntity
  8
_U+30EC_U+30A4_U+30E4_U+30FC 1
 62
   179
420
  2234388
370
    25
100
AcDbVertex
100
AcDb2dVertex
 10
78.98518053580942
 20
-103.2927335852881
 30
0.0
  0
VERTEX
  5
6B
330
69
100
AcDbEntity
  8
_U+30EC_U+30A4_U+30E4_U+30FC 1
 62
   179
420
  2234388
370
    25
100
AcDbVertex
100
AcDb2dVertex
 10
77.98576109161463
 20
-103.2927335852881
 30
0.0
  0
SEQEND
  5
6C
330
69
100
AcDbEntity
  8
_U+30EC_U+30A4_U+30E4_U+30FC 1
 62
   179
420
  2234388
370
    25
  0
POLYLINE
  5
6D
330
1F
100
AcDbEntity
  8
_U+30EC_U+30A4_U+30E4_U+30FC 1
 62
   179
420
  2234388
370
    25
100
AcDb2dPolyline
 66
     1
 10
0.0
 20
0.0
 30
0.0
  0
VERTEX
  5
6E
330
6D
100
AcDbEntity
  8
_U+30EC_U+30A4_U+30E4_U+30FC 1
 62
   179
420
  2234388
370
    25
100
AcDbVertex
100
AcDb2dVertex
 10
77.98576109161463
 20
-119.1817035813158
 30
0.0
  0
VERTEX
  5
6F
330
6D
100
AcDbEntity
  8
_U+30EC_U+30A4_U+30E4_U+30FC 1
 62
   179
420
  2234388
370
    25
100
AcDbVertex
100
AcDb2dVertex
 10
77.98576109161463
 20
-103.2927335852881
 30
0.0
  0
SEQEND
  5
70
330
6D
100
AcDbEntity
  8
_U+30EC_U+30A4_U+30E4_U+30FC 1
 62
   179
420
  2234388
370
    25
  0
POLYLINE
  5
71
330
1F
100
AcDbEntity
  8
_U+30EC_U+30A4_U+30E4_U+30FC 1
 62
   179
420
  2234388
370
    25
100
AcDb2dPolyline
 66
     1
 10
0.0
 20
0.0
 30
0.0
  0
VERTEX
  5
72
330
71
100
AcDbEntity
  8
_U+30EC_U+30A4_U+30E4_U+30FC 1
 62
   179
420
  2234388
370
    25
100
AcDbVertex
100
AcDb2dVertex
 10
77.98576109161463
 20
-119.1817035813158
 30
0.0
  0
VERTEX
  5
73
330
71
100
AcDbEntity
  8
_U+30EC_U+30A4_U+30E4_U+30FC 1
 62
   179
420
  2234388
370
    25
100
AcDbVertex
100
AcDb2dVertex
 10
65.48521999599951
 20
-118.2925271926491
 30
0.0
  0
SEQEND
  5
74
330
71
100
AcDbEntity
  8
_U+30EC_U+30A4_U+30E4_U+30FC 1
 62
   179
420
  2234388
370
    25
  0
POLYLINE
  5
75
330
1F
100
AcDbEntity
  8
_U+30EC_U+30A4_U+30E4_U+30FC 1
 62
   179
420
  2234388
370
    25
100
AcDb2dPolyline
 66
     1
 10
0.0
 20
0.0
 30
0.0
  0
VERTEX
  5
76
330
75
100
AcDbEntity
  8
_U+30EC_U+30A4_U+30E4_U+30FC 1
 62
   179
420
  2234388
370
    25
100
AcDbVertex
100
AcDb2dVertex
 10
78.98518053580942
 20
-120.2927419143712
 30
0.0
  0
VERTEX
  5
77
330
75
100
AcDbEntity
  8
_U+30EC_U+30A4_U+30E4_U+30FC 1
 62
   179
420
  2234388
370
    25
100
AcDbVertex
100
AcDb2dVertex
 10
66.51772996965799
 20
-119.407022747926
 30
0.0
  0
SEQEND
  5
78
330
75
100
AcDbEntity
  8
_U+30EC_U+30A4_U+30E4_U+30FC 1
 62
   179
420
  2234388
370
    25
  0
SPLINE
  5
79
330
1F
100
AcDbEntity
  8
_U+30EC_U+30A4_U+30E4_U+30FC 1
 62
   179
420
  2234388
370
     9
100
AcDbSpline
210
0.0
220
0.0
230
1.0
 70
    11
 71
     3
 72
    17
 73
    13
 74
     0
 42
0.0000000001
 43
0.0000000001
 12
1.0
 22
0.0
 32
0.0
 13
1.0
 23
0.0
 33
0.0
 40
0.0
 40
0.0
 40
0.0
 40
0.0
 40
1.0
 40
1.0
 40
1.0
 40
2.0
 40
2.0
 40
2.0
 40
3.0
 40
3.0
 40
3.0
 40
4.0
 40
4.0
 40
4.0
 40
4.0
 10
114.5859234655584
 20
-135.7932682993853
 30
0.0
 10
114.5859234655584
 20
-135.7381291327323
 30
0.0
 10
114.5411559667005
 20
-135.6933616327431
 30
0.0
 10
114.4860168014406
 20
-135.6933616327431
 30
0.0
 10
114.4309129139575
 20
-135.6933616327431
 30
0.0
 10
114.3861101373228
 20
-135.7381291327323
 30
0.0
 10
114.3861101373228
 20
-135.7932682993853
 30
0.0
 10
114.3861101373228
 20
-135.8483721882602
 30
0.0
 10
114.4309129139575
 20
-135.893174966027
 30
0.0
 10
114.4860168014406
 20
-135.893174966027
 30
0.0
 10
114.5411559667005
 20
-135.893174966027
 30
0.0
 10
114.5859234655584
 20
-135.8483721882602
 30
0.0
 10
114.5859234655584
 20
-135.7932682993853
 30
0.0
  0
SPLINE
  5
7A
330
1F
100
AcDbEntity
  8
_U+30EC_U+30A4_U+30E4_U+30FC 1
 62
   179
420
  2234388
370
     9
100
AcDbSpline
210
0.0
220
0.0
230
1.0
 70
    11
 71
     3
 72
    17
 73
    13
 74
     0
 42
0.0000000001
 43
0.0000000001
 12
1.0
 22
0.0
 32
0.0
 13
1.0
 23
0.0
 33
0.0
 40
0.0
 40
0.0
 40
0.0
 40
0.0
 40
1.0
 40
1.0
 40
1.0
 40
2.0
 40
2.0
 40
2.0
 40
3.0
 40
3.0
 40
3.0
 40
4.0
 40
4.0
 40
4.0
 40
4.0
 10
114.5859234655584
 20
-134.7927905218573
 30
0.0
 10
114.5859234655584
 20
-134.7376866329824
 30
0.0
 10
114.5411559667005
 20
-134.6928838552156
 30
0.0
 10
114.4860168014406
 20
-134.6928838552156
 30
0.0
 10
114.4309129139575
 20
-134.6928838552156
 30
0.0
 10
114.3861101373228
 20
-134.7376866329824
 30
0.0
 10
114.3861101373228
 20
-134.7927905218573
 30
0.0
 10
114.3861101373228
 20
-134.8479296885104
 30
0.0
 10
114.4309129139575
 20
-134.8926971884989
 30
0.0
 10
114.4860168014406
 20
-134.8926971884989
 30
0.0
 10
114.5411559667005
 20
-134.8926971884989
 30
0.0
 10
114.5859234655584
 20
-134.8479296885104
 30
0.0
 10
114.5859234655584
 20
-134.7927905218573
 30
0.0
  0
SPLINE
  5
7B
330
1F
100
AcDbEntity
  8
_U+30EC_U+30A4_U+30E4_U+30FC 1
 62
   179
420
  2234388
370
     9
100
AcDbSpline
210
0.0
220
0.0
230
1.0
 70
    11
 71
     3
 72
    17
 73
    13
 74
     0
 42
0.0000000001
 43
0.0000000001
 12
1.0
 22
0.0
 32
0.0
 13
1.0
 23
0.0
 33
0.0
 40
0.0
 40
0.0
 40
0.0
 40
0.0
 40
1.0
 40
1.0
 40
1.0
 40
2.0
 40
2.0
 40
2.0
 40
3.0
 40
3.0
 40
3.0
 40
4.0
 40
4.0
 40
4.0
 40
4.0
 10
114.5859234655584
 20
-148.2927494073715
 30
0.0
 10
114.5859234655584
 20
-148.237645518496
 30
0.0
 10
114.5411559667005
 20
-148.1928427407292
 30
0.0
 10
114.4860168014406
 20
-148.1928427407292
 30
0.0
 10
114.4309129139575
 20
-148.1928427407292
 30
0.0
 10
114.3861101373228
 20
-148.237645518496
 30
0.0
 10
114.3861101373228
 20
-148.2927494073715
 30
0.0
 10
114.3861101373228
 20
-148.348558851802
 30
0.0
 10
114.4309129139575
 20
-148.3933616295681
 30
0.0
 10
114.4860168014406
 20
-148.3933616295681
 30
0.0
 10
114.5411559667005
 20
-148.3933616295681
 30
0.0
 10
114.5859234655584
 20
-148.348558851802
 30
0.0
 10
114.5859234655584
 20
-148.2927494073715
 30
0.0
  0
SPLINE
  5
7C
330
1F
100
AcDbEntity
  8
_U+30EC_U+30A4_U+30E4_U+30FC 1
 62
   179
420
  2234388
370
     9
100
AcDbSpline
210
0.0
220
0.0
230
1.0
 70
    11
 71
     3
 72
    17
 73
    13
 74
     0
 42
0.0000000001
 43
0.0000000001
 12
1.0
 22
0.0
 32
0.0
 13
1.0
 23
0.0
 33
0.0
 40
0.0
 40
0.0
 40
0.0
 40
0.0
 40
1.0
 40
1.0
 40
1.0
 40
2.0
 40
2.0
 40
2.0
 40
3.0
 40
3.0
 40
3.0
 40
4.0
 40
4.0
 40
4.0
 40
4.0
 10
78.08566578564648
 20
-112.6210246940671
 30
0.0
 10
78.08566578564648
 20
-112.5659208051918
 30
0.0
 10
78.04089828678859
 20
-112.5211180274254
 30
0.0
 10
77.98576109161463
 20
-112.5211180274254
 30
0.0
 10
77.93030245627679
 20
-112.5211180274254
 30
0.0
 10
77.88549967964202
 20
-112.5659208051918
 30
0.0
 10
77.88549967964202
 20
-112.6210246940671
 30
0.0
 10
77.88549967964202
 20
-112.6763402496087
 30
0.0
 10
77.93030245627679
 20
-112.7211077495976
 30
0.0
 10
77.98576109161463
 20
-112.7211077495976
 30
0.0
 10
78.04089828678859
 20
-112.7211077495976
 30
0.0
 10
78.08566578564648
 20
-112.6763402496087
 30
0.0
 10
78.08566578564648
 20
-112.6210246940671
 30
0.0
  0
SPLINE
  5
7D
330
1F
100
AcDbEntity
  8
_U+30EC_U+30A4_U+30E4_U+30FC 1
 62
   179
420
  2234388
370
     9
100
AcDbSpline
210
0.0
220
0.0
230
1.0
 70
    11
 71
     3
 72
    17
 73
    13
 74
     0
 42
0.0000000001
 43
0.0000000001
 12
1.0
 22
0.0
 32
0.0
 13
1.0
 23
0.0
 33
0.0
 40
0.0
 40
0.0
 40
0.0
 40
0.0
 40
1.0
 40
1.0
 40
1.0
 40
2.0
 40
2.0
 40
2.0
 40
3.0
 40
3.0
 40
3.0
 40
4.0
 40
4.0
 40
4.0
 40
4.0
 10
65.58512666011735
 20
-112.6210246940671
 30
0.0
 10
65.58512666011735
 20
-112.5659208051918
 30
0.0
 10
65.54035916125947
 20
-112.5211180274254
 30
0.0
 10
65.48521999599951
 20
-112.5211180274254
 30
0.0
 10
65.42976333074768
 20
-112.5211180274254
 30
0.0
 10
65.38499583188978
 20
-112.5659208051918
 30
0.0
 10
65.38499583188978
 20
-112.6210246940671
 30
0.0
 10
65.38499583188978
 20
-112.6763402496087
 30
0.0
 10
65.42976333074768
 20
-112.7211077495976
 30
0.0
 10
65.48521999599951
 20
-112.7211077495976
 30
0.0
 10
65.54035916125947
 20
-112.7211077495976
 30
0.0
 10
65.58512666011735
 20
-112.6763402496087
 30
0.0
 10
65.58512666011735
 20
-112.6210246940671
 30
0.0
  0
SPLINE
  5
7E
330
1F
100
AcDbEntity
  8
_U+30EC_U+30A4_U+30E4_U+30FC 1
 62
   179
420
  2234388
370
     9
100
AcDbSpline
210
0.0
220
0.0
230
1.0
 70
    11
 71
     3
 72
    17
 73
    13
 74
     0
 42
0.0000000001
 43
0.0000000001
 12
1.0
 22
0.0
 32
0.0
 13
1.0
 23
0.0
 33
0.0
 40
0.0
 40
0.0
 40
0.0
 40
0.0
 40
1.0
 40
1.0
 40
1.0
 40
2.0
 40
2.0
 40
2.0
 40
3.0
 40
3.0
 40
3.0
 40
4.0
 40
4.0
 40
4.0
 40
4.0
 10
110.586199678711
 20
-152.2932141285933
 30
0.0
 10
110.586199678711
 20
-152.2380749619402
 30
0.0
 10
110.5413969020762
 20
-152.1933074619517
 30
0.0
 10
110.4862930145932
 20
-152.1933074619517
 30
0.0
 10
110.4311538493332
 20
-152.1933074619517
 30
0.0
 10
110.3863863504753
 20
-152.2380749619402
 30
0.0
 10
110.3863863504753
 20
-152.2932141285933
 30
0.0
 10
110.3863863504753
 20
-152.3483180174682
 30
0.0
 10
110.4311538493332
 20
-152.3931207952349
 30
0.0
 10
110.4862930145932
 20
-152.3931207952349
 30
0.0
 10
110.5413969020762
 20
-152.3931207952349
 30
0.0
 10
110.586199678711
 20
-152.3483180174682
 30
0.0
 10
110.586199678711
 20
-152.2932141285933
 30
0.0
  0
SPLINE
  5
7F
330
1F
100
AcDbEntity
  8
_U+30EC_U+30A4_U+30E4_U+30FC 1
 62
   179
420
  2234388
370
     9
100
AcDbSpline
210
0.0
220
0.0
230
1.0
 70
    11
 71
     3
 72
    17
 73
    13
 74
     0
 42
0.0000000001
 43
0.0000000001
 12
1.0
 22
0.0
 32
0.0
 13
1.0
 23
0.0
 33
0.0
 40
0.0
 40
0.0
 40
0.0
 40
0.0
 40
1.0
 40
1.0
 40
1.0
 40
2.0
 40
2.0
 40
2.0
 40
3.0
 40
3.0
 40
3.0
 40
4.0
 40
4.0
 40
4.0
 40
4.0
 10
95.58555978363142
 20
-152.2932141285933
 30
0.0
 10
95.58555978363142
 20
-152.2380749619402
 30
0.0
 10
95.54075700699667
 20
-152.1933074619517
 30
0.0
 10
95.48565553168403
 20
-152.1933074619517
 30
0.0
 10
95.43051395425364
 20
-152.1933074619517
 30
0.0
 10
95.38574645539576
 20
-152.2380749619402
 30
0.0
 10
95.38574645539576
 20
-152.2932141285933
 30
0.0
 10
95.38574645539576
 20
-152.3483180174682
 30
0.0
 10
95.43051395425364
 20
-152.3931207952349
 30
0.0
 10
95.48565553168403
 20
-152.3931207952349
 30
0.0
 10
95.54075700699667
 20
-152.3931207952349
 30
0.0
 10
95.58555978363142
 20
-152.3483180174682
 30
0.0
 10
95.58555978363142
 20
-152.2932141285933
 30
0.0
  0
INSERT
  5
81
330
1F
100
AcDbEntity
  8
_U+30EC_U+30A4_U+30E4_U+30FC 1
100
AcDbBlockReference
  2
block 2
 10
0.0
 20
0.0
 30
0.0
  0
POLYLINE
  5
8C
330
1F
100
AcDbEntity
  8
_U+30EC_U+30A4_U+30E4_U+30FC 1
 62
   179
420
  2234388
370
     9
100
AcDb2dPolyline
 66
     1
 10
0.0
 20
0.0
 30
0.0
  0
VERTEX
  5
8D
330
8C
100
AcDbEntity
  8
_U+30EC_U+30A4_U+30E4_U+30FC 1
 62
   179
420
  2234388
370
     9
100
AcDbVertex
100
AcDb2dVertex
 10
114.4860168014406
 20
-134.7927905218573
 30
0.0
  0
VERTEX
  5
8E
330
8C
100
AcDbEntity
  8
_U+30EC_U+30A4_U+30E4_U+30FC 1
 62
   179
420
  2234388
370
     9
100
AcDbVertex
100
AcDb2dVertex
 10
114.4860168014406
 20
-132.0229558003279
 30
0.0
  0
SEQEND
  5
8F
330
8C
100
AcDbEntity
  8
_U+30EC_U+30A4_U+30E4_U+30FC 1
 62
   179
420
  2234388
370
     9
  0
POLYLINE
  5
90
330
1F
100
AcDbEntity
  8
_U+30EC_U+30A4_U+30E4_U+30FC 1
 62
   179
420
  2234388
370
     9
100
AcDb2dPolyline
 66
     1
 10
0.0
 20
0.0
 30
0.0
  0
VERTEX
  5
91
330
90
100
AcDbEntity
  8
_U+30EC_U+30A4_U+30E4_U+30FC 1
 62
   179
420
  2234388
370
     9
100
AcDbVertex
100
AcDb2dVertex
 10
114.4860168014406
 20
-135.7932682993853
 30
0.0
  0
VERTEX
  5
92
330
90
100
AcDbEntity
  8
_U+30EC_U+30A4_U+30E4_U+30FC 1
 62
   179
420
  2234388
370
     9
100
AcDbVertex
100
AcDb2dVertex
 10
114.4860168014406
 20
-134.7927905218573
 30
0.0
  0
SEQEND
  5
93
330
90
100
AcDbEntity
  8
_U+30EC_U+30A4_U+30E4_U+30FC 1
 62
   179
420
  2234388
370
     9
  0
POLYLINE
  5
94
330
1F
100
AcDbEntity
  8
_U+30EC_U+30A4_U+30E4_U+30FC 1
 62
   179
420
  2234388
370
     9
100
AcDb2dPolyline
 66
     1
 10
0.0
 20
0.0
 30
0.0
  0
VERTEX
  5
95
330
94
100
AcDbEntity
  8
_U+30EC_U+30A4_U+30E4_U+30FC 1
 62
   179
420
  2234388
370
     9
100
AcDbVertex
100
AcDb2dVertex
 10
113.0260107275773
 20
-135.7932682993853
 30
0.0
  0
VERTEX
  5
96
330
94
100
AcDbEntity
  8
_U+30EC_U+30A4_U+30E4_U+30FC 1
 62
   179
420
  2234388
370
     9
100
AcDbVertex
100
AcDb2dVertex
 10
115.4864945536941
 20
-135.7932682993853
 30
0.0
  0
SEQEND
  5
97
330
94
100
AcDbEntity
  8
_U+30EC_U+30A4_U+30E4_U+30FC 1
 62
   179
420
  2234388
370
     9
  0
POLYLINE
  5
98
330
1F
100
AcDbEntity
  8
_U+30EC_U+30A4_U+30E4_U+30FC 1
 62
   179
420
  2234388
370
     9
100
AcDb2dPolyline
 66
     1
 10
0.0
 20
0.0
 30
0.0
  0
VERTEX
  5
99
330
98
100
AcDbEntity
  8
_U+30EC_U+30A4_U+30E4_U+30FC 1
 62
   179
420
  2234388
370
     9
100
AcDbVertex
100
AcDb2dVertex
 10
113.0260107275773
 20
-134.7927905218573
 30
0.0
  0
VERTEX
  5
9A
330
98
100
AcDbEntity
  8
_U+30EC_U+30A4_U+30E4_U+30FC 1
 62
   179
420
  2234388
370
     9
100
AcDbVertex
100
AcDb2dVertex
 10
115.4864945536941
 20
-134.7927905218573
 30
0.0
  0
SEQEND
  5
9B
330
98
100
AcDbEntity
  8
_U+30EC_U+30A4_U+30E4_U+30FC 1
 62
   179
420
  2234388
370
     9
  0
INSERT
  5
9D
330
1F
100
AcDbEntity
  8
_U+30EC_U+30A4_U+30E4_U+30FC 1
100
AcDbBlockReference
  2
block 3
 10
0.0
 20
0.0
 30
0.0
  0
POLYLINE
  5
A2
330
1F
100
AcDbEntity
  8
_U+30EC_U+30A4_U+30E4_U+30FC 1
 62
   179
420
  2234388
370
     9
100
AcDb2dPolyline
 66
     1
 10
0.0
 20
0.0
 30
0.0
  0
VERTEX
  5
A3
330
A2
100
AcDbEntity
  8
_U+30EC_U+30A4_U+30E4_U+30FC 1
 62
   179
420
  2234388
370
     9
100
AcDbVertex
100
AcDb2dVertex
 10
114.4860168014406
 20
-135.7932682993853
 30
0.0
  0
VERTEX
  5
A4
330
A2
100
AcDbEntity
  8
_U+30EC_U+30A4_U+30E4_U+30FC 1
 62
   179
420
  2234388
370
     9
100
AcDbVertex
100
AcDb2dVertex
 10
114.4860168014406
 20
-148.2927494073715
 30
0.0
  0
SEQEND
  5
A5
330
A2
100
AcDbEntity
  8
_U+30EC_U+30A4_U+30E4_U+30FC 1
 62
   179
420
  2234388
370
     9
  0
POLYLINE
  5
A6
330
1F
100
AcDbEntity
  8
_U+30EC_U+30A4_U+30E4_U+30FC 1
 62
   179
420
  2234388
370
     9
100
AcDb2dPolyline
 66
     1
 10
0.0
 20
0.0
 30
0.0
  0
VERTEX
  5
A7
330
A6
100
AcDbEntity
  8
_U+30EC_U+30A4_U+30E4_U+30FC 1
 62
   179
420
  2234388
370
     9
100
AcDbVertex
100
AcDb2dVertex
 10
98.02537083249777
 20
-148.2927494073715
 30
0.0
  0
VERTEX
  5
A8
330
A6
100
AcDbEntity
  8
_U+30EC_U+30A4_U+30E4_U+30FC 1
 62
   179
420
  2234388
370
     9
100
AcDbVertex
100
AcDb2dVertex
 10
115.4864945536941
 20
-148.2927494073715
 30
0.0
  0
SEQEND
  5
A9
330
A6
100
AcDbEntity
  8
_U+30EC_U+30A4_U+30E4_U+30FC 1
 62
   179
420
  2234388
370
     9
  0
INSERT
  5
AB
330
1F
100
AcDbEntity
  8
_U+30EC_U+30A4_U+30E4_U+30FC 1
100
AcDbBlockReference
  2
block 4
 10
0.0
 20
0.0
 30
0.0
  0
POLYLINE
  5
BC
330
1F
100
AcDbEntity
  8
_U+30EC_U+30A4_U+30E4_U+30FC 1
 62
   179
420
  2234388
370
     9
100
AcDb2dPolyline
 66
     1
 10
0.0
 20
0.0
 30
0.0
  0
VERTEX
  5
BD
330
BC
100
AcDbEntity
  8
_U+30EC_U+30A4_U+30E4_U+30FC 1
 62
   179
420
  2234388
370
     9
100
AcDbVertex
100
AcDb2dVertex
 10
65.48521999599951
 20
-112.6210246940671
 30
0.0
  0
VERTEX
  5
BE
330
BC
100
AcDbEntity
  8
_U+30EC_U+30A4_U+30E4_U+30FC 1
 62
   179
420
  2234388
370
     9
100
AcDbVertex
100
AcDb2dVertex
 10
77.98576109161463
 20
-112.6210246940671
 30
0.0
  0
SEQEND
  5
BF
330
BC
100
AcDbEntity
  8
_U+30EC_U+30A4_U+30E4_U+30FC 1
 62
   179
420
  2234388
370
     9
  0
POLYLINE
  5
C0
330
1F
100
AcDbEntity
  8
_U+30EC_U+30A4_U+30E4_U+30FC 1
 62
   179
420
  2234388
370
     9
100
AcDb2dPolyline
 66
     1
 10
0.0
 20
0.0
 30
0.0
  0
VERTEX
  5
C1
330
C0
100
AcDbEntity
  8
_U+30EC_U+30A4_U+30E4_U+30FC 1
 62
   179
420
  2234388
370
     9
100
AcDbVertex
100
AcDb2dVertex
 10
65.48521999599951
 20
-115.7528094155062
 30
0.0
  0
VERTEX
  5
C2
330
C0
100
AcDbEntity
  8
_U+30EC_U+30A4_U+30E4_U+30FC 1
 62
   179
420
  2234388
370
     9
100
AcDbVertex
100
AcDb2dVertex
 10
65.48521999599951
 20
-111.6211113609835
 30
0.0
  0
SEQEND
  5
C3
330
C0
100
AcDbEntity
  8
_U+30EC_U+30A4_U+30E4_U+30FC 1
 62
   179
420
  2234388
370
     9
  0
INSERT
  5
C5
330
1F
100
AcDbEntity
  8
_U+30EC_U+30A4_U+30E4_U+30FC 1
100
AcDbBlockReference
  2
block 5
 10
0.0
 20
0.0
 30
0.0
  0
POLYLINE
  5
D6
330
1F
100
AcDbEntity
  8
_U+30EC_U+30A4_U+30E4_U+30FC 1
 62
   179
420
  2234388
370
     9
100
AcDb2dPolyline
 66
     1
 10
0.0
 20
0.0
 30
0.0
  0
VERTEX
  5
D7
330
D6
100
AcDbEntity
  8
_U+30EC_U+30A4_U+30E4_U+30FC 1
 62
   179
420
  2234388
370
     9
100
AcDbVertex
100
AcDb2dVertex
 10
95.48565553168403
 20
-152.2932141285933
 30
0.0
  0
VERTEX
  5
D8
330
D6
100
AcDbEntity
  8
_U+30EC_U+30A4_U+30E4_U+30FC 1
 62
   179
420
  2234388
370
     9
100
AcDbVertex
100
AcDb2dVertex
 10
110.4862930145932
 20
-152.2932141285933
 30
0.0
  0
SEQEND
  5
D9
330
D6
100
AcDbEntity
  8
_U+30EC_U+30A4_U+30E4_U+30FC 1
 62
   179
420
  2234388
370
     9
  0
POLYLINE
  5
DA
330
1F
100
AcDbEntity
  8
_U+30EC_U+30A4_U+30E4_U+30FC 1
 62
   179
420
  2234388
370
     9
100
AcDb2dPolyline
 66
     1
 10
0.0
 20
0.0
 30
0.0
  0
VERTEX
  5
DB
330
DA
100
AcDbEntity
  8
_U+30EC_U+30A4_U+30E4_U+30FC 1
 62
   179
420
  2234388
370
     9
100
AcDbVertex
100
AcDb2dVertex
 10
95.48565553168403
 20
-150.8331727400696
 30
0.0
  0
VERTEX
  5
DC
330
DA
100
AcDbEntity
  8
_U+30EC_U+30A4_U+30E4_U+30FC 1
 62
   179
420
  2234388
370
     9
100
AcDbVertex
100
AcDb2dVertex
 10
95.48565553168403
 20
-153.2929863505659
 30
0.0
  0
SEQEND
  5
DD
330
DA
100
AcDbEntity
  8
_U+30EC_U+30A4_U+30E4_U+30FC 1
 62
   179
420
  2234388
370
     9
  0
POLYLINE
  5
DE
330
1F
100
AcDbEntity
  8
_U+30EC_U+30A4_U+30E4_U+30FC 1
 62
   179
420
  2234388
370
     9
100
AcDb2dPolyline
 66
     1
 10
0.0
 20
0.0
 30
0.0
  0
VERTEX
  5
DF
330
DE
100
AcDbEntity
  8
_U+30EC_U+30A4_U+30E4_U+30FC 1
 62
   179
420
  2234388
370
     9
100
AcDbVertex
100
AcDb2dVertex
 10
110.4862930145932
 20
-138.3329860765279
 30
0.0
  0
VERTEX
  5
E0
330
DE
100
AcDbEntity
  8
_U+30EC_U+30A4_U+30E4_U+30FC 1
 62
   179
420
  2234388
370
     9
100
AcDbVertex
100
AcDb2dVertex
 10
110.4862930145932
 20
-153.2929863505659
 30
0.0
  0
SEQEND
  5
E1
330
DE
100
AcDbEntity
  8
_U+30EC_U+30A4_U+30E4_U+30FC 1
 62
   179
420
  2234388
370
     9
  0
INSERT
  5
E3
330
1F
100
AcDbEntity
  8
_U+30EC_U+30A4_U+30E4_U+30FC 1
100
AcDbBlockReference
  2
block 6
 10
0.0
 20
0.0
 30
0.0
  0
INSERT
  5
EB
330
1F
100
AcDbEntity
  8
_U+30EC_U+30A4_U+30E4_U+30FC 1
100
AcDbBlockReference
  2
block 7
 10
0.0
 20
0.0
 30
0.0
  0
INSERT
  5
F0
330
1F
100
AcDbEntity
  8
_U+30EC_U+30A4_U+30E4_U+30FC 1
100
AcDbBlockReference
  2
block 8
 10
0.0
 20
0.0
 30
0.0
  0
ENDSEC
  0
SECTION
  2
OBJECTS
  0
DICTIONARY
  5
C
330
0
100
AcDbDictionary
281
     1
  3
ACAD_GROUP
350
D
  3
ACAD_LAYOUT
350
1A
  3
ACAD_MATERIAL
350
3B
  3
ACAD_MLEADERSTYLE
350
F5
  3
ACAD_MLINESTYLE
350
17
  3
ACAD_PLOTSETTINGS
350
19
  3
ACAD_PLOTSTYLENAME
350
E
  3
ACAD_TABLESTYLE
350
F4
  3
ACAD_VISUALSTYLE
350
2A
  0
SUN
  5
3F
330
29
100
AcDbSun
 90
        1
290
     0
 63
     7
421
 16777215
 40
1.0
291
     1
 91
  2455826
 92
 54000000
292
     0
 70
     2
 71
   256
280
     1
  0
DICTIONARY
  5
D
102
{ACAD_REACTORS
330
C
102
}
330
C
100
AcDbDictionary
281
     1
  0
DICTIONARY
  5
1A
102
{ACAD_REACTORS
330
C
102
}
330
C
100
AcDbDictionary
281
     1
  3
Layout1
350
1E
  3
Layout2
350
26
  3
Model
350
22
  0
DICTIONARY
  5
3B
102
{ACAD_REACTORS
330
C
102
}
330
C
100
AcDbDictionary
281
     1
  3
ByBlock
350
3D
  3
ByLayer
350
3C
  3
Global
350
3E
  0
DICTIONARY
  5
F5
102
{ACAD_REACTORS
330
C
102
}
330
C
100
AcDbDictionary
281
     1
  0
DICTIONARY
  5
17
102
{ACAD_REACTORS
330
C
102
}
330
C
100
AcDbDictionary
281
     1
  3
Standard
350
18
  0
DICTIONARY
  5
19
102
{ACAD_REACTORS
330
C
102
}
330
C
100
AcDbDictionary
281
     1
  0
ACDBDICTIONARYWDFLT
  5
E
102
{ACAD_REACTORS
330
C
102
}
330
C
100
AcDbDictionary
281
     1
  3
Normal
350
F
100
AcDbDictionaryWithDefault
340
F
  0
DICTIONARY
  5
F4
102
{ACAD_REACTORS
330
C
102
}
330
C
100
AcDbDictionary
281
     1
  0
DICTIONARY
  5
2A
102
{ACAD_REACTORS
330
C
102
}
330
C
100
AcDbDictionary
281
     1
  3
2dWireframe
350
2F
  3
3D Hidden
350
31
  3
3dWireframe
350
30
  3
Basic
350
32
  3
Brighten
350
36
  3
ColorChange
350
3A
  3
Conceptual
350
34
  3
Dim
350
35
  3
Facepattern
350
39
  3
Flat
350
2B
  3
FlatWithEdges
350
2C
  3
Gouraud
350
2D
  3
GouraudWithEdges
350
2E
  3
Linepattern
350
38
  3
Realistic
350
33
  3
Thicken
350
37
  0
LAYOUT
  5
1E
102
{ACAD_REACTORS
330
1A
102
}
330
1A
100
AcDbPlotSettings
  1

  2
none_device
  4

  6

 40
0.0
 41
0.0
 42
0.0
 43
0.0
 44
0.0
 45
0.0
 46
0.0
 47
0.0
 48
0.0
 49
0.0
140
0.0
141
0.0
142
1.0
143
1.0
 70
   688
 72
     0
 73
     0
 74
     5
  7

 75
    16
 76
     0
 77
     2
 78
   300
147
1.0
148
0.0
149
0.0
100
AcDbLayout
  1
Layout1
 70
     1
 71
     1
 10
0.0
 20
0.0
 11
12.0
 21
9.0
 12
0.0
 22
0.0
 32
0.0
 14
1.000000000000000E+20
 24
1.000000000000000E+20
 34
1.000000000000000E+20
 15
-1.000000000000000E+20
 25
-1.000000000000000E+20
 35
-1.000000000000000E+20
146
0.0
 13
0.0
 23
0.0
 33
0.0
 16
1.0
 26
0.0
 36
0.0
 17
0.0
 27
1.0
 37
0.0
 76
     0
330
1B
  0
LAYOUT
  5
26
102
{ACAD_REACTORS
330
1A
102
}
330
1A
100
AcDbPlotSettings
  1

  2
none_device
  4

  6

 40
0.0
 41
0.0
 42
0.0
 43
0.0
 44
0.0
 45
0.0
 46
0.0
 47
0.0
 48
0.0
 49
0.0
140
0.0
141
0.0
142
1.0
143
1.0
 70
   688
 72
     0
 73
     0
 74
     5
  7

 75
    16
 76
     0
 77
     2
 78
   300
147
1.0
148
0.0
149
0.0
100
AcDbLayout
  1
Layout2
 70
     1
 71
     2
 10
0.0
 20
0.0
 11
0.0
 21
0.0
 12
0.0
 22
0.0
 32
0.0
 14
0.0
 24
0.0
 34
0.0
 15
0.0
 25
0.0
 35
0.0
146
0.0
 13
0.0
 23
0.0
 33
0.0
 16
1.0
 26
0.0
 36
0.0
 17
0.0
 27
1.0
 37
0.0
 76
     0
330
23
  0
LAYOUT
  5
22
102
{ACAD_REACTORS
330
1A
102
}
330
1A
100
AcDbPlotSettings
  1

  2
none_device
  4

  6

 40
0.0
 41
0.0
 42
0.0
 43
0.0
 44
0.0
 45
0.0
 46
0.0
 47
0.0
 48
0.0
 49
0.0
140
0.0
141
0.0
142
1.0
143
1.0
 70
  1712
 72
     0
 73
     0
 74
     0
  7

 75
     0
 76
     0
 77
     2
 78
   300
147
1.0
148
0.0
149
0.0
100
AcDbLayout
  1
Model
 70
     1
 71
     0
 10
0.0
 20
0.0
 11
12.0
 21
9.0
 12
0.0
 22
0.0
 32
0.0
 14
1.000000000000000E+20
 24
1.000000000000000E+20
 34
1.000000000000000E+20
 15
-1.000000000000000E+20
 25
-1.000000000000000E+20
 35
-1.000000000000000E+20
146
0.0
 13
0.0
 23
0.0
 33
0.0
 16
1.0
 26
0.0
 36
0.0
 17
0.0
 27
1.0
 37
0.0
 76
     0
330
1F
331
29
  0
MATERIAL
  5
3D
102
{ACAD_REACTORS
330
3B
102
}
330
3B
100
AcDbMaterial
  1
ByBlock
 72
     1
 94
      127
  0
MATERIAL
  5
3C
102
{ACAD_REACTORS
330
3B
102
}
330
3B
100
AcDbMaterial
  1
ByLayer
 72
     1
 94
      127
  0
MATERIAL
  5
3E
102
{ACAD_REACTORS
330
3B
102
}
330
3B
100
AcDbMaterial
  1
Global
 72
     1
 94
      127
  0
MLINESTYLE
  5
18
102
{ACAD_REACTORS
330
17
102
}
330
17
100
AcDbMlineStyle
  2
Standard
 70
     0
  3

 62
   256
 51
90.0
 52
90.0
 71
     2
 49
0.5
 62
   256
  6
BYLAYER
 49
-0.5
 62
   256
  6
BYLAYER
  0
ACDBPLACEHOLDER
  5
F
102
{ACAD_REACTORS
330
E
102
}
330
E
  0
VISUALSTYLE
  5
2F
102
{ACAD_REACTORS
330
2A
102
}
330
2A
100
AcDbVisualStyle
  2
2dWireframe
 70
     4
177
     2
291
     0
 71
     0
176
     1
 72
     2
176
     1
 73
     0
176
     1
 90
        0
176
     1
 40
-0.6
176
     1
 41
-30.0
176
     1
 62
     5
 63
     7
421
 16777215
176
     1
 74
     1
176
     1
 91
        4
176
     1
 64
     7
176
     1
 65
   257
176
     1
 75
     1
176
     1
175
     1
176
     1
 42
1.0
176
     1
 92
        0
176
     1
 66
   257
176
     1
 43
1.0
176
     1
 76
     1
176
     1
 77
     6
176
     1
 78
     2
176
     1
 67
     7
176
     1
 79
     5
176
     1
170
     0
176
     1
171
     0
176
     1
290
     0
176
     1
 93
        1
176
     1
 44
0.0
176
     1
173
     0
176
     1
  0
VISUALSTYLE
  5
31
102
{ACAD_REACTORS
330
2A
102
}
330
2A
100
AcDbVisualStyle
  2
3D Hidden
 70
     6
177
     2
291
     0
 71
     1
176
     1
 72
     2
176
     1
 73
     2
176
     1
 90
        0
176
     1
 40
-0.6
176
     1
 41
-30.0
176
     1
 62
     5
 63
     7
421
 16777215
176
     1
 74
     2
176
     1
 91
        2
176
     1
 64
     7
176
     1
 65
   257
176
     1
 75
     2
176
     1
175
     1
176
     1
 42
40.0
176
     1
 92
        0
176
     1
 66
   257
176
     1
 43
1.0
176
     1
 76
     1
176
     1
 77
     6
176
     1
 78
     2
176
     1
 67
     7
176
     1
 79
     3
176
     1
170
     0
176
     1
171
     0
176
     1
290
     0
176
     1
 93
        1
176
     1
 44
0.0
176
     1
173
     0
176
     1
  0
VISUALSTYLE
  5
30
102
{ACAD_REACTORS
330
2A
102
}
330
2A
100
AcDbVisualStyle
  2
3dWireframe
 70
     5
177
     2
291
     0
 71
     0
176
     1
 72
     2
176
     1
 73
     0
176
     1
 90
        0
176
     1
 40
-0.6
176
     1
 41
-30.0
176
     1
 62
     5
 63
     7
421
 16777215
176
     1
 74
     1
176
     1
 91
        4
176
     1
 64
     7
176
     1
 65
   257
176
     1
 75
     1
176
     1
175
     1
176
     1
 42
1.0
176
     1
 92
        0
176
     1
 66
   257
176
     1
 43
1.0
176
     1
 76
     1
176
     1
 77
     6
176
     1
 78
     2
176
     1
 67
     7
176
     1
 79
     5
176
     1
170
     0
176
     1
171
     0
176
     1
290
     0
176
     1
 93
        1
176
     1
 44
0.0
176
     1
173
     0
176
     1
  0
VISUALSTYLE
  5
32
102
{ACAD_REACTORS
330
2A
102
}
330
2A
100
AcDbVisualStyle
  2
Basic
 70
     7
177
     2
291
     1
 71
     1
176
     1
 72
     0
176
     1
 73
     1
176
     1
 90
        0
176
     1
 40
-0.6
176
     1
 41
-30.0
176
     1
 62
     5
 63
     7
421
 16777215
176
     1
 74
     0
176
     1
 91
        4
176
     1
 64
     7
176
     1
 65
   257
176
     1
 75
     1
176
     1
175
     1
176
     1
 42
1.0
176
     1
 92
        8
176
     1
 66
     7
176
     1
 43
1.0
176
     1
 76
     1
176
     1
 77
     6
176
     1
 78
     2
176
     1
 67
     7
176
     1
 79
     5
176
     1
170
     0
176
     1
171
     0
176
     1
290
     0
176
     1
 93
        1
176
     1
 44
0.0
176
     1
173
     0
176
     1
  0
VISUALSTYLE
  5
36
102
{ACAD_REACTORS
330
2A
102
}
330
2A
100
AcDbVisualStyle
  2
Brighten
 70
    12
177
     2
291
     1
 71
     2
176
     1
 72
     2
176
     1
 73
     0
176
     1
 90
        0
176
     1
 40
-0.6
176
     1
 41
-30.0
176
     1
 62
     5
 63
     7
421
 16777215
176
     1
 74
     1
176
     1
 91
        4
176
     1
 64
     7
176
     1
 65
   257
176
     1
 75
     1
176
     1
175
     1
176
     1
 42
1.0
176
     1
 92
        8
176
     1
 66
     7
176
     1
 43
1.0
176
     1
 76
     1
176
     1
 77
     6
176
     1
 78
     2
176
     1
 67
     7
176
     1
 79
     5
176
     1
170
     0
176
     1
171
     0
176
     1
290
     0
176
     1
 93
        1
176
     1
 44
50.0
176
     1
173
     0
176
     1
  0
VISUALSTYLE
  5
3A
102
{ACAD_REACTORS
330
2A
102
}
330
2A
100
AcDbVisualStyle
  2
ColorChange
 70
    16
177
     2
291
     1
 71
     2
176
     1
 72
     2
176
     1
 73
     3
176
     1
 90
        0
176
     1
 40
-0.6
176
     1
 41
-30.0
176
     1
 62
     5
 63
     8
421
  8421504
176
     1
 74
     1
176
     1
 91
        4
176
     1
 64
     7
176
     1
 65
   257
176
     1
 75
     1
176
     1
175
     1
176
     1
 42
1.0
176
     1
 92
        8
176
     1
 66
     8
424
  8421504
176
     1
 43
1.0
176
     1
 76
     1
176
     1
 77
     6
176
     1
 78
     2
176
     1
 67
     7
176
     1
 79
     5
176
     1
170
     0
176
     1
171
     0
176
     1
290
     0
176
     1
 93
        1
176
     1
 44
0.0
176
     1
173
     0
176
     1
  0
VISUALSTYLE
  5
34
102
{ACAD_REACTORS
330
2A
102
}
330
2A
100
AcDbVisualStyle
  2
Conceptual
 70
     9
177
     2
291
     0
 71
     3
176
     1
 72
     2
176
     1
 73
     0
176
     1
 90
        0
176
     1
 40
-0.6
176
     1
 41
-30.0
176
     1
 62
     5
 63
     7
421
 16777215
176
     1
 74
     2
176
     1
 91
        2
176
     1
 64
     7
176
     1
 65
   257
176
     1
 75
     1
176
     1
175
     1
176
     1
 42
40.0
176
     1
 92
        8
176
     1
 66
     7
176
     1
 43
1.0
176
     1
 76
     1
176
     1
 77
     6
176
     1
 78
     2
176
     1
 67
     7
176
     1
 79
     3
176
     1
170
     0
176
     1
171
     0
176
     1
290
     0
176
     1
 93
        1
176
     1
 44
0.0
176
     1
173
     0
176
     1
  0
VISUALSTYLE
  5
35
102
{ACAD_REACTORS
330
2A
102
}
330
2A
100
AcDbVisualStyle
  2
Dim
 70
    11
177
     2
291
     1
 71
     2
176
     1
 72
     2
176
     1
 73
     0
176
     1
 90
        0
176
     1
 40
-0.6
176
     1
 41
-30.0
176
     1
 62
     5
 63
     7
421
 16777215
176
     1
 74
     1
176
     1
 91
        4
176
     1
 64
     7
176
     1
 65
   257
176
     1
 75
     1
176
     1
175
     1
176
     1
 42
1.0
176
     1
 92
        8
176
     1
 66
     7
176
     1
 43
1.0
176
     1
 76
     1
176
     1
 77
     6
176
     1
 78
     2
176
     1
 67
     7
176
     1
 79
     5
176
     1
170
     0
176
     1
171
     0
176
     1
290
     0
176
     1
 93
        1
176
     1
 44
-50.0
176
     1
173
     0
176
     1
  0
VISUALSTYLE
  5
39
102
{ACAD_REACTORS
330
2A
102
}
330
2A
100
AcDbVisualStyle
  2
Facepattern
 70
    15
177
     2
291
     1
 71
     2
176
     1
 72
     2
176
     1
 73
     0
176
     1
 90
        0
176
     1
 40
-0.6
176
     1
 41
-30.0
176
     1
 62
     5
 63
     7
421
 16777215
176
     1
 74
     1
176
     1
 91
        4
176
     1
 64
     7
176
     1
 65
   257
176
     1
 75
     1
176
     1
175
     1
176
     1
 42
1.0
176
     1
 92
        8
176
     1
 66
     7
176
     1
 43
1.0
176
     1
 76
     1
176
     1
 77
     6
176
     1
 78
     2
176
     1
 67
     7
176
     1
 79
     5
176
     1
170
     0
176
     1
171
     0
176
     1
290
     0
176
     1
 93
        1
176
     1
 44
0.0
176
     1
173
     0
176
     1
  0
VISUALSTYLE
  5
2B
102
{ACAD_REACTORS
330
2A
102
}
330
2A
100
AcDbVisualStyle
  2
Flat
 70
     0
177
     2
291
     1
 71
     2
176
     1
 72
     1
176
     1
 73
     1
176
     1
 90
        2
176
     1
 40
-0.6
176
     1
 41
30.0
176
     1
 62
     5
 63
     7
421
 16777215
176
     1
 74
     0
176
     1
 91
        4
176
     1
 64
     7
176
     1
 65
   257
176
     1
 75
     1
176
     1
175
     1
176
     1
 42
1.0
176
     1
 92
        8
176
     1
 66
     7
176
     1
 43
1.0
176
     1
 76
     1
176
     1
 77
     6
176
     1
 78
     2
176
     1
 67
     7
176
     1
 79
     5
176
     1
170
     0
176
     1
171
     0
176
     1
290
     0
176
     1
 93
       13
176
     1
 44
0.0
176
     1
173
     0
176
     1
  0
VISUALSTYLE
  5
2C
102
{ACAD_REACTORS
330
2A
102
}
330
2A
100
AcDbVisualStyle
  2
FlatWithEdges
 70
     1
177
     2
291
     1
 71
     2
176
     1
 72
     1
176
     1
 73
     1
176
     1
 90
        2
176
     1
 40
-0.6
176
     1
 41
30.0
176
     1
 62
     5
 63
     7
421
 16777215
176
     1
 74
     1
176
     1
 91
        4
176
     1
 64
     7
176
     1
 65
   257
176
     1
 75
     1
176
     1
175
     1
176
     1
 42
1.0
176
     1
 92
        0
176
     1
 66
   257
176
     1
 43
1.0
176
     1
 76
     1
176
     1
 77
     6
176
     1
 78
     2
176
     1
 67
     7
176
     1
 79
     5
176
     1
170
     0
176
     1
171
     0
176
     1
290
     0
176
     1
 93
       13
176
     1
 44
0.0
176
     1
173
     0
176
     1
  0
VISUALSTYLE
  5
2D
102
{ACAD_REACTORS
330
2A
102
}
330
2A
100
AcDbVisualStyle
  2
Gouraud
 70
     2
177
     2
291
     1
 71
     2
176
     1
 72
     2
176
     1
 73
     1
176
     1
 90
        2
176
     1
 40
-0.6
176
     1
 41
30.0
176
     1
 62
     5
 63
     7
421
 16777215
176
     1
 74
     0
176
     1
 91
        4
176
     1
 64
     7
176
     1
 65
   257
176
     1
 75
     1
176
     1
175
     1
176
     1
 42
1.0
176
     1
 92
        0
176
     1
 66
     7
176
     1
 43
1.0
176
     1
 76
     1
176
     1
 77
     6
176
     1
 78
     2
176
     1
 67
     7
176
     1
 79
     5
176
     1
170
     0
176
     1
171
     0
176
     1
290
     0
176
     1
 93
       13
176
     1
 44
0.0
176
     1
173
     0
176
     1
  0
VISUALSTYLE
  5
2E
102
{ACAD_REACTORS
330
2A
102
}
330
2A
100
AcDbVisualStyle
  2
GouraudWithEdges
 70
     3
177
     2
291
     1
 71
     2
176
     1
 72
     2
176
     1
 73
     1
176
     1
 90
        2
176
     1
 40
-0.6
176
     1
 41
30.0
176
     1
 62
     5
 63
     7
421
 16777215
176
     1
 74
     1
176
     1
 91
        4
176
     1
 64
     7
176
     1
 65
   257
176
     1
 75
     1
176
     1
175
     1
176
     1
 42
1.0
176
     1
 92
        0
176
     1
 66
   257
176
     1
 43
1.0
176
     1
 76
     1
176
     1
 77
     6
176
     1
 78
     2
176
     1
 67
     7
176
     1
 79
     5
176
     1
170
     0
176
     1
171
     0
176
     1
290
     0
176
     1
 93
       13
176
     1
 44
0.0
176
     1
173
     0
176
     1
  0
VISUALSTYLE
  5
38
102
{ACAD_REACTORS
330
2A
102
}
330
2A
100
AcDbVisualStyle
  2
Linepattern
 70
    14
177
     2
291
     1
 71
     2
176
     1
 72
     2
176
     1
 73
     0
176
     1
 90
        0
176
     1
 40
-0.6
176
     1
 41
-30.0
176
     1
 62
     5
 63
     7
421
 16777215
176
     1
 74
     1
176
     1
 91
        4
176
     1
 64
     7
176
     1
 65
   257
176
     1
 75
     7
176
     1
175
     7
176
     1
 42
1.0
176
     1
 92
        8
176
     1
 66
     7
176
     1
 43
1.0
176
     1
 76
     1
176
     1
 77
     6
176
     1
 78
     2
176
     1
 67
     7
176
     1
 79
     5
176
     1
170
     0
176
     1
171
     0
176
     1
290
     0
176
     1
 93
        1
176
     1
 44
0.0
176
     1
173
     0
176
     1
  0
VISUALSTYLE
  5
33
102
{ACAD_REACTORS
330
2A
102
}
330
2A
100
AcDbVisualStyle
  2
Realistic
 70
     8
177
     2
291
     0
 71
     2
176
     1
 72
     2
176
     1
 73
     0
176
     1
 90
        0
176
     1
 40
-0.6
176
     1
 41
-30.0
176
     1
 62
     5
 63
     7
421
 16777215
176
     1
 74
     1
176
     1
 91
        0
176
     1
 64
     7
176
     1
 65
   257
176
     1
 75
     1
176
     1
175
     1
176
     1
 42
1.0
176
     1
 92
        8
176
     1
 66
     8
424
  7895160
176
     1
 43
1.0
176
     1
 76
     1
176
     1
 77
     6
176
     1
 78
     2
176
     1
 67
     7
176
     1
 79
     5
176
     1
170
     0
176
     1
171
     0
176
     1
290
     0
176
     1
 93
       13
176
     1
 44
0.0
176
     1
173
     0
176
     1
  0
VISUALSTYLE
  5
37
102
{ACAD_REACTORS
330
2A
102
}
330
2A
100
AcDbVisualStyle
  2
Thicken
 70
    13
177
     2
291
     1
 71
     2
176
     1
 72
     2
176
     1
 73
     0
176
     1
 90
        0
176
     1
 40
-0.6
176
     1
 41
-30.0
176
     1
 62
     5
 63
     7
421
 16777215
176
     1
 74
     1
176
     1
 91
        4
176
     1
 64
     7
176
     1
 65
   257
176
     1
 75
     1
176
     1
175
     1
176
     1
 42
1.0
176
     1
 92
       12
176
     1
 66
     7
176
     1
 43
1.0
176
     1
 76
     1
176
     1
 77
     6
176
     1
 78
     2
176
     1
 67
     7
176
     1
 79
     5
176
     1
170
     0
176
     1
171
     0
176
     1
290
     0
176
     1
 93
        1
176
     1
 44
0.0
176
     1
173
     0
176
     1
  0
ENDSEC
  0
EOF
