  0
SECTION
  2
HEADER
  9
$ACADVER
  1
AC1024
  9
$ACADMAINTVER
 70
     6
  9
$DWGCODEPAGE
  3
UNDEFINED
  9
$INSBASE
 10
0.0
 20
0.0
 30
0.0
  9
$EXTMIN
 10
1.000000000000000E+20
 20
1.000000000000000E+20
 30
1.000000000000000E+20
  9
$EXTMAX
 10
-1.000000000000000E+20
 20
-1.000000000000000E+20
 30
-1.000000000000000E+20
  9
$LIMMIN
 10
0.0
 20
0.0
  9
$LIMMAX
 10
12.0
 20
9.0
  9
$ORTHOMODE
 70
     0
  9
$REGENMODE
 70
     1
  9
$FILLMODE
 70
     1
  9
$QTEXTMODE
 70
     0
  9
$MIRRTEXT
 70
     1
  9
$LTSCALE
 40
1.0
  9
$ATTMODE
 70
     1
  9
$TEXTSIZE
 40
0.2
  9
$TRACEWID
 40
0.05
  9
$TEXTSTYLE
  7
Standard
  9
$CLAYER
  8
0
  9
$CELTYPE
  6
ByLayer
  9
$CECOLOR
 62
   256
  9
$CELTSCALE
 40
1.0
  9
$DISPSILH
 70
     0
  9
$DIMSCALE
 40
1.0
  9
$DIMASZ
 40
0.18
  9
$DIMEXO
 40
0.0625
  9
$DIMDLI
 40
0.38
  9
$DIMRND
 40
0.0
  9
$DIMDLE
 40
0.0
  9
$DIMEXE
 40
0.18
  9
$DIMTP
 40
0.0
  9
$DIMTM
 40
0.0
  9
$DIMTXT
 40
0.18
  9
$DIMCEN
 40
0.09
  9
$DIMTSZ
 40
0.0
  9
$DIMTOL
 70
     0
  9
$DIMLIM
 70
     0
  9
$DIMTIH
 70
     1
  9
$DIMTOH
 70
     1
  9
$DIMSE1
 70
     0
  9
$DIMSE2
 70
     0
  9
$DIMTAD
 70
     0
  9
$DIMZIN
 70
     0
  9
$DIMBLK
  1

  9
$DIMASO
 70
     1
  9
$DIMSHO
 70
     1
  9
$DIMPOST
  1

  9
$DIMAPOST
  1

  9
$DIMALT
 70
     0
  9
$DIMALTD
 70
     2
  9
$DIMALTF
 40
25.4
  9
$DIMLFAC
 40
1.0
  9
$DIMTOFL
 70
     0
  9
$DIMTVP
 40
0.0
  9
$DIMTIX
 70
     0
  9
$DIMSOXD
 70
     0
  9
$DIMSAH
 70
     0
  9
$DIMBLK1
  1

  9
$DIMBLK2
  1

  9
$DIMSTYLE
  2
Standard
  9
$DIMCLRD
 70
     0
  9
$DIMCLRE
 70
     0
  9
$DIMCLRT
 70
     0
  9
$DIMTFAC
 40
1.0
  9
$DIMGAP
 40
0.09
  9
$DIMJUST
 70
     0
  9
$DIMSD1
 70
     0
  9
$DIMSD2
 70
     0
  9
$DIMTOLJ
 70
     1
  9
$DIMTZIN
 70
     0
  9
$DIMALTZ
 70
     0
  9
$DIMALTTZ
 70
     0
  9
$DIMUPT
 70
     0
  9
$DIMDEC
 70
     4
  9
$DIMTDEC
 70
     4
  9
$DIMALTU
 70
     2
  9
$DIMALTTD
 70
     2
  9
$DIMTXSTY
  7
Standard
  9
$DIMAUNIT
 70
     0
  9
$DIMADEC
 70
     0
  9
$DIMALTRND
 40
0.0
  9
$DIMAZIN
 70
     0
  9
$DIMDSEP
 70
    46
  9
$DIMATFIT
 70
     3
  9
$DIMFRAC
 70
     0
  9
$DIMLDRBLK
  1

  9
$DIMLUNIT
 70
     2
  9
$DIMLWD
 70
    -2
  9
$DIMLWE
 70
    -2
  9
$DIMTMOVE
 70
     0
  9
$DIMFXL
 40
1.0
  9
$DIMFXLON
 70
     0
  9
$DIMJOGANG
 40
0.7853981633974483
  9
$DIMTFILL
 70
     0
  9
$DIMTFILLCLR
 70
     0
  9
$DIMARCSYM
 70
     0
  9
$DIMLTYPE
  6

  9
$DIMLTEX1
  6

  9
$DIMLTEX2
  6

  9
$DIMTXTDIRECTION
 70
     0
  9
$LUNITS
 70
     2
  9
$LUPREC
 70
     4
  9
$SKETCHINC
 40
0.1
  9
$FILLETRAD
 40
0.5
  9
$AUNITS
 70
     0
  9
$AUPREC
 70
     0
  9
$MENU
  1
.
  9
$ELEVATION
 40
0.0
  9
$PELEVATION
 40
0.0
  9
$THICKNESS
 40
0.0
  9
$LIMCHECK
 70
     0
  9
$CHAMFERA
 40
0.5
  9
$CHAMFERB
 40
0.5
  9
$CHAMFERC
 40
1.0
  9
$CHAMFERD
 40
0.0
  9
$SKPOLY
 70
     0
  9
$TDCREATE
 40
2457917.584189815
  9
$TDUCREATE
 40
2457917.209189815
  9
$TDUPDATE
 40
2457917.584189815
  9
$TDUUPDATE
 40
2457917.209189815
  9
$TDINDWG
 40
0.0000000116
  9
$TDUSRTIMER
 40
0.0000000116
  9
$USRTIMER
 70
     1
  9
$ANGBASE
 50
0.0
  9
$ANGDIR
 70
     0
  9
$PDMODE
 70
     0
  9
$PDSIZE
 40
0.0
  9
$PLINEWID
 40
0.0
  9
$SPLFRAME
 70
     0
  9
$SPLINETYPE
 70
     6
  9
$SPLINESEGS
 70
     8
  9
$HANDSEED
  5
B5
  9
$SURFTAB1
 70
     6
  9
$SURFTAB2
 70
     6
  9
$SURFTYPE
 70
     6
  9
$SURFU
 70
     6
  9
$SURFV
 70
     6
  9
$UCSBASE
  2

  9
$UCSNAME
  2

  9
$UCSORG
 10
0.0
 20
0.0
 30
0.0
  9
$UCSXDIR
 10
1.0
 20
0.0
 30
0.0
  9
$UCSYDIR
 10
0.0
 20
1.0
 30
0.0
  9
$UCSORTHOREF
  2

  9
$UCSORTHOVIEW
 70
     0
  9
$UCSORGTOP
 10
0.0
 20
0.0
 30
0.0
  9
$UCSORGBOTTOM
 10
0.0
 20
0.0
 30
0.0
  9
$UCSORGLEFT
 10
0.0
 20
0.0
 30
0.0
  9
$UCSORGRIGHT
 10
0.0
 20
0.0
 30
0.0
  9
$UCSORGFRONT
 10
0.0
 20
0.0
 30
0.0
  9
$UCSORGBACK
 10
0.0
 20
0.0
 30
0.0
  9
$PUCSBASE
  2

  9
$PUCSNAME
  2

  9
$PUCSORG
 10
0.0
 20
0.0
 30
0.0
  9
$PUCSXDIR
 10
1.0
 20
0.0
 30
0.0
  9
$PUCSYDIR
 10
0.0
 20
1.0
 30
0.0
  9
$PUCSORTHOREF
  2

  9
$PUCSORTHOVIEW
 70
     0
  9
$PUCSORGTOP
 10
0.0
 20
0.0
 30
0.0
  9
$PUCSORGBOTTOM
 10
0.0
 20
0.0
 30
0.0
  9
$PUCSORGLEFT
 10
0.0
 20
0.0
 30
0.0
  9
$PUCSORGRIGHT
 10
0.0
 20
0.0
 30
0.0
  9
$PUCSORGFRONT
 10
0.0
 20
0.0
 30
0.0
  9
$PUCSORGBACK
 10
0.0
 20
0.0
 30
0.0
  9
$USERI1
 70
     0
  9
$USERI2
 70
     0
  9
$USERI3
 70
     0
  9
$USERI4
 70
     0
  9
$USERI5
 70
     0
  9
$USERR1
 40
0.0
  9
$USERR2
 40
0.0
  9
$USERR3
 40
0.0
  9
$USERR4
 40
0.0
  9
$USERR5
 40
0.0
  9
$WORLDVIEW
 70
     1
  9
$SHADEDGE
 70
     3
  9
$SHADEDIF
 70
    70
  9
$TILEMODE
 70
     1
  9
$MAXACTVP
 70
    64
  9
$PINSBASE
 10
0.0
 20
0.0
 30
0.0
  9
$PLIMCHECK
 70
     0
  9
$PEXTMIN
 10
1.000000000000000E+20
 20
1.000000000000000E+20
 30
1.000000000000000E+20
  9
$PEXTMAX
 10
-1.000000000000000E+20
 20
-1.000000000000000E+20
 30
-1.000000000000000E+20
  9
$PLIMMIN
 10
0.0
 20
0.0
  9
$PLIMMAX
 10
12.0
 20
9.0
  9
$UNITMODE
 70
     0
  9
$VISRETAIN
 70
     1
  9
$PLINEGEN
 70
     0
  9
$PSLTSCALE
 70
     1
  9
$TREEDEPTH
 70
  3020
  9
$CMLSTYLE
  2
Standard
  9
$CMLJUST
 70
     0
  9
$CMLSCALE
 40
1.0
  9
$PROXYGRAPHICS
 70
     1
  9
$MEASUREMENT
 70
     0
  9
$CELWEIGHT
370
    -1
  9
$ENDCAPS
280
     0
  9
$JOINSTYLE
280
     0
  9
$LWDISPLAY
290
     1
  9
$INSUNITS
 70
     1
  9
$HYPERLINKBASE
  1

  9
$STYLESHEET
  1

  9
$XEDIT
290
     1
  9
$CEPSNTYPE
380
     0
  9
$PSTYLEMODE
290
     1
  9
$FINGERPRINTGUID
  2
{A1AECFDF-DB97-D380-C75C-6910FC2975AD}
  9
$VERSIONGUID
  2
{FAEB1C32-E019-11D5-929B-00C0DF256EC4}
  9
$EXTNAMES
290
     1
  9
$PSVPSCALE
 40
0.0
  9
$OLESTARTUP
290
     0
  9
$SORTENTS
280
   127
  9
$INDEXCTL
280
     0
  9
$HIDETEXT
280
     1
  9
$XCLIPFRAME
280
     2
  9
$HALOGAP
280
     0
  9
$OBSCOLOR
 70
   257
  9
$OBSLTYPE
280
     0
  9
$INTERSECTIONDISPLAY
280
     0
  9
$INTERSECTIONCOLOR
 70
   257
  9
$DIMASSOC
280
     2
  9
$PROJECTNAME
  1

  9
$CAMERADISPLAY
290
     0
  9
$LENSLENGTH
 40
50.0
  9
$CAMERAHEIGHT
 40
0.0
  9
$STEPSPERSEC
 40
2.0
  9
$STEPSIZE
 40
6.0
  9
$3DDWFPREC
 40
2.0
  9
$PSOLWIDTH
 40
0.25
  9
$PSOLHEIGHT
 40
4.0
  9
$LOFTANG1
 40
1.570796326794897
  9
$LOFTANG2
 40
1.570796326794897
  9
$LOFTMAG1
 40
0.0
  9
$LOFTMAG2
 40
0.0
  9
$LOFTPARAM
 70
     7
  9
$LOFTNORMALS
280
     1
  9
$LATITUDE
 40
37.795
  9
$LONGITUDE
 40
-122.394
  9
$NORTHDIRECTION
 40
0.0
  9
$TIMEZONE
 70
 -8000
  9
$LIGHTGLYPHDISPLAY
280
     1
  9
$TILEMODELIGHTSYNCH
280
     1
  9
$CMATERIAL
347
3C
  9
$SOLIDHIST
280
     1
  9
$SHOWHIST
280
     1
  9
$DWFFRAME
280
     2
  9
$DGNFRAME
280
     2
  9
$REALWORLDSCALE
290
     1
  9
$INTERFERECOLOR
 62
   256
  9
$CSHADOW
280
     0
  9
$SHADOWPLANELOCATION
 40
0.0
  0
ENDSEC
  0
SECTION
  2
CLASSES
  0
CLASS
  1
ACDBDICTIONARYWDFLT
  2
AcDbDictionaryWithDefault
  3
ObjectDBX Classes
 90
        0
 91
        4
280
     0
281
     0
  0
CLASS
  1
VISUALSTYLE
  2
AcDbVisualStyle
  3
ObjectDBX Classes
 90
     4095
 91
        4
280
     0
281
     0
  0
CLASS
  1
MATERIAL
  2
AcDbMaterial
  3
ObjectDBX Classes
 90
     1153
 91
        4
280
     0
281
     0
  0
CLASS
  1
SUN
  2
AcDbSun
  3
SCENEOE
 90
     1024
 91
        4
280
     0
281
     0
  0
ENDSEC
  0
SECTION
  2
TABLES
  0
TABLE
  2
VPORT
  5
8
330
0
100
AcDbSymbolTable
 70
     1
  0
VPORT
  5
29
330
8
100
AcDbSymbolTableRecord
100
AcDbViewportTableRecord
  2
*Active
 70
     0
 10
0.0
 20
0.0
 11
1.0
 21
1.0
 12
0.0
 22
0.0
 13
0.0
 23
0.0
 14
0.5
 24
0.5
 15
0.5
 25
0.5
 16
0.0
 26
0.0
 36
1.0
 17
91.00082462281999
 27
-128.4993055234307
 37
0.0
 40
256.9986110468615
 41
0.7081814508812795
 42
50.0
 43
0.0
 44
0.0
 50
0.0
 51
0.0
 71
     0
 72
   100
 73
     1
 74
     3
 75
     0
 76
     0
 77
     0
 78
     0
281
     0
 65
     1
110
0.0
120
0.0
130
0.0
111
1.0
121
0.0
131
0.0
112
0.0
122
1.0
132
0.0
 79
     0
146
0.0
 60
     3
 61
     5
292
     1
282
     1
141
0.0
142
0.0
 63
   250
361
3F
  0
ENDTAB
  0
TABLE
  2
LTYPE
  5
5
330
0
100
AcDbSymbolTable
 70
     1
  0
LTYPE
  5
14
330
5
100
AcDbSymbolTableRecord
100
AcDbLinetypeTableRecord
  2
ByBlock
 70
     0
  3

 72
    65
 73
     0
 40
0.0
  0
LTYPE
  5
15
330
5
100
AcDbSymbolTableRecord
100
AcDbLinetypeTableRecord
  2
ByLayer
 70
     0
  3

 72
    65
 73
     0
 40
0.0
  0
LTYPE
  5
16
330
5
100
AcDbSymbolTableRecord
100
AcDbLinetypeTableRecord
  2
Continuous
 70
     0
  3
Solid line
 72
    65
 73
     0
 40
0.0
  0
ENDTAB
  0
TABLE
  2
LAYER
  5
2
330
0
100
AcDbSymbolTable
 70
     2
  0
LAYER
  5
10
330
2
100
AcDbSymbolTableRecord
100
AcDbLayerTableRecord
  2
0
 70
     0
 62
     7
  6
Continuous
370
    -3
390
F
347
3E
  0
LAYER
  5
40
330
2
100
AcDbSymbolTableRecord
100
AcDbLayerTableRecord
  2
_U+30EC_U+30A4_U+30E4_U+30FC 1
 70
     0
 62
     7
  6
Continuous
370
    -3
390
F
347
3E
  0
ENDTAB
  0
TABLE
  2
STYLE
  5
3
330
0
100
AcDbSymbolTable
 70
     1
  0
STYLE
  5
11
330
3
100
AcDbSymbolTableRecord
100
AcDbTextStyleTableRecord
  2
Standard
 70
     0
 40
0.0
 41
1.0
 50
0.0
 71
     0
 42
0.2
  3
txt
  4

  0
ENDTAB
  0
TABLE
  2
VIEW
  5
6
330
0
100
AcDbSymbolTable
 70
     0
  0
ENDTAB
  0
TABLE
  2
UCS
  5
7
330
0
100
AcDbSymbolTable
 70
     0
  0
ENDTAB
  0
TABLE
  2
APPID
  5
9
330
0
100
AcDbSymbolTable
 70
     1
  0
APPID
  5
12
330
9
100
AcDbSymbolTableRecord
100
AcDbRegAppTableRecord
  2
ACAD
 70
     0
  0
ENDTAB
  0
TABLE
  2
DIMSTYLE
  5
A
330
0
100
AcDbSymbolTable
 70
     1
100
AcDbDimStyleTable
  0
DIMSTYLE
105
27
330
A
100
AcDbSymbolTableRecord
100
AcDbDimStyleTableRecord
  2
Standard
 70
     0
178
     0
340
11
  0
ENDTAB
  0
TABLE
  2
BLOCK_RECORD
  5
1
330
0
100
AcDbSymbolTable
 70
     7
  0
BLOCK_RECORD
  5
1F
330
1
100
AcDbSymbolTableRecord
100
AcDbBlockTableRecord
  2
*Model_Space
340
22
 70
     0
280
     1
281
     0
  0
BLOCK_RECORD
  5
1B
330
1
100
AcDbSymbolTableRecord
100
AcDbBlockTableRecord
  2
*Paper_Space
340
1E
 70
     0
280
     1
281
     0
  0
BLOCK_RECORD
  5
23
330
1
100
AcDbSymbolTableRecord
100
AcDbBlockTableRecord
  2
*Paper_Space0
340
26
 70
     0
280
     1
281
     0
  0
BLOCK_RECORD
  5
41
330
1
100
AcDbSymbolTableRecord
100
AcDbBlockTableRecord
  2
block 2
340
0
102
{BLKREFS
331
42
102
}
 70
     0
280
     1
281
     0
  0
BLOCK_RECORD
  5
5A
330
1
100
AcDbSymbolTableRecord
100
AcDbBlockTableRecord
  2
block 3
340
0
102
{BLKREFS
331
5B
102
}
 70
     0
280
     1
281
     0
  0
BLOCK_RECORD
  5
75
330
1
100
AcDbSymbolTableRecord
100
AcDbBlockTableRecord
  2
block 4
340
0
102
{BLKREFS
331
76
102
}
 70
     0
280
     1
281
     0
  0
BLOCK_RECORD
  5
83
330
1
100
AcDbSymbolTableRecord
100
AcDbBlockTableRecord
  2
block 5
340
0
102
{BLKREFS
331
84
102
}
 70
     0
280
     1
281
     0
  0
BLOCK_RECORD
  5
97
330
1
100
AcDbSymbolTableRecord
100
AcDbBlockTableRecord
  2
block 6
340
0
102
{BLKREFS
331
98
102
}
 70
     0
280
     1
281
     0
  0
BLOCK_RECORD
  5
A5
330
1
100
AcDbSymbolTableRecord
100
AcDbBlockTableRecord
  2
block 7
340
0
102
{BLKREFS
331
A6
102
}
 70
     0
280
     1
281
     0
  0
ENDTAB
  0
ENDSEC
  0
SECTION
  2
BLOCKS
  0
BLOCK
  5
20
330
1F
100
AcDbEntity
  8
0
100
AcDbBlockBegin
  2
*Model_Space
 70
     0
 10
0.0
 20
0.0
 30
0.0
  3
*Model_Space
  1

  0
ENDBLK
  5
21
330
1F
100
AcDbEntity
  8
0
100
AcDbBlockEnd
  0
BLOCK
  5
1C
330
1B
100
AcDbEntity
 67
     1
  8
0
100
AcDbBlockBegin
  2
*Paper_Space
 70
     0
 10
0.0
 20
0.0
 30
0.0
  3
*Paper_Space
  1

  0
ENDBLK
  5
1D
330
1B
100
AcDbEntity
 67
     1
  8
0
100
AcDbBlockEnd
  0
BLOCK
  5
24
330
23
100
AcDbEntity
  8
0
100
AcDbBlockBegin
  2
*Paper_Space0
 70
     0
 10
0.0
 20
0.0
 30
0.0
  3
*Paper_Space0
  1

  0
ENDBLK
  5
25
330
23
100
AcDbEntity
  8
0
100
AcDbBlockEnd
  0
BLOCK
  5
43
330
41
100
AcDbEntity
  8
0
100
AcDbBlockBegin
  2
block 2
 70
     0
 10
0.0
 20
0.0
 30
0.0
  3
block 2
  1

  0
POLYLINE
  5
45
330
41
100
AcDbEntity
  8
_U+30EC_U+30A4_U+30E4_U+30FC 1
 62
   179
420
  2234388
370
     9
100
AcDb2dPolyline
 66
     1
 10
0.0
 20
0.0
 30
0.0
  0
VERTEX
  5
46
330
45
100
AcDbEntity
  8
_U+30EC_U+30A4_U+30E4_U+30FC 1
 62
   179
420
  2234388
370
     9
100
AcDbVertex
100
AcDb2dVertex
 10
79.64028886897897
 20
-131.9495780225683
 30
0.0
  0
VERTEX
  5
47
330
45
100
AcDbEntity
  8
_U+30EC_U+30A4_U+30E4_U+30FC 1
 62
   179
420
  2234388
370
     9
100
AcDbVertex
100
AcDb2dVertex
 10
75.99947917220287
 20
-135.5758866327729
 30
0.0
  0
SEQEND
  5
48
330
45
100
AcDbEntity
  8
_U+30EC_U+30A4_U+30E4_U+30FC 1
 62
   179
420
  2234388
370
     9
  0
POLYLINE
  5
49
330
41
100
AcDbEntity
  8
_U+30EC_U+30A4_U+30E4_U+30FC 1
 62
   179
420
  2234388
370
     9
100
AcDb2dPolyline
 66
     1
 10
0.0
 20
0.0
 30
0.0
  0
VERTEX
  5
4A
330
49
100
AcDbEntity
  8
_U+30EC_U+30A4_U+30E4_U+30FC 1
 62
   179
420
  2234388
370
     9
100
AcDbVertex
100
AcDb2dVertex
 10
79.64028886897897
 20
-131.9495780225683
 30
0.0
  0
VERTEX
  5
4B
330
49
100
AcDbEntity
  8
_U+30EC_U+30A4_U+30E4_U+30FC 1
 62
   179
420
  2234388
370
     9
100
AcDbVertex
100
AcDb2dVertex
 10
84.26841368346699
 20
-131.9495780225683
 30
0.0
  0
SEQEND
  5
4C
330
49
100
AcDbEntity
  8
_U+30EC_U+30A4_U+30E4_U+30FC 1
 62
   179
420
  2234388
370
     9
  0
POLYLINE
  5
4D
330
41
100
AcDbEntity
  8
_U+30EC_U+30A4_U+30E4_U+30FC 1
 62
   179
420
  2234388
370
     9
100
AcDb2dPolyline
 66
     1
 10
0.0
 20
0.0
 30
0.0
  0
VERTEX
  5
4E
330
4D
100
AcDbEntity
  8
_U+30EC_U+30A4_U+30E4_U+30FC 1
 62
   179
420
  2234388
370
     9
100
AcDbVertex
100
AcDb2dVertex
 10
77.0388683123525
 20
-134.9757410773669
 30
0.0
  0
VERTEX
  5
4F
330
4D
100
AcDbEntity
  8
_U+30EC_U+30A4_U+30E4_U+30FC 1
 62
   179
420
  2234388
370
     9
100
AcDbVertex
100
AcDb2dVertex
 10
75.99947917220287
 20
-135.5758866327729
 30
0.0
  0
SEQEND
  5
50
330
4D
100
AcDbEntity
  8
_U+30EC_U+30A4_U+30E4_U+30FC 1
 62
   179
420
  2234388
370
     9
  0
POLYLINE
  5
51
330
41
100
AcDbEntity
  8
_U+30EC_U+30A4_U+30E4_U+30FC 1
 62
   179
420
  2234388
370
     9
100
AcDb2dPolyline
 66
     1
 10
0.0
 20
0.0
 30
0.0
  0
VERTEX
  5
52
330
51
100
AcDbEntity
  8
_U+30EC_U+30A4_U+30E4_U+30FC 1
 62
   179
420
  2234388
370
     9
100
AcDbVertex
100
AcDb2dVertex
 10
76.59962471244744
 20
-134.5361446885884
 30
0.0
  0
VERTEX
  5
53
330
51
100
AcDbEntity
  8
_U+30EC_U+30A4_U+30E4_U+30FC 1
 62
   179
420
  2234388
370
     9
100
AcDbVertex
100
AcDb2dVertex
 10
75.99947917220287
 20
-135.5758866327729
 30
0.0
  0
SEQEND
  5
54
330
51
100
AcDbEntity
  8
_U+30EC_U+30A4_U+30E4_U+30FC 1
 62
   179
420
  2234388
370
     9
  0
ENDBLK
  5
44
330
41
100
AcDbEntity
  8
0
100
AcDbBlockEnd
  0
BLOCK
  5
5C
330
5A
100
AcDbEntity
  8
0
100
AcDbBlockBegin
  2
block 3
 70
     0
 10
0.0
 20
0.0
 30
0.0
  3
block 3
  1

  0
SPLINE
  5
5E
330
5A
100
AcDbEntity
  8
_U+30EC_U+30A4_U+30E4_U+30FC 1
370
     0
100
AcDbSpline
210
0.0
220
0.0
230
1.0
 70
    11
 71
     3
 72
    26
 73
    22
 74
     0
 42
0.0000000001
 43
0.0000000001
 12
1.0
 22
0.0
 32
0.0
 13
1.0
 23
0.0
 33
0.0
 40
0.0
 40
0.0
 40
0.0
 40
0.0
 40
1.0
 40
1.0
 40
1.0
 40
2.0
 40
2.0
 40
2.0
 40
3.0
 40
3.0
 40
3.0
 40
4.0
 40
4.0
 40
4.0
 40
5.0
 40
5.0
 40
5.0
 40
6.0
 40
6.0
 40
6.0
 40
7.0
 40
7.0
 40
7.0
 40
7.0
 10
80.3484117095136
 20
-131.1317029837101
 30
0.0
 10
80.3484117095136
 20
-131.1317029837101
 30
0.0
 10
80.3484117095136
 20
-130.0275498806876
 30
0.0
 10
80.3484117095136
 20
-130.0275498806876
 30
0.0
 10
80.3484117095136
 20
-130.0275498806876
 30
0.0
 10
80.01837156202666
 20
-130.0275498806876
 30
0.0
 10
80.01837156202666
 20
-130.0275498806876
 30
0.0
 10
80.01837156202666
 20
-130.0275498806876
 30
0.0
 10
80.01837156202666
 20
-129.8794107748218
 30
0.0
 10
80.01837156202666
 20
-129.8794107748218
 30
0.0
 10
80.35047876680474
 20
-129.8645968642352
 30
0.0
 10
80.39698755585562
 20
-129.7016438477829
 30
0.0
 10
80.42661537702877
 20
-129.5872666776726
 30
0.0
 10
80.42661537702877
 20
-129.5872666776726
 30
0.0
 10
80.57268742560336
 20
-129.5872666776726
 30
0.0
 10
80.57268742560336
 20
-129.5872666776726
 30
0.0
 10
80.57268742560336
 20
-129.5872666776726
 30
0.0
 10
80.57268742560336
 20
-131.1317029837101
 30
0.0
 10
80.57268742560336
 20
-131.1317029837101
 30
0.0
 10
80.57268742560336
 20
-131.1317029837101
 30
0.0
 10
80.3484117095136
 20
-131.1317029837101
 30
0.0
 10
80.3484117095136
 20
-131.1317029837101
 30
0.0
  0
HATCH
  5
5F
330
5A
100
AcDbEntity
  8
_U+30EC_U+30A4_U+30E4_U+30FC 1
 62
   179
420
  2234388
100
AcDbHatch
 10
0.0
 20
0.0
 30
0.0
210
0.0
220
0.0
230
1.0
  2
SOLID
 70
     1
 71
     0
 91
        1
 92
        1
 93
        1
 72
     4
 94
        3
 73
     0
 74
     1
 95
       26
 96
       22
 40
0.0
 40
0.0
 40
0.0
 40
0.0
 40
1.0
 40
1.0
 40
1.0
 40
2.0
 40
2.0
 40
2.0
 40
3.0
 40
3.0
 40
3.0
 40
4.0
 40
4.0
 40
4.0
 40
5.0
 40
5.0
 40
5.0
 40
6.0
 40
6.0
 40
6.0
 40
7.0
 40
7.0
 40
7.0
 40
7.0
 10
80.3484117095136
 20
-131.1317029837101
 10
80.3484117095136
 20
-131.1317029837101
 10
80.3484117095136
 20
-130.0275498806876
 10
80.3484117095136
 20
-130.0275498806876
 10
80.3484117095136
 20
-130.0275498806876
 10
80.01837156202666
 20
-130.0275498806876
 10
80.01837156202666
 20
-130.0275498806876
 10
80.01837156202666
 20
-130.0275498806876
 10
80.01837156202666
 20
-129.8794107748218
 10
80.01837156202666
 20
-129.8794107748218
 10
80.35047876680474
 20
-129.8645968642352
 10
80.39698755585562
 20
-129.7016438477829
 10
80.42661537702877
 20
-129.5872666776726
 10
80.42661537702877
 20
-129.5872666776726
 10
80.57268742560336
 20
-129.5872666776726
 10
80.57268742560336
 20
-129.5872666776726
 10
80.57268742560336
 20
-129.5872666776726
 10
80.57268742560336
 20
-131.1317029837101
 10
80.57268742560336
 20
-131.1317029837101
 10
80.57268742560336
 20
-131.1317029837101
 10
80.3484117095136
 20
-131.1317029837101
 10
80.3484117095136
 20
-131.1317029837101
 97
        0
 97
        0
 75
     2
 76
     1
 98
        0
  0
SPLINE
  5
60
330
5A
100
AcDbEntity
  8
_U+30EC_U+30A4_U+30E4_U+30FC 1
370
     0
100
AcDbSpline
210
0.0
220
0.0
230
1.0
 70
    11
 71
     3
 72
    53
 73
    49
 74
     0
 42
0.0000000001
 43
0.0000000001
 12
1.0
 22
0.0
 32
0.0
 13
1.0
 23
0.0
 33
0.0
 40
0.0
 40
0.0
 40
0.0
 40
0.0
 40
1.0
 40
1.0
 40
1.0
 40
2.0
 40
2.0
 40
2.0
 40
3.0
 40
3.0
 40
3.0
 40
4.0
 40
4.0
 40
4.0
 40
5.0
 40
5.0
 40
5.0
 40
6.0
 40
6.0
 40
6.0
 40
7.0
 40
7.0
 40
7.0
 40
8.0
 40
8.0
 40
8.0
 40
9.0
 40
9.0
 40
9.0
 40
10.0
 40
10.0
 40
10.0
 40
11.0
 40
11.0
 40
11.0
 40
12.0
 40
12.0
 40
12.0
 40
13.0
 40
13.0
 40
13.0
 40
14.0
 40
14.0
 40
14.0
 40
15.0
 40
15.0
 40
15.0
 40
16.0
 40
16.0
 40
16.0
 40
16.0
 10
81.55488414844808
 20
-131.1823458873433
 30
0.0
 10
81.47650822615866
 20
-131.1823458873433
 30
0.0
 10
81.37505016411805
 20
-131.1654649194656
 30
0.0
 10
81.27341984730317
 20
-131.102075162537
 30
0.0
 10
81.09995928962084
 20
-130.9921766165575
 30
0.0
 10
81.07877195238656
 20
-130.8609184785695
 30
0.0
 10
81.05982392721769
 20
-130.7530869898812
 30
0.0
 10
81.05982392721769
 20
-130.7530869898812
 30
0.0
 10
81.28186033124204
 20
-130.7530869898812
 30
0.0
 10
81.28186033124204
 20
-130.7530869898812
 30
0.0
 10
81.33698185900603
 20
-130.9518689993801
 30
0.0
 10
81.46393362763749
 20
-130.9814968205532
 30
0.0
 10
81.55695120573924
 20
-130.9814968205532
 30
0.0
 10
81.69647757289185
 20
-130.9814968205532
 30
0.0
 10
81.84892304811416
 20
-130.8819335610295
 30
0.0
 10
81.84892304811416
 20
-130.6493896157752
 30
0.0
 10
81.84892304811416
 20
-130.3934190212211
 30
0.0
 10
81.66908906378411
 20
-130.3234835828705
 30
0.0
 10
81.54851072180037
 20
-130.3234835828705
 30
0.0
 10
81.51681584333608
 20
-130.3234835828705
 30
0.0
 10
81.37505016411805
 20
-130.3234835828705
 30
0.0
 10
81.2861667005986
 20
-130.4526746635674
 30
0.0
 10
81.2861667005986
 20
-130.4526746635674
 30
0.0
 10
81.11063908562512
 20
-130.4337266383985
 30
0.0
 10
81.11063908562512
 20
-130.4337266383985
 30
0.0
 10
81.11063908562512
 20
-130.4337266383985
 30
0.0
 10
81.23121742760887
 20
-129.5872666776726
 30
0.0
 10
81.23121742760887
 20
-129.5872666776726
 30
0.0
 10
81.23121742760887
 20
-129.5872666776726
 30
0.0
 10
82.00963675250107
 20
-129.5872666776726
 30
0.0
 10
82.00963675250107
 20
-129.5872666776726
 30
0.0
 10
82.00963675250107
 20
-129.5872666776726
 30
0.0
 10
82.00963675250107
 20
-129.7819145725892
 30
0.0
 10
82.00963675250107
 20
-129.7819145725892
 30
0.0
 10
82.00963675250107
 20
-129.7819145725892
 30
0.0
 10
81.39399818928692
 20
-129.7819145725892
 30
0.0
 10
81.39399818928692
 20
-129.7819145725892
 30
0.0
 10
81.39399818928692
 20
-129.7819145725892
 30
0.0
 10
81.32854137506718
 20
-130.2049722981779
 30
0.0
 10
81.32854137506718
 20
-130.2049722981779
 30
0.0
 10
81.38986407470462
 20
-130.1712103624225
 30
0.0
 10
81.47237411157636
 20
-130.1309027452451
 30
0.0
 10
81.59071314149469
 20
-130.1309027452451
 30
0.0
 10
81.8446166787576
 20
-130.1309027452451
 30
0.0
 10
82.08163924814279
 20
-130.3172824109971
 30
0.0
 10
82.08163924814279
 20
-130.6304415906063
 30
0.0
 10
82.08163924814279
 20
-130.9477348847978
 30
0.0
 10
81.85736353205303
 20
-131.1823458873433
 30
0.0
 10
81.55488414844808
 20
-131.1823458873433
 30
0.0
  0
HATCH
  5
61
330
5A
100
AcDbEntity
  8
_U+30EC_U+30A4_U+30E4_U+30FC 1
 62
   179
420
  2234388
100
AcDbHatch
 10
0.0
 20
0.0
 30
0.0
210
0.0
220
0.0
230
1.0
  2
SOLID
 70
     1
 71
     0
 91
        1
 92
        1
 93
        1
 72
     4
 94
        3
 73
     0
 74
     1
 95
       53
 96
       49
 40
0.0
 40
0.0
 40
0.0
 40
0.0
 40
1.0
 40
1.0
 40
1.0
 40
2.0
 40
2.0
 40
2.0
 40
3.0
 40
3.0
 40
3.0
 40
4.0
 40
4.0
 40
4.0
 40
5.0
 40
5.0
 40
5.0
 40
6.0
 40
6.0
 40
6.0
 40
7.0
 40
7.0
 40
7.0
 40
8.0
 40
8.0
 40
8.0
 40
9.0
 40
9.0
 40
9.0
 40
10.0
 40
10.0
 40
10.0
 40
11.0
 40
11.0
 40
11.0
 40
12.0
 40
12.0
 40
12.0
 40
13.0
 40
13.0
 40
13.0
 40
14.0
 40
14.0
 40
14.0
 40
15.0
 40
15.0
 40
15.0
 40
16.0
 40
16.0
 40
16.0
 40
16.0
 10
81.55488414844808
 20
-131.1823458873433
 10
81.47650822615866
 20
-131.1823458873433
 10
81.37505016411805
 20
-131.1654649194656
 10
81.27341984730317
 20
-131.102075162537
 10
81.09995928962084
 20
-130.9921766165575
 10
81.07877195238656
 20
-130.8609184785695
 10
81.05982392721769
 20
-130.7530869898812
 10
81.05982392721769
 20
-130.7530869898812
 10
81.28186033124204
 20
-130.7530869898812
 10
81.28186033124204
 20
-130.7530869898812
 10
81.33698185900603
 20
-130.9518689993801
 10
81.46393362763749
 20
-130.9814968205532
 10
81.55695120573924
 20
-130.9814968205532
 10
81.69647757289185
 20
-130.9814968205532
 10
81.84892304811416
 20
-130.8819335610295
 10
81.84892304811416
 20
-130.6493896157752
 10
81.84892304811416
 20
-130.3934190212211
 10
81.66908906378411
 20
-130.3234835828705
 10
81.54851072180037
 20
-130.3234835828705
 10
81.51681584333608
 20
-130.3234835828705
 10
81.37505016411805
 20
-130.3234835828705
 10
81.2861667005986
 20
-130.4526746635674
 10
81.2861667005986
 20
-130.4526746635674
 10
81.11063908562512
 20
-130.4337266383985
 10
81.11063908562512
 20
-130.4337266383985
 10
81.11063908562512
 20
-130.4337266383985
 10
81.23121742760887
 20
-129.5872666776726
 10
81.23121742760887
 20
-129.5872666776726
 10
81.23121742760887
 20
-129.5872666776726
 10
82.00963675250107
 20
-129.5872666776726
 10
82.00963675250107
 20
-129.5872666776726
 10
82.00963675250107
 20
-129.5872666776726
 10
82.00963675250107
 20
-129.7819145725892
 10
82.00963675250107
 20
-129.7819145725892
 10
82.00963675250107
 20
-129.7819145725892
 10
81.39399818928692
 20
-129.7819145725892
 10
81.39399818928692
 20
-129.7819145725892
 10
81.39399818928692
 20
-129.7819145725892
 10
81.32854137506718
 20
-130.2049722981779
 10
81.32854137506718
 20
-130.2049722981779
 10
81.38986407470462
 20
-130.1712103624225
 10
81.47237411157636
 20
-130.1309027452451
 10
81.59071314149469
 20
-130.1309027452451
 10
81.8446166787576
 20
-130.1309027452451
 10
82.08163924814279
 20
-130.3172824109971
 10
82.08163924814279
 20
-130.6304415906063
 10
82.08163924814279
 20
-130.9477348847978
 10
81.85736353205303
 20
-131.1823458873433
 10
81.55488414844808
 20
-131.1823458873433
 97
        0
 97
        0
 75
     2
 76
     1
 98
        0
  0
SPLINE
  5
62
330
5A
100
AcDbEntity
  8
_U+30EC_U+30A4_U+30E4_U+30FC 1
370
     0
100
AcDbSpline
210
0.0
220
0.0
230
1.0
 70
    11
 71
     3
 72
    44
 73
    40
 74
     0
 42
0.0000000001
 43
0.0000000001
 12
1.0
 22
0.0
 32
0.0
 13
1.0
 23
0.0
 33
0.0
 40
0.0
 40
0.0
 40
0.0
 40
0.0
 40
1.0
 40
1.0
 40
1.0
 40
2.0
 40
2.0
 40
2.0
 40
3.0
 40
3.0
 40
3.0
 40
4.0
 40
4.0
 40
4.0
 40
5.0
 40
5.0
 40
5.0
 40
6.0
 40
6.0
 40
6.0
 40
7.0
 40
7.0
 40
7.0
 40
8.0
 40
8.0
 40
8.0
 40
9.0
 40
9.0
 40
9.0
 40
10.0
 40
10.0
 40
10.0
 40
11.0
 40
11.0
 40
11.0
 40
12.0
 40
12.0
 40
12.0
 40
13.0
 40
13.0
 40
13.0
 40
13.0
 10
83.26485729255184
 20
-131.1317029837101
 30
0.0
 10
83.24143064325214
 20
-131.0872612519504
 30
0.0
 10
83.22041556079212
 20
-131.0345512910261
 30
0.0
 10
83.2181762487267
 20
-130.8037298935143
 30
0.0
 10
83.2140421341444
 20
-130.5605061522557
 30
0.0
 10
83.1547864917981
 20
-130.4905707139051
 30
0.0
 10
82.97701956475922
 20
-130.4905707139051
 30
0.0
 10
82.97701956475922
 20
-130.4905707139051
 30
0.0
 10
82.56877574975711
 20
-130.4905707139051
 30
0.0
 10
82.56877574975711
 20
-130.4905707139051
 30
0.0
 10
82.56877574975711
 20
-130.4905707139051
 30
0.0
 10
82.56877574975711
 20
-131.1317029837101
 30
0.0
 10
82.56877574975711
 20
-131.1317029837101
 30
0.0
 10
82.56877574975711
 20
-131.1317029837101
 30
0.0
 10
82.33399249243733
 20
-131.1317029837101
 30
0.0
 10
82.33399249243733
 20
-131.1317029837101
 30
0.0
 10
82.33399249243733
 20
-131.1317029837101
 30
0.0
 10
82.33399249243733
 20
-129.5872666776726
 30
0.0
 10
82.33399249243733
 20
-129.5872666776726
 30
0.0
 10
82.33399249243733
 20
-129.5872666776726
 30
0.0
 10
83.00871444322352
 20
-129.5872666776726
 30
0.0
 10
83.00871444322352
 20
-129.5872666776726
 30
0.0
 10
83.31550019618501
 20
-129.5872666776726
 30
0.0
 10
83.4827595819939
 20
-129.7588324328381
 30
0.0
 10
83.4827595819939
 20
-130.0148030273921
 30
0.0
 10
83.4827595819939
 20
-130.0654459310253
 30
0.0
 10
83.47414684328078
 20
-130.1481282226713
 30
0.0
 10
83.42970511152105
 20
-130.2283989474776
 30
0.0
 10
83.37062172394901
 20
-130.3320963215836
 30
0.0
 10
83.304992654955
 20
-130.3510443467525
 30
0.0
 10
83.24366995531756
 20
-130.3679253146302
 30
0.0
 10
83.38112926517903
 20
-130.4102999890988
 30
0.0
 10
83.44882539146418
 20
-130.4588758354408
 30
0.0
 10
83.45313176082075
 20
-130.7741020723412
 30
0.0
 10
83.45726587540305
 20
-131.0448865774818
 30
0.0
 10
83.49326712322392
 20
-131.0765814559461
 30
0.0
 10
83.56096324950907
 20
-131.1317029837101
 30
0.0
 10
83.56096324950907
 20
-131.1317029837101
 30
0.0
 10
83.26485729255184
 20
-131.1317029837101
 30
0.0
 10
83.26485729255184
 20
-131.1317029837101
 30
0.0
  0
SPLINE
  5
63
330
5A
100
AcDbEntity
  8
_U+30EC_U+30A4_U+30E4_U+30FC 1
370
     0
100
AcDbSpline
210
0.0
220
0.0
230
1.0
 70
    11
 71
     3
 72
    20
 73
    16
 74
     0
 42
0.0000000001
 43
0.0000000001
 12
1.0
 22
0.0
 32
0.0
 13
1.0
 23
0.0
 33
0.0
 40
0.0
 40
0.0
 40
0.0
 40
0.0
 40
1.0
 40
1.0
 40
1.0
 40
2.0
 40
2.0
 40
2.0
 40
3.0
 40
3.0
 40
3.0
 40
4.0
 40
4.0
 40
4.0
 40
5.0
 40
5.0
 40
5.0
 40
5.0
 10
83.01302081258008
 20
-129.798795540467
 30
0.0
 10
83.01302081258008
 20
-129.798795540467
 30
0.0
 10
82.56877574975711
 20
-129.798795540467
 30
0.0
 10
82.56877574975711
 20
-129.798795540467
 30
0.0
 10
82.56877574975711
 20
-129.798795540467
 30
0.0
 10
82.56877574975711
 20
-130.2790418511108
 30
0.0
 10
82.56877574975711
 20
-130.2790418511108
 30
0.0
 10
82.56877574975711
 20
-130.2790418511108
 30
0.0
 10
83.01095375528894
 20
-130.2790418511108
 30
0.0
 10
83.01095375528894
 20
-130.2790418511108
 30
0.0
 10
83.11034476003839
 20
-130.2790418511108
 30
0.0
 10
83.24573701260871
 20
-130.2029052408868
 30
0.0
 10
83.24573701260871
 20
-130.0316839952699
 30
0.0
 10
83.24573701260871
 20
-129.9534803277547
 30
0.0
 10
83.21197507685326
 20
-129.798795540467
 30
0.0
 10
83.01302081258008
 20
-129.798795540467
 30
0.0
  0
HATCH
  5
64
330
5A
100
AcDbEntity
  8
_U+30EC_U+30A4_U+30E4_U+30FC 1
 62
   179
420
  2234388
100
AcDbHatch
 10
0.0
 20
0.0
 30
0.0
210
0.0
220
0.0
230
1.0
  2
SOLID
 70
     1
 71
     0
 91
        2
 92
        1
 93
        1
 72
     4
 94
        3
 73
     0
 74
     1
 95
       44
 96
       40
 40
0.0
 40
0.0
 40
0.0
 40
0.0
 40
1.0
 40
1.0
 40
1.0
 40
2.0
 40
2.0
 40
2.0
 40
3.0
 40
3.0
 40
3.0
 40
4.0
 40
4.0
 40
4.0
 40
5.0
 40
5.0
 40
5.0
 40
6.0
 40
6.0
 40
6.0
 40
7.0
 40
7.0
 40
7.0
 40
8.0
 40
8.0
 40
8.0
 40
9.0
 40
9.0
 40
9.0
 40
10.0
 40
10.0
 40
10.0
 40
11.0
 40
11.0
 40
11.0
 40
12.0
 40
12.0
 40
12.0
 40
13.0
 40
13.0
 40
13.0
 40
13.0
 10
83.26485729255184
 20
-131.1317029837101
 10
83.24143064325214
 20
-131.0872612519504
 10
83.22041556079212
 20
-131.0345512910261
 10
83.2181762487267
 20
-130.8037298935143
 10
83.2140421341444
 20
-130.5605061522557
 10
83.1547864917981
 20
-130.4905707139051
 10
82.97701956475922
 20
-130.4905707139051
 10
82.97701956475922
 20
-130.4905707139051
 10
82.56877574975711
 20
-130.4905707139051
 10
82.56877574975711
 20
-130.4905707139051
 10
82.56877574975711
 20
-130.4905707139051
 10
82.56877574975711
 20
-131.1317029837101
 10
82.56877574975711
 20
-131.1317029837101
 10
82.56877574975711
 20
-131.1317029837101
 10
82.33399249243733
 20
-131.1317029837101
 10
82.33399249243733
 20
-131.1317029837101
 10
82.33399249243733
 20
-131.1317029837101
 10
82.33399249243733
 20
-129.5872666776726
 10
82.33399249243733
 20
-129.5872666776726
 10
82.33399249243733
 20
-129.5872666776726
 10
83.00871444322352
 20
-129.5872666776726
 10
83.00871444322352
 20
-129.5872666776726
 10
83.31550019618501
 20
-129.5872666776726
 10
83.4827595819939
 20
-129.7588324328381
 10
83.4827595819939
 20
-130.0148030273921
 10
83.4827595819939
 20
-130.0654459310253
 10
83.47414684328078
 20
-130.1481282226713
 10
83.42970511152105
 20
-130.2283989474776
 10
83.37062172394901
 20
-130.3320963215836
 10
83.304992654955
 20
-130.3510443467525
 10
83.24366995531756
 20
-130.3679253146302
 10
83.38112926517903
 20
-130.4102999890988
 10
83.44882539146418
 20
-130.4588758354408
 10
83.45313176082075
 20
-130.7741020723412
 10
83.45726587540305
 20
-131.0448865774818
 10
83.49326712322392
 20
-131.0765814559461
 10
83.56096324950907
 20
-131.1317029837101
 10
83.56096324950907
 20
-131.1317029837101
 10
83.26485729255184
 20
-131.1317029837101
 10
83.26485729255184
 20
-131.1317029837101
 97
        0
 97
        0
 92
        1
 93
        1
 72
     4
 94
        3
 73
     0
 74
     1
 95
       20
 96
       16
 40
0.0
 40
0.0
 40
0.0
 40
0.0
 40
1.0
 40
1.0
 40
1.0
 40
2.0
 40
2.0
 40
2.0
 40
3.0
 40
3.0
 40
3.0
 40
4.0
 40
4.0
 40
4.0
 40
5.0
 40
5.0
 40
5.0
 40
5.0
 10
83.01302081258008
 20
-129.798795540467
 10
83.01302081258008
 20
-129.798795540467
 10
82.56877574975711
 20
-129.798795540467
 10
82.56877574975711
 20
-129.798795540467
 10
82.56877574975711
 20
-129.798795540467
 10
82.56877574975711
 20
-130.2790418511108
 10
82.56877574975711
 20
-130.2790418511108
 10
82.56877574975711
 20
-130.2790418511108
 10
83.01095375528894
 20
-130.2790418511108
 10
83.01095375528894
 20
-130.2790418511108
 10
83.11034476003839
 20
-130.2790418511108
 10
83.24573701260871
 20
-130.2029052408868
 10
83.24573701260871
 20
-130.0316839952699
 10
83.24573701260871
 20
-129.9534803277547
 10
83.21197507685326
 20
-129.798795540467
 10
83.01302081258008
 20
-129.798795540467
 97
        0
 97
        0
 75
     2
 76
     1
 98
        0
  0
ENDBLK
  5
5D
330
5A
100
AcDbEntity
  8
0
100
AcDbBlockEnd
  0
BLOCK
  5
77
330
75
100
AcDbEntity
  8
0
100
AcDbBlockBegin
  2
block 4
 70
     0
 10
0.0
 20
0.0
 30
0.0
  3
block 4
  1

  0
SPLINE
  5
79
330
75
100
AcDbEntity
  8
_U+30EC_U+30A4_U+30E4_U+30FC 1
370
     0
100
AcDbSpline
210
0.0
220
0.0
230
1.0
 70
    11
 71
     3
 72
    26
 73
    22
 74
     0
 42
0.0000000001
 43
0.0000000001
 12
1.0
 22
0.0
 32
0.0
 13
1.0
 23
0.0
 33
0.0
 40
0.0
 40
0.0
 40
0.0
 40
0.0
 40
1.0
 40
1.0
 40
1.0
 40
2.0
 40
2.0
 40
2.0
 40
3.0
 40
3.0
 40
3.0
 40
4.0
 40
4.0
 40
4.0
 40
5.0
 40
5.0
 40
5.0
 40
6.0
 40
6.0
 40
6.0
 40
7.0
 40
7.0
 40
7.0
 40
7.0
 10
106.9471326772563
 20
-122.9482231680477
 30
0.0
 10
106.9471326772563
 20
-122.9482231680477
 30
0.0
 10
105.8429795742337
 20
-122.9482231680477
 30
0.0
 10
105.8429795742337
 20
-122.9482231680477
 30
0.0
 10
105.8429795742337
 20
-122.9482231680477
 30
0.0
 10
105.8429795742337
 20
-123.2782633155346
 30
0.0
 10
105.8429795742337
 20
-123.2782633155346
 30
0.0
 10
105.8429795742337
 20
-123.2782633155346
 30
0.0
 10
105.694840468368
 20
-123.2782633155346
 30
0.0
 10
105.694840468368
 20
-123.2782633155346
 30
0.0
 10
105.6800265577814
 20
-122.9461561107565
 30
0.0
 10
105.5170735413291
 20
-122.8996473217056
 30
0.0
 10
105.4026963712188
 20
-122.8700195005325
 30
0.0
 10
105.4026963712188
 20
-122.8700195005325
 30
0.0
 10
105.4026963712188
 20
-122.7239474519579
 30
0.0
 10
105.4026963712188
 20
-122.7239474519579
 30
0.0
 10
105.4026963712188
 20
-122.7239474519579
 30
0.0
 10
106.9471326772563
 20
-122.7239474519579
 30
0.0
 10
106.9471326772563
 20
-122.7239474519579
 30
0.0
 10
106.9471326772563
 20
-122.7239474519579
 30
0.0
 10
106.9471326772563
 20
-122.9482231680477
 30
0.0
 10
106.9471326772563
 20
-122.9482231680477
 30
0.0
  0
HATCH
  5
7A
330
75
100
AcDbEntity
  8
_U+30EC_U+30A4_U+30E4_U+30FC 1
 62
   179
420
  2234388
100
AcDbHatch
 10
0.0
 20
0.0
 30
0.0
210
0.0
220
0.0
230
1.0
  2
SOLID
 70
     1
 71
     0
 91
        1
 92
        1
 93
        1
 72
     4
 94
        3
 73
     0
 74
     1
 95
       26
 96
       22
 40
0.0
 40
0.0
 40
0.0
 40
0.0
 40
1.0
 40
1.0
 40
1.0
 40
2.0
 40
2.0
 40
2.0
 40
3.0
 40
3.0
 40
3.0
 40
4.0
 40
4.0
 40
4.0
 40
5.0
 40
5.0
 40
5.0
 40
6.0
 40
6.0
 40
6.0
 40
7.0
 40
7.0
 40
7.0
 40
7.0
 10
106.9471326772563
 20
-122.9482231680477
 10
106.9471326772563
 20
-122.9482231680477
 10
105.8429795742337
 20
-122.9482231680477
 10
105.8429795742337
 20
-122.9482231680477
 10
105.8429795742337
 20
-122.9482231680477
 10
105.8429795742337
 20
-123.2782633155346
 10
105.8429795742337
 20
-123.2782633155346
 10
105.8429795742337
 20
-123.2782633155346
 10
105.694840468368
 20
-123.2782633155346
 10
105.694840468368
 20
-123.2782633155346
 10
105.6800265577814
 20
-122.9461561107565
 10
105.5170735413291
 20
-122.8996473217056
 10
105.4026963712188
 20
-122.8700195005325
 10
105.4026963712188
 20
-122.8700195005325
 10
105.4026963712188
 20
-122.7239474519579
 10
105.4026963712188
 20
-122.7239474519579
 10
105.4026963712188
 20
-122.7239474519579
 10
106.9471326772563
 20
-122.7239474519579
 10
106.9471326772563
 20
-122.7239474519579
 10
106.9471326772563
 20
-122.7239474519579
 10
106.9471326772563
 20
-122.9482231680477
 10
106.9471326772563
 20
-122.9482231680477
 97
        0
 97
        0
 75
     2
 76
     1
 98
        0
  0
ENDBLK
  5
78
330
75
100
AcDbEntity
  8
0
100
AcDbBlockEnd
  0
BLOCK
  5
85
330
83
100
AcDbEntity
  8
0
100
AcDbBlockBegin
  2
block 5
 70
     0
 10
0.0
 20
0.0
 30
0.0
  3
block 5
  1

  0
SPLINE
  5
87
330
83
100
AcDbEntity
  8
_U+30EC_U+30A4_U+30E4_U+30FC 1
370
     0
100
AcDbSpline
210
0.0
220
0.0
230
1.0
 70
    11
 71
     3
 72
    26
 73
    22
 74
     0
 42
0.0000000001
 43
0.0000000001
 12
1.0
 22
0.0
 32
0.0
 13
1.0
 23
0.0
 33
0.0
 40
0.0
 40
0.0
 40
0.0
 40
0.0
 40
1.0
 40
1.0
 40
1.0
 40
2.0
 40
2.0
 40
2.0
 40
3.0
 40
3.0
 40
3.0
 40
4.0
 40
4.0
 40
4.0
 40
5.0
 40
5.0
 40
5.0
 40
6.0
 40
6.0
 40
6.0
 40
7.0
 40
7.0
 40
7.0
 40
7.0
 10
106.9474771868048
 20
-134.0359184777757
 30
0.0
 10
106.9474771868048
 20
-134.0359184777757
 30
0.0
 10
105.8433240837822
 20
-134.0359184777757
 30
0.0
 10
105.8433240837822
 20
-134.0359184777757
 30
0.0
 10
105.8433240837822
 20
-134.0359184777757
 30
0.0
 10
105.8433240837822
 20
-134.3659586252627
 30
0.0
 10
105.8433240837822
 20
-134.3659586252627
 30
0.0
 10
105.8433240837822
 20
-134.3659586252627
 30
0.0
 10
105.6951849779165
 20
-134.3659586252627
 30
0.0
 10
105.6951849779165
 20
-134.3659586252627
 30
0.0
 10
105.6803710673299
 20
-134.0338514204846
 30
0.0
 10
105.5174180508776
 20
-133.9873426314337
 30
0.0
 10
105.4030408807673
 20
-133.9577148102606
 30
0.0
 10
105.4030408807673
 20
-133.9577148102606
 30
0.0
 10
105.4030408807673
 20
-133.811642761686
 30
0.0
 10
105.4030408807673
 20
-133.811642761686
 30
0.0
 10
105.4030408807673
 20
-133.811642761686
 30
0.0
 10
106.9474771868048
 20
-133.811642761686
 30
0.0
 10
106.9474771868048
 20
-133.811642761686
 30
0.0
 10
106.9474771868048
 20
-133.811642761686
 30
0.0
 10
106.9474771868048
 20
-134.0359184777757
 30
0.0
 10
106.9474771868048
 20
-134.0359184777757
 30
0.0
  0
HATCH
  5
88
330
83
100
AcDbEntity
  8
_U+30EC_U+30A4_U+30E4_U+30FC 1
 62
   179
420
  2234388
100
AcDbHatch
 10
0.0
 20
0.0
 30
0.0
210
0.0
220
0.0
230
1.0
  2
SOLID
 70
     1
 71
     0
 91
        1
 92
        1
 93
        1
 72
     4
 94
        3
 73
     0
 74
     1
 95
       26
 96
       22
 40
0.0
 40
0.0
 40
0.0
 40
0.0
 40
1.0
 40
1.0
 40
1.0
 40
2.0
 40
2.0
 40
2.0
 40
3.0
 40
3.0
 40
3.0
 40
4.0
 40
4.0
 40
4.0
 40
5.0
 40
5.0
 40
5.0
 40
6.0
 40
6.0
 40
6.0
 40
7.0
 40
7.0
 40
7.0
 40
7.0
 10
106.9474771868048
 20
-134.0359184777757
 10
106.9474771868048
 20
-134.0359184777757
 10
105.8433240837822
 20
-134.0359184777757
 10
105.8433240837822
 20
-134.0359184777757
 10
105.8433240837822
 20
-134.0359184777757
 10
105.8433240837822
 20
-134.3659586252627
 10
105.8433240837822
 20
-134.3659586252627
 10
105.8433240837822
 20
-134.3659586252627
 10
105.6951849779165
 20
-134.3659586252627
 10
105.6951849779165
 20
-134.3659586252627
 10
105.6803710673299
 20
-134.0338514204846
 10
105.5174180508776
 20
-133.9873426314337
 10
105.4030408807673
 20
-133.9577148102606
 10
105.4030408807673
 20
-133.9577148102606
 10
105.4030408807673
 20
-133.811642761686
 10
105.4030408807673
 20
-133.811642761686
 10
105.4030408807673
 20
-133.811642761686
 10
106.9474771868048
 20
-133.811642761686
 10
106.9474771868048
 20
-133.811642761686
 10
106.9474771868048
 20
-133.811642761686
 10
106.9474771868048
 20
-134.0359184777757
 10
106.9474771868048
 20
-134.0359184777757
 97
        0
 97
        0
 75
     2
 76
     1
 98
        0
  0
SPLINE
  5
89
330
83
100
AcDbEntity
  8
_U+30EC_U+30A4_U+30E4_U+30FC 1
370
     0
100
AcDbSpline
210
0.0
220
0.0
230
1.0
 70
    11
 71
     3
 72
    53
 73
    49
 74
     0
 42
0.0000000001
 43
0.0000000001
 12
1.0
 22
0.0
 32
0.0
 13
1.0
 23
0.0
 33
0.0
 40
0.0
 40
0.0
 40
0.0
 40
0.0
 40
1.0
 40
1.0
 40
1.0
 40
2.0
 40
2.0
 40
2.0
 40
3.0
 40
3.0
 40
3.0
 40
4.0
 40
4.0
 40
4.0
 40
5.0
 40
5.0
 40
5.0
 40
6.0
 40
6.0
 40
6.0
 40
7.0
 40
7.0
 40
7.0
 40
8.0
 40
8.0
 40
8.0
 40
9.0
 40
9.0
 40
9.0
 40
10.0
 40
10.0
 40
10.0
 40
11.0
 40
11.0
 40
11.0
 40
12.0
 40
12.0
 40
12.0
 40
13.0
 40
13.0
 40
13.0
 40
14.0
 40
14.0
 40
14.0
 40
15.0
 40
15.0
 40
15.0
 40
16.0
 40
16.0
 40
16.0
 40
16.0
 10
106.998120090438
 20
-132.8294460388413
 30
0.0
 10
106.998120090438
 20
-132.9076497063564
 30
0.0
 10
106.9812391225603
 20
-133.0092800231713
 30
0.0
 10
106.9178493656317
 20
-133.1109103399862
 30
0.0
 10
106.8079508196522
 20
-133.2841986428942
 30
0.0
 10
106.6766926816642
 20
-133.3055582349028
 30
0.0
 10
106.5688611929758
 20
-133.3245062600716
 30
0.0
 10
106.5688611929758
 20
-133.3245062600716
 30
0.0
 10
106.5688611929758
 20
-133.1022976012731
 30
0.0
 10
106.5688611929758
 20
-133.1022976012731
 30
0.0
 10
106.7676432024748
 20
-133.0475205830576
 30
0.0
 10
106.7972710236479
 20
-132.9203965596519
 30
0.0
 10
106.7972710236479
 20
-132.8273789815501
 30
0.0
 10
106.7972710236479
 20
-132.6878526143975
 30
0.0
 10
106.6977077641242
 20
-132.5355793939494
 30
0.0
 10
106.4651638188698
 20
-132.5355793939494
 30
0.0
 10
106.2091932243158
 20
-132.5355793939494
 30
0.0
 10
106.1392577859652
 20
-132.7154133782795
 30
0.0
 10
106.1392577859652
 20
-132.8359917202632
 30
0.0
 10
106.1392577859652
 20
-132.8676865987275
 30
0.0
 10
106.1392577859652
 20
-133.0092800231713
 30
0.0
 10
106.2684488666621
 20
-133.0981634866907
 30
0.0
 10
106.2684488666621
 20
-133.0981634866907
 30
0.0
 10
106.2495008414932
 20
-133.2738633564385
 30
0.0
 10
106.2495008414932
 20
-133.2738633564385
 30
0.0
 10
106.2495008414932
 20
-133.2738633564385
 30
0.0
 10
105.4030408807673
 20
-133.1532850144548
 30
0.0
 10
105.4030408807673
 20
-133.1532850144548
 30
0.0
 10
105.4030408807673
 20
-133.1532850144548
 30
0.0
 10
105.4030408807673
 20
-132.3746934347883
 30
0.0
 10
105.4030408807673
 20
-132.3746934347883
 30
0.0
 10
105.4030408807673
 20
-132.3746934347883
 30
0.0
 10
105.5976887756839
 20
-132.3746934347883
 30
0.0
 10
105.5976887756839
 20
-132.3746934347883
 30
0.0
 10
105.5976887756839
 20
-132.3746934347883
 30
0.0
 10
105.5976887756839
 20
-132.9903319980024
 30
0.0
 10
105.5976887756839
 20
-132.9903319980024
 30
0.0
 10
105.5976887756839
 20
-132.9903319980024
 30
0.0
 10
106.0207465012726
 20
-133.0557888122222
 30
0.0
 10
106.0207465012726
 20
-133.0557888122222
 30
0.0
 10
105.9869845655171
 20
-132.9944661125847
 30
0.0
 10
105.9466769483397
 20
-132.9121283304873
 30
0.0
 10
105.9466769483397
 20
-132.7936170457947
 30
0.0
 10
105.9466769483397
 20
-132.5397135085317
 30
0.0
 10
106.1330566140917
 20
-132.3026909391465
 30
0.0
 10
106.446215793701
 20
-132.3026909391465
 30
0.0
 10
106.7635090878925
 20
-132.3026909391465
 30
0.0
 10
106.998120090438
 20
-132.5269666552363
 30
0.0
 10
106.998120090438
 20
-132.8294460388413
 30
0.0
  0
HATCH
  5
8A
330
83
100
AcDbEntity
  8
_U+30EC_U+30A4_U+30E4_U+30FC 1
 62
   179
420
  2234388
100
AcDbHatch
 10
0.0
 20
0.0
 30
0.0
210
0.0
220
0.0
230
1.0
  2
SOLID
 70
     1
 71
     0
 91
        1
 92
        1
 93
        1
 72
     4
 94
        3
 73
     0
 74
     1
 95
       53
 96
       49
 40
0.0
 40
0.0
 40
0.0
 40
0.0
 40
1.0
 40
1.0
 40
1.0
 40
2.0
 40
2.0
 40
2.0
 40
3.0
 40
3.0
 40
3.0
 40
4.0
 40
4.0
 40
4.0
 40
5.0
 40
5.0
 40
5.0
 40
6.0
 40
6.0
 40
6.0
 40
7.0
 40
7.0
 40
7.0
 40
8.0
 40
8.0
 40
8.0
 40
9.0
 40
9.0
 40
9.0
 40
10.0
 40
10.0
 40
10.0
 40
11.0
 40
11.0
 40
11.0
 40
12.0
 40
12.0
 40
12.0
 40
13.0
 40
13.0
 40
13.0
 40
14.0
 40
14.0
 40
14.0
 40
15.0
 40
15.0
 40
15.0
 40
16.0
 40
16.0
 40
16.0
 40
16.0
 10
106.998120090438
 20
-132.8294460388413
 10
106.998120090438
 20
-132.9076497063564
 10
106.9812391225603
 20
-133.0092800231713
 10
106.9178493656317
 20
-133.1109103399862
 10
106.8079508196522
 20
-133.2841986428942
 10
106.6766926816642
 20
-133.3055582349028
 10
106.5688611929758
 20
-133.3245062600716
 10
106.5688611929758
 20
-133.3245062600716
 10
106.5688611929758
 20
-133.1022976012731
 10
106.5688611929758
 20
-133.1022976012731
 10
106.7676432024748
 20
-133.0475205830576
 10
106.7972710236479
 20
-132.9203965596519
 10
106.7972710236479
 20
-132.8273789815501
 10
106.7972710236479
 20
-132.6878526143975
 10
106.6977077641242
 20
-132.5355793939494
 10
106.4651638188698
 20
-132.5355793939494
 10
106.2091932243158
 20
-132.5355793939494
 10
106.1392577859652
 20
-132.7154133782795
 10
106.1392577859652
 20
-132.8359917202632
 10
106.1392577859652
 20
-132.8676865987275
 10
106.1392577859652
 20
-133.0092800231713
 10
106.2684488666621
 20
-133.0981634866907
 10
106.2684488666621
 20
-133.0981634866907
 10
106.2495008414932
 20
-133.2738633564385
 10
106.2495008414932
 20
-133.2738633564385
 10
106.2495008414932
 20
-133.2738633564385
 10
105.4030408807673
 20
-133.1532850144548
 10
105.4030408807673
 20
-133.1532850144548
 10
105.4030408807673
 20
-133.1532850144548
 10
105.4030408807673
 20
-132.3746934347883
 10
105.4030408807673
 20
-132.3746934347883
 10
105.4030408807673
 20
-132.3746934347883
 10
105.5976887756839
 20
-132.3746934347883
 10
105.5976887756839
 20
-132.3746934347883
 10
105.5976887756839
 20
-132.3746934347883
 10
105.5976887756839
 20
-132.9903319980024
 10
105.5976887756839
 20
-132.9903319980024
 10
105.5976887756839
 20
-132.9903319980024
 10
106.0207465012726
 20
-133.0557888122222
 10
106.0207465012726
 20
-133.0557888122222
 10
105.9869845655171
 20
-132.9944661125847
 10
105.9466769483397
 20
-132.9121283304873
 10
105.9466769483397
 20
-132.7936170457947
 10
105.9466769483397
 20
-132.5397135085317
 10
106.1330566140917
 20
-132.3026909391465
 10
106.446215793701
 20
-132.3026909391465
 10
106.7635090878925
 20
-132.3026909391465
 10
106.998120090438
 20
-132.5269666552363
 10
106.998120090438
 20
-132.8294460388413
 97
        0
 97
        0
 75
     2
 76
     1
 98
        0
  0
ENDBLK
  5
86
330
83
100
AcDbEntity
  8
0
100
AcDbBlockEnd
  0
BLOCK
  5
99
330
97
100
AcDbEntity
  8
0
100
AcDbBlockBegin
  2
block 6
 70
     0
 10
0.0
 20
0.0
 30
0.0
  3
block 6
  1

  0
SPLINE
  5
9B
330
97
100
AcDbEntity
  8
_U+30EC_U+30A4_U+30E4_U+30FC 1
370
     0
100
AcDbSpline
210
0.0
220
0.0
230
1.0
 70
    11
 71
     3
 72
    26
 73
    22
 74
     0
 42
0.0000000001
 43
0.0000000001
 12
1.0
 22
0.0
 32
0.0
 13
1.0
 23
0.0
 33
0.0
 40
0.0
 40
0.0
 40
0.0
 40
0.0
 40
1.0
 40
1.0
 40
1.0
 40
2.0
 40
2.0
 40
2.0
 40
3.0
 40
3.0
 40
3.0
 40
4.0
 40
4.0
 40
4.0
 40
5.0
 40
5.0
 40
5.0
 40
6.0
 40
6.0
 40
6.0
 40
7.0
 40
7.0
 40
7.0
 40
7.0
 10
95.28961857426788
 20
-144.3246961444744
 30
0.0
 10
95.28961857426788
 20
-144.3246961444744
 30
0.0
 10
95.28961857426788
 20
-143.2205430414518
 30
0.0
 10
95.28961857426788
 20
-143.2205430414518
 30
0.0
 10
95.28961857426788
 20
-143.2205430414518
 30
0.0
 10
94.95957842678094
 20
-143.2205430414518
 30
0.0
 10
94.95957842678094
 20
-143.2205430414518
 30
0.0
 10
94.95957842678094
 20
-143.2205430414518
 30
0.0
 10
94.95957842678094
 20
-143.0724039355861
 30
0.0
 10
94.95957842678094
 20
-143.0724039355861
 30
0.0
 10
95.29168563155903
 20
-143.0575900249995
 30
0.0
 10
95.3381944206099
 20
-142.8946370085472
 30
0.0
 10
95.36782224178305
 20
-142.7802598384369
 30
0.0
 10
95.36782224178305
 20
-142.7802598384369
 30
0.0
 10
95.51389429035764
 20
-142.7802598384369
 30
0.0
 10
95.51389429035764
 20
-142.7802598384369
 30
0.0
 10
95.51389429035764
 20
-142.7802598384369
 30
0.0
 10
95.51389429035764
 20
-144.3246961444744
 30
0.0
 10
95.51389429035764
 20
-144.3246961444744
 30
0.0
 10
95.51389429035764
 20
-144.3246961444744
 30
0.0
 10
95.28961857426788
 20
-144.3246961444744
 30
0.0
 10
95.28961857426788
 20
-144.3246961444744
 30
0.0
  0
HATCH
  5
9C
330
97
100
AcDbEntity
  8
_U+30EC_U+30A4_U+30E4_U+30FC 1
 62
   179
420
  2234388
100
AcDbHatch
 10
0.0
 20
0.0
 30
0.0
210
0.0
220
0.0
230
1.0
  2
SOLID
 70
     1
 71
     0
 91
        1
 92
        1
 93
        1
 72
     4
 94
        3
 73
     0
 74
     1
 95
       26
 96
       22
 40
0.0
 40
0.0
 40
0.0
 40
0.0
 40
1.0
 40
1.0
 40
1.0
 40
2.0
 40
2.0
 40
2.0
 40
3.0
 40
3.0
 40
3.0
 40
4.0
 40
4.0
 40
4.0
 40
5.0
 40
5.0
 40
5.0
 40
6.0
 40
6.0
 40
6.0
 40
7.0
 40
7.0
 40
7.0
 40
7.0
 10
95.28961857426788
 20
-144.3246961444744
 10
95.28961857426788
 20
-144.3246961444744
 10
95.28961857426788
 20
-143.2205430414518
 10
95.28961857426788
 20
-143.2205430414518
 10
95.28961857426788
 20
-143.2205430414518
 10
94.95957842678094
 20
-143.2205430414518
 10
94.95957842678094
 20
-143.2205430414518
 10
94.95957842678094
 20
-143.2205430414518
 10
94.95957842678094
 20
-143.0724039355861
 10
94.95957842678094
 20
-143.0724039355861
 10
95.29168563155903
 20
-143.0575900249995
 10
95.3381944206099
 20
-142.8946370085472
 10
95.36782224178305
 20
-142.7802598384369
 10
95.36782224178305
 20
-142.7802598384369
 10
95.51389429035764
 20
-142.7802598384369
 10
95.51389429035764
 20
-142.7802598384369
 10
95.51389429035764
 20
-142.7802598384369
 10
95.51389429035764
 20
-144.3246961444744
 10
95.51389429035764
 20
-144.3246961444744
 10
95.51389429035764
 20
-144.3246961444744
 10
95.28961857426788
 20
-144.3246961444744
 10
95.28961857426788
 20
-144.3246961444744
 97
        0
 97
        0
 75
     2
 76
     1
 98
        0
  0
SPLINE
  5
9D
330
97
100
AcDbEntity
  8
_U+30EC_U+30A4_U+30E4_U+30FC 1
370
     0
100
AcDbSpline
210
0.0
220
0.0
230
1.0
 70
    11
 71
     3
 72
    53
 73
    49
 74
     0
 42
0.0000000001
 43
0.0000000001
 12
1.0
 22
0.0
 32
0.0
 13
1.0
 23
0.0
 33
0.0
 40
0.0
 40
0.0
 40
0.0
 40
0.0
 40
1.0
 40
1.0
 40
1.0
 40
2.0
 40
2.0
 40
2.0
 40
3.0
 40
3.0
 40
3.0
 40
4.0
 40
4.0
 40
4.0
 40
5.0
 40
5.0
 40
5.0
 40
6.0
 40
6.0
 40
6.0
 40
7.0
 40
7.0
 40
7.0
 40
8.0
 40
8.0
 40
8.0
 40
9.0
 40
9.0
 40
9.0
 40
10.0
 40
10.0
 40
10.0
 40
11.0
 40
11.0
 40
11.0
 40
12.0
 40
12.0
 40
12.0
 40
13.0
 40
13.0
 40
13.0
 40
14.0
 40
14.0
 40
14.0
 40
15.0
 40
15.0
 40
15.0
 40
16.0
 40
16.0
 40
16.0
 40
16.0
 10
96.49609101320237
 20
-144.3753390481075
 30
0.0
 10
96.4178873456872
 20
-144.3753390481075
 30
0.0
 10
96.31625702887233
 20
-144.3584580802298
 30
0.0
 10
96.21462671205745
 20
-144.2950683233013
 30
0.0
 10
96.04133840914939
 20
-144.1851697773218
 30
0.0
 10
96.01997881714084
 20
-144.0539116393338
 30
0.0
 10
96.00103079197197
 20
-143.9460801506454
 30
0.0
 10
96.00103079197197
 20
-143.9460801506454
 30
0.0
 10
96.22323945077058
 20
-143.9460801506454
 30
0.0
 10
96.22323945077058
 20
-143.9460801506454
 30
0.0
 10
96.27801646898605
 20
-144.1448621601444
 30
0.0
 10
96.40514049239178
 20
-144.1744899813175
 30
0.0
 10
96.49815807049352
 20
-144.1744899813175
 30
0.0
 10
96.63768443764614
 20
-144.1744899813175
 30
0.0
 10
96.78995765809418
 20
-144.0749267217938
 30
0.0
 10
96.78995765809418
 20
-143.8423827765394
 30
0.0
 10
96.78995765809418
 20
-143.5864121819853
 30
0.0
 10
96.61012367376414
 20
-143.5164767436348
 30
0.0
 10
96.48954533178039
 20
-143.5164767436348
 30
0.0
 10
96.4578504533161
 20
-143.5164767436348
 30
0.0
 10
96.31625702887233
 20
-143.5164767436348
 30
0.0
 10
96.22737356535288
 20
-143.6456678243316
 30
0.0
 10
96.22737356535288
 20
-143.6456678243316
 30
0.0
 10
96.05167369560515
 20
-143.6267197991628
 30
0.0
 10
96.05167369560515
 20
-143.6267197991628
 30
0.0
 10
96.05167369560515
 20
-143.6267197991628
 30
0.0
 10
96.17225203758889
 20
-142.7802598384369
 30
0.0
 10
96.17225203758889
 20
-142.7802598384369
 30
0.0
 10
96.17225203758889
 20
-142.7802598384369
 30
0.0
 10
96.95084361725534
 20
-142.7802598384369
 30
0.0
 10
96.95084361725534
 20
-142.7802598384369
 30
0.0
 10
96.95084361725534
 20
-142.7802598384369
 30
0.0
 10
96.95084361725534
 20
-142.9749077333535
 30
0.0
 10
96.95084361725534
 20
-142.9749077333535
 30
0.0
 10
96.95084361725534
 20
-142.9749077333535
 30
0.0
 10
96.3352050540412
 20
-142.9749077333535
 30
0.0
 10
96.3352050540412
 20
-142.9749077333535
 30
0.0
 10
96.3352050540412
 20
-142.9749077333535
 30
0.0
 10
96.26974823982145
 20
-143.3979654589422
 30
0.0
 10
96.26974823982145
 20
-143.3979654589422
 30
0.0
 10
96.3310709394589
 20
-143.3642035231867
 30
0.0
 10
96.41340872155638
 20
-143.3238959060093
 30
0.0
 10
96.53192000624897
 20
-143.3238959060093
 30
0.0
 10
96.78582354351188
 20
-143.3238959060093
 30
0.0
 10
97.02284611289707
 20
-143.5102755717613
 30
0.0
 10
97.02284611289707
 20
-143.8234347513705
 30
0.0
 10
97.02284611289707
 20
-144.140728045562
 30
0.0
 10
96.7985703968073
 20
-144.3753390481075
 30
0.0
 10
96.49609101320237
 20
-144.3753390481075
 30
0.0
  0
HATCH
  5
9E
330
97
100
AcDbEntity
  8
_U+30EC_U+30A4_U+30E4_U+30FC 1
 62
   179
420
  2234388
100
AcDbHatch
 10
0.0
 20
0.0
 30
0.0
210
0.0
220
0.0
230
1.0
  2
SOLID
 70
     1
 71
     0
 91
        1
 92
        1
 93
        1
 72
     4
 94
        3
 73
     0
 74
     1
 95
       53
 96
       49
 40
0.0
 40
0.0
 40
0.0
 40
0.0
 40
1.0
 40
1.0
 40
1.0
 40
2.0
 40
2.0
 40
2.0
 40
3.0
 40
3.0
 40
3.0
 40
4.0
 40
4.0
 40
4.0
 40
5.0
 40
5.0
 40
5.0
 40
6.0
 40
6.0
 40
6.0
 40
7.0
 40
7.0
 40
7.0
 40
8.0
 40
8.0
 40
8.0
 40
9.0
 40
9.0
 40
9.0
 40
10.0
 40
10.0
 40
10.0
 40
11.0
 40
11.0
 40
11.0
 40
12.0
 40
12.0
 40
12.0
 40
13.0
 40
13.0
 40
13.0
 40
14.0
 40
14.0
 40
14.0
 40
15.0
 40
15.0
 40
15.0
 40
16.0
 40
16.0
 40
16.0
 40
16.0
 10
96.49609101320237
 20
-144.3753390481075
 10
96.4178873456872
 20
-144.3753390481075
 10
96.31625702887233
 20
-144.3584580802298
 10
96.21462671205745
 20
-144.2950683233013
 10
96.04133840914939
 20
-144.1851697773218
 10
96.01997881714084
 20
-144.0539116393338
 10
96.00103079197197
 20
-143.9460801506454
 10
96.00103079197197
 20
-143.9460801506454
 10
96.22323945077058
 20
-143.9460801506454
 10
96.22323945077058
 20
-143.9460801506454
 10
96.27801646898605
 20
-144.1448621601444
 10
96.40514049239178
 20
-144.1744899813175
 10
96.49815807049352
 20
-144.1744899813175
 10
96.63768443764614
 20
-144.1744899813175
 10
96.78995765809418
 20
-144.0749267217938
 10
96.78995765809418
 20
-143.8423827765394
 10
96.78995765809418
 20
-143.5864121819853
 10
96.61012367376414
 20
-143.5164767436348
 10
96.48954533178039
 20
-143.5164767436348
 10
96.4578504533161
 20
-143.5164767436348
 10
96.31625702887233
 20
-143.5164767436348
 10
96.22737356535288
 20
-143.6456678243316
 10
96.22737356535288
 20
-143.6456678243316
 10
96.05167369560515
 20
-143.6267197991628
 10
96.05167369560515
 20
-143.6267197991628
 10
96.05167369560515
 20
-143.6267197991628
 10
96.17225203758889
 20
-142.7802598384369
 10
96.17225203758889
 20
-142.7802598384369
 10
96.17225203758889
 20
-142.7802598384369
 10
96.95084361725534
 20
-142.7802598384369
 10
96.95084361725534
 20
-142.7802598384369
 10
96.95084361725534
 20
-142.7802598384369
 10
96.95084361725534
 20
-142.9749077333535
 10
96.95084361725534
 20
-142.9749077333535
 10
96.95084361725534
 20
-142.9749077333535
 10
96.3352050540412
 20
-142.9749077333535
 10
96.3352050540412
 20
-142.9749077333535
 10
96.3352050540412
 20
-142.9749077333535
 10
96.26974823982145
 20
-143.3979654589422
 10
96.26974823982145
 20
-143.3979654589422
 10
96.3310709394589
 20
-143.3642035231867
 10
96.41340872155638
 20
-143.3238959060093
 10
96.53192000624897
 20
-143.3238959060093
 10
96.78582354351188
 20
-143.3238959060093
 10
97.02284611289707
 20
-143.5102755717613
 10
97.02284611289707
 20
-143.8234347513705
 10
97.02284611289707
 20
-144.140728045562
 10
96.7985703968073
 20
-144.3753390481075
 10
96.49609101320237
 20
-144.3753390481075
 97
        0
 97
        0
 75
     2
 76
     1
 98
        0
  0
ENDBLK
  5
9A
330
97
100
AcDbEntity
  8
0
100
AcDbBlockEnd
  0
BLOCK
  5
A7
330
A5
100
AcDbEntity
  8
0
100
AcDbBlockBegin
  2
block 7
 70
     0
 10
0.0
 20
0.0
 30
0.0
  3
block 7
  1

  0
SPLINE
  5
A9
330
A5
100
AcDbEntity
  8
_U+30EC_U+30A4_U+30E4_U+30FC 1
370
     0
100
AcDbSpline
210
0.0
220
0.0
230
1.0
 70
    11
 71
     3
 72
    26
 73
    22
 74
     0
 42
0.0000000001
 43
0.0000000001
 12
1.0
 22
0.0
 32
0.0
 13
1.0
 23
0.0
 33
0.0
 40
0.0
 40
0.0
 40
0.0
 40
0.0
 40
1.0
 40
1.0
 40
1.0
 40
2.0
 40
2.0
 40
2.0
 40
3.0
 40
3.0
 40
3.0
 40
4.0
 40
4.0
 40
4.0
 40
5.0
 40
5.0
 40
5.0
 40
6.0
 40
6.0
 40
6.0
 40
7.0
 40
7.0
 40
7.0
 40
7.0
 10
79.28956161212206
 20
-121.6473551128173
 30
0.0
 10
79.28956161212206
 20
-121.6473551128173
 30
0.0
 10
79.28956161212206
 20
-120.5432020097948
 30
0.0
 10
79.28956161212206
 20
-120.5432020097948
 30
0.0
 10
79.28956161212206
 20
-120.5432020097948
 30
0.0
 10
78.95952146463512
 20
-120.5432020097948
 30
0.0
 10
78.95952146463512
 20
-120.5432020097948
 30
0.0
 10
78.95952146463512
 20
-120.5432020097948
 30
0.0
 10
78.95952146463512
 20
-120.395062903929
 30
0.0
 10
78.95952146463512
 20
-120.395062903929
 30
0.0
 10
79.29162866941321
 20
-120.3802489933424
 30
0.0
 10
79.33813745846408
 20
-120.2172959768901
 30
0.0
 10
79.36776527963723
 20
-120.1029188067798
 30
0.0
 10
79.36776527963723
 20
-120.1029188067798
 30
0.0
 10
79.51383732821182
 20
-120.1029188067798
 30
0.0
 10
79.51383732821182
 20
-120.1029188067798
 30
0.0
 10
79.51383732821182
 20
-120.1029188067798
 30
0.0
 10
79.51383732821182
 20
-121.6473551128173
 30
0.0
 10
79.51383732821182
 20
-121.6473551128173
 30
0.0
 10
79.51383732821182
 20
-121.6473551128173
 30
0.0
 10
79.28956161212206
 20
-121.6473551128173
 30
0.0
 10
79.28956161212206
 20
-121.6473551128173
 30
0.0
  0
HATCH
  5
AA
330
A5
100
AcDbEntity
  8
_U+30EC_U+30A4_U+30E4_U+30FC 1
 62
   179
420
  2234388
100
AcDbHatch
 10
0.0
 20
0.0
 30
0.0
210
0.0
220
0.0
230
1.0
  2
SOLID
 70
     1
 71
     0
 91
        1
 92
        1
 93
        1
 72
     4
 94
        3
 73
     0
 74
     1
 95
       26
 96
       22
 40
0.0
 40
0.0
 40
0.0
 40
0.0
 40
1.0
 40
1.0
 40
1.0
 40
2.0
 40
2.0
 40
2.0
 40
3.0
 40
3.0
 40
3.0
 40
4.0
 40
4.0
 40
4.0
 40
5.0
 40
5.0
 40
5.0
 40
6.0
 40
6.0
 40
6.0
 40
7.0
 40
7.0
 40
7.0
 40
7.0
 10
79.28956161212206
 20
-121.6473551128173
 10
79.28956161212206
 20
-121.6473551128173
 10
79.28956161212206
 20
-120.5432020097948
 10
79.28956161212206
 20
-120.5432020097948
 10
79.28956161212206
 20
-120.5432020097948
 10
78.95952146463512
 20
-120.5432020097948
 10
78.95952146463512
 20
-120.5432020097948
 10
78.95952146463512
 20
-120.5432020097948
 10
78.95952146463512
 20
-120.395062903929
 10
78.95952146463512
 20
-120.395062903929
 10
79.29162866941321
 20
-120.3802489933424
 10
79.33813745846408
 20
-120.2172959768901
 10
79.36776527963723
 20
-120.1029188067798
 10
79.36776527963723
 20
-120.1029188067798
 10
79.51383732821182
 20
-120.1029188067798
 10
79.51383732821182
 20
-120.1029188067798
 10
79.51383732821182
 20
-120.1029188067798
 10
79.51383732821182
 20
-121.6473551128173
 10
79.51383732821182
 20
-121.6473551128173
 10
79.51383732821182
 20
-121.6473551128173
 10
79.28956161212206
 20
-121.6473551128173
 10
79.28956161212206
 20
-121.6473551128173
 97
        0
 97
        0
 75
     2
 76
     1
 98
        0
  0
SPLINE
  5
AB
330
A5
100
AcDbEntity
  8
_U+30EC_U+30A4_U+30E4_U+30FC 1
370
     0
100
AcDbSpline
210
0.0
220
0.0
230
1.0
 70
    11
 71
     3
 72
    53
 73
    49
 74
     0
 42
0.0000000001
 43
0.0000000001
 12
1.0
 22
0.0
 32
0.0
 13
1.0
 23
0.0
 33
0.0
 40
0.0
 40
0.0
 40
0.0
 40
0.0
 40
1.0
 40
1.0
 40
1.0
 40
2.0
 40
2.0
 40
2.0
 40
3.0
 40
3.0
 40
3.0
 40
4.0
 40
4.0
 40
4.0
 40
5.0
 40
5.0
 40
5.0
 40
6.0
 40
6.0
 40
6.0
 40
7.0
 40
7.0
 40
7.0
 40
8.0
 40
8.0
 40
8.0
 40
9.0
 40
9.0
 40
9.0
 40
10.0
 40
10.0
 40
10.0
 40
11.0
 40
11.0
 40
11.0
 40
12.0
 40
12.0
 40
12.0
 40
13.0
 40
13.0
 40
13.0
 40
14.0
 40
14.0
 40
14.0
 40
15.0
 40
15.0
 40
15.0
 40
16.0
 40
16.0
 40
16.0
 40
16.0
 10
80.49603405105655
 20
-121.6979980164505
 30
0.0
 10
80.41783038354139
 20
-121.6979980164505
 30
0.0
 10
80.31620006672651
 20
-121.6811170485728
 30
0.0
 10
80.21456974991163
 20
-121.6177272916442
 30
0.0
 10
80.04128144700357
 20
-121.5078287456647
 30
0.0
 10
80.01992185499502
 20
-121.3765706076767
 30
0.0
 10
80.00097382982615
 20
-121.2687391189884
 30
0.0
 10
80.00097382982615
 20
-121.2687391189884
 30
0.0
 10
80.22318248862476
 20
-121.2687391189884
 30
0.0
 10
80.22318248862476
 20
-121.2687391189884
 30
0.0
 10
80.27795950684023
 20
-121.4675211284873
 30
0.0
 10
80.40508353024596
 20
-121.4971489496604
 30
0.0
 10
80.4981011083477
 20
-121.4971489496604
 30
0.0
 10
80.63762747550032
 20
-121.4971489496604
 30
0.0
 10
80.78990069594836
 20
-121.3975856901367
 30
0.0
 10
80.78990069594836
 20
-121.1650417448824
 30
0.0
 10
80.78990069594836
 20
-120.9090711503283
 30
0.0
 10
80.61006671161832
 20
-120.8391357119777
 30
0.0
 10
80.48948836963457
 20
-120.8391357119777
 30
0.0
 10
80.45779349117028
 20
-120.8391357119777
 30
0.0
 10
80.31620006672651
 20
-120.8391357119777
 30
0.0
 10
80.22731660320706
 20
-120.9683267926746
 30
0.0
 10
80.22731660320706
 20
-120.9683267926746
 30
0.0
 10
80.05161673345933
 20
-120.9493787675057
 30
0.0
 10
80.05161673345933
 20
-120.9493787675057
 30
0.0
 10
80.05161673345933
 20
-120.9493787675057
 30
0.0
 10
80.17219507544307
 20
-120.1029188067798
 30
0.0
 10
80.17219507544307
 20
-120.1029188067798
 30
0.0
 10
80.17219507544307
 20
-120.1029188067798
 30
0.0
 10
80.95078665510952
 20
-120.1029188067798
 30
0.0
 10
80.95078665510952
 20
-120.1029188067798
 30
0.0
 10
80.95078665510952
 20
-120.1029188067798
 30
0.0
 10
80.95078665510952
 20
-120.2975667016965
 30
0.0
 10
80.95078665510952
 20
-120.2975667016965
 30
0.0
 10
80.95078665510952
 20
-120.2975667016965
 30
0.0
 10
80.33514809189538
 20
-120.2975667016965
 30
0.0
 10
80.33514809189538
 20
-120.2975667016965
 30
0.0
 10
80.33514809189538
 20
-120.2975667016965
 30
0.0
 10
80.26969127767563
 20
-120.7206244272851
 30
0.0
 10
80.26969127767563
 20
-120.7206244272851
 30
0.0
 10
80.33101397731308
 20
-120.6868624915297
 30
0.0
 10
80.41335175941056
 20
-120.6465548743523
 30
0.0
 10
80.53186304410315
 20
-120.6465548743523
 30
0.0
 10
80.78576658136606
 20
-120.6465548743523
 30
0.0
 10
81.02278915075125
 20
-120.8329345401043
 30
0.0
 10
81.02278915075125
 20
-121.1460937197135
 30
0.0
 10
81.02278915075125
 20
-121.463387013905
 30
0.0
 10
80.79851343466149
 20
-121.6979980164505
 30
0.0
 10
80.49603405105655
 20
-121.6979980164505
 30
0.0
  0
HATCH
  5
AC
330
A5
100
AcDbEntity
  8
_U+30EC_U+30A4_U+30E4_U+30FC 1
 62
   179
420
  2234388
100
AcDbHatch
 10
0.0
 20
0.0
 30
0.0
210
0.0
220
0.0
230
1.0
  2
SOLID
 70
     1
 71
     0
 91
        1
 92
        1
 93
        1
 72
     4
 94
        3
 73
     0
 74
     1
 95
       53
 96
       49
 40
0.0
 40
0.0
 40
0.0
 40
0.0
 40
1.0
 40
1.0
 40
1.0
 40
2.0
 40
2.0
 40
2.0
 40
3.0
 40
3.0
 40
3.0
 40
4.0
 40
4.0
 40
4.0
 40
5.0
 40
5.0
 40
5.0
 40
6.0
 40
6.0
 40
6.0
 40
7.0
 40
7.0
 40
7.0
 40
8.0
 40
8.0
 40
8.0
 40
9.0
 40
9.0
 40
9.0
 40
10.0
 40
10.0
 40
10.0
 40
11.0
 40
11.0
 40
11.0
 40
12.0
 40
12.0
 40
12.0
 40
13.0
 40
13.0
 40
13.0
 40
14.0
 40
14.0
 40
14.0
 40
15.0
 40
15.0
 40
15.0
 40
16.0
 40
16.0
 40
16.0
 40
16.0
 10
80.49603405105655
 20
-121.6979980164505
 10
80.41783038354139
 20
-121.6979980164505
 10
80.31620006672651
 20
-121.6811170485728
 10
80.21456974991163
 20
-121.6177272916442
 10
80.04128144700357
 20
-121.5078287456647
 10
80.01992185499502
 20
-121.3765706076767
 10
80.00097382982615
 20
-121.2687391189884
 10
80.00097382982615
 20
-121.2687391189884
 10
80.22318248862476
 20
-121.2687391189884
 10
80.22318248862476
 20
-121.2687391189884
 10
80.27795950684023
 20
-121.4675211284873
 10
80.40508353024596
 20
-121.4971489496604
 10
80.4981011083477
 20
-121.4971489496604
 10
80.63762747550032
 20
-121.4971489496604
 10
80.78990069594836
 20
-121.3975856901367
 10
80.78990069594836
 20
-121.1650417448824
 10
80.78990069594836
 20
-120.9090711503283
 10
80.61006671161832
 20
-120.8391357119777
 10
80.48948836963457
 20
-120.8391357119777
 10
80.45779349117028
 20
-120.8391357119777
 10
80.31620006672651
 20
-120.8391357119777
 10
80.22731660320706
 20
-120.9683267926746
 10
80.22731660320706
 20
-120.9683267926746
 10
80.05161673345933
 20
-120.9493787675057
 10
80.05161673345933
 20
-120.9493787675057
 10
80.05161673345933
 20
-120.9493787675057
 10
80.17219507544307
 20
-120.1029188067798
 10
80.17219507544307
 20
-120.1029188067798
 10
80.17219507544307
 20
-120.1029188067798
 10
80.95078665510952
 20
-120.1029188067798
 10
80.95078665510952
 20
-120.1029188067798
 10
80.95078665510952
 20
-120.1029188067798
 10
80.95078665510952
 20
-120.2975667016965
 10
80.95078665510952
 20
-120.2975667016965
 10
80.95078665510952
 20
-120.2975667016965
 10
80.33514809189538
 20
-120.2975667016965
 10
80.33514809189538
 20
-120.2975667016965
 10
80.33514809189538
 20
-120.2975667016965
 10
80.26969127767563
 20
-120.7206244272851
 10
80.26969127767563
 20
-120.7206244272851
 10
80.33101397731308
 20
-120.6868624915297
 10
80.41335175941056
 20
-120.6465548743523
 10
80.53186304410315
 20
-120.6465548743523
 10
80.78576658136606
 20
-120.6465548743523
 10
81.02278915075125
 20
-120.8329345401043
 10
81.02278915075125
 20
-121.1460937197135
 10
81.02278915075125
 20
-121.463387013905
 10
80.79851343466149
 20
-121.6979980164505
 10
80.49603405105655
 20
-121.6979980164505
 97
        0
 97
        0
 75
     2
 76
     1
 98
        0
  0
ENDBLK
  5
A8
330
A5
100
AcDbEntity
  8
0
100
AcDbBlockEnd
  0
ENDSEC
  0
SECTION
  2
ENTITIES
  0
INSERT
  5
42
330
1F
100
AcDbEntity
  8
_U+30EC_U+30A4_U+30E4_U+30FC 1
100
AcDbBlockReference
  2
block 2
 10
0.0
 20
0.0
 30
0.0
  0
SPLINE
  5
55
330
1F
100
AcDbEntity
  8
_U+30EC_U+30A4_U+30E4_U+30FC 1
 62
   179
420
  2234388
370
     9
100
AcDbSpline
210
0.0
220
0.0
230
1.0
 70
    11
 71
     3
 72
    17
 73
    13
 74
     0
 42
0.0000000001
 43
0.0000000001
 12
1.0
 22
0.0
 32
0.0
 13
1.0
 23
0.0
 33
0.0
 40
0.0
 40
0.0
 40
0.0
 40
0.0
 40
1.0
 40
1.0
 40
1.0
 40
2.0
 40
2.0
 40
2.0
 40
3.0
 40
3.0
 40
3.0
 40
4.0
 40
4.0
 40
4.0
 40
4.0
 10
88.52619440817529
 20
-144.6978027416031
 30
0.0
 10
88.52619440817529
 20
-144.6426635749507
 30
0.0
 10
88.4814269093174
 20
-144.5978960749615
 30
0.0
 10
88.42628774405746
 20
-144.5978960749615
 30
0.0
 10
88.3711860890184
 20
-144.5978960749615
 30
0.0
 10
88.32638331125167
 20
-144.6426635749507
 30
0.0
 10
88.32638331125167
 20
-144.6978027416031
 30
0.0
 10
88.32638331125167
 20
-144.7529066304787
 30
0.0
 10
88.3711860890184
 20
-144.7977094082448
 30
0.0
 10
88.42628774405746
 20
-144.7977094082448
 30
0.0
 10
88.4814269093174
 20
-144.7977094082448
 30
0.0
 10
88.52619440817529
 20
-144.7529066304787
 30
0.0
 10
88.52619440817529
 20
-144.6978027416031
 30
0.0
  0
SPLINE
  5
56
330
1F
100
AcDbEntity
  8
_U+30EC_U+30A4_U+30E4_U+30FC 1
 62
   179
420
  2234388
370
     9
100
AcDbSpline
210
0.0
220
0.0
230
1.0
 70
    11
 71
     3
 72
    17
 73
    13
 74
     0
 42
0.0000000001
 43
0.0000000001
 12
1.0
 22
0.0
 32
0.0
 13
1.0
 23
0.0
 33
0.0
 40
0.0
 40
0.0
 40
0.0
 40
0.0
 40
1.0
 40
1.0
 40
1.0
 40
2.0
 40
2.0
 40
2.0
 40
3.0
 40
3.0
 40
3.0
 40
4.0
 40
4.0
 40
4.0
 40
4.0
 10
103.5264815254861
 20
-144.6978027416031
 30
0.0
 10
103.5264815254861
 20
-144.6426635749507
 30
0.0
 10
103.4817166407965
 20
-144.5978960749615
 30
0.0
 10
103.4259045836076
 20
-144.5978960749615
 30
0.0
 10
103.3707654183476
 20
-144.5978960749615
 30
0.0
 10
103.3259979194897
 20
-144.6426635749507
 30
0.0
 10
103.3259979194897
 20
-144.6978027416031
 30
0.0
 10
103.3259979194897
 20
-144.7529066304787
 30
0.0
 10
103.3707654183476
 20
-144.7977094082448
 30
0.0
 10
103.4259045836076
 20
-144.7977094082448
 30
0.0
 10
103.4817166407965
 20
-144.7977094082448
 30
0.0
 10
103.5264815254861
 20
-144.7529066304787
 30
0.0
 10
103.5264815254861
 20
-144.6978027416031
 30
0.0
  0
SPLINE
  5
57
330
1F
100
AcDbEntity
  8
_U+30EC_U+30A4_U+30E4_U+30FC 1
 62
   179
420
  2234388
370
     9
100
AcDbSpline
210
0.0
220
0.0
230
1.0
 70
    11
 71
     3
 72
    17
 73
    13
 74
     0
 42
0.0000000001
 43
0.0000000001
 12
1.0
 22
0.0
 32
0.0
 13
1.0
 23
0.0
 33
0.0
 40
0.0
 40
0.0
 40
0.0
 40
0.0
 40
1.0
 40
1.0
 40
1.0
 40
2.0
 40
2.0
 40
2.0
 40
3.0
 40
3.0
 40
3.0
 40
4.0
 40
4.0
 40
4.0
 40
4.0
 10
107.7277825294131
 20
-140.8978569092202
 30
0.0
 10
107.7277825294131
 20
-140.8427530203446
 30
0.0
 10
107.6830150305552
 20
-140.7979502425785
 30
0.0
 10
107.6278758652952
 20
-140.7979502425785
 30
0.0
 10
107.5727719778122
 20
-140.7979502425785
 30
0.0
 10
107.5279692011774
 20
-140.8427530203446
 30
0.0
 10
107.5279692011774
 20
-140.8978569092202
 30
0.0
 10
107.5279692011774
 20
-140.9533135758729
 30
0.0
 10
107.5727719778122
 20
-140.9981163536396
 30
0.0
 10
107.6278758652952
 20
-140.9981163536396
 30
0.0
 10
107.6830150305552
 20
-140.9981163536396
 30
0.0
 10
107.7277825294131
 20
-140.9533135758729
 30
0.0
 10
107.7277825294131
 20
-140.8978569092202
 30
0.0
  0
SPLINE
  5
58
330
1F
100
AcDbEntity
  8
_U+30EC_U+30A4_U+30E4_U+30FC 1
 62
   179
420
  2234388
370
     9
100
AcDbSpline
210
0.0
220
0.0
230
1.0
 70
    11
 71
     3
 72
    17
 73
    13
 74
     0
 42
0.0000000001
 43
0.0000000001
 12
1.0
 22
0.0
 32
0.0
 13
1.0
 23
0.0
 33
0.0
 40
0.0
 40
0.0
 40
0.0
 40
0.0
 40
1.0
 40
1.0
 40
1.0
 40
2.0
 40
2.0
 40
2.0
 40
3.0
 40
3.0
 40
3.0
 40
4.0
 40
4.0
 40
4.0
 40
4.0
 10
107.7277825294131
 20
-125.8979221907478
 30
0.0
 10
107.7277825294131
 20
-125.8427830240947
 30
0.0
 10
107.6830150305552
 20
-125.7980155241062
 30
0.0
 10
107.6278758652952
 20
-125.7980155241062
 30
0.0
 10
107.5727719778122
 20
-125.7980155241062
 30
0.0
 10
107.5279692011774
 20
-125.8427830240947
 30
0.0
 10
107.5279692011774
 20
-125.8979221907478
 30
0.0
 10
107.5279692011774
 20
-125.9530260796227
 30
0.0
 10
107.5727719778122
 20
-125.9978288573895
 30
0.0
 10
107.6278758652952
 20
-125.9978288573895
 30
0.0
 10
107.6830150305552
 20
-125.9978288573895
 30
0.0
 10
107.7277825294131
 20
-125.9530260796227
 30
0.0
 10
107.7277825294131
 20
-125.8979221907478
 30
0.0
  0
SPLINE
  5
59
330
1F
100
AcDbEntity
  8
_U+30EC_U+30A4_U+30E4_U+30FC 1
 62
   179
420
  2234388
370
     9
100
AcDbSpline
210
0.0
220
0.0
230
1.0
 70
    11
 71
     3
 72
    17
 73
    13
 74
     0
 42
0.0000000001
 43
0.0000000001
 12
1.0
 22
0.0
 32
0.0
 13
1.0
 23
0.0
 33
0.0
 40
0.0
 40
0.0
 40
0.0
 40
0.0
 40
1.0
 40
1.0
 40
1.0
 40
2.0
 40
2.0
 40
2.0
 40
3.0
 40
3.0
 40
3.0
 40
4.0
 40
4.0
 40
4.0
 40
4.0
 10
107.7277825294131
 20
-124.8981499687756
 30
0.0
 10
107.7277825294131
 20
-124.8430108021225
 30
0.0
 10
107.6830150305552
 20
-124.7982433021336
 30
0.0
 10
107.6278758652952
 20
-124.7982433021336
 30
0.0
 10
107.5727719778122
 20
-124.7982433021336
 30
0.0
 10
107.5279692011774
 20
-124.8430108021225
 30
0.0
 10
107.5279692011774
 20
-124.8981499687756
 30
0.0
 10
107.5279692011774
 20
-124.9532538576505
 30
0.0
 10
107.5727719778122
 20
-124.9980566354172
 30
0.0
 10
107.6278758652952
 20
-124.9980566354172
 30
0.0
 10
107.6830150305552
 20
-124.9980566354172
 30
0.0
 10
107.7277825294131
 20
-124.9532538576505
 30
0.0
 10
107.7277825294131
 20
-124.8981499687756
 30
0.0
  0
INSERT
  5
5B
330
1F
100
AcDbEntity
  8
_U+30EC_U+30A4_U+30E4_U+30FC 1
100
AcDbBlockReference
  2
block 3
 10
0.0
 20
0.0
 30
0.0
  0
POLYLINE
  5
65
330
1F
100
AcDbEntity
  8
_U+30EC_U+30A4_U+30E4_U+30FC 1
 62
   179
420
  2234388
370
     9
100
AcDb2dPolyline
 66
     1
 10
0.0
 20
0.0
 30
0.0
  0
VERTEX
  5
66
330
65
100
AcDbEntity
  8
_U+30EC_U+30A4_U+30E4_U+30FC 1
 62
   179
420
  2234388
370
     9
100
AcDbVertex
100
AcDb2dVertex
 10
107.6278758652952
 20
-124.8981499687756
 30
0.0
  0
VERTEX
  5
67
330
65
100
AcDbEntity
  8
_U+30EC_U+30A4_U+30E4_U+30FC 1
 62
   179
420
  2234388
370
     9
100
AcDbVertex
100
AcDb2dVertex
 10
107.6278758652952
 20
-122.1276096916904
 30
0.0
  0
SEQEND
  5
68
330
65
100
AcDbEntity
  8
_U+30EC_U+30A4_U+30E4_U+30FC 1
 62
   179
420
  2234388
370
     9
  0
POLYLINE
  5
69
330
1F
100
AcDbEntity
  8
_U+30EC_U+30A4_U+30E4_U+30FC 1
 62
   179
420
  2234388
370
     9
100
AcDb2dPolyline
 66
     1
 10
0.0
 20
0.0
 30
0.0
  0
VERTEX
  5
6A
330
69
100
AcDbEntity
  8
_U+30EC_U+30A4_U+30E4_U+30FC 1
 62
   179
420
  2234388
370
     9
100
AcDbVertex
100
AcDb2dVertex
 10
107.6278758652952
 20
-125.8979221907478
 30
0.0
  0
VERTEX
  5
6B
330
69
100
AcDbEntity
  8
_U+30EC_U+30A4_U+30E4_U+30FC 1
 62
   179
420
  2234388
370
     9
100
AcDbVertex
100
AcDb2dVertex
 10
107.6278758652952
 20
-124.8981499687756
 30
0.0
  0
SEQEND
  5
6C
330
69
100
AcDbEntity
  8
_U+30EC_U+30A4_U+30E4_U+30FC 1
 62
   179
420
  2234388
370
     9
  0
POLYLINE
  5
6D
330
1F
100
AcDbEntity
  8
_U+30EC_U+30A4_U+30E4_U+30FC 1
 62
   179
420
  2234388
370
     9
100
AcDb2dPolyline
 66
     1
 10
0.0
 20
0.0
 30
0.0
  0
VERTEX
  5
6E
330
6D
100
AcDbEntity
  8
_U+30EC_U+30A4_U+30E4_U+30FC 1
 62
   179
420
  2234388
370
     9
100
AcDbVertex
100
AcDb2dVertex
 10
106.1678345136551
 20
-125.8979221907478
 30
0.0
  0
VERTEX
  5
6F
330
6D
100
AcDbEntity
  8
_U+30EC_U+30A4_U+30E4_U+30FC 1
 62
   179
420
  2234388
370
     9
100
AcDbVertex
100
AcDb2dVertex
 10
108.6276480620111
 20
-125.8979221907478
 30
0.0
  0
SEQEND
  5
70
330
6D
100
AcDbEntity
  8
_U+30EC_U+30A4_U+30E4_U+30FC 1
 62
   179
420
  2234388
370
     9
  0
POLYLINE
  5
71
330
1F
100
AcDbEntity
  8
_U+30EC_U+30A4_U+30E4_U+30FC 1
 62
   179
420
  2234388
370
     9
100
AcDb2dPolyline
 66
     1
 10
0.0
 20
0.0
 30
0.0
  0
VERTEX
  5
72
330
71
100
AcDbEntity
  8
_U+30EC_U+30A4_U+30E4_U+30FC 1
 62
   179
420
  2234388
370
     9
100
AcDbVertex
100
AcDb2dVertex
 10
106.1678345136551
 20
-124.8981499687756
 30
0.0
  0
VERTEX
  5
73
330
71
100
AcDbEntity
  8
_U+30EC_U+30A4_U+30E4_U+30FC 1
 62
   179
420
  2234388
370
     9
100
AcDbVertex
100
AcDb2dVertex
 10
108.6276480620111
 20
-124.8981499687756
 30
0.0
  0
SEQEND
  5
74
330
71
100
AcDbEntity
  8
_U+30EC_U+30A4_U+30E4_U+30FC 1
 62
   179
420
  2234388
370
     9
  0
INSERT
  5
76
330
1F
100
AcDbEntity
  8
_U+30EC_U+30A4_U+30E4_U+30FC 1
100
AcDbBlockReference
  2
block 4
 10
0.0
 20
0.0
 30
0.0
  0
POLYLINE
  5
7B
330
1F
100
AcDbEntity
  8
_U+30EC_U+30A4_U+30E4_U+30FC 1
 62
   179
420
  2234388
370
     9
100
AcDb2dPolyline
 66
     1
 10
0.0
 20
0.0
 30
0.0
  0
VERTEX
  5
7C
330
7B
100
AcDbEntity
  8
_U+30EC_U+30A4_U+30E4_U+30FC 1
 62
   179
420
  2234388
370
     9
100
AcDbVertex
100
AcDb2dVertex
 10
107.6278758652952
 20
-125.8979221907478
 30
0.0
  0
VERTEX
  5
7D
330
7B
100
AcDbEntity
  8
_U+30EC_U+30A4_U+30E4_U+30FC 1
 62
   179
420
  2234388
370
     9
100
AcDbVertex
100
AcDb2dVertex
 10
107.6278758652952
 20
-140.8978569092202
 30
0.0
  0
SEQEND
  5
7E
330
7B
100
AcDbEntity
  8
_U+30EC_U+30A4_U+30E4_U+30FC 1
 62
   179
420
  2234388
370
     9
  0
POLYLINE
  5
7F
330
1F
100
AcDbEntity
  8
_U+30EC_U+30A4_U+30E4_U+30FC 1
 62
   179
420
  2234388
370
     9
100
AcDb2dPolyline
 66
     1
 10
0.0
 20
0.0
 30
0.0
  0
VERTEX
  5
80
330
7F
100
AcDbEntity
  8
_U+30EC_U+30A4_U+30E4_U+30FC 1
 62
   179
420
  2234388
370
     9
100
AcDbVertex
100
AcDb2dVertex
 10
90.96600545704163
 20
-140.8978569092202
 30
0.0
  0
VERTEX
  5
81
330
7F
100
AcDbEntity
  8
_U+30EC_U+30A4_U+30E4_U+30FC 1
 62
   179
420
  2234388
370
     9
100
AcDbVertex
100
AcDb2dVertex
 10
108.6276480620111
 20
-140.8978569092202
 30
0.0
  0
SEQEND
  5
82
330
7F
100
AcDbEntity
  8
_U+30EC_U+30A4_U+30E4_U+30FC 1
 62
   179
420
  2234388
370
     9
  0
INSERT
  5
84
330
1F
100
AcDbEntity
  8
_U+30EC_U+30A4_U+30E4_U+30FC 1
100
AcDbBlockReference
  2
block 5
 10
0.0
 20
0.0
 30
0.0
  0
POLYLINE
  5
8B
330
1F
100
AcDbEntity
  8
_U+30EC_U+30A4_U+30E4_U+30FC 1
 62
   179
420
  2234388
370
     9
100
AcDb2dPolyline
 66
     1
 10
0.0
 20
0.0
 30
0.0
  0
VERTEX
  5
8C
330
8B
100
AcDbEntity
  8
_U+30EC_U+30A4_U+30E4_U+30FC 1
 62
   179
420
  2234388
370
     9
100
AcDbVertex
100
AcDb2dVertex
 10
88.42628774405746
 20
-143.2377613530794
 30
0.0
  0
VERTEX
  5
8D
330
8B
100
AcDbEntity
  8
_U+30EC_U+30A4_U+30E4_U+30FC 1
 62
   179
420
  2234388
370
     9
100
AcDbVertex
100
AcDb2dVertex
 10
88.42628774405746
 20
-145.6979277413535
 30
0.0
  0
SEQEND
  5
8E
330
8B
100
AcDbEntity
  8
_U+30EC_U+30A4_U+30E4_U+30FC 1
 62
   179
420
  2234388
370
     9
  0
POLYLINE
  5
8F
330
1F
100
AcDbEntity
  8
_U+30EC_U+30A4_U+30E4_U+30FC 1
 62
   179
420
  2234388
370
     9
100
AcDb2dPolyline
 66
     1
 10
0.0
 20
0.0
 30
0.0
  0
VERTEX
  5
90
330
8F
100
AcDbEntity
  8
_U+30EC_U+30A4_U+30E4_U+30FC 1
 62
   179
420
  2234388
370
     9
100
AcDbVertex
100
AcDb2dVertex
 10
88.42628774405746
 20
-144.6978027416031
 30
0.0
  0
VERTEX
  5
91
330
8F
100
AcDbEntity
  8
_U+30EC_U+30A4_U+30E4_U+30FC 1
 62
   179
420
  2234388
370
     9
100
AcDbVertex
100
AcDb2dVertex
 10
103.4259045836076
 20
-144.6978027416031
 30
0.0
  0
SEQEND
  5
92
330
8F
100
AcDbEntity
  8
_U+30EC_U+30A4_U+30E4_U+30FC 1
 62
   179
420
  2234388
370
     9
  0
POLYLINE
  5
93
330
1F
100
AcDbEntity
  8
_U+30EC_U+30A4_U+30E4_U+30FC 1
 62
   179
420
  2234388
370
     9
100
AcDb2dPolyline
 66
     1
 10
0.0
 20
0.0
 30
0.0
  0
VERTEX
  5
94
330
93
100
AcDbEntity
  8
_U+30EC_U+30A4_U+30E4_U+30FC 1
 62
   179
420
  2234388
370
     9
100
AcDbVertex
100
AcDb2dVertex
 10
103.4259045836076
 20
-127.7248524680687
 30
0.0
  0
VERTEX
  5
95
330
93
100
AcDbEntity
  8
_U+30EC_U+30A4_U+30E4_U+30FC 1
 62
   179
420
  2234388
370
     9
100
AcDbVertex
100
AcDb2dVertex
 10
103.4259045836076
 20
-145.6979277413535
 30
0.0
  0
SEQEND
  5
96
330
93
100
AcDbEntity
  8
_U+30EC_U+30A4_U+30E4_U+30FC 1
 62
   179
420
  2234388
370
     9
  0
INSERT
  5
98
330
1F
100
AcDbEntity
  8
_U+30EC_U+30A4_U+30E4_U+30FC 1
100
AcDbBlockReference
  2
block 6
 10
0.0
 20
0.0
 30
0.0
  0
SPLINE
  5
9F
330
1F
100
AcDbEntity
  8
_U+30EC_U+30A4_U+30E4_U+30FC 1
 62
   179
420
  2234388
370
     9
100
AcDbSpline
210
0.0
220
0.0
230
1.0
 70
    11
 71
     3
 72
    17
 73
    13
 74
     0
 42
0.0000000001
 43
0.0000000001
 12
1.0
 22
0.0
 32
0.0
 13
1.0
 23
0.0
 33
0.0
 40
0.0
 40
0.0
 40
0.0
 40
0.0
 40
1.0
 40
1.0
 40
1.0
 40
2.0
 40
2.0
 40
2.0
 40
3.0
 40
3.0
 40
3.0
 40
4.0
 40
4.0
 40
4.0
 40
4.0
 10
72.52613509414859
 20
-122.0201183028282
 30
0.0
 10
72.52613509414859
 20
-121.9649791361754
 30
0.0
 10
72.48136942632405
 20
-121.9202116361865
 30
0.0
 10
72.42622843003075
 20
-121.9202116361865
 30
0.0
 10
72.37112454254768
 20
-121.9202116361865
 30
0.0
 10
72.32632176591292
 20
-121.9649791361754
 30
0.0
 10
72.32632176591292
 20
-122.0201183028282
 30
0.0
 10
72.32632176591292
 20
-122.0752221917034
 30
0.0
 10
72.37112454254768
 20
-122.1200249694701
 30
0.0
 10
72.42622843003075
 20
-122.1200249694701
 30
0.0
 10
72.48136942632405
 20
-122.1200249694701
 30
0.0
 10
72.52613509414859
 20
-122.0752221917034
 30
0.0
 10
72.52613509414859
 20
-122.0201183028282
 30
0.0
  0
SPLINE
  5
A0
330
1F
100
AcDbEntity
  8
_U+30EC_U+30A4_U+30E4_U+30FC 1
 62
   179
420
  2234388
370
     9
100
AcDbSpline
210
0.0
220
0.0
230
1.0
 70
    11
 71
     3
 72
    17
 73
    13
 74
     0
 42
0.0000000001
 43
0.0000000001
 12
1.0
 22
0.0
 32
0.0
 13
1.0
 23
0.0
 33
0.0
 40
0.0
 40
0.0
 40
0.0
 40
0.0
 40
1.0
 40
1.0
 40
1.0
 40
2.0
 40
2.0
 40
2.0
 40
3.0
 40
3.0
 40
3.0
 40
4.0
 40
4.0
 40
4.0
 40
4.0
 10
87.52642221145938
 20
-122.0201183028282
 30
0.0
 10
87.52642221145938
 20
-121.9649791361754
 30
0.0
 10
87.4816547126015
 20
-121.9202116361865
 30
0.0
 10
87.42584526958088
 20
-121.9202116361865
 30
0.0
 10
87.37070831149065
 20
-121.9202116361865
 30
0.0
 10
87.32593860546304
 20
-121.9649791361754
 30
0.0
 10
87.32593860546304
 20
-122.0201183028282
 30
0.0
 10
87.32593860546304
 20
-122.0752221917034
 30
0.0
 10
87.37070831149065
 20
-122.1200249694701
 30
0.0
 10
87.42584526958088
 20
-122.1200249694701
 30
0.0
 10
87.4816547126015
 20
-122.1200249694701
 30
0.0
 10
87.52642221145938
 20
-122.0752221917034
 30
0.0
 10
87.52642221145938
 20
-122.0201183028282
 30
0.0
  0
POLYLINE
  5
A1
330
1F
100
AcDbEntity
  8
_U+30EC_U+30A4_U+30E4_U+30FC 1
 62
   179
420
  2234388
370
     9
100
AcDb2dPolyline
 66
     1
 10
0.0
 20
0.0
 30
0.0
  0
VERTEX
  5
A2
330
A1
100
AcDbEntity
  8
_U+30EC_U+30A4_U+30E4_U+30FC 1
 62
   179
420
  2234388
370
     9
100
AcDbVertex
100
AcDb2dVertex
 10
72.42622843003075
 20
-122.0201183028282
 30
0.0
  0
VERTEX
  5
A3
330
A1
100
AcDbEntity
  8
_U+30EC_U+30A4_U+30E4_U+30FC 1
 62
   179
420
  2234388
370
     9
100
AcDbVertex
100
AcDb2dVertex
 10
87.42619804734964
 20
-122.0201183028282
 30
0.0
  0
SEQEND
  5
A4
330
A1
100
AcDbEntity
  8
_U+30EC_U+30A4_U+30E4_U+30FC 1
 62
   179
420
  2234388
370
     9
  0
INSERT
  5
A6
330
1F
100
AcDbEntity
  8
_U+30EC_U+30A4_U+30E4_U+30FC 1
100
AcDbBlockReference
  2
block 7
 10
0.0
 20
0.0
 30
0.0
  0
POLYLINE
  5
AD
330
1F
100
AcDbEntity
  8
_U+30EC_U+30A4_U+30E4_U+30FC 1
 62
   179
420
  2234388
370
     9
100
AcDb2dPolyline
 66
     1
 10
0.0
 20
0.0
 30
0.0
  0
VERTEX
  5
AE
330
AD
100
AcDbEntity
  8
_U+30EC_U+30A4_U+30E4_U+30FC 1
 62
   179
420
  2234388
370
     9
100
AcDbVertex
100
AcDb2dVertex
 10
72.42622843003075
 20
-123.1876716358698
 30
0.0
  0
VERTEX
  5
AF
330
AD
100
AcDbEntity
  8
_U+30EC_U+30A4_U+30E4_U+30FC 1
 62
   179
420
  2234388
370
     9
100
AcDbVertex
100
AcDb2dVertex
 10
72.42622843003075
 20
-120.7278580253735
 30
0.0
  0
SEQEND
  5
B0
330
AD
100
AcDbEntity
  8
_U+30EC_U+30A4_U+30E4_U+30FC 1
 62
   179
420
  2234388
370
     9
  0
SPLINE
  5
B1
330
1F
100
AcDbEntity
  8
_U+30EC_U+30A4_U+30E4_U+30FC 1
 62
   179
420
  2234388
370
    25
100
AcDbSpline
210
0.0
220
0.0
230
1.0
 70
    11
 71
     3
 72
    38
 73
    34
 74
     0
 42
0.0000000001
 43
0.0000000001
 12
1.0
 22
0.0
 32
0.0
 13
1.0
 23
0.0
 33
0.0
 40
0.0
 40
0.0
 40
0.0
 40
0.0
 40
1.0
 40
1.0
 40
1.0
 40
2.0
 40
2.0
 40
2.0
 40
3.0
 40
3.0
 40
3.0
 40
4.0
 40
4.0
 40
4.0
 40
5.0
 40
5.0
 40
5.0
 40
6.0
 40
6.0
 40
6.0
 40
7.0
 40
7.0
 40
7.0
 40
8.0
 40
8.0
 40
8.0
 40
9.0
 40
9.0
 40
9.0
 40
10.0
 40
10.0
 40
10.0
 40
11.0
 40
11.0
 40
11.0
 40
11.0
 10
103.4262573613763
 20
-124.8977971909978
 30
0.0
 10
103.4262573613763
 20
-124.8977971909978
 30
0.0
 10
88.42628774405746
 20
-124.8977971909978
 30
0.0
 10
88.42628774405746
 20
-124.8977971909978
 30
0.0
 10
88.42628774405746
 20
-124.8977971909978
 30
0.0
 10
88.42628774405746
 20
-109.8975096947477
 30
0.0
 10
88.42628774405746
 20
-109.8975096947477
 30
0.0
 10
88.42628774405746
 20
-109.8975096947477
 30
0.0
 10
87.42619804734964
 20
-109.8975096947477
 30
0.0
 10
87.42619804734964
 20
-109.8975096947477
 30
0.0
 10
87.42619804734964
 20
-109.8975096947477
 30
0.0
 10
87.42619804734964
 20
-124.8977971909978
 30
0.0
 10
87.42619804734964
 20
-124.8977971909978
 30
0.0
 10
87.42619804734964
 20
-124.8977971909978
 30
0.0
 10
72.42622843003075
 20
-124.8977971909978
 30
0.0
 10
72.42622843003075
 20
-124.8977971909978
 30
0.0
 10
72.42622843003075
 20
-124.8977971909978
 30
0.0
 10
72.42622843003075
 20
-125.8972166351923
 30
0.0
 10
72.42622843003075
 20
-125.8972166351923
 30
0.0
 10
72.42622843003075
 20
-134.1816382997882
 30
0.0
 10
79.14209409202807
 20
-140.8975041314424
 30
0.0
 10
87.42619804734964
 20
-140.8975041314424
 30
0.0
 10
87.42619804734964
 20
-140.8975041314424
 30
0.0
 10
88.42628774405746
 20
-140.8975041314424
 30
0.0
 10
88.42628774405746
 20
-140.8975041314424
 30
0.0
 10
88.42628774405746
 20
-140.8975041314424
 30
0.0
 10
88.42628774405746
 20
-125.8979221907478
 30
0.0
 10
88.42628774405746
 20
-125.8979221907478
 30
0.0
 10
88.42628774405746
 20
-125.8979221907478
 30
0.0
 10
103.4262573613763
 20
-125.8979221907478
 30
0.0
 10
103.4262573613763
 20
-125.8979221907478
 30
0.0
 10
103.4262573613763
 20
-125.8979221907478
 30
0.0
 10
103.4262573613763
 20
-124.8977971909978
 30
0.0
 10
103.4262573613763
 20
-124.8977971909978
 30
0.0
  0
SPLINE
  5
B2
330
1F
100
AcDbEntity
  8
_U+30EC_U+30A4_U+30E4_U+30FC 1
 62
   179
420
  2234388
370
    25
100
AcDbSpline
210
0.0
220
0.0
230
1.0
 70
    11
 71
     3
 72
    14
 73
    10
 74
     0
 42
0.0000000001
 43
0.0000000001
 12
1.0
 22
0.0
 32
0.0
 13
1.0
 23
0.0
 33
0.0
 40
0.0
 40
0.0
 40
0.0
 40
0.0
 40
1.0
 40
1.0
 40
1.0
 40
2.0
 40
2.0
 40
2.0
 40
3.0
 40
3.0
 40
3.0
 40
3.0
 10
87.42619804734964
 20
-139.8974144094703
 30
0.0
 10
79.69436768904951
 20
-139.8974144094703
 30
0.0
 10
73.42635340451544
 20
-133.6293999665925
 30
0.0
 10
73.42635340451544
 20
-125.8979221907478
 30
0.0
 10
73.42635340451544
 20
-125.8979221907478
 30
0.0
 10
87.42619804734964
 20
-125.8979221907478
 30
0.0
 10
87.42619804734964
 20
-125.8979221907478
 30
0.0
 10
87.42619804734964
 20
-125.8979221907478
 30
0.0
 10
87.42619804734964
 20
-139.8974144094703
 30
0.0
 10
87.42619804734964
 20
-139.8974144094703
 30
0.0
  0
ENDSEC
  0
SECTION
  2
OBJECTS
  0
DICTIONARY
  5
C
330
0
100
AcDbDictionary
281
     1
  3
ACAD_GROUP
350
D
  3
ACAD_LAYOUT
350
1A
  3
ACAD_MATERIAL
350
3B
  3
ACAD_MLEADERSTYLE
350
B4
  3
ACAD_MLINESTYLE
350
17
  3
ACAD_PLOTSETTINGS
350
19
  3
ACAD_PLOTSTYLENAME
350
E
  3
ACAD_TABLESTYLE
350
B3
  3
ACAD_VISUALSTYLE
350
2A
  0
SUN
  5
3F
330
29
100
AcDbSun
 90
        1
290
     0
 63
     7
421
 16777215
 40
1.0
291
     1
 91
  2455826
 92
 54000000
292
     0
 70
     2
 71
   256
280
     1
  0
DICTIONARY
  5
D
102
{ACAD_REACTORS
330
C
102
}
330
C
100
AcDbDictionary
281
     1
  0
DICTIONARY
  5
1A
102
{ACAD_REACTORS
330
C
102
}
330
C
100
AcDbDictionary
281
     1
  3
Layout1
350
1E
  3
Layout2
350
26
  3
Model
350
22
  0
DICTIONARY
  5
3B
102
{ACAD_REACTORS
330
C
102
}
330
C
100
AcDbDictionary
281
     1
  3
ByBlock
350
3D
  3
ByLayer
350
3C
  3
Global
350
3E
  0
DICTIONARY
  5
B4
102
{ACAD_REACTORS
330
C
102
}
330
C
100
AcDbDictionary
281
     1
  0
DICTIONARY
  5
17
102
{ACAD_REACTORS
330
C
102
}
330
C
100
AcDbDictionary
281
     1
  3
Standard
350
18
  0
DICTIONARY
  5
19
102
{ACAD_REACTORS
330
C
102
}
330
C
100
AcDbDictionary
281
     1
  0
ACDBDICTIONARYWDFLT
  5
E
102
{ACAD_REACTORS
330
C
102
}
330
C
100
AcDbDictionary
281
     1
  3
Normal
350
F
100
AcDbDictionaryWithDefault
340
F
  0
DICTIONARY
  5
B3
102
{ACAD_REACTORS
330
C
102
}
330
C
100
AcDbDictionary
281
     1
  0
DICTIONARY
  5
2A
102
{ACAD_REACTORS
330
C
102
}
330
C
100
AcDbDictionary
281
     1
  3
2dWireframe
350
2F
  3
3D Hidden
350
31
  3
3dWireframe
350
30
  3
Basic
350
32
  3
Brighten
350
36
  3
ColorChange
350
3A
  3
Conceptual
350
34
  3
Dim
350
35
  3
Facepattern
350
39
  3
Flat
350
2B
  3
FlatWithEdges
350
2C
  3
Gouraud
350
2D
  3
GouraudWithEdges
350
2E
  3
Linepattern
350
38
  3
Realistic
350
33
  3
Thicken
350
37
  0
LAYOUT
  5
1E
102
{ACAD_REACTORS
330
1A
102
}
330
1A
100
AcDbPlotSettings
  1

  2
none_device
  4

  6

 40
0.0
 41
0.0
 42
0.0
 43
0.0
 44
0.0
 45
0.0
 46
0.0
 47
0.0
 48
0.0
 49
0.0
140
0.0
141
0.0
142
1.0
143
1.0
 70
   688
 72
     0
 73
     0
 74
     5
  7

 75
    16
 76
     0
 77
     2
 78
   300
147
1.0
148
0.0
149
0.0
100
AcDbLayout
  1
Layout1
 70
     1
 71
     1
 10
0.0
 20
0.0
 11
12.0
 21
9.0
 12
0.0
 22
0.0
 32
0.0
 14
1.000000000000000E+20
 24
1.000000000000000E+20
 34
1.000000000000000E+20
 15
-1.000000000000000E+20
 25
-1.000000000000000E+20
 35
-1.000000000000000E+20
146
0.0
 13
0.0
 23
0.0
 33
0.0
 16
1.0
 26
0.0
 36
0.0
 17
0.0
 27
1.0
 37
0.0
 76
     0
330
1B
  0
LAYOUT
  5
26
102
{ACAD_REACTORS
330
1A
102
}
330
1A
100
AcDbPlotSettings
  1

  2
none_device
  4

  6

 40
0.0
 41
0.0
 42
0.0
 43
0.0
 44
0.0
 45
0.0
 46
0.0
 47
0.0
 48
0.0
 49
0.0
140
0.0
141
0.0
142
1.0
143
1.0
 70
   688
 72
     0
 73
     0
 74
     5
  7

 75
    16
 76
     0
 77
     2
 78
   300
147
1.0
148
0.0
149
0.0
100
AcDbLayout
  1
Layout2
 70
     1
 71
     2
 10
0.0
 20
0.0
 11
0.0
 21
0.0
 12
0.0
 22
0.0
 32
0.0
 14
0.0
 24
0.0
 34
0.0
 15
0.0
 25
0.0
 35
0.0
146
0.0
 13
0.0
 23
0.0
 33
0.0
 16
1.0
 26
0.0
 36
0.0
 17
0.0
 27
1.0
 37
0.0
 76
     0
330
23
  0
LAYOUT
  5
22
102
{ACAD_REACTORS
330
1A
102
}
330
1A
100
AcDbPlotSettings
  1

  2
none_device
  4

  6

 40
0.0
 41
0.0
 42
0.0
 43
0.0
 44
0.0
 45
0.0
 46
0.0
 47
0.0
 48
0.0
 49
0.0
140
0.0
141
0.0
142
1.0
143
1.0
 70
  1712
 72
     0
 73
     0
 74
     0
  7

 75
     0
 76
     0
 77
     2
 78
   300
147
1.0
148
0.0
149
0.0
100
AcDbLayout
  1
Model
 70
     1
 71
     0
 10
0.0
 20
0.0
 11
12.0
 21
9.0
 12
0.0
 22
0.0
 32
0.0
 14
1.000000000000000E+20
 24
1.000000000000000E+20
 34
1.000000000000000E+20
 15
-1.000000000000000E+20
 25
-1.000000000000000E+20
 35
-1.000000000000000E+20
146
0.0
 13
0.0
 23
0.0
 33
0.0
 16
1.0
 26
0.0
 36
0.0
 17
0.0
 27
1.0
 37
0.0
 76
     0
330
1F
331
29
  0
MATERIAL
  5
3D
102
{ACAD_REACTORS
330
3B
102
}
330
3B
100
AcDbMaterial
  1
ByBlock
 72
     1
 94
      127
  0
MATERIAL
  5
3C
102
{ACAD_REACTORS
330
3B
102
}
330
3B
100
AcDbMaterial
  1
ByLayer
 72
     1
 94
      127
  0
MATERIAL
  5
3E
102
{ACAD_REACTORS
330
3B
102
}
330
3B
100
AcDbMaterial
  1
Global
 72
     1
 94
      127
  0
MLINESTYLE
  5
18
102
{ACAD_REACTORS
330
17
102
}
330
17
100
AcDbMlineStyle
  2
Standard
 70
     0
  3

 62
   256
 51
90.0
 52
90.0
 71
     2
 49
0.5
 62
   256
  6
BYLAYER
 49
-0.5
 62
   256
  6
BYLAYER
  0
ACDBPLACEHOLDER
  5
F
102
{ACAD_REACTORS
330
E
102
}
330
E
  0
VISUALSTYLE
  5
2F
102
{ACAD_REACTORS
330
2A
102
}
330
2A
100
AcDbVisualStyle
  2
2dWireframe
 70
     4
177
     2
291
     0
 71
     0
176
     1
 72
     2
176
     1
 73
     0
176
     1
 90
        0
176
     1
 40
-0.6
176
     1
 41
-30.0
176
     1
 62
     5
 63
     7
421
 16777215
176
     1
 74
     1
176
     1
 91
        4
176
     1
 64
     7
176
     1
 65
   257
176
     1
 75
     1
176
     1
175
     1
176
     1
 42
1.0
176
     1
 92
        0
176
     1
 66
   257
176
     1
 43
1.0
176
     1
 76
     1
176
     1
 77
     6
176
     1
 78
     2
176
     1
 67
     7
176
     1
 79
     5
176
     1
170
     0
176
     1
171
     0
176
     1
290
     0
176
     1
 93
        1
176
     1
 44
0.0
176
     1
173
     0
176
     1
  0
VISUALSTYLE
  5
31
102
{ACAD_REACTORS
330
2A
102
}
330
2A
100
AcDbVisualStyle
  2
3D Hidden
 70
     6
177
     2
291
     0
 71
     1
176
     1
 72
     2
176
     1
 73
     2
176
     1
 90
        0
176
     1
 40
-0.6
176
     1
 41
-30.0
176
     1
 62
     5
 63
     7
421
 16777215
176
     1
 74
     2
176
     1
 91
        2
176
     1
 64
     7
176
     1
 65
   257
176
     1
 75
     2
176
     1
175
     1
176
     1
 42
40.0
176
     1
 92
        0
176
     1
 66
   257
176
     1
 43
1.0
176
     1
 76
     1
176
     1
 77
     6
176
     1
 78
     2
176
     1
 67
     7
176
     1
 79
     3
176
     1
170
     0
176
     1
171
     0
176
     1
290
     0
176
     1
 93
        1
176
     1
 44
0.0
176
     1
173
     0
176
     1
  0
VISUALSTYLE
  5
30
102
{ACAD_REACTORS
330
2A
102
}
330
2A
100
AcDbVisualStyle
  2
3dWireframe
 70
     5
177
     2
291
     0
 71
     0
176
     1
 72
     2
176
     1
 73
     0
176
     1
 90
        0
176
     1
 40
-0.6
176
     1
 41
-30.0
176
     1
 62
     5
 63
     7
421
 16777215
176
     1
 74
     1
176
     1
 91
        4
176
     1
 64
     7
176
     1
 65
   257
176
     1
 75
     1
176
     1
175
     1
176
     1
 42
1.0
176
     1
 92
        0
176
     1
 66
   257
176
     1
 43
1.0
176
     1
 76
     1
176
     1
 77
     6
176
     1
 78
     2
176
     1
 67
     7
176
     1
 79
     5
176
     1
170
     0
176
     1
171
     0
176
     1
290
     0
176
     1
 93
        1
176
     1
 44
0.0
176
     1
173
     0
176
     1
  0
VISUALSTYLE
  5
32
102
{ACAD_REACTORS
330
2A
102
}
330
2A
100
AcDbVisualStyle
  2
Basic
 70
     7
177
     2
291
     1
 71
     1
176
     1
 72
     0
176
     1
 73
     1
176
     1
 90
        0
176
     1
 40
-0.6
176
     1
 41
-30.0
176
     1
 62
     5
 63
     7
421
 16777215
176
     1
 74
     0
176
     1
 91
        4
176
     1
 64
     7
176
     1
 65
   257
176
     1
 75
     1
176
     1
175
     1
176
     1
 42
1.0
176
     1
 92
        8
176
     1
 66
     7
176
     1
 43
1.0
176
     1
 76
     1
176
     1
 77
     6
176
     1
 78
     2
176
     1
 67
     7
176
     1
 79
     5
176
     1
170
     0
176
     1
171
     0
176
     1
290
     0
176
     1
 93
        1
176
     1
 44
0.0
176
     1
173
     0
176
     1
  0
VISUALSTYLE
  5
36
102
{ACAD_REACTORS
330
2A
102
}
330
2A
100
AcDbVisualStyle
  2
Brighten
 70
    12
177
     2
291
     1
 71
     2
176
     1
 72
     2
176
     1
 73
     0
176
     1
 90
        0
176
     1
 40
-0.6
176
     1
 41
-30.0
176
     1
 62
     5
 63
     7
421
 16777215
176
     1
 74
     1
176
     1
 91
        4
176
     1
 64
     7
176
     1
 65
   257
176
     1
 75
     1
176
     1
175
     1
176
     1
 42
1.0
176
     1
 92
        8
176
     1
 66
     7
176
     1
 43
1.0
176
     1
 76
     1
176
     1
 77
     6
176
     1
 78
     2
176
     1
 67
     7
176
     1
 79
     5
176
     1
170
     0
176
     1
171
     0
176
     1
290
     0
176
     1
 93
        1
176
     1
 44
50.0
176
     1
173
     0
176
     1
  0
VISUALSTYLE
  5
3A
102
{ACAD_REACTORS
330
2A
102
}
330
2A
100
AcDbVisualStyle
  2
ColorChange
 70
    16
177
     2
291
     1
 71
     2
176
     1
 72
     2
176
     1
 73
     3
176
     1
 90
        0
176
     1
 40
-0.6
176
     1
 41
-30.0
176
     1
 62
     5
 63
     8
421
  8421504
176
     1
 74
     1
176
     1
 91
        4
176
     1
 64
     7
176
     1
 65
   257
176
     1
 75
     1
176
     1
175
     1
176
     1
 42
1.0
176
     1
 92
        8
176
     1
 66
     8
424
  8421504
176
     1
 43
1.0
176
     1
 76
     1
176
     1
 77
     6
176
     1
 78
     2
176
     1
 67
     7
176
     1
 79
     5
176
     1
170
     0
176
     1
171
     0
176
     1
290
     0
176
     1
 93
        1
176
     1
 44
0.0
176
     1
173
     0
176
     1
  0
VISUALSTYLE
  5
34
102
{ACAD_REACTORS
330
2A
102
}
330
2A
100
AcDbVisualStyle
  2
Conceptual
 70
     9
177
     2
291
     0
 71
     3
176
     1
 72
     2
176
     1
 73
     0
176
     1
 90
        0
176
     1
 40
-0.6
176
     1
 41
-30.0
176
     1
 62
     5
 63
     7
421
 16777215
176
     1
 74
     2
176
     1
 91
        2
176
     1
 64
     7
176
     1
 65
   257
176
     1
 75
     1
176
     1
175
     1
176
     1
 42
40.0
176
     1
 92
        8
176
     1
 66
     7
176
     1
 43
1.0
176
     1
 76
     1
176
     1
 77
     6
176
     1
 78
     2
176
     1
 67
     7
176
     1
 79
     3
176
     1
170
     0
176
     1
171
     0
176
     1
290
     0
176
     1
 93
        1
176
     1
 44
0.0
176
     1
173
     0
176
     1
  0
VISUALSTYLE
  5
35
102
{ACAD_REACTORS
330
2A
102
}
330
2A
100
AcDbVisualStyle
  2
Dim
 70
    11
177
     2
291
     1
 71
     2
176
     1
 72
     2
176
     1
 73
     0
176
     1
 90
        0
176
     1
 40
-0.6
176
     1
 41
-30.0
176
     1
 62
     5
 63
     7
421
 16777215
176
     1
 74
     1
176
     1
 91
        4
176
     1
 64
     7
176
     1
 65
   257
176
     1
 75
     1
176
     1
175
     1
176
     1
 42
1.0
176
     1
 92
        8
176
     1
 66
     7
176
     1
 43
1.0
176
     1
 76
     1
176
     1
 77
     6
176
     1
 78
     2
176
     1
 67
     7
176
     1
 79
     5
176
     1
170
     0
176
     1
171
     0
176
     1
290
     0
176
     1
 93
        1
176
     1
 44
-50.0
176
     1
173
     0
176
     1
  0
VISUALSTYLE
  5
39
102
{ACAD_REACTORS
330
2A
102
}
330
2A
100
AcDbVisualStyle
  2
Facepattern
 70
    15
177
     2
291
     1
 71
     2
176
     1
 72
     2
176
     1
 73
     0
176
     1
 90
        0
176
     1
 40
-0.6
176
     1
 41
-30.0
176
     1
 62
     5
 63
     7
421
 16777215
176
     1
 74
     1
176
     1
 91
        4
176
     1
 64
     7
176
     1
 65
   257
176
     1
 75
     1
176
     1
175
     1
176
     1
 42
1.0
176
     1
 92
        8
176
     1
 66
     7
176
     1
 43
1.0
176
     1
 76
     1
176
     1
 77
     6
176
     1
 78
     2
176
     1
 67
     7
176
     1
 79
     5
176
     1
170
     0
176
     1
171
     0
176
     1
290
     0
176
     1
 93
        1
176
     1
 44
0.0
176
     1
173
     0
176
     1
  0
VISUALSTYLE
  5
2B
102
{ACAD_REACTORS
330
2A
102
}
330
2A
100
AcDbVisualStyle
  2
Flat
 70
     0
177
     2
291
     1
 71
     2
176
     1
 72
     1
176
     1
 73
     1
176
     1
 90
        2
176
     1
 40
-0.6
176
     1
 41
30.0
176
     1
 62
     5
 63
     7
421
 16777215
176
     1
 74
     0
176
     1
 91
        4
176
     1
 64
     7
176
     1
 65
   257
176
     1
 75
     1
176
     1
175
     1
176
     1
 42
1.0
176
     1
 92
        8
176
     1
 66
     7
176
     1
 43
1.0
176
     1
 76
     1
176
     1
 77
     6
176
     1
 78
     2
176
     1
 67
     7
176
     1
 79
     5
176
     1
170
     0
176
     1
171
     0
176
     1
290
     0
176
     1
 93
       13
176
     1
 44
0.0
176
     1
173
     0
176
     1
  0
VISUALSTYLE
  5
2C
102
{ACAD_REACTORS
330
2A
102
}
330
2A
100
AcDbVisualStyle
  2
FlatWithEdges
 70
     1
177
     2
291
     1
 71
     2
176
     1
 72
     1
176
     1
 73
     1
176
     1
 90
        2
176
     1
 40
-0.6
176
     1
 41
30.0
176
     1
 62
     5
 63
     7
421
 16777215
176
     1
 74
     1
176
     1
 91
        4
176
     1
 64
     7
176
     1
 65
   257
176
     1
 75
     1
176
     1
175
     1
176
     1
 42
1.0
176
     1
 92
        0
176
     1
 66
   257
176
     1
 43
1.0
176
     1
 76
     1
176
     1
 77
     6
176
     1
 78
     2
176
     1
 67
     7
176
     1
 79
     5
176
     1
170
     0
176
     1
171
     0
176
     1
290
     0
176
     1
 93
       13
176
     1
 44
0.0
176
     1
173
     0
176
     1
  0
VISUALSTYLE
  5
2D
102
{ACAD_REACTORS
330
2A
102
}
330
2A
100
AcDbVisualStyle
  2
Gouraud
 70
     2
177
     2
291
     1
 71
     2
176
     1
 72
     2
176
     1
 73
     1
176
     1
 90
        2
176
     1
 40
-0.6
176
     1
 41
30.0
176
     1
 62
     5
 63
     7
421
 16777215
176
     1
 74
     0
176
     1
 91
        4
176
     1
 64
     7
176
     1
 65
   257
176
     1
 75
     1
176
     1
175
     1
176
     1
 42
1.0
176
     1
 92
        0
176
     1
 66
     7
176
     1
 43
1.0
176
     1
 76
     1
176
     1
 77
     6
176
     1
 78
     2
176
     1
 67
     7
176
     1
 79
     5
176
     1
170
     0
176
     1
171
     0
176
     1
290
     0
176
     1
 93
       13
176
     1
 44
0.0
176
     1
173
     0
176
     1
  0
VISUALSTYLE
  5
2E
102
{ACAD_REACTORS
330
2A
102
}
330
2A
100
AcDbVisualStyle
  2
GouraudWithEdges
 70
     3
177
     2
291
     1
 71
     2
176
     1
 72
     2
176
     1
 73
     1
176
     1
 90
        2
176
     1
 40
-0.6
176
     1
 41
30.0
176
     1
 62
     5
 63
     7
421
 16777215
176
     1
 74
     1
176
     1
 91
        4
176
     1
 64
     7
176
     1
 65
   257
176
     1
 75
     1
176
     1
175
     1
176
     1
 42
1.0
176
     1
 92
        0
176
     1
 66
   257
176
     1
 43
1.0
176
     1
 76
     1
176
     1
 77
     6
176
     1
 78
     2
176
     1
 67
     7
176
     1
 79
     5
176
     1
170
     0
176
     1
171
     0
176
     1
290
     0
176
     1
 93
       13
176
     1
 44
0.0
176
     1
173
     0
176
     1
  0
VISUALSTYLE
  5
38
102
{ACAD_REACTORS
330
2A
102
}
330
2A
100
AcDbVisualStyle
  2
Linepattern
 70
    14
177
     2
291
     1
 71
     2
176
     1
 72
     2
176
     1
 73
     0
176
     1
 90
        0
176
     1
 40
-0.6
176
     1
 41
-30.0
176
     1
 62
     5
 63
     7
421
 16777215
176
     1
 74
     1
176
     1
 91
        4
176
     1
 64
     7
176
     1
 65
   257
176
     1
 75
     7
176
     1
175
     7
176
     1
 42
1.0
176
     1
 92
        8
176
     1
 66
     7
176
     1
 43
1.0
176
     1
 76
     1
176
     1
 77
     6
176
     1
 78
     2
176
     1
 67
     7
176
     1
 79
     5
176
     1
170
     0
176
     1
171
     0
176
     1
290
     0
176
     1
 93
        1
176
     1
 44
0.0
176
     1
173
     0
176
     1
  0
VISUALSTYLE
  5
33
102
{ACAD_REACTORS
330
2A
102
}
330
2A
100
AcDbVisualStyle
  2
Realistic
 70
     8
177
     2
291
     0
 71
     2
176
     1
 72
     2
176
     1
 73
     0
176
     1
 90
        0
176
     1
 40
-0.6
176
     1
 41
-30.0
176
     1
 62
     5
 63
     7
421
 16777215
176
     1
 74
     1
176
     1
 91
        0
176
     1
 64
     7
176
     1
 65
   257
176
     1
 75
     1
176
     1
175
     1
176
     1
 42
1.0
176
     1
 92
        8
176
     1
 66
     8
424
  7895160
176
     1
 43
1.0
176
     1
 76
     1
176
     1
 77
     6
176
     1
 78
     2
176
     1
 67
     7
176
     1
 79
     5
176
     1
170
     0
176
     1
171
     0
176
     1
290
     0
176
     1
 93
       13
176
     1
 44
0.0
176
     1
173
     0
176
     1
  0
VISUALSTYLE
  5
37
102
{ACAD_REACTORS
330
2A
102
}
330
2A
100
AcDbVisualStyle
  2
Thicken
 70
    13
177
     2
291
     1
 71
     2
176
     1
 72
     2
176
     1
 73
     0
176
     1
 90
        0
176
     1
 40
-0.6
176
     1
 41
-30.0
176
     1
 62
     5
 63
     7
421
 16777215
176
     1
 74
     1
176
     1
 91
        4
176
     1
 64
     7
176
     1
 65
   257
176
     1
 75
     1
176
     1
175
     1
176
     1
 42
1.0
176
     1
 92
       12
176
     1
 66
     7
176
     1
 43
1.0
176
     1
 76
     1
176
     1
 77
     6
176
     1
 78
     2
176
     1
 67
     7
176
     1
 79
     5
176
     1
170
     0
176
     1
171
     0
176
     1
290
     0
176
     1
 93
        1
176
     1
 44
0.0
176
     1
173
     0
176
     1
  0
ENDSEC
  0
EOF
