  0
SECTION
  2
HEADER
  9
$ACADVER
  1
AC1024
  9
$ACADMAINTVER
 70
     6
  9
$DWGCODEPAGE
  3
UNDEFINED
  9
$INSBASE
 10
0.0
 20
0.0
 30
0.0
  9
$EXTMIN
 10
1.000000000000000E+20
 20
1.000000000000000E+20
 30
1.000000000000000E+20
  9
$EXTMAX
 10
-1.000000000000000E+20
 20
-1.000000000000000E+20
 30
-1.000000000000000E+20
  9
$LIMMIN
 10
0.0
 20
0.0
  9
$LIMMAX
 10
12.0
 20
9.0
  9
$ORTHOMODE
 70
     0
  9
$REGENMODE
 70
     1
  9
$FILLMODE
 70
     1
  9
$QTEXTMODE
 70
     0
  9
$MIRRTEXT
 70
     1
  9
$LTSCALE
 40
1.0
  9
$ATTMODE
 70
     1
  9
$TEXTSIZE
 40
0.2
  9
$TRACEWID
 40
0.05
  9
$TEXTSTYLE
  7
Standard
  9
$CLAYER
  8
0
  9
$CELTYPE
  6
ByLayer
  9
$CECOLOR
 62
   256
  9
$CELTSCALE
 40
1.0
  9
$DISPSILH
 70
     0
  9
$DIMSCALE
 40
1.0
  9
$DIMASZ
 40
0.18
  9
$DIMEXO
 40
0.0625
  9
$DIMDLI
 40
0.38
  9
$DIMRND
 40
0.0
  9
$DIMDLE
 40
0.0
  9
$DIMEXE
 40
0.18
  9
$DIMTP
 40
0.0
  9
$DIMTM
 40
0.0
  9
$DIMTXT
 40
0.18
  9
$DIMCEN
 40
0.09
  9
$DIMTSZ
 40
0.0
  9
$DIMTOL
 70
     0
  9
$DIMLIM
 70
     0
  9
$DIMTIH
 70
     1
  9
$DIMTOH
 70
     1
  9
$DIMSE1
 70
     0
  9
$DIMSE2
 70
     0
  9
$DIMTAD
 70
     0
  9
$DIMZIN
 70
     0
  9
$DIMBLK
  1

  9
$DIMASO
 70
     1
  9
$DIMSHO
 70
     1
  9
$DIMPOST
  1

  9
$DIMAPOST
  1

  9
$DIMALT
 70
     0
  9
$DIMALTD
 70
     2
  9
$DIMALTF
 40
25.4
  9
$DIMLFAC
 40
1.0
  9
$DIMTOFL
 70
     0
  9
$DIMTVP
 40
0.0
  9
$DIMTIX
 70
     0
  9
$DIMSOXD
 70
     0
  9
$DIMSAH
 70
     0
  9
$DIMBLK1
  1

  9
$DIMBLK2
  1

  9
$DIMSTYLE
  2
Standard
  9
$DIMCLRD
 70
     0
  9
$DIMCLRE
 70
     0
  9
$DIMCLRT
 70
     0
  9
$DIMTFAC
 40
1.0
  9
$DIMGAP
 40
0.09
  9
$DIMJUST
 70
     0
  9
$DIMSD1
 70
     0
  9
$DIMSD2
 70
     0
  9
$DIMTOLJ
 70
     1
  9
$DIMTZIN
 70
     0
  9
$DIMALTZ
 70
     0
  9
$DIMALTTZ
 70
     0
  9
$DIMUPT
 70
     0
  9
$DIMDEC
 70
     4
  9
$DIMTDEC
 70
     4
  9
$DIMALTU
 70
     2
  9
$DIMALTTD
 70
     2
  9
$DIMTXSTY
  7
Standard
  9
$DIMAUNIT
 70
     0
  9
$DIMADEC
 70
     0
  9
$DIMALTRND
 40
0.0
  9
$DIMAZIN
 70
     0
  9
$DIMDSEP
 70
    46
  9
$DIMATFIT
 70
     3
  9
$DIMFRAC
 70
     0
  9
$DIMLDRBLK
  1

  9
$DIMLUNIT
 70
     2
  9
$DIMLWD
 70
    -2
  9
$DIMLWE
 70
    -2
  9
$DIMTMOVE
 70
     0
  9
$DIMFXL
 40
1.0
  9
$DIMFXLON
 70
     0
  9
$DIMJOGANG
 40
0.7853981633974483
  9
$DIMTFILL
 70
     0
  9
$DIMTFILLCLR
 70
     0
  9
$DIMARCSYM
 70
     0
  9
$DIMLTYPE
  6

  9
$DIMLTEX1
  6

  9
$DIMLTEX2
  6

  9
$DIMTXTDIRECTION
 70
     0
  9
$LUNITS
 70
     2
  9
$LUPREC
 70
     4
  9
$SKETCHINC
 40
0.1
  9
$FILLETRAD
 40
0.5
  9
$AUNITS
 70
     0
  9
$AUPREC
 70
     0
  9
$MENU
  1
.
  9
$ELEVATION
 40
0.0
  9
$PELEVATION
 40
0.0
  9
$THICKNESS
 40
0.0
  9
$LIMCHECK
 70
     0
  9
$CHAMFERA
 40
0.5
  9
$CHAMFERB
 40
0.5
  9
$CHAMFERC
 40
1.0
  9
$CHAMFERD
 40
0.0
  9
$SKPOLY
 70
     0
  9
$TDCREATE
 40
2457917.584155081
  9
$TDUCREATE
 40
2457917.209155092
  9
$TDUPDATE
 40
2457917.584155081
  9
$TDUUPDATE
 40
2457917.209155092
  9
$TDINDWG
 40
0.0000000116
  9
$TDUSRTIMER
 40
0.0000000116
  9
$USRTIMER
 70
     1
  9
$ANGBASE
 50
0.0
  9
$ANGDIR
 70
     0
  9
$PDMODE
 70
     0
  9
$PDSIZE
 40
0.0
  9
$PLINEWID
 40
0.0
  9
$SPLFRAME
 70
     0
  9
$SPLINETYPE
 70
     6
  9
$SPLINESEGS
 70
     8
  9
$HANDSEED
  5
EF
  9
$SURFTAB1
 70
     6
  9
$SURFTAB2
 70
     6
  9
$SURFTYPE
 70
     6
  9
$SURFU
 70
     6
  9
$SURFV
 70
     6
  9
$UCSBASE
  2

  9
$UCSNAME
  2

  9
$UCSORG
 10
0.0
 20
0.0
 30
0.0
  9
$UCSXDIR
 10
1.0
 20
0.0
 30
0.0
  9
$UCSYDIR
 10
0.0
 20
1.0
 30
0.0
  9
$UCSORTHOREF
  2

  9
$UCSORTHOVIEW
 70
     0
  9
$UCSORGTOP
 10
0.0
 20
0.0
 30
0.0
  9
$UCSORGBOTTOM
 10
0.0
 20
0.0
 30
0.0
  9
$UCSORGLEFT
 10
0.0
 20
0.0
 30
0.0
  9
$UCSORGRIGHT
 10
0.0
 20
0.0
 30
0.0
  9
$UCSORGFRONT
 10
0.0
 20
0.0
 30
0.0
  9
$UCSORGBACK
 10
0.0
 20
0.0
 30
0.0
  9
$PUCSBASE
  2

  9
$PUCSNAME
  2

  9
$PUCSORG
 10
0.0
 20
0.0
 30
0.0
  9
$PUCSXDIR
 10
1.0
 20
0.0
 30
0.0
  9
$PUCSYDIR
 10
0.0
 20
1.0
 30
0.0
  9
$PUCSORTHOREF
  2

  9
$PUCSORTHOVIEW
 70
     0
  9
$PUCSORGTOP
 10
0.0
 20
0.0
 30
0.0
  9
$PUCSORGBOTTOM
 10
0.0
 20
0.0
 30
0.0
  9
$PUCSORGLEFT
 10
0.0
 20
0.0
 30
0.0
  9
$PUCSORGRIGHT
 10
0.0
 20
0.0
 30
0.0
  9
$PUCSORGFRONT
 10
0.0
 20
0.0
 30
0.0
  9
$PUCSORGBACK
 10
0.0
 20
0.0
 30
0.0
  9
$USERI1
 70
     0
  9
$USERI2
 70
     0
  9
$USERI3
 70
     0
  9
$USERI4
 70
     0
  9
$USERI5
 70
     0
  9
$USERR1
 40
0.0
  9
$USERR2
 40
0.0
  9
$USERR3
 40
0.0
  9
$USERR4
 40
0.0
  9
$USERR5
 40
0.0
  9
$WORLDVIEW
 70
     1
  9
$SHADEDGE
 70
     3
  9
$SHADEDIF
 70
    70
  9
$TILEMODE
 70
     1
  9
$MAXACTVP
 70
    64
  9
$PINSBASE
 10
0.0
 20
0.0
 30
0.0
  9
$PLIMCHECK
 70
     0
  9
$PEXTMIN
 10
1.000000000000000E+20
 20
1.000000000000000E+20
 30
1.000000000000000E+20
  9
$PEXTMAX
 10
-1.000000000000000E+20
 20
-1.000000000000000E+20
 30
-1.000000000000000E+20
  9
$PLIMMIN
 10
0.0
 20
0.0
  9
$PLIMMAX
 10
12.0
 20
9.0
  9
$UNITMODE
 70
     0
  9
$VISRETAIN
 70
     1
  9
$PLINEGEN
 70
     0
  9
$PSLTSCALE
 70
     1
  9
$TREEDEPTH
 70
  3020
  9
$CMLSTYLE
  2
Standard
  9
$CMLJUST
 70
     0
  9
$CMLSCALE
 40
1.0
  9
$PROXYGRAPHICS
 70
     1
  9
$MEASUREMENT
 70
     0
  9
$CELWEIGHT
370
    -1
  9
$ENDCAPS
280
     0
  9
$JOINSTYLE
280
     0
  9
$LWDISPLAY
290
     1
  9
$INSUNITS
 70
     1
  9
$HYPERLINKBASE
  1

  9
$STYLESHEET
  1

  9
$XEDIT
290
     1
  9
$CEPSNTYPE
380
     0
  9
$PSTYLEMODE
290
     1
  9
$FINGERPRINTGUID
  2
{C261709E-C7C0-4EE9-9FD8-71AEB1E5232A}
  9
$VERSIONGUID
  2
{FAEB1C32-E019-11D5-929B-00C0DF256EC4}
  9
$EXTNAMES
290
     1
  9
$PSVPSCALE
 40
0.0
  9
$OLESTARTUP
290
     0
  9
$SORTENTS
280
   127
  9
$INDEXCTL
280
     0
  9
$HIDETEXT
280
     1
  9
$XCLIPFRAME
280
     2
  9
$HALOGAP
280
     0
  9
$OBSCOLOR
 70
   257
  9
$OBSLTYPE
280
     0
  9
$INTERSECTIONDISPLAY
280
     0
  9
$INTERSECTIONCOLOR
 70
   257
  9
$DIMASSOC
280
     2
  9
$PROJECTNAME
  1

  9
$CAMERADISPLAY
290
     0
  9
$LENSLENGTH
 40
50.0
  9
$CAMERAHEIGHT
 40
0.0
  9
$STEPSPERSEC
 40
2.0
  9
$STEPSIZE
 40
6.0
  9
$3DDWFPREC
 40
2.0
  9
$PSOLWIDTH
 40
0.25
  9
$PSOLHEIGHT
 40
4.0
  9
$LOFTANG1
 40
1.570796326794897
  9
$LOFTANG2
 40
1.570796326794897
  9
$LOFTMAG1
 40
0.0
  9
$LOFTMAG2
 40
0.0
  9
$LOFTPARAM
 70
     7
  9
$LOFTNORMALS
280
     1
  9
$LATITUDE
 40
37.795
  9
$LONGITUDE
 40
-122.394
  9
$NORTHDIRECTION
 40
0.0
  9
$TIMEZONE
 70
 -8000
  9
$LIGHTGLYPHDISPLAY
280
     1
  9
$TILEMODELIGHTSYNCH
280
     1
  9
$CMATERIAL
347
3C
  9
$SOLIDHIST
280
     1
  9
$SHOWHIST
280
     1
  9
$DWFFRAME
280
     2
  9
$DGNFRAME
280
     2
  9
$REALWORLDSCALE
290
     1
  9
$INTERFERECOLOR
 62
   256
  9
$CSHADOW
280
     0
  9
$SHADOWPLANELOCATION
 40
0.0
  0
ENDSEC
  0
SECTION
  2
CLASSES
  0
CLASS
  1
ACDBDICTIONARYWDFLT
  2
AcDbDictionaryWithDefault
  3
ObjectDBX Classes
 90
        0
 91
        4
280
     0
281
     0
  0
CLASS
  1
VISUALSTYLE
  2
AcDbVisualStyle
  3
ObjectDBX Classes
 90
     4095
 91
        4
280
     0
281
     0
  0
CLASS
  1
MATERIAL
  2
AcDbMaterial
  3
ObjectDBX Classes
 90
     1153
 91
        4
280
     0
281
     0
  0
CLASS
  1
SUN
  2
AcDbSun
  3
SCENEOE
 90
     1024
 91
        4
280
     0
281
     0
  0
ENDSEC
  0
SECTION
  2
TABLES
  0
TABLE
  2
VPORT
  5
8
330
0
100
AcDbSymbolTable
 70
     1
  0
VPORT
  5
29
330
8
100
AcDbSymbolTableRecord
100
AcDbViewportTableRecord
  2
*Active
 70
     0
 10
0.0
 20
0.0
 11
1.0
 21
1.0
 12
0.0
 22
0.0
 13
0.0
 23
0.0
 14
0.5
 24
0.5
 15
0.5
 25
0.5
 16
0.0
 26
0.0
 36
1.0
 17
91.00082462281999
 27
-128.4993055234307
 37
0.0
 40
256.9986110468615
 41
0.7081814508812795
 42
50.0
 43
0.0
 44
0.0
 50
0.0
 51
0.0
 71
     0
 72
   100
 73
     1
 74
     3
 75
     0
 76
     0
 77
     0
 78
     0
281
     0
 65
     1
110
0.0
120
0.0
130
0.0
111
1.0
121
0.0
131
0.0
112
0.0
122
1.0
132
0.0
 79
     0
146
0.0
 60
     3
 61
     5
292
     1
282
     1
141
0.0
142
0.0
 63
   250
361
3F
  0
ENDTAB
  0
TABLE
  2
LTYPE
  5
5
330
0
100
AcDbSymbolTable
 70
     1
  0
LTYPE
  5
14
330
5
100
AcDbSymbolTableRecord
100
AcDbLinetypeTableRecord
  2
ByBlock
 70
     0
  3

 72
    65
 73
     0
 40
0.0
  0
LTYPE
  5
15
330
5
100
AcDbSymbolTableRecord
100
AcDbLinetypeTableRecord
  2
ByLayer
 70
     0
  3

 72
    65
 73
     0
 40
0.0
  0
LTYPE
  5
16
330
5
100
AcDbSymbolTableRecord
100
AcDbLinetypeTableRecord
  2
Continuous
 70
     0
  3
Solid line
 72
    65
 73
     0
 40
0.0
  0
ENDTAB
  0
TABLE
  2
LAYER
  5
2
330
0
100
AcDbSymbolTable
 70
     2
  0
LAYER
  5
10
330
2
100
AcDbSymbolTableRecord
100
AcDbLayerTableRecord
  2
0
 70
     0
 62
     7
  6
Continuous
370
    -3
390
F
347
3E
  0
LAYER
  5
40
330
2
100
AcDbSymbolTableRecord
100
AcDbLayerTableRecord
  2
_U+30EC_U+30A4_U+30E4_U+30FC 1
 70
     0
 62
     7
  6
Continuous
370
    -3
390
F
347
3E
  0
ENDTAB
  0
TABLE
  2
STYLE
  5
3
330
0
100
AcDbSymbolTable
 70
     1
  0
STYLE
  5
11
330
3
100
AcDbSymbolTableRecord
100
AcDbTextStyleTableRecord
  2
Standard
 70
     0
 40
0.0
 41
1.0
 50
0.0
 71
     0
 42
0.2
  3
txt
  4

  0
ENDTAB
  0
TABLE
  2
VIEW
  5
6
330
0
100
AcDbSymbolTable
 70
     0
  0
ENDTAB
  0
TABLE
  2
UCS
  5
7
330
0
100
AcDbSymbolTable
 70
     0
  0
ENDTAB
  0
TABLE
  2
APPID
  5
9
330
0
100
AcDbSymbolTable
 70
     1
  0
APPID
  5
12
330
9
100
AcDbSymbolTableRecord
100
AcDbRegAppTableRecord
  2
ACAD
 70
     0
  0
ENDTAB
  0
TABLE
  2
DIMSTYLE
  5
A
330
0
100
AcDbSymbolTable
 70
     1
100
AcDbDimStyleTable
  0
DIMSTYLE
105
27
330
A
100
AcDbSymbolTableRecord
100
AcDbDimStyleTableRecord
  2
Standard
 70
     0
178
     0
340
11
  0
ENDTAB
  0
TABLE
  2
BLOCK_RECORD
  5
1
330
0
100
AcDbSymbolTable
 70
     6
  0
BLOCK_RECORD
  5
1F
330
1
100
AcDbSymbolTableRecord
100
AcDbBlockTableRecord
  2
*Model_Space
340
22
 70
     0
280
     1
281
     0
  0
BLOCK_RECORD
  5
1B
330
1
100
AcDbSymbolTableRecord
100
AcDbBlockTableRecord
  2
*Paper_Space
340
1E
 70
     0
280
     1
281
     0
  0
BLOCK_RECORD
  5
23
330
1
100
AcDbSymbolTableRecord
100
AcDbBlockTableRecord
  2
*Paper_Space0
340
26
 70
     0
280
     1
281
     0
  0
BLOCK_RECORD
  5
82
330
1
100
AcDbSymbolTableRecord
100
AcDbBlockTableRecord
  2
block 2
340
0
102
{BLKREFS
331
83
102
}
 70
     0
280
     1
281
     0
  0
BLOCK_RECORD
  5
9E
330
1
100
AcDbSymbolTableRecord
100
AcDbBlockTableRecord
  2
block 3
340
0
102
{BLKREFS
331
9F
102
}
 70
     0
280
     1
281
     0
  0
BLOCK_RECORD
  5
B0
330
1
100
AcDbSymbolTableRecord
100
AcDbBlockTableRecord
  2
block 4
340
0
102
{BLKREFS
331
B1
102
}
 70
     0
280
     1
281
     0
  0
BLOCK_RECORD
  5
C1
330
1
100
AcDbSymbolTableRecord
100
AcDbBlockTableRecord
  2
block 5
340
0
102
{BLKREFS
331
C2
102
}
 70
     0
280
     1
281
     0
  0
BLOCK_RECORD
  5
DB
330
1
100
AcDbSymbolTableRecord
100
AcDbBlockTableRecord
  2
block 6
340
0
102
{BLKREFS
331
DC
102
}
 70
     0
280
     1
281
     0
  0
ENDTAB
  0
ENDSEC
  0
SECTION
  2
BLOCKS
  0
BLOCK
  5
20
330
1F
100
AcDbEntity
  8
0
100
AcDbBlockBegin
  2
*Model_Space
 70
     0
 10
0.0
 20
0.0
 30
0.0
  3
*Model_Space
  1

  0
ENDBLK
  5
21
330
1F
100
AcDbEntity
  8
0
100
AcDbBlockEnd
  0
BLOCK
  5
1C
330
1B
100
AcDbEntity
 67
     1
  8
0
100
AcDbBlockBegin
  2
*Paper_Space
 70
     0
 10
0.0
 20
0.0
 30
0.0
  3
*Paper_Space
  1

  0
ENDBLK
  5
1D
330
1B
100
AcDbEntity
 67
     1
  8
0
100
AcDbBlockEnd
  0
BLOCK
  5
24
330
23
100
AcDbEntity
  8
0
100
AcDbBlockBegin
  2
*Paper_Space0
 70
     0
 10
0.0
 20
0.0
 30
0.0
  3
*Paper_Space0
  1

  0
ENDBLK
  5
25
330
23
100
AcDbEntity
  8
0
100
AcDbBlockEnd
  0
BLOCK
  5
84
330
82
100
AcDbEntity
  8
0
100
AcDbBlockBegin
  2
block 2
 70
     0
 10
0.0
 20
0.0
 30
0.0
  3
block 2
  1

  0
SPLINE
  5
86
330
82
100
AcDbEntity
  8
_U+30EC_U+30A4_U+30E4_U+30FC 1
370
     0
100
AcDbSpline
210
0.0
220
0.0
230
1.0
 70
    11
 71
     3
 72
    44
 73
    40
 74
     0
 42
0.0000000001
 43
0.0000000001
 12
1.0
 22
0.0
 32
0.0
 13
1.0
 23
0.0
 33
0.0
 40
0.0
 40
0.0
 40
0.0
 40
0.0
 40
1.0
 40
1.0
 40
1.0
 40
2.0
 40
2.0
 40
2.0
 40
3.0
 40
3.0
 40
3.0
 40
4.0
 40
4.0
 40
4.0
 40
5.0
 40
5.0
 40
5.0
 40
6.0
 40
6.0
 40
6.0
 40
7.0
 40
7.0
 40
7.0
 40
8.0
 40
8.0
 40
8.0
 40
9.0
 40
9.0
 40
9.0
 40
10.0
 40
10.0
 40
10.0
 40
11.0
 40
11.0
 40
11.0
 40
12.0
 40
12.0
 40
12.0
 40
13.0
 40
13.0
 40
13.0
 40
13.0
 10
77.71980385426797
 20
-135.5975802612395
 30
0.0
 10
77.50190156482591
 20
-135.7563991631095
 30
0.0
 10
77.40871173194991
 20
-135.8304687160424
 30
0.0
 10
77.36013588560789
 20
-135.9741291977773
 30
0.0
 10
77.36013588560789
 20
-135.9741291977773
 30
0.0
 10
78.13855521050009
 20
-135.9741291977773
 30
0.0
 10
78.13855521050009
 20
-135.9741291977773
 30
0.0
 10
78.13855521050009
 20
-135.9741291977773
 30
0.0
 10
78.13855521050009
 20
-136.1794568886982
 30
0.0
 10
78.13855521050009
 20
-136.1794568886982
 30
0.0
 10
78.13855521050009
 20
-136.1794568886982
 30
0.0
 10
77.11053871770153
 20
-136.1794568886982
 30
0.0
 10
77.11053871770153
 20
-136.1794568886982
 30
0.0
 10
77.14223359616584
 20
-135.8218559773293
 30
0.0
 10
77.20769041038558
 20
-135.7436523098141
 30
0.0
 10
77.59285208563651
 20
-135.4453070407914
 30
0.0
 10
77.84882268019058
 20
-135.2465250312925
 30
0.0
 10
77.91427949441032
 20
-135.1786566502331
 30
0.0
 10
77.91427949441032
 20
-135.0411973403716
 30
0.0
 10
77.91427949441032
 20
-134.9226860556791
 30
0.0
 10
77.84244925354287
 20
-134.7917724272396
 30
0.0
 10
77.6457343013351
 20
-134.7917724272396
 30
0.0
 10
77.38545733742447
 20
-134.7917724272396
 30
0.0
 10
77.37701685348561
 20
-135.0222493152028
 30
0.0
 10
77.37271048412904
 20
-135.1386935426042
 30
0.0
 10
77.37271048412904
 20
-135.1386935426042
 30
0.0
 10
77.14860702281355
 20
-135.1386935426042
 30
0.0
 10
77.14860702281355
 20
-135.1386935426042
 30
0.0
 10
77.1570475067524
 20
-135.0115695191985
 30
0.0
 10
77.16755504798242
 20
-134.8996039159279
 30
0.0
 10
77.247998027563
 20
-134.7810926312353
 30
0.0
 10
77.35789657354248
 20
-134.6202066720741
 30
0.0
 10
77.54410398452023
 20
-134.5864447363187
 30
0.0
 10
77.66054821192168
 20
-134.5864447363187
 30
0.0
 10
77.93770614371002
 20
-134.5864447363187
 30
0.0
 10
78.1449286371478
 20
-134.770412835231
 30
0.0
 10
78.1449286371478
 20
-135.0432643976628
 30
0.0
 10
78.1449286371478
 20
-135.2720187378834
 30
0.0
 10
78.02865666452061
 20
-135.3712374878586
 30
0.0
 10
77.71980385426797
 20
-135.5975802612395
 30
0.0
  0
HATCH
  5
87
330
82
100
AcDbEntity
  8
_U+30EC_U+30A4_U+30E4_U+30FC 1
 62
   179
420
  2234388
100
AcDbHatch
 10
0.0
 20
0.0
 30
0.0
210
0.0
220
0.0
230
1.0
  2
SOLID
 70
     1
 71
     0
 91
        1
 92
        1
 93
        1
 72
     4
 94
        3
 73
     0
 74
     1
 95
       44
 96
       40
 40
0.0
 40
0.0
 40
0.0
 40
0.0
 40
1.0
 40
1.0
 40
1.0
 40
2.0
 40
2.0
 40
2.0
 40
3.0
 40
3.0
 40
3.0
 40
4.0
 40
4.0
 40
4.0
 40
5.0
 40
5.0
 40
5.0
 40
6.0
 40
6.0
 40
6.0
 40
7.0
 40
7.0
 40
7.0
 40
8.0
 40
8.0
 40
8.0
 40
9.0
 40
9.0
 40
9.0
 40
10.0
 40
10.0
 40
10.0
 40
11.0
 40
11.0
 40
11.0
 40
12.0
 40
12.0
 40
12.0
 40
13.0
 40
13.0
 40
13.0
 40
13.0
 10
77.71980385426797
 20
-135.5975802612395
 10
77.50190156482591
 20
-135.7563991631095
 10
77.40871173194991
 20
-135.8304687160424
 10
77.36013588560789
 20
-135.9741291977773
 10
77.36013588560789
 20
-135.9741291977773
 10
78.13855521050009
 20
-135.9741291977773
 10
78.13855521050009
 20
-135.9741291977773
 10
78.13855521050009
 20
-135.9741291977773
 10
78.13855521050009
 20
-136.1794568886982
 10
78.13855521050009
 20
-136.1794568886982
 10
78.13855521050009
 20
-136.1794568886982
 10
77.11053871770153
 20
-136.1794568886982
 10
77.11053871770153
 20
-136.1794568886982
 10
77.14223359616584
 20
-135.8218559773293
 10
77.20769041038558
 20
-135.7436523098141
 10
77.59285208563651
 20
-135.4453070407914
 10
77.84882268019058
 20
-135.2465250312925
 10
77.91427949441032
 20
-135.1786566502331
 10
77.91427949441032
 20
-135.0411973403716
 10
77.91427949441032
 20
-134.9226860556791
 10
77.84244925354287
 20
-134.7917724272396
 10
77.6457343013351
 20
-134.7917724272396
 10
77.38545733742447
 20
-134.7917724272396
 10
77.37701685348561
 20
-135.0222493152028
 10
77.37271048412904
 20
-135.1386935426042
 10
77.37271048412904
 20
-135.1386935426042
 10
77.14860702281355
 20
-135.1386935426042
 10
77.14860702281355
 20
-135.1386935426042
 10
77.1570475067524
 20
-135.0115695191985
 10
77.16755504798242
 20
-134.8996039159279
 10
77.247998027563
 20
-134.7810926312353
 10
77.35789657354248
 20
-134.6202066720741
 10
77.54410398452023
 20
-134.5864447363187
 10
77.66054821192168
 20
-134.5864447363187
 10
77.93770614371002
 20
-134.5864447363187
 10
78.1449286371478
 20
-134.770412835231
 10
78.1449286371478
 20
-135.0432643976628
 10
78.1449286371478
 20
-135.2720187378834
 10
78.02865666452061
 20
-135.3712374878586
 10
77.71980385426797
 20
-135.5975802612395
 97
        0
 97
        0
 75
     2
 76
     1
 98
        0
  0
SPLINE
  5
88
330
82
100
AcDbEntity
  8
_U+30EC_U+30A4_U+30E4_U+30FC 1
370
     0
100
AcDbSpline
210
0.0
220
0.0
230
1.0
 70
    11
 71
     3
 72
    29
 73
    25
 74
     0
 42
0.0000000001
 43
0.0000000001
 12
1.0
 22
0.0
 32
0.0
 13
1.0
 23
0.0
 33
0.0
 40
0.0
 40
0.0
 40
0.0
 40
0.0
 40
1.0
 40
1.0
 40
1.0
 40
2.0
 40
2.0
 40
2.0
 40
3.0
 40
3.0
 40
3.0
 40
4.0
 40
4.0
 40
4.0
 40
5.0
 40
5.0
 40
5.0
 40
6.0
 40
6.0
 40
6.0
 40
7.0
 40
7.0
 40
7.0
 40
8.0
 40
8.0
 40
8.0
 40
8.0
 10
79.2011949129254
 20
-136.0016899616593
 30
0.0
 10
79.09336342423708
 20
-136.2111517671625
 30
0.0
 10
78.91990286655475
 20
-136.2300997923314
 30
0.0
 10
78.8034586391533
 20
-136.2300997923314
 30
0.0
 10
78.6427449347664
 20
-136.2300997923314
 30
0.0
 10
78.50097925554837
 20
-136.1835910032805
 30
0.0
 10
78.40572236538121
 20
-136.0016899616593
 30
0.0
 10
78.30219724604946
 20
-135.8070420667427
 30
0.0
 10
78.28307696610632
 20
-135.5700194973575
 30
0.0
 10
78.28307696610632
 20
-135.4074109904537
 30
0.0
 10
78.28307696610632
 20
-135.2634059991703
 30
0.0
 10
78.29995793398405
 20
-135.0115695191985
 30
0.0
 10
78.40572236538121
 20
-134.8127875096996
 30
0.0
 10
78.5137261088438
 20
-134.6098713856184
 30
0.0
 10
78.6744398132307
 20
-134.5864447363187
 30
0.0
 10
78.8034586391533
 20
-134.5864447363187
 30
0.0
 10
78.96210528624906
 20
-134.5864447363187
 30
0.0
 10
79.10593802275824
 20
-134.6308864680784
 30
0.0
 10
79.2011949129254
 20
-134.8127875096996
 30
0.0
 10
79.30058591767485
 20
-135.0053683473251
 30
0.0
 10
79.32384031220029
 20
-135.2337781779971
 30
0.0
 10
79.32384031220029
 20
-135.4074109904537
 30
0.0
 10
79.32384031220029
 20
-135.5786322360706
 30
0.0
 10
79.30282522974026
 20
-135.8091091240339
 30
0.0
 10
79.2011949129254
 20
-136.0016899616593
 30
0.0
  0
SPLINE
  5
89
330
82
100
AcDbEntity
  8
_U+30EC_U+30A4_U+30E4_U+30FC 1
370
     0
100
AcDbSpline
210
0.0
220
0.0
230
1.0
 70
    11
 71
     3
 72
    17
 73
    13
 74
     0
 42
0.0000000001
 43
0.0000000001
 12
1.0
 22
0.0
 32
0.0
 13
1.0
 23
0.0
 33
0.0
 40
0.0
 40
0.0
 40
0.0
 40
0.0
 40
1.0
 40
1.0
 40
1.0
 40
2.0
 40
2.0
 40
2.0
 40
3.0
 40
3.0
 40
3.0
 40
4.0
 40
4.0
 40
4.0
 40
4.0
 10
78.8034586391533
 20
-134.7790255739441
 30
0.0
 10
78.55386147124696
 20
-134.7790255739441
 30
0.0
 10
78.50735268219609
 20
-135.0625569323802
 30
0.0
 10
78.50735268219609
 20
-135.4074109904537
 30
0.0
 10
78.50735268219609
 20
-135.7267713419364
 30
0.0
 10
78.54335393001695
 20
-136.0354518974148
 30
0.0
 10
78.8034586391533
 20
-136.0354518974148
 30
0.0
 10
79.0509887497685
 20
-136.0354518974148
 30
0.0
 10
79.0997368508848
 20
-135.7543321058184
 30
0.0
 10
79.0997368508848
 20
-135.4074109904537
 30
0.0
 10
79.0997368508848
 20
-135.0877061294225
 30
0.0
 10
79.06149629099852
 20
-134.7790255739441
 30
0.0
 10
78.8034586391533
 20
-134.7790255739441
 30
0.0
  0
HATCH
  5
8A
330
82
100
AcDbEntity
  8
_U+30EC_U+30A4_U+30E4_U+30FC 1
 62
   179
420
  2234388
100
AcDbHatch
 10
0.0
 20
0.0
 30
0.0
210
0.0
220
0.0
230
1.0
  2
SOLID
 70
     1
 71
     0
 91
        2
 92
        1
 93
        1
 72
     4
 94
        3
 73
     0
 74
     1
 95
       29
 96
       25
 40
0.0
 40
0.0
 40
0.0
 40
0.0
 40
1.0
 40
1.0
 40
1.0
 40
2.0
 40
2.0
 40
2.0
 40
3.0
 40
3.0
 40
3.0
 40
4.0
 40
4.0
 40
4.0
 40
5.0
 40
5.0
 40
5.0
 40
6.0
 40
6.0
 40
6.0
 40
7.0
 40
7.0
 40
7.0
 40
8.0
 40
8.0
 40
8.0
 40
8.0
 10
79.2011949129254
 20
-136.0016899616593
 10
79.09336342423708
 20
-136.2111517671625
 10
78.91990286655475
 20
-136.2300997923314
 10
78.8034586391533
 20
-136.2300997923314
 10
78.6427449347664
 20
-136.2300997923314
 10
78.50097925554837
 20
-136.1835910032805
 10
78.40572236538121
 20
-136.0016899616593
 10
78.30219724604946
 20
-135.8070420667427
 10
78.28307696610632
 20
-135.5700194973575
 10
78.28307696610632
 20
-135.4074109904537
 10
78.28307696610632
 20
-135.2634059991703
 10
78.29995793398405
 20
-135.0115695191985
 10
78.40572236538121
 20
-134.8127875096996
 10
78.5137261088438
 20
-134.6098713856184
 10
78.6744398132307
 20
-134.5864447363187
 10
78.8034586391533
 20
-134.5864447363187
 10
78.96210528624906
 20
-134.5864447363187
 10
79.10593802275824
 20
-134.6308864680784
 10
79.2011949129254
 20
-134.8127875096996
 10
79.30058591767485
 20
-135.0053683473251
 10
79.32384031220029
 20
-135.2337781779971
 10
79.32384031220029
 20
-135.4074109904537
 10
79.32384031220029
 20
-135.5786322360706
 10
79.30282522974026
 20
-135.8091091240339
 10
79.2011949129254
 20
-136.0016899616593
 97
        0
 97
        0
 92
        1
 93
        1
 72
     4
 94
        3
 73
     0
 74
     1
 95
       17
 96
       13
 40
0.0
 40
0.0
 40
0.0
 40
0.0
 40
1.0
 40
1.0
 40
1.0
 40
2.0
 40
2.0
 40
2.0
 40
3.0
 40
3.0
 40
3.0
 40
4.0
 40
4.0
 40
4.0
 40
4.0
 10
78.8034586391533
 20
-134.7790255739441
 10
78.55386147124696
 20
-134.7790255739441
 10
78.50735268219609
 20
-135.0625569323802
 10
78.50735268219609
 20
-135.4074109904537
 10
78.50735268219609
 20
-135.7267713419364
 10
78.54335393001695
 20
-136.0354518974148
 10
78.8034586391533
 20
-136.0354518974148
 10
79.0509887497685
 20
-136.0354518974148
 10
79.0997368508848
 20
-135.7543321058184
 10
79.0997368508848
 20
-135.4074109904537
 10
79.0997368508848
 20
-135.0877061294225
 10
79.06149629099852
 20
-134.7790255739441
 10
78.8034586391533
 20
-134.7790255739441
 97
        0
 97
        0
 75
     2
 76
     1
 98
        0
  0
SPLINE
  5
8B
330
82
100
AcDbEntity
  8
_U+30EC_U+30A4_U+30E4_U+30FC 1
370
     0
100
AcDbSpline
210
0.0
220
0.0
230
1.0
 70
    11
 71
     3
 72
    44
 73
    40
 74
     0
 42
0.0000000001
 43
0.0000000001
 12
1.0
 22
0.0
 32
0.0
 13
1.0
 23
0.0
 33
0.0
 40
0.0
 40
0.0
 40
0.0
 40
0.0
 40
1.0
 40
1.0
 40
1.0
 40
2.0
 40
2.0
 40
2.0
 40
3.0
 40
3.0
 40
3.0
 40
4.0
 40
4.0
 40
4.0
 40
5.0
 40
5.0
 40
5.0
 40
6.0
 40
6.0
 40
6.0
 40
7.0
 40
7.0
 40
7.0
 40
8.0
 40
8.0
 40
8.0
 40
9.0
 40
9.0
 40
9.0
 40
10.0
 40
10.0
 40
10.0
 40
11.0
 40
11.0
 40
11.0
 40
12.0
 40
12.0
 40
12.0
 40
13.0
 40
13.0
 40
13.0
 40
13.0
 10
80.4944837580882
 20
-136.1794568886982
 30
0.0
 10
80.47105710878849
 20
-136.1350151569385
 30
0.0
 10
80.45004202632846
 20
-136.0823051960141
 30
0.0
 10
80.44780271426305
 20
-135.8514837985024
 30
0.0
 10
80.44366859968075
 20
-135.6082600572438
 30
0.0
 10
80.38441295733446
 20
-135.5383246188932
 30
0.0
 10
80.20664603029556
 20
-135.5383246188932
 30
0.0
 10
80.20664603029556
 20
-135.5383246188932
 30
0.0
 10
79.79840221529346
 20
-135.5383246188932
 30
0.0
 10
79.79840221529346
 20
-135.5383246188932
 30
0.0
 10
79.79840221529346
 20
-135.5383246188932
 30
0.0
 10
79.79840221529346
 20
-136.1794568886982
 30
0.0
 10
79.79840221529346
 20
-136.1794568886982
 30
0.0
 10
79.79840221529346
 20
-136.1794568886982
 30
0.0
 10
79.56361895797369
 20
-136.1794568886982
 30
0.0
 10
79.56361895797369
 20
-136.1794568886982
 30
0.0
 10
79.56361895797369
 20
-136.1794568886982
 30
0.0
 10
79.56361895797369
 20
-134.6350205826607
 30
0.0
 10
79.56361895797369
 20
-134.6350205826607
 30
0.0
 10
79.56361895797369
 20
-134.6350205826607
 30
0.0
 10
80.23834090875987
 20
-134.6350205826607
 30
0.0
 10
80.23834090875987
 20
-134.6350205826607
 30
0.0
 10
80.54512666172135
 20
-134.6350205826607
 30
0.0
 10
80.71238604753025
 20
-134.8065863378261
 30
0.0
 10
80.71238604753025
 20
-135.0625569323802
 30
0.0
 10
80.71238604753025
 20
-135.1131998360134
 30
0.0
 10
80.70377330881712
 20
-135.1958821276594
 30
0.0
 10
80.65933157705739
 20
-135.2761528524657
 30
0.0
 10
80.60024818948536
 20
-135.3798502265717
 30
0.0
 10
80.53461912049134
 20
-135.3987982517406
 30
0.0
 10
80.4732964208539
 20
-135.4156792196183
 30
0.0
 10
80.61075573071537
 20
-135.4580538940869
 30
0.0
 10
80.67845185700052
 20
-135.5066297404289
 30
0.0
 10
80.6827582263571
 20
-135.8218559773293
 30
0.0
 10
80.6868923409394
 20
-136.0926404824699
 30
0.0
 10
80.72289358876026
 20
-136.1243353609342
 30
0.0
 10
80.79058971504541
 20
-136.1794568886982
 30
0.0
 10
80.79058971504541
 20
-136.1794568886982
 30
0.0
 10
80.4944837580882
 20
-136.1794568886982
 30
0.0
 10
80.4944837580882
 20
-136.1794568886982
 30
0.0
  0
SPLINE
  5
8C
330
82
100
AcDbEntity
  8
_U+30EC_U+30A4_U+30E4_U+30FC 1
370
     0
100
AcDbSpline
210
0.0
220
0.0
230
1.0
 70
    11
 71
     3
 72
    20
 73
    16
 74
     0
 42
0.0000000001
 43
0.0000000001
 12
1.0
 22
0.0
 32
0.0
 13
1.0
 23
0.0
 33
0.0
 40
0.0
 40
0.0
 40
0.0
 40
0.0
 40
1.0
 40
1.0
 40
1.0
 40
2.0
 40
2.0
 40
2.0
 40
3.0
 40
3.0
 40
3.0
 40
4.0
 40
4.0
 40
4.0
 40
5.0
 40
5.0
 40
5.0
 40
5.0
 10
80.24264727811642
 20
-134.846549445455
 30
0.0
 10
80.24264727811642
 20
-134.846549445455
 30
0.0
 10
79.79840221529346
 20
-134.846549445455
 30
0.0
 10
79.79840221529346
 20
-134.846549445455
 30
0.0
 10
79.79840221529346
 20
-134.846549445455
 30
0.0
 10
79.79840221529346
 20
-135.3267957560989
 30
0.0
 10
79.79840221529346
 20
-135.3267957560989
 30
0.0
 10
79.79840221529346
 20
-135.3267957560989
 30
0.0
 10
80.24058022082528
 20
-135.3267957560989
 30
0.0
 10
80.24058022082528
 20
-135.3267957560989
 30
0.0
 10
80.33997122557473
 20
-135.3267957560989
 30
0.0
 10
80.47536347814506
 20
-135.2506591458748
 30
0.0
 10
80.47536347814506
 20
-135.0794379002579
 30
0.0
 10
80.47536347814506
 20
-135.0012342327427
 30
0.0
 10
80.4416015423896
 20
-134.846549445455
 30
0.0
 10
80.24264727811642
 20
-134.846549445455
 30
0.0
  0
HATCH
  5
8D
330
82
100
AcDbEntity
  8
_U+30EC_U+30A4_U+30E4_U+30FC 1
 62
   179
420
  2234388
100
AcDbHatch
 10
0.0
 20
0.0
 30
0.0
210
0.0
220
0.0
230
1.0
  2
SOLID
 70
     1
 71
     0
 91
        2
 92
        1
 93
        1
 72
     4
 94
        3
 73
     0
 74
     1
 95
       44
 96
       40
 40
0.0
 40
0.0
 40
0.0
 40
0.0
 40
1.0
 40
1.0
 40
1.0
 40
2.0
 40
2.0
 40
2.0
 40
3.0
 40
3.0
 40
3.0
 40
4.0
 40
4.0
 40
4.0
 40
5.0
 40
5.0
 40
5.0
 40
6.0
 40
6.0
 40
6.0
 40
7.0
 40
7.0
 40
7.0
 40
8.0
 40
8.0
 40
8.0
 40
9.0
 40
9.0
 40
9.0
 40
10.0
 40
10.0
 40
10.0
 40
11.0
 40
11.0
 40
11.0
 40
12.0
 40
12.0
 40
12.0
 40
13.0
 40
13.0
 40
13.0
 40
13.0
 10
80.4944837580882
 20
-136.1794568886982
 10
80.47105710878849
 20
-136.1350151569385
 10
80.45004202632846
 20
-136.0823051960141
 10
80.44780271426305
 20
-135.8514837985024
 10
80.44366859968075
 20
-135.6082600572438
 10
80.38441295733446
 20
-135.5383246188932
 10
80.20664603029556
 20
-135.5383246188932
 10
80.20664603029556
 20
-135.5383246188932
 10
79.79840221529346
 20
-135.5383246188932
 10
79.79840221529346
 20
-135.5383246188932
 10
79.79840221529346
 20
-135.5383246188932
 10
79.79840221529346
 20
-136.1794568886982
 10
79.79840221529346
 20
-136.1794568886982
 10
79.79840221529346
 20
-136.1794568886982
 10
79.56361895797369
 20
-136.1794568886982
 10
79.56361895797369
 20
-136.1794568886982
 10
79.56361895797369
 20
-136.1794568886982
 10
79.56361895797369
 20
-134.6350205826607
 10
79.56361895797369
 20
-134.6350205826607
 10
79.56361895797369
 20
-134.6350205826607
 10
80.23834090875987
 20
-134.6350205826607
 10
80.23834090875987
 20
-134.6350205826607
 10
80.54512666172135
 20
-134.6350205826607
 10
80.71238604753025
 20
-134.8065863378261
 10
80.71238604753025
 20
-135.0625569323802
 10
80.71238604753025
 20
-135.1131998360134
 10
80.70377330881712
 20
-135.1958821276594
 10
80.65933157705739
 20
-135.2761528524657
 10
80.60024818948536
 20
-135.3798502265717
 10
80.53461912049134
 20
-135.3987982517406
 10
80.4732964208539
 20
-135.4156792196183
 10
80.61075573071537
 20
-135.4580538940869
 10
80.67845185700052
 20
-135.5066297404289
 10
80.6827582263571
 20
-135.8218559773293
 10
80.6868923409394
 20
-136.0926404824699
 10
80.72289358876026
 20
-136.1243353609342
 10
80.79058971504541
 20
-136.1794568886982
 10
80.79058971504541
 20
-136.1794568886982
 10
80.4944837580882
 20
-136.1794568886982
 10
80.4944837580882
 20
-136.1794568886982
 97
        0
 97
        0
 92
        1
 93
        1
 72
     4
 94
        3
 73
     0
 74
     1
 95
       20
 96
       16
 40
0.0
 40
0.0
 40
0.0
 40
0.0
 40
1.0
 40
1.0
 40
1.0
 40
2.0
 40
2.0
 40
2.0
 40
3.0
 40
3.0
 40
3.0
 40
4.0
 40
4.0
 40
4.0
 40
5.0
 40
5.0
 40
5.0
 40
5.0
 10
80.24264727811642
 20
-134.846549445455
 10
80.24264727811642
 20
-134.846549445455
 10
79.79840221529346
 20
-134.846549445455
 10
79.79840221529346
 20
-134.846549445455
 10
79.79840221529346
 20
-134.846549445455
 10
79.79840221529346
 20
-135.3267957560989
 10
79.79840221529346
 20
-135.3267957560989
 10
79.79840221529346
 20
-135.3267957560989
 10
80.24058022082528
 20
-135.3267957560989
 10
80.24058022082528
 20
-135.3267957560989
 10
80.33997122557473
 20
-135.3267957560989
 10
80.47536347814506
 20
-135.2506591458748
 10
80.47536347814506
 20
-135.0794379002579
 10
80.47536347814506
 20
-135.0012342327427
 10
80.4416015423896
 20
-134.846549445455
 10
80.24264727811642
 20
-134.846549445455
 97
        0
 97
        0
 75
     2
 76
     1
 98
        0
  0
ENDBLK
  5
85
330
82
100
AcDbEntity
  8
0
100
AcDbBlockEnd
  0
BLOCK
  5
A0
330
9E
100
AcDbEntity
  8
0
100
AcDbBlockBegin
  2
block 3
 70
     0
 10
0.0
 20
0.0
 30
0.0
  3
block 3
  1

  0
SPLINE
  5
A2
330
9E
100
AcDbEntity
  8
_U+30EC_U+30A4_U+30E4_U+30FC 1
370
     0
100
AcDbSpline
210
0.0
220
0.0
230
1.0
 70
    11
 71
     3
 72
    26
 73
    22
 74
     0
 42
0.0000000001
 43
0.0000000001
 12
1.0
 22
0.0
 32
0.0
 13
1.0
 23
0.0
 33
0.0
 40
0.0
 40
0.0
 40
0.0
 40
0.0
 40
1.0
 40
1.0
 40
1.0
 40
2.0
 40
2.0
 40
2.0
 40
3.0
 40
3.0
 40
3.0
 40
4.0
 40
4.0
 40
4.0
 40
5.0
 40
5.0
 40
5.0
 40
6.0
 40
6.0
 40
6.0
 40
7.0
 40
7.0
 40
7.0
 40
7.0
 10
111.6128254929301
 20
-130.3954860785122
 30
0.0
 10
111.6128254929301
 20
-130.3954860785122
 30
0.0
 10
110.5086723899076
 20
-130.3954860785122
 30
0.0
 10
110.5086723899076
 20
-130.3954860785122
 30
0.0
 10
110.5086723899076
 20
-130.3954860785122
 30
0.0
 10
110.5086723899076
 20
-130.7255262259992
 30
0.0
 10
110.5086723899076
 20
-130.7255262259992
 30
0.0
 10
110.5086723899076
 20
-130.7255262259992
 30
0.0
 10
110.3605332840418
 20
-130.7255262259992
 30
0.0
 10
110.3605332840418
 20
-130.7255262259992
 30
0.0
 10
110.3457193734552
 20
-130.3934190212211
 30
0.0
 10
110.1827663570029
 20
-130.3469102321702
 30
0.0
 10
110.0683891868926
 20
-130.3172824109971
 30
0.0
 10
110.0683891868926
 20
-130.3172824109971
 30
0.0
 10
110.0683891868926
 20
-130.1712103624225
 30
0.0
 10
110.0683891868926
 20
-130.1712103624225
 30
0.0
 10
110.0683891868926
 20
-130.1712103624225
 30
0.0
 10
111.6128254929301
 20
-130.1712103624225
 30
0.0
 10
111.6128254929301
 20
-130.1712103624225
 30
0.0
 10
111.6128254929301
 20
-130.1712103624225
 30
0.0
 10
111.6128254929301
 20
-130.3954860785122
 30
0.0
 10
111.6128254929301
 20
-130.3954860785122
 30
0.0
  0
HATCH
  5
A3
330
9E
100
AcDbEntity
  8
_U+30EC_U+30A4_U+30E4_U+30FC 1
 62
   179
420
  2234388
100
AcDbHatch
 10
0.0
 20
0.0
 30
0.0
210
0.0
220
0.0
230
1.0
  2
SOLID
 70
     1
 71
     0
 91
        1
 92
        1
 93
        1
 72
     4
 94
        3
 73
     0
 74
     1
 95
       26
 96
       22
 40
0.0
 40
0.0
 40
0.0
 40
0.0
 40
1.0
 40
1.0
 40
1.0
 40
2.0
 40
2.0
 40
2.0
 40
3.0
 40
3.0
 40
3.0
 40
4.0
 40
4.0
 40
4.0
 40
5.0
 40
5.0
 40
5.0
 40
6.0
 40
6.0
 40
6.0
 40
7.0
 40
7.0
 40
7.0
 40
7.0
 10
111.6128254929301
 20
-130.3954860785122
 10
111.6128254929301
 20
-130.3954860785122
 10
110.5086723899076
 20
-130.3954860785122
 10
110.5086723899076
 20
-130.3954860785122
 10
110.5086723899076
 20
-130.3954860785122
 10
110.5086723899076
 20
-130.7255262259992
 10
110.5086723899076
 20
-130.7255262259992
 10
110.5086723899076
 20
-130.7255262259992
 10
110.3605332840418
 20
-130.7255262259992
 10
110.3605332840418
 20
-130.7255262259992
 10
110.3457193734552
 20
-130.3934190212211
 10
110.1827663570029
 20
-130.3469102321702
 10
110.0683891868926
 20
-130.3172824109971
 10
110.0683891868926
 20
-130.3172824109971
 10
110.0683891868926
 20
-130.1712103624225
 10
110.0683891868926
 20
-130.1712103624225
 10
110.0683891868926
 20
-130.1712103624225
 10
111.6128254929301
 20
-130.1712103624225
 10
111.6128254929301
 20
-130.1712103624225
 10
111.6128254929301
 20
-130.1712103624225
 10
111.6128254929301
 20
-130.3954860785122
 10
111.6128254929301
 20
-130.3954860785122
 97
        0
 97
        0
 75
     2
 76
     1
 98
        0
  0
ENDBLK
  5
A1
330
9E
100
AcDbEntity
  8
0
100
AcDbBlockEnd
  0
BLOCK
  5
B2
330
B0
100
AcDbEntity
  8
0
100
AcDbBlockBegin
  2
block 4
 70
     0
 10
0.0
 20
0.0
 30
0.0
  3
block 4
  1

  0
SPLINE
  5
B4
330
B0
100
AcDbEntity
  8
_U+30EC_U+30A4_U+30E4_U+30FC 1
370
     0
100
AcDbSpline
210
0.0
220
0.0
230
1.0
 70
    11
 71
     3
 72
    44
 73
    40
 74
     0
 42
0.0000000001
 43
0.0000000001
 12
1.0
 22
0.0
 32
0.0
 13
1.0
 23
0.0
 33
0.0
 40
0.0
 40
0.0
 40
0.0
 40
0.0
 40
1.0
 40
1.0
 40
1.0
 40
2.0
 40
2.0
 40
2.0
 40
3.0
 40
3.0
 40
3.0
 40
4.0
 40
4.0
 40
4.0
 40
5.0
 40
5.0
 40
5.0
 40
6.0
 40
6.0
 40
6.0
 40
7.0
 40
7.0
 40
7.0
 40
8.0
 40
8.0
 40
8.0
 40
9.0
 40
9.0
 40
9.0
 40
10.0
 40
10.0
 40
10.0
 40
11.0
 40
11.0
 40
11.0
 40
12.0
 40
12.0
 40
12.0
 40
13.0
 40
13.0
 40
13.0
 40
13.0
 10
97.5981770589338
 20
-148.3013698630983
 30
0.0
 10
97.380447024266
 20
-148.4601887649683
 30
0.0
 10
97.28742944616425
 20
-148.5342583179012
 30
0.0
 10
97.23850909027371
 20
-148.6779187996361
 30
0.0
 10
97.23850909027371
 20
-148.6779187996361
 30
0.0
 10
98.01710066994018
 20
-148.6779187996361
 30
0.0
 10
98.01710066994018
 20
-148.6779187996361
 30
0.0
 10
98.01710066994018
 20
-148.6779187996361
 30
0.0
 10
98.01710066994018
 20
-148.883246490557
 30
0.0
 10
98.01710066994018
 20
-148.883246490557
 30
0.0
 10
98.01710066994018
 20
-148.883246490557
 30
0.0
 10
96.98908417714162
 20
-148.883246490557
 30
0.0
 10
96.98908417714162
 20
-148.883246490557
 30
0.0
 10
97.02077905560591
 20
-148.5256455791881
 30
0.0
 10
97.08623586982567
 20
-148.4474419116729
 30
0.0
 10
97.4713975450766
 20
-148.1490966426502
 30
0.0
 10
97.72736813963066
 20
-147.9503146331513
 30
0.0
 10
97.79282495385041
 20
-147.8824462520919
 30
0.0
 10
97.79282495385041
 20
-147.7449869422304
 30
0.0
 10
97.79282495385041
 20
-147.6264756575378
 30
0.0
 10
97.72082245820869
 20
-147.4955620290984
 30
0.0
 10
97.52410750600092
 20
-147.4955620290984
 30
0.0
 10
97.26400279686456
 20
-147.4955620290984
 30
0.0
 10
97.25573456769996
 20
-147.7260389170615
 30
0.0
 10
97.25125594356913
 20
-147.842483144463
 30
0.0
 10
97.25125594356913
 20
-147.842483144463
 30
0.0
 10
97.02698022747937
 20
-147.842483144463
 30
0.0
 10
97.02698022747937
 20
-147.842483144463
 30
0.0
 10
97.0355929661925
 20
-147.7153591210573
 30
0.0
 10
97.04627276219676
 20
-147.6033935177867
 30
0.0
 10
97.12654348700309
 20
-147.4848822330941
 30
0.0
 10
97.23644203298257
 20
-147.3239962739329
 30
0.0
 10
97.42282169873458
 20
-147.2902343381774
 30
0.0
 10
97.5389214165875
 20
-147.2902343381774
 30
0.0
 10
97.8162516031501
 20
-147.2902343381774
 30
0.0
 10
98.02364635136215
 20
-147.4742024370898
 30
0.0
 10
98.02364635136215
 20
-147.7470539995216
 30
0.0
 10
98.02364635136215
 20
-147.9758083397422
 30
0.0
 10
97.9072021239607
 20
-148.0750270897174
 30
0.0
 10
97.5981770589338
 20
-148.3013698630983
 30
0.0
  0
HATCH
  5
B5
330
B0
100
AcDbEntity
  8
_U+30EC_U+30A4_U+30E4_U+30FC 1
 62
   179
420
  2234388
100
AcDbHatch
 10
0.0
 20
0.0
 30
0.0
210
0.0
220
0.0
230
1.0
  2
SOLID
 70
     1
 71
     0
 91
        1
 92
        1
 93
        1
 72
     4
 94
        3
 73
     0
 74
     1
 95
       44
 96
       40
 40
0.0
 40
0.0
 40
0.0
 40
0.0
 40
1.0
 40
1.0
 40
1.0
 40
2.0
 40
2.0
 40
2.0
 40
3.0
 40
3.0
 40
3.0
 40
4.0
 40
4.0
 40
4.0
 40
5.0
 40
5.0
 40
5.0
 40
6.0
 40
6.0
 40
6.0
 40
7.0
 40
7.0
 40
7.0
 40
8.0
 40
8.0
 40
8.0
 40
9.0
 40
9.0
 40
9.0
 40
10.0
 40
10.0
 40
10.0
 40
11.0
 40
11.0
 40
11.0
 40
12.0
 40
12.0
 40
12.0
 40
13.0
 40
13.0
 40
13.0
 40
13.0
 10
97.5981770589338
 20
-148.3013698630983
 10
97.380447024266
 20
-148.4601887649683
 10
97.28742944616425
 20
-148.5342583179012
 10
97.23850909027371
 20
-148.6779187996361
 10
97.23850909027371
 20
-148.6779187996361
 10
98.01710066994018
 20
-148.6779187996361
 10
98.01710066994018
 20
-148.6779187996361
 10
98.01710066994018
 20
-148.6779187996361
 10
98.01710066994018
 20
-148.883246490557
 10
98.01710066994018
 20
-148.883246490557
 10
98.01710066994018
 20
-148.883246490557
 10
96.98908417714162
 20
-148.883246490557
 10
96.98908417714162
 20
-148.883246490557
 10
97.02077905560591
 20
-148.5256455791881
 10
97.08623586982567
 20
-148.4474419116729
 10
97.4713975450766
 20
-148.1490966426502
 10
97.72736813963066
 20
-147.9503146331513
 10
97.79282495385041
 20
-147.8824462520919
 10
97.79282495385041
 20
-147.7449869422304
 10
97.79282495385041
 20
-147.6264756575378
 10
97.72082245820869
 20
-147.4955620290984
 10
97.52410750600092
 20
-147.4955620290984
 10
97.26400279686456
 20
-147.4955620290984
 10
97.25573456769996
 20
-147.7260389170615
 10
97.25125594356913
 20
-147.842483144463
 10
97.25125594356913
 20
-147.842483144463
 10
97.02698022747937
 20
-147.842483144463
 10
97.02698022747937
 20
-147.842483144463
 10
97.0355929661925
 20
-147.7153591210573
 10
97.04627276219676
 20
-147.6033935177867
 10
97.12654348700309
 20
-147.4848822330941
 10
97.23644203298257
 20
-147.3239962739329
 10
97.42282169873458
 20
-147.2902343381774
 10
97.5389214165875
 20
-147.2902343381774
 10
97.8162516031501
 20
-147.2902343381774
 10
98.02364635136215
 20
-147.4742024370898
 10
98.02364635136215
 20
-147.7470539995216
 10
98.02364635136215
 20
-147.9758083397422
 10
97.9072021239607
 20
-148.0750270897174
 10
97.5981770589338
 20
-148.3013698630983
 97
        0
 97
        0
 75
     2
 76
     1
 98
        0
  0
SPLINE
  5
B6
330
B0
100
AcDbEntity
  8
_U+30EC_U+30A4_U+30E4_U+30FC 1
370
     0
100
AcDbSpline
210
0.0
220
0.0
230
1.0
 70
    11
 71
     3
 72
    29
 73
    25
 74
     0
 42
0.0000000001
 43
0.0000000001
 12
1.0
 22
0.0
 32
0.0
 13
1.0
 23
0.0
 33
0.0
 40
0.0
 40
0.0
 40
0.0
 40
0.0
 40
1.0
 40
1.0
 40
1.0
 40
2.0
 40
2.0
 40
2.0
 40
3.0
 40
3.0
 40
3.0
 40
4.0
 40
4.0
 40
4.0
 40
5.0
 40
5.0
 40
5.0
 40
6.0
 40
6.0
 40
6.0
 40
7.0
 40
7.0
 40
7.0
 40
8.0
 40
8.0
 40
8.0
 40
8.0
 10
99.07991262713975
 20
-148.7054795635181
 30
0.0
 10
98.9717366289029
 20
-148.9149413690213
 30
0.0
 10
98.79844832599484
 20
-148.9338893941901
 30
0.0
 10
98.6820040985934
 20
-148.9338893941901
 30
0.0
 10
98.52111813943222
 20
-148.9338893941901
 30
0.0
 10
98.37952471498846
 20
-148.8873806051393
 30
0.0
 10
98.28444007959556
 20
-148.7054795635181
 30
0.0
 10
98.18074270548954
 20
-148.5108316686015
 30
0.0
 10
98.16179468032067
 20
-148.2741536087648
 30
0.0
 10
98.16179468032067
 20
-148.1112005923125
 30
0.0
 10
98.16179468032067
 20
-147.967195601029
 30
0.0
 10
98.17867564819839
 20
-147.7153591210573
 30
0.0
 10
98.28444007959556
 20
-147.5165771115584
 30
0.0
 10
98.39227156828387
 20
-147.3136609874771
 30
0.0
 10
98.55315752744505
 20
-147.2902343381774
 30
0.0
 10
98.6820040985934
 20
-147.2902343381774
 30
0.0
 10
98.84082300046342
 20
-147.2902343381774
 30
0.0
 10
98.98448348219833
 20
-147.3346760699372
 30
0.0
 10
99.07991262713975
 20
-147.5165771115584
 30
0.0
 10
99.17913137711494
 20
-147.7091579491838
 30
0.0
 10
99.20255802641465
 20
-147.9375677798559
 30
0.0
 10
99.20255802641465
 20
-148.1112005923125
 30
0.0
 10
99.20255802641465
 20
-148.2824218379294
 30
0.0
 10
99.1811984344061
 20
-148.5128987258926
 30
0.0
 10
99.07991262713975
 20
-148.7054795635181
 30
0.0
  0
SPLINE
  5
B7
330
B0
100
AcDbEntity
  8
_U+30EC_U+30A4_U+30E4_U+30FC 1
370
     0
100
AcDbSpline
210
0.0
220
0.0
230
1.0
 70
    11
 71
     3
 72
    17
 73
    13
 74
     0
 42
0.0000000001
 43
0.0000000001
 12
1.0
 22
0.0
 32
0.0
 13
1.0
 23
0.0
 33
0.0
 40
0.0
 40
0.0
 40
0.0
 40
0.0
 40
1.0
 40
1.0
 40
1.0
 40
2.0
 40
2.0
 40
2.0
 40
3.0
 40
3.0
 40
3.0
 40
4.0
 40
4.0
 40
4.0
 40
4.0
 10
98.6820040985934
 20
-147.4828151758029
 30
0.0
 10
98.43257918546131
 20
-147.4828151758029
 30
0.0
 10
98.3857258868619
 20
-147.766346534239
 30
0.0
 10
98.3857258868619
 20
-148.1112005923125
 30
0.0
 10
98.3857258868619
 20
-148.4305609437951
 30
0.0
 10
98.42189938945702
 20
-148.7392414992735
 30
0.0
 10
98.6820040985934
 20
-148.7392414992735
 30
0.0
 10
98.92970646398285
 20
-148.7392414992735
 30
0.0
 10
98.97828231032487
 20
-148.4581217076772
 30
0.0
 10
98.97828231032487
 20
-148.1112005923125
 30
0.0
 10
98.97828231032487
 20
-147.7914957312813
 30
0.0
 10
98.94004175043861
 20
-147.4828151758029
 30
0.0
 10
98.6820040985934
 20
-147.4828151758029
 30
0.0
  0
HATCH
  5
B8
330
B0
100
AcDbEntity
  8
_U+30EC_U+30A4_U+30E4_U+30FC 1
 62
   179
420
  2234388
100
AcDbHatch
 10
0.0
 20
0.0
 30
0.0
210
0.0
220
0.0
230
1.0
  2
SOLID
 70
     1
 71
     0
 91
        2
 92
        1
 93
        1
 72
     4
 94
        3
 73
     0
 74
     1
 95
       29
 96
       25
 40
0.0
 40
0.0
 40
0.0
 40
0.0
 40
1.0
 40
1.0
 40
1.0
 40
2.0
 40
2.0
 40
2.0
 40
3.0
 40
3.0
 40
3.0
 40
4.0
 40
4.0
 40
4.0
 40
5.0
 40
5.0
 40
5.0
 40
6.0
 40
6.0
 40
6.0
 40
7.0
 40
7.0
 40
7.0
 40
8.0
 40
8.0
 40
8.0
 40
8.0
 10
99.07991262713975
 20
-148.7054795635181
 10
98.9717366289029
 20
-148.9149413690213
 10
98.79844832599484
 20
-148.9338893941901
 10
98.6820040985934
 20
-148.9338893941901
 10
98.52111813943222
 20
-148.9338893941901
 10
98.37952471498846
 20
-148.8873806051393
 10
98.28444007959556
 20
-148.7054795635181
 10
98.18074270548954
 20
-148.5108316686015
 10
98.16179468032067
 20
-148.2741536087648
 10
98.16179468032067
 20
-148.1112005923125
 10
98.16179468032067
 20
-147.967195601029
 10
98.17867564819839
 20
-147.7153591210573
 10
98.28444007959556
 20
-147.5165771115584
 10
98.39227156828387
 20
-147.3136609874771
 10
98.55315752744505
 20
-147.2902343381774
 10
98.6820040985934
 20
-147.2902343381774
 10
98.84082300046342
 20
-147.2902343381774
 10
98.98448348219833
 20
-147.3346760699372
 10
99.07991262713975
 20
-147.5165771115584
 10
99.17913137711494
 20
-147.7091579491838
 10
99.20255802641465
 20
-147.9375677798559
 10
99.20255802641465
 20
-148.1112005923125
 10
99.20255802641465
 20
-148.2824218379294
 10
99.1811984344061
 20
-148.5128987258926
 10
99.07991262713975
 20
-148.7054795635181
 97
        0
 97
        0
 92
        1
 93
        1
 72
     4
 94
        3
 73
     0
 74
     1
 95
       17
 96
       13
 40
0.0
 40
0.0
 40
0.0
 40
0.0
 40
1.0
 40
1.0
 40
1.0
 40
2.0
 40
2.0
 40
2.0
 40
3.0
 40
3.0
 40
3.0
 40
4.0
 40
4.0
 40
4.0
 40
4.0
 10
98.6820040985934
 20
-147.4828151758029
 10
98.43257918546131
 20
-147.4828151758029
 10
98.3857258868619
 20
-147.766346534239
 10
98.3857258868619
 20
-148.1112005923125
 10
98.3857258868619
 20
-148.4305609437951
 10
98.42189938945702
 20
-148.7392414992735
 10
98.6820040985934
 20
-148.7392414992735
 10
98.92970646398285
 20
-148.7392414992735
 10
98.97828231032487
 20
-148.4581217076772
 10
98.97828231032487
 20
-148.1112005923125
 10
98.97828231032487
 20
-147.7914957312813
 10
98.94004175043861
 20
-147.4828151758029
 10
98.6820040985934
 20
-147.4828151758029
 97
        0
 97
        0
 75
     2
 76
     1
 98
        0
  0
ENDBLK
  5
B3
330
B0
100
AcDbEntity
  8
0
100
AcDbBlockEnd
  0
BLOCK
  5
C3
330
C1
100
AcDbEntity
  8
0
100
AcDbBlockBegin
  2
block 5
 70
     0
 10
0.0
 20
0.0
 30
0.0
  3
block 5
  1

  0
SPLINE
  5
C5
330
C1
100
AcDbEntity
  8
_U+30EC_U+30A4_U+30E4_U+30FC 1
370
     0
100
AcDbSpline
210
0.0
220
0.0
230
1.0
 70
    11
 71
     3
 72
    26
 73
    22
 74
     0
 42
0.0000000001
 43
0.0000000001
 12
1.0
 22
0.0
 32
0.0
 13
1.0
 23
0.0
 33
0.0
 40
0.0
 40
0.0
 40
0.0
 40
0.0
 40
1.0
 40
1.0
 40
1.0
 40
2.0
 40
2.0
 40
2.0
 40
3.0
 40
3.0
 40
3.0
 40
4.0
 40
4.0
 40
4.0
 40
5.0
 40
5.0
 40
5.0
 40
6.0
 40
6.0
 40
6.0
 40
7.0
 40
7.0
 40
7.0
 40
7.0
 10
111.6128254929301
 20
-141.0966416747953
 30
0.0
 10
111.6128254929301
 20
-141.0966416747953
 30
0.0
 10
110.5086723899076
 20
-141.0966416747953
 30
0.0
 10
110.5086723899076
 20
-141.0966416747953
 30
0.0
 10
110.5086723899076
 20
-141.0966416747953
 30
0.0
 10
110.5086723899076
 20
-141.4266818222822
 30
0.0
 10
110.5086723899076
 20
-141.4266818222822
 30
0.0
 10
110.5086723899076
 20
-141.4266818222822
 30
0.0
 10
110.3605332840418
 20
-141.4266818222822
 30
0.0
 10
110.3605332840418
 20
-141.4266818222822
 30
0.0
 10
110.3457193734552
 20
-141.0945746175042
 30
0.0
 10
110.1827663570029
 20
-141.0480658284533
 30
0.0
 10
110.0683891868926
 20
-141.0184380072801
 30
0.0
 10
110.0683891868926
 20
-141.0184380072801
 30
0.0
 10
110.0683891868926
 20
-140.8723659587055
 30
0.0
 10
110.0683891868926
 20
-140.8723659587055
 30
0.0
 10
110.0683891868926
 20
-140.8723659587055
 30
0.0
 10
111.6128254929301
 20
-140.8723659587055
 30
0.0
 10
111.6128254929301
 20
-140.8723659587055
 30
0.0
 10
111.6128254929301
 20
-140.8723659587055
 30
0.0
 10
111.6128254929301
 20
-141.0966416747953
 30
0.0
 10
111.6128254929301
 20
-141.0966416747953
 30
0.0
  0
HATCH
  5
C6
330
C1
100
AcDbEntity
  8
_U+30EC_U+30A4_U+30E4_U+30FC 1
 62
   179
420
  2234388
100
AcDbHatch
 10
0.0
 20
0.0
 30
0.0
210
0.0
220
0.0
230
1.0
  2
SOLID
 70
     1
 71
     0
 91
        1
 92
        1
 93
        1
 72
     4
 94
        3
 73
     0
 74
     1
 95
       26
 96
       22
 40
0.0
 40
0.0
 40
0.0
 40
0.0
 40
1.0
 40
1.0
 40
1.0
 40
2.0
 40
2.0
 40
2.0
 40
3.0
 40
3.0
 40
3.0
 40
4.0
 40
4.0
 40
4.0
 40
5.0
 40
5.0
 40
5.0
 40
6.0
 40
6.0
 40
6.0
 40
7.0
 40
7.0
 40
7.0
 40
7.0
 10
111.6128254929301
 20
-141.0966416747953
 10
111.6128254929301
 20
-141.0966416747953
 10
110.5086723899076
 20
-141.0966416747953
 10
110.5086723899076
 20
-141.0966416747953
 10
110.5086723899076
 20
-141.0966416747953
 10
110.5086723899076
 20
-141.4266818222822
 10
110.5086723899076
 20
-141.4266818222822
 10
110.5086723899076
 20
-141.4266818222822
 10
110.3605332840418
 20
-141.4266818222822
 10
110.3605332840418
 20
-141.4266818222822
 10
110.3457193734552
 20
-141.0945746175042
 10
110.1827663570029
 20
-141.0480658284533
 10
110.0683891868926
 20
-141.0184380072801
 10
110.0683891868926
 20
-141.0184380072801
 10
110.0683891868926
 20
-140.8723659587055
 10
110.0683891868926
 20
-140.8723659587055
 10
110.0683891868926
 20
-140.8723659587055
 10
111.6128254929301
 20
-140.8723659587055
 10
111.6128254929301
 20
-140.8723659587055
 10
111.6128254929301
 20
-140.8723659587055
 10
111.6128254929301
 20
-141.0966416747953
 10
111.6128254929301
 20
-141.0966416747953
 97
        0
 97
        0
 75
     2
 76
     1
 98
        0
  0
SPLINE
  5
C7
330
C1
100
AcDbEntity
  8
_U+30EC_U+30A4_U+30E4_U+30FC 1
370
     0
100
AcDbSpline
210
0.0
220
0.0
230
1.0
 70
    11
 71
     3
 72
    44
 73
    40
 74
     0
 42
0.0000000001
 43
0.0000000001
 12
1.0
 22
0.0
 32
0.0
 13
1.0
 23
0.0
 33
0.0
 40
0.0
 40
0.0
 40
0.0
 40
0.0
 40
1.0
 40
1.0
 40
1.0
 40
2.0
 40
2.0
 40
2.0
 40
3.0
 40
3.0
 40
3.0
 40
4.0
 40
4.0
 40
4.0
 40
5.0
 40
5.0
 40
5.0
 40
6.0
 40
6.0
 40
6.0
 40
7.0
 40
7.0
 40
7.0
 40
8.0
 40
8.0
 40
8.0
 40
9.0
 40
9.0
 40
9.0
 40
10.0
 40
10.0
 40
10.0
 40
11.0
 40
11.0
 40
11.0
 40
12.0
 40
12.0
 40
12.0
 40
13.0
 40
13.0
 40
13.0
 40
13.0
 10
111.0309488654714
 20
-139.7782036325902
 30
0.0
 10
111.1897677673415
 20
-139.995933667258
 30
0.0
 10
111.2638373202743
 20
-140.0889512453597
 30
0.0
 10
111.4074978020092
 20
-140.1378716012503
 30
0.0
 10
111.4074978020092
 20
-140.1378716012503
 30
0.0
 10
111.4074978020092
 20
-139.3592800215838
 30
0.0
 10
111.4074978020092
 20
-139.3592800215838
 30
0.0
 10
111.4074978020092
 20
-139.3592800215838
 30
0.0
 10
111.6128254929301
 20
-139.3592800215838
 30
0.0
 10
111.6128254929301
 20
-139.3592800215838
 30
0.0
 10
111.6128254929301
 20
-139.3592800215838
 30
0.0
 10
111.6128254929301
 20
-140.3872965143823
 30
0.0
 10
111.6128254929301
 20
-140.3872965143823
 30
0.0
 10
111.2552245815612
 20
-140.355601635918
 30
0.0
 10
111.177020914046
 20
-140.2901448216983
 30
0.0
 10
110.8786756450234
 20
-139.9049831464474
 30
0.0
 10
110.6798936355245
 20
-139.6490125518933
 30
0.0
 10
110.6120252544651
 20
-139.5835557376735
 30
0.0
 10
110.4745659446036
 20
-139.5835557376735
 30
0.0
 10
110.356054659911
 20
-139.5835557376735
 30
0.0
 10
110.2251410314715
 20
-139.6555582333153
 30
0.0
 10
110.2251410314715
 20
-139.852273185523
 30
0.0
 10
110.2251410314715
 20
-140.1123778946594
 30
0.0
 10
110.4556179194347
 20
-140.1209906333725
 30
0.0
 10
110.5720621468362
 20
-140.1251247479548
 30
0.0
 10
110.5720621468362
 20
-140.1251247479548
 30
0.0
 10
110.5720621468362
 20
-140.3494004640446
 30
0.0
 10
110.5720621468362
 20
-140.3494004640446
 30
0.0
 10
110.4449381234304
 20
-140.3407877253315
 30
0.0
 10
110.3329725201598
 20
-140.3301079293272
 30
0.0
 10
110.2144612354672
 20
-140.2498372045209
 30
0.0
 10
110.053575276306
 20
-140.1399386585414
 30
0.0
 10
110.0198133405506
 20
-139.9535589927894
 30
0.0
 10
110.0198133405506
 20
-139.8374592749365
 30
0.0
 10
110.0198133405506
 20
-139.5601290883739
 30
0.0
 10
110.2037814394629
 20
-139.3527343401618
 30
0.0
 10
110.4766330018947
 20
-139.3527343401618
 30
0.0
 10
110.7053873421153
 20
-139.3527343401618
 30
0.0
 10
110.8046060920905
 20
-139.4691785675633
 30
0.0
 10
111.0309488654714
 20
-139.7782036325902
 30
0.0
  0
HATCH
  5
C8
330
C1
100
AcDbEntity
  8
_U+30EC_U+30A4_U+30E4_U+30FC 1
 62
   179
420
  2234388
100
AcDbHatch
 10
0.0
 20
0.0
 30
0.0
210
0.0
220
0.0
230
1.0
  2
SOLID
 70
     1
 71
     0
 91
        1
 92
        1
 93
        1
 72
     4
 94
        3
 73
     0
 74
     1
 95
       44
 96
       40
 40
0.0
 40
0.0
 40
0.0
 40
0.0
 40
1.0
 40
1.0
 40
1.0
 40
2.0
 40
2.0
 40
2.0
 40
3.0
 40
3.0
 40
3.0
 40
4.0
 40
4.0
 40
4.0
 40
5.0
 40
5.0
 40
5.0
 40
6.0
 40
6.0
 40
6.0
 40
7.0
 40
7.0
 40
7.0
 40
8.0
 40
8.0
 40
8.0
 40
9.0
 40
9.0
 40
9.0
 40
10.0
 40
10.0
 40
10.0
 40
11.0
 40
11.0
 40
11.0
 40
12.0
 40
12.0
 40
12.0
 40
13.0
 40
13.0
 40
13.0
 40
13.0
 10
111.0309488654714
 20
-139.7782036325902
 10
111.1897677673415
 20
-139.995933667258
 10
111.2638373202743
 20
-140.0889512453597
 10
111.4074978020092
 20
-140.1378716012503
 10
111.4074978020092
 20
-140.1378716012503
 10
111.4074978020092
 20
-139.3592800215838
 10
111.4074978020092
 20
-139.3592800215838
 10
111.4074978020092
 20
-139.3592800215838
 10
111.6128254929301
 20
-139.3592800215838
 10
111.6128254929301
 20
-139.3592800215838
 10
111.6128254929301
 20
-139.3592800215838
 10
111.6128254929301
 20
-140.3872965143823
 10
111.6128254929301
 20
-140.3872965143823
 10
111.2552245815612
 20
-140.355601635918
 10
111.177020914046
 20
-140.2901448216983
 10
110.8786756450234
 20
-139.9049831464474
 10
110.6798936355245
 20
-139.6490125518933
 10
110.6120252544651
 20
-139.5835557376735
 10
110.4745659446036
 20
-139.5835557376735
 10
110.356054659911
 20
-139.5835557376735
 10
110.2251410314715
 20
-139.6555582333153
 10
110.2251410314715
 20
-139.852273185523
 10
110.2251410314715
 20
-140.1123778946594
 10
110.4556179194347
 20
-140.1209906333725
 10
110.5720621468362
 20
-140.1251247479548
 10
110.5720621468362
 20
-140.1251247479548
 10
110.5720621468362
 20
-140.3494004640446
 10
110.5720621468362
 20
-140.3494004640446
 10
110.4449381234304
 20
-140.3407877253315
 10
110.3329725201598
 20
-140.3301079293272
 10
110.2144612354672
 20
-140.2498372045209
 10
110.053575276306
 20
-140.1399386585414
 10
110.0198133405506
 20
-139.9535589927894
 10
110.0198133405506
 20
-139.8374592749365
 10
110.0198133405506
 20
-139.5601290883739
 10
110.2037814394629
 20
-139.3527343401618
 10
110.4766330018947
 20
-139.3527343401618
 10
110.7053873421153
 20
-139.3527343401618
 10
110.8046060920905
 20
-139.4691785675633
 10
111.0309488654714
 20
-139.7782036325902
 97
        0
 97
        0
 75
     2
 76
     1
 98
        0
  0
POLYLINE
  5
C9
330
C1
100
AcDbEntity
  8
_U+30EC_U+30A4_U+30E4_U+30FC 1
370
     0
100
AcDb2dPolyline
 66
     1
 10
0.0
 20
0.0
 30
0.0
  0
VERTEX
  5
CA
330
C9
100
AcDbEntity
  8
_U+30EC_U+30A4_U+30E4_U+30FC 1
370
     0
100
AcDbVertex
100
AcDb2dVertex
 10
111.6128254929301
 20
-139.134315286397
 30
0.0
  0
VERTEX
  5
CB
330
C9
100
AcDbEntity
  8
_U+30EC_U+30A4_U+30E4_U+30FC 1
370
     0
100
AcDbVertex
100
AcDb2dVertex
 10
111.3609890129584
 20
-139.134315286397
 30
0.0
  0
VERTEX
  5
CC
330
C9
100
AcDbEntity
  8
_U+30EC_U+30A4_U+30E4_U+30FC 1
370
     0
100
AcDbVertex
100
AcDb2dVertex
 10
111.3609890129584
 20
-138.8824788064252
 30
0.0
  0
VERTEX
  5
CD
330
C9
100
AcDbEntity
  8
_U+30EC_U+30A4_U+30E4_U+30FC 1
370
     0
100
AcDbVertex
100
AcDb2dVertex
 10
111.6128254929301
 20
-138.8824788064252
 30
0.0
  0
VERTEX
  5
CE
330
C9
100
AcDbEntity
  8
_U+30EC_U+30A4_U+30E4_U+30FC 1
370
     0
100
AcDbVertex
100
AcDb2dVertex
 10
111.6128254929301
 20
-139.134315286397
 30
0.0
  0
SEQEND
  5
CF
330
C9
100
AcDbEntity
  8
_U+30EC_U+30A4_U+30E4_U+30FC 1
370
     0
  0
HATCH
  5
D0
330
C1
100
AcDbEntity
  8
_U+30EC_U+30A4_U+30E4_U+30FC 1
 62
   179
420
  2234388
100
AcDbHatch
 10
0.0
 20
0.0
 30
0.0
210
0.0
220
0.0
230
1.0
  2
SOLID
 70
     1
 71
     0
 91
        1
 92
        1
 93
        4
 72
     1
 10
111.6128254929301
 20
-139.134315286397
 11
111.3609890129584
 21
-139.134315286397
 72
     1
 10
111.3609890129584
 20
-139.134315286397
 11
111.3609890129584
 21
-138.8824788064252
 72
     1
 10
111.3609890129584
 20
-138.8824788064252
 11
111.6128254929301
 21
-138.8824788064252
 72
     1
 10
111.6128254929301
 20
-138.8824788064252
 11
111.6128254929301
 21
-139.134315286397
 97
        0
 75
     2
 76
     1
 98
        0
  0
SPLINE
  5
D1
330
C1
100
AcDbEntity
  8
_U+30EC_U+30A4_U+30E4_U+30FC 1
370
     0
100
AcDbSpline
210
0.0
220
0.0
230
1.0
 70
    11
 71
     3
 72
    53
 73
    49
 74
     0
 42
0.0000000001
 43
0.0000000001
 12
1.0
 22
0.0
 32
0.0
 13
1.0
 23
0.0
 33
0.0
 40
0.0
 40
0.0
 40
0.0
 40
0.0
 40
1.0
 40
1.0
 40
1.0
 40
2.0
 40
2.0
 40
2.0
 40
3.0
 40
3.0
 40
3.0
 40
4.0
 40
4.0
 40
4.0
 40
5.0
 40
5.0
 40
5.0
 40
6.0
 40
6.0
 40
6.0
 40
7.0
 40
7.0
 40
7.0
 40
8.0
 40
8.0
 40
8.0
 40
9.0
 40
9.0
 40
9.0
 40
10.0
 40
10.0
 40
10.0
 40
11.0
 40
11.0
 40
11.0
 40
12.0
 40
12.0
 40
12.0
 40
13.0
 40
13.0
 40
13.0
 40
14.0
 40
14.0
 40
14.0
 40
15.0
 40
15.0
 40
15.0
 40
16.0
 40
16.0
 40
16.0
 40
16.0
 10
111.6634683965633
 20
-138.1652099263962
 30
0.0
 10
111.6634683965633
 20
-138.2434135939114
 30
0.0
 10
111.6465874286856
 20
-138.3450439107262
 30
0.0
 10
111.583197671757
 20
-138.4466742275411
 30
0.0
 10
111.4732991257775
 20
-138.6199625304492
 30
0.0
 10
111.3420409877895
 20
-138.6413221224577
 30
0.0
 10
111.2342094991012
 20
-138.6602701476266
 30
0.0
 10
111.2342094991012
 20
-138.6602701476266
 30
0.0
 10
111.2342094991012
 20
-138.438061488828
 30
0.0
 10
111.2342094991012
 20
-138.438061488828
 30
0.0
 10
111.4329915086001
 20
-138.3832844706125
 30
0.0
 10
111.4626193297732
 20
-138.2561604472068
 30
0.0
 10
111.4626193297732
 20
-138.1631428691051
 30
0.0
 10
111.4626193297732
 20
-138.0236165019524
 30
0.0
 10
111.3630560702495
 20
-137.8713432815044
 30
0.0
 10
111.1305121249951
 20
-137.8713432815044
 30
0.0
 10
110.8745415304411
 20
-137.8713432815044
 30
0.0
 10
110.8046060920905
 20
-138.0511772658344
 30
0.0
 10
110.8046060920905
 20
-138.1717556078182
 30
0.0
 10
110.8046060920905
 20
-138.2034504862825
 30
0.0
 10
110.8046060920905
 20
-138.3450439107262
 30
0.0
 10
110.9337971727874
 20
-138.4339273742457
 30
0.0
 10
110.9337971727874
 20
-138.4339273742457
 30
0.0
 10
110.9148491476185
 20
-138.6096272439934
 30
0.0
 10
110.9148491476185
 20
-138.6096272439934
 30
0.0
 10
110.9148491476185
 20
-138.6096272439934
 30
0.0
 10
110.0683891868926
 20
-138.4890489020097
 30
0.0
 10
110.0683891868926
 20
-138.4890489020097
 30
0.0
 10
110.0683891868926
 20
-138.4890489020097
 30
0.0
 10
110.0683891868926
 20
-137.7104573223432
 30
0.0
 10
110.0683891868926
 20
-137.7104573223432
 30
0.0
 10
110.0683891868926
 20
-137.7104573223432
 30
0.0
 10
110.2630370818092
 20
-137.7104573223432
 30
0.0
 10
110.2630370818092
 20
-137.7104573223432
 30
0.0
 10
110.2630370818092
 20
-137.7104573223432
 30
0.0
 10
110.2630370818092
 20
-138.3260958855574
 30
0.0
 10
110.2630370818092
 20
-138.3260958855574
 30
0.0
 10
110.2630370818092
 20
-138.3260958855574
 30
0.0
 10
110.6860948073979
 20
-138.3915526997771
 30
0.0
 10
110.6860948073979
 20
-138.3915526997771
 30
0.0
 10
110.6523328716425
 20
-138.3302300001397
 30
0.0
 10
110.6120252544651
 20
-138.2478922180422
 30
0.0
 10
110.6120252544651
 20
-138.1293809333496
 30
0.0
 10
110.6120252544651
 20
-137.8754773960867
 30
0.0
 10
110.7984049202171
 20
-137.6384548267015
 30
0.0
 10
111.1115640998263
 20
-137.6384548267015
 30
0.0
 10
111.4288573940178
 20
-137.6384548267015
 30
0.0
 10
111.6634683965633
 20
-137.8627305427913
 30
0.0
 10
111.6634683965633
 20
-138.1652099263962
 30
0.0
  0
HATCH
  5
D2
330
C1
100
AcDbEntity
  8
_U+30EC_U+30A4_U+30E4_U+30FC 1
 62
   179
420
  2234388
100
AcDbHatch
 10
0.0
 20
0.0
 30
0.0
210
0.0
220
0.0
230
1.0
  2
SOLID
 70
     1
 71
     0
 91
        1
 92
        1
 93
        1
 72
     4
 94
        3
 73
     0
 74
     1
 95
       53
 96
       49
 40
0.0
 40
0.0
 40
0.0
 40
0.0
 40
1.0
 40
1.0
 40
1.0
 40
2.0
 40
2.0
 40
2.0
 40
3.0
 40
3.0
 40
3.0
 40
4.0
 40
4.0
 40
4.0
 40
5.0
 40
5.0
 40
5.0
 40
6.0
 40
6.0
 40
6.0
 40
7.0
 40
7.0
 40
7.0
 40
8.0
 40
8.0
 40
8.0
 40
9.0
 40
9.0
 40
9.0
 40
10.0
 40
10.0
 40
10.0
 40
11.0
 40
11.0
 40
11.0
 40
12.0
 40
12.0
 40
12.0
 40
13.0
 40
13.0
 40
13.0
 40
14.0
 40
14.0
 40
14.0
 40
15.0
 40
15.0
 40
15.0
 40
16.0
 40
16.0
 40
16.0
 40
16.0
 10
111.6634683965633
 20
-138.1652099263962
 10
111.6634683965633
 20
-138.2434135939114
 10
111.6465874286856
 20
-138.3450439107262
 10
111.583197671757
 20
-138.4466742275411
 10
111.4732991257775
 20
-138.6199625304492
 10
111.3420409877895
 20
-138.6413221224577
 10
111.2342094991012
 20
-138.6602701476266
 10
111.2342094991012
 20
-138.6602701476266
 10
111.2342094991012
 20
-138.438061488828
 10
111.2342094991012
 20
-138.438061488828
 10
111.4329915086001
 20
-138.3832844706125
 10
111.4626193297732
 20
-138.2561604472068
 10
111.4626193297732
 20
-138.1631428691051
 10
111.4626193297732
 20
-138.0236165019524
 10
111.3630560702495
 20
-137.8713432815044
 10
111.1305121249951
 20
-137.8713432815044
 10
110.8745415304411
 20
-137.8713432815044
 10
110.8046060920905
 20
-138.0511772658344
 10
110.8046060920905
 20
-138.1717556078182
 10
110.8046060920905
 20
-138.2034504862825
 10
110.8046060920905
 20
-138.3450439107262
 10
110.9337971727874
 20
-138.4339273742457
 10
110.9337971727874
 20
-138.4339273742457
 10
110.9148491476185
 20
-138.6096272439934
 10
110.9148491476185
 20
-138.6096272439934
 10
110.9148491476185
 20
-138.6096272439934
 10
110.0683891868926
 20
-138.4890489020097
 10
110.0683891868926
 20
-138.4890489020097
 10
110.0683891868926
 20
-138.4890489020097
 10
110.0683891868926
 20
-137.7104573223432
 10
110.0683891868926
 20
-137.7104573223432
 10
110.0683891868926
 20
-137.7104573223432
 10
110.2630370818092
 20
-137.7104573223432
 10
110.2630370818092
 20
-137.7104573223432
 10
110.2630370818092
 20
-137.7104573223432
 10
110.2630370818092
 20
-138.3260958855574
 10
110.2630370818092
 20
-138.3260958855574
 10
110.2630370818092
 20
-138.3260958855574
 10
110.6860948073979
 20
-138.3915526997771
 10
110.6860948073979
 20
-138.3915526997771
 10
110.6523328716425
 20
-138.3302300001397
 10
110.6120252544651
 20
-138.2478922180422
 10
110.6120252544651
 20
-138.1293809333496
 10
110.6120252544651
 20
-137.8754773960867
 10
110.7984049202171
 20
-137.6384548267015
 10
111.1115640998263
 20
-137.6384548267015
 10
111.4288573940178
 20
-137.6384548267015
 10
111.6634683965633
 20
-137.8627305427913
 10
111.6634683965633
 20
-138.1652099263962
 97
        0
 97
        0
 75
     2
 76
     1
 98
        0
  0
ENDBLK
  5
C4
330
C1
100
AcDbEntity
  8
0
100
AcDbBlockEnd
  0
BLOCK
  5
DD
330
DB
100
AcDbEntity
  8
0
100
AcDbBlockBegin
  2
block 6
 70
     0
 10
0.0
 20
0.0
 30
0.0
  3
block 6
  1

  0
SPLINE
  5
DF
330
DB
100
AcDbEntity
  8
_U+30EC_U+30A4_U+30E4_U+30FC 1
370
     0
100
AcDbSpline
210
0.0
220
0.0
230
1.0
 70
    11
 71
     3
 72
    26
 73
    22
 74
     0
 42
0.0000000001
 43
0.0000000001
 12
1.0
 22
0.0
 32
0.0
 13
1.0
 23
0.0
 33
0.0
 40
0.0
 40
0.0
 40
0.0
 40
0.0
 40
1.0
 40
1.0
 40
1.0
 40
2.0
 40
2.0
 40
2.0
 40
3.0
 40
3.0
 40
3.0
 40
4.0
 40
4.0
 40
4.0
 40
5.0
 40
5.0
 40
5.0
 40
6.0
 40
6.0
 40
6.0
 40
7.0
 40
7.0
 40
7.0
 40
7.0
 10
72.84396021399388
 20
-119.4128661810843
 30
0.0
 10
72.84396021399388
 20
-119.4128661810843
 30
0.0
 10
72.84396021399388
 20
-118.3085408232875
 30
0.0
 10
72.84396021399388
 20
-118.3085408232875
 30
0.0
 10
72.84396021399388
 20
-118.3085408232875
 30
0.0
 10
72.51392006650694
 20
-118.3085408232875
 30
0.0
 10
72.51392006650694
 20
-118.3085408232875
 30
0.0
 10
72.51392006650694
 20
-118.3085408232875
 30
0.0
 10
72.51392006650694
 20
-118.160573972196
 30
0.0
 10
72.51392006650694
 20
-118.160573972196
 30
0.0
 10
72.84602727128502
 20
-118.1457600616094
 30
0.0
 10
72.8925360603359
 20
-117.9828070451571
 30
0.0
 10
72.92216388150905
 20
-117.8686021298211
 30
0.0
 10
72.92216388150905
 20
-117.8686021298211
 30
0.0
 10
73.06823593008365
 20
-117.8686021298211
 30
0.0
 10
73.06823593008365
 20
-117.8686021298211
 30
0.0
 10
73.06823593008365
 20
-117.8686021298211
 30
0.0
 10
73.06823593008365
 20
-119.4128661810843
 30
0.0
 10
73.06823593008365
 20
-119.4128661810843
 30
0.0
 10
73.06823593008365
 20
-119.4128661810843
 30
0.0
 10
72.84396021399388
 20
-119.4128661810843
 30
0.0
 10
72.84396021399388
 20
-119.4128661810843
 30
0.0
  0
HATCH
  5
E0
330
DB
100
AcDbEntity
  8
_U+30EC_U+30A4_U+30E4_U+30FC 1
 62
   179
420
  2234388
100
AcDbHatch
 10
0.0
 20
0.0
 30
0.0
210
0.0
220
0.0
230
1.0
  2
SOLID
 70
     1
 71
     0
 91
        1
 92
        1
 93
        1
 72
     4
 94
        3
 73
     0
 74
     1
 95
       26
 96
       22
 40
0.0
 40
0.0
 40
0.0
 40
0.0
 40
1.0
 40
1.0
 40
1.0
 40
2.0
 40
2.0
 40
2.0
 40
3.0
 40
3.0
 40
3.0
 40
4.0
 40
4.0
 40
4.0
 40
5.0
 40
5.0
 40
5.0
 40
6.0
 40
6.0
 40
6.0
 40
7.0
 40
7.0
 40
7.0
 40
7.0
 10
72.84396021399388
 20
-119.4128661810843
 10
72.84396021399388
 20
-119.4128661810843
 10
72.84396021399388
 20
-118.3085408232875
 10
72.84396021399388
 20
-118.3085408232875
 10
72.84396021399388
 20
-118.3085408232875
 10
72.51392006650694
 20
-118.3085408232875
 10
72.51392006650694
 20
-118.3085408232875
 10
72.51392006650694
 20
-118.3085408232875
 10
72.51392006650694
 20
-118.160573972196
 10
72.51392006650694
 20
-118.160573972196
 10
72.84602727128502
 20
-118.1457600616094
 10
72.8925360603359
 20
-117.9828070451571
 10
72.92216388150905
 20
-117.8686021298211
 10
72.92216388150905
 20
-117.8686021298211
 10
73.06823593008365
 20
-117.8686021298211
 10
73.06823593008365
 20
-117.8686021298211
 10
73.06823593008365
 20
-117.8686021298211
 10
73.06823593008365
 20
-119.4128661810843
 10
73.06823593008365
 20
-119.4128661810843
 10
73.06823593008365
 20
-119.4128661810843
 10
72.84396021399388
 20
-119.4128661810843
 10
72.84396021399388
 20
-119.4128661810843
 97
        0
 97
        0
 75
     2
 76
     1
 98
        0
  0
SPLINE
  5
E1
330
DB
100
AcDbEntity
  8
_U+30EC_U+30A4_U+30E4_U+30FC 1
370
     0
100
AcDbSpline
210
0.0
220
0.0
230
1.0
 70
    11
 71
     3
 72
    44
 73
    40
 74
     0
 42
0.0000000001
 43
0.0000000001
 12
1.0
 22
0.0
 32
0.0
 13
1.0
 23
0.0
 33
0.0
 40
0.0
 40
0.0
 40
0.0
 40
0.0
 40
1.0
 40
1.0
 40
1.0
 40
2.0
 40
2.0
 40
2.0
 40
3.0
 40
3.0
 40
3.0
 40
4.0
 40
4.0
 40
4.0
 40
5.0
 40
5.0
 40
5.0
 40
6.0
 40
6.0
 40
6.0
 40
7.0
 40
7.0
 40
7.0
 40
8.0
 40
8.0
 40
8.0
 40
9.0
 40
9.0
 40
9.0
 40
10.0
 40
10.0
 40
10.0
 40
11.0
 40
11.0
 40
11.0
 40
12.0
 40
12.0
 40
12.0
 40
13.0
 40
13.0
 40
13.0
 40
13.0
 10
74.16257051097325
 20
-118.8311618083999
 30
0.0
 10
73.9446682215312
 20
-118.9898084554956
 30
0.0
 10
73.8514783886552
 20
-119.0638780084285
 30
0.0
 10
73.80290254231316
 20
-119.2077107449377
 30
0.0
 10
73.80290254231316
 20
-119.2077107449377
 30
0.0
 10
74.58132186720536
 20
-119.2077107449377
 30
0.0
 10
74.58132186720536
 20
-119.2077107449377
 30
0.0
 10
74.58132186720536
 20
-119.2077107449377
 30
0.0
 10
74.58132186720536
 20
-119.4128661810843
 30
0.0
 10
74.58132186720536
 20
-119.4128661810843
 30
0.0
 10
74.58132186720536
 20
-119.4128661810843
 30
0.0
 10
73.55330537440682
 20
-119.4128661810843
 30
0.0
 10
73.55330537440682
 20
-119.4128661810843
 30
0.0
 10
73.58500025287111
 20
-119.0552652697153
 30
0.0
 10
73.65062932186513
 20
-118.9770616022002
 30
0.0
 10
74.0356187423418
 20
-118.6787163331775
 30
0.0
 10
74.29158933689585
 20
-118.4799343236786
 30
0.0
 10
74.3570461511156
 20
-118.4122381973935
 30
0.0
 10
74.3570461511156
 20
-118.274778887532
 30
0.0
 10
74.3570461511156
 20
-118.1562676028394
 30
0.0
 10
74.28521591024814
 20
-118.0251817196256
 30
0.0
 10
74.08850095804038
 20
-118.0251817196256
 30
0.0
 10
73.82822399412976
 20
-118.0251817196256
 30
0.0
 10
73.81978351019089
 20
-118.2556586075889
 30
0.0
 10
73.81547714083433
 20
-118.3721028349903
 30
0.0
 10
73.81547714083433
 20
-118.3721028349903
 30
0.0
 10
73.59137367951882
 20
-118.3721028349903
 30
0.0
 10
73.59137367951882
 20
-118.3721028349903
 30
0.0
 10
73.5998141634577
 20
-118.2451510663589
 30
0.0
 10
73.6103217046877
 20
-118.133013208314
 30
0.0
 10
73.69076468426829
 20
-118.0145019236214
 30
0.0
 10
73.80066323024775
 20
-117.8537882192345
 30
0.0
 10
73.98687064122551
 20
-117.8198540287048
 30
0.0
 10
74.10331486862695
 20
-117.8198540287048
 30
0.0
 10
74.3804728004153
 20
-117.8198540287048
 30
0.0
 10
74.58769529385307
 20
-118.0039943823914
 30
0.0
 10
74.58769529385307
 20
-118.2768459448232
 30
0.0
 10
74.58769529385307
 20
-118.5052557754952
 30
0.0
 10
74.4714233212259
 20
-118.6048190350189
 30
0.0
 10
74.16257051097325
 20
-118.8311618083999
 30
0.0
  0
HATCH
  5
E2
330
DB
100
AcDbEntity
  8
_U+30EC_U+30A4_U+30E4_U+30FC 1
 62
   179
420
  2234388
100
AcDbHatch
 10
0.0
 20
0.0
 30
0.0
210
0.0
220
0.0
230
1.0
  2
SOLID
 70
     1
 71
     0
 91
        1
 92
        1
 93
        1
 72
     4
 94
        3
 73
     0
 74
     1
 95
       44
 96
       40
 40
0.0
 40
0.0
 40
0.0
 40
0.0
 40
1.0
 40
1.0
 40
1.0
 40
2.0
 40
2.0
 40
2.0
 40
3.0
 40
3.0
 40
3.0
 40
4.0
 40
4.0
 40
4.0
 40
5.0
 40
5.0
 40
5.0
 40
6.0
 40
6.0
 40
6.0
 40
7.0
 40
7.0
 40
7.0
 40
8.0
 40
8.0
 40
8.0
 40
9.0
 40
9.0
 40
9.0
 40
10.0
 40
10.0
 40
10.0
 40
11.0
 40
11.0
 40
11.0
 40
12.0
 40
12.0
 40
12.0
 40
13.0
 40
13.0
 40
13.0
 40
13.0
 10
74.16257051097325
 20
-118.8311618083999
 10
73.9446682215312
 20
-118.9898084554956
 10
73.8514783886552
 20
-119.0638780084285
 10
73.80290254231316
 20
-119.2077107449377
 10
73.80290254231316
 20
-119.2077107449377
 10
74.58132186720536
 20
-119.2077107449377
 10
74.58132186720536
 20
-119.2077107449377
 10
74.58132186720536
 20
-119.2077107449377
 10
74.58132186720536
 20
-119.4128661810843
 10
74.58132186720536
 20
-119.4128661810843
 10
74.58132186720536
 20
-119.4128661810843
 10
73.55330537440682
 20
-119.4128661810843
 10
73.55330537440682
 20
-119.4128661810843
 10
73.58500025287111
 20
-119.0552652697153
 10
73.65062932186513
 20
-118.9770616022002
 10
74.0356187423418
 20
-118.6787163331775
 10
74.29158933689585
 20
-118.4799343236786
 10
74.3570461511156
 20
-118.4122381973935
 10
74.3570461511156
 20
-118.274778887532
 10
74.3570461511156
 20
-118.1562676028394
 10
74.28521591024814
 20
-118.0251817196256
 10
74.08850095804038
 20
-118.0251817196256
 10
73.82822399412976
 20
-118.0251817196256
 10
73.81978351019089
 20
-118.2556586075889
 10
73.81547714083433
 20
-118.3721028349903
 10
73.81547714083433
 20
-118.3721028349903
 10
73.59137367951882
 20
-118.3721028349903
 10
73.59137367951882
 20
-118.3721028349903
 10
73.5998141634577
 20
-118.2451510663589
 10
73.6103217046877
 20
-118.133013208314
 10
73.69076468426829
 20
-118.0145019236214
 10
73.80066323024775
 20
-117.8537882192345
 10
73.98687064122551
 20
-117.8198540287048
 10
74.10331486862695
 20
-117.8198540287048
 10
74.3804728004153
 20
-117.8198540287048
 10
74.58769529385307
 20
-118.0039943823914
 10
74.58769529385307
 20
-118.2768459448232
 10
74.58769529385307
 20
-118.5052557754952
 10
74.4714233212259
 20
-118.6048190350189
 10
74.16257051097325
 20
-118.8311618083999
 97
        0
 97
        0
 75
     2
 76
     1
 98
        0
  0
POLYLINE
  5
E3
330
DB
100
AcDbEntity
  8
_U+30EC_U+30A4_U+30E4_U+30FC 1
370
     0
100
AcDb2dPolyline
 66
     1
 10
0.0
 20
0.0
 30
0.0
  0
VERTEX
  5
E4
330
E3
100
AcDbEntity
  8
_U+30EC_U+30A4_U+30E4_U+30FC 1
370
     0
100
AcDbVertex
100
AcDb2dVertex
 10
74.80628660239218
 20
-119.4128661810843
 30
0.0
  0
VERTEX
  5
E5
330
E3
100
AcDbEntity
  8
_U+30EC_U+30A4_U+30E4_U+30FC 1
370
     0
100
AcDbVertex
100
AcDb2dVertex
 10
74.80628660239218
 20
-119.1612019558868
 30
0.0
  0
VERTEX
  5
E6
330
E3
100
AcDbEntity
  8
_U+30EC_U+30A4_U+30E4_U+30FC 1
370
     0
100
AcDbVertex
100
AcDb2dVertex
 10
75.05795082758968
 20
-119.1612019558868
 30
0.0
  0
VERTEX
  5
E7
330
E3
100
AcDbEntity
  8
_U+30EC_U+30A4_U+30E4_U+30FC 1
370
     0
100
AcDbVertex
100
AcDb2dVertex
 10
75.05795082758968
 20
-119.4128661810843
 30
0.0
  0
VERTEX
  5
E8
330
E3
100
AcDbEntity
  8
_U+30EC_U+30A4_U+30E4_U+30FC 1
370
     0
100
AcDbVertex
100
AcDb2dVertex
 10
74.80628660239218
 20
-119.4128661810843
 30
0.0
  0
SEQEND
  5
E9
330
E3
100
AcDbEntity
  8
_U+30EC_U+30A4_U+30E4_U+30FC 1
370
     0
  0
HATCH
  5
EA
330
DB
100
AcDbEntity
  8
_U+30EC_U+30A4_U+30E4_U+30FC 1
 62
   179
420
  2234388
100
AcDbHatch
 10
0.0
 20
0.0
 30
0.0
210
0.0
220
0.0
230
1.0
  2
SOLID
 70
     1
 71
     0
 91
        1
 92
        1
 93
        4
 72
     1
 10
74.80628660239218
 20
-119.4128661810843
 11
74.80628660239218
 21
-119.1612019558868
 72
     1
 10
74.80628660239218
 20
-119.1612019558868
 11
75.05795082758968
 21
-119.1612019558868
 72
     1
 10
75.05795082758968
 20
-119.1612019558868
 11
75.05795082758968
 21
-119.4128661810843
 72
     1
 10
75.05795082758968
 20
-119.4128661810843
 11
74.80628660239218
 21
-119.4128661810843
 97
        0
 75
     2
 76
     1
 98
        0
  0
SPLINE
  5
EB
330
DB
100
AcDbEntity
  8
_U+30EC_U+30A4_U+30E4_U+30FC 1
370
     0
100
AcDbSpline
210
0.0
220
0.0
230
1.0
 70
    11
 71
     3
 72
    53
 73
    49
 74
     0
 42
0.0000000001
 43
0.0000000001
 12
1.0
 22
0.0
 32
0.0
 13
1.0
 23
0.0
 33
0.0
 40
0.0
 40
0.0
 40
0.0
 40
0.0
 40
1.0
 40
1.0
 40
1.0
 40
2.0
 40
2.0
 40
2.0
 40
3.0
 40
3.0
 40
3.0
 40
4.0
 40
4.0
 40
4.0
 40
5.0
 40
5.0
 40
5.0
 40
6.0
 40
6.0
 40
6.0
 40
7.0
 40
7.0
 40
7.0
 40
8.0
 40
8.0
 40
8.0
 40
9.0
 40
9.0
 40
9.0
 40
10.0
 40
10.0
 40
10.0
 40
11.0
 40
11.0
 40
11.0
 40
12.0
 40
12.0
 40
12.0
 40
13.0
 40
13.0
 40
13.0
 40
14.0
 40
14.0
 40
14.0
 40
15.0
 40
15.0
 40
15.0
 40
16.0
 40
16.0
 40
16.0
 40
16.0
 10
75.77539196239296
 20
-119.4636813394917
 30
0.0
 10
75.69701604010352
 20
-119.4636813394917
 30
0.0
 10
75.59555797806291
 20
-119.4466281168397
 30
0.0
 10
75.49392766124805
 20
-119.3832383599111
 30
0.0
 10
75.32046710356572
 20
-119.2731675591574
 30
0.0
 10
75.29927976633144
 20
-119.1420816759437
 30
0.0
 10
75.28033174116256
 20
-119.0342501872553
 30
0.0
 10
75.28033174116256
 20
-119.0342501872553
 30
0.0
 10
75.5023681451869
 20
-119.0342501872553
 30
0.0
 10
75.5023681451869
 20
-119.0342501872553
 30
0.0
 10
75.55748967295091
 20
-119.2330321967543
 30
0.0
 10
75.68444144158236
 20
-119.2626600179274
 30
0.0
 10
75.77745901968412
 20
-119.2626600179274
 30
0.0
 10
75.917157641611
 20
-119.2626600179274
 30
0.0
 10
76.06943086205904
 20
-119.1632690131779
 30
0.0
 10
76.06943086205904
 20
-118.9305528131493
 30
0.0
 10
76.06943086205904
 20
-118.6745822185952
 30
0.0
 10
75.88959687772899
 20
-118.6048190350189
 30
0.0
 10
75.76901853574525
 20
-118.6048190350189
 30
0.0
 10
75.73732365728095
 20
-118.6048190350189
 30
0.0
 10
75.59555797806291
 20
-118.6048190350189
 30
0.0
 10
75.50667451454348
 20
-118.7338378609415
 30
0.0
 10
75.50667451454348
 20
-118.7338378609415
 30
0.0
 10
75.33114689957
 20
-118.7147175809984
 30
0.0
 10
75.33114689957
 20
-118.7147175809984
 30
0.0
 10
75.33114689957
 20
-118.7147175809984
 30
0.0
 10
75.45172524155375
 20
-117.8686021298211
 30
0.0
 10
75.45172524155375
 20
-117.8686021298211
 30
0.0
 10
75.45172524155375
 20
-117.8686021298211
 30
0.0
 10
76.23014456644594
 20
-117.8686021298211
 30
0.0
 10
76.23014456644594
 20
-117.8686021298211
 30
0.0
 10
76.23014456644594
 20
-117.8686021298211
 30
0.0
 10
76.23014456644594
 20
-118.0632500247377
 30
0.0
 10
76.23014456644594
 20
-118.0632500247377
 30
0.0
 10
76.23014456644594
 20
-118.0632500247377
 30
0.0
 10
75.6145060032318
 20
-118.0632500247377
 30
0.0
 10
75.6145060032318
 20
-118.0632500247377
 30
0.0
 10
75.6145060032318
 20
-118.0632500247377
 30
0.0
 10
75.54904918901205
 20
-118.4863077503263
 30
0.0
 10
75.54904918901205
 20
-118.4863077503263
 30
0.0
 10
75.6103718886495
 20
-118.4523735597966
 30
0.0
 10
75.69288192552122
 20
-118.4122381973935
 30
0.0
 10
75.81122095543957
 20
-118.4122381973935
 30
0.0
 10
76.06512449270247
 20
-118.4122381973935
 30
0.0
 10
76.30214706208766
 20
-118.5984456083712
 30
0.0
 10
76.30214706208766
 20
-118.9114325332062
 30
0.0
 10
76.30214706208766
 20
-119.228898082172
 30
0.0
 10
76.07787134599789
 20
-119.4636813394917
 30
0.0
 10
75.77539196239296
 20
-119.4636813394917
 30
0.0
  0
HATCH
  5
EC
330
DB
100
AcDbEntity
  8
_U+30EC_U+30A4_U+30E4_U+30FC 1
 62
   179
420
  2234388
100
AcDbHatch
 10
0.0
 20
0.0
 30
0.0
210
0.0
220
0.0
230
1.0
  2
SOLID
 70
     1
 71
     0
 91
        1
 92
        1
 93
        1
 72
     4
 94
        3
 73
     0
 74
     1
 95
       53
 96
       49
 40
0.0
 40
0.0
 40
0.0
 40
0.0
 40
1.0
 40
1.0
 40
1.0
 40
2.0
 40
2.0
 40
2.0
 40
3.0
 40
3.0
 40
3.0
 40
4.0
 40
4.0
 40
4.0
 40
5.0
 40
5.0
 40
5.0
 40
6.0
 40
6.0
 40
6.0
 40
7.0
 40
7.0
 40
7.0
 40
8.0
 40
8.0
 40
8.0
 40
9.0
 40
9.0
 40
9.0
 40
10.0
 40
10.0
 40
10.0
 40
11.0
 40
11.0
 40
11.0
 40
12.0
 40
12.0
 40
12.0
 40
13.0
 40
13.0
 40
13.0
 40
14.0
 40
14.0
 40
14.0
 40
15.0
 40
15.0
 40
15.0
 40
16.0
 40
16.0
 40
16.0
 40
16.0
 10
75.77539196239296
 20
-119.4636813394917
 10
75.69701604010352
 20
-119.4636813394917
 10
75.59555797806291
 20
-119.4466281168397
 10
75.49392766124805
 20
-119.3832383599111
 10
75.32046710356572
 20
-119.2731675591574
 10
75.29927976633144
 20
-119.1420816759437
 10
75.28033174116256
 20
-119.0342501872553
 10
75.28033174116256
 20
-119.0342501872553
 10
75.5023681451869
 20
-119.0342501872553
 10
75.5023681451869
 20
-119.0342501872553
 10
75.55748967295091
 20
-119.2330321967543
 10
75.68444144158236
 20
-119.2626600179274
 10
75.77745901968412
 20
-119.2626600179274
 10
75.917157641611
 20
-119.2626600179274
 10
76.06943086205904
 20
-119.1632690131779
 10
76.06943086205904
 20
-118.9305528131493
 10
76.06943086205904
 20
-118.6745822185952
 10
75.88959687772899
 20
-118.6048190350189
 10
75.76901853574525
 20
-118.6048190350189
 10
75.73732365728095
 20
-118.6048190350189
 10
75.59555797806291
 20
-118.6048190350189
 10
75.50667451454348
 20
-118.7338378609415
 10
75.50667451454348
 20
-118.7338378609415
 10
75.33114689957
 20
-118.7147175809984
 10
75.33114689957
 20
-118.7147175809984
 10
75.33114689957
 20
-118.7147175809984
 10
75.45172524155375
 20
-117.8686021298211
 10
75.45172524155375
 20
-117.8686021298211
 10
75.45172524155375
 20
-117.8686021298211
 10
76.23014456644594
 20
-117.8686021298211
 10
76.23014456644594
 20
-117.8686021298211
 10
76.23014456644594
 20
-117.8686021298211
 10
76.23014456644594
 20
-118.0632500247377
 10
76.23014456644594
 20
-118.0632500247377
 10
76.23014456644594
 20
-118.0632500247377
 10
75.6145060032318
 20
-118.0632500247377
 10
75.6145060032318
 20
-118.0632500247377
 10
75.6145060032318
 20
-118.0632500247377
 10
75.54904918901205
 20
-118.4863077503263
 10
75.54904918901205
 20
-118.4863077503263
 10
75.6103718886495
 20
-118.4523735597966
 10
75.69288192552122
 20
-118.4122381973935
 10
75.81122095543957
 20
-118.4122381973935
 10
76.06512449270247
 20
-118.4122381973935
 10
76.30214706208766
 20
-118.5984456083712
 10
76.30214706208766
 20
-118.9114325332062
 10
76.30214706208766
 20
-119.228898082172
 10
76.07787134599789
 20
-119.4636813394917
 10
75.77539196239296
 20
-119.4636813394917
 97
        0
 97
        0
 75
     2
 76
     1
 98
        0
  0
ENDBLK
  5
DE
330
DB
100
AcDbEntity
  8
0
100
AcDbBlockEnd
  0
ENDSEC
  0
SECTION
  2
ENTITIES
  0
POLYLINE
  5
41
330
1F
100
AcDbEntity
  8
_U+30EC_U+30A4_U+30E4_U+30FC 1
 62
   179
420
  2234388
370
     9
100
AcDb2dPolyline
 66
     1
 10
0.0
 20
0.0
 30
0.0
  0
VERTEX
  5
42
330
41
100
AcDbEntity
  8
_U+30EC_U+30A4_U+30E4_U+30FC 1
 62
   179
420
  2234388
370
     9
100
AcDbVertex
100
AcDb2dVertex
 10
76.86971137222362
 20
-137.0700063546217
 30
0.0
  0
VERTEX
  5
43
330
41
100
AcDbEntity
  8
_U+30EC_U+30A4_U+30E4_U+30FC 1
 62
   179
420
  2234388
370
     9
100
AcDbVertex
100
AcDb2dVertex
 10
73.95104164817892
 20
-139.9887132983362
 30
0.0
  0
SEQEND
  5
44
330
41
100
AcDbEntity
  8
_U+30EC_U+30A4_U+30E4_U+30FC 1
 62
   179
420
  2234388
370
     9
  0
POLYLINE
  5
45
330
1F
100
AcDbEntity
  8
_U+30EC_U+30A4_U+30E4_U+30FC 1
 62
   179
420
  2234388
370
     9
100
AcDb2dPolyline
 66
     1
 10
0.0
 20
0.0
 30
0.0
  0
VERTEX
  5
46
330
45
100
AcDbEntity
  8
_U+30EC_U+30A4_U+30E4_U+30FC 1
 62
   179
420
  2234388
370
     9
100
AcDbVertex
100
AcDb2dVertex
 10
76.86971137222362
 20
-137.0700063546217
 30
0.0
  0
VERTEX
  5
47
330
45
100
AcDbEntity
  8
_U+30EC_U+30A4_U+30E4_U+30FC 1
 62
   179
420
  2234388
370
     9
100
AcDbVertex
100
AcDb2dVertex
 10
81.49787347637158
 20
-137.0700063546217
 30
0.0
  0
SEQEND
  5
48
330
45
100
AcDbEntity
  8
_U+30EC_U+30A4_U+30E4_U+30FC 1
 62
   179
420
  2234388
370
     9
  0
POLYLINE
  5
49
330
1F
100
AcDbEntity
  8
_U+30EC_U+30A4_U+30E4_U+30FC 1
 62
   179
420
  2234388
370
     9
100
AcDb2dPolyline
 66
     1
 10
0.0
 20
0.0
 30
0.0
  0
VERTEX
  5
4A
330
49
100
AcDbEntity
  8
_U+30EC_U+30A4_U+30E4_U+30FC 1
 62
   179
420
  2234388
370
     9
100
AcDbVertex
100
AcDb2dVertex
 10
74.99007614239933
 20
-139.3885677429309
 30
0.0
  0
VERTEX
  5
4B
330
49
100
AcDbEntity
  8
_U+30EC_U+30A4_U+30E4_U+30FC 1
 62
   179
420
  2234388
370
     9
100
AcDbVertex
100
AcDb2dVertex
 10
73.95104164817892
 20
-139.9887132983362
 30
0.0
  0
SEQEND
  5
4C
330
49
100
AcDbEntity
  8
_U+30EC_U+30A4_U+30E4_U+30FC 1
 62
   179
420
  2234388
370
     9
  0
POLYLINE
  5
4D
330
1F
100
AcDbEntity
  8
_U+30EC_U+30A4_U+30E4_U+30FC 1
 62
   179
420
  2234388
370
     9
100
AcDb2dPolyline
 66
     1
 10
0.0
 20
0.0
 30
0.0
  0
VERTEX
  5
4E
330
4D
100
AcDbEntity
  8
_U+30EC_U+30A4_U+30E4_U+30FC 1
 62
   179
420
  2234388
370
     9
100
AcDbVertex
100
AcDb2dVertex
 10
74.55047976472548
 20
-138.9496416319291
 30
0.0
  0
VERTEX
  5
4F
330
4D
100
AcDbEntity
  8
_U+30EC_U+30A4_U+30E4_U+30FC 1
 62
   179
420
  2234388
370
     9
100
AcDbVertex
100
AcDb2dVertex
 10
73.95104164817892
 20
-139.9887132983362
 30
0.0
  0
SEQEND
  5
50
330
4D
100
AcDbEntity
  8
_U+30EC_U+30A4_U+30E4_U+30FC 1
 62
   179
420
  2234388
370
     9
  0
POLYLINE
  5
51
330
1F
100
AcDbEntity
  8
_U+30EC_U+30A4_U+30E4_U+30FC 1
 62
   179
420
  2234388
370
    25
100
AcDb2dPolyline
 66
     1
 10
0.0
 20
0.0
 30
0.0
  0
VERTEX
  5
52
330
51
100
AcDbEntity
  8
_U+30EC_U+30A4_U+30E4_U+30FC 1
 62
   179
420
  2234388
370
    25
100
AcDbVertex
100
AcDb2dVertex
 10
87.09271942267141
 20
-133.3465427444412
 30
0.0
  0
VERTEX
  5
53
330
51
100
AcDbEntity
  8
_U+30EC_U+30A4_U+30E4_U+30FC 1
 62
   179
420
  2234388
370
    25
100
AcDbVertex
100
AcDb2dVertex
 10
108.0926252978829
 20
-133.3465427444412
 30
0.0
  0
SEQEND
  5
54
330
51
100
AcDbEntity
  8
_U+30EC_U+30A4_U+30E4_U+30FC 1
 62
   179
420
  2234388
370
    25
  0
POLYLINE
  5
55
330
1F
100
AcDbEntity
  8
_U+30EC_U+30A4_U+30E4_U+30FC 1
 62
   179
420
  2234388
370
    25
100
AcDb2dPolyline
 66
     1
 10
0.0
 20
0.0
 30
0.0
  0
VERTEX
  5
56
330
55
100
AcDbEntity
  8
_U+30EC_U+30A4_U+30E4_U+30FC 1
 62
   179
420
  2234388
370
    25
100
AcDbVertex
100
AcDb2dVertex
 10
86.00954836126917
 20
-132.3468058002468
 30
0.0
  0
VERTEX
  5
57
330
55
100
AcDbEntity
  8
_U+30EC_U+30A4_U+30E4_U+30FC 1
 62
   179
420
  2234388
370
    25
100
AcDbVertex
100
AcDb2dVertex
 10
108.0926252978829
 20
-132.3468058002468
 30
0.0
  0
SEQEND
  5
58
330
55
100
AcDbEntity
  8
_U+30EC_U+30A4_U+30E4_U+30FC 1
 62
   179
420
  2234388
370
    25
  0
POLYLINE
  5
59
330
1F
100
AcDbEntity
  8
_U+30EC_U+30A4_U+30E4_U+30FC 1
 62
   179
420
  2234388
370
    25
100
AcDb2dPolyline
 66
     1
 10
0.0
 20
0.0
 30
0.0
  0
VERTEX
  5
5A
330
59
100
AcDbEntity
  8
_U+30EC_U+30A4_U+30E4_U+30FC 1
 62
   179
420
  2234388
370
    25
100
AcDbVertex
100
AcDb2dVertex
 10
108.0926252978829
 20
-132.3468058002468
 30
0.0
  0
VERTEX
  5
5B
330
59
100
AcDbEntity
  8
_U+30EC_U+30A4_U+30E4_U+30FC 1
 62
   179
420
  2234388
370
    25
100
AcDbVertex
100
AcDb2dVertex
 10
108.0926252978829
 20
-133.3465427444412
 30
0.0
  0
SEQEND
  5
5C
330
59
100
AcDbEntity
  8
_U+30EC_U+30A4_U+30E4_U+30FC 1
 62
   179
420
  2234388
370
    25
  0
POLYLINE
  5
5D
330
1F
100
AcDbEntity
  8
_U+30EC_U+30A4_U+30E4_U+30FC 1
 62
   179
420
  2234388
370
    25
100
AcDb2dPolyline
 66
     1
 10
0.0
 20
0.0
 30
0.0
  0
VERTEX
  5
5E
330
5D
100
AcDbEntity
  8
_U+30EC_U+30A4_U+30E4_U+30FC 1
 62
   179
420
  2234388
370
    25
100
AcDbVertex
100
AcDb2dVertex
 10
81.59294708505716
 20
-127.9299927457953
 30
0.0
  0
VERTEX
  5
5F
330
5D
100
AcDbEntity
  8
_U+30EC_U+30A4_U+30E4_U+30FC 1
 62
   179
420
  2234388
370
    25
100
AcDbVertex
100
AcDb2dVertex
 10
81.59294708505716
 20
-105.846597751316
 30
0.0
  0
SEQEND
  5
60
330
5D
100
AcDbEntity
  8
_U+30EC_U+30A4_U+30E4_U+30FC 1
 62
   179
420
  2234388
370
    25
  0
POLYLINE
  5
61
330
1F
100
AcDbEntity
  8
_U+30EC_U+30A4_U+30E4_U+30FC 1
 62
   179
420
  2234388
370
    25
100
AcDb2dPolyline
 66
     1
 10
0.0
 20
0.0
 30
0.0
  0
VERTEX
  5
62
330
61
100
AcDbEntity
  8
_U+30EC_U+30A4_U+30E4_U+30FC 1
 62
   179
420
  2234388
370
    25
100
AcDbVertex
100
AcDb2dVertex
 10
81.59294708505716
 20
-105.846597751316
 30
0.0
  0
VERTEX
  5
63
330
61
100
AcDbEntity
  8
_U+30EC_U+30A4_U+30E4_U+30FC 1
 62
   179
420
  2234388
370
    25
100
AcDbVertex
100
AcDb2dVertex
 10
80.59317488834125
 20
-105.846597751316
 30
0.0
  0
SEQEND
  5
64
330
61
100
AcDbEntity
  8
_U+30EC_U+30A4_U+30E4_U+30FC 1
 62
   179
420
  2234388
370
    25
  0
POLYLINE
  5
65
330
1F
100
AcDbEntity
  8
_U+30EC_U+30A4_U+30E4_U+30FC 1
 62
   179
420
  2234388
370
    25
100
AcDb2dPolyline
 66
     1
 10
0.0
 20
0.0
 30
0.0
  0
VERTEX
  5
66
330
65
100
AcDbEntity
  8
_U+30EC_U+30A4_U+30E4_U+30FC 1
 62
   179
420
  2234388
370
    25
100
AcDbVertex
100
AcDb2dVertex
 10
80.59317488834125
 20
-126.8465063571774
 30
0.0
  0
VERTEX
  5
67
330
65
100
AcDbEntity
  8
_U+30EC_U+30A4_U+30E4_U+30FC 1
 62
   179
420
  2234388
370
    25
100
AcDbVertex
100
AcDb2dVertex
 10
80.59317488834125
 20
-105.846597751316
 30
0.0
  0
SEQEND
  5
68
330
65
100
AcDbEntity
  8
_U+30EC_U+30A4_U+30E4_U+30FC 1
 62
   179
420
  2234388
370
    25
  0
POLYLINE
  5
69
330
1F
100
AcDbEntity
  8
_U+30EC_U+30A4_U+30E4_U+30FC 1
 62
   179
420
  2234388
370
    25
100
AcDb2dPolyline
 66
     1
 10
0.0
 20
0.0
 30
0.0
  0
VERTEX
  5
6A
330
69
100
AcDbEntity
  8
_U+30EC_U+30A4_U+30E4_U+30FC 1
 62
   179
420
  2234388
370
    25
100
AcDbVertex
100
AcDb2dVertex
 10
87.09271942267141
 20
-133.3465427444412
 30
0.0
  0
VERTEX
  5
6B
330
69
100
AcDbEntity
  8
_U+30EC_U+30A4_U+30E4_U+30FC 1
 62
   179
420
  2234388
370
    25
100
AcDbVertex
100
AcDb2dVertex
 10
88.09245414146315
 20
-145.8467294079829
 30
0.0
  0
SEQEND
  5
6C
330
69
100
AcDbEntity
  8
_U+30EC_U+30A4_U+30E4_U+30FC 1
 62
   179
420
  2234388
370
    25
  0
POLYLINE
  5
6D
330
1F
100
AcDbEntity
  8
_U+30EC_U+30A4_U+30E4_U+30FC 1
 62
   179
420
  2234388
370
    25
100
AcDb2dPolyline
 66
     1
 10
0.0
 20
0.0
 30
0.0
  0
VERTEX
  5
6E
330
6D
100
AcDbEntity
  8
_U+30EC_U+30A4_U+30E4_U+30FC 1
 62
   179
420
  2234388
370
    25
100
AcDbVertex
100
AcDb2dVertex
 10
86.00954836126917
 20
-132.3468058002468
 30
0.0
  0
VERTEX
  5
6F
330
6D
100
AcDbEntity
  8
_U+30EC_U+30A4_U+30E4_U+30FC 1
 62
   179
420
  2234388
370
    25
100
AcDbVertex
100
AcDb2dVertex
 10
87.00656889138861
 20
-144.815277741574
 30
0.0
  0
SEQEND
  5
70
330
6D
100
AcDbEntity
  8
_U+30EC_U+30A4_U+30E4_U+30FC 1
 62
   179
420
  2234388
370
    25
  0
POLYLINE
  5
71
330
1F
100
AcDbEntity
  8
_U+30EC_U+30A4_U+30E4_U+30FC 1
 62
   179
420
  2234388
370
    25
100
AcDb2dPolyline
 66
     1
 10
0.0
 20
0.0
 30
0.0
  0
VERTEX
  5
72
330
71
100
AcDbEntity
  8
_U+30EC_U+30A4_U+30E4_U+30FC 1
 62
   179
420
  2234388
370
    25
100
AcDbVertex
100
AcDb2dVertex
 10
68.09298854058092
 20
-125.8464166352049
 30
0.0
  0
VERTEX
  5
73
330
71
100
AcDbEntity
  8
_U+30EC_U+30A4_U+30E4_U+30FC 1
 62
   179
420
  2234388
370
    25
100
AcDbVertex
100
AcDb2dVertex
 10
80.59317488834125
 20
-126.8465063571774
 30
0.0
  0
SEQEND
  5
74
330
71
100
AcDbEntity
  8
_U+30EC_U+30A4_U+30E4_U+30FC 1
 62
   179
420
  2234388
370
    25
  0
POLYLINE
  5
75
330
1F
100
AcDbEntity
  8
_U+30EC_U+30A4_U+30E4_U+30FC 1
 62
   179
420
  2234388
370
    25
100
AcDb2dPolyline
 66
     1
 10
0.0
 20
0.0
 30
0.0
  0
VERTEX
  5
76
330
75
100
AcDbEntity
  8
_U+30EC_U+30A4_U+30E4_U+30FC 1
 62
   179
420
  2234388
370
    25
100
AcDbVertex
100
AcDb2dVertex
 10
69.12376990317237
 20
-126.9323019127114
 30
0.0
  0
VERTEX
  5
77
330
75
100
AcDbEntity
  8
_U+30EC_U+30A4_U+30E4_U+30FC 1
 62
   179
420
  2234388
370
    25
100
AcDbVertex
100
AcDb2dVertex
 10
81.59294708505716
 20
-127.9299927457953
 30
0.0
  0
SEQEND
  5
78
330
75
100
AcDbEntity
  8
_U+30EC_U+30A4_U+30E4_U+30FC 1
 62
   179
420
  2234388
370
    25
  0
SPLINE
  5
79
330
1F
100
AcDbEntity
  8
_U+30EC_U+30A4_U+30E4_U+30FC 1
 62
   179
420
  2234388
370
     9
100
AcDbSpline
210
0.0
220
0.0
230
1.0
 70
    11
 71
     3
 72
    17
 73
    13
 74
     0
 42
0.0000000001
 43
0.0000000001
 12
1.0
 22
0.0
 32
0.0
 13
1.0
 23
0.0
 33
0.0
 40
0.0
 40
0.0
 40
0.0
 40
0.0
 40
1.0
 40
1.0
 40
1.0
 40
2.0
 40
2.0
 40
2.0
 40
3.0
 40
3.0
 40
3.0
 40
4.0
 40
4.0
 40
4.0
 40
4.0
 10
112.1929613043858
 20
-133.3465427444412
 30
0.0
 10
112.1929613043858
 20
-133.2914388555663
 30
0.0
 10
112.1481938055279
 20
-133.2466360777996
 30
0.0
 10
112.0930546402679
 20
-133.2466360777996
 30
0.0
 10
112.0379507527849
 20
-133.2466360777996
 30
0.0
 10
111.9931479761501
 20
-133.2914388555663
 30
0.0
 10
111.9931479761501
 20
-133.3465427444412
 30
0.0
 10
111.9931479761501
 20
-133.4016819110943
 30
0.0
 10
112.0379507527849
 20
-133.4464494110829
 30
0.0
 10
112.0930546402679
 20
-133.4464494110829
 30
0.0
 10
112.1481938055279
 20
-133.4464494110829
 30
0.0
 10
112.1929613043858
 20
-133.4016819110943
 30
0.0
 10
112.1929613043858
 20
-133.3465427444412
 30
0.0
  0
SPLINE
  5
7A
330
1F
100
AcDbEntity
  8
_U+30EC_U+30A4_U+30E4_U+30FC 1
 62
   179
420
  2234388
370
     9
100
AcDbSpline
210
0.0
220
0.0
230
1.0
 70
    11
 71
     3
 72
    17
 73
    13
 74
     0
 42
0.0000000001
 43
0.0000000001
 12
1.0
 22
0.0
 32
0.0
 13
1.0
 23
0.0
 33
0.0
 40
0.0
 40
0.0
 40
0.0
 40
0.0
 40
1.0
 40
1.0
 40
1.0
 40
2.0
 40
2.0
 40
2.0
 40
3.0
 40
3.0
 40
3.0
 40
4.0
 40
4.0
 40
4.0
 40
4.0
 10
112.1929613043858
 20
-132.3468058002468
 30
0.0
 10
112.1929613043858
 20
-132.2916666335938
 30
0.0
 10
112.1481938055279
 20
-132.246863855827
 30
0.0
 10
112.0930546402679
 20
-132.246863855827
 30
0.0
 10
112.0379507527849
 20
-132.246863855827
 30
0.0
 10
111.9931479761501
 20
-132.2916666335938
 30
0.0
 10
111.9931479761501
 20
-132.3468058002468
 30
0.0
 10
111.9931479761501
 20
-132.4019096891217
 30
0.0
 10
112.0379507527849
 20
-132.4467124668885
 30
0.0
 10
112.0930546402679
 20
-132.4467124668885
 30
0.0
 10
112.1481938055279
 20
-132.4467124668885
 30
0.0
 10
112.1929613043858
 20
-132.4019096891217
 30
0.0
 10
112.1929613043858
 20
-132.3468058002468
 30
0.0
  0
SPLINE
  5
7B
330
1F
100
AcDbEntity
  8
_U+30EC_U+30A4_U+30E4_U+30FC 1
 62
   179
420
  2234388
370
    25
100
AcDbSpline
210
0.0
220
0.0
230
1.0
 70
     8
 71
     3
 72
     8
 73
     4
 74
     0
 42
0.0000000001
 43
0.0000000001
 12
1.0
 22
0.0
 32
0.0
 13
1.0
 23
0.0
 33
0.0
 40
0.0
 40
0.0
 40
0.0
 40
0.0
 40
1.0
 40
1.0
 40
1.0
 40
1.0
 10
68.09298854058092
 20
-125.8464166352049
 30
0.0
 10
68.09298854058092
 20
-136.8922416324434
 30
0.0
 10
77.04747608991067
 20
-145.8467294079829
 30
0.0
 10
88.09245414146315
 20
-145.8467294079829
 30
0.0
  0
SPLINE
  5
7C
330
1F
100
AcDbEntity
  8
_U+30EC_U+30A4_U+30E4_U+30FC 1
 62
   179
420
  2234388
370
    25
100
AcDbSpline
210
0.0
220
0.0
230
1.0
 70
     8
 71
     3
 72
     8
 73
     4
 74
     0
 42
0.0000000001
 43
0.0000000001
 12
1.0
 22
0.0
 32
0.0
 13
1.0
 23
0.0
 33
0.0
 40
0.0
 40
0.0
 40
0.0
 40
0.0
 40
1.0
 40
1.0
 40
1.0
 40
1.0
 10
69.12376990317237
 20
-126.9323019127114
 30
0.0
 10
69.67569072242505
 20
-136.5711785769684
 30
0.0
 10
77.36857441505211
 20
-144.264062463934
 30
0.0
 10
87.00656889138861
 20
-144.815277741574
 30
0.0
  0
SPLINE
  5
7D
330
1F
100
AcDbEntity
  8
_U+30EC_U+30A4_U+30E4_U+30FC 1
 62
   179
420
  2234388
370
     9
100
AcDbSpline
210
0.0
220
0.0
230
1.0
 70
    11
 71
     3
 72
    17
 73
    13
 74
     0
 42
0.0000000001
 43
0.0000000001
 12
1.0
 22
0.0
 32
0.0
 13
1.0
 23
0.0
 33
0.0
 40
0.0
 40
0.0
 40
0.0
 40
0.0
 40
1.0
 40
1.0
 40
1.0
 40
2.0
 40
2.0
 40
2.0
 40
3.0
 40
3.0
 40
3.0
 40
4.0
 40
4.0
 40
4.0
 40
4.0
 10
80.69308155245909
 20
-120.1750905255118
 30
0.0
 10
80.69308155245909
 20
-120.1199866366366
 30
0.0
 10
80.64831405360121
 20
-120.0751838588702
 30
0.0
 10
80.59317488834125
 20
-120.0751838588702
 30
0.0
 10
80.53736544532063
 20
-120.0751838588702
 30
0.0
 10
80.49259997987673
 20
-120.1199866366366
 30
0.0
 10
80.49259997987673
 20
-120.1750905255118
 30
0.0
 10
80.49259997987673
 20
-120.2302296921646
 30
0.0
 10
80.53736544532063
 20
-120.2749971921534
 30
0.0
 10
80.59317488834125
 20
-120.2749971921534
 30
0.0
 10
80.64831405360121
 20
-120.2749971921534
 30
0.0
 10
80.69308155245909
 20
-120.2302296921646
 30
0.0
 10
80.69308155245909
 20
-120.1750905255118
 30
0.0
  0
SPLINE
  5
7E
330
1F
100
AcDbEntity
  8
_U+30EC_U+30A4_U+30E4_U+30FC 1
 62
   179
420
  2234388
370
     9
100
AcDbSpline
210
0.0
220
0.0
230
1.0
 70
    11
 71
     3
 72
    17
 73
    13
 74
     0
 42
0.0000000001
 43
0.0000000001
 12
1.0
 22
0.0
 32
0.0
 13
1.0
 23
0.0
 33
0.0
 40
0.0
 40
0.0
 40
0.0
 40
0.0
 40
1.0
 40
1.0
 40
1.0
 40
2.0
 40
2.0
 40
2.0
 40
3.0
 40
3.0
 40
3.0
 40
4.0
 40
4.0
 40
4.0
 40
4.0
 10
68.19289520469874
 20
-120.1750905255118
 30
0.0
 10
68.19289520469874
 20
-120.1199866366366
 30
0.0
 10
68.14812770584086
 20
-120.0751838588702
 30
0.0
 10
68.09298854058092
 20
-120.0751838588702
 30
0.0
 10
68.03788465309785
 20
-120.0751838588702
 30
0.0
 10
67.99308187646308
 20
-120.1199866366366
 30
0.0
 10
67.99308187646308
 20
-120.1750905255118
 30
0.0
 10
67.99308187646308
 20
-120.2302296921646
 30
0.0
 10
68.03788465309785
 20
-120.2749971921534
 30
0.0
 10
68.09298854058092
 20
-120.2749971921534
 30
0.0
 10
68.14812770584086
 20
-120.2749971921534
 30
0.0
 10
68.19289520469874
 20
-120.2302296921646
 30
0.0
 10
68.19289520469874
 20
-120.1750905255118
 30
0.0
  0
SPLINE
  5
7F
330
1F
100
AcDbEntity
  8
_U+30EC_U+30A4_U+30E4_U+30FC 1
 62
   179
420
  2234388
370
     9
100
AcDbSpline
210
0.0
220
0.0
230
1.0
 70
    11
 71
     3
 72
    17
 73
    13
 74
     0
 42
0.0000000001
 43
0.0000000001
 12
1.0
 22
0.0
 32
0.0
 13
1.0
 23
0.0
 33
0.0
 40
0.0
 40
0.0
 40
0.0
 40
0.0
 40
1.0
 40
1.0
 40
1.0
 40
2.0
 40
2.0
 40
2.0
 40
3.0
 40
3.0
 40
3.0
 40
4.0
 40
4.0
 40
4.0
 40
4.0
 10
108.1932375175383
 20
-149.8464885736492
 30
0.0
 10
108.1932375175383
 20
-149.7913846847743
 30
0.0
 10
108.1484347409036
 20
-149.7465819070075
 30
0.0
 10
108.0926252978829
 20
-149.7465819070075
 30
0.0
 10
108.0374888618794
 20
-149.7465819070075
 30
0.0
 10
107.9927186337651
 20
-149.7913846847743
 30
0.0
 10
107.9927186337651
 20
-149.8464885736492
 30
0.0
 10
107.9927186337651
 20
-149.9016277403022
 30
0.0
 10
108.0374888618794
 20
-149.9463952402915
 30
0.0
 10
108.0926252978829
 20
-149.9463952402915
 30
0.0
 10
108.1484347409036
 20
-149.9463952402915
 30
0.0
 10
108.1932375175383
 20
-149.9016277403022
 30
0.0
 10
108.1932375175383
 20
-149.8464885736492
 30
0.0
  0
SPLINE
  5
80
330
1F
100
AcDbEntity
  8
_U+30EC_U+30A4_U+30E4_U+30FC 1
 62
   179
420
  2234388
370
     9
100
AcDbSpline
210
0.0
220
0.0
230
1.0
 70
    11
 71
     3
 72
    17
 73
    13
 74
     0
 42
0.0000000001
 43
0.0000000001
 12
1.0
 22
0.0
 32
0.0
 13
1.0
 23
0.0
 33
0.0
 40
0.0
 40
0.0
 40
0.0
 40
0.0
 40
1.0
 40
1.0
 40
1.0
 40
2.0
 40
2.0
 40
2.0
 40
3.0
 40
3.0
 40
3.0
 40
4.0
 40
4.0
 40
4.0
 40
4.0
 10
88.19236080558099
 20
-149.8464885736492
 30
0.0
 10
88.19236080558099
 20
-149.7913846847743
 30
0.0
 10
88.1475933067231
 20
-149.7465819070075
 30
0.0
 10
88.09245414146315
 20
-149.7465819070075
 30
0.0
 10
88.03735025398008
 20
-149.7465819070075
 30
0.0
 10
87.99254747734531
 20
-149.7913846847743
 30
0.0
 10
87.99254747734531
 20
-149.8464885736492
 30
0.0
 10
87.99254747734531
 20
-149.9016277403022
 30
0.0
 10
88.03735025398008
 20
-149.9463952402915
 30
0.0
 10
88.09245414146315
 20
-149.9463952402915
 30
0.0
 10
88.1475933067231
 20
-149.9463952402915
 30
0.0
 10
88.19236080558099
 20
-149.9016277403022
 30
0.0
 10
88.19236080558099
 20
-149.8464885736492
 30
0.0
  0
SPLINE
  5
81
330
1F
100
AcDbEntity
  8
_U+30EC_U+30A4_U+30E4_U+30FC 1
 62
   179
420
  2234388
370
     9
100
AcDbSpline
210
0.0
220
0.0
230
1.0
 70
    11
 71
     3
 72
    17
 73
    13
 74
     0
 42
0.0000000001
 43
0.0000000001
 12
1.0
 22
0.0
 32
0.0
 13
1.0
 23
0.0
 33
0.0
 40
0.0
 40
0.0
 40
0.0
 40
0.0
 40
1.0
 40
1.0
 40
1.0
 40
2.0
 40
2.0
 40
2.0
 40
3.0
 40
3.0
 40
3.0
 40
4.0
 40
4.0
 40
4.0
 40
4.0
 10
112.1929613043858
 20
-145.8467294079829
 30
0.0
 10
112.1929613043858
 20
-145.7916255191074
 30
0.0
 10
112.1481938055279
 20
-145.7468227413413
 30
0.0
 10
112.0930546402679
 20
-145.7468227413413
 30
0.0
 10
112.0379507527849
 20
-145.7468227413413
 30
0.0
 10
111.9931479761501
 20
-145.7916255191074
 30
0.0
 10
111.9931479761501
 20
-145.8467294079829
 30
0.0
 10
111.9931479761501
 20
-145.9018685746354
 30
0.0
 10
112.0379507527849
 20
-145.9466360746246
 30
0.0
 10
112.0930546402679
 20
-145.9466360746246
 30
0.0
 10
112.1481938055279
 20
-145.9466360746246
 30
0.0
 10
112.1929613043858
 20
-145.9018685746354
 30
0.0
 10
112.1929613043858
 20
-145.8467294079829
 30
0.0
  0
INSERT
  5
83
330
1F
100
AcDbEntity
  8
_U+30EC_U+30A4_U+30E4_U+30FC 1
100
AcDbBlockReference
  2
block 2
 10
0.0
 20
0.0
 30
0.0
  0
POLYLINE
  5
8E
330
1F
100
AcDbEntity
  8
_U+30EC_U+30A4_U+30E4_U+30FC 1
 62
   179
420
  2234388
370
     9
100
AcDb2dPolyline
 66
     1
 10
0.0
 20
0.0
 30
0.0
  0
VERTEX
  5
8F
330
8E
100
AcDbEntity
  8
_U+30EC_U+30A4_U+30E4_U+30FC 1
 62
   179
420
  2234388
370
     9
100
AcDbVertex
100
AcDb2dVertex
 10
112.0930546402679
 20
-132.3468058002468
 30
0.0
  0
VERTEX
  5
90
330
8E
100
AcDbEntity
  8
_U+30EC_U+30A4_U+30E4_U+30FC 1
 62
   179
420
  2234388
370
     9
100
AcDbVertex
100
AcDb2dVertex
 10
112.0930546402679
 20
-129.5762302453838
 30
0.0
  0
SEQEND
  5
91
330
8E
100
AcDbEntity
  8
_U+30EC_U+30A4_U+30E4_U+30FC 1
 62
   179
420
  2234388
370
     9
  0
POLYLINE
  5
92
330
1F
100
AcDbEntity
  8
_U+30EC_U+30A4_U+30E4_U+30FC 1
 62
   179
420
  2234388
370
     9
100
AcDb2dPolyline
 66
     1
 10
0.0
 20
0.0
 30
0.0
  0
VERTEX
  5
93
330
92
100
AcDbEntity
  8
_U+30EC_U+30A4_U+30E4_U+30FC 1
 62
   179
420
  2234388
370
     9
100
AcDbVertex
100
AcDb2dVertex
 10
112.0930546402679
 20
-133.3465427444412
 30
0.0
  0
VERTEX
  5
94
330
92
100
AcDbEntity
  8
_U+30EC_U+30A4_U+30E4_U+30FC 1
 62
   179
420
  2234388
370
     9
100
AcDbVertex
100
AcDb2dVertex
 10
112.0930546402679
 20
-132.3468058002468
 30
0.0
  0
SEQEND
  5
95
330
92
100
AcDbEntity
  8
_U+30EC_U+30A4_U+30E4_U+30FC 1
 62
   179
420
  2234388
370
     9
  0
POLYLINE
  5
96
330
1F
100
AcDbEntity
  8
_U+30EC_U+30A4_U+30E4_U+30FC 1
 62
   179
420
  2234388
370
     9
100
AcDb2dPolyline
 66
     1
 10
0.0
 20
0.0
 30
0.0
  0
VERTEX
  5
97
330
96
100
AcDbEntity
  8
_U+30EC_U+30A4_U+30E4_U+30FC 1
 62
   179
420
  2234388
370
     9
100
AcDbVertex
100
AcDb2dVertex
 10
110.6330485664047
 20
-133.3465427444412
 30
0.0
  0
VERTEX
  5
98
330
96
100
AcDbEntity
  8
_U+30EC_U+30A4_U+30E4_U+30FC 1
 62
   179
420
  2234388
370
     9
100
AcDbVertex
100
AcDb2dVertex
 10
113.0928268369838
 20
-133.3465427444412
 30
0.0
  0
SEQEND
  5
99
330
96
100
AcDbEntity
  8
_U+30EC_U+30A4_U+30E4_U+30FC 1
 62
   179
420
  2234388
370
     9
  0
POLYLINE
  5
9A
330
1F
100
AcDbEntity
  8
_U+30EC_U+30A4_U+30E4_U+30FC 1
 62
   179
420
  2234388
370
     9
100
AcDb2dPolyline
 66
     1
 10
0.0
 20
0.0
 30
0.0
  0
VERTEX
  5
9B
330
9A
100
AcDbEntity
  8
_U+30EC_U+30A4_U+30E4_U+30FC 1
 62
   179
420
  2234388
370
     9
100
AcDbVertex
100
AcDb2dVertex
 10
110.6330485664047
 20
-132.3468058002468
 30
0.0
  0
VERTEX
  5
9C
330
9A
100
AcDbEntity
  8
_U+30EC_U+30A4_U+30E4_U+30FC 1
 62
   179
420
  2234388
370
     9
100
AcDbVertex
100
AcDb2dVertex
 10
113.0928268369838
 20
-132.3468058002468
 30
0.0
  0
SEQEND
  5
9D
330
9A
100
AcDbEntity
  8
_U+30EC_U+30A4_U+30E4_U+30FC 1
 62
   179
420
  2234388
370
     9
  0
INSERT
  5
9F
330
1F
100
AcDbEntity
  8
_U+30EC_U+30A4_U+30E4_U+30FC 1
100
AcDbBlockReference
  2
block 3
 10
0.0
 20
0.0
 30
0.0
  0
POLYLINE
  5
A4
330
1F
100
AcDbEntity
  8
_U+30EC_U+30A4_U+30E4_U+30FC 1
 62
   179
420
  2234388
370
     9
100
AcDb2dPolyline
 66
     1
 10
0.0
 20
0.0
 30
0.0
  0
VERTEX
  5
A5
330
A4
100
AcDbEntity
  8
_U+30EC_U+30A4_U+30E4_U+30FC 1
 62
   179
420
  2234388
370
     9
100
AcDbVertex
100
AcDb2dVertex
 10
88.09245414146315
 20
-149.8464885736492
 30
0.0
  0
VERTEX
  5
A6
330
A4
100
AcDbEntity
  8
_U+30EC_U+30A4_U+30E4_U+30FC 1
 62
   179
420
  2234388
370
     9
100
AcDbVertex
100
AcDb2dVertex
 10
108.0926252978829
 20
-149.8464885736492
 30
0.0
  0
SEQEND
  5
A7
330
A4
100
AcDbEntity
  8
_U+30EC_U+30A4_U+30E4_U+30FC 1
 62
   179
420
  2234388
370
     9
  0
POLYLINE
  5
A8
330
1F
100
AcDbEntity
  8
_U+30EC_U+30A4_U+30E4_U+30FC 1
 62
   179
420
  2234388
370
     9
100
AcDb2dPolyline
 66
     1
 10
0.0
 20
0.0
 30
0.0
  0
VERTEX
  5
A9
330
A8
100
AcDbEntity
  8
_U+30EC_U+30A4_U+30E4_U+30FC 1
 62
   179
420
  2234388
370
     9
100
AcDbVertex
100
AcDb2dVertex
 10
88.09245414146315
 20
-148.3864471851255
 30
0.0
  0
VERTEX
  5
AA
330
A8
100
AcDbEntity
  8
_U+30EC_U+30A4_U+30E4_U+30FC 1
 62
   179
420
  2234388
370
     9
100
AcDbVertex
100
AcDb2dVertex
 10
88.09245414146315
 20
-150.8469663511773
 30
0.0
  0
SEQEND
  5
AB
330
A8
100
AcDbEntity
  8
_U+30EC_U+30A4_U+30E4_U+30FC 1
 62
   179
420
  2234388
370
     9
  0
POLYLINE
  5
AC
330
1F
100
AcDbEntity
  8
_U+30EC_U+30A4_U+30E4_U+30FC 1
 62
   179
420
  2234388
370
     9
100
AcDb2dPolyline
 66
     1
 10
0.0
 20
0.0
 30
0.0
  0
VERTEX
  5
AD
330
AC
100
AcDbEntity
  8
_U+30EC_U+30A4_U+30E4_U+30FC 1
 62
   179
420
  2234388
370
     9
100
AcDbVertex
100
AcDb2dVertex
 10
108.0926252978829
 20
-135.8869660771393
 30
0.0
  0
VERTEX
  5
AE
330
AC
100
AcDbEntity
  8
_U+30EC_U+30A4_U+30E4_U+30FC 1
 62
   179
420
  2234388
370
     9
100
AcDbVertex
100
AcDb2dVertex
 10
108.0926252978829
 20
-150.8469663511773
 30
0.0
  0
SEQEND
  5
AF
330
AC
100
AcDbEntity
  8
_U+30EC_U+30A4_U+30E4_U+30FC 1
 62
   179
420
  2234388
370
     9
  0
INSERT
  5
B1
330
1F
100
AcDbEntity
  8
_U+30EC_U+30A4_U+30E4_U+30FC 1
100
AcDbBlockReference
  2
block 4
 10
0.0
 20
0.0
 30
0.0
  0
POLYLINE
  5
B9
330
1F
100
AcDbEntity
  8
_U+30EC_U+30A4_U+30E4_U+30FC 1
 62
   179
420
  2234388
370
     9
100
AcDb2dPolyline
 66
     1
 10
0.0
 20
0.0
 30
0.0
  0
VERTEX
  5
BA
330
B9
100
AcDbEntity
  8
_U+30EC_U+30A4_U+30E4_U+30FC 1
 62
   179
420
  2234388
370
     9
100
AcDbVertex
100
AcDb2dVertex
 10
112.0930546402679
 20
-133.3465427444412
 30
0.0
  0
VERTEX
  5
BB
330
B9
100
AcDbEntity
  8
_U+30EC_U+30A4_U+30E4_U+30FC 1
 62
   179
420
  2234388
370
     9
100
AcDbVertex
100
AcDb2dVertex
 10
112.0930546402679
 20
-145.8467294079829
 30
0.0
  0
SEQEND
  5
BC
330
B9
100
AcDbEntity
  8
_U+30EC_U+30A4_U+30E4_U+30FC 1
 62
   179
420
  2234388
370
     9
  0
POLYLINE
  5
BD
330
1F
100
AcDbEntity
  8
_U+30EC_U+30A4_U+30E4_U+30FC 1
 62
   179
420
  2234388
370
     9
100
AcDb2dPolyline
 66
     1
 10
0.0
 20
0.0
 30
0.0
  0
VERTEX
  5
BE
330
BD
100
AcDbEntity
  8
_U+30EC_U+30A4_U+30E4_U+30FC 1
 62
   179
420
  2234388
370
     9
100
AcDbVertex
100
AcDb2dVertex
 10
90.63220713222421
 20
-145.8467294079829
 30
0.0
  0
VERTEX
  5
BF
330
BD
100
AcDbEntity
  8
_U+30EC_U+30A4_U+30E4_U+30FC 1
 62
   179
420
  2234388
370
     9
100
AcDbVertex
100
AcDb2dVertex
 10
113.0928268369838
 20
-145.8467294079829
 30
0.0
  0
SEQEND
  5
C0
330
BD
100
AcDbEntity
  8
_U+30EC_U+30A4_U+30E4_U+30FC 1
 62
   179
420
  2234388
370
     9
  0
INSERT
  5
C2
330
1F
100
AcDbEntity
  8
_U+30EC_U+30A4_U+30E4_U+30FC 1
100
AcDbBlockReference
  2
block 5
 10
0.0
 20
0.0
 30
0.0
  0
POLYLINE
  5
D3
330
1F
100
AcDbEntity
  8
_U+30EC_U+30A4_U+30E4_U+30FC 1
 62
   179
420
  2234388
370
     9
100
AcDb2dPolyline
 66
     1
 10
0.0
 20
0.0
 30
0.0
  0
VERTEX
  5
D4
330
D3
100
AcDbEntity
  8
_U+30EC_U+30A4_U+30E4_U+30FC 1
 62
   179
420
  2234388
370
     9
100
AcDbVertex
100
AcDb2dVertex
 10
80.59317488834125
 20
-120.1750905255118
 30
0.0
  0
VERTEX
  5
D5
330
D3
100
AcDbEntity
  8
_U+30EC_U+30A4_U+30E4_U+30FC 1
 62
   179
420
  2234388
370
     9
100
AcDbVertex
100
AcDb2dVertex
 10
68.09298854058092
 20
-120.1750905255118
 30
0.0
  0
SEQEND
  5
D6
330
D3
100
AcDbEntity
  8
_U+30EC_U+30A4_U+30E4_U+30FC 1
 62
   179
420
  2234388
370
     9
  0
POLYLINE
  5
D7
330
1F
100
AcDbEntity
  8
_U+30EC_U+30A4_U+30E4_U+30FC 1
 62
   179
420
  2234388
370
     9
100
AcDb2dPolyline
 66
     1
 10
0.0
 20
0.0
 30
0.0
  0
VERTEX
  5
D8
330
D7
100
AcDbEntity
  8
_U+30EC_U+30A4_U+30E4_U+30FC 1
 62
   179
420
  2234388
370
     9
100
AcDbVertex
100
AcDb2dVertex
 10
68.09298854058092
 20
-123.3066988580624
 30
0.0
  0
VERTEX
  5
D9
330
D7
100
AcDbEntity
  8
_U+30EC_U+30A4_U+30E4_U+30FC 1
 62
   179
420
  2234388
370
     9
100
AcDbVertex
100
AcDb2dVertex
 10
68.09298854058092
 20
-119.1749655257618
 30
0.0
  0
SEQEND
  5
DA
330
D7
100
AcDbEntity
  8
_U+30EC_U+30A4_U+30E4_U+30FC 1
 62
   179
420
  2234388
370
     9
  0
INSERT
  5
DC
330
1F
100
AcDbEntity
  8
_U+30EC_U+30A4_U+30E4_U+30FC 1
100
AcDbBlockReference
  2
block 6
 10
0.0
 20
0.0
 30
0.0
  0
ENDSEC
  0
SECTION
  2
OBJECTS
  0
DICTIONARY
  5
C
330
0
100
AcDbDictionary
281
     1
  3
ACAD_GROUP
350
D
  3
ACAD_LAYOUT
350
1A
  3
ACAD_MATERIAL
350
3B
  3
ACAD_MLEADERSTYLE
350
EE
  3
ACAD_MLINESTYLE
350
17
  3
ACAD_PLOTSETTINGS
350
19
  3
ACAD_PLOTSTYLENAME
350
E
  3
ACAD_TABLESTYLE
350
ED
  3
ACAD_VISUALSTYLE
350
2A
  0
SUN
  5
3F
330
29
100
AcDbSun
 90
        1
290
     0
 63
     7
421
 16777215
 40
1.0
291
     1
 91
  2455826
 92
 54000000
292
     0
 70
     2
 71
   256
280
     1
  0
DICTIONARY
  5
D
102
{ACAD_REACTORS
330
C
102
}
330
C
100
AcDbDictionary
281
     1
  0
DICTIONARY
  5
1A
102
{ACAD_REACTORS
330
C
102
}
330
C
100
AcDbDictionary
281
     1
  3
Layout1
350
1E
  3
Layout2
350
26
  3
Model
350
22
  0
DICTIONARY
  5
3B
102
{ACAD_REACTORS
330
C
102
}
330
C
100
AcDbDictionary
281
     1
  3
ByBlock
350
3D
  3
ByLayer
350
3C
  3
Global
350
3E
  0
DICTIONARY
  5
EE
102
{ACAD_REACTORS
330
C
102
}
330
C
100
AcDbDictionary
281
     1
  0
DICTIONARY
  5
17
102
{ACAD_REACTORS
330
C
102
}
330
C
100
AcDbDictionary
281
     1
  3
Standard
350
18
  0
DICTIONARY
  5
19
102
{ACAD_REACTORS
330
C
102
}
330
C
100
AcDbDictionary
281
     1
  0
ACDBDICTIONARYWDFLT
  5
E
102
{ACAD_REACTORS
330
C
102
}
330
C
100
AcDbDictionary
281
     1
  3
Normal
350
F
100
AcDbDictionaryWithDefault
340
F
  0
DICTIONARY
  5
ED
102
{ACAD_REACTORS
330
C
102
}
330
C
100
AcDbDictionary
281
     1
  0
DICTIONARY
  5
2A
102
{ACAD_REACTORS
330
C
102
}
330
C
100
AcDbDictionary
281
     1
  3
2dWireframe
350
2F
  3
3D Hidden
350
31
  3
3dWireframe
350
30
  3
Basic
350
32
  3
Brighten
350
36
  3
ColorChange
350
3A
  3
Conceptual
350
34
  3
Dim
350
35
  3
Facepattern
350
39
  3
Flat
350
2B
  3
FlatWithEdges
350
2C
  3
Gouraud
350
2D
  3
GouraudWithEdges
350
2E
  3
Linepattern
350
38
  3
Realistic
350
33
  3
Thicken
350
37
  0
LAYOUT
  5
1E
102
{ACAD_REACTORS
330
1A
102
}
330
1A
100
AcDbPlotSettings
  1

  2
none_device
  4

  6

 40
0.0
 41
0.0
 42
0.0
 43
0.0
 44
0.0
 45
0.0
 46
0.0
 47
0.0
 48
0.0
 49
0.0
140
0.0
141
0.0
142
1.0
143
1.0
 70
   688
 72
     0
 73
     0
 74
     5
  7

 75
    16
 76
     0
 77
     2
 78
   300
147
1.0
148
0.0
149
0.0
100
AcDbLayout
  1
Layout1
 70
     1
 71
     1
 10
0.0
 20
0.0
 11
12.0
 21
9.0
 12
0.0
 22
0.0
 32
0.0
 14
1.000000000000000E+20
 24
1.000000000000000E+20
 34
1.000000000000000E+20
 15
-1.000000000000000E+20
 25
-1.000000000000000E+20
 35
-1.000000000000000E+20
146
0.0
 13
0.0
 23
0.0
 33
0.0
 16
1.0
 26
0.0
 36
0.0
 17
0.0
 27
1.0
 37
0.0
 76
     0
330
1B
  0
LAYOUT
  5
26
102
{ACAD_REACTORS
330
1A
102
}
330
1A
100
AcDbPlotSettings
  1

  2
none_device
  4

  6

 40
0.0
 41
0.0
 42
0.0
 43
0.0
 44
0.0
 45
0.0
 46
0.0
 47
0.0
 48
0.0
 49
0.0
140
0.0
141
0.0
142
1.0
143
1.0
 70
   688
 72
     0
 73
     0
 74
     5
  7

 75
    16
 76
     0
 77
     2
 78
   300
147
1.0
148
0.0
149
0.0
100
AcDbLayout
  1
Layout2
 70
     1
 71
     2
 10
0.0
 20
0.0
 11
0.0
 21
0.0
 12
0.0
 22
0.0
 32
0.0
 14
0.0
 24
0.0
 34
0.0
 15
0.0
 25
0.0
 35
0.0
146
0.0
 13
0.0
 23
0.0
 33
0.0
 16
1.0
 26
0.0
 36
0.0
 17
0.0
 27
1.0
 37
0.0
 76
     0
330
23
  0
LAYOUT
  5
22
102
{ACAD_REACTORS
330
1A
102
}
330
1A
100
AcDbPlotSettings
  1

  2
none_device
  4

  6

 40
0.0
 41
0.0
 42
0.0
 43
0.0
 44
0.0
 45
0.0
 46
0.0
 47
0.0
 48
0.0
 49
0.0
140
0.0
141
0.0
142
1.0
143
1.0
 70
  1712
 72
     0
 73
     0
 74
     0
  7

 75
     0
 76
     0
 77
     2
 78
   300
147
1.0
148
0.0
149
0.0
100
AcDbLayout
  1
Model
 70
     1
 71
     0
 10
0.0
 20
0.0
 11
12.0
 21
9.0
 12
0.0
 22
0.0
 32
0.0
 14
1.000000000000000E+20
 24
1.000000000000000E+20
 34
1.000000000000000E+20
 15
-1.000000000000000E+20
 25
-1.000000000000000E+20
 35
-1.000000000000000E+20
146
0.0
 13
0.0
 23
0.0
 33
0.0
 16
1.0
 26
0.0
 36
0.0
 17
0.0
 27
1.0
 37
0.0
 76
     0
330
1F
331
29
  0
MATERIAL
  5
3D
102
{ACAD_REACTORS
330
3B
102
}
330
3B
100
AcDbMaterial
  1
ByBlock
 72
     1
 94
      127
  0
MATERIAL
  5
3C
102
{ACAD_REACTORS
330
3B
102
}
330
3B
100
AcDbMaterial
  1
ByLayer
 72
     1
 94
      127
  0
MATERIAL
  5
3E
102
{ACAD_REACTORS
330
3B
102
}
330
3B
100
AcDbMaterial
  1
Global
 72
     1
 94
      127
  0
MLINESTYLE
  5
18
102
{ACAD_REACTORS
330
17
102
}
330
17
100
AcDbMlineStyle
  2
Standard
 70
     0
  3

 62
   256
 51
90.0
 52
90.0
 71
     2
 49
0.5
 62
   256
  6
BYLAYER
 49
-0.5
 62
   256
  6
BYLAYER
  0
ACDBPLACEHOLDER
  5
F
102
{ACAD_REACTORS
330
E
102
}
330
E
  0
VISUALSTYLE
  5
2F
102
{ACAD_REACTORS
330
2A
102
}
330
2A
100
AcDbVisualStyle
  2
2dWireframe
 70
     4
177
     2
291
     0
 71
     0
176
     1
 72
     2
176
     1
 73
     0
176
     1
 90
        0
176
     1
 40
-0.6
176
     1
 41
-30.0
176
     1
 62
     5
 63
     7
421
 16777215
176
     1
 74
     1
176
     1
 91
        4
176
     1
 64
     7
176
     1
 65
   257
176
     1
 75
     1
176
     1
175
     1
176
     1
 42
1.0
176
     1
 92
        0
176
     1
 66
   257
176
     1
 43
1.0
176
     1
 76
     1
176
     1
 77
     6
176
     1
 78
     2
176
     1
 67
     7
176
     1
 79
     5
176
     1
170
     0
176
     1
171
     0
176
     1
290
     0
176
     1
 93
        1
176
     1
 44
0.0
176
     1
173
     0
176
     1
  0
VISUALSTYLE
  5
31
102
{ACAD_REACTORS
330
2A
102
}
330
2A
100
AcDbVisualStyle
  2
3D Hidden
 70
     6
177
     2
291
     0
 71
     1
176
     1
 72
     2
176
     1
 73
     2
176
     1
 90
        0
176
     1
 40
-0.6
176
     1
 41
-30.0
176
     1
 62
     5
 63
     7
421
 16777215
176
     1
 74
     2
176
     1
 91
        2
176
     1
 64
     7
176
     1
 65
   257
176
     1
 75
     2
176
     1
175
     1
176
     1
 42
40.0
176
     1
 92
        0
176
     1
 66
   257
176
     1
 43
1.0
176
     1
 76
     1
176
     1
 77
     6
176
     1
 78
     2
176
     1
 67
     7
176
     1
 79
     3
176
     1
170
     0
176
     1
171
     0
176
     1
290
     0
176
     1
 93
        1
176
     1
 44
0.0
176
     1
173
     0
176
     1
  0
VISUALSTYLE
  5
30
102
{ACAD_REACTORS
330
2A
102
}
330
2A
100
AcDbVisualStyle
  2
3dWireframe
 70
     5
177
     2
291
     0
 71
     0
176
     1
 72
     2
176
     1
 73
     0
176
     1
 90
        0
176
     1
 40
-0.6
176
     1
 41
-30.0
176
     1
 62
     5
 63
     7
421
 16777215
176
     1
 74
     1
176
     1
 91
        4
176
     1
 64
     7
176
     1
 65
   257
176
     1
 75
     1
176
     1
175
     1
176
     1
 42
1.0
176
     1
 92
        0
176
     1
 66
   257
176
     1
 43
1.0
176
     1
 76
     1
176
     1
 77
     6
176
     1
 78
     2
176
     1
 67
     7
176
     1
 79
     5
176
     1
170
     0
176
     1
171
     0
176
     1
290
     0
176
     1
 93
        1
176
     1
 44
0.0
176
     1
173
     0
176
     1
  0
VISUALSTYLE
  5
32
102
{ACAD_REACTORS
330
2A
102
}
330
2A
100
AcDbVisualStyle
  2
Basic
 70
     7
177
     2
291
     1
 71
     1
176
     1
 72
     0
176
     1
 73
     1
176
     1
 90
        0
176
     1
 40
-0.6
176
     1
 41
-30.0
176
     1
 62
     5
 63
     7
421
 16777215
176
     1
 74
     0
176
     1
 91
        4
176
     1
 64
     7
176
     1
 65
   257
176
     1
 75
     1
176
     1
175
     1
176
     1
 42
1.0
176
     1
 92
        8
176
     1
 66
     7
176
     1
 43
1.0
176
     1
 76
     1
176
     1
 77
     6
176
     1
 78
     2
176
     1
 67
     7
176
     1
 79
     5
176
     1
170
     0
176
     1
171
     0
176
     1
290
     0
176
     1
 93
        1
176
     1
 44
0.0
176
     1
173
     0
176
     1
  0
VISUALSTYLE
  5
36
102
{ACAD_REACTORS
330
2A
102
}
330
2A
100
AcDbVisualStyle
  2
Brighten
 70
    12
177
     2
291
     1
 71
     2
176
     1
 72
     2
176
     1
 73
     0
176
     1
 90
        0
176
     1
 40
-0.6
176
     1
 41
-30.0
176
     1
 62
     5
 63
     7
421
 16777215
176
     1
 74
     1
176
     1
 91
        4
176
     1
 64
     7
176
     1
 65
   257
176
     1
 75
     1
176
     1
175
     1
176
     1
 42
1.0
176
     1
 92
        8
176
     1
 66
     7
176
     1
 43
1.0
176
     1
 76
     1
176
     1
 77
     6
176
     1
 78
     2
176
     1
 67
     7
176
     1
 79
     5
176
     1
170
     0
176
     1
171
     0
176
     1
290
     0
176
     1
 93
        1
176
     1
 44
50.0
176
     1
173
     0
176
     1
  0
VISUALSTYLE
  5
3A
102
{ACAD_REACTORS
330
2A
102
}
330
2A
100
AcDbVisualStyle
  2
ColorChange
 70
    16
177
     2
291
     1
 71
     2
176
     1
 72
     2
176
     1
 73
     3
176
     1
 90
        0
176
     1
 40
-0.6
176
     1
 41
-30.0
176
     1
 62
     5
 63
     8
421
  8421504
176
     1
 74
     1
176
     1
 91
        4
176
     1
 64
     7
176
     1
 65
   257
176
     1
 75
     1
176
     1
175
     1
176
     1
 42
1.0
176
     1
 92
        8
176
     1
 66
     8
424
  8421504
176
     1
 43
1.0
176
     1
 76
     1
176
     1
 77
     6
176
     1
 78
     2
176
     1
 67
     7
176
     1
 79
     5
176
     1
170
     0
176
     1
171
     0
176
     1
290
     0
176
     1
 93
        1
176
     1
 44
0.0
176
     1
173
     0
176
     1
  0
VISUALSTYLE
  5
34
102
{ACAD_REACTORS
330
2A
102
}
330
2A
100
AcDbVisualStyle
  2
Conceptual
 70
     9
177
     2
291
     0
 71
     3
176
     1
 72
     2
176
     1
 73
     0
176
     1
 90
        0
176
     1
 40
-0.6
176
     1
 41
-30.0
176
     1
 62
     5
 63
     7
421
 16777215
176
     1
 74
     2
176
     1
 91
        2
176
     1
 64
     7
176
     1
 65
   257
176
     1
 75
     1
176
     1
175
     1
176
     1
 42
40.0
176
     1
 92
        8
176
     1
 66
     7
176
     1
 43
1.0
176
     1
 76
     1
176
     1
 77
     6
176
     1
 78
     2
176
     1
 67
     7
176
     1
 79
     3
176
     1
170
     0
176
     1
171
     0
176
     1
290
     0
176
     1
 93
        1
176
     1
 44
0.0
176
     1
173
     0
176
     1
  0
VISUALSTYLE
  5
35
102
{ACAD_REACTORS
330
2A
102
}
330
2A
100
AcDbVisualStyle
  2
Dim
 70
    11
177
     2
291
     1
 71
     2
176
     1
 72
     2
176
     1
 73
     0
176
     1
 90
        0
176
     1
 40
-0.6
176
     1
 41
-30.0
176
     1
 62
     5
 63
     7
421
 16777215
176
     1
 74
     1
176
     1
 91
        4
176
     1
 64
     7
176
     1
 65
   257
176
     1
 75
     1
176
     1
175
     1
176
     1
 42
1.0
176
     1
 92
        8
176
     1
 66
     7
176
     1
 43
1.0
176
     1
 76
     1
176
     1
 77
     6
176
     1
 78
     2
176
     1
 67
     7
176
     1
 79
     5
176
     1
170
     0
176
     1
171
     0
176
     1
290
     0
176
     1
 93
        1
176
     1
 44
-50.0
176
     1
173
     0
176
     1
  0
VISUALSTYLE
  5
39
102
{ACAD_REACTORS
330
2A
102
}
330
2A
100
AcDbVisualStyle
  2
Facepattern
 70
    15
177
     2
291
     1
 71
     2
176
     1
 72
     2
176
     1
 73
     0
176
     1
 90
        0
176
     1
 40
-0.6
176
     1
 41
-30.0
176
     1
 62
     5
 63
     7
421
 16777215
176
     1
 74
     1
176
     1
 91
        4
176
     1
 64
     7
176
     1
 65
   257
176
     1
 75
     1
176
     1
175
     1
176
     1
 42
1.0
176
     1
 92
        8
176
     1
 66
     7
176
     1
 43
1.0
176
     1
 76
     1
176
     1
 77
     6
176
     1
 78
     2
176
     1
 67
     7
176
     1
 79
     5
176
     1
170
     0
176
     1
171
     0
176
     1
290
     0
176
     1
 93
        1
176
     1
 44
0.0
176
     1
173
     0
176
     1
  0
VISUALSTYLE
  5
2B
102
{ACAD_REACTORS
330
2A
102
}
330
2A
100
AcDbVisualStyle
  2
Flat
 70
     0
177
     2
291
     1
 71
     2
176
     1
 72
     1
176
     1
 73
     1
176
     1
 90
        2
176
     1
 40
-0.6
176
     1
 41
30.0
176
     1
 62
     5
 63
     7
421
 16777215
176
     1
 74
     0
176
     1
 91
        4
176
     1
 64
     7
176
     1
 65
   257
176
     1
 75
     1
176
     1
175
     1
176
     1
 42
1.0
176
     1
 92
        8
176
     1
 66
     7
176
     1
 43
1.0
176
     1
 76
     1
176
     1
 77
     6
176
     1
 78
     2
176
     1
 67
     7
176
     1
 79
     5
176
     1
170
     0
176
     1
171
     0
176
     1
290
     0
176
     1
 93
       13
176
     1
 44
0.0
176
     1
173
     0
176
     1
  0
VISUALSTYLE
  5
2C
102
{ACAD_REACTORS
330
2A
102
}
330
2A
100
AcDbVisualStyle
  2
FlatWithEdges
 70
     1
177
     2
291
     1
 71
     2
176
     1
 72
     1
176
     1
 73
     1
176
     1
 90
        2
176
     1
 40
-0.6
176
     1
 41
30.0
176
     1
 62
     5
 63
     7
421
 16777215
176
     1
 74
     1
176
     1
 91
        4
176
     1
 64
     7
176
     1
 65
   257
176
     1
 75
     1
176
     1
175
     1
176
     1
 42
1.0
176
     1
 92
        0
176
     1
 66
   257
176
     1
 43
1.0
176
     1
 76
     1
176
     1
 77
     6
176
     1
 78
     2
176
     1
 67
     7
176
     1
 79
     5
176
     1
170
     0
176
     1
171
     0
176
     1
290
     0
176
     1
 93
       13
176
     1
 44
0.0
176
     1
173
     0
176
     1
  0
VISUALSTYLE
  5
2D
102
{ACAD_REACTORS
330
2A
102
}
330
2A
100
AcDbVisualStyle
  2
Gouraud
 70
     2
177
     2
291
     1
 71
     2
176
     1
 72
     2
176
     1
 73
     1
176
     1
 90
        2
176
     1
 40
-0.6
176
     1
 41
30.0
176
     1
 62
     5
 63
     7
421
 16777215
176
     1
 74
     0
176
     1
 91
        4
176
     1
 64
     7
176
     1
 65
   257
176
     1
 75
     1
176
     1
175
     1
176
     1
 42
1.0
176
     1
 92
        0
176
     1
 66
     7
176
     1
 43
1.0
176
     1
 76
     1
176
     1
 77
     6
176
     1
 78
     2
176
     1
 67
     7
176
     1
 79
     5
176
     1
170
     0
176
     1
171
     0
176
     1
290
     0
176
     1
 93
       13
176
     1
 44
0.0
176
     1
173
     0
176
     1
  0
VISUALSTYLE
  5
2E
102
{ACAD_REACTORS
330
2A
102
}
330
2A
100
AcDbVisualStyle
  2
GouraudWithEdges
 70
     3
177
     2
291
     1
 71
     2
176
     1
 72
     2
176
     1
 73
     1
176
     1
 90
        2
176
     1
 40
-0.6
176
     1
 41
30.0
176
     1
 62
     5
 63
     7
421
 16777215
176
     1
 74
     1
176
     1
 91
        4
176
     1
 64
     7
176
     1
 65
   257
176
     1
 75
     1
176
     1
175
     1
176
     1
 42
1.0
176
     1
 92
        0
176
     1
 66
   257
176
     1
 43
1.0
176
     1
 76
     1
176
     1
 77
     6
176
     1
 78
     2
176
     1
 67
     7
176
     1
 79
     5
176
     1
170
     0
176
     1
171
     0
176
     1
290
     0
176
     1
 93
       13
176
     1
 44
0.0
176
     1
173
     0
176
     1
  0
VISUALSTYLE
  5
38
102
{ACAD_REACTORS
330
2A
102
}
330
2A
100
AcDbVisualStyle
  2
Linepattern
 70
    14
177
     2
291
     1
 71
     2
176
     1
 72
     2
176
     1
 73
     0
176
     1
 90
        0
176
     1
 40
-0.6
176
     1
 41
-30.0
176
     1
 62
     5
 63
     7
421
 16777215
176
     1
 74
     1
176
     1
 91
        4
176
     1
 64
     7
176
     1
 65
   257
176
     1
 75
     7
176
     1
175
     7
176
     1
 42
1.0
176
     1
 92
        8
176
     1
 66
     7
176
     1
 43
1.0
176
     1
 76
     1
176
     1
 77
     6
176
     1
 78
     2
176
     1
 67
     7
176
     1
 79
     5
176
     1
170
     0
176
     1
171
     0
176
     1
290
     0
176
     1
 93
        1
176
     1
 44
0.0
176
     1
173
     0
176
     1
  0
VISUALSTYLE
  5
33
102
{ACAD_REACTORS
330
2A
102
}
330
2A
100
AcDbVisualStyle
  2
Realistic
 70
     8
177
     2
291
     0
 71
     2
176
     1
 72
     2
176
     1
 73
     0
176
     1
 90
        0
176
     1
 40
-0.6
176
     1
 41
-30.0
176
     1
 62
     5
 63
     7
421
 16777215
176
     1
 74
     1
176
     1
 91
        0
176
     1
 64
     7
176
     1
 65
   257
176
     1
 75
     1
176
     1
175
     1
176
     1
 42
1.0
176
     1
 92
        8
176
     1
 66
     8
424
  7895160
176
     1
 43
1.0
176
     1
 76
     1
176
     1
 77
     6
176
     1
 78
     2
176
     1
 67
     7
176
     1
 79
     5
176
     1
170
     0
176
     1
171
     0
176
     1
290
     0
176
     1
 93
       13
176
     1
 44
0.0
176
     1
173
     0
176
     1
  0
VISUALSTYLE
  5
37
102
{ACAD_REACTORS
330
2A
102
}
330
2A
100
AcDbVisualStyle
  2
Thicken
 70
    13
177
     2
291
     1
 71
     2
176
     1
 72
     2
176
     1
 73
     0
176
     1
 90
        0
176
     1
 40
-0.6
176
     1
 41
-30.0
176
     1
 62
     5
 63
     7
421
 16777215
176
     1
 74
     1
176
     1
 91
        4
176
     1
 64
     7
176
     1
 65
   257
176
     1
 75
     1
176
     1
175
     1
176
     1
 42
1.0
176
     1
 92
       12
176
     1
 66
     7
176
     1
 43
1.0
176
     1
 76
     1
176
     1
 77
     6
176
     1
 78
     2
176
     1
 67
     7
176
     1
 79
     5
176
     1
170
     0
176
     1
171
     0
176
     1
290
     0
176
     1
 93
        1
176
     1
 44
0.0
176
     1
173
     0
176
     1
  0
ENDSEC
  0
EOF
