  0
SECTION
  2
HEADER
  9
$ACADVER
  1
AC1024
  9
$ACADMAINTVER
 70
     6
  9
$DWGCODEPAGE
  3
UNDEFINED
  9
$INSBASE
 10
0.0
 20
0.0
 30
0.0
  9
$EXTMIN
 10
1.000000000000000E+20
 20
1.000000000000000E+20
 30
1.000000000000000E+20
  9
$EXTMAX
 10
-1.000000000000000E+20
 20
-1.000000000000000E+20
 30
-1.000000000000000E+20
  9
$LIMMIN
 10
0.0
 20
0.0
  9
$LIMMAX
 10
12.0
 20
9.0
  9
$ORTHOMODE
 70
     0
  9
$REGENMODE
 70
     1
  9
$FILLMODE
 70
     1
  9
$QTEXTMODE
 70
     0
  9
$MIRRTEXT
 70
     1
  9
$LTSCALE
 40
1.0
  9
$ATTMODE
 70
     1
  9
$TEXTSIZE
 40
0.2
  9
$TRACEWID
 40
0.05
  9
$TEXTSTYLE
  7
Standard
  9
$CLAYER
  8
0
  9
$CELTYPE
  6
ByLayer
  9
$CECOLOR
 62
   256
  9
$CELTSCALE
 40
1.0
  9
$DISPSILH
 70
     0
  9
$DIMSCALE
 40
1.0
  9
$DIMASZ
 40
0.18
  9
$DIMEXO
 40
0.0625
  9
$DIMDLI
 40
0.38
  9
$DIMRND
 40
0.0
  9
$DIMDLE
 40
0.0
  9
$DIMEXE
 40
0.18
  9
$DIMTP
 40
0.0
  9
$DIMTM
 40
0.0
  9
$DIMTXT
 40
0.18
  9
$DIMCEN
 40
0.09
  9
$DIMTSZ
 40
0.0
  9
$DIMTOL
 70
     0
  9
$DIMLIM
 70
     0
  9
$DIMTIH
 70
     1
  9
$DIMTOH
 70
     1
  9
$DIMSE1
 70
     0
  9
$DIMSE2
 70
     0
  9
$DIMTAD
 70
     0
  9
$DIMZIN
 70
     0
  9
$DIMBLK
  1

  9
$DIMASO
 70
     1
  9
$DIMSHO
 70
     1
  9
$DIMPOST
  1

  9
$DIMAPOST
  1

  9
$DIMALT
 70
     0
  9
$DIMALTD
 70
     2
  9
$DIMALTF
 40
25.4
  9
$DIMLFAC
 40
1.0
  9
$DIMTOFL
 70
     0
  9
$DIMTVP
 40
0.0
  9
$DIMTIX
 70
     0
  9
$DIMSOXD
 70
     0
  9
$DIMSAH
 70
     0
  9
$DIMBLK1
  1

  9
$DIMBLK2
  1

  9
$DIMSTYLE
  2
Standard
  9
$DIMCLRD
 70
     0
  9
$DIMCLRE
 70
     0
  9
$DIMCLRT
 70
     0
  9
$DIMTFAC
 40
1.0
  9
$DIMGAP
 40
0.09
  9
$DIMJUST
 70
     0
  9
$DIMSD1
 70
     0
  9
$DIMSD2
 70
     0
  9
$DIMTOLJ
 70
     1
  9
$DIMTZIN
 70
     0
  9
$DIMALTZ
 70
     0
  9
$DIMALTTZ
 70
     0
  9
$DIMUPT
 70
     0
  9
$DIMDEC
 70
     4
  9
$DIMTDEC
 70
     4
  9
$DIMALTU
 70
     2
  9
$DIMALTTD
 70
     2
  9
$DIMTXSTY
  7
Standard
  9
$DIMAUNIT
 70
     0
  9
$DIMADEC
 70
     0
  9
$DIMALTRND
 40
0.0
  9
$DIMAZIN
 70
     0
  9
$DIMDSEP
 70
    46
  9
$DIMATFIT
 70
     3
  9
$DIMFRAC
 70
     0
  9
$DIMLDRBLK
  1

  9
$DIMLUNIT
 70
     2
  9
$DIMLWD
 70
    -2
  9
$DIMLWE
 70
    -2
  9
$DIMTMOVE
 70
     0
  9
$DIMFXL
 40
1.0
  9
$DIMFXLON
 70
     0
  9
$DIMJOGANG
 40
0.7853981633974483
  9
$DIMTFILL
 70
     0
  9
$DIMTFILLCLR
 70
     0
  9
$DIMARCSYM
 70
     0
  9
$DIMLTYPE
  6

  9
$DIMLTEX1
  6

  9
$DIMLTEX2
  6

  9
$DIMTXTDIRECTION
 70
     0
  9
$LUNITS
 70
     2
  9
$LUPREC
 70
     4
  9
$SKETCHINC
 40
0.1
  9
$FILLETRAD
 40
0.5
  9
$AUNITS
 70
     0
  9
$AUPREC
 70
     0
  9
$MENU
  1
.
  9
$ELEVATION
 40
0.0
  9
$PELEVATION
 40
0.0
  9
$THICKNESS
 40
0.0
  9
$LIMCHECK
 70
     0
  9
$CHAMFERA
 40
0.5
  9
$CHAMFERB
 40
0.5
  9
$CHAMFERC
 40
1.0
  9
$CHAMFERD
 40
0.0
  9
$SKPOLY
 70
     0
  9
$TDCREATE
 40
2457917.585370359
  9
$TDUCREATE
 40
2457917.21037037
  9
$TDUPDATE
 40
2457917.585370359
  9
$TDUUPDATE
 40
2457917.21037037
  9
$TDINDWG
 40
0.0000000116
  9
$TDUSRTIMER
 40
0.0000000116
  9
$USRTIMER
 70
     1
  9
$ANGBASE
 50
0.0
  9
$ANGDIR
 70
     0
  9
$PDMODE
 70
     0
  9
$PDSIZE
 40
0.0
  9
$PLINEWID
 40
0.0
  9
$SPLFRAME
 70
     0
  9
$SPLINETYPE
 70
     6
  9
$SPLINESEGS
 70
     8
  9
$HANDSEED
  5
124
  9
$SURFTAB1
 70
     6
  9
$SURFTAB2
 70
     6
  9
$SURFTYPE
 70
     6
  9
$SURFU
 70
     6
  9
$SURFV
 70
     6
  9
$UCSBASE
  2

  9
$UCSNAME
  2

  9
$UCSORG
 10
0.0
 20
0.0
 30
0.0
  9
$UCSXDIR
 10
1.0
 20
0.0
 30
0.0
  9
$UCSYDIR
 10
0.0
 20
1.0
 30
0.0
  9
$UCSORTHOREF
  2

  9
$UCSORTHOVIEW
 70
     0
  9
$UCSORGTOP
 10
0.0
 20
0.0
 30
0.0
  9
$UCSORGBOTTOM
 10
0.0
 20
0.0
 30
0.0
  9
$UCSORGLEFT
 10
0.0
 20
0.0
 30
0.0
  9
$UCSORGRIGHT
 10
0.0
 20
0.0
 30
0.0
  9
$UCSORGFRONT
 10
0.0
 20
0.0
 30
0.0
  9
$UCSORGBACK
 10
0.0
 20
0.0
 30
0.0
  9
$PUCSBASE
  2

  9
$PUCSNAME
  2

  9
$PUCSORG
 10
0.0
 20
0.0
 30
0.0
  9
$PUCSXDIR
 10
1.0
 20
0.0
 30
0.0
  9
$PUCSYDIR
 10
0.0
 20
1.0
 30
0.0
  9
$PUCSORTHOREF
  2

  9
$PUCSORTHOVIEW
 70
     0
  9
$PUCSORGTOP
 10
0.0
 20
0.0
 30
0.0
  9
$PUCSORGBOTTOM
 10
0.0
 20
0.0
 30
0.0
  9
$PUCSORGLEFT
 10
0.0
 20
0.0
 30
0.0
  9
$PUCSORGRIGHT
 10
0.0
 20
0.0
 30
0.0
  9
$PUCSORGFRONT
 10
0.0
 20
0.0
 30
0.0
  9
$PUCSORGBACK
 10
0.0
 20
0.0
 30
0.0
  9
$USERI1
 70
     0
  9
$USERI2
 70
     0
  9
$USERI3
 70
     0
  9
$USERI4
 70
     0
  9
$USERI5
 70
     0
  9
$USERR1
 40
0.0
  9
$USERR2
 40
0.0
  9
$USERR3
 40
0.0
  9
$USERR4
 40
0.0
  9
$USERR5
 40
0.0
  9
$WORLDVIEW
 70
     1
  9
$SHADEDGE
 70
     3
  9
$SHADEDIF
 70
    70
  9
$TILEMODE
 70
     1
  9
$MAXACTVP
 70
    64
  9
$PINSBASE
 10
0.0
 20
0.0
 30
0.0
  9
$PLIMCHECK
 70
     0
  9
$PEXTMIN
 10
1.000000000000000E+20
 20
1.000000000000000E+20
 30
1.000000000000000E+20
  9
$PEXTMAX
 10
-1.000000000000000E+20
 20
-1.000000000000000E+20
 30
-1.000000000000000E+20
  9
$PLIMMIN
 10
0.0
 20
0.0
  9
$PLIMMAX
 10
12.0
 20
9.0
  9
$UNITMODE
 70
     0
  9
$VISRETAIN
 70
     1
  9
$PLINEGEN
 70
     0
  9
$PSLTSCALE
 70
     1
  9
$TREEDEPTH
 70
  3020
  9
$CMLSTYLE
  2
Standard
  9
$CMLJUST
 70
     0
  9
$CMLSCALE
 40
1.0
  9
$PROXYGRAPHICS
 70
     1
  9
$MEASUREMENT
 70
     0
  9
$CELWEIGHT
370
    -1
  9
$ENDCAPS
280
     0
  9
$JOINSTYLE
280
     0
  9
$LWDISPLAY
290
     1
  9
$INSUNITS
 70
     1
  9
$HYPERLINKBASE
  1

  9
$STYLESHEET
  1

  9
$XEDIT
290
     1
  9
$CEPSNTYPE
380
     0
  9
$PSTYLEMODE
290
     1
  9
$FINGERPRINTGUID
  2
{BFF33F8A-7C8D-5A68-734A-C70993FC5A8B}
  9
$VERSIONGUID
  2
{FAEB1C32-E019-11D5-929B-00C0DF256EC4}
  9
$EXTNAMES
290
     1
  9
$PSVPSCALE
 40
0.0
  9
$OLESTARTUP
290
     0
  9
$SORTENTS
280
   127
  9
$INDEXCTL
280
     0
  9
$HIDETEXT
280
     1
  9
$XCLIPFRAME
280
     2
  9
$HALOGAP
280
     0
  9
$OBSCOLOR
 70
   257
  9
$OBSLTYPE
280
     0
  9
$INTERSECTIONDISPLAY
280
     0
  9
$INTERSECTIONCOLOR
 70
   257
  9
$DIMASSOC
280
     2
  9
$PROJECTNAME
  1

  9
$CAMERADISPLAY
290
     0
  9
$LENSLENGTH
 40
50.0
  9
$CAMERAHEIGHT
 40
0.0
  9
$STEPSPERSEC
 40
2.0
  9
$STEPSIZE
 40
6.0
  9
$3DDWFPREC
 40
2.0
  9
$PSOLWIDTH
 40
0.25
  9
$PSOLHEIGHT
 40
4.0
  9
$LOFTANG1
 40
1.570796326794897
  9
$LOFTANG2
 40
1.570796326794897
  9
$LOFTMAG1
 40
0.0
  9
$LOFTMAG2
 40
0.0
  9
$LOFTPARAM
 70
     7
  9
$LOFTNORMALS
280
     1
  9
$LATITUDE
 40
37.795
  9
$LONGITUDE
 40
-122.394
  9
$NORTHDIRECTION
 40
0.0
  9
$TIMEZONE
 70
 -8000
  9
$LIGHTGLYPHDISPLAY
280
     1
  9
$TILEMODELIGHTSYNCH
280
     1
  9
$CMATERIAL
347
3C
  9
$SOLIDHIST
280
     1
  9
$SHOWHIST
280
     1
  9
$DWFFRAME
280
     2
  9
$DGNFRAME
280
     2
  9
$REALWORLDSCALE
290
     1
  9
$INTERFERECOLOR
 62
   256
  9
$CSHADOW
280
     0
  9
$SHADOWPLANELOCATION
 40
0.0
  0
ENDSEC
  0
SECTION
  2
CLASSES
  0
CLASS
  1
ACDBDICTIONARYWDFLT
  2
AcDbDictionaryWithDefault
  3
ObjectDBX Classes
 90
        0
 91
        4
280
     0
281
     0
  0
CLASS
  1
VISUALSTYLE
  2
AcDbVisualStyle
  3
ObjectDBX Classes
 90
     4095
 91
        4
280
     0
281
     0
  0
CLASS
  1
MATERIAL
  2
AcDbMaterial
  3
ObjectDBX Classes
 90
     1153
 91
        4
280
     0
281
     0
  0
CLASS
  1
SUN
  2
AcDbSun
  3
SCENEOE
 90
     1024
 91
        4
280
     0
281
     0
  0
ENDSEC
  0
SECTION
  2
TABLES
  0
TABLE
  2
VPORT
  5
8
330
0
100
AcDbSymbolTable
 70
     1
  0
VPORT
  5
29
330
8
100
AcDbSymbolTableRecord
100
AcDbViewportTableRecord
  2
*Active
 70
     0
 10
0.0
 20
0.0
 11
1.0
 21
1.0
 12
0.0
 22
0.0
 13
0.0
 23
0.0
 14
0.5
 24
0.5
 15
0.5
 25
0.5
 16
0.0
 26
0.0
 36
1.0
 17
91.00082462281999
 27
-128.4993055234307
 37
0.0
 40
256.9986110468615
 41
0.7081814508812795
 42
50.0
 43
0.0
 44
0.0
 50
0.0
 51
0.0
 71
     0
 72
   100
 73
     1
 74
     3
 75
     0
 76
     0
 77
     0
 78
     0
281
     0
 65
     1
110
0.0
120
0.0
130
0.0
111
1.0
121
0.0
131
0.0
112
0.0
122
1.0
132
0.0
 79
     0
146
0.0
 60
     3
 61
     5
292
     1
282
     1
141
0.0
142
0.0
 63
   250
361
3F
  0
ENDTAB
  0
TABLE
  2
LTYPE
  5
5
330
0
100
AcDbSymbolTable
 70
     3
  0
LTYPE
  5
14
330
5
100
AcDbSymbolTableRecord
100
AcDbLinetypeTableRecord
  2
ByBlock
 70
     0
  3

 72
    65
 73
     0
 40
0.0
  0
LTYPE
  5
15
330
5
100
AcDbSymbolTableRecord
100
AcDbLinetypeTableRecord
  2
ByLayer
 70
     0
  3

 72
    65
 73
     0
 40
0.0
  0
LTYPE
  5
16
330
5
100
AcDbSymbolTableRecord
100
AcDbLinetypeTableRecord
  2
Continuous
 70
     0
  3
Solid line
 72
    65
 73
     0
 40
0.0
  0
LTYPE
  5
DB
330
5
100
AcDbSymbolTableRecord
100
AcDbLinetypeTableRecord
  2
AI-Linetype-1
 70
     0
  3
Adobe Illustrator Linetype No. 1
 72
    65
 73
     2
 40
1.411111110758333
 49
0.7055555553791667
 74
     0
 49
-0.7055555553791667
 74
     0
  0
LTYPE
  5
120
330
5
100
AcDbSymbolTableRecord
100
AcDbLinetypeTableRecord
  2
AI-Linetype-2
 70
     0
  3
Adobe Illustrator Linetype No. 2
 72
    65
 73
     2
 40
1.411111110758333
 49
0.7055555553791667
 74
     0
 49
-0.7055555553791667
 74
     0
  0
ENDTAB
  0
TABLE
  2
LAYER
  5
2
330
0
100
AcDbSymbolTable
 70
     2
  0
LAYER
  5
10
330
2
100
AcDbSymbolTableRecord
100
AcDbLayerTableRecord
  2
0
 70
     0
 62
     7
  6
Continuous
370
    -3
390
F
347
3E
  0
LAYER
  5
40
330
2
100
AcDbSymbolTableRecord
100
AcDbLayerTableRecord
  2
_U+30EC_U+30A4_U+30E4_U+30FC 1
 70
     0
 62
     7
  6
Continuous
370
    -3
390
F
347
3E
  0
ENDTAB
  0
TABLE
  2
STYLE
  5
3
330
0
100
AcDbSymbolTable
 70
     1
  0
STYLE
  5
11
330
3
100
AcDbSymbolTableRecord
100
AcDbTextStyleTableRecord
  2
Standard
 70
     0
 40
0.0
 41
1.0
 50
0.0
 71
     0
 42
0.2
  3
txt
  4

  0
ENDTAB
  0
TABLE
  2
VIEW
  5
6
330
0
100
AcDbSymbolTable
 70
     0
  0
ENDTAB
  0
TABLE
  2
UCS
  5
7
330
0
100
AcDbSymbolTable
 70
     0
  0
ENDTAB
  0
TABLE
  2
APPID
  5
9
330
0
100
AcDbSymbolTable
 70
     1
  0
APPID
  5
12
330
9
100
AcDbSymbolTableRecord
100
AcDbRegAppTableRecord
  2
ACAD
 70
     0
  0
ENDTAB
  0
TABLE
  2
DIMSTYLE
  5
A
330
0
100
AcDbSymbolTable
 70
     1
100
AcDbDimStyleTable
  0
DIMSTYLE
105
27
330
A
100
AcDbSymbolTableRecord
100
AcDbDimStyleTableRecord
  2
Standard
 70
     0
178
     0
340
11
  0
ENDTAB
  0
TABLE
  2
BLOCK_RECORD
  5
1
330
0
100
AcDbSymbolTable
 70
     7
  0
BLOCK_RECORD
  5
1F
330
1
100
AcDbSymbolTableRecord
100
AcDbBlockTableRecord
  2
*Model_Space
340
22
 70
     0
280
     1
281
     0
  0
BLOCK_RECORD
  5
1B
330
1
100
AcDbSymbolTableRecord
100
AcDbBlockTableRecord
  2
*Paper_Space
340
1E
 70
     0
280
     1
281
     0
  0
BLOCK_RECORD
  5
23
330
1
100
AcDbSymbolTableRecord
100
AcDbBlockTableRecord
  2
*Paper_Space0
340
26
 70
     0
280
     1
281
     0
  0
BLOCK_RECORD
  5
58
330
1
100
AcDbSymbolTableRecord
100
AcDbBlockTableRecord
  2
block 2
340
0
102
{BLKREFS
331
59
102
}
 70
     0
280
     1
281
     0
  0
BLOCK_RECORD
  5
75
330
1
100
AcDbSymbolTableRecord
100
AcDbBlockTableRecord
  2
block 3
340
0
102
{BLKREFS
331
76
102
}
 70
     0
280
     1
281
     0
  0
BLOCK_RECORD
  5
98
330
1
100
AcDbSymbolTableRecord
100
AcDbBlockTableRecord
  2
block 4
340
0
102
{BLKREFS
331
99
102
}
 70
     0
280
     1
281
     0
  0
BLOCK_RECORD
  5
B6
330
1
100
AcDbSymbolTableRecord
100
AcDbBlockTableRecord
  2
block 5
340
0
102
{BLKREFS
331
B7
102
}
 70
     0
280
     1
281
     0
  0
BLOCK_RECORD
  5
CD
330
1
100
AcDbSymbolTableRecord
100
AcDbBlockTableRecord
  2
block 6
340
0
102
{BLKREFS
331
CE
102
}
 70
     0
280
     1
281
     0
  0
BLOCK_RECORD
  5
F5
330
1
100
AcDbSymbolTableRecord
100
AcDbBlockTableRecord
  2
block 7
340
0
102
{BLKREFS
331
F6
102
}
 70
     0
280
     1
281
     0
  0
ENDTAB
  0
ENDSEC
  0
SECTION
  2
BLOCKS
  0
BLOCK
  5
20
330
1F
100
AcDbEntity
  8
0
100
AcDbBlockBegin
  2
*Model_Space
 70
     0
 10
0.0
 20
0.0
 30
0.0
  3
*Model_Space
  1

  0
ENDBLK
  5
21
330
1F
100
AcDbEntity
  8
0
100
AcDbBlockEnd
  0
BLOCK
  5
1C
330
1B
100
AcDbEntity
 67
     1
  8
0
100
AcDbBlockBegin
  2
*Paper_Space
 70
     0
 10
0.0
 20
0.0
 30
0.0
  3
*Paper_Space
  1

  0
ENDBLK
  5
1D
330
1B
100
AcDbEntity
 67
     1
  8
0
100
AcDbBlockEnd
  0
BLOCK
  5
24
330
23
100
AcDbEntity
  8
0
100
AcDbBlockBegin
  2
*Paper_Space0
 70
     0
 10
0.0
 20
0.0
 30
0.0
  3
*Paper_Space0
  1

  0
ENDBLK
  5
25
330
23
100
AcDbEntity
  8
0
100
AcDbBlockEnd
  0
BLOCK
  5
5A
330
58
100
AcDbEntity
  8
0
100
AcDbBlockBegin
  2
block 2
 70
     0
 10
0.0
 20
0.0
 30
0.0
  3
block 2
  1

  0
SPLINE
  5
5C
330
58
100
AcDbEntity
  8
_U+30EC_U+30A4_U+30E4_U+30FC 1
370
     0
100
AcDbSpline
210
0.0
220
0.0
230
1.0
 70
    11
 71
     3
 72
    53
 73
    49
 74
     0
 42
0.0000000001
 43
0.0000000001
 12
1.0
 22
0.0
 32
0.0
 13
1.0
 23
0.0
 33
0.0
 40
0.0
 40
0.0
 40
0.0
 40
0.0
 40
1.0
 40
1.0
 40
1.0
 40
2.0
 40
2.0
 40
2.0
 40
3.0
 40
3.0
 40
3.0
 40
4.0
 40
4.0
 40
4.0
 40
5.0
 40
5.0
 40
5.0
 40
6.0
 40
6.0
 40
6.0
 40
7.0
 40
7.0
 40
7.0
 40
8.0
 40
8.0
 40
8.0
 40
9.0
 40
9.0
 40
9.0
 40
10.0
 40
10.0
 40
10.0
 40
11.0
 40
11.0
 40
11.0
 40
12.0
 40
12.0
 40
12.0
 40
13.0
 40
13.0
 40
13.0
 40
14.0
 40
14.0
 40
14.0
 40
15.0
 40
15.0
 40
15.0
 40
16.0
 40
16.0
 40
16.0
 40
16.0
 10
44.52889267549973
 20
-172.0525471575077
 30
0.0
 10
44.45051675321029
 20
-172.0525471575077
 30
0.0
 10
44.34905869116968
 20
-172.03566618963
 30
0.0
 10
44.24742837435481
 20
-171.9722764327014
 30
0.0
 10
44.07396781667249
 20
-171.8623778867219
 30
0.0
 10
44.0527804794382
 20
-171.7311197487339
 30
0.0
 10
44.03383245426932
 20
-171.6232882600456
 30
0.0
 10
44.03383245426932
 20
-171.6232882600456
 30
0.0
 10
44.25586885829367
 20
-171.6232882600456
 30
0.0
 10
44.25586885829367
 20
-171.6232882600456
 30
0.0
 10
44.31099038605767
 20
-171.8220702695445
 30
0.0
 10
44.43794215468913
 20
-171.8516980907176
 30
0.0
 10
44.53095973279088
 20
-171.8516980907176
 30
0.0
 10
44.67065835471775
 20
-171.8516980907176
 30
0.0
 10
44.8229315751658
 20
-171.7521348311939
 30
0.0
 10
44.8229315751658
 20
-171.5195908859396
 30
0.0
 10
44.8229315751658
 20
-171.2636202913855
 30
0.0
 10
44.64309759083576
 20
-171.1936848530349
 30
0.0
 10
44.52251924885201
 20
-171.1936848530349
 30
0.0
 10
44.49082437038771
 20
-171.1936848530349
 30
0.0
 10
44.34905869116968
 20
-171.1936848530349
 30
0.0
 10
44.26017522765024
 20
-171.3228759337318
 30
0.0
 10
44.26017522765024
 20
-171.3228759337318
 30
0.0
 10
44.08464761267675
 20
-171.3039279085629
 30
0.0
 10
44.08464761267675
 20
-171.3039279085629
 30
0.0
 10
44.08464761267675
 20
-171.3039279085629
 30
0.0
 10
44.2052259546605
 20
-170.457467947837
 30
0.0
 10
44.2052259546605
 20
-170.457467947837
 30
0.0
 10
44.2052259546605
 20
-170.457467947837
 30
0.0
 10
44.9836452795527
 20
-170.457467947837
 30
0.0
 10
44.9836452795527
 20
-170.457467947837
 30
0.0
 10
44.9836452795527
 20
-170.457467947837
 30
0.0
 10
44.9836452795527
 20
-170.6521158427537
 30
0.0
 10
44.9836452795527
 20
-170.6521158427537
 30
0.0
 10
44.9836452795527
 20
-170.6521158427537
 30
0.0
 10
44.36800671633856
 20
-170.6521158427537
 30
0.0
 10
44.36800671633856
 20
-170.6521158427537
 30
0.0
 10
44.36800671633856
 20
-170.6521158427537
 30
0.0
 10
44.30254990211881
 20
-171.0751735683423
 30
0.0
 10
44.30254990211881
 20
-171.0751735683423
 30
0.0
 10
44.36387260175626
 20
-171.0414116325869
 30
0.0
 10
44.44638263862799
 20
-171.0011040154095
 30
0.0
 10
44.56472166854632
 20
-171.0011040154095
 30
0.0
 10
44.81862520580923
 20
-171.0011040154095
 30
0.0
 10
45.05564777519442
 20
-171.1874836811615
 30
0.0
 10
45.05564777519442
 20
-171.5006428607707
 30
0.0
 10
45.05564777519442
 20
-171.8179361549622
 30
0.0
 10
44.83137205910466
 20
-172.0525471575077
 30
0.0
 10
44.52889267549973
 20
-172.0525471575077
 30
0.0
  0
HATCH
  5
5D
330
58
100
AcDbEntity
  8
_U+30EC_U+30A4_U+30E4_U+30FC 1
 62
   179
420
  2234388
100
AcDbHatch
 10
0.0
 20
0.0
 30
0.0
210
0.0
220
0.0
230
1.0
  2
SOLID
 70
     1
 71
     0
 91
        1
 92
        1
 93
        1
 72
     4
 94
        3
 73
     0
 74
     1
 95
       53
 96
       49
 40
0.0
 40
0.0
 40
0.0
 40
0.0
 40
1.0
 40
1.0
 40
1.0
 40
2.0
 40
2.0
 40
2.0
 40
3.0
 40
3.0
 40
3.0
 40
4.0
 40
4.0
 40
4.0
 40
5.0
 40
5.0
 40
5.0
 40
6.0
 40
6.0
 40
6.0
 40
7.0
 40
7.0
 40
7.0
 40
8.0
 40
8.0
 40
8.0
 40
9.0
 40
9.0
 40
9.0
 40
10.0
 40
10.0
 40
10.0
 40
11.0
 40
11.0
 40
11.0
 40
12.0
 40
12.0
 40
12.0
 40
13.0
 40
13.0
 40
13.0
 40
14.0
 40
14.0
 40
14.0
 40
15.0
 40
15.0
 40
15.0
 40
16.0
 40
16.0
 40
16.0
 40
16.0
 10
44.52889267549973
 20
-172.0525471575077
 10
44.45051675321029
 20
-172.0525471575077
 10
44.34905869116968
 20
-172.03566618963
 10
44.24742837435481
 20
-171.9722764327014
 10
44.07396781667249
 20
-171.8623778867219
 10
44.0527804794382
 20
-171.7311197487339
 10
44.03383245426932
 20
-171.6232882600456
 10
44.03383245426932
 20
-171.6232882600456
 10
44.25586885829367
 20
-171.6232882600456
 10
44.25586885829367
 20
-171.6232882600456
 10
44.31099038605767
 20
-171.8220702695445
 10
44.43794215468913
 20
-171.8516980907176
 10
44.53095973279088
 20
-171.8516980907176
 10
44.67065835471775
 20
-171.8516980907176
 10
44.8229315751658
 20
-171.7521348311939
 10
44.8229315751658
 20
-171.5195908859396
 10
44.8229315751658
 20
-171.2636202913855
 10
44.64309759083576
 20
-171.1936848530349
 10
44.52251924885201
 20
-171.1936848530349
 10
44.49082437038771
 20
-171.1936848530349
 10
44.34905869116968
 20
-171.1936848530349
 10
44.26017522765024
 20
-171.3228759337318
 10
44.26017522765024
 20
-171.3228759337318
 10
44.08464761267675
 20
-171.3039279085629
 10
44.08464761267675
 20
-171.3039279085629
 10
44.08464761267675
 20
-171.3039279085629
 10
44.2052259546605
 20
-170.457467947837
 10
44.2052259546605
 20
-170.457467947837
 10
44.2052259546605
 20
-170.457467947837
 10
44.9836452795527
 20
-170.457467947837
 10
44.9836452795527
 20
-170.457467947837
 10
44.9836452795527
 20
-170.457467947837
 10
44.9836452795527
 20
-170.6521158427537
 10
44.9836452795527
 20
-170.6521158427537
 10
44.9836452795527
 20
-170.6521158427537
 10
44.36800671633856
 20
-170.6521158427537
 10
44.36800671633856
 20
-170.6521158427537
 10
44.36800671633856
 20
-170.6521158427537
 10
44.30254990211881
 20
-171.0751735683423
 10
44.30254990211881
 20
-171.0751735683423
 10
44.36387260175626
 20
-171.0414116325869
 10
44.44638263862799
 20
-171.0011040154095
 10
44.56472166854632
 20
-171.0011040154095
 10
44.81862520580923
 20
-171.0011040154095
 10
45.05564777519442
 20
-171.1874836811615
 10
45.05564777519442
 20
-171.5006428607707
 10
45.05564777519442
 20
-171.8179361549622
 10
44.83137205910466
 20
-172.0525471575077
 10
44.52889267549973
 20
-172.0525471575077
 97
        0
 97
        0
 75
     2
 76
     1
 98
        0
  0
SPLINE
  5
5E
330
58
100
AcDbEntity
  8
_U+30EC_U+30A4_U+30E4_U+30FC 1
370
     0
100
AcDbSpline
210
0.0
220
0.0
230
1.0
 70
    11
 71
     3
 72
    29
 73
    25
 74
     0
 42
0.0000000001
 43
0.0000000001
 12
1.0
 22
0.0
 32
0.0
 13
1.0
 23
0.0
 33
0.0
 40
0.0
 40
0.0
 40
0.0
 40
0.0
 40
1.0
 40
1.0
 40
1.0
 40
2.0
 40
2.0
 40
2.0
 40
3.0
 40
3.0
 40
3.0
 40
4.0
 40
4.0
 40
4.0
 40
5.0
 40
5.0
 40
5.0
 40
6.0
 40
6.0
 40
6.0
 40
7.0
 40
7.0
 40
7.0
 40
8.0
 40
8.0
 40
8.0
 40
8.0
 10
46.12242159220204
 20
-171.8241373268357
 30
0.0
 10
46.01459010351372
 20
-172.0335991323388
 30
0.0
 10
45.84112954583139
 20
-172.0525471575077
 30
0.0
 10
45.72468531842994
 20
-172.0525471575077
 30
0.0
 10
45.56397161404303
 20
-172.0525471575077
 30
0.0
 10
45.42220593482501
 20
-172.0060383684568
 30
0.0
 10
45.32694904465785
 20
-171.8241373268357
 30
0.0
 10
45.22342392532609
 20
-171.629489431919
 30
0.0
 10
45.20430364538296
 20
-171.3924668625338
 30
0.0
 10
45.20430364538296
 20
-171.2298583556301
 30
0.0
 10
45.20430364538296
 20
-171.0858533643466
 30
0.0
 10
45.22118461326068
 20
-170.8340168843748
 30
0.0
 10
45.32694904465785
 20
-170.6352348748759
 30
0.0
 10
45.43495278812043
 20
-170.4323187507947
 30
0.0
 10
45.59566649250733
 20
-170.408892101495
 30
0.0
 10
45.72468531842994
 20
-170.408892101495
 30
0.0
 10
45.8833319655257
 20
-170.408892101495
 30
0.0
 10
46.02716470203488
 20
-170.4533338332547
 30
0.0
 10
46.12242159220204
 20
-170.6352348748759
 30
0.0
 10
46.22181259695149
 20
-170.8278157125014
 30
0.0
 10
46.24506699147693
 20
-171.0562255431734
 30
0.0
 10
46.24506699147693
 20
-171.2298583556301
 30
0.0
 10
46.24506699147693
 20
-171.4010796012469
 30
0.0
 10
46.22405190901691
 20
-171.6315564892102
 30
0.0
 10
46.12242159220204
 20
-171.8241373268357
 30
0.0
  0
SPLINE
  5
5F
330
58
100
AcDbEntity
  8
_U+30EC_U+30A4_U+30E4_U+30FC 1
370
     0
100
AcDbSpline
210
0.0
220
0.0
230
1.0
 70
    11
 71
     3
 72
    17
 73
    13
 74
     0
 42
0.0000000001
 43
0.0000000001
 12
1.0
 22
0.0
 32
0.0
 13
1.0
 23
0.0
 33
0.0
 40
0.0
 40
0.0
 40
0.0
 40
0.0
 40
1.0
 40
1.0
 40
1.0
 40
2.0
 40
2.0
 40
2.0
 40
3.0
 40
3.0
 40
3.0
 40
4.0
 40
4.0
 40
4.0
 40
4.0
 10
45.72468531842994
 20
-170.6014729391205
 30
0.0
 10
45.47508815052359
 20
-170.6014729391205
 30
0.0
 10
45.42857936147272
 20
-170.8850042975565
 30
0.0
 10
45.42857936147272
 20
-171.2298583556301
 30
0.0
 10
45.42857936147272
 20
-171.5492187071127
 30
0.0
 10
45.46458060929358
 20
-171.8578992625911
 30
0.0
 10
45.72468531842994
 20
-171.8578992625911
 30
0.0
 10
45.97221542904514
 20
-171.8578992625911
 30
0.0
 10
46.02096353016143
 20
-171.5767794709947
 30
0.0
 10
46.02096353016143
 20
-171.2298583556301
 30
0.0
 10
46.02096353016143
 20
-170.9101534945989
 30
0.0
 10
45.98289522504942
 20
-170.6014729391205
 30
0.0
 10
45.72468531842994
 20
-170.6014729391205
 30
0.0
  0
HATCH
  5
60
330
58
100
AcDbEntity
  8
_U+30EC_U+30A4_U+30E4_U+30FC 1
 62
   179
420
  2234388
100
AcDbHatch
 10
0.0
 20
0.0
 30
0.0
210
0.0
220
0.0
230
1.0
  2
SOLID
 70
     1
 71
     0
 91
        2
 92
        1
 93
        1
 72
     4
 94
        3
 73
     0
 74
     1
 95
       29
 96
       25
 40
0.0
 40
0.0
 40
0.0
 40
0.0
 40
1.0
 40
1.0
 40
1.0
 40
2.0
 40
2.0
 40
2.0
 40
3.0
 40
3.0
 40
3.0
 40
4.0
 40
4.0
 40
4.0
 40
5.0
 40
5.0
 40
5.0
 40
6.0
 40
6.0
 40
6.0
 40
7.0
 40
7.0
 40
7.0
 40
8.0
 40
8.0
 40
8.0
 40
8.0
 10
46.12242159220204
 20
-171.8241373268357
 10
46.01459010351372
 20
-172.0335991323388
 10
45.84112954583139
 20
-172.0525471575077
 10
45.72468531842994
 20
-172.0525471575077
 10
45.56397161404303
 20
-172.0525471575077
 10
45.42220593482501
 20
-172.0060383684568
 10
45.32694904465785
 20
-171.8241373268357
 10
45.22342392532609
 20
-171.629489431919
 10
45.20430364538296
 20
-171.3924668625338
 10
45.20430364538296
 20
-171.2298583556301
 10
45.20430364538296
 20
-171.0858533643466
 10
45.22118461326068
 20
-170.8340168843748
 10
45.32694904465785
 20
-170.6352348748759
 10
45.43495278812043
 20
-170.4323187507947
 10
45.59566649250733
 20
-170.408892101495
 10
45.72468531842994
 20
-170.408892101495
 10
45.8833319655257
 20
-170.408892101495
 10
46.02716470203488
 20
-170.4533338332547
 10
46.12242159220204
 20
-170.6352348748759
 10
46.22181259695149
 20
-170.8278157125014
 10
46.24506699147693
 20
-171.0562255431734
 10
46.24506699147693
 20
-171.2298583556301
 10
46.24506699147693
 20
-171.4010796012469
 10
46.22405190901691
 20
-171.6315564892102
 10
46.12242159220204
 20
-171.8241373268357
 97
        0
 97
        0
 92
        1
 93
        1
 72
     4
 94
        3
 73
     0
 74
     1
 95
       17
 96
       13
 40
0.0
 40
0.0
 40
0.0
 40
0.0
 40
1.0
 40
1.0
 40
1.0
 40
2.0
 40
2.0
 40
2.0
 40
3.0
 40
3.0
 40
3.0
 40
4.0
 40
4.0
 40
4.0
 40
4.0
 10
45.72468531842994
 20
-170.6014729391205
 10
45.47508815052359
 20
-170.6014729391205
 10
45.42857936147272
 20
-170.8850042975565
 10
45.42857936147272
 20
-171.2298583556301
 10
45.42857936147272
 20
-171.5492187071127
 10
45.46458060929358
 20
-171.8578992625911
 10
45.72468531842994
 20
-171.8578992625911
 10
45.97221542904514
 20
-171.8578992625911
 10
46.02096353016143
 20
-171.5767794709947
 10
46.02096353016143
 20
-171.2298583556301
 10
46.02096353016143
 20
-170.9101534945989
 10
45.98289522504942
 20
-170.6014729391205
 10
45.72468531842994
 20
-170.6014729391205
 97
        0
 97
        0
 75
     2
 76
     1
 98
        0
  0
SPLINE
  5
61
330
58
100
AcDbEntity
  8
_U+30EC_U+30A4_U+30E4_U+30FC 1
370
     0
100
AcDbSpline
210
0.0
220
0.0
230
1.0
 70
    11
 71
     3
 72
    44
 73
    40
 74
     0
 42
0.0000000001
 43
0.0000000001
 12
1.0
 22
0.0
 32
0.0
 13
1.0
 23
0.0
 33
0.0
 40
0.0
 40
0.0
 40
0.0
 40
0.0
 40
1.0
 40
1.0
 40
1.0
 40
2.0
 40
2.0
 40
2.0
 40
3.0
 40
3.0
 40
3.0
 40
4.0
 40
4.0
 40
4.0
 40
5.0
 40
5.0
 40
5.0
 40
6.0
 40
6.0
 40
6.0
 40
7.0
 40
7.0
 40
7.0
 40
8.0
 40
8.0
 40
8.0
 40
9.0
 40
9.0
 40
9.0
 40
10.0
 40
10.0
 40
10.0
 40
11.0
 40
11.0
 40
11.0
 40
12.0
 40
12.0
 40
12.0
 40
13.0
 40
13.0
 40
13.0
 40
13.0
 10
47.41571043736482
 20
-172.0019042538745
 30
0.0
 10
47.39228378806513
 20
-171.9574625221148
 30
0.0
 10
47.3712687056051
 20
-171.9047525611905
 30
0.0
 10
47.36902939353969
 20
-171.6739311636788
 30
0.0
 10
47.36489527895739
 20
-171.4307074224201
 30
0.0
 10
47.30563963661109
 20
-171.3607719840695
 30
0.0
 10
47.1278727095722
 20
-171.3607719840695
 30
0.0
 10
47.1278727095722
 20
-171.3607719840695
 30
0.0
 10
46.71962889457009
 20
-171.3607719840695
 30
0.0
 10
46.71962889457009
 20
-171.3607719840695
 30
0.0
 10
46.71962889457009
 20
-171.3607719840695
 30
0.0
 10
46.71962889457009
 20
-172.0019042538745
 30
0.0
 10
46.71962889457009
 20
-172.0019042538745
 30
0.0
 10
46.71962889457009
 20
-172.0019042538745
 30
0.0
 10
46.48484563725032
 20
-172.0019042538745
 30
0.0
 10
46.48484563725032
 20
-172.0019042538745
 30
0.0
 10
46.48484563725032
 20
-172.0019042538745
 30
0.0
 10
46.48484563725032
 20
-170.457467947837
 30
0.0
 10
46.48484563725032
 20
-170.457467947837
 30
0.0
 10
46.48484563725032
 20
-170.457467947837
 30
0.0
 10
47.15973984281076
 20
-170.457467947837
 30
0.0
 10
47.15973984281076
 20
-170.457467947837
 30
0.0
 10
47.466353340998
 20
-170.457467947837
 30
0.0
 10
47.63344047203262
 20
-170.6290337030025
 30
0.0
 10
47.63344047203262
 20
-170.8850042975565
 30
0.0
 10
47.63344047203262
 20
-170.9356472011897
 30
0.0
 10
47.62499998809376
 20
-171.0183294928357
 30
0.0
 10
47.58055825633403
 20
-171.098600217642
 30
0.0
 10
47.52147486876199
 20
-171.202297591748
 30
0.0
 10
47.45584579976799
 20
-171.2212456169169
 30
0.0
 10
47.39452310013054
 20
-171.2381265847947
 30
0.0
 10
47.531982409992
 20
-171.2805012592632
 30
0.0
 10
47.59967853627717
 20
-171.3290771056053
 30
0.0
 10
47.60398490563373
 20
-171.6443033425056
 30
0.0
 10
47.60811902021603
 20
-171.9150878476462
 30
0.0
 10
47.64412026803689
 20
-171.9467827261105
 30
0.0
 10
47.71181639432205
 20
-172.0019042538745
 30
0.0
 10
47.71181639432205
 20
-172.0019042538745
 30
0.0
 10
47.41571043736482
 20
-172.0019042538745
 30
0.0
 10
47.41571043736482
 20
-172.0019042538745
 30
0.0
  0
SPLINE
  5
62
330
58
100
AcDbEntity
  8
_U+30EC_U+30A4_U+30E4_U+30FC 1
370
     0
100
AcDbSpline
210
0.0
220
0.0
230
1.0
 70
    11
 71
     3
 72
    20
 73
    16
 74
     0
 42
0.0000000001
 43
0.0000000001
 12
1.0
 22
0.0
 32
0.0
 13
1.0
 23
0.0
 33
0.0
 40
0.0
 40
0.0
 40
0.0
 40
0.0
 40
1.0
 40
1.0
 40
1.0
 40
2.0
 40
2.0
 40
2.0
 40
3.0
 40
3.0
 40
3.0
 40
4.0
 40
4.0
 40
4.0
 40
5.0
 40
5.0
 40
5.0
 40
5.0
 10
47.16387395739306
 20
-170.6689968106314
 30
0.0
 10
47.16387395739306
 20
-170.6689968106314
 30
0.0
 10
46.71962889457009
 20
-170.6689968106314
 30
0.0
 10
46.71962889457009
 20
-170.6689968106314
 30
0.0
 10
46.71962889457009
 20
-170.6689968106314
 30
0.0
 10
46.71962889457009
 20
-171.1492431212752
 30
0.0
 10
46.71962889457009
 20
-171.1492431212752
 30
0.0
 10
46.71962889457009
 20
-171.1492431212752
 30
0.0
 10
47.16180690010191
 20
-171.1492431212752
 30
0.0
 10
47.16180690010191
 20
-171.1492431212752
 30
0.0
 10
47.26119790485137
 20
-171.1492431212752
 30
0.0
 10
47.39659015742169
 20
-171.0731065110512
 30
0.0
 10
47.39659015742169
 20
-170.9018852654343
 30
0.0
 10
47.39659015742169
 20
-170.8236815979191
 30
0.0
 10
47.36265596689198
 20
-170.6689968106314
 30
0.0
 10
47.16387395739306
 20
-170.6689968106314
 30
0.0
  0
HATCH
  5
63
330
58
100
AcDbEntity
  8
_U+30EC_U+30A4_U+30E4_U+30FC 1
 62
   179
420
  2234388
100
AcDbHatch
 10
0.0
 20
0.0
 30
0.0
210
0.0
220
0.0
230
1.0
  2
SOLID
 70
     1
 71
     0
 91
        2
 92
        1
 93
        1
 72
     4
 94
        3
 73
     0
 74
     1
 95
       44
 96
       40
 40
0.0
 40
0.0
 40
0.0
 40
0.0
 40
1.0
 40
1.0
 40
1.0
 40
2.0
 40
2.0
 40
2.0
 40
3.0
 40
3.0
 40
3.0
 40
4.0
 40
4.0
 40
4.0
 40
5.0
 40
5.0
 40
5.0
 40
6.0
 40
6.0
 40
6.0
 40
7.0
 40
7.0
 40
7.0
 40
8.0
 40
8.0
 40
8.0
 40
9.0
 40
9.0
 40
9.0
 40
10.0
 40
10.0
 40
10.0
 40
11.0
 40
11.0
 40
11.0
 40
12.0
 40
12.0
 40
12.0
 40
13.0
 40
13.0
 40
13.0
 40
13.0
 10
47.41571043736482
 20
-172.0019042538745
 10
47.39228378806513
 20
-171.9574625221148
 10
47.3712687056051
 20
-171.9047525611905
 10
47.36902939353969
 20
-171.6739311636788
 10
47.36489527895739
 20
-171.4307074224201
 10
47.30563963661109
 20
-171.3607719840695
 10
47.1278727095722
 20
-171.3607719840695
 10
47.1278727095722
 20
-171.3607719840695
 10
46.71962889457009
 20
-171.3607719840695
 10
46.71962889457009
 20
-171.3607719840695
 10
46.71962889457009
 20
-171.3607719840695
 10
46.71962889457009
 20
-172.0019042538745
 10
46.71962889457009
 20
-172.0019042538745
 10
46.71962889457009
 20
-172.0019042538745
 10
46.48484563725032
 20
-172.0019042538745
 10
46.48484563725032
 20
-172.0019042538745
 10
46.48484563725032
 20
-172.0019042538745
 10
46.48484563725032
 20
-170.457467947837
 10
46.48484563725032
 20
-170.457467947837
 10
46.48484563725032
 20
-170.457467947837
 10
47.15973984281076
 20
-170.457467947837
 10
47.15973984281076
 20
-170.457467947837
 10
47.466353340998
 20
-170.457467947837
 10
47.63344047203262
 20
-170.6290337030025
 10
47.63344047203262
 20
-170.8850042975565
 10
47.63344047203262
 20
-170.9356472011897
 10
47.62499998809376
 20
-171.0183294928357
 10
47.58055825633403
 20
-171.098600217642
 10
47.52147486876199
 20
-171.202297591748
 10
47.45584579976799
 20
-171.2212456169169
 10
47.39452310013054
 20
-171.2381265847947
 10
47.531982409992
 20
-171.2805012592632
 10
47.59967853627717
 20
-171.3290771056053
 10
47.60398490563373
 20
-171.6443033425056
 10
47.60811902021603
 20
-171.9150878476462
 10
47.64412026803689
 20
-171.9467827261105
 10
47.71181639432205
 20
-172.0019042538745
 10
47.71181639432205
 20
-172.0019042538745
 10
47.41571043736482
 20
-172.0019042538745
 10
47.41571043736482
 20
-172.0019042538745
 97
        0
 97
        0
 92
        1
 93
        1
 72
     4
 94
        3
 73
     0
 74
     1
 95
       20
 96
       16
 40
0.0
 40
0.0
 40
0.0
 40
0.0
 40
1.0
 40
1.0
 40
1.0
 40
2.0
 40
2.0
 40
2.0
 40
3.0
 40
3.0
 40
3.0
 40
4.0
 40
4.0
 40
4.0
 40
5.0
 40
5.0
 40
5.0
 40
5.0
 10
47.16387395739306
 20
-170.6689968106314
 10
47.16387395739306
 20
-170.6689968106314
 10
46.71962889457009
 20
-170.6689968106314
 10
46.71962889457009
 20
-170.6689968106314
 10
46.71962889457009
 20
-170.6689968106314
 10
46.71962889457009
 20
-171.1492431212752
 10
46.71962889457009
 20
-171.1492431212752
 10
46.71962889457009
 20
-171.1492431212752
 10
47.16180690010191
 20
-171.1492431212752
 10
47.16180690010191
 20
-171.1492431212752
 10
47.26119790485137
 20
-171.1492431212752
 10
47.39659015742169
 20
-171.0731065110512
 10
47.39659015742169
 20
-170.9018852654343
 10
47.39659015742169
 20
-170.8236815979191
 10
47.36265596689198
 20
-170.6689968106314
 10
47.16387395739306
 20
-170.6689968106314
 97
        0
 97
        0
 75
     2
 76
     1
 98
        0
  0
ENDBLK
  5
5B
330
58
100
AcDbEntity
  8
0
100
AcDbBlockEnd
  0
BLOCK
  5
77
330
75
100
AcDbEntity
  8
0
100
AcDbBlockBegin
  2
block 3
 70
     0
 10
0.0
 20
0.0
 30
0.0
  3
block 3
  1

  0
SPLINE
  5
79
330
75
100
AcDbEntity
  8
_U+30EC_U+30A4_U+30E4_U+30FC 1
370
     0
100
AcDbSpline
210
0.0
220
0.0
230
1.0
 70
    11
 71
     3
 72
    29
 73
    25
 74
     0
 42
0.0000000001
 43
0.0000000001
 12
1.0
 22
0.0
 32
0.0
 13
1.0
 23
0.0
 33
0.0
 40
0.0
 40
0.0
 40
0.0
 40
0.0
 40
1.0
 40
1.0
 40
1.0
 40
2.0
 40
2.0
 40
2.0
 40
3.0
 40
3.0
 40
3.0
 40
4.0
 40
4.0
 40
4.0
 40
5.0
 40
5.0
 40
5.0
 40
6.0
 40
6.0
 40
6.0
 40
7.0
 40
7.0
 40
7.0
 40
8.0
 40
8.0
 40
8.0
 40
8.0
 10
136.2631727089898
 20
-163.4050129799821
 30
0.0
 10
136.472634514493
 20
-163.5128444686704
 30
0.0
 10
136.4919270492103
 20
-163.6861327715785
 30
0.0
 10
136.4919270492103
 20
-163.8025769989799
 30
0.0
 10
136.4919270492103
 20
-163.9634629581411
 30
0.0
 10
136.445073750611
 20
-164.1050563825848
 30
0.0
 10
136.2631727089898
 20
-164.2004855275263
 30
0.0
 10
136.0688693236217
 20
-164.3041829016323
 30
0.0
 10
135.8318467542365
 20
-164.3231309268012
 30
0.0
 10
135.6692382473327
 20
-164.3231309268012
 30
0.0
 10
135.5252332560493
 20
-164.3231309268012
 30
0.0
 10
135.273052266529
 20
-164.3062499589234
 30
0.0
 10
135.0746147665786
 20
-164.2004855275263
 30
0.0
 10
134.8713541329488
 20
-164.092654038838
 30
0.0
 10
134.8479274836491
 20
-163.9317680796768
 30
0.0
 10
134.8479274836491
 20
-163.8025769989799
 30
0.0
 10
134.8479274836491
 20
-163.6441026066584
 30
0.0
 10
134.8927137249574
 20
-163.500097615375
 30
0.0
 10
135.0746147665786
 20
-163.4050129799821
 30
0.0
 10
135.2668510946555
 20
-163.3057942300069
 30
0.0
 10
135.4956054348761
 20
-163.2823675807072
 30
0.0
 10
135.6692382473327
 20
-163.2823675807072
 30
0.0
 10
135.8401149834011
 20
-163.2823675807072
 30
0.0
 10
136.0709363809128
 20
-163.3033826631672
 30
0.0
 10
136.2631727089898
 20
-163.4050129799821
 30
0.0
  0
SPLINE
  5
7A
330
75
100
AcDbEntity
  8
_U+30EC_U+30A4_U+30E4_U+30FC 1
370
     0
100
AcDbSpline
210
0.0
220
0.0
230
1.0
 70
    11
 71
     3
 72
    17
 73
    13
 74
     0
 42
0.0000000001
 43
0.0000000001
 12
1.0
 22
0.0
 32
0.0
 13
1.0
 23
0.0
 33
0.0
 40
0.0
 40
0.0
 40
0.0
 40
0.0
 40
1.0
 40
1.0
 40
1.0
 40
2.0
 40
2.0
 40
2.0
 40
3.0
 40
3.0
 40
3.0
 40
4.0
 40
4.0
 40
4.0
 40
4.0
 10
135.0408528308231
 20
-163.8025769989799
 30
0.0
 10
135.0408528308231
 20
-164.0523464216605
 30
0.0
 10
135.3240396797107
 20
-164.0988552107114
 30
0.0
 10
135.6692382473327
 20
-164.0988552107114
 30
0.0
 10
135.9882540892668
 20
-164.0988552107114
 30
0.0
 10
136.2969346447452
 20
-164.0630262176648
 30
0.0
 10
136.2969346447452
 20
-163.8025769989799
 30
0.0
 10
136.2969346447452
 20
-163.555219143139
 30
0.0
 10
136.0158148531488
 20
-163.5062987872484
 30
0.0
 10
135.6692382473327
 20
-163.5062987872484
 30
0.0
 10
135.3495333863015
 20
-163.5062987872484
 30
0.0
 10
135.0408528308231
 20
-163.5445393471347
 30
0.0
 10
135.0408528308231
 20
-163.8025769989799
 30
0.0
  0
HATCH
  5
7B
330
75
100
AcDbEntity
  8
_U+30EC_U+30A4_U+30E4_U+30FC 1
 62
   179
420
  2234388
100
AcDbHatch
 10
0.0
 20
0.0
 30
0.0
210
0.0
220
0.0
230
1.0
  2
SOLID
 70
     1
 71
     0
 91
        2
 92
        1
 93
        1
 72
     4
 94
        3
 73
     0
 74
     1
 95
       29
 96
       25
 40
0.0
 40
0.0
 40
0.0
 40
0.0
 40
1.0
 40
1.0
 40
1.0
 40
2.0
 40
2.0
 40
2.0
 40
3.0
 40
3.0
 40
3.0
 40
4.0
 40
4.0
 40
4.0
 40
5.0
 40
5.0
 40
5.0
 40
6.0
 40
6.0
 40
6.0
 40
7.0
 40
7.0
 40
7.0
 40
8.0
 40
8.0
 40
8.0
 40
8.0
 10
136.2631727089898
 20
-163.4050129799821
 10
136.472634514493
 20
-163.5128444686704
 10
136.4919270492103
 20
-163.6861327715785
 10
136.4919270492103
 20
-163.8025769989799
 10
136.4919270492103
 20
-163.9634629581411
 10
136.445073750611
 20
-164.1050563825848
 10
136.2631727089898
 20
-164.2004855275263
 10
136.0688693236217
 20
-164.3041829016323
 10
135.8318467542365
 20
-164.3231309268012
 10
135.6692382473327
 20
-164.3231309268012
 10
135.5252332560493
 20
-164.3231309268012
 10
135.273052266529
 20
-164.3062499589234
 10
135.0746147665786
 20
-164.2004855275263
 10
134.8713541329488
 20
-164.092654038838
 10
134.8479274836491
 20
-163.9317680796768
 10
134.8479274836491
 20
-163.8025769989799
 10
134.8479274836491
 20
-163.6441026066584
 10
134.8927137249574
 20
-163.500097615375
 10
135.0746147665786
 20
-163.4050129799821
 10
135.2668510946555
 20
-163.3057942300069
 10
135.4956054348761
 20
-163.2823675807072
 10
135.6692382473327
 20
-163.2823675807072
 10
135.8401149834011
 20
-163.2823675807072
 10
136.0709363809128
 20
-163.3033826631672
 10
136.2631727089898
 20
-163.4050129799821
 97
        0
 97
        0
 92
        1
 93
        1
 72
     4
 94
        3
 73
     0
 74
     1
 95
       17
 96
       13
 40
0.0
 40
0.0
 40
0.0
 40
0.0
 40
1.0
 40
1.0
 40
1.0
 40
2.0
 40
2.0
 40
2.0
 40
3.0
 40
3.0
 40
3.0
 40
4.0
 40
4.0
 40
4.0
 40
4.0
 10
135.0408528308231
 20
-163.8025769989799
 10
135.0408528308231
 20
-164.0523464216605
 10
135.3240396797107
 20
-164.0988552107114
 10
135.6692382473327
 20
-164.0988552107114
 10
135.9882540892668
 20
-164.0988552107114
 10
136.2969346447452
 20
-164.0630262176648
 10
136.2969346447452
 20
-163.8025769989799
 10
136.2969346447452
 20
-163.555219143139
 10
136.0158148531488
 20
-163.5062987872484
 10
135.6692382473327
 20
-163.5062987872484
 10
135.3495333863015
 20
-163.5062987872484
 10
135.0408528308231
 20
-163.5445393471347
 10
135.0408528308231
 20
-163.8025769989799
 97
        0
 97
        0
 75
     2
 76
     1
 98
        0
  0
POLYLINE
  5
7C
330
75
100
AcDbEntity
  8
_U+30EC_U+30A4_U+30E4_U+30FC 1
370
     0
100
AcDb2dPolyline
 66
     1
 10
0.0
 20
0.0
 30
0.0
  0
VERTEX
  5
7D
330
7C
100
AcDbEntity
  8
_U+30EC_U+30A4_U+30E4_U+30FC 1
370
     0
100
AcDbVertex
100
AcDb2dVertex
 10
136.4409396360287
 20
-163.0660155842335
 30
0.0
  0
VERTEX
  5
7E
330
7C
100
AcDbEntity
  8
_U+30EC_U+30A4_U+30E4_U+30FC 1
370
     0
100
AcDbVertex
100
AcDb2dVertex
 10
136.1894476656054
 20
-163.0660155842335
 30
0.0
  0
VERTEX
  5
7F
330
7C
100
AcDbEntity
  8
_U+30EC_U+30A4_U+30E4_U+30FC 1
370
     0
100
AcDbVertex
100
AcDb2dVertex
 10
136.1894476656054
 20
-162.8141791042617
 30
0.0
  0
VERTEX
  5
80
330
7C
100
AcDbEntity
  8
_U+30EC_U+30A4_U+30E4_U+30FC 1
370
     0
100
AcDbVertex
100
AcDb2dVertex
 10
136.4409396360287
 20
-162.8141791042617
 30
0.0
  0
VERTEX
  5
81
330
7C
100
AcDbEntity
  8
_U+30EC_U+30A4_U+30E4_U+30FC 1
370
     0
100
AcDbVertex
100
AcDb2dVertex
 10
136.4409396360287
 20
-163.0660155842335
 30
0.0
  0
SEQEND
  5
82
330
7C
100
AcDbEntity
  8
_U+30EC_U+30A4_U+30E4_U+30FC 1
370
     0
  0
HATCH
  5
83
330
75
100
AcDbEntity
  8
_U+30EC_U+30A4_U+30E4_U+30FC 1
 62
   179
420
  2234388
100
AcDbHatch
 10
0.0
 20
0.0
 30
0.0
210
0.0
220
0.0
230
1.0
  2
SOLID
 70
     1
 71
     0
 91
        1
 92
        1
 93
        4
 72
     1
 10
136.4409396360287
 20
-163.0660155842335
 11
136.1894476656054
 21
-163.0660155842335
 72
     1
 10
136.1894476656054
 20
-163.0660155842335
 11
136.1894476656054
 21
-162.8141791042617
 72
     1
 10
136.1894476656054
 20
-162.8141791042617
 11
136.4409396360287
 21
-162.8141791042617
 72
     1
 10
136.4409396360287
 20
-162.8141791042617
 11
136.4409396360287
 21
-163.0660155842335
 97
        0
 75
     2
 76
     1
 98
        0
  0
SPLINE
  5
84
330
75
100
AcDbEntity
  8
_U+30EC_U+30A4_U+30E4_U+30FC 1
370
     0
100
AcDbSpline
210
0.0
220
0.0
230
1.0
 70
    11
 71
     3
 72
    32
 73
    28
 74
     0
 42
0.0000000001
 43
0.0000000001
 12
1.0
 22
0.0
 32
0.0
 13
1.0
 23
0.0
 33
0.0
 40
0.0
 40
0.0
 40
0.0
 40
0.0
 40
1.0
 40
1.0
 40
1.0
 40
2.0
 40
2.0
 40
2.0
 40
3.0
 40
3.0
 40
3.0
 40
4.0
 40
4.0
 40
4.0
 40
5.0
 40
5.0
 40
5.0
 40
6.0
 40
6.0
 40
6.0
 40
7.0
 40
7.0
 40
7.0
 40
8.0
 40
8.0
 40
8.0
 40
9.0
 40
9.0
 40
9.0
 40
9.0
 10
136.4919270492103
 20
-162.0731390653845
 30
0.0
 10
136.4919270492103
 20
-162.5895588786234
 30
0.0
 10
135.9379556951822
 20
-162.5981716173366
 30
0.0
 10
135.7236707559996
 20
-162.5981716173366
 30
0.0
 10
135.493538377585
 20
-162.5981716173366
 30
0.0
 10
134.845860426358
 20
-162.5788790826192
 30
0.0
 10
134.845860426358
 20
-162.0352430150467
 30
0.0
 10
134.845860426358
 20
-161.8616102025902
 30
0.0
 10
134.9161403742571
 20
-161.6163194040404
 30
0.0
 10
135.2482475790352
 20
-161.5784233537026
 30
0.0
 10
135.2482475790352
 20
-161.5784233537026
 30
0.0
 10
135.2482475790352
 20
-161.7920192737881
 30
0.0
 10
135.2482475790352
 20
-161.7920192737881
 30
0.0
 10
135.19105899398
 20
-161.8023545602439
 30
0.0
 10
135.0429198881143
 20
-161.8340494387081
 30
0.0
 10
135.0429198881143
 20
-162.0373100723379
 30
0.0
 10
135.0429198881143
 20
-162.3294541694871
 30
0.0
 10
135.3708929783101
 20
-162.369417277116
 30
0.0
 10
135.5755316501339
 20
-162.3821641304114
 30
0.0
 10
135.4976724921673
 20
-162.2891465523097
 30
0.0
 10
135.438416849821
 20
-162.2212781712502
 30
0.0
 10
135.438416849821
 20
-162.0393771296291
 30
0.0
 10
135.438416849821
 20
-161.859543145299
 30
0.0
 10
135.5465928480578
 20
-161.5570637616941
 30
0.0
 10
135.9524250962202
 20
-161.5570637616941
 30
0.0
 10
136.2721299572514
 20
-161.5570637616941
 30
0.0
 10
136.4919270492103
 20
-161.7561902807415
 30
0.0
 10
136.4919270492103
 20
-162.0731390653845
 30
0.0
  0
SPLINE
  5
85
330
75
100
AcDbEntity
  8
_U+30EC_U+30A4_U+30E4_U+30FC 1
370
     0
100
AcDbSpline
210
0.0
220
0.0
230
1.0
 70
    11
 71
     3
 72
    17
 73
    13
 74
     0
 42
0.0000000001
 43
0.0000000001
 12
1.0
 22
0.0
 32
0.0
 13
1.0
 23
0.0
 33
0.0
 40
0.0
 40
0.0
 40
0.0
 40
0.0
 40
1.0
 40
1.0
 40
1.0
 40
2.0
 40
2.0
 40
2.0
 40
3.0
 40
3.0
 40
3.0
 40
4.0
 40
4.0
 40
4.0
 40
4.0
 10
135.6327202351891
 20
-162.0566026070553
 30
0.0
 10
135.6327202351891
 20
-162.3187743734828
 30
0.0
 10
135.8442490979834
 20
-162.3570149333691
 30
0.0
 10
135.9606933253848
 20
-162.3570149333691
 30
0.0
 10
136.1363931951326
 20
-162.3570149333691
 30
0.0
 10
136.2996907211334
 20
-162.2615857884277
 30
0.0
 10
136.2996907211334
 20
-162.0776176895153
 30
0.0
 10
136.2996907211334
 20
-161.9570393475316
 30
0.0
 10
136.2404350787871
 20
-161.7813394777838
 30
0.0
 10
135.9544921535114
 20
-161.7813394777838
 30
0.0
 10
135.7305609469701
 20
-161.7813394777838
 30
0.0
 10
135.6327202351891
 20
-161.9208658449365
 30
0.0
 10
135.6327202351891
 20
-162.0566026070553
 30
0.0
  0
HATCH
  5
86
330
75
100
AcDbEntity
  8
_U+30EC_U+30A4_U+30E4_U+30FC 1
 62
   179
420
  2234388
100
AcDbHatch
 10
0.0
 20
0.0
 30
0.0
210
0.0
220
0.0
230
1.0
  2
SOLID
 70
     1
 71
     0
 91
        2
 92
        1
 93
        1
 72
     4
 94
        3
 73
     0
 74
     1
 95
       32
 96
       28
 40
0.0
 40
0.0
 40
0.0
 40
0.0
 40
1.0
 40
1.0
 40
1.0
 40
2.0
 40
2.0
 40
2.0
 40
3.0
 40
3.0
 40
3.0
 40
4.0
 40
4.0
 40
4.0
 40
5.0
 40
5.0
 40
5.0
 40
6.0
 40
6.0
 40
6.0
 40
7.0
 40
7.0
 40
7.0
 40
8.0
 40
8.0
 40
8.0
 40
9.0
 40
9.0
 40
9.0
 40
9.0
 10
136.4919270492103
 20
-162.0731390653845
 10
136.4919270492103
 20
-162.5895588786234
 10
135.9379556951822
 20
-162.5981716173366
 10
135.7236707559996
 20
-162.5981716173366
 10
135.493538377585
 20
-162.5981716173366
 10
134.845860426358
 20
-162.5788790826192
 10
134.845860426358
 20
-162.0352430150467
 10
134.845860426358
 20
-161.8616102025902
 10
134.9161403742571
 20
-161.6163194040404
 10
135.2482475790352
 20
-161.5784233537026
 10
135.2482475790352
 20
-161.5784233537026
 10
135.2482475790352
 20
-161.7920192737881
 10
135.2482475790352
 20
-161.7920192737881
 10
135.19105899398
 20
-161.8023545602439
 10
135.0429198881143
 20
-161.8340494387081
 10
135.0429198881143
 20
-162.0373100723379
 10
135.0429198881143
 20
-162.3294541694871
 10
135.3708929783101
 20
-162.369417277116
 10
135.5755316501339
 20
-162.3821641304114
 10
135.4976724921673
 20
-162.2891465523097
 10
135.438416849821
 20
-162.2212781712502
 10
135.438416849821
 20
-162.0393771296291
 10
135.438416849821
 20
-161.859543145299
 10
135.5465928480578
 20
-161.5570637616941
 10
135.9524250962202
 20
-161.5570637616941
 10
136.2721299572514
 20
-161.5570637616941
 10
136.4919270492103
 20
-161.7561902807415
 10
136.4919270492103
 20
-162.0731390653845
 97
        0
 97
        0
 92
        1
 93
        1
 72
     4
 94
        3
 73
     0
 74
     1
 95
       17
 96
       13
 40
0.0
 40
0.0
 40
0.0
 40
0.0
 40
1.0
 40
1.0
 40
1.0
 40
2.0
 40
2.0
 40
2.0
 40
3.0
 40
3.0
 40
3.0
 40
4.0
 40
4.0
 40
4.0
 40
4.0
 10
135.6327202351891
 20
-162.0566026070553
 10
135.6327202351891
 20
-162.3187743734828
 10
135.8442490979834
 20
-162.3570149333691
 10
135.9606933253848
 20
-162.3570149333691
 10
136.1363931951326
 20
-162.3570149333691
 10
136.2996907211334
 20
-162.2615857884277
 10
136.2996907211334
 20
-162.0776176895153
 10
136.2996907211334
 20
-161.9570393475316
 10
136.2404350787871
 20
-161.7813394777838
 10
135.9544921535114
 20
-161.7813394777838
 10
135.7305609469701
 20
-161.7813394777838
 10
135.6327202351891
 20
-161.9208658449365
 10
135.6327202351891
 20
-162.0566026070553
 97
        0
 97
        0
 75
     2
 76
     1
 98
        0
  0
ENDBLK
  5
78
330
75
100
AcDbEntity
  8
0
100
AcDbBlockEnd
  0
BLOCK
  5
9A
330
98
100
AcDbEntity
  8
0
100
AcDbBlockBegin
  2
block 4
 70
     0
 10
0.0
 20
0.0
 30
0.0
  3
block 4
  1

  0
SPLINE
  5
9C
330
98
100
AcDbEntity
  8
_U+30EC_U+30A4_U+30E4_U+30FC 1
370
     0
100
AcDbSpline
210
0.0
220
0.0
230
1.0
 70
    11
 71
     3
 72
    29
 73
    25
 74
     0
 42
0.0000000001
 43
0.0000000001
 12
1.0
 22
0.0
 32
0.0
 13
1.0
 23
0.0
 33
0.0
 40
0.0
 40
0.0
 40
0.0
 40
0.0
 40
1.0
 40
1.0
 40
1.0
 40
2.0
 40
2.0
 40
2.0
 40
3.0
 40
3.0
 40
3.0
 40
4.0
 40
4.0
 40
4.0
 40
5.0
 40
5.0
 40
5.0
 40
6.0
 40
6.0
 40
6.0
 40
7.0
 40
7.0
 40
7.0
 40
8.0
 40
8.0
 40
8.0
 40
8.0
 10
60.31397567936595
 20
-84.44273543895876
 30
0.0
 10
60.20614419067763
 20
-84.65219724446196
 30
0.0
 10
60.0326836329953
 20
-84.67114526963083
 30
0.0
 10
59.91623940559386
 20
-84.67114526963083
 30
0.0
 10
59.75552570120696
 20
-84.67114526963083
 30
0.0
 10
59.61376002198892
 20
-84.62463648057995
 30
0.0
 10
59.51850313182177
 20
-84.44273543895876
 30
0.0
 10
59.41497801249001
 20
-84.24808754404215
 30
0.0
 10
59.39585773254687
 20
-84.01106497465696
 30
0.0
 10
59.39585773254687
 20
-83.84845646775317
 30
0.0
 10
59.39585773254687
 20
-83.70445147646973
 30
0.0
 10
59.4127387004246
 20
-83.45261499649796
 30
0.0
 10
59.51850313182177
 20
-83.25383298699904
 30
0.0
 10
59.62650687528435
 20
-83.05091686291783
 30
0.0
 10
59.78722057967126
 20
-83.02749021361814
 30
0.0
 10
59.91623940559386
 20
-83.02749021361814
 30
0.0
 10
60.07488605268961
 20
-83.02749021361814
 30
0.0
 10
60.2187187891988
 20
-83.07193194537786
 30
0.0
 10
60.31397567936595
 20
-83.25383298699904
 30
0.0
 10
60.41336668411541
 20
-83.44641382462451
 30
0.0
 10
60.43662107864085
 20
-83.67482365529658
 30
0.0
 10
60.43662107864085
 20
-83.84845646775317
 30
0.0
 10
60.43662107864085
 20
-84.01967771337009
 30
0.0
 10
60.41560599618082
 20
-84.25015460133329
 30
0.0
 10
60.31397567936595
 20
-84.44273543895876
 30
0.0
  0
SPLINE
  5
9D
330
98
100
AcDbEntity
  8
_U+30EC_U+30A4_U+30E4_U+30FC 1
370
     0
100
AcDbSpline
210
0.0
220
0.0
230
1.0
 70
    11
 71
     3
 72
    17
 73
    13
 74
     0
 42
0.0000000001
 43
0.0000000001
 12
1.0
 22
0.0
 32
0.0
 13
1.0
 23
0.0
 33
0.0
 40
0.0
 40
0.0
 40
0.0
 40
0.0
 40
1.0
 40
1.0
 40
1.0
 40
2.0
 40
2.0
 40
2.0
 40
3.0
 40
3.0
 40
3.0
 40
4.0
 40
4.0
 40
4.0
 40
4.0
 10
59.91623940559386
 20
-83.2200710512436
 30
0.0
 10
59.66664223768751
 20
-83.2200710512436
 30
0.0
 10
59.62013344863664
 20
-83.50360240967966
 30
0.0
 10
59.62013344863664
 20
-83.84845646775317
 30
0.0
 10
59.62013344863664
 20
-84.16781681923582
 30
0.0
 10
59.6561346964575
 20
-84.47649737471421
 30
0.0
 10
59.91623940559386
 20
-84.47649737471421
 30
0.0
 10
60.16376951620906
 20
-84.47649737471421
 30
0.0
 10
60.21251761732535
 20
-84.19537758311783
 30
0.0
 10
60.21251761732535
 20
-83.84845646775317
 30
0.0
 10
60.21251761732535
 20
-83.52875160672198
 30
0.0
 10
60.17444931221333
 20
-83.2200710512436
 30
0.0
 10
59.91623940559386
 20
-83.2200710512436
 30
0.0
  0
HATCH
  5
9E
330
98
100
AcDbEntity
  8
_U+30EC_U+30A4_U+30E4_U+30FC 1
 62
   179
420
  2234388
100
AcDbHatch
 10
0.0
 20
0.0
 30
0.0
210
0.0
220
0.0
230
1.0
  2
SOLID
 70
     1
 71
     0
 91
        2
 92
        1
 93
        1
 72
     4
 94
        3
 73
     0
 74
     1
 95
       29
 96
       25
 40
0.0
 40
0.0
 40
0.0
 40
0.0
 40
1.0
 40
1.0
 40
1.0
 40
2.0
 40
2.0
 40
2.0
 40
3.0
 40
3.0
 40
3.0
 40
4.0
 40
4.0
 40
4.0
 40
5.0
 40
5.0
 40
5.0
 40
6.0
 40
6.0
 40
6.0
 40
7.0
 40
7.0
 40
7.0
 40
8.0
 40
8.0
 40
8.0
 40
8.0
 10
60.31397567936595
 20
-84.44273543895876
 10
60.20614419067763
 20
-84.65219724446196
 10
60.0326836329953
 20
-84.67114526963083
 10
59.91623940559386
 20
-84.67114526963083
 10
59.75552570120696
 20
-84.67114526963083
 10
59.61376002198892
 20
-84.62463648057995
 10
59.51850313182177
 20
-84.44273543895876
 10
59.41497801249001
 20
-84.24808754404215
 10
59.39585773254687
 20
-84.01106497465696
 10
59.39585773254687
 20
-83.84845646775317
 10
59.39585773254687
 20
-83.70445147646973
 10
59.4127387004246
 20
-83.45261499649796
 10
59.51850313182177
 20
-83.25383298699904
 10
59.62650687528435
 20
-83.05091686291783
 10
59.78722057967126
 20
-83.02749021361814
 10
59.91623940559386
 20
-83.02749021361814
 10
60.07488605268961
 20
-83.02749021361814
 10
60.2187187891988
 20
-83.07193194537786
 10
60.31397567936595
 20
-83.25383298699904
 10
60.41336668411541
 20
-83.44641382462451
 10
60.43662107864085
 20
-83.67482365529658
 10
60.43662107864085
 20
-83.84845646775317
 10
60.43662107864085
 20
-84.01967771337009
 10
60.41560599618082
 20
-84.25015460133329
 10
60.31397567936595
 20
-84.44273543895876
 97
        0
 97
        0
 92
        1
 93
        1
 72
     4
 94
        3
 73
     0
 74
     1
 95
       17
 96
       13
 40
0.0
 40
0.0
 40
0.0
 40
0.0
 40
1.0
 40
1.0
 40
1.0
 40
2.0
 40
2.0
 40
2.0
 40
3.0
 40
3.0
 40
3.0
 40
4.0
 40
4.0
 40
4.0
 40
4.0
 10
59.91623940559386
 20
-83.2200710512436
 10
59.66664223768751
 20
-83.2200710512436
 10
59.62013344863664
 20
-83.50360240967966
 10
59.62013344863664
 20
-83.84845646775317
 10
59.62013344863664
 20
-84.16781681923582
 10
59.6561346964575
 20
-84.47649737471421
 10
59.91623940559386
 20
-84.47649737471421
 10
60.16376951620906
 20
-84.47649737471421
 10
60.21251761732535
 20
-84.19537758311783
 10
60.21251761732535
 20
-83.84845646775317
 10
60.21251761732535
 20
-83.52875160672198
 10
60.17444931221333
 20
-83.2200710512436
 10
59.91623940559386
 20
-83.2200710512436
 97
        0
 97
        0
 75
     2
 76
     1
 98
        0
  0
POLYLINE
  5
9F
330
98
100
AcDbEntity
  8
_U+30EC_U+30A4_U+30E4_U+30FC 1
370
     0
100
AcDb2dPolyline
 66
     1
 10
0.0
 20
0.0
 30
0.0
  0
VERTEX
  5
A0
330
9F
100
AcDbEntity
  8
_U+30EC_U+30A4_U+30E4_U+30FC 1
370
     0
100
AcDbVertex
100
AcDb2dVertex
 10
60.6531453298888
 20
-84.62050236599765
 30
0.0
  0
VERTEX
  5
A1
330
9F
100
AcDbEntity
  8
_U+30EC_U+30A4_U+30E4_U+30FC 1
370
     0
100
AcDbVertex
100
AcDb2dVertex
 10
60.6531453298888
 20
-84.3686658860259
 30
0.0
  0
VERTEX
  5
A2
330
9F
100
AcDbEntity
  8
_U+30EC_U+30A4_U+30E4_U+30FC 1
370
     0
100
AcDbVertex
100
AcDb2dVertex
 10
60.9048095550863
 20
-84.3686658860259
 30
0.0
  0
VERTEX
  5
A3
330
9F
100
AcDbEntity
  8
_U+30EC_U+30A4_U+30E4_U+30FC 1
370
     0
100
AcDbVertex
100
AcDb2dVertex
 10
60.9048095550863
 20
-84.62050236599765
 30
0.0
  0
VERTEX
  5
A4
330
9F
100
AcDbEntity
  8
_U+30EC_U+30A4_U+30E4_U+30FC 1
370
     0
100
AcDbVertex
100
AcDb2dVertex
 10
60.6531453298888
 20
-84.62050236599765
 30
0.0
  0
SEQEND
  5
A5
330
9F
100
AcDbEntity
  8
_U+30EC_U+30A4_U+30E4_U+30FC 1
370
     0
  0
HATCH
  5
A6
330
98
100
AcDbEntity
  8
_U+30EC_U+30A4_U+30E4_U+30FC 1
 62
   179
420
  2234388
100
AcDbHatch
 10
0.0
 20
0.0
 30
0.0
210
0.0
220
0.0
230
1.0
  2
SOLID
 70
     1
 71
     0
 91
        1
 92
        1
 93
        4
 72
     1
 10
60.6531453298888
 20
-84.62050236599765
 11
60.6531453298888
 21
-84.3686658860259
 72
     1
 10
60.6531453298888
 20
-84.3686658860259
 11
60.9048095550863
 21
-84.3686658860259
 72
     1
 10
60.9048095550863
 20
-84.3686658860259
 11
60.9048095550863
 21
-84.62050236599765
 72
     1
 10
60.9048095550863
 20
-84.62050236599765
 11
60.6531453298888
 21
-84.62050236599765
 97
        0
 75
     2
 76
     1
 98
        0
  0
SPLINE
  5
A7
330
98
100
AcDbEntity
  8
_U+30EC_U+30A4_U+30E4_U+30FC 1
370
     0
100
AcDbSpline
210
0.0
220
0.0
230
1.0
 70
    11
 71
     3
 72
    32
 73
    28
 74
     0
 42
0.0000000001
 43
0.0000000001
 12
1.0
 22
0.0
 32
0.0
 13
1.0
 23
0.0
 33
0.0
 40
0.0
 40
0.0
 40
0.0
 40
0.0
 40
1.0
 40
1.0
 40
1.0
 40
2.0
 40
2.0
 40
2.0
 40
3.0
 40
3.0
 40
3.0
 40
4.0
 40
4.0
 40
4.0
 40
5.0
 40
5.0
 40
5.0
 40
6.0
 40
6.0
 40
6.0
 40
7.0
 40
7.0
 40
7.0
 40
8.0
 40
8.0
 40
8.0
 40
9.0
 40
9.0
 40
9.0
 40
9.0
 10
61.64567733918928
 20
-84.67114526963083
 30
0.0
 10
61.12942978072459
 20
-84.67114526963083
 30
0.0
 10
61.12098929678573
 20
-84.11717391560265
 30
0.0
 10
61.12098929678573
 20
-83.90323348596864
 30
0.0
 10
61.12098929678573
 20
-83.67275659800542
 30
0.0
 10
61.14010957672886
 20
-83.02542315632698
 30
0.0
 10
61.68374564430129
 20
-83.02542315632698
 30
0.0
 10
61.85720620198362
 20
-83.02542315632698
 30
0.0
 10
62.10266925530767
 20
-83.09535859467755
 30
0.0
 10
62.14073756041968
 20
-83.42746579945563
 30
0.0
 10
62.14073756041968
 20
-83.42746579945563
 30
0.0
 10
61.92696938555993
 20
-83.42746579945563
 30
0.0
 10
61.92696938555993
 20
-83.42746579945563
 30
0.0
 10
61.91646184432992
 20
-83.37027721440049
 30
0.0
 10
61.88476696586562
 20
-83.22213810853475
 30
0.0
 10
61.68167858701014
 20
-83.22213810853475
 30
0.0
 10
61.38970674463521
 20
-83.22213810853475
 30
0.0
 10
61.34939912745779
 20
-83.55011119873053
 30
0.0
 10
61.33682452893663
 20
-83.7550943801029
 30
0.0
 10
61.42984210703838
 20
-83.67689071258772
 30
0.0
 10
61.49753823332353
 20
-83.61763507024143
 30
0.0
 10
61.67943927494473
 20
-83.61763507024143
 30
0.0
 10
61.85927325927477
 20
-83.61763507024143
 30
0.0
 10
62.1617526428797
 20
-83.72581106847828
 30
0.0
 10
62.1617526428797
 20
-84.13198782618923
 30
0.0
 10
62.1617526428797
 20
-84.45134817767189
 30
0.0
 10
61.96297063338078
 20
-84.67114526963083
 30
0.0
 10
61.64567733918928
 20
-84.67114526963083
 30
0.0
  0
SPLINE
  5
A8
330
98
100
AcDbEntity
  8
_U+30EC_U+30A4_U+30E4_U+30FC 1
370
     0
100
AcDbSpline
210
0.0
220
0.0
230
1.0
 70
    11
 71
     3
 72
    17
 73
    13
 74
     0
 42
0.0000000001
 43
0.0000000001
 12
1.0
 22
0.0
 32
0.0
 13
1.0
 23
0.0
 33
0.0
 40
0.0
 40
0.0
 40
0.0
 40
0.0
 40
1.0
 40
1.0
 40
1.0
 40
2.0
 40
2.0
 40
2.0
 40
3.0
 40
3.0
 40
3.0
 40
4.0
 40
4.0
 40
4.0
 40
4.0
 10
61.662558307067
 20
-83.81228296515805
 30
0.0
 10
61.40021428586522
 20
-83.81228296515805
 30
0.0
 10
61.36214598075322
 20
-84.02381182795239
 30
0.0
 10
61.36214598075322
 20
-84.14025605535383
 30
0.0
 10
61.36214598075322
 20
-84.31595592510158
 30
0.0
 10
61.45740287092038
 20
-84.47890894155388
 30
0.0
 10
61.64137096983271
 20
-84.47890894155388
 30
0.0
 10
61.76194931181646
 20
-84.47890894155388
 30
0.0
 10
61.9376491815642
 20
-84.4196532992076
 30
0.0
 10
61.9376491815642
 20
-84.13405488348037
 30
0.0
 10
61.9376491815642
 20
-83.90977916739061
 30
0.0
 10
61.79795055963732
 20
-83.81228296515805
 30
0.0
 10
61.662558307067
 20
-83.81228296515805
 30
0.0
  0
HATCH
  5
A9
330
98
100
AcDbEntity
  8
_U+30EC_U+30A4_U+30E4_U+30FC 1
 62
   179
420
  2234388
100
AcDbHatch
 10
0.0
 20
0.0
 30
0.0
210
0.0
220
0.0
230
1.0
  2
SOLID
 70
     1
 71
     0
 91
        2
 92
        1
 93
        1
 72
     4
 94
        3
 73
     0
 74
     1
 95
       32
 96
       28
 40
0.0
 40
0.0
 40
0.0
 40
0.0
 40
1.0
 40
1.0
 40
1.0
 40
2.0
 40
2.0
 40
2.0
 40
3.0
 40
3.0
 40
3.0
 40
4.0
 40
4.0
 40
4.0
 40
5.0
 40
5.0
 40
5.0
 40
6.0
 40
6.0
 40
6.0
 40
7.0
 40
7.0
 40
7.0
 40
8.0
 40
8.0
 40
8.0
 40
9.0
 40
9.0
 40
9.0
 40
9.0
 10
61.64567733918928
 20
-84.67114526963083
 10
61.12942978072459
 20
-84.67114526963083
 10
61.12098929678573
 20
-84.11717391560265
 10
61.12098929678573
 20
-83.90323348596864
 10
61.12098929678573
 20
-83.67275659800542
 10
61.14010957672886
 20
-83.02542315632698
 10
61.68374564430129
 20
-83.02542315632698
 10
61.85720620198362
 20
-83.02542315632698
 10
62.10266925530767
 20
-83.09535859467755
 10
62.14073756041968
 20
-83.42746579945563
 10
62.14073756041968
 20
-83.42746579945563
 10
61.92696938555993
 20
-83.42746579945563
 10
61.92696938555993
 20
-83.42746579945563
 10
61.91646184432992
 20
-83.37027721440049
 10
61.88476696586562
 20
-83.22213810853475
 10
61.68167858701014
 20
-83.22213810853475
 10
61.38970674463521
 20
-83.22213810853475
 10
61.34939912745779
 20
-83.55011119873053
 10
61.33682452893663
 20
-83.7550943801029
 10
61.42984210703838
 20
-83.67689071258772
 10
61.49753823332353
 20
-83.61763507024143
 10
61.67943927494473
 20
-83.61763507024143
 10
61.85927325927477
 20
-83.61763507024143
 10
62.1617526428797
 20
-83.72581106847828
 10
62.1617526428797
 20
-84.13198782618923
 10
62.1617526428797
 20
-84.45134817767189
 10
61.96297063338078
 20
-84.67114526963083
 10
61.64567733918928
 20
-84.67114526963083
 97
        0
 97
        0
 92
        1
 93
        1
 72
     4
 94
        3
 73
     0
 74
     1
 95
       17
 96
       13
 40
0.0
 40
0.0
 40
0.0
 40
0.0
 40
1.0
 40
1.0
 40
1.0
 40
2.0
 40
2.0
 40
2.0
 40
3.0
 40
3.0
 40
3.0
 40
4.0
 40
4.0
 40
4.0
 40
4.0
 10
61.662558307067
 20
-83.81228296515805
 10
61.40021428586522
 20
-83.81228296515805
 10
61.36214598075322
 20
-84.02381182795239
 10
61.36214598075322
 20
-84.14025605535383
 10
61.36214598075322
 20
-84.31595592510158
 10
61.45740287092038
 20
-84.47890894155388
 10
61.64137096983271
 20
-84.47890894155388
 10
61.76194931181646
 20
-84.47890894155388
 10
61.9376491815642
 20
-84.4196532992076
 10
61.9376491815642
 20
-84.13405488348037
 10
61.9376491815642
 20
-83.90977916739061
 10
61.79795055963732
 20
-83.81228296515805
 10
61.662558307067
 20
-83.81228296515805
 97
        0
 97
        0
 75
     2
 76
     1
 98
        0
  0
ENDBLK
  5
9B
330
98
100
AcDbEntity
  8
0
100
AcDbBlockEnd
  0
BLOCK
  5
B8
330
B6
100
AcDbEntity
  8
0
100
AcDbBlockBegin
  2
block 5
 70
     0
 10
0.0
 20
0.0
 30
0.0
  3
block 5
  1

  0
SPLINE
  5
BA
330
B6
100
AcDbEntity
  8
_U+30EC_U+30A4_U+30E4_U+30FC 1
370
     0
100
AcDbSpline
210
0.0
220
0.0
230
1.0
 70
    11
 71
     3
 72
    29
 73
    25
 74
     0
 42
0.0000000001
 43
0.0000000001
 12
1.0
 22
0.0
 32
0.0
 13
1.0
 23
0.0
 33
0.0
 40
0.0
 40
0.0
 40
0.0
 40
0.0
 40
1.0
 40
1.0
 40
1.0
 40
2.0
 40
2.0
 40
2.0
 40
3.0
 40
3.0
 40
3.0
 40
4.0
 40
4.0
 40
4.0
 40
5.0
 40
5.0
 40
5.0
 40
6.0
 40
6.0
 40
6.0
 40
7.0
 40
7.0
 40
7.0
 40
8.0
 40
8.0
 40
8.0
 40
8.0
 10
48.68161077341988
 20
-124.5977348863853
 30
0.0
 10
48.68161077341988
 20
-124.8642130221694
 30
0.0
 10
48.54415146355841
 20
-125.1181165594323
 30
0.0
 10
48.1951632909026
 20
-125.1181165594323
 30
0.0
 10
47.93919269634853
 20
-125.1181165594323
 30
0.0
 10
47.84410806095564
 20
-124.9763508802143
 30
0.0
 10
47.7827853613182
 20
-124.8705864488171
 30
0.0
 10
47.7235297189719
 20
-124.9954711601574
 30
0.0
 10
47.6091525488616
 20
-125.0716077703814
 30
0.0
 10
47.44826658970044
 20
-125.0716077703814
 30
0.0
 10
47.1733479699775
 20
-125.0716077703814
 30
0.0
 10
47.03795571740718
 20
-124.8726535061082
 30
0.0
 10
47.03795571740718
 20
-124.5977348863853
 30
0.0
 10
47.03795571740718
 20
-124.3142035279492
 30
0.0
 10
47.18196070869062
 20
-124.1238620023892
 30
0.0
 10
47.44826658970044
 20
-124.1238620023892
 30
0.0
 10
47.6091525488616
 20
-124.1238620023892
 30
0.0
 10
47.7235297189719
 20
-124.2020656699044
 30
0.0
 10
47.7827853613182
 20
-124.3269503812447
 30
0.0
 10
47.83342826495137
 20
-124.2380669177252
 30
0.0
 10
47.92851290034427
 20
-124.0794202706295
 30
0.0
 10
48.1910291763203
 20
-124.0794202706295
 30
0.0
 10
48.56551105556696
 20
-124.0794202706295
 30
0.0
 10
48.68161077341988
 20
-124.358645259709
 30
0.0
 10
48.68161077341988
 20
-124.5977348863853
 30
0.0
  0
SPLINE
  5
BB
330
B6
100
AcDbEntity
  8
_U+30EC_U+30A4_U+30E4_U+30FC 1
370
     0
100
AcDbSpline
210
0.0
220
0.0
230
1.0
 70
    11
 71
     3
 72
    17
 73
    13
 74
     0
 42
0.0000000001
 43
0.0000000001
 12
1.0
 22
0.0
 32
0.0
 13
1.0
 23
0.0
 33
0.0
 40
0.0
 40
0.0
 40
0.0
 40
0.0
 40
1.0
 40
1.0
 40
1.0
 40
2.0
 40
2.0
 40
2.0
 40
3.0
 40
3.0
 40
3.0
 40
4.0
 40
4.0
 40
4.0
 40
4.0
 10
47.23053655503264
 20
-124.5977348863853
 30
0.0
 10
47.23053655503264
 20
-124.7627549601288
 30
0.0
 10
47.32562119042554
 20
-124.8473320542916
 30
0.0
 10
47.46101344299586
 20
-124.8473320542916
 30
0.0
 10
47.58365884227075
 20
-124.8473320542916
 30
0.0
 10
47.70217012696335
 20
-124.7753295586499
 30
0.0
 10
47.70217012696335
 20
-124.5977348863853
 30
0.0
 10
47.70217012696335
 20
-124.4199679593464
 30
0.0
 10
47.58365884227075
 20
-124.3481377184789
 30
0.0
 10
47.46101344299586
 20
-124.3481377184789
 30
0.0
 10
47.32562119042554
 20
-124.3481377184789
 30
0.0
 10
47.23053655503264
 20
-124.434781869933
 30
0.0
 10
47.23053655503264
 20
-124.5977348863853
 30
0.0
  0
SPLINE
  5
BC
330
B6
100
AcDbEntity
  8
_U+30EC_U+30A4_U+30E4_U+30FC 1
370
     0
100
AcDbSpline
210
0.0
220
0.0
230
1.0
 70
    11
 71
     3
 72
    17
 73
    13
 74
     0
 42
0.0000000001
 43
0.0000000001
 12
1.0
 22
0.0
 32
0.0
 13
1.0
 23
0.0
 33
0.0
 40
0.0
 40
0.0
 40
0.0
 40
0.0
 40
1.0
 40
1.0
 40
1.0
 40
2.0
 40
2.0
 40
2.0
 40
3.0
 40
3.0
 40
3.0
 40
4.0
 40
4.0
 40
4.0
 40
4.0
 10
47.89061685000652
 20
-124.5977348863853
 30
0.0
 10
47.89061685000652
 20
-124.7415676228945
 30
0.0
 10
47.97743325623481
 20
-124.8938408433425
 30
0.0
 10
48.18034938031602
 20
-124.8938408433425
 30
0.0
 10
48.38567707123692
 20
-124.8938408433425
 30
0.0
 10
48.48696287850326
 20
-124.7668890747111
 30
0.0
 10
48.48696287850326
 20
-124.5977348863853
 30
0.0
 10
48.48696287850326
 20
-124.4115274754075
 30
0.0
 10
48.36431747922837
 20
-124.3014566746538
 30
0.0
 10
48.18655055218947
 20
-124.3014566746538
 30
0.0
 10
47.96468640293939
 20
-124.3014566746538
 30
0.0
 10
47.89061685000652
 20
-124.4644096911061
 30
0.0
 10
47.89061685000652
 20
-124.5977348863853
 30
0.0
  0
HATCH
  5
BD
330
B6
100
AcDbEntity
  8
_U+30EC_U+30A4_U+30E4_U+30FC 1
 62
   179
420
  2234388
100
AcDbHatch
 10
0.0
 20
0.0
 30
0.0
210
0.0
220
0.0
230
1.0
  2
SOLID
 70
     1
 71
     0
 91
        3
 92
        1
 93
        1
 72
     4
 94
        3
 73
     0
 74
     1
 95
       29
 96
       25
 40
0.0
 40
0.0
 40
0.0
 40
0.0
 40
1.0
 40
1.0
 40
1.0
 40
2.0
 40
2.0
 40
2.0
 40
3.0
 40
3.0
 40
3.0
 40
4.0
 40
4.0
 40
4.0
 40
5.0
 40
5.0
 40
5.0
 40
6.0
 40
6.0
 40
6.0
 40
7.0
 40
7.0
 40
7.0
 40
8.0
 40
8.0
 40
8.0
 40
8.0
 10
48.68161077341988
 20
-124.5977348863853
 10
48.68161077341988
 20
-124.8642130221694
 10
48.54415146355841
 20
-125.1181165594323
 10
48.1951632909026
 20
-125.1181165594323
 10
47.93919269634853
 20
-125.1181165594323
 10
47.84410806095564
 20
-124.9763508802143
 10
47.7827853613182
 20
-124.8705864488171
 10
47.7235297189719
 20
-124.9954711601574
 10
47.6091525488616
 20
-125.0716077703814
 10
47.44826658970044
 20
-125.0716077703814
 10
47.1733479699775
 20
-125.0716077703814
 10
47.03795571740718
 20
-124.8726535061082
 10
47.03795571740718
 20
-124.5977348863853
 10
47.03795571740718
 20
-124.3142035279492
 10
47.18196070869062
 20
-124.1238620023892
 10
47.44826658970044
 20
-124.1238620023892
 10
47.6091525488616
 20
-124.1238620023892
 10
47.7235297189719
 20
-124.2020656699044
 10
47.7827853613182
 20
-124.3269503812447
 10
47.83342826495137
 20
-124.2380669177252
 10
47.92851290034427
 20
-124.0794202706295
 10
48.1910291763203
 20
-124.0794202706295
 10
48.56551105556696
 20
-124.0794202706295
 10
48.68161077341988
 20
-124.358645259709
 10
48.68161077341988
 20
-124.5977348863853
 97
        0
 97
        0
 92
        1
 93
        1
 72
     4
 94
        3
 73
     0
 74
     1
 95
       17
 96
       13
 40
0.0
 40
0.0
 40
0.0
 40
0.0
 40
1.0
 40
1.0
 40
1.0
 40
2.0
 40
2.0
 40
2.0
 40
3.0
 40
3.0
 40
3.0
 40
4.0
 40
4.0
 40
4.0
 40
4.0
 10
47.23053655503264
 20
-124.5977348863853
 10
47.23053655503264
 20
-124.7627549601288
 10
47.32562119042554
 20
-124.8473320542916
 10
47.46101344299586
 20
-124.8473320542916
 10
47.58365884227075
 20
-124.8473320542916
 10
47.70217012696335
 20
-124.7753295586499
 10
47.70217012696335
 20
-124.5977348863853
 10
47.70217012696335
 20
-124.4199679593464
 10
47.58365884227075
 20
-124.3481377184789
 10
47.46101344299586
 20
-124.3481377184789
 10
47.32562119042554
 20
-124.3481377184789
 10
47.23053655503264
 20
-124.434781869933
 10
47.23053655503264
 20
-124.5977348863853
 97
        0
 97
        0
 92
        1
 93
        1
 72
     4
 94
        3
 73
     0
 74
     1
 95
       17
 96
       13
 40
0.0
 40
0.0
 40
0.0
 40
0.0
 40
1.0
 40
1.0
 40
1.0
 40
2.0
 40
2.0
 40
2.0
 40
3.0
 40
3.0
 40
3.0
 40
4.0
 40
4.0
 40
4.0
 40
4.0
 10
47.89061685000652
 20
-124.5977348863853
 10
47.89061685000652
 20
-124.7415676228945
 10
47.97743325623481
 20
-124.8938408433425
 10
48.18034938031602
 20
-124.8938408433425
 10
48.38567707123692
 20
-124.8938408433425
 10
48.48696287850326
 20
-124.7668890747111
 10
48.48696287850326
 20
-124.5977348863853
 10
48.48696287850326
 20
-124.4115274754075
 10
48.36431747922837
 20
-124.3014566746538
 10
48.18655055218947
 20
-124.3014566746538
 10
47.96468640293939
 20
-124.3014566746538
 10
47.89061685000652
 20
-124.4644096911061
 10
47.89061685000652
 20
-124.5977348863853
 97
        0
 97
        0
 75
     2
 76
     1
 98
        0
  0
SPLINE
  5
BE
330
B6
100
AcDbEntity
  8
_U+30EC_U+30A4_U+30E4_U+30FC 1
370
     0
100
AcDbSpline
210
0.0
220
0.0
230
1.0
 70
    11
 71
     3
 72
    29
 73
    25
 74
     0
 42
0.0000000001
 43
0.0000000001
 12
1.0
 22
0.0
 32
0.0
 13
1.0
 23
0.0
 33
0.0
 40
0.0
 40
0.0
 40
0.0
 40
0.0
 40
1.0
 40
1.0
 40
1.0
 40
2.0
 40
2.0
 40
2.0
 40
3.0
 40
3.0
 40
3.0
 40
4.0
 40
4.0
 40
4.0
 40
5.0
 40
5.0
 40
5.0
 40
6.0
 40
6.0
 40
6.0
 40
7.0
 40
7.0
 40
7.0
 40
8.0
 40
8.0
 40
8.0
 40
8.0
 10
48.45320094274781
 20
-123.0231539948519
 30
0.0
 10
48.662662748251
 20
-123.1309854835402
 30
0.0
 10
48.68161077341988
 20
-123.3044460412225
 30
0.0
 10
48.68161077341988
 20
-123.4208902686239
 30
0.0
 10
48.68161077341988
 20
-123.5816039730109
 30
0.0
 10
48.635101984369
 20
-123.7233696522289
 30
0.0
 10
48.45320094274781
 20
-123.818626542396
 30
0.0
 10
48.2585530478312
 20
-123.9221516617278
 30
0.0
 10
48.02153047844601
 20
-123.9412719416709
 30
0.0
 10
47.85892197154222
 20
-123.9412719416709
 30
0.0
 10
47.71491698025877
 20
-123.9412719416709
 30
0.0
 10
47.46308050028701
 20
-123.9243909737932
 30
0.0
 10
47.26429849078809
 20
-123.818626542396
 30
0.0
 10
47.06138236670688
 20
-123.7106227989335
 30
0.0
 10
47.03795571740718
 20
-123.5499090945465
 30
0.0
 10
47.03795571740718
 20
-123.4208902686239
 30
0.0
 10
47.03795571740718
 20
-123.2622436215282
 30
0.0
 10
47.0823974491669
 20
-123.118410885019
 30
0.0
 10
47.26429849078809
 20
-123.0231539948519
 30
0.0
 10
47.45687932841356
 20
-122.9237629901024
 30
0.0
 10
47.68528915908563
 20
-122.900508595577
 30
0.0
 10
47.85892197154222
 20
-122.900508595577
 30
0.0
 10
48.03014321715914
 20
-122.900508595577
 30
0.0
 10
48.26062010512235
 20
-122.921523678037
 30
0.0
 10
48.45320094274781
 20
-123.0231539948519
 30
0.0
  0
SPLINE
  5
BF
330
B6
100
AcDbEntity
  8
_U+30EC_U+30A4_U+30E4_U+30FC 1
370
     0
100
AcDbSpline
210
0.0
220
0.0
230
1.0
 70
    11
 71
     3
 72
    17
 73
    13
 74
     0
 42
0.0000000001
 43
0.0000000001
 12
1.0
 22
0.0
 32
0.0
 13
1.0
 23
0.0
 33
0.0
 40
0.0
 40
0.0
 40
0.0
 40
0.0
 40
1.0
 40
1.0
 40
1.0
 40
2.0
 40
2.0
 40
2.0
 40
3.0
 40
3.0
 40
3.0
 40
4.0
 40
4.0
 40
4.0
 40
4.0
 10
47.23053655503264
 20
-123.4208902686239
 30
0.0
 10
47.23053655503264
 20
-123.6704874365303
 30
0.0
 10
47.51406791346871
 20
-123.7169962255812
 30
0.0
 10
47.85892197154222
 20
-123.7169962255812
 30
0.0
 10
48.17828232302487
 20
-123.7169962255812
 30
0.0
 10
48.48696287850326
 20
-123.6809949777603
 30
0.0
 10
48.48696287850326
 20
-123.4208902686239
 30
0.0
 10
48.48696287850326
 20
-123.1733601580087
 30
0.0
 10
48.20584308690687
 20
-123.1246120568925
 30
0.0
 10
47.85892197154222
 20
-123.1246120568925
 30
0.0
 10
47.53921711051103
 20
-123.1246120568925
 30
0.0
 10
47.23053655503264
 20
-123.1628526167787
 30
0.0
 10
47.23053655503264
 20
-123.4208902686239
 30
0.0
  0
HATCH
  5
C0
330
B6
100
AcDbEntity
  8
_U+30EC_U+30A4_U+30E4_U+30FC 1
 62
   179
420
  2234388
100
AcDbHatch
 10
0.0
 20
0.0
 30
0.0
210
0.0
220
0.0
230
1.0
  2
SOLID
 70
     1
 71
     0
 91
        2
 92
        1
 93
        1
 72
     4
 94
        3
 73
     0
 74
     1
 95
       29
 96
       25
 40
0.0
 40
0.0
 40
0.0
 40
0.0
 40
1.0
 40
1.0
 40
1.0
 40
2.0
 40
2.0
 40
2.0
 40
3.0
 40
3.0
 40
3.0
 40
4.0
 40
4.0
 40
4.0
 40
5.0
 40
5.0
 40
5.0
 40
6.0
 40
6.0
 40
6.0
 40
7.0
 40
7.0
 40
7.0
 40
8.0
 40
8.0
 40
8.0
 40
8.0
 10
48.45320094274781
 20
-123.0231539948519
 10
48.662662748251
 20
-123.1309854835402
 10
48.68161077341988
 20
-123.3044460412225
 10
48.68161077341988
 20
-123.4208902686239
 10
48.68161077341988
 20
-123.5816039730109
 10
48.635101984369
 20
-123.7233696522289
 10
48.45320094274781
 20
-123.818626542396
 10
48.2585530478312
 20
-123.9221516617278
 10
48.02153047844601
 20
-123.9412719416709
 10
47.85892197154222
 20
-123.9412719416709
 10
47.71491698025877
 20
-123.9412719416709
 10
47.46308050028701
 20
-123.9243909737932
 10
47.26429849078809
 20
-123.818626542396
 10
47.06138236670688
 20
-123.7106227989335
 10
47.03795571740718
 20
-123.5499090945465
 10
47.03795571740718
 20
-123.4208902686239
 10
47.03795571740718
 20
-123.2622436215282
 10
47.0823974491669
 20
-123.118410885019
 10
47.26429849078809
 20
-123.0231539948519
 10
47.45687932841356
 20
-122.9237629901024
 10
47.68528915908563
 20
-122.900508595577
 10
47.85892197154222
 20
-122.900508595577
 10
48.03014321715914
 20
-122.900508595577
 10
48.26062010512235
 20
-122.921523678037
 10
48.45320094274781
 20
-123.0231539948519
 97
        0
 97
        0
 92
        1
 93
        1
 72
     4
 94
        3
 73
     0
 74
     1
 95
       17
 96
       13
 40
0.0
 40
0.0
 40
0.0
 40
0.0
 40
1.0
 40
1.0
 40
1.0
 40
2.0
 40
2.0
 40
2.0
 40
3.0
 40
3.0
 40
3.0
 40
4.0
 40
4.0
 40
4.0
 40
4.0
 10
47.23053655503264
 20
-123.4208902686239
 10
47.23053655503264
 20
-123.6704874365303
 10
47.51406791346871
 20
-123.7169962255812
 10
47.85892197154222
 20
-123.7169962255812
 10
48.17828232302487
 20
-123.7169962255812
 10
48.48696287850326
 20
-123.6809949777603
 10
48.48696287850326
 20
-123.4208902686239
 10
48.48696287850326
 20
-123.1733601580087
 10
48.20584308690687
 20
-123.1246120568925
 10
47.85892197154222
 20
-123.1246120568925
 10
47.53921711051103
 20
-123.1246120568925
 10
47.23053655503264
 20
-123.1628526167787
 10
47.23053655503264
 20
-123.4208902686239
 97
        0
 97
        0
 75
     2
 76
     1
 98
        0
  0
ENDBLK
  5
B9
330
B6
100
AcDbEntity
  8
0
100
AcDbBlockEnd
  0
BLOCK
  5
CF
330
CD
100
AcDbEntity
  8
0
100
AcDbBlockBegin
  2
block 6
 70
     0
 10
0.0
 20
0.0
 30
0.0
  3
block 6
  1

  0
SPLINE
  5
D1
330
CD
100
AcDbEntity
  8
_U+30EC_U+30A4_U+30E4_U+30FC 1
370
     0
100
AcDbSpline
210
0.0
220
0.0
230
1.0
 70
    11
 71
     3
 72
    29
 73
    25
 74
     0
 42
0.0000000001
 43
0.0000000001
 12
1.0
 22
0.0
 32
0.0
 13
1.0
 23
0.0
 33
0.0
 40
0.0
 40
0.0
 40
0.0
 40
0.0
 40
1.0
 40
1.0
 40
1.0
 40
2.0
 40
2.0
 40
2.0
 40
3.0
 40
3.0
 40
3.0
 40
4.0
 40
4.0
 40
4.0
 40
5.0
 40
5.0
 40
5.0
 40
6.0
 40
6.0
 40
6.0
 40
7.0
 40
7.0
 40
7.0
 40
8.0
 40
8.0
 40
8.0
 40
8.0
 10
92.26379120957294
 20
-172.1507323788373
 30
0.0
 10
91.9971408190146
 20
-172.1507323788373
 30
0.0
 10
91.74358179130022
 20
-172.0132730689758
 30
0.0
 10
91.74358179130022
 20
-171.6642848963201
 30
0.0
 10
91.74358179130022
 20
-171.408314301766
 30
0.0
 10
91.88517521574398
 20
-171.3132296663731
 30
0.0
 10
91.99093964714116
 20
-171.2519069667356
 30
0.0
 10
91.86622719057512
 20
-171.1926513243893
 30
0.0
 10
91.78974607080256
 20
-171.0782741542791
 30
0.0
 10
91.78974607080256
 20
-170.9173881951179
 30
0.0
 10
91.78974607080256
 20
-170.642469575395
 30
0.0
 10
91.98887258985
 20
-170.5070773228246
 30
0.0
 10
92.26379120957294
 20
-170.5070773228246
 30
0.0
 10
92.54732256800901
 20
-170.5070773228246
 30
0.0
 10
92.73783634834332
 20
-170.6510823141081
 30
0.0
 10
92.73783634834332
 20
-170.9173881951179
 30
0.0
 10
92.73783634834332
 20
-171.0782741542791
 30
0.0
 10
92.65928817127963
 20
-171.1926513243893
 30
0.0
 10
92.53457571471358
 20
-171.2519069667356
 30
0.0
 10
92.62345917823303
 20
-171.3025498703688
 30
0.0
 10
92.78193357055451
 20
-171.3976345057617
 30
0.0
 10
92.78193357055451
 20
-171.6601507817377
 30
0.0
 10
92.78193357055451
 20
-172.0346326609844
 30
0.0
 10
92.50288083624929
 20
-172.1507323788373
 30
0.0
 10
92.26379120957294
 20
-172.1507323788373
 30
0.0
  0
SPLINE
  5
D2
330
CD
100
AcDbEntity
  8
_U+30EC_U+30A4_U+30E4_U+30FC 1
370
     0
100
AcDbSpline
210
0.0
220
0.0
230
1.0
 70
    11
 71
     3
 72
    17
 73
    13
 74
     0
 42
0.0000000001
 43
0.0000000001
 12
1.0
 22
0.0
 32
0.0
 13
1.0
 23
0.0
 33
0.0
 40
0.0
 40
0.0
 40
0.0
 40
0.0
 40
1.0
 40
1.0
 40
1.0
 40
2.0
 40
2.0
 40
2.0
 40
3.0
 40
3.0
 40
3.0
 40
4.0
 40
4.0
 40
4.0
 40
4.0
 10
92.26379120957294
 20
-171.359738455424
 30
0.0
 10
92.1197862182895
 20
-171.359738455424
 30
0.0
 10
91.96751299784145
 20
-171.4465548616523
 30
0.0
 10
91.96751299784145
 20
-171.6494709857335
 30
0.0
 10
91.96751299784145
 20
-171.8547986766544
 30
0.0
 10
92.09463702124718
 20
-171.9560844839207
 30
0.0
 10
92.26379120957294
 20
-171.9560844839207
 30
0.0
 10
92.44982636577643
 20
-171.9560844839207
 30
0.0
 10
92.56006942130443
 20
-171.8334390846458
 30
0.0
 10
92.56006942130443
 20
-171.6556721576069
 30
0.0
 10
92.56006942130443
 20
-171.4338080083568
 30
0.0
 10
92.39711640485211
 20
-171.359738455424
 30
0.0
 10
92.26379120957294
 20
-171.359738455424
 30
0.0
  0
SPLINE
  5
D3
330
CD
100
AcDbEntity
  8
_U+30EC_U+30A4_U+30E4_U+30FC 1
370
     0
100
AcDbSpline
210
0.0
220
0.0
230
1.0
 70
    11
 71
     3
 72
    17
 73
    13
 74
     0
 42
0.0000000001
 43
0.0000000001
 12
1.0
 22
0.0
 32
0.0
 13
1.0
 23
0.0
 33
0.0
 40
0.0
 40
0.0
 40
0.0
 40
0.0
 40
1.0
 40
1.0
 40
1.0
 40
2.0
 40
2.0
 40
2.0
 40
3.0
 40
3.0
 40
3.0
 40
4.0
 40
4.0
 40
4.0
 40
4.0
 10
92.26379120957294
 20
-170.6996581604501
 30
0.0
 10
92.09877113582948
 20
-170.6996581604501
 30
0.0
 10
92.01436629644085
 20
-170.794742795843
 30
0.0
 10
92.01436629644085
 20
-170.9301350484133
 30
0.0
 10
92.01436629644085
 20
-171.0527804476882
 30
0.0
 10
92.08602428253405
 20
-171.1712917323808
 30
0.0
 10
92.26379120957294
 20
-171.1712917323808
 30
0.0
 10
92.44155813661183
 20
-171.1712917323808
 30
0.0
 10
92.51321612270503
 20
-171.0527804476882
 30
0.0
 10
92.51321612270503
 20
-170.9301350484133
 30
0.0
 10
92.51321612270503
 20
-170.794742795843
 30
0.0
 10
92.42674422602526
 20
-170.6996581604501
 30
0.0
 10
92.26379120957294
 20
-170.6996581604501
 30
0.0
  0
HATCH
  5
D4
330
CD
100
AcDbEntity
  8
_U+30EC_U+30A4_U+30E4_U+30FC 1
 62
   179
420
  2234388
100
AcDbHatch
 10
0.0
 20
0.0
 30
0.0
210
0.0
220
0.0
230
1.0
  2
SOLID
 70
     1
 71
     0
 91
        3
 92
        1
 93
        1
 72
     4
 94
        3
 73
     0
 74
     1
 95
       29
 96
       25
 40
0.0
 40
0.0
 40
0.0
 40
0.0
 40
1.0
 40
1.0
 40
1.0
 40
2.0
 40
2.0
 40
2.0
 40
3.0
 40
3.0
 40
3.0
 40
4.0
 40
4.0
 40
4.0
 40
5.0
 40
5.0
 40
5.0
 40
6.0
 40
6.0
 40
6.0
 40
7.0
 40
7.0
 40
7.0
 40
8.0
 40
8.0
 40
8.0
 40
8.0
 10
92.26379120957294
 20
-172.1507323788373
 10
91.9971408190146
 20
-172.1507323788373
 10
91.74358179130022
 20
-172.0132730689758
 10
91.74358179130022
 20
-171.6642848963201
 10
91.74358179130022
 20
-171.408314301766
 10
91.88517521574398
 20
-171.3132296663731
 10
91.99093964714116
 20
-171.2519069667356
 10
91.86622719057512
 20
-171.1926513243893
 10
91.78974607080256
 20
-171.0782741542791
 10
91.78974607080256
 20
-170.9173881951179
 10
91.78974607080256
 20
-170.642469575395
 10
91.98887258985
 20
-170.5070773228246
 10
92.26379120957294
 20
-170.5070773228246
 10
92.54732256800901
 20
-170.5070773228246
 10
92.73783634834332
 20
-170.6510823141081
 10
92.73783634834332
 20
-170.9173881951179
 10
92.73783634834332
 20
-171.0782741542791
 10
92.65928817127963
 20
-171.1926513243893
 10
92.53457571471358
 20
-171.2519069667356
 10
92.62345917823303
 20
-171.3025498703688
 10
92.78193357055451
 20
-171.3976345057617
 10
92.78193357055451
 20
-171.6601507817377
 10
92.78193357055451
 20
-172.0346326609844
 10
92.50288083624929
 20
-172.1507323788373
 10
92.26379120957294
 20
-172.1507323788373
 97
        0
 97
        0
 92
        1
 93
        1
 72
     4
 94
        3
 73
     0
 74
     1
 95
       17
 96
       13
 40
0.0
 40
0.0
 40
0.0
 40
0.0
 40
1.0
 40
1.0
 40
1.0
 40
2.0
 40
2.0
 40
2.0
 40
3.0
 40
3.0
 40
3.0
 40
4.0
 40
4.0
 40
4.0
 40
4.0
 10
92.26379120957294
 20
-171.359738455424
 10
92.1197862182895
 20
-171.359738455424
 10
91.96751299784145
 20
-171.4465548616523
 10
91.96751299784145
 20
-171.6494709857335
 10
91.96751299784145
 20
-171.8547986766544
 10
92.09463702124718
 20
-171.9560844839207
 10
92.26379120957294
 20
-171.9560844839207
 10
92.44982636577643
 20
-171.9560844839207
 10
92.56006942130443
 20
-171.8334390846458
 10
92.56006942130443
 20
-171.6556721576069
 10
92.56006942130443
 20
-171.4338080083568
 10
92.39711640485211
 20
-171.359738455424
 10
92.26379120957294
 20
-171.359738455424
 97
        0
 97
        0
 92
        1
 93
        1
 72
     4
 94
        3
 73
     0
 74
     1
 95
       17
 96
       13
 40
0.0
 40
0.0
 40
0.0
 40
0.0
 40
1.0
 40
1.0
 40
1.0
 40
2.0
 40
2.0
 40
2.0
 40
3.0
 40
3.0
 40
3.0
 40
4.0
 40
4.0
 40
4.0
 40
4.0
 10
92.26379120957294
 20
-170.6996581604501
 10
92.09877113582948
 20
-170.6996581604501
 10
92.01436629644085
 20
-170.794742795843
 10
92.01436629644085
 20
-170.9301350484133
 10
92.01436629644085
 20
-171.0527804476882
 10
92.08602428253405
 20
-171.1712917323808
 10
92.26379120957294
 20
-171.1712917323808
 10
92.44155813661183
 20
-171.1712917323808
 10
92.51321612270503
 20
-171.0527804476882
 10
92.51321612270503
 20
-170.9301350484133
 10
92.51321612270503
 20
-170.794742795843
 10
92.42674422602526
 20
-170.6996581604501
 10
92.26379120957294
 20
-170.6996581604501
 97
        0
 97
        0
 75
     2
 76
     1
 98
        0
  0
SPLINE
  5
D5
330
CD
100
AcDbEntity
  8
_U+30EC_U+30A4_U+30E4_U+30FC 1
370
     0
100
AcDbSpline
210
0.0
220
0.0
230
1.0
 70
    11
 71
     3
 72
    29
 73
    25
 74
     0
 42
0.0000000001
 43
0.0000000001
 12
1.0
 22
0.0
 32
0.0
 13
1.0
 23
0.0
 33
0.0
 40
0.0
 40
0.0
 40
0.0
 40
0.0
 40
1.0
 40
1.0
 40
1.0
 40
2.0
 40
2.0
 40
2.0
 40
3.0
 40
3.0
 40
3.0
 40
4.0
 40
4.0
 40
4.0
 40
5.0
 40
5.0
 40
5.0
 40
6.0
 40
6.0
 40
6.0
 40
7.0
 40
7.0
 40
7.0
 40
8.0
 40
8.0
 40
8.0
 40
8.0
 10
93.83819984633212
 20
-171.9223225481653
 30
0.0
 10
93.73071286719232
 20
-172.1317843536685
 30
0.0
 10
93.55708005473574
 20
-172.1507323788373
 30
0.0
 10
93.44063582733429
 20
-172.1507323788373
 30
0.0
 10
93.28009437772165
 20
-172.1507323788373
 30
0.0
 10
93.13815644372936
 20
-172.1042235897864
 30
0.0
 10
93.04307180833646
 20
-171.9223225481653
 30
0.0
 10
92.93937443423044
 20
-171.7276746532486
 30
0.0
 10
92.92042640906156
 20
-171.490996593412
 30
0.0
 10
92.92042640906156
 20
-171.3280435769597
 30
0.0
 10
92.92042640906156
 20
-171.1840385856762
 30
0.0
 10
92.93696286739076
 20
-170.9322021057044
 30
0.0
 10
93.04307180833646
 20
-170.7334200962055
 30
0.0
 10
93.15090329702478
 20
-170.5305039721243
 30
0.0
 10
93.31178925618595
 20
-170.5070773228246
 30
0.0
 10
93.44063582733429
 20
-170.5070773228246
 30
0.0
 10
93.59911021965578
 20
-170.5070773228246
 30
0.0
 10
93.74311521093922
 20
-170.5515190545844
 30
0.0
 10
93.83819984633212
 20
-170.7334200962055
 30
0.0
 10
93.93776310585584
 20
-170.926000933831
 30
0.0
 10
93.96084524560702
 20
-171.1544107645031
 30
0.0
 10
93.96084524560702
 20
-171.3280435769597
 30
0.0
 10
93.96084524560702
 20
-171.4992648225766
 30
0.0
 10
93.94017467269552
 20
-171.7297417105398
 30
0.0
 10
93.83819984633212
 20
-171.9223225481653
 30
0.0
  0
SPLINE
  5
D6
330
CD
100
AcDbEntity
  8
_U+30EC_U+30A4_U+30E4_U+30FC 1
370
     0
100
AcDbSpline
210
0.0
220
0.0
230
1.0
 70
    11
 71
     3
 72
    17
 73
    13
 74
     0
 42
0.0000000001
 43
0.0000000001
 12
1.0
 22
0.0
 32
0.0
 13
1.0
 23
0.0
 33
0.0
 40
0.0
 40
0.0
 40
0.0
 40
0.0
 40
1.0
 40
1.0
 40
1.0
 40
2.0
 40
2.0
 40
2.0
 40
3.0
 40
3.0
 40
3.0
 40
4.0
 40
4.0
 40
4.0
 40
4.0
 10
93.44063582733429
 20
-170.6996581604501
 30
0.0
 10
93.1912109142022
 20
-170.6996581604501
 30
0.0
 10
93.1443576156028
 20
-170.9831895188861
 30
0.0
 10
93.1443576156028
 20
-171.3280435769597
 30
0.0
 10
93.1443576156028
 20
-171.6474039284423
 30
0.0
 10
93.18053111819793
 20
-171.9560844839207
 30
0.0
 10
93.44063582733429
 20
-171.9560844839207
 30
0.0
 10
93.68799368317522
 20
-171.9560844839207
 30
0.0
 10
93.73691403906578
 20
-171.6749646923243
 30
0.0
 10
93.73691403906578
 20
-171.3280435769597
 30
0.0
 10
93.73691403906578
 20
-171.0083387159285
 30
0.0
 10
93.6986734791795
 20
-170.6996581604501
 30
0.0
 10
93.44063582733429
 20
-170.6996581604501
 30
0.0
  0
HATCH
  5
D7
330
CD
100
AcDbEntity
  8
_U+30EC_U+30A4_U+30E4_U+30FC 1
 62
   179
420
  2234388
100
AcDbHatch
 10
0.0
 20
0.0
 30
0.0
210
0.0
220
0.0
230
1.0
  2
SOLID
 70
     1
 71
     0
 91
        2
 92
        1
 93
        1
 72
     4
 94
        3
 73
     0
 74
     1
 95
       29
 96
       25
 40
0.0
 40
0.0
 40
0.0
 40
0.0
 40
1.0
 40
1.0
 40
1.0
 40
2.0
 40
2.0
 40
2.0
 40
3.0
 40
3.0
 40
3.0
 40
4.0
 40
4.0
 40
4.0
 40
5.0
 40
5.0
 40
5.0
 40
6.0
 40
6.0
 40
6.0
 40
7.0
 40
7.0
 40
7.0
 40
8.0
 40
8.0
 40
8.0
 40
8.0
 10
93.83819984633212
 20
-171.9223225481653
 10
93.73071286719232
 20
-172.1317843536685
 10
93.55708005473574
 20
-172.1507323788373
 10
93.44063582733429
 20
-172.1507323788373
 10
93.28009437772165
 20
-172.1507323788373
 10
93.13815644372936
 20
-172.1042235897864
 10
93.04307180833646
 20
-171.9223225481653
 10
92.93937443423044
 20
-171.7276746532486
 10
92.92042640906156
 20
-171.490996593412
 10
92.92042640906156
 20
-171.3280435769597
 10
92.92042640906156
 20
-171.1840385856762
 10
92.93696286739076
 20
-170.9322021057044
 10
93.04307180833646
 20
-170.7334200962055
 10
93.15090329702478
 20
-170.5305039721243
 10
93.31178925618595
 20
-170.5070773228246
 10
93.44063582733429
 20
-170.5070773228246
 10
93.59911021965578
 20
-170.5070773228246
 10
93.74311521093922
 20
-170.5515190545844
 10
93.83819984633212
 20
-170.7334200962055
 10
93.93776310585584
 20
-170.926000933831
 10
93.96084524560702
 20
-171.1544107645031
 10
93.96084524560702
 20
-171.3280435769597
 10
93.96084524560702
 20
-171.4992648225766
 10
93.94017467269552
 20
-171.7297417105398
 10
93.83819984633212
 20
-171.9223225481653
 97
        0
 97
        0
 92
        1
 93
        1
 72
     4
 94
        3
 73
     0
 74
     1
 95
       17
 96
       13
 40
0.0
 40
0.0
 40
0.0
 40
0.0
 40
1.0
 40
1.0
 40
1.0
 40
2.0
 40
2.0
 40
2.0
 40
3.0
 40
3.0
 40
3.0
 40
4.0
 40
4.0
 40
4.0
 40
4.0
 10
93.44063582733429
 20
-170.6996581604501
 10
93.1912109142022
 20
-170.6996581604501
 10
93.1443576156028
 20
-170.9831895188861
 10
93.1443576156028
 20
-171.3280435769597
 10
93.1443576156028
 20
-171.6474039284423
 10
93.18053111819793
 20
-171.9560844839207
 10
93.44063582733429
 20
-171.9560844839207
 10
93.68799368317522
 20
-171.9560844839207
 10
93.73691403906578
 20
-171.6749646923243
 10
93.73691403906578
 20
-171.3280435769597
 10
93.73691403906578
 20
-171.0083387159285
 10
93.6986734791795
 20
-170.6996581604501
 10
93.44063582733429
 20
-170.6996581604501
 97
        0
 97
        0
 75
     2
 76
     1
 98
        0
  0
ENDBLK
  5
D0
330
CD
100
AcDbEntity
  8
0
100
AcDbBlockEnd
  0
BLOCK
  5
F7
330
F5
100
AcDbEntity
  8
0
100
AcDbBlockBegin
  2
block 7
 70
     0
 10
0.0
 20
0.0
 30
0.0
  3
block 7
  1

  0
SPLINE
  5
F9
330
F5
100
AcDbEntity
  8
_U+30EC_U+30A4_U+30E4_U+30FC 1
370
     0
100
AcDbSpline
210
0.0
220
0.0
230
1.0
 70
    11
 71
     3
 72
   242
 73
   238
 74
     0
 42
0.0000000001
 43
0.0000000001
 12
1.0
 22
0.0
 32
0.0
 13
1.0
 23
0.0
 33
0.0
 40
0.0
 40
0.0
 40
0.0
 40
0.0
 40
1.0
 40
1.0
 40
1.0
 40
2.0
 40
2.0
 40
2.0
 40
3.0
 40
3.0
 40
3.0
 40
4.0
 40
4.0
 40
4.0
 40
5.0
 40
5.0
 40
5.0
 40
6.0
 40
6.0
 40
6.0
 40
7.0
 40
7.0
 40
7.0
 40
8.0
 40
8.0
 40
8.0
 40
9.0
 40
9.0
 40
9.0
 40
10.0
 40
10.0
 40
10.0
 40
11.0
 40
11.0
 40
11.0
 40
12.0
 40
12.0
 40
12.0
 40
13.0
 40
13.0
 40
13.0
 40
14.0
 40
14.0
 40
14.0
 40
15.0
 40
15.0
 40
15.0
 40
16.0
 40
16.0
 40
16.0
 40
17.0
 40
17.0
 40
17.0
 40
18.0
 40
18.0
 40
18.0
 40
19.0
 40
19.0
 40
19.0
 40
20.0
 40
20.0
 40
20.0
 40
21.0
 40
21.0
 40
21.0
 40
22.0
 40
22.0
 40
22.0
 40
23.0
 40
23.0
 40
23.0
 40
24.0
 40
24.0
 40
24.0
 40
25.0
 40
25.0
 40
25.0
 40
26.0
 40
26.0
 40
26.0
 40
27.0
 40
27.0
 40
27.0
 40
28.0
 40
28.0
 40
28.0
 40
29.0
 40
29.0
 40
29.0
 40
30.0
 40
30.0
 40
30.0
 40
31.0
 40
31.0
 40
31.0
 40
32.0
 40
32.0
 40
32.0
 40
33.0
 40
33.0
 40
33.0
 40
34.0
 40
34.0
 40
34.0
 40
35.0
 40
35.0
 40
35.0
 40
36.0
 40
36.0
 40
36.0
 40
37.0
 40
37.0
 40
37.0
 40
38.0
 40
38.0
 40
38.0
 40
39.0
 40
39.0
 40
39.0
 40
40.0
 40
40.0
 40
40.0
 40
41.0
 40
41.0
 40
41.0
 40
42.0
 40
42.0
 40
42.0
 40
43.0
 40
43.0
 40
43.0
 40
44.0
 40
44.0
 40
44.0
 40
45.0
 40
45.0
 40
45.0
 40
46.0
 40
46.0
 40
46.0
 40
47.0
 40
47.0
 40
47.0
 40
48.0
 40
48.0
 40
48.0
 40
49.0
 40
49.0
 40
49.0
 40
50.0
 40
50.0
 40
50.0
 40
51.0
 40
51.0
 40
51.0
 40
52.0
 40
52.0
 40
52.0
 40
53.0
 40
53.0
 40
53.0
 40
54.0
 40
54.0
 40
54.0
 40
55.0
 40
55.0
 40
55.0
 40
56.0
 40
56.0
 40
56.0
 40
57.0
 40
57.0
 40
57.0
 40
58.0
 40
58.0
 40
58.0
 40
59.0
 40
59.0
 40
59.0
 40
60.0
 40
60.0
 40
60.0
 40
61.0
 40
61.0
 40
61.0
 40
62.0
 40
62.0
 40
62.0
 40
63.0
 40
63.0
 40
63.0
 40
64.0
 40
64.0
 40
64.0
 40
65.0
 40
65.0
 40
65.0
 40
66.0
 40
66.0
 40
66.0
 40
67.0
 40
67.0
 40
67.0
 40
68.0
 40
68.0
 40
68.0
 40
69.0
 40
69.0
 40
69.0
 40
70.0
 40
70.0
 40
70.0
 40
71.0
 40
71.0
 40
71.0
 40
72.0
 40
72.0
 40
72.0
 40
73.0
 40
73.0
 40
73.0
 40
74.0
 40
74.0
 40
74.0
 40
75.0
 40
75.0
 40
75.0
 40
76.0
 40
76.0
 40
76.0
 40
77.0
 40
77.0
 40
77.0
 40
78.0
 40
78.0
 40
78.0
 40
79.0
 40
79.0
 40
79.0
 40
79.0
 10
118.4933701960711
 20
-96.05684133883301
 30
0.0
 10
118.4933701960711
 20
-96.05684133883301
 30
0.0
 10
118.2711615372725
 20
-96.05684133883301
 30
0.0
 10
118.2711615372725
 20
-96.05684133883301
 30
0.0
 10
118.2711615372725
 20
-96.05684133883301
 30
0.0
 10
118.0286268151109
 20
-96.05684133883301
 30
0.0
 10
118.0286268151109
 20
-96.05684133883301
 30
0.0
 10
118.0286268151109
 20
-96.05684133883301
 30
0.0
 10
118.1399033992845
 20
-96.09887150375306
 30
0.0
 10
118.1399033992845
 20
-96.09887150375306
 30
0.0
 10
118.1488606475461
 20
-96.10335012788389
 30
0.0
 10
118.1598849530989
 20
-96.10955129975734
 30
0.0
 10
118.1598849530989
 20
-96.12229815305277
 30
0.0
 10
118.1598849530989
 20
-96.14331323551279
 30
0.0
 10
118.1323241892169
 20
-96.14985891693476
 30
0.0
 10
118.1137206735966
 20
-96.15399303151706
 30
0.0
 10
118.1047634253349
 20
-96.17741968081675
 30
0.0
 10
118.078580699647
 20
-96.24287649503651
 30
0.0
 10
118.0620442413178
 20
-96.28731822679623
 30
0.0
 10
118.0620442413178
 20
-96.28731822679623
 30
0.0
 10
118.299066810703
 20
-96.28731822679623
 30
0.0
 10
118.299066810703
 20
-96.28731822679623
 30
0.0
 10
118.3783040068638
 20
-96.28731822679623
 30
0.0
 10
118.5505587811263
 20
-96.28318411221393
 30
0.0
 10
118.6745822185952
 20
-96.2745713735008
 30
0.0
 10
118.6745822185952
 20
-96.2745713735008
 30
0.0
 10
118.6745822185952
 20
-96.4523383005397
 30
0.0
 10
118.6745822185952
 20
-96.4523383005397
 30
0.0
 10
118.6025797229535
 20
-96.4482041859574
 30
0.0
 10
118.5843207168817
 20
-96.4482041859574
 30
0.0
 10
118.4265353436573
 20
-96.44372556182657
 30
0.0
 10
118.3989745797753
 20
-96.59841034911429
 30
0.0
 10
118.3600450007919
 20
-96.67868107392061
 30
0.0
 10
118.3211154218086
 20
-96.74861651227118
 30
0.0
 10
118.4265353436573
 20
-96.80787215461748
 30
0.0
 10
118.519552921759
 20
-96.87539602612837
 30
0.0
 10
118.6098144234726
 20
-96.95807831777438
 30
0.0
 10
118.6098144234726
 20
-96.95807831777438
 30
0.0
 10
118.5064615589151
 20
-97.12516544880899
 30
0.0
 10
118.5064615589151
 20
-97.12516544880899
 30
0.0
 10
118.4857909860036
 20
-97.10587291409159
 30
0.0
 10
118.4747666804508
 20
-97.09760468492699
 30
0.0
 10
118.3769259686697
 20
-97.01285533598984
 30
0.0
 10
118.3342067846526
 20
-96.9749592856521
 30
0.0
 10
118.2825303523738
 20
-96.93878578305697
 30
0.0
 10
118.2119058949262
 20
-96.89434405129725
 30
0.0
 10
118.0269042673683
 20
-97.08072371704927
 30
0.0
 10
117.8470702830382
 20
-97.10380585680045
 30
0.0
 10
117.5935112553238
 20
-97.13343367797358
 30
0.0
 10
117.5935112553238
 20
-97.13343367797358
 30
0.0
 10
117.5025607345133
 20
-96.95359969364355
 30
0.0
 10
117.5025607345133
 20
-96.95359969364355
 30
0.0
 10
117.7802354306244
 20
-96.94946557906125
 30
0.0
 10
117.9338866892665
 20
-96.9239718724704
 30
0.0
 10
118.0675563940942
 20
-96.81407332649093
 30
0.0
 10
117.9635145104397
 20
-96.76343042285775
 30
0.0
 10
117.8859998620216
 20
-96.73586965897576
 30
0.0
 10
117.8546494931058
 20
-96.72312280568033
 30
0.0
 10
117.8381130347766
 20
-96.75068356956233
 30
0.0
 10
117.8250216719326
 20
-96.76963159473121
 30
0.0
 10
117.8009060035359
 20
-96.80339353048666
 30
0.0
 10
117.8009060035359
 20
-96.80339353048666
 30
0.0
 10
117.6286512292734
 20
-96.72105574838919
 30
0.0
 10
117.6286512292734
 20
-96.72105574838919
 30
0.0
 10
117.7009982344636
 20
-96.64044051403434
 30
0.0
 10
117.7547417240335
 20
-96.54535587864144
 30
0.0
 10
117.8043510990211
 20
-96.44372556182657
 30
0.0
 10
117.6376084775351
 20
-96.4482041859574
 30
0.0
 10
117.6193494714632
 20
-96.4482041859574
 30
0.0
 10
117.5473469758215
 20
-96.4523383005397
 30
0.0
 10
117.5473469758215
 20
-96.4523383005397
 30
0.0
 10
117.5473469758215
 20
-96.2745713735008
 30
0.0
 10
117.5473469758215
 20
-96.2745713735008
 30
0.0
 10
117.6693033559993
 20
-96.28111705492277
 30
0.0
 10
117.8525824358146
 20
-96.28525116950507
 30
0.0
 10
117.8746310469202
 20
-96.28525116950507
 30
0.0
 10
117.8897894670553
 20
-96.25148923374964
 30
0.0
 10
117.9380208038488
 20
-96.1309108917659
 30
0.0
 10
117.954557262178
 20
-96.05684133883301
 30
0.0
 10
117.9380208038488
 20
-96.05684133883301
 30
0.0
 10
117.7823024879155
 20
-96.06304251070647
 30
0.0
 10
117.6121147709442
 20
-96.07578936400189
 30
0.0
 10
117.6121147709442
 20
-96.07578936400189
 30
0.0
 10
117.6121147709442
 20
-96.20911455928106
 30
0.0
 10
117.6121147709442
 20
-96.20911455928106
 30
0.0
 10
117.5693955869271
 20
-96.23460826587191
 30
0.0
 10
117.5177191546483
 20
-96.2663031443362
 30
0.0
 10
117.4005859081499
 20
-96.33175995855595
 30
0.0
 10
117.4005859081499
 20
-96.33175995855595
 30
0.0
 10
117.4005859081499
 20
-96.47783200713054
 30
0.0
 10
117.4005859081499
 20
-96.47783200713054
 30
0.0
 10
117.4005859081499
 20
-96.47783200713054
 30
0.0
 10
117.4005859081499
 20
-96.94533146447895
 30
0.0
 10
117.4005859081499
 20
-96.94533146447895
 30
0.0
 10
117.4005859081499
 20
-97.07211097833614
 30
0.0
 10
117.3695800487826
 20
-97.13136662068244
 30
0.0
 10
117.1211886642961
 20
-97.12309839151784
 30
0.0
 10
117.1211886642961
 20
-97.12309839151784
 30
0.0
 10
117.030582653034
 20
-96.9157036433058
 30
0.0
 10
117.030582653034
 20
-96.9157036433058
 30
0.0
 10
117.0860486903465
 20
-96.92845049660123
 30
0.0
 10
117.1284233648151
 20
-96.93258461118353
 30
0.0
 10
117.1635633387647
 20
-96.93258461118353
 30
0.0
 10
117.2303981911785
 20
-96.93258461118353
 30
0.0
 10
117.2396999489887
 20
-96.90915796188382
 30
0.0
 10
117.2396999489887
 20
-96.84370114766408
 30
0.0
 10
117.2396999489887
 20
-96.84370114766408
 30
0.0
 10
117.2396999489887
 20
-96.41409774065342
 30
0.0
 10
117.2396999489887
 20
-96.41409774065342
 30
0.0
 10
117.154606090503
 20
-96.45440535783085
 30
0.0
 10
117.1397921799164
 20
-96.46095103925282
 30
0.0
 10
117.098795543642
 20
-96.4798990644217
 30
0.0
 10
117.0953504481567
 20
-96.50091414688173
 30
0.0
 10
117.0915608431229
 20
-96.53054196805486
 30
0.0
 10
117.0746798752452
 20
-96.53054196805486
 30
0.0
 10
117.0677896842747
 20
-96.53054196805486
 30
0.0
 10
117.058143416916
 20
-96.52640785347256
 30
0.0
 10
117.0526312641396
 20
-96.50298120417287
 30
0.0
 10
117.0526312641396
 20
-96.50298120417287
 30
0.0
 10
117.0064669846373
 20
-96.31074487609592
 30
0.0
 10
117.0064669846373
 20
-96.31074487609592
 30
0.0
 10
117.1339355175915
 20
-96.26389157749654
 30
0.0
 10
117.1918131217437
 20
-96.24080943774536
 30
0.0
 10
117.2396999489887
 20
-96.21979435528533
 30
0.0
 10
117.2396999489887
 20
-96.21979435528533
 30
0.0
 10
117.2396999489887
 20
-95.80707191615241
 30
0.0
 10
117.2396999489887
 20
-95.80707191615241
 30
0.0
 10
117.2396999489887
 20
-95.80707191615241
 30
0.0
 10
117.1931911599378
 20
-95.80707191615241
 30
0.0
 10
117.1931911599378
 20
-95.80707191615241
 30
0.0
 10
117.1931911599378
 20
-95.80707191615241
 30
0.0
 10
117.1249782693299
 20
-95.80707191615241
 30
0.0
 10
117.1249782693299
 20
-95.80707191615241
 30
0.0
 10
117.0657226269836
 20
-95.80707191615241
 30
0.0
 10
117.058143416916
 20
-95.80707191615241
 30
0.0
 10
117.0267930480003
 20
-95.81361759757438
 30
0.0
 10
117.0267930480003
 20
-95.81361759757438
 30
0.0
 10
117.0267930480003
 20
-95.61896970265776
 30
0.0
 10
117.0267930480003
 20
-95.61896970265776
 30
0.0
 10
117.050908716397
 20
-95.62517087453121
 30
0.0
 10
117.058143416916
 20
-95.62517087453121
 30
0.0
 10
117.1194661165535
 20
-95.62517087453121
 30
0.0
 10
117.1194661165535
 20
-95.62517087453121
 30
0.0
 10
117.2359103439549
 20
-95.62517087453121
 30
0.0
 10
117.2359103439549
 20
-95.62517087453121
 30
0.0
 10
117.2359103439549
 20
-95.55523543618064
 30
0.0
 10
117.2359103439549
 20
-95.47289765408317
 30
0.0
 10
117.2341877962123
 20
-95.46876353950087
 30
0.0
 10
117.2269530956933
 20
-95.28892955517082
 30
0.0
 10
117.2269530956933
 20
-95.26963702045343
 30
0.0
 10
117.2248860384021
 20
-95.22312823140255
 30
0.0
 10
117.2248860384021
 20
-95.22312823140255
 30
0.0
 10
117.4136772709938
 20
-95.23174097011568
 30
0.0
 10
117.4136772709938
 20
-95.23174097011568
 30
0.0
 10
117.4233235383525
 20
-95.23174097011568
 30
0.0
 10
117.4415825444243
 20
-95.23380802740682
 30
0.0
 10
117.4415825444243
 20
-95.25068899528455
 30
0.0
 10
117.4415825444243
 20
-95.26963702045343
 30
0.0
 10
117.4288356911289
 20
-95.2803168164577
 30
0.0
 10
117.4064425704748
 20
-95.29926484162658
 30
0.0
 10
117.4064425704748
 20
-95.35025225480827
 30
0.0
 10
117.4005859081499
 20
-95.57866208548035
 30
0.0
 10
117.402652965441
 20
-95.62517087453121
 30
0.0
 10
117.5156520973572
 20
-95.62517087453121
 30
0.0
 10
117.52667640291
 20
-95.62517087453121
 30
0.0
 10
117.6121147709442
 20
-95.61655813581808
 30
0.0
 10
117.6121147709442
 20
-95.61655813581808
 30
0.0
 10
117.6121147709442
 20
-95.81120603073471
 30
0.0
 10
117.6121147709442
 20
-95.81120603073471
 30
0.0
 10
117.5783528351888
 20
-95.80913897344355
 30
0.0
 10
117.5190971928425
 20
-95.80500485886125
 30
0.0
 10
117.4005859081499
 20
-95.80707191615241
 30
0.0
 10
117.4005859081499
 20
-95.80707191615241
 30
0.0
 10
117.4005859081499
 20
-96.14572480235246
 30
0.0
 10
117.4005859081499
 20
-96.14572480235246
 30
0.0
 10
117.4488172449434
 20
-96.12229815305277
 30
0.0
 10
117.506350339547
 20
-96.09473738917076
 30
0.0
 10
117.5487250140156
 20
-96.07165524941959
 30
0.0
 10
117.5487250140156
 20
-96.07165524941959
 30
0.0
 10
117.5487250140156
 20
-95.8938883223807
 30
0.0
 10
117.5487250140156
 20
-95.8938883223807
 30
0.0
 10
117.6489772926364
 20
-95.90663517567613
 30
0.0
 10
117.7526746667424
 20
-95.90663517567613
 30
0.0
 10
117.8546494931058
 20
-95.90663517567613
 30
0.0
 10
117.8339789201943
 20
-95.81120603073471
 30
0.0
 10
117.8098632517975
 20
-95.72886824863723
 30
0.0
 10
117.7547417240335
 20
-95.59554305335806
 30
0.0
 10
117.7154676355017
 20
-95.59761011064921
 30
0.0
 10
117.64346513986
 20
-95.60174422523151
 30
0.0
 10
117.610047713653
 20
-95.60415579207118
 30
0.0
 10
117.610047713653
 20
-95.60415579207118
 30
0.0
 10
117.610047713653
 20
-95.42432180774115
 30
0.0
 10
117.610047713653
 20
-95.42432180774115
 30
0.0
 10
117.719601750084
 20
-95.43259003690575
 30
0.0
 10
117.871185951435
 20
-95.43672415148805
 30
0.0
 10
117.9435329566252
 20
-95.43672415148805
 30
0.0
 10
117.9435329566252
 20
-95.43672415148805
 30
0.0
 10
118.0158799618155
 20
-95.43672415148805
 30
0.0
 10
118.0158799618155
 20
-95.43672415148805
 30
0.0
 10
118.0158799618155
 20
-95.27411564458426
 30
0.0
 10
118.0158799618155
 20
-95.26343584857997
 30
0.0
 10
118.0138129045243
 20
-95.20831432081599
 30
0.0
 10
118.0138129045243
 20
-95.20831432081599
 30
0.0
 10
118.2101833471836
 20
-95.23380802740682
 30
0.0
 10
118.2101833471836
 20
-95.23380802740682
 30
0.0
 10
118.2136284426688
 20
-95.23380802740682
 30
0.0
 10
118.2322319582892
 20
-95.23587508469798
 30
0.0
 10
118.2322319582892
 20
-95.2527560525757
 30
0.0
 10
118.2322319582892
 20
-95.26756996316227
 30
0.0
 10
118.2232747100275
 20
-95.2761827018754
 30
0.0
 10
118.1991590416308
 20
-95.29099661246198
 30
0.0
 10
118.1936468888544
 20
-95.35645342668172
 30
0.0
 10
118.1915798315632
 20
-95.37781301869028
 30
0.0
 10
118.1915798315632
 20
-95.43672415148805
 30
0.0
 10
118.1915798315632
 20
-95.43672415148805
 30
0.0
 10
118.2749511423063
 20
-95.43672415148805
 30
0.0
 10
118.2749511423063
 20
-95.43672415148805
 30
0.0
 10
118.3472981474965
 20
-95.43672415148805
 30
0.0
 10
118.4988823488475
 20
-95.43259003690575
 30
0.0
 10
118.6084363852785
 20
-95.42432180774115
 30
0.0
 10
118.6084363852785
 20
-95.42432180774115
 30
0.0
 10
118.6084363852785
 20
-95.60415579207118
 30
0.0
 10
118.6084363852785
 20
-95.60415579207118
 30
0.0
 10
118.5822536595905
 20
-95.60174422523151
 30
0.0
 10
118.4785562854845
 20
-95.59761011064921
 30
0.0
 10
118.443416311535
 20
-95.59554305335806
 30
0.0
 10
118.4306694582396
 20
-95.64618595699123
 30
0.0
 10
118.4010416370664
 20
-95.75849606981038
 30
0.0
 10
118.3431640329142
 20
-95.898022436963
 30
0.0
 10
118.3803710641549
 20
-95.898022436963
 30
0.0
 10
118.6229057863165
 20
-95.87907441179412
 30
0.0
 10
118.6766492758864
 20
-95.87700735450298
 30
0.0
 10
118.6766492758864
 20
-95.87700735450298
 30
0.0
 10
118.6766492758864
 20
-96.06097545341531
 30
0.0
 10
118.6766492758864
 20
-96.06097545341531
 30
0.0
 10
118.650811059747
 20
-96.06097545341531
 30
0.0
 10
118.6359971491604
 20
-96.05684133883301
 30
0.0
 10
118.4933701960711
 20
-96.05684133883301
 30
0.0
  0
SPLINE
  5
FA
330
F5
100
AcDbEntity
  8
_U+30EC_U+30A4_U+30E4_U+30FC 1
370
     0
100
AcDbSpline
210
0.0
220
0.0
230
1.0
 70
    11
 71
     3
 72
    20
 73
    16
 74
     0
 42
0.0000000001
 43
0.0000000001
 12
1.0
 22
0.0
 32
0.0
 13
1.0
 23
0.0
 33
0.0
 40
0.0
 40
0.0
 40
0.0
 40
0.0
 40
1.0
 40
1.0
 40
1.0
 40
2.0
 40
2.0
 40
2.0
 40
3.0
 40
3.0
 40
3.0
 40
4.0
 40
4.0
 40
4.0
 40
5.0
 40
5.0
 40
5.0
 40
5.0
 10
117.9435329566252
 20
-95.59140893877576
 30
0.0
 10
117.9435329566252
 20
-95.59140893877576
 30
0.0
 10
117.9156276831947
 20
-95.59140893877576
 30
0.0
 10
117.9156276831947
 20
-95.59140893877576
 30
0.0
 10
117.9566243194692
 20
-95.69062768875096
 30
0.0
 10
117.9841850833512
 20
-95.7712429231058
 30
0.0
 10
118.0138129045243
 20
-95.898022436963
 30
0.0
 10
118.0138129045243
 20
-95.898022436963
 30
0.0
 10
118.1950249270485
 20
-95.898022436963
 30
0.0
 10
118.1950249270485
 20
-95.898022436963
 30
0.0
 10
118.2232747100275
 20
-95.80500485886125
 30
0.0
 10
118.243256263842
 20
-95.7202555099241
 30
0.0
 10
118.2639268367535
 20
-95.59140893877576
 30
0.0
 10
118.2639268367535
 20
-95.59140893877576
 30
0.0
 10
117.9435329566252
 20
-95.59140893877576
 30
0.0
 10
117.9435329566252
 20
-95.59140893877576
 30
0.0
  0
SPLINE
  5
FB
330
F5
100
AcDbEntity
  8
_U+30EC_U+30A4_U+30E4_U+30FC 1
370
     0
100
AcDbSpline
210
0.0
220
0.0
230
1.0
 70
    11
 71
     3
 72
    17
 73
    13
 74
     0
 42
0.0000000001
 43
0.0000000001
 12
1.0
 22
0.0
 32
0.0
 13
1.0
 23
0.0
 33
0.0
 40
0.0
 40
0.0
 40
0.0
 40
0.0
 40
1.0
 40
1.0
 40
1.0
 40
2.0
 40
2.0
 40
2.0
 40
3.0
 40
3.0
 40
3.0
 40
4.0
 40
4.0
 40
4.0
 40
4.0
 10
117.9989989939378
 20
-96.44165850453543
 30
0.0
 10
117.9841850833512
 20
-96.47128632570858
 30
0.0
 10
117.9397433515915
 20
-96.56430390381031
 30
0.0
 10
117.9304415937813
 20
-96.58359643852772
 30
0.0
 10
118.0971842152674
 20
-96.64285208087401
 30
0.0
 10
118.1157877308877
 20
-96.64905325274746
 30
0.0
 10
118.1784884687193
 20
-96.67661401662946
 30
0.0
 10
118.2267198055128
 20
-96.58979761040116
 30
0.0
 10
118.2470458688757
 20
-96.5157280574683
 30
0.0
 10
118.2597927221712
 20
-96.44165850453543
 30
0.0
 10
118.2597927221712
 20
-96.44165850453543
 30
0.0
 10
117.9989989939378
 20
-96.44165850453543
 30
0.0
 10
117.9989989939378
 20
-96.44165850453543
 30
0.0
  0
HATCH
  5
FC
330
F5
100
AcDbEntity
  8
_U+30EC_U+30A4_U+30E4_U+30FC 1
 62
   179
420
  2234388
100
AcDbHatch
 10
0.0
 20
0.0
 30
0.0
210
0.0
220
0.0
230
1.0
  2
SOLID
 70
     1
 71
     0
 91
        3
 92
        1
 93
        1
 72
     4
 94
        3
 73
     0
 74
     1
 95
      242
 96
      238
 40
0.0
 40
0.0
 40
0.0
 40
0.0
 40
1.0
 40
1.0
 40
1.0
 40
2.0
 40
2.0
 40
2.0
 40
3.0
 40
3.0
 40
3.0
 40
4.0
 40
4.0
 40
4.0
 40
5.0
 40
5.0
 40
5.0
 40
6.0
 40
6.0
 40
6.0
 40
7.0
 40
7.0
 40
7.0
 40
8.0
 40
8.0
 40
8.0
 40
9.0
 40
9.0
 40
9.0
 40
10.0
 40
10.0
 40
10.0
 40
11.0
 40
11.0
 40
11.0
 40
12.0
 40
12.0
 40
12.0
 40
13.0
 40
13.0
 40
13.0
 40
14.0
 40
14.0
 40
14.0
 40
15.0
 40
15.0
 40
15.0
 40
16.0
 40
16.0
 40
16.0
 40
17.0
 40
17.0
 40
17.0
 40
18.0
 40
18.0
 40
18.0
 40
19.0
 40
19.0
 40
19.0
 40
20.0
 40
20.0
 40
20.0
 40
21.0
 40
21.0
 40
21.0
 40
22.0
 40
22.0
 40
22.0
 40
23.0
 40
23.0
 40
23.0
 40
24.0
 40
24.0
 40
24.0
 40
25.0
 40
25.0
 40
25.0
 40
26.0
 40
26.0
 40
26.0
 40
27.0
 40
27.0
 40
27.0
 40
28.0
 40
28.0
 40
28.0
 40
29.0
 40
29.0
 40
29.0
 40
30.0
 40
30.0
 40
30.0
 40
31.0
 40
31.0
 40
31.0
 40
32.0
 40
32.0
 40
32.0
 40
33.0
 40
33.0
 40
33.0
 40
34.0
 40
34.0
 40
34.0
 40
35.0
 40
35.0
 40
35.0
 40
36.0
 40
36.0
 40
36.0
 40
37.0
 40
37.0
 40
37.0
 40
38.0
 40
38.0
 40
38.0
 40
39.0
 40
39.0
 40
39.0
 40
40.0
 40
40.0
 40
40.0
 40
41.0
 40
41.0
 40
41.0
 40
42.0
 40
42.0
 40
42.0
 40
43.0
 40
43.0
 40
43.0
 40
44.0
 40
44.0
 40
44.0
 40
45.0
 40
45.0
 40
45.0
 40
46.0
 40
46.0
 40
46.0
 40
47.0
 40
47.0
 40
47.0
 40
48.0
 40
48.0
 40
48.0
 40
49.0
 40
49.0
 40
49.0
 40
50.0
 40
50.0
 40
50.0
 40
51.0
 40
51.0
 40
51.0
 40
52.0
 40
52.0
 40
52.0
 40
53.0
 40
53.0
 40
53.0
 40
54.0
 40
54.0
 40
54.0
 40
55.0
 40
55.0
 40
55.0
 40
56.0
 40
56.0
 40
56.0
 40
57.0
 40
57.0
 40
57.0
 40
58.0
 40
58.0
 40
58.0
 40
59.0
 40
59.0
 40
59.0
 40
60.0
 40
60.0
 40
60.0
 40
61.0
 40
61.0
 40
61.0
 40
62.0
 40
62.0
 40
62.0
 40
63.0
 40
63.0
 40
63.0
 40
64.0
 40
64.0
 40
64.0
 40
65.0
 40
65.0
 40
65.0
 40
66.0
 40
66.0
 40
66.0
 40
67.0
 40
67.0
 40
67.0
 40
68.0
 40
68.0
 40
68.0
 40
69.0
 40
69.0
 40
69.0
 40
70.0
 40
70.0
 40
70.0
 40
71.0
 40
71.0
 40
71.0
 40
72.0
 40
72.0
 40
72.0
 40
73.0
 40
73.0
 40
73.0
 40
74.0
 40
74.0
 40
74.0
 40
75.0
 40
75.0
 40
75.0
 40
76.0
 40
76.0
 40
76.0
 40
77.0
 40
77.0
 40
77.0
 40
78.0
 40
78.0
 40
78.0
 40
79.0
 40
79.0
 40
79.0
 40
79.0
 10
118.4933701960711
 20
-96.05684133883301
 10
118.4933701960711
 20
-96.05684133883301
 10
118.2711615372725
 20
-96.05684133883301
 10
118.2711615372725
 20
-96.05684133883301
 10
118.2711615372725
 20
-96.05684133883301
 10
118.0286268151109
 20
-96.05684133883301
 10
118.0286268151109
 20
-96.05684133883301
 10
118.0286268151109
 20
-96.05684133883301
 10
118.1399033992845
 20
-96.09887150375306
 10
118.1399033992845
 20
-96.09887150375306
 10
118.1488606475461
 20
-96.10335012788389
 10
118.1598849530989
 20
-96.10955129975734
 10
118.1598849530989
 20
-96.12229815305277
 10
118.1598849530989
 20
-96.14331323551279
 10
118.1323241892169
 20
-96.14985891693476
 10
118.1137206735966
 20
-96.15399303151706
 10
118.1047634253349
 20
-96.17741968081675
 10
118.078580699647
 20
-96.24287649503651
 10
118.0620442413178
 20
-96.28731822679623
 10
118.0620442413178
 20
-96.28731822679623
 10
118.299066810703
 20
-96.28731822679623
 10
118.299066810703
 20
-96.28731822679623
 10
118.3783040068638
 20
-96.28731822679623
 10
118.5505587811263
 20
-96.28318411221393
 10
118.6745822185952
 20
-96.2745713735008
 10
118.6745822185952
 20
-96.2745713735008
 10
118.6745822185952
 20
-96.4523383005397
 10
118.6745822185952
 20
-96.4523383005397
 10
118.6025797229535
 20
-96.4482041859574
 10
118.5843207168817
 20
-96.4482041859574
 10
118.4265353436573
 20
-96.44372556182657
 10
118.3989745797753
 20
-96.59841034911429
 10
118.3600450007919
 20
-96.67868107392061
 10
118.3211154218086
 20
-96.74861651227118
 10
118.4265353436573
 20
-96.80787215461748
 10
118.519552921759
 20
-96.87539602612837
 10
118.6098144234726
 20
-96.95807831777438
 10
118.6098144234726
 20
-96.95807831777438
 10
118.5064615589151
 20
-97.12516544880899
 10
118.5064615589151
 20
-97.12516544880899
 10
118.4857909860036
 20
-97.10587291409159
 10
118.4747666804508
 20
-97.09760468492699
 10
118.3769259686697
 20
-97.01285533598984
 10
118.3342067846526
 20
-96.9749592856521
 10
118.2825303523738
 20
-96.93878578305697
 10
118.2119058949262
 20
-96.89434405129725
 10
118.0269042673683
 20
-97.08072371704927
 10
117.8470702830382
 20
-97.10380585680045
 10
117.5935112553238
 20
-97.13343367797358
 10
117.5935112553238
 20
-97.13343367797358
 10
117.5025607345133
 20
-96.95359969364355
 10
117.5025607345133
 20
-96.95359969364355
 10
117.7802354306244
 20
-96.94946557906125
 10
117.9338866892665
 20
-96.9239718724704
 10
118.0675563940942
 20
-96.81407332649093
 10
117.9635145104397
 20
-96.76343042285775
 10
117.8859998620216
 20
-96.73586965897576
 10
117.8546494931058
 20
-96.72312280568033
 10
117.8381130347766
 20
-96.75068356956233
 10
117.8250216719326
 20
-96.76963159473121
 10
117.8009060035359
 20
-96.80339353048666
 10
117.8009060035359
 20
-96.80339353048666
 10
117.6286512292734
 20
-96.72105574838919
 10
117.6286512292734
 20
-96.72105574838919
 10
117.7009982344636
 20
-96.64044051403434
 10
117.7547417240335
 20
-96.54535587864144
 10
117.8043510990211
 20
-96.44372556182657
 10
117.6376084775351
 20
-96.4482041859574
 10
117.6193494714632
 20
-96.4482041859574
 10
117.5473469758215
 20
-96.4523383005397
 10
117.5473469758215
 20
-96.4523383005397
 10
117.5473469758215
 20
-96.2745713735008
 10
117.5473469758215
 20
-96.2745713735008
 10
117.6693033559993
 20
-96.28111705492277
 10
117.8525824358146
 20
-96.28525116950507
 10
117.8746310469202
 20
-96.28525116950507
 10
117.8897894670553
 20
-96.25148923374964
 10
117.9380208038488
 20
-96.1309108917659
 10
117.954557262178
 20
-96.05684133883301
 10
117.9380208038488
 20
-96.05684133883301
 10
117.7823024879155
 20
-96.06304251070647
 10
117.6121147709442
 20
-96.07578936400189
 10
117.6121147709442
 20
-96.07578936400189
 10
117.6121147709442
 20
-96.20911455928106
 10
117.6121147709442
 20
-96.20911455928106
 10
117.5693955869271
 20
-96.23460826587191
 10
117.5177191546483
 20
-96.2663031443362
 10
117.4005859081499
 20
-96.33175995855595
 10
117.4005859081499
 20
-96.33175995855595
 10
117.4005859081499
 20
-96.47783200713054
 10
117.4005859081499
 20
-96.47783200713054
 10
117.4005859081499
 20
-96.47783200713054
 10
117.4005859081499
 20
-96.94533146447895
 10
117.4005859081499
 20
-96.94533146447895
 10
117.4005859081499
 20
-97.07211097833614
 10
117.3695800487826
 20
-97.13136662068244
 10
117.1211886642961
 20
-97.12309839151784
 10
117.1211886642961
 20
-97.12309839151784
 10
117.030582653034
 20
-96.9157036433058
 10
117.030582653034
 20
-96.9157036433058
 10
117.0860486903465
 20
-96.92845049660123
 10
117.1284233648151
 20
-96.93258461118353
 10
117.1635633387647
 20
-96.93258461118353
 10
117.2303981911785
 20
-96.93258461118353
 10
117.2396999489887
 20
-96.90915796188382
 10
117.2396999489887
 20
-96.84370114766408
 10
117.2396999489887
 20
-96.84370114766408
 10
117.2396999489887
 20
-96.41409774065342
 10
117.2396999489887
 20
-96.41409774065342
 10
117.154606090503
 20
-96.45440535783085
 10
117.1397921799164
 20
-96.46095103925282
 10
117.098795543642
 20
-96.4798990644217
 10
117.0953504481567
 20
-96.50091414688173
 10
117.0915608431229
 20
-96.53054196805486
 10
117.0746798752452
 20
-96.53054196805486
 10
117.0677896842747
 20
-96.53054196805486
 10
117.058143416916
 20
-96.52640785347256
 10
117.0526312641396
 20
-96.50298120417287
 10
117.0526312641396
 20
-96.50298120417287
 10
117.0064669846373
 20
-96.31074487609592
 10
117.0064669846373
 20
-96.31074487609592
 10
117.1339355175915
 20
-96.26389157749654
 10
117.1918131217437
 20
-96.24080943774536
 10
117.2396999489887
 20
-96.21979435528533
 10
117.2396999489887
 20
-96.21979435528533
 10
117.2396999489887
 20
-95.80707191615241
 10
117.2396999489887
 20
-95.80707191615241
 10
117.2396999489887
 20
-95.80707191615241
 10
117.1931911599378
 20
-95.80707191615241
 10
117.1931911599378
 20
-95.80707191615241
 10
117.1931911599378
 20
-95.80707191615241
 10
117.1249782693299
 20
-95.80707191615241
 10
117.1249782693299
 20
-95.80707191615241
 10
117.0657226269836
 20
-95.80707191615241
 10
117.058143416916
 20
-95.80707191615241
 10
117.0267930480003
 20
-95.81361759757438
 10
117.0267930480003
 20
-95.81361759757438
 10
117.0267930480003
 20
-95.61896970265776
 10
117.0267930480003
 20
-95.61896970265776
 10
117.050908716397
 20
-95.62517087453121
 10
117.058143416916
 20
-95.62517087453121
 10
117.1194661165535
 20
-95.62517087453121
 10
117.1194661165535
 20
-95.62517087453121
 10
117.2359103439549
 20
-95.62517087453121
 10
117.2359103439549
 20
-95.62517087453121
 10
117.2359103439549
 20
-95.55523543618064
 10
117.2359103439549
 20
-95.47289765408317
 10
117.2341877962123
 20
-95.46876353950087
 10
117.2269530956933
 20
-95.28892955517082
 10
117.2269530956933
 20
-95.26963702045343
 10
117.2248860384021
 20
-95.22312823140255
 10
117.2248860384021
 20
-95.22312823140255
 10
117.4136772709938
 20
-95.23174097011568
 10
117.4136772709938
 20
-95.23174097011568
 10
117.4233235383525
 20
-95.23174097011568
 10
117.4415825444243
 20
-95.23380802740682
 10
117.4415825444243
 20
-95.25068899528455
 10
117.4415825444243
 20
-95.26963702045343
 10
117.4288356911289
 20
-95.2803168164577
 10
117.4064425704748
 20
-95.29926484162658
 10
117.4064425704748
 20
-95.35025225480827
 10
117.4005859081499
 20
-95.57866208548035
 10
117.402652965441
 20
-95.62517087453121
 10
117.5156520973572
 20
-95.62517087453121
 10
117.52667640291
 20
-95.62517087453121
 10
117.6121147709442
 20
-95.61655813581808
 10
117.6121147709442
 20
-95.61655813581808
 10
117.6121147709442
 20
-95.81120603073471
 10
117.6121147709442
 20
-95.81120603073471
 10
117.5783528351888
 20
-95.80913897344355
 10
117.5190971928425
 20
-95.80500485886125
 10
117.4005859081499
 20
-95.80707191615241
 10
117.4005859081499
 20
-95.80707191615241
 10
117.4005859081499
 20
-96.14572480235246
 10
117.4005859081499
 20
-96.14572480235246
 10
117.4488172449434
 20
-96.12229815305277
 10
117.506350339547
 20
-96.09473738917076
 10
117.5487250140156
 20
-96.07165524941959
 10
117.5487250140156
 20
-96.07165524941959
 10
117.5487250140156
 20
-95.8938883223807
 10
117.5487250140156
 20
-95.8938883223807
 10
117.6489772926364
 20
-95.90663517567613
 10
117.7526746667424
 20
-95.90663517567613
 10
117.8546494931058
 20
-95.90663517567613
 10
117.8339789201943
 20
-95.81120603073471
 10
117.8098632517975
 20
-95.72886824863723
 10
117.7547417240335
 20
-95.59554305335806
 10
117.7154676355017
 20
-95.59761011064921
 10
117.64346513986
 20
-95.60174422523151
 10
117.610047713653
 20
-95.60415579207118
 10
117.610047713653
 20
-95.60415579207118
 10
117.610047713653
 20
-95.42432180774115
 10
117.610047713653
 20
-95.42432180774115
 10
117.719601750084
 20
-95.43259003690575
 10
117.871185951435
 20
-95.43672415148805
 10
117.9435329566252
 20
-95.43672415148805
 10
117.9435329566252
 20
-95.43672415148805
 10
118.0158799618155
 20
-95.43672415148805
 10
118.0158799618155
 20
-95.43672415148805
 10
118.0158799618155
 20
-95.27411564458426
 10
118.0158799618155
 20
-95.26343584857997
 10
118.0138129045243
 20
-95.20831432081599
 10
118.0138129045243
 20
-95.20831432081599
 10
118.2101833471836
 20
-95.23380802740682
 10
118.2101833471836
 20
-95.23380802740682
 10
118.2136284426688
 20
-95.23380802740682
 10
118.2322319582892
 20
-95.23587508469798
 10
118.2322319582892
 20
-95.2527560525757
 10
118.2322319582892
 20
-95.26756996316227
 10
118.2232747100275
 20
-95.2761827018754
 10
118.1991590416308
 20
-95.29099661246198
 10
118.1936468888544
 20
-95.35645342668172
 10
118.1915798315632
 20
-95.37781301869028
 10
118.1915798315632
 20
-95.43672415148805
 10
118.1915798315632
 20
-95.43672415148805
 10
118.2749511423063
 20
-95.43672415148805
 10
118.2749511423063
 20
-95.43672415148805
 10
118.3472981474965
 20
-95.43672415148805
 10
118.4988823488475
 20
-95.43259003690575
 10
118.6084363852785
 20
-95.42432180774115
 10
118.6084363852785
 20
-95.42432180774115
 10
118.6084363852785
 20
-95.60415579207118
 10
118.6084363852785
 20
-95.60415579207118
 10
118.5822536595905
 20
-95.60174422523151
 10
118.4785562854845
 20
-95.59761011064921
 10
118.443416311535
 20
-95.59554305335806
 10
118.4306694582396
 20
-95.64618595699123
 10
118.4010416370664
 20
-95.75849606981038
 10
118.3431640329142
 20
-95.898022436963
 10
118.3803710641549
 20
-95.898022436963
 10
118.6229057863165
 20
-95.87907441179412
 10
118.6766492758864
 20
-95.87700735450298
 10
118.6766492758864
 20
-95.87700735450298
 10
118.6766492758864
 20
-96.06097545341531
 10
118.6766492758864
 20
-96.06097545341531
 10
118.650811059747
 20
-96.06097545341531
 10
118.6359971491604
 20
-96.05684133883301
 10
118.4933701960711
 20
-96.05684133883301
 97
        0
 97
        0
 92
        1
 93
        1
 72
     4
 94
        3
 73
     0
 74
     1
 95
       20
 96
       16
 40
0.0
 40
0.0
 40
0.0
 40
0.0
 40
1.0
 40
1.0
 40
1.0
 40
2.0
 40
2.0
 40
2.0
 40
3.0
 40
3.0
 40
3.0
 40
4.0
 40
4.0
 40
4.0
 40
5.0
 40
5.0
 40
5.0
 40
5.0
 10
117.9435329566252
 20
-95.59140893877576
 10
117.9435329566252
 20
-95.59140893877576
 10
117.9156276831947
 20
-95.59140893877576
 10
117.9156276831947
 20
-95.59140893877576
 10
117.9566243194692
 20
-95.69062768875096
 10
117.9841850833512
 20
-95.7712429231058
 10
118.0138129045243
 20
-95.898022436963
 10
118.0138129045243
 20
-95.898022436963
 10
118.1950249270485
 20
-95.898022436963
 10
118.1950249270485
 20
-95.898022436963
 10
118.2232747100275
 20
-95.80500485886125
 10
118.243256263842
 20
-95.7202555099241
 10
118.2639268367535
 20
-95.59140893877576
 10
118.2639268367535
 20
-95.59140893877576
 10
117.9435329566252
 20
-95.59140893877576
 10
117.9435329566252
 20
-95.59140893877576
 97
        0
 97
        0
 92
        1
 93
        1
 72
     4
 94
        3
 73
     0
 74
     1
 95
       17
 96
       13
 40
0.0
 40
0.0
 40
0.0
 40
0.0
 40
1.0
 40
1.0
 40
1.0
 40
2.0
 40
2.0
 40
2.0
 40
3.0
 40
3.0
 40
3.0
 40
4.0
 40
4.0
 40
4.0
 40
4.0
 10
117.9989989939378
 20
-96.44165850453543
 10
117.9841850833512
 20
-96.47128632570858
 10
117.9397433515915
 20
-96.56430390381031
 10
117.9304415937813
 20
-96.58359643852772
 10
118.0971842152674
 20
-96.64285208087401
 10
118.1157877308877
 20
-96.64905325274746
 10
118.1784884687193
 20
-96.67661401662946
 10
118.2267198055128
 20
-96.58979761040116
 10
118.2470458688757
 20
-96.5157280574683
 10
118.2597927221712
 20
-96.44165850453543
 10
118.2597927221712
 20
-96.44165850453543
 10
117.9989989939378
 20
-96.44165850453543
 10
117.9989989939378
 20
-96.44165850453543
 97
        0
 97
        0
 75
     2
 76
     1
 98
        0
  0
SPLINE
  5
FD
330
F5
100
AcDbEntity
  8
_U+30EC_U+30A4_U+30E4_U+30FC 1
370
     0
100
AcDbSpline
210
0.0
220
0.0
230
1.0
 70
    11
 71
     3
 72
   203
 73
   199
 74
     0
 42
0.0000000001
 43
0.0000000001
 12
1.0
 22
0.0
 32
0.0
 13
1.0
 23
0.0
 33
0.0
 40
0.0
 40
0.0
 40
0.0
 40
0.0
 40
1.0
 40
1.0
 40
1.0
 40
2.0
 40
2.0
 40
2.0
 40
3.0
 40
3.0
 40
3.0
 40
4.0
 40
4.0
 40
4.0
 40
5.0
 40
5.0
 40
5.0
 40
6.0
 40
6.0
 40
6.0
 40
7.0
 40
7.0
 40
7.0
 40
8.0
 40
8.0
 40
8.0
 40
9.0
 40
9.0
 40
9.0
 40
10.0
 40
10.0
 40
10.0
 40
11.0
 40
11.0
 40
11.0
 40
12.0
 40
12.0
 40
12.0
 40
13.0
 40
13.0
 40
13.0
 40
14.0
 40
14.0
 40
14.0
 40
15.0
 40
15.0
 40
15.0
 40
16.0
 40
16.0
 40
16.0
 40
17.0
 40
17.0
 40
17.0
 40
18.0
 40
18.0
 40
18.0
 40
19.0
 40
19.0
 40
19.0
 40
20.0
 40
20.0
 40
20.0
 40
21.0
 40
21.0
 40
21.0
 40
22.0
 40
22.0
 40
22.0
 40
23.0
 40
23.0
 40
23.0
 40
24.0
 40
24.0
 40
24.0
 40
25.0
 40
25.0
 40
25.0
 40
26.0
 40
26.0
 40
26.0
 40
27.0
 40
27.0
 40
27.0
 40
28.0
 40
28.0
 40
28.0
 40
29.0
 40
29.0
 40
29.0
 40
30.0
 40
30.0
 40
30.0
 40
31.0
 40
31.0
 40
31.0
 40
32.0
 40
32.0
 40
32.0
 40
33.0
 40
33.0
 40
33.0
 40
34.0
 40
34.0
 40
34.0
 40
35.0
 40
35.0
 40
35.0
 40
36.0
 40
36.0
 40
36.0
 40
37.0
 40
37.0
 40
37.0
 40
38.0
 40
38.0
 40
38.0
 40
39.0
 40
39.0
 40
39.0
 40
40.0
 40
40.0
 40
40.0
 40
41.0
 40
41.0
 40
41.0
 40
42.0
 40
42.0
 40
42.0
 40
43.0
 40
43.0
 40
43.0
 40
44.0
 40
44.0
 40
44.0
 40
45.0
 40
45.0
 40
45.0
 40
46.0
 40
46.0
 40
46.0
 40
47.0
 40
47.0
 40
47.0
 40
48.0
 40
48.0
 40
48.0
 40
49.0
 40
49.0
 40
49.0
 40
50.0
 40
50.0
 40
50.0
 40
51.0
 40
51.0
 40
51.0
 40
52.0
 40
52.0
 40
52.0
 40
53.0
 40
53.0
 40
53.0
 40
54.0
 40
54.0
 40
54.0
 40
55.0
 40
55.0
 40
55.0
 40
56.0
 40
56.0
 40
56.0
 40
57.0
 40
57.0
 40
57.0
 40
58.0
 40
58.0
 40
58.0
 40
59.0
 40
59.0
 40
59.0
 40
60.0
 40
60.0
 40
60.0
 40
61.0
 40
61.0
 40
61.0
 40
62.0
 40
62.0
 40
62.0
 40
63.0
 40
63.0
 40
63.0
 40
64.0
 40
64.0
 40
64.0
 40
65.0
 40
65.0
 40
65.0
 40
66.0
 40
66.0
 40
66.0
 40
66.0
 10
119.9751057642771
 20
-96.12436521034391
 30
0.0
 10
119.9751057642771
 20
-96.12436521034391
 30
0.0
 10
119.4862467149201
 20
-96.12436521034391
 30
0.0
 10
119.4862467149201
 20
-96.12436521034391
 30
0.0
 10
119.4772894666585
 20
-96.16880694210363
 30
0.0
 10
119.4697102565909
 20
-96.20050182056794
 30
0.0
 10
119.4586859510381
 20
-96.23874238045421
 30
0.0
 10
119.4807345621437
 20
-96.23874238045421
 30
0.0
 10
119.4938259249877
 20
-96.24080943774536
 30
0.0
 10
119.4993380777641
 20
-96.24080943774536
 30
0.0
 10
119.4993380777641
 20
-96.24080943774536
 30
0.0
 10
119.664013641959
 20
-96.24080943774536
 30
0.0
 10
119.664013641959
 20
-96.24080943774536
 30
0.0
 10
119.664013641959
 20
-96.24080943774536
 30
0.0
 10
119.9919867321548
 20
-96.24080943774536
 30
0.0
 10
119.9919867321548
 20
-96.24080943774536
 30
0.0
 10
120.036083954366
 20
-96.24080943774536
 30
0.0
 10
120.284130829304
 20
-96.22806258444993
 30
0.0
 10
120.312380612283
 20
-96.22806258444993
 30
0.0
 10
120.3103135549919
 20
-96.25562334833194
 30
0.0
 10
120.3082464977007
 20
-96.2745713735008
 30
0.0
 10
120.3082464977007
 20
-96.30419919467396
 30
0.0
 10
120.3068684595066
 20
-96.33589407313825
 30
0.0
 10
120.3068684595066
 20
-96.47128632570858
 30
0.0
 10
120.3068684595066
 20
-96.49884708959057
 30
0.0
 10
120.3068684595066
 20
-96.49884708959057
 30
0.0
 10
120.3068684595066
 20
-96.74413788814036
 30
0.0
 10
120.3068684595066
 20
-96.74413788814036
 30
0.0
 10
120.3068684595066
 20
-96.78857961990008
 30
0.0
 10
120.3103135549919
 20
-96.98529457210785
 30
0.0
 10
120.3137586504771
 20
-97.13791230210441
 30
0.0
 10
120.3137586504771
 20
-97.13791230210441
 30
0.0
 10
120.1160101696238
 20
-97.13791230210441
 30
0.0
 10
120.1160101696238
 20
-97.13791230210441
 30
0.0
 10
120.1160101696238
 20
-97.13791230210441
 30
0.0
 10
120.1177327173664
 20
-97.10380585680045
 30
0.0
 10
120.1177327173664
 20
-97.10380585680045
 30
0.0
 10
120.1177327173664
 20
-97.10380585680045
 30
0.0
 10
119.5027831732493
 20
-97.10380585680045
 30
0.0
 10
119.5027831732493
 20
-97.10380585680045
 30
0.0
 10
119.5027831732493
 20
-97.10380585680045
 30
0.0
 10
119.5048502305405
 20
-97.13791230210441
 30
0.0
 10
119.5048502305405
 20
-97.13791230210441
 30
0.0
 10
119.5048502305405
 20
-97.13791230210441
 30
0.0
 10
119.3139919406576
 20
-97.13791230210441
 30
0.0
 10
119.3139919406576
 20
-97.13791230210441
 30
0.0
 10
119.3177815456914
 20
-97.08279077434042
 30
0.0
 10
119.3177815456914
 20
-97.070043921045
 30
0.0
 10
119.3232936984678
 20
-96.9556667509347
 30
0.0
 10
119.3250162462104
 20
-96.92845049660123
 30
0.0
 10
119.3270833035016
 20
-96.79512530132206
 30
0.0
 10
119.3270833035016
 20
-96.77617727615318
 30
0.0
 10
119.3270833035016
 20
-96.77617727615318
 30
0.0
 10
119.3270833035016
 20
-96.57291664252344
 30
0.0
 10
119.3270833035016
 20
-96.57291664252344
 30
0.0
 10
119.2047824137752
 20
-96.82268606520405
 30
0.0
 10
119.0566433079095
 20
-96.95359969364355
 30
0.0
 10
118.9639702393562
 20
-97.01940101741182
 30
0.0
 10
118.9639702393562
 20
-97.01940101741182
 30
0.0
 10
118.8123860380052
 20
-96.87953014071067
 30
0.0
 10
118.8123860380052
 20
-96.87953014071067
 30
0.0
 10
118.8902451959719
 20
-96.82888723707751
 30
0.0
 10
119.0159911811835
 20
-96.74207083084922
 30
0.0
 10
119.1362250136187
 20
-96.54742293593259
 30
0.0
 10
119.2161512288765
 20
-96.4206434220754
 30
0.0
 10
119.2733398139317
 20
-96.27663843079196
 30
0.0
 10
119.3029676351048
 20
-96.12436521034391
 30
0.0
 10
119.1031520969603
 20
-96.12643226763507
 30
0.0
 10
118.9453667237359
 20
-96.13297794905704
 30
0.0
 10
118.8619954129928
 20
-96.1350450063482
 30
0.0
 10
118.8619954129928
 20
-96.1350450063482
 30
0.0
 10
118.8619954129928
 20
-95.95727807930929
 30
0.0
 10
118.8619954129928
 20
-95.95727807930929
 30
0.0
 10
119.0342501872553
 20
-95.96382376073127
 30
0.0
 10
119.2826415717418
 20
-95.96795787531357
 30
0.0
 10
119.4138997097299
 20
-95.96795787531357
 30
0.0
 10
119.4138997097299
 20
-95.96795787531357
 30
0.0
 10
119.6013129041275
 20
-95.96795787531357
 30
0.0
 10
119.6013129041275
 20
-95.96795787531357
 30
0.0
 10
119.6013129041275
 20
-95.96795787531357
 30
0.0
 10
119.6013129041275
 20
-95.86012638662525
 30
0.0
 10
119.6013129041275
 20
-95.86012638662525
 30
0.0
 10
119.6013129041275
 20
-95.86012638662525
 30
0.0
 10
119.4731553520762
 20
-95.86012638662525
 30
0.0
 10
119.4731553520762
 20
-95.86012638662525
 30
0.0
 10
119.3250162462104
 20
-95.86012638662525
 30
0.0
 10
119.1768771403447
 20
-95.86426050120755
 30
0.0
 10
119.0308050917701
 20
-95.870461673081
 30
0.0
 10
119.0308050917701
 20
-95.870461673081
 30
0.0
 10
119.0308050917701
 20
-95.69924042746408
 30
0.0
 10
119.0308050917701
 20
-95.69924042746408
 30
0.0
 10
119.1658528347919
 20
-95.70992022346836
 30
0.0
 10
119.3291503607927
 20
-95.70992022346836
 30
0.0
 10
119.4731553520762
 20
-95.70992022346836
 30
0.0
 10
119.4731553520762
 20
-95.70992022346836
 30
0.0
 10
119.6013129041275
 20
-95.70992022346836
 30
0.0
 10
119.6013129041275
 20
-95.70992022346836
 30
0.0
 10
119.6013129041275
 20
-95.70992022346836
 30
0.0
 10
119.6013129041275
 20
-95.59140893877576
 30
0.0
 10
119.6013129041275
 20
-95.59140893877576
 30
0.0
 10
119.6013129041275
 20
-95.59140893877576
 30
0.0
 10
119.4862467149201
 20
-95.59140893877576
 30
0.0
 10
119.4862467149201
 20
-95.59140893877576
 30
0.0
 10
119.4455945881942
 20
-95.59140893877576
 30
0.0
 10
119.2678276611553
 20
-95.59967716794036
 30
0.0
 10
119.2306206299146
 20
-95.59967716794036
 30
0.0
 10
119.0528537028757
 20
-95.60415579207118
 30
0.0
 10
118.9863633600104
 20
-95.60622284936234
 30
0.0
 10
118.9178059598539
 20
-95.60828990665348
 30
0.0
 10
118.9178059598539
 20
-95.60828990665348
 30
0.0
 10
118.9178059598539
 20
-95.42432180774115
 30
0.0
 10
118.9178059598539
 20
-95.42432180774115
 30
0.0
 10
119.0177137289261
 20
-95.43259003690575
 30
0.0
 10
119.0566433079095
 20
-95.43259003690575
 30
0.0
 10
119.3918510986243
 20
-95.44120277561888
 30
0.0
 10
119.3360405517632
 20
-95.34577363067746
 30
0.0
 10
119.312269392915
 20
-95.31855737634397
 30
0.0
 10
119.2809190239992
 20
-95.28238387374886
 30
0.0
 10
119.2809190239992
 20
-95.28238387374886
 30
0.0
 10
119.4345702826414
 20
-95.20004609165139
 30
0.0
 10
119.4345702826414
 20
-95.20004609165139
 30
0.0
 10
119.4697102565909
 20
-95.23587508469798
 30
0.0
 10
119.5082953260257
 20
-95.27824975916656
 30
0.0
 10
119.5730631211484
 20
-95.38814830514602
 30
0.0
 10
119.5730631211484
 20
-95.38814830514602
 30
0.0
 10
119.4731553520762
 20
-95.44326983291002
 30
0.0
 10
119.4731553520762
 20
-95.44326983291002
 30
0.0
 10
119.4731553520762
 20
-95.44326983291002
 30
0.0
 10
119.4828016194349
 20
-95.44326983291002
 30
0.0
 10
119.4828016194349
 20
-95.44326983291002
 30
0.0
 10
119.4828016194349
 20
-95.44326983291002
 30
0.0
 10
119.9399657903275
 20
-95.44326983291002
 30
0.0
 10
119.9399657903275
 20
-95.44326983291002
 30
0.0
 10
119.9399657903275
 20
-95.44326983291002
 30
0.0
 10
119.8565944795845
 20
-95.3988281011503
 30
0.0
 10
119.8565944795845
 20
-95.3988281011503
 30
0.0
 10
119.8807101479812
 20
-95.36058754126402
 30
0.0
 10
119.9306640325173
 20
-95.2803168164577
 30
0.0
 10
119.9437553953613
 20
-95.20624726352483
 30
0.0
 10
119.9437553953613
 20
-95.20624726352483
 30
0.0
 10
120.1304795706618
 20
-95.26963702045343
 30
0.0
 10
120.1304795706618
 20
-95.26963702045343
 30
0.0
 10
120.1380587807294
 20
-95.2720485872931
 30
0.0
 10
120.1566622963497
 20
-95.28238387374886
 30
0.0
 10
120.1566622963497
 20
-95.3037434657574
 30
0.0
 10
120.1566622963497
 20
-95.34163951609516
 30
0.0
 10
120.0994737112946
 20
-95.34163951609516
 30
0.0
 10
120.0825927434169
 20
-95.34163951609516
 30
0.0
 10
120.0732909856067
 20
-95.36058754126402
 30
0.0
 10
120.0529649222437
 20
-95.40089515844144
 30
0.0
 10
120.0271267061043
 20
-95.44120277561888
 30
0.0
 10
120.3771484074057
 20
-95.4346570941969
 30
0.0
 10
120.4026421139966
 20
-95.43259003690575
 30
0.0
 10
120.4694769664104
 20
-95.4263888650323
 30
0.0
 10
120.4694769664104
 20
-95.4263888650323
 30
0.0
 10
120.4694769664104
 20
-95.60828990665348
 30
0.0
 10
120.4694769664104
 20
-95.60828990665348
 30
0.0
 10
120.4529405080812
 20
-95.60828990665348
 30
0.0
 10
120.4308918969756
 20
-95.60622284936234
 30
0.0
 10
120.2379665498016
 20
-95.59761011064921
 30
0.0
 10
120.1938693275904
 20
-95.59554305335806
 30
0.0
 10
120.0009439804164
 20
-95.59140893877576
 30
0.0
 10
119.9623589109816
 20
-95.59140893877576
 30
0.0
 10
119.9623589109816
 20
-95.59140893877576
 30
0.0
 10
119.77356767839
 20
-95.59140893877576
 30
0.0
 10
119.77356767839
 20
-95.59140893877576
 30
0.0
 10
119.77356767839
 20
-95.59140893877576
 30
0.0
 10
119.77356767839
 20
-95.70992022346836
 30
0.0
 10
119.77356767839
 20
-95.70992022346836
 30
0.0
 10
119.77356767839
 20
-95.70992022346836
 30
0.0
 10
119.9251518797409
 20
-95.70992022346836
 30
0.0
 10
119.9251518797409
 20
-95.70992022346836
 30
0.0
 10
120.0677788328303
 20
-95.70992022346836
 30
0.0
 10
120.2345214543164
 20
-95.70992022346836
 30
0.0
 10
120.3716362546293
 20
-95.69924042746408
 30
0.0
 10
120.3716362546293
 20
-95.69924042746408
 30
0.0
 10
120.3716362546293
 20
-95.870461673081
 30
0.0
 10
120.3716362546293
 20
-95.870461673081
 30
0.0
 10
120.188357174814
 20
-95.8621934439164
 30
0.0
 10
120.0161024005515
 20
-95.86012638662525
 30
0.0
 10
119.9251518797409
 20
-95.86012638662525
 30
0.0
 10
119.9251518797409
 20
-95.86012638662525
 30
0.0
 10
119.77356767839
 20
-95.86012638662525
 30
0.0
 10
119.77356767839
 20
-95.86012638662525
 30
0.0
 10
119.77356767839
 20
-95.86012638662525
 30
0.0
 10
119.77356767839
 20
-95.96795787531357
 30
0.0
 10
119.77356767839
 20
-95.96795787531357
 30
0.0
 10
119.77356767839
 20
-95.96795787531357
 30
0.0
 10
119.9751057642771
 20
-95.96795787531357
 30
0.0
 10
119.9751057642771
 20
-95.96795787531357
 30
0.0
 10
120.091894501227
 20
-95.96795787531357
 30
0.0
 10
120.3433864716503
 20
-95.96382376073127
 30
0.0
 10
120.5270100610141
 20
-95.95727807930929
 30
0.0
 10
120.5270100610141
 20
-95.95727807930929
 30
0.0
 10
120.5270100610141
 20
-96.1350450063482
 30
0.0
 10
120.5270100610141
 20
-96.1350450063482
 30
0.0
 10
120.3585448917854
 20
-96.12849932492621
 30
0.0
 10
120.0843152911595
 20
-96.12436521034391
 30
0.0
 10
119.9751057642771
 20
-96.12436521034391
 30
0.0
  0
POLYLINE
  5
FE
330
F5
100
AcDbEntity
  8
_U+30EC_U+30A4_U+30E4_U+30FC 1
370
     0
100
AcDb2dPolyline
 66
     1
 10
0.0
 20
0.0
 30
0.0
  0
VERTEX
  5
FF
330
FE
100
AcDbEntity
  8
_U+30EC_U+30A4_U+30E4_U+30FC 1
370
     0
100
AcDbVertex
100
AcDb2dVertex
 10
120.119455265109
 20
-96.38033580489798
 30
0.0
  0
VERTEX
  5
100
330
FE
100
AcDbEntity
  8
_U+30EC_U+30A4_U+30E4_U+30FC 1
370
     0
100
AcDbVertex
100
AcDb2dVertex
 10
119.5010606255067
 20
-96.38033580489798
 30
0.0
  0
VERTEX
  5
101
330
FE
100
AcDbEntity
  8
_U+30EC_U+30A4_U+30E4_U+30FC 1
370
     0
100
AcDbVertex
100
AcDb2dVertex
 10
119.5010606255067
 20
-96.4881672935863
 30
0.0
  0
VERTEX
  5
102
330
FE
100
AcDbEntity
  8
_U+30EC_U+30A4_U+30E4_U+30FC 1
370
     0
100
AcDbVertex
100
AcDb2dVertex
 10
120.119455265109
 20
-96.4881672935863
 30
0.0
  0
VERTEX
  5
103
330
FE
100
AcDbEntity
  8
_U+30EC_U+30A4_U+30E4_U+30FC 1
370
     0
100
AcDbVertex
100
AcDb2dVertex
 10
120.119455265109
 20
-96.38033580489798
 30
0.0
  0
SEQEND
  5
104
330
FE
100
AcDbEntity
  8
_U+30EC_U+30A4_U+30E4_U+30FC 1
370
     0
  0
POLYLINE
  5
105
330
F5
100
AcDbEntity
  8
_U+30EC_U+30A4_U+30E4_U+30FC 1
370
     0
100
AcDb2dPolyline
 66
     1
 10
0.0
 20
0.0
 30
0.0
  0
VERTEX
  5
106
330
105
100
AcDbEntity
  8
_U+30EC_U+30A4_U+30E4_U+30FC 1
370
     0
100
AcDbVertex
100
AcDb2dVertex
 10
120.119455265109
 20
-96.61322425970087
 30
0.0
  0
VERTEX
  5
107
330
105
100
AcDbEntity
  8
_U+30EC_U+30A4_U+30E4_U+30FC 1
370
     0
100
AcDbVertex
100
AcDb2dVertex
 10
119.5010606255067
 20
-96.61322425970087
 30
0.0
  0
VERTEX
  5
108
330
105
100
AcDbEntity
  8
_U+30EC_U+30A4_U+30E4_U+30FC 1
370
     0
100
AcDbVertex
100
AcDb2dVertex
 10
119.5010606255067
 20
-96.72725692026263
 30
0.0
  0
VERTEX
  5
109
330
105
100
AcDbEntity
  8
_U+30EC_U+30A4_U+30E4_U+30FC 1
370
     0
100
AcDbVertex
100
AcDb2dVertex
 10
120.119455265109
 20
-96.72725692026263
 30
0.0
  0
VERTEX
  5
10A
330
105
100
AcDbEntity
  8
_U+30EC_U+30A4_U+30E4_U+30FC 1
370
     0
100
AcDbVertex
100
AcDb2dVertex
 10
120.119455265109
 20
-96.61322425970087
 30
0.0
  0
SEQEND
  5
10B
330
105
100
AcDbEntity
  8
_U+30EC_U+30A4_U+30E4_U+30FC 1
370
     0
  0
POLYLINE
  5
10C
330
F5
100
AcDbEntity
  8
_U+30EC_U+30A4_U+30E4_U+30FC 1
370
     0
100
AcDb2dPolyline
 66
     1
 10
0.0
 20
0.0
 30
0.0
  0
VERTEX
  5
10D
330
10C
100
AcDbEntity
  8
_U+30EC_U+30A4_U+30E4_U+30FC 1
370
     0
100
AcDbVertex
100
AcDb2dVertex
 10
120.119455265109
 20
-96.8564480009595
 30
0.0
  0
VERTEX
  5
10E
330
10C
100
AcDbEntity
  8
_U+30EC_U+30A4_U+30E4_U+30FC 1
370
     0
100
AcDbVertex
100
AcDb2dVertex
 10
119.5010606255067
 20
-96.8564480009595
 30
0.0
  0
VERTEX
  5
10F
330
10C
100
AcDbEntity
  8
_U+30EC_U+30A4_U+30E4_U+30FC 1
370
     0
100
AcDbVertex
100
AcDb2dVertex
 10
119.5010606255067
 20
-96.97048066152128
 30
0.0
  0
VERTEX
  5
110
330
10C
100
AcDbEntity
  8
_U+30EC_U+30A4_U+30E4_U+30FC 1
370
     0
100
AcDbVertex
100
AcDb2dVertex
 10
120.119455265109
 20
-96.97048066152128
 30
0.0
  0
VERTEX
  5
111
330
10C
100
AcDbEntity
  8
_U+30EC_U+30A4_U+30E4_U+30FC 1
370
     0
100
AcDbVertex
100
AcDb2dVertex
 10
120.119455265109
 20
-96.8564480009595
 30
0.0
  0
SEQEND
  5
112
330
10C
100
AcDbEntity
  8
_U+30EC_U+30A4_U+30E4_U+30FC 1
370
     0
  0
HATCH
  5
113
330
F5
100
AcDbEntity
  8
_U+30EC_U+30A4_U+30E4_U+30FC 1
 62
   179
420
  2234388
100
AcDbHatch
 10
0.0
 20
0.0
 30
0.0
210
0.0
220
0.0
230
1.0
  2
SOLID
 70
     1
 71
     0
 91
        4
 92
        1
 93
        1
 72
     4
 94
        3
 73
     0
 74
     1
 95
      203
 96
      199
 40
0.0
 40
0.0
 40
0.0
 40
0.0
 40
1.0
 40
1.0
 40
1.0
 40
2.0
 40
2.0
 40
2.0
 40
3.0
 40
3.0
 40
3.0
 40
4.0
 40
4.0
 40
4.0
 40
5.0
 40
5.0
 40
5.0
 40
6.0
 40
6.0
 40
6.0
 40
7.0
 40
7.0
 40
7.0
 40
8.0
 40
8.0
 40
8.0
 40
9.0
 40
9.0
 40
9.0
 40
10.0
 40
10.0
 40
10.0
 40
11.0
 40
11.0
 40
11.0
 40
12.0
 40
12.0
 40
12.0
 40
13.0
 40
13.0
 40
13.0
 40
14.0
 40
14.0
 40
14.0
 40
15.0
 40
15.0
 40
15.0
 40
16.0
 40
16.0
 40
16.0
 40
17.0
 40
17.0
 40
17.0
 40
18.0
 40
18.0
 40
18.0
 40
19.0
 40
19.0
 40
19.0
 40
20.0
 40
20.0
 40
20.0
 40
21.0
 40
21.0
 40
21.0
 40
22.0
 40
22.0
 40
22.0
 40
23.0
 40
23.0
 40
23.0
 40
24.0
 40
24.0
 40
24.0
 40
25.0
 40
25.0
 40
25.0
 40
26.0
 40
26.0
 40
26.0
 40
27.0
 40
27.0
 40
27.0
 40
28.0
 40
28.0
 40
28.0
 40
29.0
 40
29.0
 40
29.0
 40
30.0
 40
30.0
 40
30.0
 40
31.0
 40
31.0
 40
31.0
 40
32.0
 40
32.0
 40
32.0
 40
33.0
 40
33.0
 40
33.0
 40
34.0
 40
34.0
 40
34.0
 40
35.0
 40
35.0
 40
35.0
 40
36.0
 40
36.0
 40
36.0
 40
37.0
 40
37.0
 40
37.0
 40
38.0
 40
38.0
 40
38.0
 40
39.0
 40
39.0
 40
39.0
 40
40.0
 40
40.0
 40
40.0
 40
41.0
 40
41.0
 40
41.0
 40
42.0
 40
42.0
 40
42.0
 40
43.0
 40
43.0
 40
43.0
 40
44.0
 40
44.0
 40
44.0
 40
45.0
 40
45.0
 40
45.0
 40
46.0
 40
46.0
 40
46.0
 40
47.0
 40
47.0
 40
47.0
 40
48.0
 40
48.0
 40
48.0
 40
49.0
 40
49.0
 40
49.0
 40
50.0
 40
50.0
 40
50.0
 40
51.0
 40
51.0
 40
51.0
 40
52.0
 40
52.0
 40
52.0
 40
53.0
 40
53.0
 40
53.0
 40
54.0
 40
54.0
 40
54.0
 40
55.0
 40
55.0
 40
55.0
 40
56.0
 40
56.0
 40
56.0
 40
57.0
 40
57.0
 40
57.0
 40
58.0
 40
58.0
 40
58.0
 40
59.0
 40
59.0
 40
59.0
 40
60.0
 40
60.0
 40
60.0
 40
61.0
 40
61.0
 40
61.0
 40
62.0
 40
62.0
 40
62.0
 40
63.0
 40
63.0
 40
63.0
 40
64.0
 40
64.0
 40
64.0
 40
65.0
 40
65.0
 40
65.0
 40
66.0
 40
66.0
 40
66.0
 40
66.0
 10
119.9751057642771
 20
-96.12436521034391
 10
119.9751057642771
 20
-96.12436521034391
 10
119.4862467149201
 20
-96.12436521034391
 10
119.4862467149201
 20
-96.12436521034391
 10
119.4772894666585
 20
-96.16880694210363
 10
119.4697102565909
 20
-96.20050182056794
 10
119.4586859510381
 20
-96.23874238045421
 10
119.4807345621437
 20
-96.23874238045421
 10
119.4938259249877
 20
-96.24080943774536
 10
119.4993380777641
 20
-96.24080943774536
 10
119.4993380777641
 20
-96.24080943774536
 10
119.664013641959
 20
-96.24080943774536
 10
119.664013641959
 20
-96.24080943774536
 10
119.664013641959
 20
-96.24080943774536
 10
119.9919867321548
 20
-96.24080943774536
 10
119.9919867321548
 20
-96.24080943774536
 10
120.036083954366
 20
-96.24080943774536
 10
120.284130829304
 20
-96.22806258444993
 10
120.312380612283
 20
-96.22806258444993
 10
120.3103135549919
 20
-96.25562334833194
 10
120.3082464977007
 20
-96.2745713735008
 10
120.3082464977007
 20
-96.30419919467396
 10
120.3068684595066
 20
-96.33589407313825
 10
120.3068684595066
 20
-96.47128632570858
 10
120.3068684595066
 20
-96.49884708959057
 10
120.3068684595066
 20
-96.49884708959057
 10
120.3068684595066
 20
-96.74413788814036
 10
120.3068684595066
 20
-96.74413788814036
 10
120.3068684595066
 20
-96.78857961990008
 10
120.3103135549919
 20
-96.98529457210785
 10
120.3137586504771
 20
-97.13791230210441
 10
120.3137586504771
 20
-97.13791230210441
 10
120.1160101696238
 20
-97.13791230210441
 10
120.1160101696238
 20
-97.13791230210441
 10
120.1160101696238
 20
-97.13791230210441
 10
120.1177327173664
 20
-97.10380585680045
 10
120.1177327173664
 20
-97.10380585680045
 10
120.1177327173664
 20
-97.10380585680045
 10
119.5027831732493
 20
-97.10380585680045
 10
119.5027831732493
 20
-97.10380585680045
 10
119.5027831732493
 20
-97.10380585680045
 10
119.5048502305405
 20
-97.13791230210441
 10
119.5048502305405
 20
-97.13791230210441
 10
119.5048502305405
 20
-97.13791230210441
 10
119.3139919406576
 20
-97.13791230210441
 10
119.3139919406576
 20
-97.13791230210441
 10
119.3177815456914
 20
-97.08279077434042
 10
119.3177815456914
 20
-97.070043921045
 10
119.3232936984678
 20
-96.9556667509347
 10
119.3250162462104
 20
-96.92845049660123
 10
119.3270833035016
 20
-96.79512530132206
 10
119.3270833035016
 20
-96.77617727615318
 10
119.3270833035016
 20
-96.77617727615318
 10
119.3270833035016
 20
-96.57291664252344
 10
119.3270833035016
 20
-96.57291664252344
 10
119.2047824137752
 20
-96.82268606520405
 10
119.0566433079095
 20
-96.95359969364355
 10
118.9639702393562
 20
-97.01940101741182
 10
118.9639702393562
 20
-97.01940101741182
 10
118.8123860380052
 20
-96.87953014071067
 10
118.8123860380052
 20
-96.87953014071067
 10
118.8902451959719
 20
-96.82888723707751
 10
119.0159911811835
 20
-96.74207083084922
 10
119.1362250136187
 20
-96.54742293593259
 10
119.2161512288765
 20
-96.4206434220754
 10
119.2733398139317
 20
-96.27663843079196
 10
119.3029676351048
 20
-96.12436521034391
 10
119.1031520969603
 20
-96.12643226763507
 10
118.9453667237359
 20
-96.13297794905704
 10
118.8619954129928
 20
-96.1350450063482
 10
118.8619954129928
 20
-96.1350450063482
 10
118.8619954129928
 20
-95.95727807930929
 10
118.8619954129928
 20
-95.95727807930929
 10
119.0342501872553
 20
-95.96382376073127
 10
119.2826415717418
 20
-95.96795787531357
 10
119.4138997097299
 20
-95.96795787531357
 10
119.4138997097299
 20
-95.96795787531357
 10
119.6013129041275
 20
-95.96795787531357
 10
119.6013129041275
 20
-95.96795787531357
 10
119.6013129041275
 20
-95.96795787531357
 10
119.6013129041275
 20
-95.86012638662525
 10
119.6013129041275
 20
-95.86012638662525
 10
119.6013129041275
 20
-95.86012638662525
 10
119.4731553520762
 20
-95.86012638662525
 10
119.4731553520762
 20
-95.86012638662525
 10
119.3250162462104
 20
-95.86012638662525
 10
119.1768771403447
 20
-95.86426050120755
 10
119.0308050917701
 20
-95.870461673081
 10
119.0308050917701
 20
-95.870461673081
 10
119.0308050917701
 20
-95.69924042746408
 10
119.0308050917701
 20
-95.69924042746408
 10
119.1658528347919
 20
-95.70992022346836
 10
119.3291503607927
 20
-95.70992022346836
 10
119.4731553520762
 20
-95.70992022346836
 10
119.4731553520762
 20
-95.70992022346836
 10
119.6013129041275
 20
-95.70992022346836
 10
119.6013129041275
 20
-95.70992022346836
 10
119.6013129041275
 20
-95.70992022346836
 10
119.6013129041275
 20
-95.59140893877576
 10
119.6013129041275
 20
-95.59140893877576
 10
119.6013129041275
 20
-95.59140893877576
 10
119.4862467149201
 20
-95.59140893877576
 10
119.4862467149201
 20
-95.59140893877576
 10
119.4455945881942
 20
-95.59140893877576
 10
119.2678276611553
 20
-95.59967716794036
 10
119.2306206299146
 20
-95.59967716794036
 10
119.0528537028757
 20
-95.60415579207118
 10
118.9863633600104
 20
-95.60622284936234
 10
118.9178059598539
 20
-95.60828990665348
 10
118.9178059598539
 20
-95.60828990665348
 10
118.9178059598539
 20
-95.42432180774115
 10
118.9178059598539
 20
-95.42432180774115
 10
119.0177137289261
 20
-95.43259003690575
 10
119.0566433079095
 20
-95.43259003690575
 10
119.3918510986243
 20
-95.44120277561888
 10
119.3360405517632
 20
-95.34577363067746
 10
119.312269392915
 20
-95.31855737634397
 10
119.2809190239992
 20
-95.28238387374886
 10
119.2809190239992
 20
-95.28238387374886
 10
119.4345702826414
 20
-95.20004609165139
 10
119.4345702826414
 20
-95.20004609165139
 10
119.4697102565909
 20
-95.23587508469798
 10
119.5082953260257
 20
-95.27824975916656
 10
119.5730631211484
 20
-95.38814830514602
 10
119.5730631211484
 20
-95.38814830514602
 10
119.4731553520762
 20
-95.44326983291002
 10
119.4731553520762
 20
-95.44326983291002
 10
119.4731553520762
 20
-95.44326983291002
 10
119.4828016194349
 20
-95.44326983291002
 10
119.4828016194349
 20
-95.44326983291002
 10
119.4828016194349
 20
-95.44326983291002
 10
119.9399657903275
 20
-95.44326983291002
 10
119.9399657903275
 20
-95.44326983291002
 10
119.9399657903275
 20
-95.44326983291002
 10
119.8565944795845
 20
-95.3988281011503
 10
119.8565944795845
 20
-95.3988281011503
 10
119.8807101479812
 20
-95.36058754126402
 10
119.9306640325173
 20
-95.2803168164577
 10
119.9437553953613
 20
-95.20624726352483
 10
119.9437553953613
 20
-95.20624726352483
 10
120.1304795706618
 20
-95.26963702045343
 10
120.1304795706618
 20
-95.26963702045343
 10
120.1380587807294
 20
-95.2720485872931
 10
120.1566622963497
 20
-95.28238387374886
 10
120.1566622963497
 20
-95.3037434657574
 10
120.1566622963497
 20
-95.34163951609516
 10
120.0994737112946
 20
-95.34163951609516
 10
120.0825927434169
 20
-95.34163951609516
 10
120.0732909856067
 20
-95.36058754126402
 10
120.0529649222437
 20
-95.40089515844144
 10
120.0271267061043
 20
-95.44120277561888
 10
120.3771484074057
 20
-95.4346570941969
 10
120.4026421139966
 20
-95.43259003690575
 10
120.4694769664104
 20
-95.4263888650323
 10
120.4694769664104
 20
-95.4263888650323
 10
120.4694769664104
 20
-95.60828990665348
 10
120.4694769664104
 20
-95.60828990665348
 10
120.4529405080812
 20
-95.60828990665348
 10
120.4308918969756
 20
-95.60622284936234
 10
120.2379665498016
 20
-95.59761011064921
 10
120.1938693275904
 20
-95.59554305335806
 10
120.0009439804164
 20
-95.59140893877576
 10
119.9623589109816
 20
-95.59140893877576
 10
119.9623589109816
 20
-95.59140893877576
 10
119.77356767839
 20
-95.59140893877576
 10
119.77356767839
 20
-95.59140893877576
 10
119.77356767839
 20
-95.59140893877576
 10
119.77356767839
 20
-95.70992022346836
 10
119.77356767839
 20
-95.70992022346836
 10
119.77356767839
 20
-95.70992022346836
 10
119.9251518797409
 20
-95.70992022346836
 10
119.9251518797409
 20
-95.70992022346836
 10
120.0677788328303
 20
-95.70992022346836
 10
120.2345214543164
 20
-95.70992022346836
 10
120.3716362546293
 20
-95.69924042746408
 10
120.3716362546293
 20
-95.69924042746408
 10
120.3716362546293
 20
-95.870461673081
 10
120.3716362546293
 20
-95.870461673081
 10
120.188357174814
 20
-95.8621934439164
 10
120.0161024005515
 20
-95.86012638662525
 10
119.9251518797409
 20
-95.86012638662525
 10
119.9251518797409
 20
-95.86012638662525
 10
119.77356767839
 20
-95.86012638662525
 10
119.77356767839
 20
-95.86012638662525
 10
119.77356767839
 20
-95.86012638662525
 10
119.77356767839
 20
-95.96795787531357
 10
119.77356767839
 20
-95.96795787531357
 10
119.77356767839
 20
-95.96795787531357
 10
119.9751057642771
 20
-95.96795787531357
 10
119.9751057642771
 20
-95.96795787531357
 10
120.091894501227
 20
-95.96795787531357
 10
120.3433864716503
 20
-95.96382376073127
 10
120.5270100610141
 20
-95.95727807930929
 10
120.5270100610141
 20
-95.95727807930929
 10
120.5270100610141
 20
-96.1350450063482
 10
120.5270100610141
 20
-96.1350450063482
 10
120.3585448917854
 20
-96.12849932492621
 10
120.0843152911595
 20
-96.12436521034391
 10
119.9751057642771
 20
-96.12436521034391
 97
        0
 97
        0
 92
        1
 93
        4
 72
     1
 10
120.119455265109
 20
-96.38033580489798
 11
119.5010606255067
 21
-96.38033580489798
 72
     1
 10
119.5010606255067
 20
-96.38033580489798
 11
119.5010606255067
 21
-96.4881672935863
 72
     1
 10
119.5010606255067
 20
-96.4881672935863
 11
120.119455265109
 21
-96.4881672935863
 72
     1
 10
120.119455265109
 20
-96.4881672935863
 11
120.119455265109
 21
-96.38033580489798
 97
        0
 92
        1
 93
        4
 72
     1
 10
120.119455265109
 20
-96.61322425970087
 11
119.5010606255067
 21
-96.61322425970087
 72
     1
 10
119.5010606255067
 20
-96.61322425970087
 11
119.5010606255067
 21
-96.72725692026263
 72
     1
 10
119.5010606255067
 20
-96.72725692026263
 11
120.119455265109
 21
-96.72725692026263
 72
     1
 10
120.119455265109
 20
-96.72725692026263
 11
120.119455265109
 21
-96.61322425970087
 97
        0
 92
        1
 93
        4
 72
     1
 10
120.119455265109
 20
-96.8564480009595
 11
119.5010606255067
 21
-96.8564480009595
 72
     1
 10
119.5010606255067
 20
-96.8564480009595
 11
119.5010606255067
 21
-96.97048066152128
 72
     1
 10
119.5010606255067
 20
-96.97048066152128
 11
120.119455265109
 21
-96.97048066152128
 72
     1
 10
120.119455265109
 20
-96.97048066152128
 11
120.119455265109
 21
-96.8564480009595
 97
        0
 75
     2
 76
     1
 98
        0
  0
SPLINE
  5
114
330
F5
100
AcDbEntity
  8
_U+30EC_U+30A4_U+30E4_U+30FC 1
370
     0
100
AcDbSpline
210
0.0
220
0.0
230
1.0
 70
    11
 71
     3
 72
    47
 73
    43
 74
     0
 42
0.0000000001
 43
0.0000000001
 12
1.0
 22
0.0
 32
0.0
 13
1.0
 23
0.0
 33
0.0
 40
0.0
 40
0.0
 40
0.0
 40
0.0
 40
1.0
 40
1.0
 40
1.0
 40
2.0
 40
2.0
 40
2.0
 40
3.0
 40
3.0
 40
3.0
 40
4.0
 40
4.0
 40
4.0
 40
5.0
 40
5.0
 40
5.0
 40
6.0
 40
6.0
 40
6.0
 40
7.0
 40
7.0
 40
7.0
 40
8.0
 40
8.0
 40
8.0
 40
9.0
 40
9.0
 40
9.0
 40
10.0
 40
10.0
 40
10.0
 40
11.0
 40
11.0
 40
11.0
 40
12.0
 40
12.0
 40
12.0
 40
13.0
 40
13.0
 40
13.0
 40
14.0
 40
14.0
 40
14.0
 40
14.0
 10
121.7069552647121
 20
-96.10128307059274
 30
0.0
 10
121.7069552647121
 20
-96.10128307059274
 30
0.0
 10
121.6180718011927
 20
-96.10128307059274
 30
0.0
 10
121.6180718011927
 20
-96.10128307059274
 30
0.0
 10
121.6180718011927
 20
-96.18775496727251
 30
0.0
 10
121.5994682855724
 20
-96.57705075710574
 30
0.0
 10
121.4272135113099
 20
-96.7971923586132
 30
0.0
 10
121.2938883160307
 20
-96.96634654693898
 30
0.0
 10
121.112331783958
 20
-97.03628198528955
 30
0.0
 10
121.0386067405737
 20
-97.06384274917154
 30
0.0
 10
121.0386067405737
 20
-97.06384274917154
 30
0.0
 10
120.8677300045053
 20
-96.89675561813692
 30
0.0
 10
120.8677300045053
 20
-96.89675561813692
 30
0.0
 10
120.9531683725395
 20
-96.8840087648415
 30
0.0
 10
121.1068196311816
 20
-96.8605821155418
 30
0.0
 10
121.2714951953766
 20
-96.67247990204716
 30
0.0
 10
121.3362629904993
 20
-96.60047740640545
 30
0.0
 10
121.4272135113099
 20
-96.46095103925282
 30
0.0
 10
121.4272135113099
 20
-96.10128307059274
 30
0.0
 10
121.4272135113099
 20
-96.10128307059274
 30
0.0
 10
121.2253309158742
 20
-96.10128307059274
 30
0.0
 10
121.2253309158742
 20
-96.10128307059274
 30
0.0
 10
121.0623778994219
 20
-96.10128307059274
 30
0.0
 10
120.8994248829696
 20
-96.10541718517504
 30
0.0
 10
120.7364718665173
 20
-96.12023109576161
 30
0.0
 10
120.7364718665173
 20
-96.12023109576161
 30
0.0
 10
120.7364718665173
 20
-95.90008949425415
 30
0.0
 10
120.7364718665173
 20
-95.90008949425415
 30
0.0
 10
120.9014919402607
 20
-95.91490340484073
 30
0.0
 10
121.1512613629414
 20
-95.91938202897155
 30
0.0
 10
121.2253309158742
 20
-95.91938202897155
 30
0.0
 10
121.2253309158742
 20
-95.91938202897155
 30
0.0
 10
121.7069552647121
 20
-95.91938202897155
 30
0.0
 10
121.7069552647121
 20
-95.91938202897155
 30
0.0
 10
121.7234917230413
 20
-95.91938202897155
 30
0.0
 10
122.0011664191525
 20
-95.91938202897155
 30
0.0
 10
122.200981957297
 20
-95.90008949425415
 30
0.0
 10
122.200981957297
 20
-95.90008949425415
 30
0.0
 10
122.200981957297
 20
-96.12023109576161
 30
0.0
 10
122.200981957297
 20
-96.12023109576161
 30
0.0
 10
122.036306393102
 20
-96.10541718517504
 30
0.0
 10
121.8716308289071
 20
-96.10128307059274
 30
0.0
 10
121.7069552647121
 20
-96.10128307059274
 30
0.0
  0
SPLINE
  5
115
330
F5
100
AcDbEntity
  8
_U+30EC_U+30A4_U+30E4_U+30FC 1
370
     0
100
AcDbSpline
210
0.0
220
0.0
230
1.0
 70
    11
 71
     3
 72
    29
 73
    25
 74
     0
 42
0.0000000001
 43
0.0000000001
 12
1.0
 22
0.0
 32
0.0
 13
1.0
 23
0.0
 33
0.0
 40
0.0
 40
0.0
 40
0.0
 40
0.0
 40
1.0
 40
1.0
 40
1.0
 40
2.0
 40
2.0
 40
2.0
 40
3.0
 40
3.0
 40
3.0
 40
4.0
 40
4.0
 40
4.0
 40
5.0
 40
5.0
 40
5.0
 40
6.0
 40
6.0
 40
6.0
 40
7.0
 40
7.0
 40
7.0
 40
8.0
 40
8.0
 40
8.0
 40
8.0
 10
121.6180718011927
 20
-95.57211640405836
 30
0.0
 10
121.6180718011927
 20
-95.57211640405836
 30
0.0
 10
121.3087022266173
 20
-95.57211640405836
 30
0.0
 10
121.3087022266173
 20
-95.57211640405836
 30
0.0
 10
121.2105170052877
 20
-95.57211640405836
 30
0.0
 10
121.0882161155613
 20
-95.57866208548035
 30
0.0
 10
120.9938204992654
 20
-95.59140893877576
 30
0.0
 10
120.9938204992654
 20
-95.59140893877576
 30
0.0
 10
120.9938204992654
 20
-95.35645342668172
 30
0.0
 10
120.9938204992654
 20
-95.35645342668172
 30
0.0
 10
121.09786238292
 20
-95.37126733726829
 30
0.0
 10
121.2587483420811
 20
-95.37540145185059
 30
0.0
 10
121.3087022266173
 20
-95.37540145185059
 30
0.0
 10
121.3087022266173
 20
-95.37540145185059
 30
0.0
 10
121.6180718011927
 20
-95.37540145185059
 30
0.0
 10
121.6180718011927
 20
-95.37540145185059
 30
0.0
 10
121.6346082595219
 20
-95.37540145185059
 30
0.0
 10
121.8123751865608
 20
-95.37540145185059
 30
0.0
 10
121.9363986240298
 20
-95.35645342668172
 30
0.0
 10
121.9363986240298
 20
-95.35645342668172
 30
0.0
 10
121.9363986240298
 20
-95.59140893877576
 30
0.0
 10
121.9363986240298
 20
-95.59140893877576
 30
0.0
 10
121.7992838237168
 20
-95.57211640405836
 30
0.0
 10
121.6325412022308
 20
-95.57211640405836
 30
0.0
 10
121.6180718011927
 20
-95.57211640405836
 30
0.0
  0
HATCH
  5
116
330
F5
100
AcDbEntity
  8
_U+30EC_U+30A4_U+30E4_U+30FC 1
 62
   179
420
  2234388
100
AcDbHatch
 10
0.0
 20
0.0
 30
0.0
210
0.0
220
0.0
230
1.0
  2
SOLID
 70
     1
 71
     0
 91
        2
 92
        1
 93
        1
 72
     4
 94
        3
 73
     0
 74
     1
 95
       47
 96
       43
 40
0.0
 40
0.0
 40
0.0
 40
0.0
 40
1.0
 40
1.0
 40
1.0
 40
2.0
 40
2.0
 40
2.0
 40
3.0
 40
3.0
 40
3.0
 40
4.0
 40
4.0
 40
4.0
 40
5.0
 40
5.0
 40
5.0
 40
6.0
 40
6.0
 40
6.0
 40
7.0
 40
7.0
 40
7.0
 40
8.0
 40
8.0
 40
8.0
 40
9.0
 40
9.0
 40
9.0
 40
10.0
 40
10.0
 40
10.0
 40
11.0
 40
11.0
 40
11.0
 40
12.0
 40
12.0
 40
12.0
 40
13.0
 40
13.0
 40
13.0
 40
14.0
 40
14.0
 40
14.0
 40
14.0
 10
121.7069552647121
 20
-96.10128307059274
 10
121.7069552647121
 20
-96.10128307059274
 10
121.6180718011927
 20
-96.10128307059274
 10
121.6180718011927
 20
-96.10128307059274
 10
121.6180718011927
 20
-96.18775496727251
 10
121.5994682855724
 20
-96.57705075710574
 10
121.4272135113099
 20
-96.7971923586132
 10
121.2938883160307
 20
-96.96634654693898
 10
121.112331783958
 20
-97.03628198528955
 10
121.0386067405737
 20
-97.06384274917154
 10
121.0386067405737
 20
-97.06384274917154
 10
120.8677300045053
 20
-96.89675561813692
 10
120.8677300045053
 20
-96.89675561813692
 10
120.9531683725395
 20
-96.8840087648415
 10
121.1068196311816
 20
-96.8605821155418
 10
121.2714951953766
 20
-96.67247990204716
 10
121.3362629904993
 20
-96.60047740640545
 10
121.4272135113099
 20
-96.46095103925282
 10
121.4272135113099
 20
-96.10128307059274
 10
121.4272135113099
 20
-96.10128307059274
 10
121.2253309158742
 20
-96.10128307059274
 10
121.2253309158742
 20
-96.10128307059274
 10
121.0623778994219
 20
-96.10128307059274
 10
120.8994248829696
 20
-96.10541718517504
 10
120.7364718665173
 20
-96.12023109576161
 10
120.7364718665173
 20
-96.12023109576161
 10
120.7364718665173
 20
-95.90008949425415
 10
120.7364718665173
 20
-95.90008949425415
 10
120.9014919402607
 20
-95.91490340484073
 10
121.1512613629414
 20
-95.91938202897155
 10
121.2253309158742
 20
-95.91938202897155
 10
121.2253309158742
 20
-95.91938202897155
 10
121.7069552647121
 20
-95.91938202897155
 10
121.7069552647121
 20
-95.91938202897155
 10
121.7234917230413
 20
-95.91938202897155
 10
122.0011664191525
 20
-95.91938202897155
 10
122.200981957297
 20
-95.90008949425415
 10
122.200981957297
 20
-95.90008949425415
 10
122.200981957297
 20
-96.12023109576161
 10
122.200981957297
 20
-96.12023109576161
 10
122.036306393102
 20
-96.10541718517504
 10
121.8716308289071
 20
-96.10128307059274
 10
121.7069552647121
 20
-96.10128307059274
 97
        0
 97
        0
 92
        1
 93
        1
 72
     4
 94
        3
 73
     0
 74
     1
 95
       29
 96
       25
 40
0.0
 40
0.0
 40
0.0
 40
0.0
 40
1.0
 40
1.0
 40
1.0
 40
2.0
 40
2.0
 40
2.0
 40
3.0
 40
3.0
 40
3.0
 40
4.0
 40
4.0
 40
4.0
 40
5.0
 40
5.0
 40
5.0
 40
6.0
 40
6.0
 40
6.0
 40
7.0
 40
7.0
 40
7.0
 40
8.0
 40
8.0
 40
8.0
 40
8.0
 10
121.6180718011927
 20
-95.57211640405836
 10
121.6180718011927
 20
-95.57211640405836
 10
121.3087022266173
 20
-95.57211640405836
 10
121.3087022266173
 20
-95.57211640405836
 10
121.2105170052877
 20
-95.57211640405836
 10
121.0882161155613
 20
-95.57866208548035
 10
120.9938204992654
 20
-95.59140893877576
 10
120.9938204992654
 20
-95.59140893877576
 10
120.9938204992654
 20
-95.35645342668172
 10
120.9938204992654
 20
-95.35645342668172
 10
121.09786238292
 20
-95.37126733726829
 10
121.2587483420811
 20
-95.37540145185059
 10
121.3087022266173
 20
-95.37540145185059
 10
121.3087022266173
 20
-95.37540145185059
 10
121.6180718011927
 20
-95.37540145185059
 10
121.6180718011927
 20
-95.37540145185059
 10
121.6346082595219
 20
-95.37540145185059
 10
121.8123751865608
 20
-95.37540145185059
 10
121.9363986240298
 20
-95.35645342668172
 10
121.9363986240298
 20
-95.35645342668172
 10
121.9363986240298
 20
-95.59140893877576
 10
121.9363986240298
 20
-95.59140893877576
 10
121.7992838237168
 20
-95.57211640405836
 10
121.6325412022308
 20
-95.57211640405836
 10
121.6180718011927
 20
-95.57211640405836
 97
        0
 97
        0
 75
     2
 76
     1
 98
        0
  0
SPLINE
  5
117
330
F5
100
AcDbEntity
  8
_U+30EC_U+30A4_U+30E4_U+30FC 1
370
     0
100
AcDbSpline
210
0.0
220
0.0
230
1.0
 70
    11
 71
     3
 72
    29
 73
    25
 74
     0
 42
0.0000000001
 43
0.0000000001
 12
1.0
 22
0.0
 32
0.0
 13
1.0
 23
0.0
 33
0.0
 40
0.0
 40
0.0
 40
0.0
 40
0.0
 40
1.0
 40
1.0
 40
1.0
 40
2.0
 40
2.0
 40
2.0
 40
3.0
 40
3.0
 40
3.0
 40
4.0
 40
4.0
 40
4.0
 40
5.0
 40
5.0
 40
5.0
 40
6.0
 40
6.0
 40
6.0
 40
7.0
 40
7.0
 40
7.0
 40
8.0
 40
8.0
 40
8.0
 40
8.0
 10
123.3254611236825
 20
-96.26389157749654
 30
0.0
 10
123.3254611236825
 20
-96.26389157749654
 30
0.0
 10
122.9013698694483
 20
-96.26389157749654
 30
0.0
 10
122.9013698694483
 20
-96.26389157749654
 30
0.0
 10
122.8775987106001
 20
-96.26389157749654
 30
0.0
 10
122.5995795049404
 20
-96.26389157749654
 30
0.0
 10
122.4145778773825
 20
-96.28938528408737
 30
0.0
 10
122.4145778773825
 20
-96.28938528408737
 30
0.0
 10
122.4145778773825
 20
-96.05890839612417
 30
0.0
 10
122.4145778773825
 20
-96.05890839612417
 30
0.0
 10
122.5530707158895
 20
-96.08199053587533
 30
0.0
 10
122.7198133373756
 20
-96.08440210271502
 30
0.0
 10
122.9013698694483
 20
-96.08440210271502
 30
0.0
 10
122.9013698694483
 20
-96.08440210271502
 30
0.0
 10
123.3254611236825
 20
-96.08440210271502
 30
0.0
 10
123.3254611236825
 20
-96.08440210271502
 30
0.0
 10
123.4884141401349
 20
-96.08440210271502
 30
0.0
 10
123.6513671565872
 20
-96.08199053587533
 30
0.0
 10
123.8125976252969
 20
-96.05890839612417
 30
0.0
 10
123.8125976252969
 20
-96.05890839612417
 30
0.0
 10
123.8125976252969
 20
-96.28938528408737
 30
0.0
 10
123.8125976252969
 20
-96.28938528408737
 30
0.0
 10
123.6513671565872
 20
-96.2663031443362
 30
0.0
 10
123.434670650565
 20
-96.26389157749654
 30
0.0
 10
123.3254611236825
 20
-96.26389157749654
 30
0.0
  0
HATCH
  5
118
330
F5
100
AcDbEntity
  8
_U+30EC_U+30A4_U+30E4_U+30FC 1
 62
   179
420
  2234388
100
AcDbHatch
 10
0.0
 20
0.0
 30
0.0
210
0.0
220
0.0
230
1.0
  2
SOLID
 70
     1
 71
     0
 91
        1
 92
        1
 93
        1
 72
     4
 94
        3
 73
     0
 74
     1
 95
       29
 96
       25
 40
0.0
 40
0.0
 40
0.0
 40
0.0
 40
1.0
 40
1.0
 40
1.0
 40
2.0
 40
2.0
 40
2.0
 40
3.0
 40
3.0
 40
3.0
 40
4.0
 40
4.0
 40
4.0
 40
5.0
 40
5.0
 40
5.0
 40
6.0
 40
6.0
 40
6.0
 40
7.0
 40
7.0
 40
7.0
 40
8.0
 40
8.0
 40
8.0
 40
8.0
 10
123.3254611236825
 20
-96.26389157749654
 10
123.3254611236825
 20
-96.26389157749654
 10
122.9013698694483
 20
-96.26389157749654
 10
122.9013698694483
 20
-96.26389157749654
 10
122.8775987106001
 20
-96.26389157749654
 10
122.5995795049404
 20
-96.26389157749654
 10
122.4145778773825
 20
-96.28938528408737
 10
122.4145778773825
 20
-96.28938528408737
 10
122.4145778773825
 20
-96.05890839612417
 10
122.4145778773825
 20
-96.05890839612417
 10
122.5530707158895
 20
-96.08199053587533
 10
122.7198133373756
 20
-96.08440210271502
 10
122.9013698694483
 20
-96.08440210271502
 10
122.9013698694483
 20
-96.08440210271502
 10
123.3254611236825
 20
-96.08440210271502
 10
123.3254611236825
 20
-96.08440210271502
 10
123.4884141401349
 20
-96.08440210271502
 10
123.6513671565872
 20
-96.08199053587533
 10
123.8125976252969
 20
-96.05890839612417
 10
123.8125976252969
 20
-96.05890839612417
 10
123.8125976252969
 20
-96.28938528408737
 10
123.8125976252969
 20
-96.28938528408737
 10
123.6513671565872
 20
-96.2663031443362
 10
123.434670650565
 20
-96.26389157749654
 10
123.3254611236825
 20
-96.26389157749654
 97
        0
 97
        0
 75
     2
 76
     1
 98
        0
  0
SPLINE
  5
119
330
F5
100
AcDbEntity
  8
_U+30EC_U+30A4_U+30E4_U+30FC 1
370
     0
100
AcDbSpline
210
0.0
220
0.0
230
1.0
 70
    11
 71
     3
 72
    44
 73
    40
 74
     0
 42
0.0000000001
 43
0.0000000001
 12
1.0
 22
0.0
 32
0.0
 13
1.0
 23
0.0
 33
0.0
 40
0.0
 40
0.0
 40
0.0
 40
0.0
 40
1.0
 40
1.0
 40
1.0
 40
2.0
 40
2.0
 40
2.0
 40
3.0
 40
3.0
 40
3.0
 40
4.0
 40
4.0
 40
4.0
 40
5.0
 40
5.0
 40
5.0
 40
6.0
 40
6.0
 40
6.0
 40
7.0
 40
7.0
 40
7.0
 40
8.0
 40
8.0
 40
8.0
 40
9.0
 40
9.0
 40
9.0
 40
10.0
 40
10.0
 40
10.0
 40
11.0
 40
11.0
 40
11.0
 40
12.0
 40
12.0
 40
12.0
 40
13.0
 40
13.0
 40
13.0
 40
13.0
 10
125.2643608627811
 20
-95.82601994132128
 30
0.0
 10
125.166520151
 20
-96.19430064869448
 30
0.0
 10
125.1217339096918
 20
-96.35277504101597
 30
0.0
 10
124.9494791354293
 20
-96.60254446369659
 30
0.0
 10
124.7882486667196
 20
-96.83302135165981
 30
0.0
 10
124.5808539185076
 20
-97.01940101741182
 30
0.0
 10
124.3369411581519
 20
-97.11241859551356
 30
0.0
 10
124.3369411581519
 20
-97.11241859551356
 30
0.0
 10
124.1681314793746
 20
-96.93258461118353
 30
0.0
 10
124.1681314793746
 20
-96.93258461118353
 30
0.0
 10
124.7289930243733
 20
-96.78031139073548
 30
0.0
 10
125.0183810451343
 20
-96.22392846986763
 30
0.0
 10
125.0735025728983
 20
-95.78398977640123
 30
0.0
 10
125.0735025728983
 20
-95.78398977640123
 30
0.0
 10
124.4030869914687
 20
-95.78398977640123
 30
0.0
 10
124.4030869914687
 20
-95.78398977640123
 30
0.0
 10
124.3217827380168
 20
-95.78398977640123
 30
0.0
 10
124.1605522693071
 20
-95.78812389098353
 30
0.0
 10
124.0237819785427
 20
-95.80707191615241
 30
0.0
 10
124.0237819785427
 20
-95.80707191615241
 30
0.0
 10
124.0237819785427
 20
-95.58693031464495
 30
0.0
 10
124.0237819785427
 20
-95.58693031464495
 30
0.0
 10
124.0999185887667
 20
-95.60828990665348
 30
0.0
 10
124.3200601902742
 20
-95.60828990665348
 30
0.0
 10
124.407221106051
 20
-95.60828990665348
 30
0.0
 10
124.407221106051
 20
-95.60828990665348
 30
0.0
 10
124.7848035712344
 20
-95.60828990665348
 30
0.0
 10
124.7848035712344
 20
-95.60828990665348
 30
0.0
 10
124.8220106024751
 20
-95.60828990665348
 30
0.0
 10
125.0273382933959
 20
-95.60622284936234
 30
0.0
 10
125.0607557196029
 20
-95.59967716794036
 30
0.0
 10
125.0976182412951
 20
-95.59347599606691
 30
0.0
 10
125.0996852985862
 20
-95.59140893877576
 30
0.0
 10
125.1534287881561
 20
-95.55110132159834
 30
0.0
 10
125.1534287881561
 20
-95.55110132159834
 30
0.0
 10
125.318104352351
 20
-95.70544159933753
 30
0.0
 10
125.318104352351
 20
-95.70544159933753
 30
0.0
 10
125.2919216266631
 20
-95.73506942051068
 30
0.0
 10
125.2791747733677
 20
-95.76676429897498
 30
0.0
 10
125.2643608627811
 20
-95.82601994132128
 30
0.0
  0
SPLINE
  5
11A
330
F5
100
AcDbEntity
  8
_U+30EC_U+30A4_U+30E4_U+30FC 1
370
     0
100
AcDbSpline
210
0.0
220
0.0
230
1.0
 70
    11
 71
     3
 72
    17
 73
    13
 74
     0
 42
0.0000000001
 43
0.0000000001
 12
1.0
 22
0.0
 32
0.0
 13
1.0
 23
0.0
 33
0.0
 40
0.0
 40
0.0
 40
0.0
 40
0.0
 40
1.0
 40
1.0
 40
1.0
 40
2.0
 40
2.0
 40
2.0
 40
3.0
 40
3.0
 40
3.0
 40
4.0
 40
4.0
 40
4.0
 40
4.0
 10
125.4476399425964
 20
-95.62723793182236
 30
0.0
 10
125.3367078679714
 20
-95.62723793182236
 30
0.0
 10
125.2478244044519
 20
-95.52560761500749
 30
0.0
 10
125.2478244044519
 20
-95.3988281011503
 30
0.0
 10
125.2478244044519
 20
-95.2720485872931
 30
0.0
 10
125.3367078679714
 20
-95.16835121318708
 30
0.0
 10
125.4476399425964
 20
-95.16835121318708
 30
0.0
 10
125.5585720172215
 20
-95.16835121318708
 30
0.0
 10
125.6495225380321
 20
-95.2720485872931
 30
0.0
 10
125.6495225380321
 20
-95.3988281011503
 30
0.0
 10
125.6495225380321
 20
-95.52560761500749
 30
0.0
 10
125.5585720172215
 20
-95.62723793182236
 30
0.0
 10
125.4476399425964
 20
-95.62723793182236
 30
0.0
  0
SPLINE
  5
11B
330
F5
100
AcDbEntity
  8
_U+30EC_U+30A4_U+30E4_U+30FC 1
370
     0
100
AcDbSpline
210
0.0
220
0.0
230
1.0
 70
    11
 71
     3
 72
    17
 73
    13
 74
     0
 42
0.0000000001
 43
0.0000000001
 12
1.0
 22
0.0
 32
0.0
 13
1.0
 23
0.0
 33
0.0
 40
0.0
 40
0.0
 40
0.0
 40
0.0
 40
1.0
 40
1.0
 40
1.0
 40
2.0
 40
2.0
 40
2.0
 40
3.0
 40
3.0
 40
3.0
 40
4.0
 40
4.0
 40
4.0
 40
4.0
 10
125.4459173948538
 20
-95.29719778433542
 30
0.0
 10
125.3976860580603
 20
-95.29719778433542
 30
0.0
 10
125.358756479077
 20
-95.34163951609516
 30
0.0
 10
125.358756479077
 20
-95.39676104385914
 30
0.0
 10
125.358756479077
 20
-95.4539496289143
 30
0.0
 10
125.3976860580603
 20
-95.50252547525632
 30
0.0
 10
125.4497069998876
 20
-95.50252547525632
 30
0.0
 10
125.5013834321663
 20
-95.50252547525632
 30
0.0
 10
125.5365234061159
 20
-95.45153806207462
 30
0.0
 10
125.5365234061159
 20
-95.3988281011503
 30
0.0
 10
125.5365234061159
 20
-95.34163951609516
 30
0.0
 10
125.4958712793899
 20
-95.29719778433542
 30
0.0
 10
125.4459173948538
 20
-95.29719778433542
 30
0.0
  0
HATCH
  5
11C
330
F5
100
AcDbEntity
  8
_U+30EC_U+30A4_U+30E4_U+30FC 1
 62
   179
420
  2234388
100
AcDbHatch
 10
0.0
 20
0.0
 30
0.0
210
0.0
220
0.0
230
1.0
  2
SOLID
 70
     1
 71
     0
 91
        3
 92
        1
 93
        1
 72
     4
 94
        3
 73
     0
 74
     1
 95
       44
 96
       40
 40
0.0
 40
0.0
 40
0.0
 40
0.0
 40
1.0
 40
1.0
 40
1.0
 40
2.0
 40
2.0
 40
2.0
 40
3.0
 40
3.0
 40
3.0
 40
4.0
 40
4.0
 40
4.0
 40
5.0
 40
5.0
 40
5.0
 40
6.0
 40
6.0
 40
6.0
 40
7.0
 40
7.0
 40
7.0
 40
8.0
 40
8.0
 40
8.0
 40
9.0
 40
9.0
 40
9.0
 40
10.0
 40
10.0
 40
10.0
 40
11.0
 40
11.0
 40
11.0
 40
12.0
 40
12.0
 40
12.0
 40
13.0
 40
13.0
 40
13.0
 40
13.0
 10
125.2643608627811
 20
-95.82601994132128
 10
125.166520151
 20
-96.19430064869448
 10
125.1217339096918
 20
-96.35277504101597
 10
124.9494791354293
 20
-96.60254446369659
 10
124.7882486667196
 20
-96.83302135165981
 10
124.5808539185076
 20
-97.01940101741182
 10
124.3369411581519
 20
-97.11241859551356
 10
124.3369411581519
 20
-97.11241859551356
 10
124.1681314793746
 20
-96.93258461118353
 10
124.1681314793746
 20
-96.93258461118353
 10
124.7289930243733
 20
-96.78031139073548
 10
125.0183810451343
 20
-96.22392846986763
 10
125.0735025728983
 20
-95.78398977640123
 10
125.0735025728983
 20
-95.78398977640123
 10
124.4030869914687
 20
-95.78398977640123
 10
124.4030869914687
 20
-95.78398977640123
 10
124.3217827380168
 20
-95.78398977640123
 10
124.1605522693071
 20
-95.78812389098353
 10
124.0237819785427
 20
-95.80707191615241
 10
124.0237819785427
 20
-95.80707191615241
 10
124.0237819785427
 20
-95.58693031464495
 10
124.0237819785427
 20
-95.58693031464495
 10
124.0999185887667
 20
-95.60828990665348
 10
124.3200601902742
 20
-95.60828990665348
 10
124.407221106051
 20
-95.60828990665348
 10
124.407221106051
 20
-95.60828990665348
 10
124.7848035712344
 20
-95.60828990665348
 10
124.7848035712344
 20
-95.60828990665348
 10
124.8220106024751
 20
-95.60828990665348
 10
125.0273382933959
 20
-95.60622284936234
 10
125.0607557196029
 20
-95.59967716794036
 10
125.0976182412951
 20
-95.59347599606691
 10
125.0996852985862
 20
-95.59140893877576
 10
125.1534287881561
 20
-95.55110132159834
 10
125.1534287881561
 20
-95.55110132159834
 10
125.318104352351
 20
-95.70544159933753
 10
125.318104352351
 20
-95.70544159933753
 10
125.2919216266631
 20
-95.73506942051068
 10
125.2791747733677
 20
-95.76676429897498
 10
125.2643608627811
 20
-95.82601994132128
 97
        0
 97
        0
 92
        1
 93
        1
 72
     4
 94
        3
 73
     0
 74
     1
 95
       17
 96
       13
 40
0.0
 40
0.0
 40
0.0
 40
0.0
 40
1.0
 40
1.0
 40
1.0
 40
2.0
 40
2.0
 40
2.0
 40
3.0
 40
3.0
 40
3.0
 40
4.0
 40
4.0
 40
4.0
 40
4.0
 10
125.4476399425964
 20
-95.62723793182236
 10
125.3367078679714
 20
-95.62723793182236
 10
125.2478244044519
 20
-95.52560761500749
 10
125.2478244044519
 20
-95.3988281011503
 10
125.2478244044519
 20
-95.2720485872931
 10
125.3367078679714
 20
-95.16835121318708
 10
125.4476399425964
 20
-95.16835121318708
 10
125.5585720172215
 20
-95.16835121318708
 10
125.6495225380321
 20
-95.2720485872931
 10
125.6495225380321
 20
-95.3988281011503
 10
125.6495225380321
 20
-95.52560761500749
 10
125.5585720172215
 20
-95.62723793182236
 10
125.4476399425964
 20
-95.62723793182236
 97
        0
 97
        0
 92
        1
 93
        1
 72
     4
 94
        3
 73
     0
 74
     1
 95
       17
 96
       13
 40
0.0
 40
0.0
 40
0.0
 40
0.0
 40
1.0
 40
1.0
 40
1.0
 40
2.0
 40
2.0
 40
2.0
 40
3.0
 40
3.0
 40
3.0
 40
4.0
 40
4.0
 40
4.0
 40
4.0
 10
125.4459173948538
 20
-95.29719778433542
 10
125.3976860580603
 20
-95.29719778433542
 10
125.358756479077
 20
-95.34163951609516
 10
125.358756479077
 20
-95.39676104385914
 10
125.358756479077
 20
-95.4539496289143
 10
125.3976860580603
 20
-95.50252547525632
 10
125.4497069998876
 20
-95.50252547525632
 10
125.5013834321663
 20
-95.50252547525632
 10
125.5365234061159
 20
-95.45153806207462
 10
125.5365234061159
 20
-95.3988281011503
 10
125.5365234061159
 20
-95.34163951609516
 10
125.4958712793899
 20
-95.29719778433542
 10
125.4459173948538
 20
-95.29719778433542
 97
        0
 97
        0
 75
     2
 76
     1
 98
        0
  0
ENDBLK
  5
F8
330
F5
100
AcDbEntity
  8
0
100
AcDbBlockEnd
  0
ENDSEC
  0
SECTION
  2
ENTITIES
  0
SPLINE
  5
41
330
1F
100
AcDbEntity
  8
_U+30EC_U+30A4_U+30E4_U+30FC 1
 62
   179
420
  2234388
370
    25
100
AcDbSpline
210
0.0
220
0.0
230
1.0
 70
    11
 71
     3
 72
    50
 73
    46
 74
     0
 42
0.0000000001
 43
0.0000000001
 12
1.0
 22
0.0
 32
0.0
 13
1.0
 23
0.0
 33
0.0
 40
0.0
 40
0.0
 40
0.0
 40
0.0
 40
1.0
 40
1.0
 40
1.0
 40
2.0
 40
2.0
 40
2.0
 40
3.0
 40
3.0
 40
3.0
 40
4.0
 40
4.0
 40
4.0
 40
5.0
 40
5.0
 40
5.0
 40
6.0
 40
6.0
 40
6.0
 40
7.0
 40
7.0
 40
7.0
 40
8.0
 40
8.0
 40
8.0
 40
9.0
 40
9.0
 40
9.0
 40
10.0
 40
10.0
 40
10.0
 40
11.0
 40
11.0
 40
11.0
 40
12.0
 40
12.0
 40
12.0
 40
13.0
 40
13.0
 40
13.0
 40
14.0
 40
14.0
 40
14.0
 40
15.0
 40
15.0
 40
15.0
 40
15.0
 10
104.4360131689487
 20
-168.0507391246537
 30
0.0
 10
104.4360131689487
 20
-168.0507391246537
 30
0.0
 10
107.4360027509187
 20
-168.0507391246537
 30
0.0
 10
107.4360027509187
 20
-168.0507391246537
 30
0.0
 10
107.4360027509187
 20
-168.0507391246537
 30
0.0
 10
134.4365874035703
 20
-166.850448013843
 30
0.0
 10
134.4365874035703
 20
-166.850448013843
 30
0.0
 10
134.4365874035703
 20
-166.850448013843
 30
0.0
 10
134.4365874035703
 20
-166.2503024584377
 30
0.0
 10
134.4365874035703
 20
-166.2503024584377
 30
0.0
 10
134.4365874035703
 20
-166.2503024584377
 30
0.0
 10
107.4360027509187
 20
-166.2503024584377
 30
0.0
 10
107.4360027509187
 20
-166.2503024584377
 30
0.0
 10
107.4360027509187
 20
-166.2503024584377
 30
0.0
 10
106.2364145119055
 20
-166.2503024584377
 30
0.0
 10
106.2364145119055
 20
-166.2503024584377
 30
0.0
 10
92.42915125304701
 20
-166.2503024584377
 30
0.0
 10
79.92914129417106
 20
-160.6541180153917
 30
0.0
 10
70.88095596945394
 20
-151.6058971843207
 30
0.0
 10
70.88095596945394
 20
-151.6058971843207
 30
0.0
 10
70.88095596945394
 20
-151.6052269065433
 30
0.0
 10
70.88095596945394
 20
-151.6052269065433
 30
0.0
 10
61.83273536695994
 20
-142.5570060754716
 30
0.0
 10
56.2358455097485
 20
-130.0575249674854
 30
0.0
 10
56.2358455097485
 20
-116.2502613598263
 30
0.0
 10
56.2358455097485
 20
-116.2502613598263
 30
0.0
 10
56.2358455097485
 20
-115.0500055267931
 30
0.0
 10
56.2358455097485
 20
-115.0500055267931
 30
0.0
 10
56.2358455097485
 20
-115.0500055267931
 30
0.0
 10
56.23651578750918
 20
-88.05008775576525
 30
0.0
 10
56.23651578750918
 20
-88.05008775576525
 30
0.0
 10
56.23651578750918
 20
-88.05008775576525
 30
0.0
 10
55.63640552504149
 20
-88.05008775576525
 30
0.0
 10
55.63640552504149
 20
-88.05008775576525
 30
0.0
 10
55.63640552504149
 20
-88.05008775576525
 30
0.0
 10
54.43611444455235
 20
-115.0500055267931
 30
0.0
 10
54.43611444455235
 20
-115.0500055267931
 30
0.0
 10
54.43611444455235
 20
-115.0500055267931
 30
0.0
 10
54.43611444455235
 20
-118.0499924704875
 30
0.0
 10
54.43611444455235
 20
-118.0499924704875
 30
0.0
 10
54.43611444455235
 20
-131.8572560781466
 30
0.0
 10
60.03233402400312
 20
-144.3574074639108
 30
0.0
 10
69.08051934872023
 20
-153.4056282949819
 30
0.0
 10
78.12873995121423
 20
-162.4538138482754
 30
0.0
 10
90.62892629897458
 20
-168.0507391246537
 30
0.0
 10
104.4360131689487
 20
-168.0507391246537
 30
0.0
  0
POLYLINE
  5
42
330
1F
100
AcDbEntity
  8
_U+30EC_U+30A4_U+30E4_U+30FC 1
 62
   179
420
  2234388
370
     9
100
AcDb2dPolyline
 66
     1
 10
0.0
 20
0.0
 30
0.0
  0
VERTEX
  5
43
330
42
100
AcDbEntity
  8
_U+30EC_U+30A4_U+30E4_U+30FC 1
 62
   179
420
  2234388
370
     9
100
AcDbVertex
100
AcDb2dVertex
 10
68.46456936443442
 20
-154.4722166280486
 30
0.0
  0
VERTEX
  5
44
330
42
100
AcDbEntity
  8
_U+30EC_U+30A4_U+30E4_U+30FC 1
 62
   179
420
  2234388
370
     9
100
AcDbVertex
100
AcDb2dVertex
 10
69.08051934872023
 20
-153.4056282949819
 30
0.0
  0
SEQEND
  5
45
330
42
100
AcDbEntity
  8
_U+30EC_U+30A4_U+30E4_U+30FC 1
 62
   179
420
  2234388
370
     9
  0
POLYLINE
  5
46
330
1F
100
AcDbEntity
  8
_U+30EC_U+30A4_U+30E4_U+30FC 1
 62
   179
420
  2234388
370
     9
100
AcDb2dPolyline
 66
     1
 10
0.0
 20
0.0
 30
0.0
  0
VERTEX
  5
47
330
46
100
AcDbEntity
  8
_U+30EC_U+30A4_U+30E4_U+30FC 1
 62
   179
420
  2234388
370
     9
100
AcDbVertex
100
AcDb2dVertex
 10
68.01393104259783
 20
-154.0209080170502
 30
0.0
  0
VERTEX
  5
48
330
46
100
AcDbEntity
  8
_U+30EC_U+30A4_U+30E4_U+30FC 1
 62
   179
420
  2234388
370
     9
100
AcDbVertex
100
AcDb2dVertex
 10
69.08051934872023
 20
-153.4056282949819
 30
0.0
  0
SEQEND
  5
49
330
46
100
AcDbEntity
  8
_U+30EC_U+30A4_U+30E4_U+30FC 1
 62
   179
420
  2234388
370
     9
  0
POLYLINE
  5
4A
330
1F
100
AcDbEntity
  8
_U+30EC_U+30A4_U+30E4_U+30FC 1
 62
   179
420
  2234388
370
     9
100
AcDb2dPolyline
 66
     1
 10
0.0
 20
0.0
 30
0.0
  0
VERTEX
  5
4B
330
4A
100
AcDbEntity
  8
_U+30EC_U+30A4_U+30E4_U+30FC 1
 62
   179
420
  2234388
370
     9
100
AcDbVertex
100
AcDb2dVertex
 10
49.60746873440804
 20
-172.8793849567799
 30
0.0
  0
VERTEX
  5
4C
330
4A
100
AcDbEntity
  8
_U+30EC_U+30A4_U+30E4_U+30FC 1
 62
   179
420
  2234388
370
     9
100
AcDbVertex
100
AcDb2dVertex
 10
69.08051934872023
 20
-153.4056282949819
 30
0.0
  0
SEQEND
  5
4D
330
4A
100
AcDbEntity
  8
_U+30EC_U+30A4_U+30E4_U+30FC 1
 62
   179
420
  2234388
370
     9
  0
POLYLINE
  5
4E
330
1F
100
AcDbEntity
  8
_U+30EC_U+30A4_U+30E4_U+30FC 1
 62
   179
420
  2234388
370
     9
100
AcDb2dPolyline
 66
     1
 10
0.0
 20
0.0
 30
0.0
  0
VERTEX
  5
4F
330
4E
100
AcDbEntity
  8
_U+30EC_U+30A4_U+30E4_U+30FC 1
 62
   179
420
  2234388
370
     9
100
AcDbVertex
100
AcDb2dVertex
 10
43.24438084118837
 20
-172.8793849567799
 30
0.0
  0
VERTEX
  5
50
330
4E
100
AcDbEntity
  8
_U+30EC_U+30A4_U+30E4_U+30FC 1
 62
   179
420
  2234388
370
     9
100
AcDbVertex
100
AcDb2dVertex
 10
49.60746873440804
 20
-172.8793849567799
 30
0.0
  0
SEQEND
  5
51
330
4E
100
AcDbEntity
  8
_U+30EC_U+30A4_U+30E4_U+30FC 1
 62
   179
420
  2234388
370
     9
  0
SPLINE
  5
52
330
1F
100
AcDbEntity
  8
_U+30EC_U+30A4_U+30E4_U+30FC 1
 62
   179
420
  2234388
370
     9
100
AcDbSpline
210
0.0
220
0.0
230
1.0
 70
    11
 71
     3
 72
    17
 73
    13
 74
     0
 42
0.0000000001
 43
0.0000000001
 12
1.0
 22
0.0
 32
0.0
 13
1.0
 23
0.0
 33
0.0
 40
0.0
 40
0.0
 40
0.0
 40
0.0
 40
1.0
 40
1.0
 40
1.0
 40
2.0
 40
2.0
 40
2.0
 40
3.0
 40
3.0
 40
3.0
 40
4.0
 40
4.0
 40
4.0
 40
4.0
 10
137.4420776046716
 20
-166.850448013843
 30
0.0
 10
137.4420776046716
 20
-166.7829263471934
 30
0.0
 10
137.3869737171885
 20
-166.7278224583178
 30
0.0
 10
137.3194555212258
 20
-166.7278224583178
 30
0.0
 10
137.2512248317629
 20
-166.7278224583178
 30
0.0
 10
137.1960856665029
 20
-166.7829263471934
 30
0.0
 10
137.1960856665029
 20
-166.850448013843
 30
0.0
 10
137.1960856665029
 20
-166.9186752360482
 30
0.0
 10
137.2512248317629
 20
-166.9737791249232
 30
0.0
 10
137.3194555212258
 20
-166.9737791249232
 30
0.0
 10
137.3869737171885
 20
-166.9737791249232
 30
0.0
 10
137.4420776046716
 20
-166.9186752360482
 30
0.0
 10
137.4420776046716
 20
-166.850448013843
 30
0.0
  0
SPLINE
  5
53
330
1F
100
AcDbEntity
  8
_U+30EC_U+30A4_U+30E4_U+30FC 1
 62
   179
420
  2234388
370
     9
100
AcDbSpline
210
0.0
220
0.0
230
1.0
 70
    11
 71
     3
 72
    17
 73
    13
 74
     0
 42
0.0000000001
 43
0.0000000001
 12
1.0
 22
0.0
 32
0.0
 13
1.0
 23
0.0
 33
0.0
 40
0.0
 40
0.0
 40
0.0
 40
0.0
 40
1.0
 40
1.0
 40
1.0
 40
2.0
 40
2.0
 40
2.0
 40
3.0
 40
3.0
 40
3.0
 40
4.0
 40
4.0
 40
4.0
 40
4.0
 10
134.5151157349001
 20
-172.9779157900887
 30
0.0
 10
134.5151157349001
 20
-172.9103588456614
 30
0.0
 10
134.4606821251778
 20
-172.8552549567859
 30
0.0
 10
134.3917846269355
 20
-172.8552549567859
 30
0.0
 10
134.3235926842308
 20
-172.8552549567859
 30
0.0
 10
134.2684535189708
 20
-172.9103588456614
 30
0.0
 10
134.2684535189708
 20
-172.9779157900887
 30
0.0
 10
134.2684535189708
 20
-173.0461077345163
 30
0.0
 10
134.3235926842308
 20
-173.1012469011694
 30
0.0
 10
134.3917846269355
 20
-173.1012469011694
 30
0.0
 10
134.4606821251778
 20
-173.1012469011694
 30
0.0
 10
134.5151157349001
 20
-173.0461077345163
 30
0.0
 10
134.5151157349001
 20
-172.9779157900887
 30
0.0
  0
SPLINE
  5
54
330
1F
100
AcDbEntity
  8
_U+30EC_U+30A4_U+30E4_U+30FC 1
 62
   179
420
  2234388
370
     9
100
AcDbSpline
210
0.0
220
0.0
230
1.0
 70
    11
 71
     3
 72
    17
 73
    13
 74
     0
 42
0.0000000001
 43
0.0000000001
 12
1.0
 22
0.0
 32
0.0
 13
1.0
 23
0.0
 33
0.0
 40
0.0
 40
0.0
 40
0.0
 40
0.0
 40
1.0
 40
1.0
 40
1.0
 40
2.0
 40
2.0
 40
2.0
 40
3.0
 40
3.0
 40
3.0
 40
4.0
 40
4.0
 40
4.0
 40
4.0
 10
54.55912805252512
 20
-172.9779157900887
 30
0.0
 10
54.55912805252512
 20
-172.9103588456614
 30
0.0
 10
54.50398888726518
 20
-172.8552549567859
 30
0.0
 10
54.43544416679168
 20
-172.8552549567859
 30
0.0
 10
54.36824000183953
 20
-172.8552549567859
 30
0.0
 10
54.31348889212524
 20
-172.9103588456614
 30
0.0
 10
54.31348889212524
 20
-172.9779157900887
 30
0.0
 10
54.31348889212524
 20
-173.0461077345163
 30
0.0
 10
54.36824000183953
 20
-173.1012469011694
 30
0.0
 10
54.43544416679168
 20
-173.1012469011694
 30
0.0
 10
54.50398888726518
 20
-173.1012469011694
 30
0.0
 10
54.55912805252512
 20
-173.0461077345163
 30
0.0
 10
54.55912805252512
 20
-172.9779157900887
 30
0.0
  0
SPLINE
  5
55
330
1F
100
AcDbEntity
  8
_U+30EC_U+30A4_U+30E4_U+30FC 1
 62
   179
420
  2234388
370
     9
100
AcDbSpline
210
0.0
220
0.0
230
1.0
 70
    11
 71
     3
 72
    17
 73
    13
 74
     0
 42
0.0000000001
 43
0.0000000001
 12
1.0
 22
0.0
 32
0.0
 13
1.0
 23
0.0
 33
0.0
 40
0.0
 40
0.0
 40
0.0
 40
0.0
 40
1.0
 40
1.0
 40
1.0
 40
2.0
 40
2.0
 40
2.0
 40
3.0
 40
3.0
 40
3.0
 40
4.0
 40
4.0
 40
4.0
 40
4.0
 10
55.7587135774767
 20
-85.49728192307026
 30
0.0
 10
55.7587135774767
 20
-85.42905470086505
 30
0.0
 10
55.70392718998554
 20
-85.3746210897675
 30
0.0
 10
55.63569996950393
 20
-85.3746210897675
 30
0.0
 10
55.56782552679111
 20
-85.3746210897675
 30
0.0
 10
55.51307441707682
 20
-85.42905470086505
 30
0.0
 10
55.51307441707682
 20
-85.49728192307026
 30
0.0
 10
55.51307441707682
 20
-85.56550914527514
 30
0.0
 10
55.56782552679111
 20
-85.62061303415038
 30
0.0
 10
55.63569996950393
 20
-85.62061303415038
 30
0.0
 10
55.70392718998554
 20
-85.62061303415038
 30
0.0
 10
55.7587135774767
 20
-85.56550914527514
 30
0.0
 10
55.7587135774767
 20
-85.49728192307026
 30
0.0
  0
SPLINE
  5
56
330
1F
100
AcDbEntity
  8
_U+30EC_U+30A4_U+30E4_U+30FC 1
 62
   179
420
  2234388
370
     9
100
AcDbSpline
210
0.0
220
0.0
230
1.0
 70
    11
 71
     3
 72
    17
 73
    13
 74
     0
 42
0.0000000001
 43
0.0000000001
 12
1.0
 22
0.0
 32
0.0
 13
1.0
 23
0.0
 33
0.0
 40
0.0
 40
0.0
 40
0.0
 40
0.0
 40
1.0
 40
1.0
 40
1.0
 40
2.0
 40
2.0
 40
2.0
 40
3.0
 40
3.0
 40
3.0
 40
4.0
 40
4.0
 40
4.0
 40
4.0
 10
49.6319527653699
 20
-88.00669608910957
 30
0.0
 10
49.6319527653699
 20
-87.93846886690436
 30
0.0
 10
49.57783540183071
 20
-87.88403525580681
 30
0.0
 10
49.50893790358843
 20
-87.88403525580681
 30
0.0
 10
49.44106346087561
 20
-87.88403525580681
 30
0.0
 10
49.38631235116132
 20
-87.93846886690436
 30
0.0
 10
49.38631235116132
 20
-88.00669608910957
 30
0.0
 10
49.38631235116132
 20
-88.07488803353694
 30
0.0
 10
49.44106346087561
 20
-88.13002720018969
 30
0.0
 10
49.50893790358843
 20
-88.13002720018969
 30
0.0
 10
49.57783540183071
 20
-88.13002720018969
 30
0.0
 10
49.6319527653699
 20
-88.07488803353694
 30
0.0
 10
49.6319527653699
 20
-88.00669608910957
 30
0.0
  0
SPLINE
  5
57
330
1F
100
AcDbEntity
  8
_U+30EC_U+30A4_U+30E4_U+30FC 1
 62
   179
420
  2234388
370
     9
100
AcDbSpline
210
0.0
220
0.0
230
1.0
 70
    11
 71
     3
 72
    17
 73
    13
 74
     0
 42
0.0000000001
 43
0.0000000001
 12
1.0
 22
0.0
 32
0.0
 13
1.0
 23
0.0
 33
0.0
 40
0.0
 40
0.0
 40
0.0
 40
0.0
 40
1.0
 40
1.0
 40
1.0
 40
2.0
 40
2.0
 40
2.0
 40
3.0
 40
3.0
 40
3.0
 40
4.0
 40
4.0
 40
4.0
 40
4.0
 10
49.6319527653699
 20
-168.0507391246537
 30
0.0
 10
49.6319527653699
 20
-167.983217458004
 30
0.0
 10
49.57783540183071
 20
-167.9280782913516
 30
0.0
 10
49.50893790358843
 20
-167.9280782913516
 30
0.0
 10
49.44106346087561
 20
-167.9280782913516
 30
0.0
 10
49.38631235116132
 20
-167.983217458004
 30
0.0
 10
49.38631235116132
 20
-168.0507391246537
 30
0.0
 10
49.38631235116132
 20
-168.1189310690814
 30
0.0
 10
49.44106346087561
 20
-168.1740702357345
 30
0.0
 10
49.50893790358843
 20
-168.1740702357345
 30
0.0
 10
49.57783540183071
 20
-168.1740702357345
 30
0.0
 10
49.6319527653699
 20
-168.1189310690814
 30
0.0
 10
49.6319527653699
 20
-168.0507391246537
 30
0.0
  0
INSERT
  5
59
330
1F
100
AcDbEntity
  8
_U+30EC_U+30A4_U+30E4_U+30FC 1
100
AcDbBlockReference
  2
block 2
 10
0.0
 20
0.0
 30
0.0
  0
POLYLINE
  5
64
330
1F
100
AcDbEntity
  8
_U+30EC_U+30A4_U+30E4_U+30FC 1
 62
   179
420
  2234388
370
     9
100
AcDb2dPolyline
 66
     1
 10
0.0
 20
0.0
 30
0.0
  0
VERTEX
  5
65
330
64
100
AcDbEntity
  8
_U+30EC_U+30A4_U+30E4_U+30FC 1
 62
   179
420
  2234388
370
     9
100
AcDbVertex
100
AcDb2dVertex
 10
137.3194555212258
 20
-166.3571235695219
 30
0.0
  0
VERTEX
  5
66
330
64
100
AcDbEntity
  8
_U+30EC_U+30A4_U+30E4_U+30FC 1
 62
   179
420
  2234388
370
     9
100
AcDbVertex
100
AcDb2dVertex
 10
137.3194555212258
 20
-159.8810407933629
 30
0.0
  0
SEQEND
  5
67
330
64
100
AcDbEntity
  8
_U+30EC_U+30A4_U+30E4_U+30FC 1
 62
   179
420
  2234388
370
     9
  0
POLYLINE
  5
68
330
1F
100
AcDbEntity
  8
_U+30EC_U+30A4_U+30E4_U+30FC 1
 62
   179
420
  2234388
370
     9
100
AcDb2dPolyline
 66
     1
 10
0.0
 20
0.0
 30
0.0
  0
VERTEX
  5
69
330
68
100
AcDbEntity
  8
_U+30EC_U+30A4_U+30E4_U+30FC 1
 62
   179
420
  2234388
370
     9
100
AcDbVertex
100
AcDb2dVertex
 10
137.3194555212258
 20
-166.3571235695219
 30
0.0
  0
VERTEX
  5
6A
330
68
100
AcDbEntity
  8
_U+30EC_U+30A4_U+30E4_U+30FC 1
 62
   179
420
  2234388
370
     9
100
AcDbVertex
100
AcDb2dVertex
 10
137.3194555212258
 20
-168.0824185690908
 30
0.0
  0
SEQEND
  5
6B
330
68
100
AcDbEntity
  8
_U+30EC_U+30A4_U+30E4_U+30FC 1
 62
   179
420
  2234388
370
     9
  0
POLYLINE
  5
6C
330
1F
100
AcDbEntity
  8
_U+30EC_U+30A4_U+30E4_U+30FC 1
 62
   179
420
  2234388
370
     9
100
AcDb2dPolyline
 66
     1
 10
0.0
 20
0.0
 30
0.0
  0
VERTEX
  5
6D
330
6C
100
AcDbEntity
  8
_U+30EC_U+30A4_U+30E4_U+30FC 1
 62
   179
420
  2234388
370
     9
100
AcDbVertex
100
AcDb2dVertex
 10
135.5210968203465
 20
-166.850448013843
 30
0.0
  0
VERTEX
  5
6E
330
6C
100
AcDbEntity
  8
_U+30EC_U+30A4_U+30E4_U+30FC 1
 62
   179
420
  2234388
370
     9
100
AcDbVertex
100
AcDb2dVertex
 10
138.5507170208323
 20
-166.850448013843
 30
0.0
  0
SEQEND
  5
6F
330
6C
100
AcDbEntity
  8
_U+30EC_U+30A4_U+30E4_U+30FC 1
 62
   179
420
  2234388
370
     9
  0
SPLINE
  5
70
330
1F
100
AcDbEntity
  8
_U+30EC_U+30A4_U+30E4_U+30FC 1
 62
   179
420
  2234388
370
     9
100
AcDbSpline
210
0.0
220
0.0
230
1.0
 70
    11
 71
     3
 72
    17
 73
    13
 74
     0
 42
0.0000000001
 43
0.0000000001
 12
1.0
 22
0.0
 32
0.0
 13
1.0
 23
0.0
 33
0.0
 40
0.0
 40
0.0
 40
0.0
 40
0.0
 40
1.0
 40
1.0
 40
1.0
 40
2.0
 40
2.0
 40
2.0
 40
3.0
 40
3.0
 40
3.0
 40
4.0
 40
4.0
 40
4.0
 40
4.0
 10
137.4420776046716
 20
-166.2503024584377
 30
0.0
 10
137.4420776046716
 20
-166.1827807917874
 30
0.0
 10
137.3869737171885
 20
-166.1276769029124
 30
0.0
 10
137.3194555212258
 20
-166.1276769029124
 30
0.0
 10
137.2512248317629
 20
-166.1276769029124
 30
0.0
 10
137.1960856665029
 20
-166.1827807917874
 30
0.0
 10
137.1960856665029
 20
-166.2503024584377
 30
0.0
 10
137.1960856665029
 20
-166.3185296806429
 30
0.0
 10
137.2512248317629
 20
-166.3736688472953
 30
0.0
 10
137.3194555212258
 20
-166.3736688472953
 30
0.0
 10
137.3869737171885
 20
-166.3736688472953
 30
0.0
 10
137.4420776046716
 20
-166.3185296806429
 30
0.0
 10
137.4420776046716
 20
-166.2503024584377
 30
0.0
  0
POLYLINE
  5
71
330
1F
100
AcDbEntity
  8
_U+30EC_U+30A4_U+30E4_U+30FC 1
 62
   179
420
  2234388
370
     9
100
AcDb2dPolyline
 66
     1
 10
0.0
 20
0.0
 30
0.0
  0
VERTEX
  5
72
330
71
100
AcDbEntity
  8
_U+30EC_U+30A4_U+30E4_U+30FC 1
 62
   179
420
  2234388
370
     9
100
AcDbVertex
100
AcDb2dVertex
 10
135.5210968203465
 20
-166.2503024584377
 30
0.0
  0
VERTEX
  5
73
330
71
100
AcDbEntity
  8
_U+30EC_U+30A4_U+30E4_U+30FC 1
 62
   179
420
  2234388
370
     9
100
AcDbVertex
100
AcDb2dVertex
 10
138.5507170208323
 20
-166.2503024584377
 30
0.0
  0
SEQEND
  5
74
330
71
100
AcDbEntity
  8
_U+30EC_U+30A4_U+30E4_U+30FC 1
 62
   179
420
  2234388
370
     9
  0
INSERT
  5
76
330
1F
100
AcDbEntity
  8
_U+30EC_U+30A4_U+30E4_U+30FC 1
100
AcDbBlockReference
  2
block 3
 10
0.0
 20
0.0
 30
0.0
  0
POLYLINE
  5
87
330
1F
100
AcDbEntity
  8
_U+30EC_U+30A4_U+30E4_U+30FC 1
 62
   179
420
  2234388
370
     9
100
AcDb2dPolyline
 66
     1
 10
0.0
 20
0.0
 30
0.0
  0
VERTEX
  5
88
330
87
100
AcDbEntity
  8
_U+30EC_U+30A4_U+30E4_U+30FC 1
 62
   179
420
  2234388
370
     9
100
AcDbVertex
100
AcDb2dVertex
 10
56.1280027637458
 20
-85.49728192307026
 30
0.0
  0
VERTEX
  5
89
330
87
100
AcDbEntity
  8
_U+30EC_U+30A4_U+30E4_U+30FC 1
 62
   179
420
  2234388
370
     9
100
AcDbVertex
100
AcDb2dVertex
 10
63.83676003805524
 20
-85.49728192307026
 30
0.0
  0
SEQEND
  5
8A
330
87
100
AcDbEntity
  8
_U+30EC_U+30A4_U+30E4_U+30FC 1
 62
   179
420
  2234388
370
     9
  0
POLYLINE
  5
8B
330
1F
100
AcDbEntity
  8
_U+30EC_U+30A4_U+30E4_U+30FC 1
 62
   179
420
  2234388
370
     9
100
AcDb2dPolyline
 66
     1
 10
0.0
 20
0.0
 30
0.0
  0
VERTEX
  5
8C
330
8B
100
AcDbEntity
  8
_U+30EC_U+30A4_U+30E4_U+30FC 1
 62
   179
420
  2234388
370
     9
100
AcDbVertex
100
AcDb2dVertex
 10
56.1280027637458
 20
-85.49728192307026
 30
0.0
  0
VERTEX
  5
8D
330
8B
100
AcDbEntity
  8
_U+30EC_U+30A4_U+30E4_U+30FC 1
 62
   179
420
  2234388
370
     9
100
AcDbVertex
100
AcDb2dVertex
 10
54.40408222314734
 20
-85.49728192307026
 30
0.0
  0
SEQEND
  5
8E
330
8B
100
AcDbEntity
  8
_U+30EC_U+30A4_U+30E4_U+30FC 1
 62
   179
420
  2234388
370
     9
  0
POLYLINE
  5
8F
330
1F
100
AcDbEntity
  8
_U+30EC_U+30A4_U+30E4_U+30FC 1
 62
   179
420
  2234388
370
     9
100
AcDb2dPolyline
 66
     1
 10
0.0
 20
0.0
 30
0.0
  0
VERTEX
  5
90
330
8F
100
AcDbEntity
  8
_U+30EC_U+30A4_U+30E4_U+30FC 1
 62
   179
420
  2234388
370
     9
100
AcDbVertex
100
AcDb2dVertex
 10
55.63605274727271
 20
-87.2956019226207
 30
0.0
  0
VERTEX
  5
91
330
8F
100
AcDbEntity
  8
_U+30EC_U+30A4_U+30E4_U+30FC 1
 62
   179
420
  2234388
370
     9
100
AcDbVertex
100
AcDb2dVertex
 10
55.63605274727271
 20
-84.2646410900448
 30
0.0
  0
SEQEND
  5
92
330
8F
100
AcDbEntity
  8
_U+30EC_U+30A4_U+30E4_U+30FC 1
 62
   179
420
  2234388
370
     9
  0
SPLINE
  5
93
330
1F
100
AcDbEntity
  8
_U+30EC_U+30A4_U+30E4_U+30FC 1
 62
   179
420
  2234388
370
     9
100
AcDbSpline
210
0.0
220
0.0
230
1.0
 70
    11
 71
     3
 72
    17
 73
    13
 74
     0
 42
0.0000000001
 43
0.0000000001
 12
1.0
 22
0.0
 32
0.0
 13
1.0
 23
0.0
 33
0.0
 40
0.0
 40
0.0
 40
0.0
 40
0.0
 40
1.0
 40
1.0
 40
1.0
 40
2.0
 40
2.0
 40
2.0
 40
3.0
 40
3.0
 40
3.0
 40
4.0
 40
4.0
 40
4.0
 40
4.0
 10
56.35847106217562
 20
-85.49728192307026
 30
0.0
 10
56.35847106217562
 20
-85.42905470086505
 30
0.0
 10
56.30371995246132
 20
-85.3746210897675
 30
0.0
 10
56.2358455097485
 20
-85.3746210897675
 30
0.0
 10
56.1676182892669
 20
-85.3746210897675
 30
0.0
 10
56.1128671795526
 20
-85.42905470086505
 30
0.0
 10
56.1128671795526
 20
-85.49728192307026
 30
0.0
 10
56.1128671795526
 20
-85.56550914527514
 30
0.0
 10
56.1676182892669
 20
-85.62061303415038
 30
0.0
 10
56.2358455097485
 20
-85.62061303415038
 30
0.0
 10
56.30371995246132
 20
-85.62061303415038
 30
0.0
 10
56.35847106217562
 20
-85.56550914527514
 30
0.0
 10
56.35847106217562
 20
-85.49728192307026
 30
0.0
  0
POLYLINE
  5
94
330
1F
100
AcDbEntity
  8
_U+30EC_U+30A4_U+30E4_U+30FC 1
 62
   179
420
  2234388
370
     9
100
AcDb2dPolyline
 66
     1
 10
0.0
 20
0.0
 30
0.0
  0
VERTEX
  5
95
330
94
100
AcDbEntity
  8
_U+30EC_U+30A4_U+30E4_U+30FC 1
 62
   179
420
  2234388
370
     9
100
AcDbVertex
100
AcDb2dVertex
 10
56.2358455097485
 20
-87.2956019226207
 30
0.0
  0
VERTEX
  5
96
330
94
100
AcDbEntity
  8
_U+30EC_U+30A4_U+30E4_U+30FC 1
 62
   179
420
  2234388
370
     9
100
AcDbVertex
100
AcDb2dVertex
 10
56.2358455097485
 20
-84.2646410900448
 30
0.0
  0
SEQEND
  5
97
330
94
100
AcDbEntity
  8
_U+30EC_U+30A4_U+30E4_U+30FC 1
 62
   179
420
  2234388
370
     9
  0
INSERT
  5
99
330
1F
100
AcDbEntity
  8
_U+30EC_U+30A4_U+30E4_U+30FC 1
100
AcDbBlockReference
  2
block 4
 10
0.0
 20
0.0
 30
0.0
  0
POLYLINE
  5
AA
330
1F
100
AcDbEntity
  8
_U+30EC_U+30A4_U+30E4_U+30FC 1
 62
   179
420
  2234388
370
     9
100
AcDb2dPolyline
 66
     1
 10
0.0
 20
0.0
 30
0.0
  0
VERTEX
  5
AB
330
AA
100
AcDbEntity
  8
_U+30EC_U+30A4_U+30E4_U+30FC 1
 62
   179
420
  2234388
370
     9
100
AcDbVertex
100
AcDb2dVertex
 10
49.50929068135721
 20
-88.00669608910957
 30
0.0
  0
VERTEX
  5
AC
330
AA
100
AcDbEntity
  8
_U+30EC_U+30A4_U+30E4_U+30FC 1
 62
   179
420
  2234388
370
     9
100
AcDbVertex
100
AcDb2dVertex
 10
49.50929068135721
 20
-168.0507391246537
 30
0.0
  0
SEQEND
  5
AD
330
AA
100
AcDbEntity
  8
_U+30EC_U+30A4_U+30E4_U+30FC 1
 62
   179
420
  2234388
370
     9
  0
POLYLINE
  5
AE
330
1F
100
AcDbEntity
  8
_U+30EC_U+30A4_U+30E4_U+30FC 1
 62
   179
420
  2234388
370
     9
100
AcDb2dPolyline
 66
     1
 10
0.0
 20
0.0
 30
0.0
  0
VERTEX
  5
AF
330
AE
100
AcDbEntity
  8
_U+30EC_U+30A4_U+30E4_U+30FC 1
 62
   179
420
  2234388
370
     9
100
AcDbVertex
100
AcDb2dVertex
 10
52.29291894367427
 20
-88.00669608910957
 30
0.0
  0
VERTEX
  5
B0
330
AE
100
AcDbEntity
  8
_U+30EC_U+30A4_U+30E4_U+30FC 1
 62
   179
420
  2234388
370
     9
100
AcDbVertex
100
AcDb2dVertex
 10
48.27732015723184
 20
-88.00669608910957
 30
0.0
  0
SEQEND
  5
B1
330
AE
100
AcDbEntity
  8
_U+30EC_U+30A4_U+30E4_U+30FC 1
 62
   179
420
  2234388
370
     9
  0
POLYLINE
  5
B2
330
1F
100
AcDbEntity
  8
_U+30EC_U+30A4_U+30E4_U+30FC 1
 62
   179
420
  2234388
370
     9
100
AcDb2dPolyline
 66
     1
 10
0.0
 20
0.0
 30
0.0
  0
VERTEX
  5
B3
330
B2
100
AcDbEntity
  8
_U+30EC_U+30A4_U+30E4_U+30FC 1
 62
   179
420
  2234388
370
     9
100
AcDbVertex
100
AcDb2dVertex
 10
99.94427022798702
 20
-168.0507391246537
 30
0.0
  0
VERTEX
  5
B4
330
B2
100
AcDbEntity
  8
_U+30EC_U+30A4_U+30E4_U+30FC 1
 62
   179
420
  2234388
370
     9
100
AcDbVertex
100
AcDb2dVertex
 10
48.27732015723184
 20
-168.0507391246537
 30
0.0
  0
SEQEND
  5
B5
330
B2
100
AcDbEntity
  8
_U+30EC_U+30A4_U+30E4_U+30FC 1
 62
   179
420
  2234388
370
     9
  0
INSERT
  5
B7
330
1F
100
AcDbEntity
  8
_U+30EC_U+30A4_U+30E4_U+30FC 1
100
AcDbBlockReference
  2
block 5
 10
0.0
 20
0.0
 30
0.0
  0
POLYLINE
  5
C1
330
1F
100
AcDbEntity
  8
_U+30EC_U+30A4_U+30E4_U+30FC 1
 62
   179
420
  2234388
370
     9
100
AcDb2dPolyline
 66
     1
 10
0.0
 20
0.0
 30
0.0
  0
VERTEX
  5
C2
330
C1
100
AcDbEntity
  8
_U+30EC_U+30A4_U+30E4_U+30FC 1
 62
   179
420
  2234388
370
     9
100
AcDbVertex
100
AcDb2dVertex
 10
134.3917846269355
 20
-172.9779157900887
 30
0.0
  0
VERTEX
  5
C3
330
C1
100
AcDbEntity
  8
_U+30EC_U+30A4_U+30E4_U+30FC 1
 62
   179
420
  2234388
370
     9
100
AcDbVertex
100
AcDb2dVertex
 10
54.43579694456045
 20
-172.9779157900887
 30
0.0
  0
SEQEND
  5
C4
330
C1
100
AcDbEntity
  8
_U+30EC_U+30A4_U+30E4_U+30FC 1
 62
   179
420
  2234388
370
     9
  0
POLYLINE
  5
C5
330
1F
100
AcDbEntity
  8
_U+30EC_U+30A4_U+30E4_U+30FC 1
 62
   179
420
  2234388
370
     9
100
AcDb2dPolyline
 66
     1
 10
0.0
 20
0.0
 30
0.0
  0
VERTEX
  5
C6
330
C5
100
AcDbEntity
  8
_U+30EC_U+30A4_U+30E4_U+30FC 1
 62
   179
420
  2234388
370
     9
100
AcDbVertex
100
AcDb2dVertex
 10
134.3917846269355
 20
-170.1935819018961
 30
0.0
  0
VERTEX
  5
C7
330
C5
100
AcDbEntity
  8
_U+30EC_U+30A4_U+30E4_U+30FC 1
 62
   179
420
  2234388
370
     9
100
AcDbVertex
100
AcDb2dVertex
 10
134.3917846269355
 20
-174.2098510675589
 30
0.0
  0
SEQEND
  5
C8
330
C5
100
AcDbEntity
  8
_U+30EC_U+30A4_U+30E4_U+30FC 1
 62
   179
420
  2234388
370
     9
  0
POLYLINE
  5
C9
330
1F
100
AcDbEntity
  8
_U+30EC_U+30A4_U+30E4_U+30FC 1
 62
   179
420
  2234388
370
     9
100
AcDb2dPolyline
 66
     1
 10
0.0
 20
0.0
 30
0.0
  0
VERTEX
  5
CA
330
C9
100
AcDbEntity
  8
_U+30EC_U+30A4_U+30E4_U+30FC 1
 62
   179
420
  2234388
370
     9
100
AcDbVertex
100
AcDb2dVertex
 10
54.43579694456045
 20
-121.7789594139998
 30
0.0
  0
VERTEX
  5
CB
330
C9
100
AcDbEntity
  8
_U+30EC_U+30A4_U+30E4_U+30FC 1
 62
   179
420
  2234388
370
     9
100
AcDbVertex
100
AcDb2dVertex
 10
54.43579694456045
 20
-174.2098510675589
 30
0.0
  0
SEQEND
  5
CC
330
C9
100
AcDbEntity
  8
_U+30EC_U+30A4_U+30E4_U+30FC 1
 62
   179
420
  2234388
370
     9
  0
INSERT
  5
CE
330
1F
100
AcDbEntity
  8
_U+30EC_U+30A4_U+30E4_U+30FC 1
100
AcDbBlockReference
  2
block 6
 10
0.0
 20
0.0
 30
0.0
  0
POLYLINE
  5
D8
330
1F
100
AcDbEntity
  8
_U+30EC_U+30A4_U+30E4_U+30FC 1
  6
AI-Linetype-1
 62
   154
420
    23468
370
    25
100
AcDb2dPolyline
 66
     1
 10
0.0
 20
0.0
 30
0.0
  0
VERTEX
  5
D9
330
D8
100
AcDbEntity
  8
_U+30EC_U+30A4_U+30E4_U+30FC 1
  6
AI-Linetype-1
 62
   154
420
    23468
370
    25
100
AcDbVertex
100
AcDb2dVertex
 10
119.4352419529531
 20
-165.5792132919382
 30
0.0
  0
VERTEX
  5
DA
330
D8
100
AcDbEntity
  8
_U+30EC_U+30A4_U+30E4_U+30FC 1
  6
AI-Linetype-1
 62
   154
420
    23468
370
    25
100
AcDbVertex
100
AcDb2dVertex
 10
134.435211570272
 20
-165.5792132919382
 30
0.0
  0
SEQEND
  5
DC
330
D8
100
AcDbEntity
  8
_U+30EC_U+30A4_U+30E4_U+30FC 1
  6
AI-Linetype-1
 62
   154
420
    23468
370
    25
  0
POLYLINE
  5
DD
330
1F
100
AcDbEntity
  8
_U+30EC_U+30A4_U+30E4_U+30FC 1
 62
   179
420
  2234388
370
     9
100
AcDb2dPolyline
 66
     1
 10
0.0
 20
0.0
 30
0.0
  0
VERTEX
  5
DE
330
DD
100
AcDbEntity
  8
_U+30EC_U+30A4_U+30E4_U+30FC 1
 62
   179
420
  2234388
370
     9
100
AcDbVertex
100
AcDb2dVertex
 10
57.42234443008883
 20
-96.4388963647792
 30
0.0
  0
VERTEX
  5
DF
330
DD
100
AcDbEntity
  8
_U+30EC_U+30A4_U+30E4_U+30FC 1
 62
   179
420
  2234388
370
     9
100
AcDbVertex
100
AcDb2dVertex
 10
115.2039901164569
 20
-96.4388963647792
 30
0.0
  0
SEQEND
  5
E0
330
DD
100
AcDbEntity
  8
_U+30EC_U+30A4_U+30E4_U+30FC 1
 62
   179
420
  2234388
370
     9
  0
POLYLINE
  5
E1
330
1F
100
AcDbEntity
  8
_U+30EC_U+30A4_U+30E4_U+30FC 1
 62
   179
420
  2234388
370
     9
100
AcDb2dPolyline
 66
     1
 10
0.0
 20
0.0
 30
0.0
  0
VERTEX
  5
E2
330
E1
100
AcDbEntity
  8
_U+30EC_U+30A4_U+30E4_U+30FC 1
 62
   179
420
  2234388
370
     9
100
AcDbVertex
100
AcDb2dVertex
 10
57.42234443008883
 20
-96.4388963647792
 30
0.0
  0
VERTEX
  5
E3
330
E1
100
AcDbEntity
  8
_U+30EC_U+30A4_U+30E4_U+30FC 1
 62
   179
420
  2234388
370
     9
100
AcDbVertex
100
AcDb2dVertex
 10
58.38835434372231
 20
-96.17981636484387
 30
0.0
  0
SEQEND
  5
E4
330
E1
100
AcDbEntity
  8
_U+30EC_U+30A4_U+30E4_U+30FC 1
 62
   179
420
  2234388
370
     9
  0
POLYLINE
  5
E5
330
1F
100
AcDbEntity
  8
_U+30EC_U+30A4_U+30E4_U+30FC 1
 62
   179
420
  2234388
370
     9
100
AcDb2dPolyline
 66
     1
 10
0.0
 20
0.0
 30
0.0
  0
VERTEX
  5
E6
330
E5
100
AcDbEntity
  8
_U+30EC_U+30A4_U+30E4_U+30FC 1
 62
   179
420
  2234388
370
     9
100
AcDbVertex
100
AcDb2dVertex
 10
57.42234443008883
 20
-96.4388963647792
 30
0.0
  0
VERTEX
  5
E7
330
E5
100
AcDbEntity
  8
_U+30EC_U+30A4_U+30E4_U+30FC 1
 62
   179
420
  2234388
370
     9
100
AcDbVertex
100
AcDb2dVertex
 10
58.38835434372231
 20
-96.69727080915901
 30
0.0
  0
SEQEND
  5
E8
330
E5
100
AcDbEntity
  8
_U+30EC_U+30A4_U+30E4_U+30FC 1
 62
   179
420
  2234388
370
     9
  0
POLYLINE
  5
E9
330
1F
100
AcDbEntity
  8
_U+30EC_U+30A4_U+30E4_U+30FC 1
 62
   179
420
  2234388
370
     9
100
AcDb2dPolyline
 66
     1
 10
0.0
 20
0.0
 30
0.0
  0
VERTEX
  5
EA
330
E9
100
AcDbEntity
  8
_U+30EC_U+30A4_U+30E4_U+30FC 1
 62
   179
420
  2234388
370
     9
100
AcDbVertex
100
AcDb2dVertex
 10
124.4010123818213
 20
-165.0789744031745
 30
0.0
  0
VERTEX
  5
EB
330
E9
100
AcDbEntity
  8
_U+30EC_U+30A4_U+30E4_U+30FC 1
 62
   179
420
  2234388
370
     9
100
AcDbVertex
100
AcDb2dVertex
 10
124.6593868196741
 20
-164.1129630145275
 30
0.0
  0
SEQEND
  5
EC
330
E9
100
AcDbEntity
  8
_U+30EC_U+30A4_U+30E4_U+30FC 1
 62
   179
420
  2234388
370
     9
  0
POLYLINE
  5
ED
330
1F
100
AcDbEntity
  8
_U+30EC_U+30A4_U+30E4_U+30FC 1
 62
   179
420
  2234388
370
     9
100
AcDb2dPolyline
 66
     1
 10
0.0
 20
0.0
 30
0.0
  0
VERTEX
  5
EE
330
ED
100
AcDbEntity
  8
_U+30EC_U+30A4_U+30E4_U+30FC 1
 62
   179
420
  2234388
370
     9
100
AcDbVertex
100
AcDb2dVertex
 10
124.4010123818213
 20
-165.0789744031745
 30
0.0
  0
VERTEX
  5
EF
330
ED
100
AcDbEntity
  8
_U+30EC_U+30A4_U+30E4_U+30FC 1
 62
   179
420
  2234388
370
     9
100
AcDbVertex
100
AcDb2dVertex
 10
124.4010123818213
 20
-99.04684136412726
 30
0.0
  0
SEQEND
  5
F0
330
ED
100
AcDbEntity
  8
_U+30EC_U+30A4_U+30E4_U+30FC 1
 62
   179
420
  2234388
370
     9
  0
POLYLINE
  5
F1
330
1F
100
AcDbEntity
  8
_U+30EC_U+30A4_U+30E4_U+30FC 1
 62
   179
420
  2234388
370
     9
100
AcDb2dPolyline
 66
     1
 10
0.0
 20
0.0
 30
0.0
  0
VERTEX
  5
F2
330
F1
100
AcDbEntity
  8
_U+30EC_U+30A4_U+30E4_U+30FC 1
 62
   179
420
  2234388
370
     9
100
AcDbVertex
100
AcDb2dVertex
 10
124.4010123818213
 20
-165.0789744031745
 30
0.0
  0
VERTEX
  5
F3
330
F1
100
AcDbEntity
  8
_U+30EC_U+30A4_U+30E4_U+30FC 1
 62
   179
420
  2234388
370
     9
100
AcDbVertex
100
AcDb2dVertex
 10
124.1426379439686
 20
-164.1129630145275
 30
0.0
  0
SEQEND
  5
F4
330
F1
100
AcDbEntity
  8
_U+30EC_U+30A4_U+30E4_U+30FC 1
 62
   179
420
  2234388
370
     9
  0
INSERT
  5
F6
330
1F
100
AcDbEntity
  8
_U+30EC_U+30A4_U+30E4_U+30FC 1
100
AcDbBlockReference
  2
block 7
 10
0.0
 20
0.0
 30
0.0
  0
POLYLINE
  5
11D
330
1F
100
AcDbEntity
  8
_U+30EC_U+30A4_U+30E4_U+30FC 1
  6
AI-Linetype-2
 62
   154
420
    23468
370
    25
100
AcDb2dPolyline
 66
     1
 10
0.0
 20
0.0
 30
0.0
  0
VERTEX
  5
11E
330
11D
100
AcDbEntity
  8
_U+30EC_U+30A4_U+30E4_U+30FC 1
  6
AI-Linetype-2
 62
   154
420
    23468
370
    25
100
AcDbVertex
100
AcDb2dVertex
 10
56.91451938132298
 20
-88.05354497798653
 30
0.0
  0
VERTEX
  5
11F
330
11D
100
AcDbEntity
  8
_U+30EC_U+30A4_U+30E4_U+30FC 1
  6
AI-Linetype-2
 62
   154
420
    23468
370
    25
100
AcDbVertex
100
AcDb2dVertex
 10
56.91451938132298
 20
-103.0534796964589
 30
0.0
  0
SEQEND
  5
121
330
11D
100
AcDbEntity
  8
_U+30EC_U+30A4_U+30E4_U+30FC 1
  6
AI-Linetype-2
 62
   154
420
    23468
370
    25
  0
ENDSEC
  0
SECTION
  2
OBJECTS
  0
DICTIONARY
  5
C
330
0
100
AcDbDictionary
281
     1
  3
ACAD_GROUP
350
D
  3
ACAD_LAYOUT
350
1A
  3
ACAD_MATERIAL
350
3B
  3
ACAD_MLEADERSTYLE
350
123
  3
ACAD_MLINESTYLE
350
17
  3
ACAD_PLOTSETTINGS
350
19
  3
ACAD_PLOTSTYLENAME
350
E
  3
ACAD_TABLESTYLE
350
122
  3
ACAD_VISUALSTYLE
350
2A
  0
SUN
  5
3F
330
29
100
AcDbSun
 90
        1
290
     0
 63
     7
421
 16777215
 40
1.0
291
     1
 91
  2455826
 92
 54000000
292
     0
 70
     2
 71
   256
280
     1
  0
DICTIONARY
  5
D
102
{ACAD_REACTORS
330
C
102
}
330
C
100
AcDbDictionary
281
     1
  0
DICTIONARY
  5
1A
102
{ACAD_REACTORS
330
C
102
}
330
C
100
AcDbDictionary
281
     1
  3
Layout1
350
1E
  3
Layout2
350
26
  3
Model
350
22
  0
DICTIONARY
  5
3B
102
{ACAD_REACTORS
330
C
102
}
330
C
100
AcDbDictionary
281
     1
  3
ByBlock
350
3D
  3
ByLayer
350
3C
  3
Global
350
3E
  0
DICTIONARY
  5
123
102
{ACAD_REACTORS
330
C
102
}
330
C
100
AcDbDictionary
281
     1
  0
DICTIONARY
  5
17
102
{ACAD_REACTORS
330
C
102
}
330
C
100
AcDbDictionary
281
     1
  3
Standard
350
18
  0
DICTIONARY
  5
19
102
{ACAD_REACTORS
330
C
102
}
330
C
100
AcDbDictionary
281
     1
  0
ACDBDICTIONARYWDFLT
  5
E
102
{ACAD_REACTORS
330
C
102
}
330
C
100
AcDbDictionary
281
     1
  3
Normal
350
F
100
AcDbDictionaryWithDefault
340
F
  0
DICTIONARY
  5
122
102
{ACAD_REACTORS
330
C
102
}
330
C
100
AcDbDictionary
281
     1
  0
DICTIONARY
  5
2A
102
{ACAD_REACTORS
330
C
102
}
330
C
100
AcDbDictionary
281
     1
  3
2dWireframe
350
2F
  3
3D Hidden
350
31
  3
3dWireframe
350
30
  3
Basic
350
32
  3
Brighten
350
36
  3
ColorChange
350
3A
  3
Conceptual
350
34
  3
Dim
350
35
  3
Facepattern
350
39
  3
Flat
350
2B
  3
FlatWithEdges
350
2C
  3
Gouraud
350
2D
  3
GouraudWithEdges
350
2E
  3
Linepattern
350
38
  3
Realistic
350
33
  3
Thicken
350
37
  0
LAYOUT
  5
1E
102
{ACAD_REACTORS
330
1A
102
}
330
1A
100
AcDbPlotSettings
  1

  2
none_device
  4

  6

 40
0.0
 41
0.0
 42
0.0
 43
0.0
 44
0.0
 45
0.0
 46
0.0
 47
0.0
 48
0.0
 49
0.0
140
0.0
141
0.0
142
1.0
143
1.0
 70
   688
 72
     0
 73
     0
 74
     5
  7

 75
    16
 76
     0
 77
     2
 78
   300
147
1.0
148
0.0
149
0.0
100
AcDbLayout
  1
Layout1
 70
     1
 71
     1
 10
0.0
 20
0.0
 11
12.0
 21
9.0
 12
0.0
 22
0.0
 32
0.0
 14
1.000000000000000E+20
 24
1.000000000000000E+20
 34
1.000000000000000E+20
 15
-1.000000000000000E+20
 25
-1.000000000000000E+20
 35
-1.000000000000000E+20
146
0.0
 13
0.0
 23
0.0
 33
0.0
 16
1.0
 26
0.0
 36
0.0
 17
0.0
 27
1.0
 37
0.0
 76
     0
330
1B
  0
LAYOUT
  5
26
102
{ACAD_REACTORS
330
1A
102
}
330
1A
100
AcDbPlotSettings
  1

  2
none_device
  4

  6

 40
0.0
 41
0.0
 42
0.0
 43
0.0
 44
0.0
 45
0.0
 46
0.0
 47
0.0
 48
0.0
 49
0.0
140
0.0
141
0.0
142
1.0
143
1.0
 70
   688
 72
     0
 73
     0
 74
     5
  7

 75
    16
 76
     0
 77
     2
 78
   300
147
1.0
148
0.0
149
0.0
100
AcDbLayout
  1
Layout2
 70
     1
 71
     2
 10
0.0
 20
0.0
 11
0.0
 21
0.0
 12
0.0
 22
0.0
 32
0.0
 14
0.0
 24
0.0
 34
0.0
 15
0.0
 25
0.0
 35
0.0
146
0.0
 13
0.0
 23
0.0
 33
0.0
 16
1.0
 26
0.0
 36
0.0
 17
0.0
 27
1.0
 37
0.0
 76
     0
330
23
  0
LAYOUT
  5
22
102
{ACAD_REACTORS
330
1A
102
}
330
1A
100
AcDbPlotSettings
  1

  2
none_device
  4

  6

 40
0.0
 41
0.0
 42
0.0
 43
0.0
 44
0.0
 45
0.0
 46
0.0
 47
0.0
 48
0.0
 49
0.0
140
0.0
141
0.0
142
1.0
143
1.0
 70
  1712
 72
     0
 73
     0
 74
     0
  7

 75
     0
 76
     0
 77
     2
 78
   300
147
1.0
148
0.0
149
0.0
100
AcDbLayout
  1
Model
 70
     1
 71
     0
 10
0.0
 20
0.0
 11
12.0
 21
9.0
 12
0.0
 22
0.0
 32
0.0
 14
1.000000000000000E+20
 24
1.000000000000000E+20
 34
1.000000000000000E+20
 15
-1.000000000000000E+20
 25
-1.000000000000000E+20
 35
-1.000000000000000E+20
146
0.0
 13
0.0
 23
0.0
 33
0.0
 16
1.0
 26
0.0
 36
0.0
 17
0.0
 27
1.0
 37
0.0
 76
     0
330
1F
331
29
  0
MATERIAL
  5
3D
102
{ACAD_REACTORS
330
3B
102
}
330
3B
100
AcDbMaterial
  1
ByBlock
 72
     1
 94
      127
  0
MATERIAL
  5
3C
102
{ACAD_REACTORS
330
3B
102
}
330
3B
100
AcDbMaterial
  1
ByLayer
 72
     1
 94
      127
  0
MATERIAL
  5
3E
102
{ACAD_REACTORS
330
3B
102
}
330
3B
100
AcDbMaterial
  1
Global
 72
     1
 94
      127
  0
MLINESTYLE
  5
18
102
{ACAD_REACTORS
330
17
102
}
330
17
100
AcDbMlineStyle
  2
Standard
 70
     0
  3

 62
   256
 51
90.0
 52
90.0
 71
     2
 49
0.5
 62
   256
  6
BYLAYER
 49
-0.5
 62
   256
  6
BYLAYER
  0
ACDBPLACEHOLDER
  5
F
102
{ACAD_REACTORS
330
E
102
}
330
E
  0
VISUALSTYLE
  5
2F
102
{ACAD_REACTORS
330
2A
102
}
330
2A
100
AcDbVisualStyle
  2
2dWireframe
 70
     4
177
     2
291
     0
 71
     0
176
     1
 72
     2
176
     1
 73
     0
176
     1
 90
        0
176
     1
 40
-0.6
176
     1
 41
-30.0
176
     1
 62
     5
 63
     7
421
 16777215
176
     1
 74
     1
176
     1
 91
        4
176
     1
 64
     7
176
     1
 65
   257
176
     1
 75
     1
176
     1
175
     1
176
     1
 42
1.0
176
     1
 92
        0
176
     1
 66
   257
176
     1
 43
1.0
176
     1
 76
     1
176
     1
 77
     6
176
     1
 78
     2
176
     1
 67
     7
176
     1
 79
     5
176
     1
170
     0
176
     1
171
     0
176
     1
290
     0
176
     1
 93
        1
176
     1
 44
0.0
176
     1
173
     0
176
     1
  0
VISUALSTYLE
  5
31
102
{ACAD_REACTORS
330
2A
102
}
330
2A
100
AcDbVisualStyle
  2
3D Hidden
 70
     6
177
     2
291
     0
 71
     1
176
     1
 72
     2
176
     1
 73
     2
176
     1
 90
        0
176
     1
 40
-0.6
176
     1
 41
-30.0
176
     1
 62
     5
 63
     7
421
 16777215
176
     1
 74
     2
176
     1
 91
        2
176
     1
 64
     7
176
     1
 65
   257
176
     1
 75
     2
176
     1
175
     1
176
     1
 42
40.0
176
     1
 92
        0
176
     1
 66
   257
176
     1
 43
1.0
176
     1
 76
     1
176
     1
 77
     6
176
     1
 78
     2
176
     1
 67
     7
176
     1
 79
     3
176
     1
170
     0
176
     1
171
     0
176
     1
290
     0
176
     1
 93
        1
176
     1
 44
0.0
176
     1
173
     0
176
     1
  0
VISUALSTYLE
  5
30
102
{ACAD_REACTORS
330
2A
102
}
330
2A
100
AcDbVisualStyle
  2
3dWireframe
 70
     5
177
     2
291
     0
 71
     0
176
     1
 72
     2
176
     1
 73
     0
176
     1
 90
        0
176
     1
 40
-0.6
176
     1
 41
-30.0
176
     1
 62
     5
 63
     7
421
 16777215
176
     1
 74
     1
176
     1
 91
        4
176
     1
 64
     7
176
     1
 65
   257
176
     1
 75
     1
176
     1
175
     1
176
     1
 42
1.0
176
     1
 92
        0
176
     1
 66
   257
176
     1
 43
1.0
176
     1
 76
     1
176
     1
 77
     6
176
     1
 78
     2
176
     1
 67
     7
176
     1
 79
     5
176
     1
170
     0
176
     1
171
     0
176
     1
290
     0
176
     1
 93
        1
176
     1
 44
0.0
176
     1
173
     0
176
     1
  0
VISUALSTYLE
  5
32
102
{ACAD_REACTORS
330
2A
102
}
330
2A
100
AcDbVisualStyle
  2
Basic
 70
     7
177
     2
291
     1
 71
     1
176
     1
 72
     0
176
     1
 73
     1
176
     1
 90
        0
176
     1
 40
-0.6
176
     1
 41
-30.0
176
     1
 62
     5
 63
     7
421
 16777215
176
     1
 74
     0
176
     1
 91
        4
176
     1
 64
     7
176
     1
 65
   257
176
     1
 75
     1
176
     1
175
     1
176
     1
 42
1.0
176
     1
 92
        8
176
     1
 66
     7
176
     1
 43
1.0
176
     1
 76
     1
176
     1
 77
     6
176
     1
 78
     2
176
     1
 67
     7
176
     1
 79
     5
176
     1
170
     0
176
     1
171
     0
176
     1
290
     0
176
     1
 93
        1
176
     1
 44
0.0
176
     1
173
     0
176
     1
  0
VISUALSTYLE
  5
36
102
{ACAD_REACTORS
330
2A
102
}
330
2A
100
AcDbVisualStyle
  2
Brighten
 70
    12
177
     2
291
     1
 71
     2
176
     1
 72
     2
176
     1
 73
     0
176
     1
 90
        0
176
     1
 40
-0.6
176
     1
 41
-30.0
176
     1
 62
     5
 63
     7
421
 16777215
176
     1
 74
     1
176
     1
 91
        4
176
     1
 64
     7
176
     1
 65
   257
176
     1
 75
     1
176
     1
175
     1
176
     1
 42
1.0
176
     1
 92
        8
176
     1
 66
     7
176
     1
 43
1.0
176
     1
 76
     1
176
     1
 77
     6
176
     1
 78
     2
176
     1
 67
     7
176
     1
 79
     5
176
     1
170
     0
176
     1
171
     0
176
     1
290
     0
176
     1
 93
        1
176
     1
 44
50.0
176
     1
173
     0
176
     1
  0
VISUALSTYLE
  5
3A
102
{ACAD_REACTORS
330
2A
102
}
330
2A
100
AcDbVisualStyle
  2
ColorChange
 70
    16
177
     2
291
     1
 71
     2
176
     1
 72
     2
176
     1
 73
     3
176
     1
 90
        0
176
     1
 40
-0.6
176
     1
 41
-30.0
176
     1
 62
     5
 63
     8
421
  8421504
176
     1
 74
     1
176
     1
 91
        4
176
     1
 64
     7
176
     1
 65
   257
176
     1
 75
     1
176
     1
175
     1
176
     1
 42
1.0
176
     1
 92
        8
176
     1
 66
     8
424
  8421504
176
     1
 43
1.0
176
     1
 76
     1
176
     1
 77
     6
176
     1
 78
     2
176
     1
 67
     7
176
     1
 79
     5
176
     1
170
     0
176
     1
171
     0
176
     1
290
     0
176
     1
 93
        1
176
     1
 44
0.0
176
     1
173
     0
176
     1
  0
VISUALSTYLE
  5
34
102
{ACAD_REACTORS
330
2A
102
}
330
2A
100
AcDbVisualStyle
  2
Conceptual
 70
     9
177
     2
291
     0
 71
     3
176
     1
 72
     2
176
     1
 73
     0
176
     1
 90
        0
176
     1
 40
-0.6
176
     1
 41
-30.0
176
     1
 62
     5
 63
     7
421
 16777215
176
     1
 74
     2
176
     1
 91
        2
176
     1
 64
     7
176
     1
 65
   257
176
     1
 75
     1
176
     1
175
     1
176
     1
 42
40.0
176
     1
 92
        8
176
     1
 66
     7
176
     1
 43
1.0
176
     1
 76
     1
176
     1
 77
     6
176
     1
 78
     2
176
     1
 67
     7
176
     1
 79
     3
176
     1
170
     0
176
     1
171
     0
176
     1
290
     0
176
     1
 93
        1
176
     1
 44
0.0
176
     1
173
     0
176
     1
  0
VISUALSTYLE
  5
35
102
{ACAD_REACTORS
330
2A
102
}
330
2A
100
AcDbVisualStyle
  2
Dim
 70
    11
177
     2
291
     1
 71
     2
176
     1
 72
     2
176
     1
 73
     0
176
     1
 90
        0
176
     1
 40
-0.6
176
     1
 41
-30.0
176
     1
 62
     5
 63
     7
421
 16777215
176
     1
 74
     1
176
     1
 91
        4
176
     1
 64
     7
176
     1
 65
   257
176
     1
 75
     1
176
     1
175
     1
176
     1
 42
1.0
176
     1
 92
        8
176
     1
 66
     7
176
     1
 43
1.0
176
     1
 76
     1
176
     1
 77
     6
176
     1
 78
     2
176
     1
 67
     7
176
     1
 79
     5
176
     1
170
     0
176
     1
171
     0
176
     1
290
     0
176
     1
 93
        1
176
     1
 44
-50.0
176
     1
173
     0
176
     1
  0
VISUALSTYLE
  5
39
102
{ACAD_REACTORS
330
2A
102
}
330
2A
100
AcDbVisualStyle
  2
Facepattern
 70
    15
177
     2
291
     1
 71
     2
176
     1
 72
     2
176
     1
 73
     0
176
     1
 90
        0
176
     1
 40
-0.6
176
     1
 41
-30.0
176
     1
 62
     5
 63
     7
421
 16777215
176
     1
 74
     1
176
     1
 91
        4
176
     1
 64
     7
176
     1
 65
   257
176
     1
 75
     1
176
     1
175
     1
176
     1
 42
1.0
176
     1
 92
        8
176
     1
 66
     7
176
     1
 43
1.0
176
     1
 76
     1
176
     1
 77
     6
176
     1
 78
     2
176
     1
 67
     7
176
     1
 79
     5
176
     1
170
     0
176
     1
171
     0
176
     1
290
     0
176
     1
 93
        1
176
     1
 44
0.0
176
     1
173
     0
176
     1
  0
VISUALSTYLE
  5
2B
102
{ACAD_REACTORS
330
2A
102
}
330
2A
100
AcDbVisualStyle
  2
Flat
 70
     0
177
     2
291
     1
 71
     2
176
     1
 72
     1
176
     1
 73
     1
176
     1
 90
        2
176
     1
 40
-0.6
176
     1
 41
30.0
176
     1
 62
     5
 63
     7
421
 16777215
176
     1
 74
     0
176
     1
 91
        4
176
     1
 64
     7
176
     1
 65
   257
176
     1
 75
     1
176
     1
175
     1
176
     1
 42
1.0
176
     1
 92
        8
176
     1
 66
     7
176
     1
 43
1.0
176
     1
 76
     1
176
     1
 77
     6
176
     1
 78
     2
176
     1
 67
     7
176
     1
 79
     5
176
     1
170
     0
176
     1
171
     0
176
     1
290
     0
176
     1
 93
       13
176
     1
 44
0.0
176
     1
173
     0
176
     1
  0
VISUALSTYLE
  5
2C
102
{ACAD_REACTORS
330
2A
102
}
330
2A
100
AcDbVisualStyle
  2
FlatWithEdges
 70
     1
177
     2
291
     1
 71
     2
176
     1
 72
     1
176
     1
 73
     1
176
     1
 90
        2
176
     1
 40
-0.6
176
     1
 41
30.0
176
     1
 62
     5
 63
     7
421
 16777215
176
     1
 74
     1
176
     1
 91
        4
176
     1
 64
     7
176
     1
 65
   257
176
     1
 75
     1
176
     1
175
     1
176
     1
 42
1.0
176
     1
 92
        0
176
     1
 66
   257
176
     1
 43
1.0
176
     1
 76
     1
176
     1
 77
     6
176
     1
 78
     2
176
     1
 67
     7
176
     1
 79
     5
176
     1
170
     0
176
     1
171
     0
176
     1
290
     0
176
     1
 93
       13
176
     1
 44
0.0
176
     1
173
     0
176
     1
  0
VISUALSTYLE
  5
2D
102
{ACAD_REACTORS
330
2A
102
}
330
2A
100
AcDbVisualStyle
  2
Gouraud
 70
     2
177
     2
291
     1
 71
     2
176
     1
 72
     2
176
     1
 73
     1
176
     1
 90
        2
176
     1
 40
-0.6
176
     1
 41
30.0
176
     1
 62
     5
 63
     7
421
 16777215
176
     1
 74
     0
176
     1
 91
        4
176
     1
 64
     7
176
     1
 65
   257
176
     1
 75
     1
176
     1
175
     1
176
     1
 42
1.0
176
     1
 92
        0
176
     1
 66
     7
176
     1
 43
1.0
176
     1
 76
     1
176
     1
 77
     6
176
     1
 78
     2
176
     1
 67
     7
176
     1
 79
     5
176
     1
170
     0
176
     1
171
     0
176
     1
290
     0
176
     1
 93
       13
176
     1
 44
0.0
176
     1
173
     0
176
     1
  0
VISUALSTYLE
  5
2E
102
{ACAD_REACTORS
330
2A
102
}
330
2A
100
AcDbVisualStyle
  2
GouraudWithEdges
 70
     3
177
     2
291
     1
 71
     2
176
     1
 72
     2
176
     1
 73
     1
176
     1
 90
        2
176
     1
 40
-0.6
176
     1
 41
30.0
176
     1
 62
     5
 63
     7
421
 16777215
176
     1
 74
     1
176
     1
 91
        4
176
     1
 64
     7
176
     1
 65
   257
176
     1
 75
     1
176
     1
175
     1
176
     1
 42
1.0
176
     1
 92
        0
176
     1
 66
   257
176
     1
 43
1.0
176
     1
 76
     1
176
     1
 77
     6
176
     1
 78
     2
176
     1
 67
     7
176
     1
 79
     5
176
     1
170
     0
176
     1
171
     0
176
     1
290
     0
176
     1
 93
       13
176
     1
 44
0.0
176
     1
173
     0
176
     1
  0
VISUALSTYLE
  5
38
102
{ACAD_REACTORS
330
2A
102
}
330
2A
100
AcDbVisualStyle
  2
Linepattern
 70
    14
177
     2
291
     1
 71
     2
176
     1
 72
     2
176
     1
 73
     0
176
     1
 90
        0
176
     1
 40
-0.6
176
     1
 41
-30.0
176
     1
 62
     5
 63
     7
421
 16777215
176
     1
 74
     1
176
     1
 91
        4
176
     1
 64
     7
176
     1
 65
   257
176
     1
 75
     7
176
     1
175
     7
176
     1
 42
1.0
176
     1
 92
        8
176
     1
 66
     7
176
     1
 43
1.0
176
     1
 76
     1
176
     1
 77
     6
176
     1
 78
     2
176
     1
 67
     7
176
     1
 79
     5
176
     1
170
     0
176
     1
171
     0
176
     1
290
     0
176
     1
 93
        1
176
     1
 44
0.0
176
     1
173
     0
176
     1
  0
VISUALSTYLE
  5
33
102
{ACAD_REACTORS
330
2A
102
}
330
2A
100
AcDbVisualStyle
  2
Realistic
 70
     8
177
     2
291
     0
 71
     2
176
     1
 72
     2
176
     1
 73
     0
176
     1
 90
        0
176
     1
 40
-0.6
176
     1
 41
-30.0
176
     1
 62
     5
 63
     7
421
 16777215
176
     1
 74
     1
176
     1
 91
        0
176
     1
 64
     7
176
     1
 65
   257
176
     1
 75
     1
176
     1
175
     1
176
     1
 42
1.0
176
     1
 92
        8
176
     1
 66
     8
424
  7895160
176
     1
 43
1.0
176
     1
 76
     1
176
     1
 77
     6
176
     1
 78
     2
176
     1
 67
     7
176
     1
 79
     5
176
     1
170
     0
176
     1
171
     0
176
     1
290
     0
176
     1
 93
       13
176
     1
 44
0.0
176
     1
173
     0
176
     1
  0
VISUALSTYLE
  5
37
102
{ACAD_REACTORS
330
2A
102
}
330
2A
100
AcDbVisualStyle
  2
Thicken
 70
    13
177
     2
291
     1
 71
     2
176
     1
 72
     2
176
     1
 73
     0
176
     1
 90
        0
176
     1
 40
-0.6
176
     1
 41
-30.0
176
     1
 62
     5
 63
     7
421
 16777215
176
     1
 74
     1
176
     1
 91
        4
176
     1
 64
     7
176
     1
 65
   257
176
     1
 75
     1
176
     1
175
     1
176
     1
 42
1.0
176
     1
 92
       12
176
     1
 66
     7
176
     1
 43
1.0
176
     1
 76
     1
176
     1
 77
     6
176
     1
 78
     2
176
     1
 67
     7
176
     1
 79
     5
176
     1
170
     0
176
     1
171
     0
176
     1
290
     0
176
     1
 93
        1
176
     1
 44
0.0
176
     1
173
     0
176
     1
  0
ENDSEC
  0
EOF
