  0
SECTION
  2
HEADER
  9
$ACADVER
  1
AC1024
  9
$ACADMAINTVER
 70
     6
  9
$DWGCODEPAGE
  3
UNDEFINED
  9
$INSBASE
 10
0.0
 20
0.0
 30
0.0
  9
$EXTMIN
 10
1.000000000000000E+20
 20
1.000000000000000E+20
 30
1.000000000000000E+20
  9
$EXTMAX
 10
-1.000000000000000E+20
 20
-1.000000000000000E+20
 30
-1.000000000000000E+20
  9
$LIMMIN
 10
0.0
 20
0.0
  9
$LIMMAX
 10
12.0
 20
9.0
  9
$ORTHOMODE
 70
     0
  9
$REGENMODE
 70
     1
  9
$FILLMODE
 70
     1
  9
$QTEXTMODE
 70
     0
  9
$MIRRTEXT
 70
     1
  9
$LTSCALE
 40
1.0
  9
$ATTMODE
 70
     1
  9
$TEXTSIZE
 40
0.2
  9
$TRACEWID
 40
0.05
  9
$TEXTSTYLE
  7
Standard
  9
$CLAYER
  8
0
  9
$CELTYPE
  6
ByLayer
  9
$CECOLOR
 62
   256
  9
$CELTSCALE
 40
1.0
  9
$DISPSILH
 70
     0
  9
$DIMSCALE
 40
1.0
  9
$DIMASZ
 40
0.18
  9
$DIMEXO
 40
0.0625
  9
$DIMDLI
 40
0.38
  9
$DIMRND
 40
0.0
  9
$DIMDLE
 40
0.0
  9
$DIMEXE
 40
0.18
  9
$DIMTP
 40
0.0
  9
$DIMTM
 40
0.0
  9
$DIMTXT
 40
0.18
  9
$DIMCEN
 40
0.09
  9
$DIMTSZ
 40
0.0
  9
$DIMTOL
 70
     0
  9
$DIMLIM
 70
     0
  9
$DIMTIH
 70
     1
  9
$DIMTOH
 70
     1
  9
$DIMSE1
 70
     0
  9
$DIMSE2
 70
     0
  9
$DIMTAD
 70
     0
  9
$DIMZIN
 70
     0
  9
$DIMBLK
  1

  9
$DIMASO
 70
     1
  9
$DIMSHO
 70
     1
  9
$DIMPOST
  1

  9
$DIMAPOST
  1

  9
$DIMALT
 70
     0
  9
$DIMALTD
 70
     2
  9
$DIMALTF
 40
25.4
  9
$DIMLFAC
 40
1.0
  9
$DIMTOFL
 70
     0
  9
$DIMTVP
 40
0.0
  9
$DIMTIX
 70
     0
  9
$DIMSOXD
 70
     0
  9
$DIMSAH
 70
     0
  9
$DIMBLK1
  1

  9
$DIMBLK2
  1

  9
$DIMSTYLE
  2
Standard
  9
$DIMCLRD
 70
     0
  9
$DIMCLRE
 70
     0
  9
$DIMCLRT
 70
     0
  9
$DIMTFAC
 40
1.0
  9
$DIMGAP
 40
0.09
  9
$DIMJUST
 70
     0
  9
$DIMSD1
 70
     0
  9
$DIMSD2
 70
     0
  9
$DIMTOLJ
 70
     1
  9
$DIMTZIN
 70
     0
  9
$DIMALTZ
 70
     0
  9
$DIMALTTZ
 70
     0
  9
$DIMUPT
 70
     0
  9
$DIMDEC
 70
     4
  9
$DIMTDEC
 70
     4
  9
$DIMALTU
 70
     2
  9
$DIMALTTD
 70
     2
  9
$DIMTXSTY
  7
Standard
  9
$DIMAUNIT
 70
     0
  9
$DIMADEC
 70
     0
  9
$DIMALTRND
 40
0.0
  9
$DIMAZIN
 70
     0
  9
$DIMDSEP
 70
    46
  9
$DIMATFIT
 70
     3
  9
$DIMFRAC
 70
     0
  9
$DIMLDRBLK
  1

  9
$DIMLUNIT
 70
     2
  9
$DIMLWD
 70
    -2
  9
$DIMLWE
 70
    -2
  9
$DIMTMOVE
 70
     0
  9
$DIMFXL
 40
1.0
  9
$DIMFXLON
 70
     0
  9
$DIMJOGANG
 40
0.7853981633974483
  9
$DIMTFILL
 70
     0
  9
$DIMTFILLCLR
 70
     0
  9
$DIMARCSYM
 70
     0
  9
$DIMLTYPE
  6

  9
$DIMLTEX1
  6

  9
$DIMLTEX2
  6

  9
$DIMTXTDIRECTION
 70
     0
  9
$LUNITS
 70
     2
  9
$LUPREC
 70
     4
  9
$SKETCHINC
 40
0.1
  9
$FILLETRAD
 40
0.5
  9
$AUNITS
 70
     0
  9
$AUPREC
 70
     0
  9
$MENU
  1
.
  9
$ELEVATION
 40
0.0
  9
$PELEVATION
 40
0.0
  9
$THICKNESS
 40
0.0
  9
$LIMCHECK
 70
     0
  9
$CHAMFERA
 40
0.5
  9
$CHAMFERB
 40
0.5
  9
$CHAMFERC
 40
1.0
  9
$CHAMFERD
 40
0.0
  9
$SKPOLY
 70
     0
  9
$TDCREATE
 40
2457917.584050914
  9
$TDUCREATE
 40
2457917.209050926
  9
$TDUPDATE
 40
2457917.584050914
  9
$TDUUPDATE
 40
2457917.209050926
  9
$TDINDWG
 40
0.0000000116
  9
$TDUSRTIMER
 40
0.0000000116
  9
$USRTIMER
 70
     1
  9
$ANGBASE
 50
0.0
  9
$ANGDIR
 70
     0
  9
$PDMODE
 70
     0
  9
$PDSIZE
 40
0.0
  9
$PLINEWID
 40
0.0
  9
$SPLFRAME
 70
     0
  9
$SPLINETYPE
 70
     6
  9
$SPLINESEGS
 70
     8
  9
$HANDSEED
  5
DA
  9
$SURFTAB1
 70
     6
  9
$SURFTAB2
 70
     6
  9
$SURFTYPE
 70
     6
  9
$SURFU
 70
     6
  9
$SURFV
 70
     6
  9
$UCSBASE
  2

  9
$UCSNAME
  2

  9
$UCSORG
 10
0.0
 20
0.0
 30
0.0
  9
$UCSXDIR
 10
1.0
 20
0.0
 30
0.0
  9
$UCSYDIR
 10
0.0
 20
1.0
 30
0.0
  9
$UCSORTHOREF
  2

  9
$UCSORTHOVIEW
 70
     0
  9
$UCSORGTOP
 10
0.0
 20
0.0
 30
0.0
  9
$UCSORGBOTTOM
 10
0.0
 20
0.0
 30
0.0
  9
$UCSORGLEFT
 10
0.0
 20
0.0
 30
0.0
  9
$UCSORGRIGHT
 10
0.0
 20
0.0
 30
0.0
  9
$UCSORGFRONT
 10
0.0
 20
0.0
 30
0.0
  9
$UCSORGBACK
 10
0.0
 20
0.0
 30
0.0
  9
$PUCSBASE
  2

  9
$PUCSNAME
  2

  9
$PUCSORG
 10
0.0
 20
0.0
 30
0.0
  9
$PUCSXDIR
 10
1.0
 20
0.0
 30
0.0
  9
$PUCSYDIR
 10
0.0
 20
1.0
 30
0.0
  9
$PUCSORTHOREF
  2

  9
$PUCSORTHOVIEW
 70
     0
  9
$PUCSORGTOP
 10
0.0
 20
0.0
 30
0.0
  9
$PUCSORGBOTTOM
 10
0.0
 20
0.0
 30
0.0
  9
$PUCSORGLEFT
 10
0.0
 20
0.0
 30
0.0
  9
$PUCSORGRIGHT
 10
0.0
 20
0.0
 30
0.0
  9
$PUCSORGFRONT
 10
0.0
 20
0.0
 30
0.0
  9
$PUCSORGBACK
 10
0.0
 20
0.0
 30
0.0
  9
$USERI1
 70
     0
  9
$USERI2
 70
     0
  9
$USERI3
 70
     0
  9
$USERI4
 70
     0
  9
$USERI5
 70
     0
  9
$USERR1
 40
0.0
  9
$USERR2
 40
0.0
  9
$USERR3
 40
0.0
  9
$USERR4
 40
0.0
  9
$USERR5
 40
0.0
  9
$WORLDVIEW
 70
     1
  9
$SHADEDGE
 70
     3
  9
$SHADEDIF
 70
    70
  9
$TILEMODE
 70
     1
  9
$MAXACTVP
 70
    64
  9
$PINSBASE
 10
0.0
 20
0.0
 30
0.0
  9
$PLIMCHECK
 70
     0
  9
$PEXTMIN
 10
1.000000000000000E+20
 20
1.000000000000000E+20
 30
1.000000000000000E+20
  9
$PEXTMAX
 10
-1.000000000000000E+20
 20
-1.000000000000000E+20
 30
-1.000000000000000E+20
  9
$PLIMMIN
 10
0.0
 20
0.0
  9
$PLIMMAX
 10
12.0
 20
9.0
  9
$UNITMODE
 70
     0
  9
$VISRETAIN
 70
     1
  9
$PLINEGEN
 70
     0
  9
$PSLTSCALE
 70
     1
  9
$TREEDEPTH
 70
  3020
  9
$CMLSTYLE
  2
Standard
  9
$CMLJUST
 70
     0
  9
$CMLSCALE
 40
1.0
  9
$PROXYGRAPHICS
 70
     1
  9
$MEASUREMENT
 70
     0
  9
$CELWEIGHT
370
    -1
  9
$ENDCAPS
280
     0
  9
$JOINSTYLE
280
     0
  9
$LWDISPLAY
290
     1
  9
$INSUNITS
 70
     1
  9
$HYPERLINKBASE
  1

  9
$STYLESHEET
  1

  9
$XEDIT
290
     1
  9
$CEPSNTYPE
380
     0
  9
$PSTYLEMODE
290
     1
  9
$FINGERPRINTGUID
  2
{BF22DB9E-B221-0955-4018-88916AA0D751}
  9
$VERSIONGUID
  2
{FAEB1C32-E019-11D5-929B-00C0DF256EC4}
  9
$EXTNAMES
290
     1
  9
$PSVPSCALE
 40
0.0
  9
$OLESTARTUP
290
     0
  9
$SORTENTS
280
   127
  9
$INDEXCTL
280
     0
  9
$HIDETEXT
280
     1
  9
$XCLIPFRAME
280
     2
  9
$HALOGAP
280
     0
  9
$OBSCOLOR
 70
   257
  9
$OBSLTYPE
280
     0
  9
$INTERSECTIONDISPLAY
280
     0
  9
$INTERSECTIONCOLOR
 70
   257
  9
$DIMASSOC
280
     2
  9
$PROJECTNAME
  1

  9
$CAMERADISPLAY
290
     0
  9
$LENSLENGTH
 40
50.0
  9
$CAMERAHEIGHT
 40
0.0
  9
$STEPSPERSEC
 40
2.0
  9
$STEPSIZE
 40
6.0
  9
$3DDWFPREC
 40
2.0
  9
$PSOLWIDTH
 40
0.25
  9
$PSOLHEIGHT
 40
4.0
  9
$LOFTANG1
 40
1.570796326794897
  9
$LOFTANG2
 40
1.570796326794897
  9
$LOFTMAG1
 40
0.0
  9
$LOFTMAG2
 40
0.0
  9
$LOFTPARAM
 70
     7
  9
$LOFTNORMALS
280
     1
  9
$LATITUDE
 40
37.795
  9
$LONGITUDE
 40
-122.394
  9
$NORTHDIRECTION
 40
0.0
  9
$TIMEZONE
 70
 -8000
  9
$LIGHTGLYPHDISPLAY
280
     1
  9
$TILEMODELIGHTSYNCH
280
     1
  9
$CMATERIAL
347
3C
  9
$SOLIDHIST
280
     1
  9
$SHOWHIST
280
     1
  9
$DWFFRAME
280
     2
  9
$DGNFRAME
280
     2
  9
$REALWORLDSCALE
290
     1
  9
$INTERFERECOLOR
 62
   256
  9
$CSHADOW
280
     0
  9
$SHADOWPLANELOCATION
 40
0.0
  0
ENDSEC
  0
SECTION
  2
CLASSES
  0
CLASS
  1
ACDBDICTIONARYWDFLT
  2
AcDbDictionaryWithDefault
  3
ObjectDBX Classes
 90
        0
 91
        4
280
     0
281
     0
  0
CLASS
  1
VISUALSTYLE
  2
AcDbVisualStyle
  3
ObjectDBX Classes
 90
     4095
 91
        4
280
     0
281
     0
  0
CLASS
  1
MATERIAL
  2
AcDbMaterial
  3
ObjectDBX Classes
 90
     1153
 91
        4
280
     0
281
     0
  0
CLASS
  1
SUN
  2
AcDbSun
  3
SCENEOE
 90
     1024
 91
        4
280
     0
281
     0
  0
ENDSEC
  0
SECTION
  2
TABLES
  0
TABLE
  2
VPORT
  5
8
330
0
100
AcDbSymbolTable
 70
     1
  0
VPORT
  5
29
330
8
100
AcDbSymbolTableRecord
100
AcDbViewportTableRecord
  2
*Active
 70
     0
 10
0.0
 20
0.0
 11
1.0
 21
1.0
 12
0.0
 22
0.0
 13
0.0
 23
0.0
 14
0.5
 24
0.5
 15
0.5
 25
0.5
 16
0.0
 26
0.0
 36
1.0
 17
91.00082462281999
 27
-128.4993055234307
 37
0.0
 40
256.9986110468615
 41
0.7081814508812795
 42
50.0
 43
0.0
 44
0.0
 50
0.0
 51
0.0
 71
     0
 72
   100
 73
     1
 74
     3
 75
     0
 76
     0
 77
     0
 78
     0
281
     0
 65
     1
110
0.0
120
0.0
130
0.0
111
1.0
121
0.0
131
0.0
112
0.0
122
1.0
132
0.0
 79
     0
146
0.0
 60
     3
 61
     5
292
     1
282
     1
141
0.0
142
0.0
 63
   250
361
3F
  0
ENDTAB
  0
TABLE
  2
LTYPE
  5
5
330
0
100
AcDbSymbolTable
 70
     1
  0
LTYPE
  5
14
330
5
100
AcDbSymbolTableRecord
100
AcDbLinetypeTableRecord
  2
ByBlock
 70
     0
  3

 72
    65
 73
     0
 40
0.0
  0
LTYPE
  5
15
330
5
100
AcDbSymbolTableRecord
100
AcDbLinetypeTableRecord
  2
ByLayer
 70
     0
  3

 72
    65
 73
     0
 40
0.0
  0
LTYPE
  5
16
330
5
100
AcDbSymbolTableRecord
100
AcDbLinetypeTableRecord
  2
Continuous
 70
     0
  3
Solid line
 72
    65
 73
     0
 40
0.0
  0
ENDTAB
  0
TABLE
  2
LAYER
  5
2
330
0
100
AcDbSymbolTable
 70
     2
  0
LAYER
  5
10
330
2
100
AcDbSymbolTableRecord
100
AcDbLayerTableRecord
  2
0
 70
     0
 62
     7
  6
Continuous
370
    -3
390
F
347
3E
  0
LAYER
  5
40
330
2
100
AcDbSymbolTableRecord
100
AcDbLayerTableRecord
  2
_U+30EC_U+30A4_U+30E4_U+30FC 1
 70
     0
 62
     7
  6
Continuous
370
    -3
390
F
347
3E
  0
ENDTAB
  0
TABLE
  2
STYLE
  5
3
330
0
100
AcDbSymbolTable
 70
     1
  0
STYLE
  5
11
330
3
100
AcDbSymbolTableRecord
100
AcDbTextStyleTableRecord
  2
Standard
 70
     0
 40
0.0
 41
1.0
 50
0.0
 71
     0
 42
0.2
  3
txt
  4

  0
ENDTAB
  0
TABLE
  2
VIEW
  5
6
330
0
100
AcDbSymbolTable
 70
     0
  0
ENDTAB
  0
TABLE
  2
UCS
  5
7
330
0
100
AcDbSymbolTable
 70
     0
  0
ENDTAB
  0
TABLE
  2
APPID
  5
9
330
0
100
AcDbSymbolTable
 70
     1
  0
APPID
  5
12
330
9
100
AcDbSymbolTableRecord
100
AcDbRegAppTableRecord
  2
ACAD
 70
     0
  0
ENDTAB
  0
TABLE
  2
DIMSTYLE
  5
A
330
0
100
AcDbSymbolTable
 70
     1
100
AcDbDimStyleTable
  0
DIMSTYLE
105
27
330
A
100
AcDbSymbolTableRecord
100
AcDbDimStyleTableRecord
  2
Standard
 70
     0
178
     0
340
11
  0
ENDTAB
  0
TABLE
  2
BLOCK_RECORD
  5
1
330
0
100
AcDbSymbolTable
 70
     6
  0
BLOCK_RECORD
  5
1F
330
1
100
AcDbSymbolTableRecord
100
AcDbBlockTableRecord
  2
*Model_Space
340
22
 70
     0
280
     1
281
     0
  0
BLOCK_RECORD
  5
1B
330
1
100
AcDbSymbolTableRecord
100
AcDbBlockTableRecord
  2
*Paper_Space
340
1E
 70
     0
280
     1
281
     0
  0
BLOCK_RECORD
  5
23
330
1
100
AcDbSymbolTableRecord
100
AcDbBlockTableRecord
  2
*Paper_Space0
340
26
 70
     0
280
     1
281
     0
  0
BLOCK_RECORD
  5
58
330
1
100
AcDbSymbolTableRecord
100
AcDbBlockTableRecord
  2
block 2
340
0
102
{BLKREFS
331
59
102
}
 70
     0
280
     1
281
     0
  0
BLOCK_RECORD
  5
75
330
1
100
AcDbSymbolTableRecord
100
AcDbBlockTableRecord
  2
block 3
340
0
102
{BLKREFS
331
76
102
}
 70
     0
280
     1
281
     0
  0
BLOCK_RECORD
  5
98
330
1
100
AcDbSymbolTableRecord
100
AcDbBlockTableRecord
  2
block 4
340
0
102
{BLKREFS
331
99
102
}
 70
     0
280
     1
281
     0
  0
BLOCK_RECORD
  5
B6
330
1
100
AcDbSymbolTableRecord
100
AcDbBlockTableRecord
  2
block 5
340
0
102
{BLKREFS
331
B7
102
}
 70
     0
280
     1
281
     0
  0
BLOCK_RECORD
  5
CD
330
1
100
AcDbSymbolTableRecord
100
AcDbBlockTableRecord
  2
block 6
340
0
102
{BLKREFS
331
CE
102
}
 70
     0
280
     1
281
     0
  0
ENDTAB
  0
ENDSEC
  0
SECTION
  2
BLOCKS
  0
BLOCK
  5
20
330
1F
100
AcDbEntity
  8
0
100
AcDbBlockBegin
  2
*Model_Space
 70
     0
 10
0.0
 20
0.0
 30
0.0
  3
*Model_Space
  1

  0
ENDBLK
  5
21
330
1F
100
AcDbEntity
  8
0
100
AcDbBlockEnd
  0
BLOCK
  5
1C
330
1B
100
AcDbEntity
 67
     1
  8
0
100
AcDbBlockBegin
  2
*Paper_Space
 70
     0
 10
0.0
 20
0.0
 30
0.0
  3
*Paper_Space
  1

  0
ENDBLK
  5
1D
330
1B
100
AcDbEntity
 67
     1
  8
0
100
AcDbBlockEnd
  0
BLOCK
  5
24
330
23
100
AcDbEntity
  8
0
100
AcDbBlockBegin
  2
*Paper_Space0
 70
     0
 10
0.0
 20
0.0
 30
0.0
  3
*Paper_Space0
  1

  0
ENDBLK
  5
25
330
23
100
AcDbEntity
  8
0
100
AcDbBlockEnd
  0
BLOCK
  5
5A
330
58
100
AcDbEntity
  8
0
100
AcDbBlockBegin
  2
block 2
 70
     0
 10
0.0
 20
0.0
 30
0.0
  3
block 2
  1

  0
SPLINE
  5
5C
330
58
100
AcDbEntity
  8
_U+30EC_U+30A4_U+30E4_U+30FC 1
370
     0
100
AcDbSpline
210
0.0
220
0.0
230
1.0
 70
    11
 71
     3
 72
    53
 73
    49
 74
     0
 42
0.0000000001
 43
0.0000000001
 12
1.0
 22
0.0
 32
0.0
 13
1.0
 23
0.0
 33
0.0
 40
0.0
 40
0.0
 40
0.0
 40
0.0
 40
1.0
 40
1.0
 40
1.0
 40
2.0
 40
2.0
 40
2.0
 40
3.0
 40
3.0
 40
3.0
 40
4.0
 40
4.0
 40
4.0
 40
5.0
 40
5.0
 40
5.0
 40
6.0
 40
6.0
 40
6.0
 40
7.0
 40
7.0
 40
7.0
 40
8.0
 40
8.0
 40
8.0
 40
9.0
 40
9.0
 40
9.0
 40
10.0
 40
10.0
 40
10.0
 40
11.0
 40
11.0
 40
11.0
 40
12.0
 40
12.0
 40
12.0
 40
13.0
 40
13.0
 40
13.0
 40
14.0
 40
14.0
 40
14.0
 40
15.0
 40
15.0
 40
15.0
 40
16.0
 40
16.0
 40
16.0
 40
16.0
 10
44.50684406439412
 20
-172.1066351566261
 30
0.0
 10
44.42846814210469
 20
-172.1066351566261
 30
0.0
 10
44.32701008006408
 20
-172.0897541887484
 30
0.0
 10
44.22537976324922
 20
-172.0263644318198
 30
0.0
 10
44.05191920556688
 20
-171.9164658858403
 30
0.0
 10
44.03073186833259
 20
-171.7852077478523
 30
0.0
 10
44.01178384316372
 20
-171.677376259164
 30
0.0
 10
44.01178384316372
 20
-171.677376259164
 30
0.0
 10
44.23382024718808
 20
-171.677376259164
 30
0.0
 10
44.23382024718808
 20
-171.677376259164
 30
0.0
 10
44.28894177495207
 20
-171.8761582686629
 30
0.0
 10
44.41589354358353
 20
-171.9057860898361
 30
0.0
 10
44.50891112168527
 20
-171.9057860898361
 30
0.0
 10
44.64860974361216
 20
-171.9057860898361
 30
0.0
 10
44.8008829640602
 20
-171.8062228303124
 30
0.0
 10
44.8008829640602
 20
-171.573678885058
 30
0.0
 10
44.8008829640602
 20
-171.3177082905039
 30
0.0
 10
44.62104897973015
 20
-171.2477728521533
 30
0.0
 10
44.50047063774641
 20
-171.2477728521533
 30
0.0
 10
44.46877575928212
 20
-171.2477728521533
 30
0.0
 10
44.32701008006408
 20
-171.2477728521533
 30
0.0
 10
44.23812661654464
 20
-171.3769639328502
 30
0.0
 10
44.23812661654464
 20
-171.3769639328502
 30
0.0
 10
44.06259900157116
 20
-171.3580159076813
 30
0.0
 10
44.06259900157116
 20
-171.3580159076813
 30
0.0
 10
44.06259900157116
 20
-171.3580159076813
 30
0.0
 10
44.1831773435549
 20
-170.5115559469554
 30
0.0
 10
44.1831773435549
 20
-170.5115559469554
 30
0.0
 10
44.1831773435549
 20
-170.5115559469554
 30
0.0
 10
44.9615966684471
 20
-170.5115559469554
 30
0.0
 10
44.9615966684471
 20
-170.5115559469554
 30
0.0
 10
44.9615966684471
 20
-170.5115559469554
 30
0.0
 10
44.9615966684471
 20
-170.7062038418721
 30
0.0
 10
44.9615966684471
 20
-170.7062038418721
 30
0.0
 10
44.9615966684471
 20
-170.7062038418721
 30
0.0
 10
44.34595810523296
 20
-170.7062038418721
 30
0.0
 10
44.34595810523296
 20
-170.7062038418721
 30
0.0
 10
44.34595810523296
 20
-170.7062038418721
 30
0.0
 10
44.28050129101321
 20
-171.1292615674608
 30
0.0
 10
44.28050129101321
 20
-171.1292615674608
 30
0.0
 10
44.34182399065066
 20
-171.0954996317053
 30
0.0
 10
44.42433402752239
 20
-171.0551920145279
 30
0.0
 10
44.54267305744072
 20
-171.0551920145279
 30
0.0
 10
44.79657659470364
 20
-171.0551920145279
 30
0.0
 10
45.03359916408883
 20
-171.2415716802799
 30
0.0
 10
45.03359916408883
 20
-171.5547308598891
 30
0.0
 10
45.03359916408883
 20
-171.8720241540806
 30
0.0
 10
44.80932344799906
 20
-172.1066351566261
 30
0.0
 10
44.50684406439412
 20
-172.1066351566261
 30
0.0
  0
HATCH
  5
5D
330
58
100
AcDbEntity
  8
_U+30EC_U+30A4_U+30E4_U+30FC 1
 62
   179
420
  2234388
100
AcDbHatch
 10
0.0
 20
0.0
 30
0.0
210
0.0
220
0.0
230
1.0
  2
SOLID
 70
     1
 71
     0
 91
        1
 92
        1
 93
        1
 72
     4
 94
        3
 73
     0
 74
     1
 95
       53
 96
       49
 40
0.0
 40
0.0
 40
0.0
 40
0.0
 40
1.0
 40
1.0
 40
1.0
 40
2.0
 40
2.0
 40
2.0
 40
3.0
 40
3.0
 40
3.0
 40
4.0
 40
4.0
 40
4.0
 40
5.0
 40
5.0
 40
5.0
 40
6.0
 40
6.0
 40
6.0
 40
7.0
 40
7.0
 40
7.0
 40
8.0
 40
8.0
 40
8.0
 40
9.0
 40
9.0
 40
9.0
 40
10.0
 40
10.0
 40
10.0
 40
11.0
 40
11.0
 40
11.0
 40
12.0
 40
12.0
 40
12.0
 40
13.0
 40
13.0
 40
13.0
 40
14.0
 40
14.0
 40
14.0
 40
15.0
 40
15.0
 40
15.0
 40
16.0
 40
16.0
 40
16.0
 40
16.0
 10
44.50684406439412
 20
-172.1066351566261
 10
44.42846814210469
 20
-172.1066351566261
 10
44.32701008006408
 20
-172.0897541887484
 10
44.22537976324922
 20
-172.0263644318198
 10
44.05191920556688
 20
-171.9164658858403
 10
44.03073186833259
 20
-171.7852077478523
 10
44.01178384316372
 20
-171.677376259164
 10
44.01178384316372
 20
-171.677376259164
 10
44.23382024718808
 20
-171.677376259164
 10
44.23382024718808
 20
-171.677376259164
 10
44.28894177495207
 20
-171.8761582686629
 10
44.41589354358353
 20
-171.9057860898361
 10
44.50891112168527
 20
-171.9057860898361
 10
44.64860974361216
 20
-171.9057860898361
 10
44.8008829640602
 20
-171.8062228303124
 10
44.8008829640602
 20
-171.573678885058
 10
44.8008829640602
 20
-171.3177082905039
 10
44.62104897973015
 20
-171.2477728521533
 10
44.50047063774641
 20
-171.2477728521533
 10
44.46877575928212
 20
-171.2477728521533
 10
44.32701008006408
 20
-171.2477728521533
 10
44.23812661654464
 20
-171.3769639328502
 10
44.23812661654464
 20
-171.3769639328502
 10
44.06259900157116
 20
-171.3580159076813
 10
44.06259900157116
 20
-171.3580159076813
 10
44.06259900157116
 20
-171.3580159076813
 10
44.1831773435549
 20
-170.5115559469554
 10
44.1831773435549
 20
-170.5115559469554
 10
44.1831773435549
 20
-170.5115559469554
 10
44.9615966684471
 20
-170.5115559469554
 10
44.9615966684471
 20
-170.5115559469554
 10
44.9615966684471
 20
-170.5115559469554
 10
44.9615966684471
 20
-170.7062038418721
 10
44.9615966684471
 20
-170.7062038418721
 10
44.9615966684471
 20
-170.7062038418721
 10
44.34595810523296
 20
-170.7062038418721
 10
44.34595810523296
 20
-170.7062038418721
 10
44.34595810523296
 20
-170.7062038418721
 10
44.28050129101321
 20
-171.1292615674608
 10
44.28050129101321
 20
-171.1292615674608
 10
44.34182399065066
 20
-171.0954996317053
 10
44.42433402752239
 20
-171.0551920145279
 10
44.54267305744072
 20
-171.0551920145279
 10
44.79657659470364
 20
-171.0551920145279
 10
45.03359916408883
 20
-171.2415716802799
 10
45.03359916408883
 20
-171.5547308598891
 10
45.03359916408883
 20
-171.8720241540806
 10
44.80932344799906
 20
-172.1066351566261
 10
44.50684406439412
 20
-172.1066351566261
 97
        0
 97
        0
 75
     2
 76
     1
 98
        0
  0
SPLINE
  5
5E
330
58
100
AcDbEntity
  8
_U+30EC_U+30A4_U+30E4_U+30FC 1
370
     0
100
AcDbSpline
210
0.0
220
0.0
230
1.0
 70
    11
 71
     3
 72
    29
 73
    25
 74
     0
 42
0.0000000001
 43
0.0000000001
 12
1.0
 22
0.0
 32
0.0
 13
1.0
 23
0.0
 33
0.0
 40
0.0
 40
0.0
 40
0.0
 40
0.0
 40
1.0
 40
1.0
 40
1.0
 40
2.0
 40
2.0
 40
2.0
 40
3.0
 40
3.0
 40
3.0
 40
4.0
 40
4.0
 40
4.0
 40
5.0
 40
5.0
 40
5.0
 40
6.0
 40
6.0
 40
6.0
 40
7.0
 40
7.0
 40
7.0
 40
8.0
 40
8.0
 40
8.0
 40
8.0
 10
46.10037298109643
 20
-171.8782253259541
 30
0.0
 10
45.99254149240812
 20
-172.0876871314572
 30
0.0
 10
45.81908093472579
 20
-172.1066351566261
 30
0.0
 10
45.70263670732434
 20
-172.1066351566261
 30
0.0
 10
45.54192300293744
 20
-172.1066351566261
 30
0.0
 10
45.40015732371941
 20
-172.0601263675753
 30
0.0
 10
45.30490043355225
 20
-171.8782253259541
 30
0.0
 10
45.20137531422049
 20
-171.6835774310374
 30
0.0
 10
45.18225503427735
 20
-171.4465548616523
 30
0.0
 10
45.18225503427735
 20
-171.2839463547485
 30
0.0
 10
45.18225503427735
 20
-171.139941363465
 30
0.0
 10
45.19913600215508
 20
-170.8881048834933
 30
0.0
 10
45.30490043355225
 20
-170.6893228739943
 30
0.0
 10
45.41290417701483
 20
-170.4864067499131
 30
0.0
 10
45.57361788140174
 20
-170.4629801006134
 30
0.0
 10
45.70263670732434
 20
-170.4629801006134
 30
0.0
 10
45.8612833544201
 20
-170.4629801006134
 30
0.0
 10
46.00511609092928
 20
-170.5074218323732
 30
0.0
 10
46.10037298109643
 20
-170.6893228739943
 30
0.0
 10
46.19976398584589
 20
-170.8819037116198
 30
0.0
 10
46.22301838037133
 20
-171.1103135422919
 30
0.0
 10
46.22301838037133
 20
-171.2839463547485
 30
0.0
 10
46.22301838037133
 20
-171.4551676003654
 30
0.0
 10
46.2020032979113
 20
-171.6856444883286
 30
0.0
 10
46.10037298109643
 20
-171.8782253259541
 30
0.0
  0
SPLINE
  5
5F
330
58
100
AcDbEntity
  8
_U+30EC_U+30A4_U+30E4_U+30FC 1
370
     0
100
AcDbSpline
210
0.0
220
0.0
230
1.0
 70
    11
 71
     3
 72
    17
 73
    13
 74
     0
 42
0.0000000001
 43
0.0000000001
 12
1.0
 22
0.0
 32
0.0
 13
1.0
 23
0.0
 33
0.0
 40
0.0
 40
0.0
 40
0.0
 40
0.0
 40
1.0
 40
1.0
 40
1.0
 40
2.0
 40
2.0
 40
2.0
 40
3.0
 40
3.0
 40
3.0
 40
4.0
 40
4.0
 40
4.0
 40
4.0
 10
45.70263670732434
 20
-170.6555609382389
 30
0.0
 10
45.45303953941799
 20
-170.6555609382389
 30
0.0
 10
45.40653075036712
 20
-170.9390922966749
 30
0.0
 10
45.40653075036712
 20
-171.2839463547485
 30
0.0
 10
45.40653075036712
 20
-171.6033067062311
 30
0.0
 10
45.44253199818798
 20
-171.9119872617095
 30
0.0
 10
45.70263670732434
 20
-171.9119872617095
 30
0.0
 10
45.95016681793955
 20
-171.9119872617095
 30
0.0
 10
45.99891491905583
 20
-171.6308674701131
 30
0.0
 10
45.99891491905583
 20
-171.2839463547485
 30
0.0
 10
45.99891491905583
 20
-170.9642414937173
 30
0.0
 10
45.96084661394381
 20
-170.6555609382389
 30
0.0
 10
45.70263670732434
 20
-170.6555609382389
 30
0.0
  0
HATCH
  5
60
330
58
100
AcDbEntity
  8
_U+30EC_U+30A4_U+30E4_U+30FC 1
 62
   179
420
  2234388
100
AcDbHatch
 10
0.0
 20
0.0
 30
0.0
210
0.0
220
0.0
230
1.0
  2
SOLID
 70
     1
 71
     0
 91
        2
 92
        1
 93
        1
 72
     4
 94
        3
 73
     0
 74
     1
 95
       29
 96
       25
 40
0.0
 40
0.0
 40
0.0
 40
0.0
 40
1.0
 40
1.0
 40
1.0
 40
2.0
 40
2.0
 40
2.0
 40
3.0
 40
3.0
 40
3.0
 40
4.0
 40
4.0
 40
4.0
 40
5.0
 40
5.0
 40
5.0
 40
6.0
 40
6.0
 40
6.0
 40
7.0
 40
7.0
 40
7.0
 40
8.0
 40
8.0
 40
8.0
 40
8.0
 10
46.10037298109643
 20
-171.8782253259541
 10
45.99254149240812
 20
-172.0876871314572
 10
45.81908093472579
 20
-172.1066351566261
 10
45.70263670732434
 20
-172.1066351566261
 10
45.54192300293744
 20
-172.1066351566261
 10
45.40015732371941
 20
-172.0601263675753
 10
45.30490043355225
 20
-171.8782253259541
 10
45.20137531422049
 20
-171.6835774310374
 10
45.18225503427735
 20
-171.4465548616523
 10
45.18225503427735
 20
-171.2839463547485
 10
45.18225503427735
 20
-171.139941363465
 10
45.19913600215508
 20
-170.8881048834933
 10
45.30490043355225
 20
-170.6893228739943
 10
45.41290417701483
 20
-170.4864067499131
 10
45.57361788140174
 20
-170.4629801006134
 10
45.70263670732434
 20
-170.4629801006134
 10
45.8612833544201
 20
-170.4629801006134
 10
46.00511609092928
 20
-170.5074218323732
 10
46.10037298109643
 20
-170.6893228739943
 10
46.19976398584589
 20
-170.8819037116198
 10
46.22301838037133
 20
-171.1103135422919
 10
46.22301838037133
 20
-171.2839463547485
 10
46.22301838037133
 20
-171.4551676003654
 10
46.2020032979113
 20
-171.6856444883286
 10
46.10037298109643
 20
-171.8782253259541
 97
        0
 97
        0
 92
        1
 93
        1
 72
     4
 94
        3
 73
     0
 74
     1
 95
       17
 96
       13
 40
0.0
 40
0.0
 40
0.0
 40
0.0
 40
1.0
 40
1.0
 40
1.0
 40
2.0
 40
2.0
 40
2.0
 40
3.0
 40
3.0
 40
3.0
 40
4.0
 40
4.0
 40
4.0
 40
4.0
 10
45.70263670732434
 20
-170.6555609382389
 10
45.45303953941799
 20
-170.6555609382389
 10
45.40653075036712
 20
-170.9390922966749
 10
45.40653075036712
 20
-171.2839463547485
 10
45.40653075036712
 20
-171.6033067062311
 10
45.44253199818798
 20
-171.9119872617095
 10
45.70263670732434
 20
-171.9119872617095
 10
45.95016681793955
 20
-171.9119872617095
 10
45.99891491905583
 20
-171.6308674701131
 10
45.99891491905583
 20
-171.2839463547485
 10
45.99891491905583
 20
-170.9642414937173
 10
45.96084661394381
 20
-170.6555609382389
 10
45.70263670732434
 20
-170.6555609382389
 97
        0
 97
        0
 75
     2
 76
     1
 98
        0
  0
SPLINE
  5
61
330
58
100
AcDbEntity
  8
_U+30EC_U+30A4_U+30E4_U+30FC 1
370
     0
100
AcDbSpline
210
0.0
220
0.0
230
1.0
 70
    11
 71
     3
 72
    44
 73
    40
 74
     0
 42
0.0000000001
 43
0.0000000001
 12
1.0
 22
0.0
 32
0.0
 13
1.0
 23
0.0
 33
0.0
 40
0.0
 40
0.0
 40
0.0
 40
0.0
 40
1.0
 40
1.0
 40
1.0
 40
2.0
 40
2.0
 40
2.0
 40
3.0
 40
3.0
 40
3.0
 40
4.0
 40
4.0
 40
4.0
 40
5.0
 40
5.0
 40
5.0
 40
6.0
 40
6.0
 40
6.0
 40
7.0
 40
7.0
 40
7.0
 40
8.0
 40
8.0
 40
8.0
 40
9.0
 40
9.0
 40
9.0
 40
10.0
 40
10.0
 40
10.0
 40
11.0
 40
11.0
 40
11.0
 40
12.0
 40
12.0
 40
12.0
 40
13.0
 40
13.0
 40
13.0
 40
13.0
 10
47.39366182625923
 20
-172.055992252993
 30
0.0
 10
47.37023517695953
 20
-172.0115505212332
 30
0.0
 10
47.3492200944995
 20
-171.9588405603089
 30
0.0
 10
47.34698078243409
 20
-171.7280191627972
 30
0.0
 10
47.34284666785179
 20
-171.4847954215385
 30
0.0
 10
47.28359102550549
 20
-171.414859983188
 30
0.0
 10
47.1058240984666
 20
-171.414859983188
 30
0.0
 10
47.1058240984666
 20
-171.414859983188
 30
0.0
 10
46.6975802834645
 20
-171.414859983188
 30
0.0
 10
46.6975802834645
 20
-171.414859983188
 30
0.0
 10
46.6975802834645
 20
-171.414859983188
 30
0.0
 10
46.6975802834645
 20
-172.055992252993
 30
0.0
 10
46.6975802834645
 20
-172.055992252993
 30
0.0
 10
46.6975802834645
 20
-172.055992252993
 30
0.0
 10
46.46279702614472
 20
-172.055992252993
 30
0.0
 10
46.46279702614472
 20
-172.055992252993
 30
0.0
 10
46.46279702614472
 20
-172.055992252993
 30
0.0
 10
46.46279702614472
 20
-170.5115559469554
 30
0.0
 10
46.46279702614472
 20
-170.5115559469554
 30
0.0
 10
46.46279702614472
 20
-170.5115559469554
 30
0.0
 10
47.13769123170516
 20
-170.5115559469554
 30
0.0
 10
47.13769123170516
 20
-170.5115559469554
 30
0.0
 10
47.4443047298924
 20
-170.5115559469554
 30
0.0
 10
47.61139186092701
 20
-170.6831217021209
 30
0.0
 10
47.61139186092701
 20
-170.9390922966749
 30
0.0
 10
47.61139186092701
 20
-170.9897352003081
 30
0.0
 10
47.60295137698815
 20
-171.0724174919541
 30
0.0
 10
47.55850964522843
 20
-171.1526882167605
 30
0.0
 10
47.4994262576564
 20
-171.2563855908665
 30
0.0
 10
47.43379718866239
 20
-171.2753336160353
 30
0.0
 10
47.37247448902494
 20
-171.2922145839131
 30
0.0
 10
47.50993379888641
 20
-171.3345892583816
 30
0.0
 10
47.57762992517156
 20
-171.3831651047237
 30
0.0
 10
47.58193629452813
 20
-171.698391341624
 30
0.0
 10
47.58607040911043
 20
-171.9691758467647
 30
0.0
 10
47.62207165693129
 20
-172.000870725229
 30
0.0
 10
47.68976778321645
 20
-172.055992252993
 30
0.0
 10
47.68976778321645
 20
-172.055992252993
 30
0.0
 10
47.39366182625923
 20
-172.055992252993
 30
0.0
 10
47.39366182625923
 20
-172.055992252993
 30
0.0
  0
SPLINE
  5
62
330
58
100
AcDbEntity
  8
_U+30EC_U+30A4_U+30E4_U+30FC 1
370
     0
100
AcDbSpline
210
0.0
220
0.0
230
1.0
 70
    11
 71
     3
 72
    20
 73
    16
 74
     0
 42
0.0000000001
 43
0.0000000001
 12
1.0
 22
0.0
 32
0.0
 13
1.0
 23
0.0
 33
0.0
 40
0.0
 40
0.0
 40
0.0
 40
0.0
 40
1.0
 40
1.0
 40
1.0
 40
2.0
 40
2.0
 40
2.0
 40
3.0
 40
3.0
 40
3.0
 40
4.0
 40
4.0
 40
4.0
 40
5.0
 40
5.0
 40
5.0
 40
5.0
 10
47.14182534628746
 20
-170.7230848097498
 30
0.0
 10
47.14182534628746
 20
-170.7230848097498
 30
0.0
 10
46.6975802834645
 20
-170.7230848097498
 30
0.0
 10
46.6975802834645
 20
-170.7230848097498
 30
0.0
 10
46.6975802834645
 20
-170.7230848097498
 30
0.0
 10
46.6975802834645
 20
-171.2033311203936
 30
0.0
 10
46.6975802834645
 20
-171.2033311203936
 30
0.0
 10
46.6975802834645
 20
-171.2033311203936
 30
0.0
 10
47.13975828899631
 20
-171.2033311203936
 30
0.0
 10
47.13975828899631
 20
-171.2033311203936
 30
0.0
 10
47.23914929374577
 20
-171.2033311203936
 30
0.0
 10
47.37454154631609
 20
-171.1271945101696
 30
0.0
 10
47.37454154631609
 20
-170.9559732645527
 30
0.0
 10
47.37454154631609
 20
-170.8777695970375
 30
0.0
 10
47.34060735578637
 20
-170.7230848097498
 30
0.0
 10
47.14182534628746
 20
-170.7230848097498
 30
0.0
  0
HATCH
  5
63
330
58
100
AcDbEntity
  8
_U+30EC_U+30A4_U+30E4_U+30FC 1
 62
   179
420
  2234388
100
AcDbHatch
 10
0.0
 20
0.0
 30
0.0
210
0.0
220
0.0
230
1.0
  2
SOLID
 70
     1
 71
     0
 91
        2
 92
        1
 93
        1
 72
     4
 94
        3
 73
     0
 74
     1
 95
       44
 96
       40
 40
0.0
 40
0.0
 40
0.0
 40
0.0
 40
1.0
 40
1.0
 40
1.0
 40
2.0
 40
2.0
 40
2.0
 40
3.0
 40
3.0
 40
3.0
 40
4.0
 40
4.0
 40
4.0
 40
5.0
 40
5.0
 40
5.0
 40
6.0
 40
6.0
 40
6.0
 40
7.0
 40
7.0
 40
7.0
 40
8.0
 40
8.0
 40
8.0
 40
9.0
 40
9.0
 40
9.0
 40
10.0
 40
10.0
 40
10.0
 40
11.0
 40
11.0
 40
11.0
 40
12.0
 40
12.0
 40
12.0
 40
13.0
 40
13.0
 40
13.0
 40
13.0
 10
47.39366182625923
 20
-172.055992252993
 10
47.37023517695953
 20
-172.0115505212332
 10
47.3492200944995
 20
-171.9588405603089
 10
47.34698078243409
 20
-171.7280191627972
 10
47.34284666785179
 20
-171.4847954215385
 10
47.28359102550549
 20
-171.414859983188
 10
47.1058240984666
 20
-171.414859983188
 10
47.1058240984666
 20
-171.414859983188
 10
46.6975802834645
 20
-171.414859983188
 10
46.6975802834645
 20
-171.414859983188
 10
46.6975802834645
 20
-171.414859983188
 10
46.6975802834645
 20
-172.055992252993
 10
46.6975802834645
 20
-172.055992252993
 10
46.6975802834645
 20
-172.055992252993
 10
46.46279702614472
 20
-172.055992252993
 10
46.46279702614472
 20
-172.055992252993
 10
46.46279702614472
 20
-172.055992252993
 10
46.46279702614472
 20
-170.5115559469554
 10
46.46279702614472
 20
-170.5115559469554
 10
46.46279702614472
 20
-170.5115559469554
 10
47.13769123170516
 20
-170.5115559469554
 10
47.13769123170516
 20
-170.5115559469554
 10
47.4443047298924
 20
-170.5115559469554
 10
47.61139186092701
 20
-170.6831217021209
 10
47.61139186092701
 20
-170.9390922966749
 10
47.61139186092701
 20
-170.9897352003081
 10
47.60295137698815
 20
-171.0724174919541
 10
47.55850964522843
 20
-171.1526882167605
 10
47.4994262576564
 20
-171.2563855908665
 10
47.43379718866239
 20
-171.2753336160353
 10
47.37247448902494
 20
-171.2922145839131
 10
47.50993379888641
 20
-171.3345892583816
 10
47.57762992517156
 20
-171.3831651047237
 10
47.58193629452813
 20
-171.698391341624
 10
47.58607040911043
 20
-171.9691758467647
 10
47.62207165693129
 20
-172.000870725229
 10
47.68976778321645
 20
-172.055992252993
 10
47.68976778321645
 20
-172.055992252993
 10
47.39366182625923
 20
-172.055992252993
 10
47.39366182625923
 20
-172.055992252993
 97
        0
 97
        0
 92
        1
 93
        1
 72
     4
 94
        3
 73
     0
 74
     1
 95
       20
 96
       16
 40
0.0
 40
0.0
 40
0.0
 40
0.0
 40
1.0
 40
1.0
 40
1.0
 40
2.0
 40
2.0
 40
2.0
 40
3.0
 40
3.0
 40
3.0
 40
4.0
 40
4.0
 40
4.0
 40
5.0
 40
5.0
 40
5.0
 40
5.0
 10
47.14182534628746
 20
-170.7230848097498
 10
47.14182534628746
 20
-170.7230848097498
 10
46.6975802834645
 20
-170.7230848097498
 10
46.6975802834645
 20
-170.7230848097498
 10
46.6975802834645
 20
-170.7230848097498
 10
46.6975802834645
 20
-171.2033311203936
 10
46.6975802834645
 20
-171.2033311203936
 10
46.6975802834645
 20
-171.2033311203936
 10
47.13975828899631
 20
-171.2033311203936
 10
47.13975828899631
 20
-171.2033311203936
 10
47.23914929374577
 20
-171.2033311203936
 10
47.37454154631609
 20
-171.1271945101696
 10
47.37454154631609
 20
-170.9559732645527
 10
47.37454154631609
 20
-170.8777695970375
 10
47.34060735578637
 20
-170.7230848097498
 10
47.14182534628746
 20
-170.7230848097498
 97
        0
 97
        0
 75
     2
 76
     1
 98
        0
  0
ENDBLK
  5
5B
330
58
100
AcDbEntity
  8
0
100
AcDbBlockEnd
  0
BLOCK
  5
77
330
75
100
AcDbEntity
  8
0
100
AcDbBlockBegin
  2
block 3
 70
     0
 10
0.0
 20
0.0
 30
0.0
  3
block 3
  1

  0
SPLINE
  5
79
330
75
100
AcDbEntity
  8
_U+30EC_U+30A4_U+30E4_U+30FC 1
370
     0
100
AcDbSpline
210
0.0
220
0.0
230
1.0
 70
    11
 71
     3
 72
    29
 73
    25
 74
     0
 42
0.0000000001
 43
0.0000000001
 12
1.0
 22
0.0
 32
0.0
 13
1.0
 23
0.0
 33
0.0
 40
0.0
 40
0.0
 40
0.0
 40
0.0
 40
1.0
 40
1.0
 40
1.0
 40
2.0
 40
2.0
 40
2.0
 40
3.0
 40
3.0
 40
3.0
 40
4.0
 40
4.0
 40
4.0
 40
5.0
 40
5.0
 40
5.0
 40
6.0
 40
6.0
 40
6.0
 40
7.0
 40
7.0
 40
7.0
 40
8.0
 40
8.0
 40
8.0
 40
8.0
 10
136.2411240978842
 20
-163.4580674504549
 30
0.0
 10
136.4505859033873
 20
-163.5658989391433
 30
0.0
 10
136.4695339285562
 20
-163.7391872420513
 30
0.0
 10
136.4695339285562
 20
-163.8556314694528
 30
0.0
 10
136.4695339285562
 20
-164.0165174286139
 30
0.0
 10
136.4230251395054
 20
-164.1581108530577
 30
0.0
 10
136.2411240978842
 20
-164.2535399979991
 30
0.0
 10
136.0464762029675
 20
-164.3572373721051
 30
0.0
 10
135.8094536335824
 20
-164.376185397274
 30
0.0
 10
135.6468451266786
 20
-164.376185397274
 30
0.0
 10
135.5028401353951
 20
-164.376185397274
 30
0.0
 10
135.2510036554234
 20
-164.3593044293963
 30
0.0
 10
135.0522216459244
 20
-164.2535399979991
 30
0.0
 10
134.8493055218432
 20
-164.1457085093108
 30
0.0
 10
134.8258788725435
 20
-163.9848225501496
 30
0.0
 10
134.8258788725435
 20
-163.8556314694528
 30
0.0
 10
134.8258788725435
 20
-163.6971570771313
 30
0.0
 10
134.8703206043033
 20
-163.5531520858478
 30
0.0
 10
135.0522216459244
 20
-163.4580674504549
 30
0.0
 10
135.2448024835499
 20
-163.3588487004797
 30
0.0
 10
135.473212314222
 20
-163.33542205118
 30
0.0
 10
135.6468451266786
 20
-163.33542205118
 30
0.0
 10
135.8180663722955
 20
-163.33542205118
 30
0.0
 10
136.0485432602587
 20
-163.3564371336401
 30
0.0
 10
136.2411240978842
 20
-163.4580674504549
 30
0.0
  0
SPLINE
  5
7A
330
75
100
AcDbEntity
  8
_U+30EC_U+30A4_U+30E4_U+30FC 1
370
     0
100
AcDbSpline
210
0.0
220
0.0
230
1.0
 70
    11
 71
     3
 72
    17
 73
    13
 74
     0
 42
0.0000000001
 43
0.0000000001
 12
1.0
 22
0.0
 32
0.0
 13
1.0
 23
0.0
 33
0.0
 40
0.0
 40
0.0
 40
0.0
 40
0.0
 40
1.0
 40
1.0
 40
1.0
 40
2.0
 40
2.0
 40
2.0
 40
3.0
 40
3.0
 40
3.0
 40
4.0
 40
4.0
 40
4.0
 40
4.0
 10
135.018459710169
 20
-163.8556314694528
 30
0.0
 10
135.018459710169
 20
-164.1054008921334
 30
0.0
 10
135.3019910686051
 20
-164.1519096811843
 30
0.0
 10
135.6468451266786
 20
-164.1519096811843
 30
0.0
 10
135.9662054781612
 20
-164.1519096811843
 30
0.0
 10
136.2748860336396
 20
-164.1160806881377
 30
0.0
 10
136.2748860336396
 20
-163.8556314694528
 30
0.0
 10
136.2748860336396
 20
-163.6082736136118
 30
0.0
 10
135.9937662420432
 20
-163.5593532577213
 30
0.0
 10
135.6468451266786
 20
-163.5593532577213
 30
0.0
 10
135.3271402656474
 20
-163.5593532577213
 30
0.0
 10
135.018459710169
 20
-163.5975938176076
 30
0.0
 10
135.018459710169
 20
-163.8556314694528
 30
0.0
  0
HATCH
  5
7B
330
75
100
AcDbEntity
  8
_U+30EC_U+30A4_U+30E4_U+30FC 1
 62
   179
420
  2234388
100
AcDbHatch
 10
0.0
 20
0.0
 30
0.0
210
0.0
220
0.0
230
1.0
  2
SOLID
 70
     1
 71
     0
 91
        2
 92
        1
 93
        1
 72
     4
 94
        3
 73
     0
 74
     1
 95
       29
 96
       25
 40
0.0
 40
0.0
 40
0.0
 40
0.0
 40
1.0
 40
1.0
 40
1.0
 40
2.0
 40
2.0
 40
2.0
 40
3.0
 40
3.0
 40
3.0
 40
4.0
 40
4.0
 40
4.0
 40
5.0
 40
5.0
 40
5.0
 40
6.0
 40
6.0
 40
6.0
 40
7.0
 40
7.0
 40
7.0
 40
8.0
 40
8.0
 40
8.0
 40
8.0
 10
136.2411240978842
 20
-163.4580674504549
 10
136.4505859033873
 20
-163.5658989391433
 10
136.4695339285562
 20
-163.7391872420513
 10
136.4695339285562
 20
-163.8556314694528
 10
136.4695339285562
 20
-164.0165174286139
 10
136.4230251395054
 20
-164.1581108530577
 10
136.2411240978842
 20
-164.2535399979991
 10
136.0464762029675
 20
-164.3572373721051
 10
135.8094536335824
 20
-164.376185397274
 10
135.6468451266786
 20
-164.376185397274
 10
135.5028401353951
 20
-164.376185397274
 10
135.2510036554234
 20
-164.3593044293963
 10
135.0522216459244
 20
-164.2535399979991
 10
134.8493055218432
 20
-164.1457085093108
 10
134.8258788725435
 20
-163.9848225501496
 10
134.8258788725435
 20
-163.8556314694528
 10
134.8258788725435
 20
-163.6971570771313
 10
134.8703206043033
 20
-163.5531520858478
 10
135.0522216459244
 20
-163.4580674504549
 10
135.2448024835499
 20
-163.3588487004797
 10
135.473212314222
 20
-163.33542205118
 10
135.6468451266786
 20
-163.33542205118
 10
135.8180663722955
 20
-163.33542205118
 10
136.0485432602587
 20
-163.3564371336401
 10
136.2411240978842
 20
-163.4580674504549
 97
        0
 97
        0
 92
        1
 93
        1
 72
     4
 94
        3
 73
     0
 74
     1
 95
       17
 96
       13
 40
0.0
 40
0.0
 40
0.0
 40
0.0
 40
1.0
 40
1.0
 40
1.0
 40
2.0
 40
2.0
 40
2.0
 40
3.0
 40
3.0
 40
3.0
 40
4.0
 40
4.0
 40
4.0
 40
4.0
 10
135.018459710169
 20
-163.8556314694528
 10
135.018459710169
 20
-164.1054008921334
 10
135.3019910686051
 20
-164.1519096811843
 10
135.6468451266786
 20
-164.1519096811843
 10
135.9662054781612
 20
-164.1519096811843
 10
136.2748860336396
 20
-164.1160806881377
 10
136.2748860336396
 20
-163.8556314694528
 10
136.2748860336396
 20
-163.6082736136118
 10
135.9937662420432
 20
-163.5593532577213
 10
135.6468451266786
 20
-163.5593532577213
 10
135.3271402656474
 20
-163.5593532577213
 10
135.018459710169
 20
-163.5975938176076
 10
135.018459710169
 20
-163.8556314694528
 97
        0
 97
        0
 75
     2
 76
     1
 98
        0
  0
POLYLINE
  5
7C
330
75
100
AcDbEntity
  8
_U+30EC_U+30A4_U+30E4_U+30FC 1
370
     0
100
AcDb2dPolyline
 66
     1
 10
0.0
 20
0.0
 30
0.0
  0
VERTEX
  5
7D
330
7C
100
AcDbEntity
  8
_U+30EC_U+30A4_U+30E4_U+30FC 1
370
     0
100
AcDbVertex
100
AcDb2dVertex
 10
136.4188910249231
 20
-163.1190700547064
 30
0.0
  0
VERTEX
  5
7E
330
7C
100
AcDbEntity
  8
_U+30EC_U+30A4_U+30E4_U+30FC 1
370
     0
100
AcDbVertex
100
AcDb2dVertex
 10
136.1670545449513
 20
-163.1190700547064
 30
0.0
  0
VERTEX
  5
7F
330
7C
100
AcDbEntity
  8
_U+30EC_U+30A4_U+30E4_U+30FC 1
370
     0
100
AcDbVertex
100
AcDb2dVertex
 10
136.1670545449513
 20
-162.8672335747346
 30
0.0
  0
VERTEX
  5
80
330
7C
100
AcDbEntity
  8
_U+30EC_U+30A4_U+30E4_U+30FC 1
370
     0
100
AcDbVertex
100
AcDb2dVertex
 10
136.4188910249231
 20
-162.8672335747346
 30
0.0
  0
VERTEX
  5
81
330
7C
100
AcDbEntity
  8
_U+30EC_U+30A4_U+30E4_U+30FC 1
370
     0
100
AcDbVertex
100
AcDb2dVertex
 10
136.4188910249231
 20
-163.1190700547064
 30
0.0
  0
SEQEND
  5
82
330
7C
100
AcDbEntity
  8
_U+30EC_U+30A4_U+30E4_U+30FC 1
370
     0
  0
HATCH
  5
83
330
75
100
AcDbEntity
  8
_U+30EC_U+30A4_U+30E4_U+30FC 1
 62
   179
420
  2234388
100
AcDbHatch
 10
0.0
 20
0.0
 30
0.0
210
0.0
220
0.0
230
1.0
  2
SOLID
 70
     1
 71
     0
 91
        1
 92
        1
 93
        4
 72
     1
 10
136.4188910249231
 20
-163.1190700547064
 11
136.1670545449513
 21
-163.1190700547064
 72
     1
 10
136.1670545449513
 20
-163.1190700547064
 11
136.1670545449513
 21
-162.8672335747346
 72
     1
 10
136.1670545449513
 20
-162.8672335747346
 11
136.4188910249231
 21
-162.8672335747346
 72
     1
 10
136.4188910249231
 20
-162.8672335747346
 11
136.4188910249231
 21
-163.1190700547064
 97
        0
 75
     2
 76
     1
 98
        0
  0
SPLINE
  5
84
330
75
100
AcDbEntity
  8
_U+30EC_U+30A4_U+30E4_U+30FC 1
370
     0
100
AcDbSpline
210
0.0
220
0.0
230
1.0
 70
    11
 71
     3
 72
    32
 73
    28
 74
     0
 42
0.0000000001
 43
0.0000000001
 12
1.0
 22
0.0
 32
0.0
 13
1.0
 23
0.0
 33
0.0
 40
0.0
 40
0.0
 40
0.0
 40
0.0
 40
1.0
 40
1.0
 40
1.0
 40
2.0
 40
2.0
 40
2.0
 40
3.0
 40
3.0
 40
3.0
 40
4.0
 40
4.0
 40
4.0
 40
5.0
 40
5.0
 40
5.0
 40
6.0
 40
6.0
 40
6.0
 40
7.0
 40
7.0
 40
7.0
 40
8.0
 40
8.0
 40
8.0
 40
9.0
 40
9.0
 40
9.0
 40
9.0
 10
136.4695339285562
 20
-162.1261935358573
 30
0.0
 10
136.4695339285562
 20
-162.6426133490963
 30
0.0
 10
135.9155625745281
 20
-162.6512260878094
 30
0.0
 10
135.701622144894
 20
-162.6512260878094
 30
0.0
 10
135.4711452569308
 20
-162.6512260878094
 30
0.0
 10
134.8238118152524
 20
-162.631933553092
 30
0.0
 10
134.8238118152524
 20
-162.0882974855196
 30
0.0
 10
134.8238118152524
 20
-161.914664673063
 30
0.0
 10
134.893747253603
 20
-161.6693738745132
 30
0.0
 10
135.225854458381
 20
-161.6314778241755
 30
0.0
 10
135.225854458381
 20
-161.6314778241755
 30
0.0
 10
135.225854458381
 20
-161.845073744261
 30
0.0
 10
135.225854458381
 20
-161.845073744261
 30
0.0
 10
135.1686658733259
 20
-161.8554090307167
 30
0.0
 10
135.0205267674602
 20
-161.887103909181
 30
0.0
 10
135.0205267674602
 20
-162.0903645428108
 30
0.0
 10
135.0205267674602
 20
-162.3825086399599
 30
0.0
 10
135.3484998576559
 20
-162.4224717475888
 30
0.0
 10
135.5534830390283
 20
-162.4352186008843
 30
0.0
 10
135.4752793715131
 20
-162.3422010227825
 30
0.0
 10
135.4160237291668
 20
-162.2743326417231
 30
0.0
 10
135.4160237291668
 20
-162.0924316001019
 30
0.0
 10
135.4160237291668
 20
-161.9125976157719
 30
0.0
 10
135.5241997274037
 20
-161.6101182321669
 30
0.0
 10
135.9303764851146
 20
-161.6101182321669
 30
0.0
 10
136.2497368365973
 20
-161.6101182321669
 30
0.0
 10
136.4695339285562
 20
-161.8092447512144
 30
0.0
 10
136.4695339285562
 20
-162.1261935358573
 30
0.0
  0
SPLINE
  5
85
330
75
100
AcDbEntity
  8
_U+30EC_U+30A4_U+30E4_U+30FC 1
370
     0
100
AcDbSpline
210
0.0
220
0.0
230
1.0
 70
    11
 71
     3
 72
    17
 73
    13
 74
     0
 42
0.0000000001
 43
0.0000000001
 12
1.0
 22
0.0
 32
0.0
 13
1.0
 23
0.0
 33
0.0
 40
0.0
 40
0.0
 40
0.0
 40
0.0
 40
1.0
 40
1.0
 40
1.0
 40
2.0
 40
2.0
 40
2.0
 40
3.0
 40
3.0
 40
3.0
 40
4.0
 40
4.0
 40
4.0
 40
4.0
 10
135.6106716240834
 20
-162.1096570775281
 30
0.0
 10
135.6106716240834
 20
-162.3718288439557
 30
0.0
 10
135.8222004868778
 20
-162.4100694038419
 30
0.0
 10
135.9386447142792
 20
-162.4100694038419
 30
0.0
 10
136.114344584027
 20
-162.4100694038419
 30
0.0
 10
136.2772976004793
 20
-162.3146402589005
 30
0.0
 10
136.2772976004793
 20
-162.1306721599882
 30
0.0
 10
136.2772976004793
 20
-162.0100938180044
 30
0.0
 10
136.218041958133
 20
-161.8343939482567
 30
0.0
 10
135.9324435424058
 20
-161.8343939482567
 30
0.0
 10
135.708167826316
 20
-161.8343939482567
 30
0.0
 10
135.6106716240834
 20
-161.9739203154093
 30
0.0
 10
135.6106716240834
 20
-162.1096570775281
 30
0.0
  0
HATCH
  5
86
330
75
100
AcDbEntity
  8
_U+30EC_U+30A4_U+30E4_U+30FC 1
 62
   179
420
  2234388
100
AcDbHatch
 10
0.0
 20
0.0
 30
0.0
210
0.0
220
0.0
230
1.0
  2
SOLID
 70
     1
 71
     0
 91
        2
 92
        1
 93
        1
 72
     4
 94
        3
 73
     0
 74
     1
 95
       32
 96
       28
 40
0.0
 40
0.0
 40
0.0
 40
0.0
 40
1.0
 40
1.0
 40
1.0
 40
2.0
 40
2.0
 40
2.0
 40
3.0
 40
3.0
 40
3.0
 40
4.0
 40
4.0
 40
4.0
 40
5.0
 40
5.0
 40
5.0
 40
6.0
 40
6.0
 40
6.0
 40
7.0
 40
7.0
 40
7.0
 40
8.0
 40
8.0
 40
8.0
 40
9.0
 40
9.0
 40
9.0
 40
9.0
 10
136.4695339285562
 20
-162.1261935358573
 10
136.4695339285562
 20
-162.6426133490963
 10
135.9155625745281
 20
-162.6512260878094
 10
135.701622144894
 20
-162.6512260878094
 10
135.4711452569308
 20
-162.6512260878094
 10
134.8238118152524
 20
-162.631933553092
 10
134.8238118152524
 20
-162.0882974855196
 10
134.8238118152524
 20
-161.914664673063
 10
134.893747253603
 20
-161.6693738745132
 10
135.225854458381
 20
-161.6314778241755
 10
135.225854458381
 20
-161.6314778241755
 10
135.225854458381
 20
-161.845073744261
 10
135.225854458381
 20
-161.845073744261
 10
135.1686658733259
 20
-161.8554090307167
 10
135.0205267674602
 20
-161.887103909181
 10
135.0205267674602
 20
-162.0903645428108
 10
135.0205267674602
 20
-162.3825086399599
 10
135.3484998576559
 20
-162.4224717475888
 10
135.5534830390283
 20
-162.4352186008843
 10
135.4752793715131
 20
-162.3422010227825
 10
135.4160237291668
 20
-162.2743326417231
 10
135.4160237291668
 20
-162.0924316001019
 10
135.4160237291668
 20
-161.9125976157719
 10
135.5241997274037
 20
-161.6101182321669
 10
135.9303764851146
 20
-161.6101182321669
 10
136.2497368365973
 20
-161.6101182321669
 10
136.4695339285562
 20
-161.8092447512144
 10
136.4695339285562
 20
-162.1261935358573
 97
        0
 97
        0
 92
        1
 93
        1
 72
     4
 94
        3
 73
     0
 74
     1
 95
       17
 96
       13
 40
0.0
 40
0.0
 40
0.0
 40
0.0
 40
1.0
 40
1.0
 40
1.0
 40
2.0
 40
2.0
 40
2.0
 40
3.0
 40
3.0
 40
3.0
 40
4.0
 40
4.0
 40
4.0
 40
4.0
 10
135.6106716240834
 20
-162.1096570775281
 10
135.6106716240834
 20
-162.3718288439557
 10
135.8222004868778
 20
-162.4100694038419
 10
135.9386447142792
 20
-162.4100694038419
 10
136.114344584027
 20
-162.4100694038419
 10
136.2772976004793
 20
-162.3146402589005
 10
136.2772976004793
 20
-162.1306721599882
 10
136.2772976004793
 20
-162.0100938180044
 10
136.218041958133
 20
-161.8343939482567
 10
135.9324435424058
 20
-161.8343939482567
 10
135.708167826316
 20
-161.8343939482567
 10
135.6106716240834
 20
-161.9739203154093
 10
135.6106716240834
 20
-162.1096570775281
 97
        0
 97
        0
 75
     2
 76
     1
 98
        0
  0
ENDBLK
  5
78
330
75
100
AcDbEntity
  8
0
100
AcDbBlockEnd
  0
BLOCK
  5
9A
330
98
100
AcDbEntity
  8
0
100
AcDbBlockBegin
  2
block 4
 70
     0
 10
0.0
 20
0.0
 30
0.0
  3
block 4
  1

  0
SPLINE
  5
9C
330
98
100
AcDbEntity
  8
_U+30EC_U+30A4_U+30E4_U+30FC 1
370
     0
100
AcDbSpline
210
0.0
220
0.0
230
1.0
 70
    11
 71
     3
 72
    29
 73
    25
 74
     0
 42
0.0000000001
 43
0.0000000001
 12
1.0
 22
0.0
 32
0.0
 13
1.0
 23
0.0
 33
0.0
 40
0.0
 40
0.0
 40
0.0
 40
0.0
 40
1.0
 40
1.0
 40
1.0
 40
2.0
 40
2.0
 40
2.0
 40
3.0
 40
3.0
 40
3.0
 40
4.0
 40
4.0
 40
4.0
 40
5.0
 40
5.0
 40
5.0
 40
6.0
 40
6.0
 40
6.0
 40
7.0
 40
7.0
 40
7.0
 40
8.0
 40
8.0
 40
8.0
 40
8.0
 10
60.29192706826036
 20
-84.49613441898013
 30
0.0
 10
60.18409557957204
 20
-84.70559622448333
 30
0.0
 10
60.0106350218897
 20
-84.7245442496522
 30
0.0
 10
59.89419079448826
 20
-84.7245442496522
 30
0.0
 10
59.73347709010135
 20
-84.7245442496522
 30
0.0
 10
59.59171141088333
 20
-84.67803546060132
 30
0.0
 10
59.49645452071616
 20
-84.49613441898013
 30
0.0
 10
59.39292940138441
 20
-84.30148652406352
 30
0.0
 10
59.37380912144128
 20
-84.06446395467833
 30
0.0
 10
59.37380912144128
 20
-83.90185544777454
 30
0.0
 10
59.37380912144128
 20
-83.7578504564911
 30
0.0
 10
59.39069008931899
 20
-83.50601397651933
 30
0.0
 10
59.49645452071616
 20
-83.30723196702041
 30
0.0
 10
59.60445826417875
 20
-83.1043158429392
 30
0.0
 10
59.76517196856565
 20
-83.0808891936395
 30
0.0
 10
59.89419079448826
 20
-83.0808891936395
 30
0.0
 10
60.05283744158402
 20
-83.0808891936395
 30
0.0
 10
60.1966701780932
 20
-83.12533092539923
 30
0.0
 10
60.29192706826036
 20
-83.30723196702041
 30
0.0
 10
60.39131807300981
 20
-83.49981280464588
 30
0.0
 10
60.41457246753525
 20
-83.72822263531795
 30
0.0
 10
60.41457246753525
 20
-83.90185544777454
 30
0.0
 10
60.41457246753525
 20
-84.07307669339146
 30
0.0
 10
60.39355738507523
 20
-84.30355358135468
 30
0.0
 10
60.29192706826036
 20
-84.49613441898013
 30
0.0
  0
SPLINE
  5
9D
330
98
100
AcDbEntity
  8
_U+30EC_U+30A4_U+30E4_U+30FC 1
370
     0
100
AcDbSpline
210
0.0
220
0.0
230
1.0
 70
    11
 71
     3
 72
    17
 73
    13
 74
     0
 42
0.0000000001
 43
0.0000000001
 12
1.0
 22
0.0
 32
0.0
 13
1.0
 23
0.0
 33
0.0
 40
0.0
 40
0.0
 40
0.0
 40
0.0
 40
1.0
 40
1.0
 40
1.0
 40
2.0
 40
2.0
 40
2.0
 40
3.0
 40
3.0
 40
3.0
 40
4.0
 40
4.0
 40
4.0
 40
4.0
 10
59.89419079448826
 20
-83.27347003126496
 30
0.0
 10
59.64459362658191
 20
-83.27347003126496
 30
0.0
 10
59.59808483753104
 20
-83.55700138970103
 30
0.0
 10
59.59808483753104
 20
-83.90185544777454
 30
0.0
 10
59.59808483753104
 20
-84.2212157992572
 30
0.0
 10
59.6340860853519
 20
-84.52989635473558
 30
0.0
 10
59.89419079448826
 20
-84.52989635473558
 30
0.0
 10
60.14172090510346
 20
-84.52989635473558
 30
0.0
 10
60.19046900621974
 20
-84.2487765631392
 30
0.0
 10
60.19046900621974
 20
-83.90185544777454
 30
0.0
 10
60.19046900621974
 20
-83.58215058674335
 30
0.0
 10
60.15240070110774
 20
-83.27347003126496
 30
0.0
 10
59.89419079448826
 20
-83.27347003126496
 30
0.0
  0
HATCH
  5
9E
330
98
100
AcDbEntity
  8
_U+30EC_U+30A4_U+30E4_U+30FC 1
 62
   179
420
  2234388
100
AcDbHatch
 10
0.0
 20
0.0
 30
0.0
210
0.0
220
0.0
230
1.0
  2
SOLID
 70
     1
 71
     0
 91
        2
 92
        1
 93
        1
 72
     4
 94
        3
 73
     0
 74
     1
 95
       29
 96
       25
 40
0.0
 40
0.0
 40
0.0
 40
0.0
 40
1.0
 40
1.0
 40
1.0
 40
2.0
 40
2.0
 40
2.0
 40
3.0
 40
3.0
 40
3.0
 40
4.0
 40
4.0
 40
4.0
 40
5.0
 40
5.0
 40
5.0
 40
6.0
 40
6.0
 40
6.0
 40
7.0
 40
7.0
 40
7.0
 40
8.0
 40
8.0
 40
8.0
 40
8.0
 10
60.29192706826036
 20
-84.49613441898013
 10
60.18409557957204
 20
-84.70559622448333
 10
60.0106350218897
 20
-84.7245442496522
 10
59.89419079448826
 20
-84.7245442496522
 10
59.73347709010135
 20
-84.7245442496522
 10
59.59171141088333
 20
-84.67803546060132
 10
59.49645452071616
 20
-84.49613441898013
 10
59.39292940138441
 20
-84.30148652406352
 10
59.37380912144128
 20
-84.06446395467833
 10
59.37380912144128
 20
-83.90185544777454
 10
59.37380912144128
 20
-83.7578504564911
 10
59.39069008931899
 20
-83.50601397651933
 10
59.49645452071616
 20
-83.30723196702041
 10
59.60445826417875
 20
-83.1043158429392
 10
59.76517196856565
 20
-83.0808891936395
 10
59.89419079448826
 20
-83.0808891936395
 10
60.05283744158402
 20
-83.0808891936395
 10
60.1966701780932
 20
-83.12533092539923
 10
60.29192706826036
 20
-83.30723196702041
 10
60.39131807300981
 20
-83.49981280464588
 10
60.41457246753525
 20
-83.72822263531795
 10
60.41457246753525
 20
-83.90185544777454
 10
60.41457246753525
 20
-84.07307669339146
 10
60.39355738507523
 20
-84.30355358135468
 10
60.29192706826036
 20
-84.49613441898013
 97
        0
 97
        0
 92
        1
 93
        1
 72
     4
 94
        3
 73
     0
 74
     1
 95
       17
 96
       13
 40
0.0
 40
0.0
 40
0.0
 40
0.0
 40
1.0
 40
1.0
 40
1.0
 40
2.0
 40
2.0
 40
2.0
 40
3.0
 40
3.0
 40
3.0
 40
4.0
 40
4.0
 40
4.0
 40
4.0
 10
59.89419079448826
 20
-83.27347003126496
 10
59.64459362658191
 20
-83.27347003126496
 10
59.59808483753104
 20
-83.55700138970103
 10
59.59808483753104
 20
-83.90185544777454
 10
59.59808483753104
 20
-84.2212157992572
 10
59.6340860853519
 20
-84.52989635473558
 10
59.89419079448826
 20
-84.52989635473558
 10
60.14172090510346
 20
-84.52989635473558
 10
60.19046900621974
 20
-84.2487765631392
 10
60.19046900621974
 20
-83.90185544777454
 10
60.19046900621974
 20
-83.58215058674335
 10
60.15240070110774
 20
-83.27347003126496
 10
59.89419079448826
 20
-83.27347003126496
 97
        0
 97
        0
 75
     2
 76
     1
 98
        0
  0
POLYLINE
  5
9F
330
98
100
AcDbEntity
  8
_U+30EC_U+30A4_U+30E4_U+30FC 1
370
     0
100
AcDb2dPolyline
 66
     1
 10
0.0
 20
0.0
 30
0.0
  0
VERTEX
  5
A0
330
9F
100
AcDbEntity
  8
_U+30EC_U+30A4_U+30E4_U+30FC 1
370
     0
100
AcDbVertex
100
AcDb2dVertex
 10
60.6310967187832
 20
-84.67390134601902
 30
0.0
  0
VERTEX
  5
A1
330
9F
100
AcDbEntity
  8
_U+30EC_U+30A4_U+30E4_U+30FC 1
370
     0
100
AcDbVertex
100
AcDb2dVertex
 10
60.6310967187832
 20
-84.42206486604726
 30
0.0
  0
VERTEX
  5
A2
330
9F
100
AcDbEntity
  8
_U+30EC_U+30A4_U+30E4_U+30FC 1
370
     0
100
AcDbVertex
100
AcDb2dVertex
 10
60.8827609439807
 20
-84.42206486604726
 30
0.0
  0
VERTEX
  5
A3
330
9F
100
AcDbEntity
  8
_U+30EC_U+30A4_U+30E4_U+30FC 1
370
     0
100
AcDbVertex
100
AcDb2dVertex
 10
60.8827609439807
 20
-84.67390134601902
 30
0.0
  0
VERTEX
  5
A4
330
9F
100
AcDbEntity
  8
_U+30EC_U+30A4_U+30E4_U+30FC 1
370
     0
100
AcDbVertex
100
AcDb2dVertex
 10
60.6310967187832
 20
-84.67390134601902
 30
0.0
  0
SEQEND
  5
A5
330
9F
100
AcDbEntity
  8
_U+30EC_U+30A4_U+30E4_U+30FC 1
370
     0
  0
HATCH
  5
A6
330
98
100
AcDbEntity
  8
_U+30EC_U+30A4_U+30E4_U+30FC 1
 62
   179
420
  2234388
100
AcDbHatch
 10
0.0
 20
0.0
 30
0.0
210
0.0
220
0.0
230
1.0
  2
SOLID
 70
     1
 71
     0
 91
        1
 92
        1
 93
        4
 72
     1
 10
60.6310967187832
 20
-84.67390134601902
 11
60.6310967187832
 21
-84.42206486604726
 72
     1
 10
60.6310967187832
 20
-84.42206486604726
 11
60.8827609439807
 21
-84.42206486604726
 72
     1
 10
60.8827609439807
 20
-84.42206486604726
 11
60.8827609439807
 21
-84.67390134601902
 72
     1
 10
60.8827609439807
 20
-84.67390134601902
 11
60.6310967187832
 21
-84.67390134601902
 97
        0
 75
     2
 76
     1
 98
        0
  0
SPLINE
  5
A7
330
98
100
AcDbEntity
  8
_U+30EC_U+30A4_U+30E4_U+30FC 1
370
     0
100
AcDbSpline
210
0.0
220
0.0
230
1.0
 70
    11
 71
     3
 72
    32
 73
    28
 74
     0
 42
0.0000000001
 43
0.0000000001
 12
1.0
 22
0.0
 32
0.0
 13
1.0
 23
0.0
 33
0.0
 40
0.0
 40
0.0
 40
0.0
 40
0.0
 40
1.0
 40
1.0
 40
1.0
 40
2.0
 40
2.0
 40
2.0
 40
3.0
 40
3.0
 40
3.0
 40
4.0
 40
4.0
 40
4.0
 40
5.0
 40
5.0
 40
5.0
 40
6.0
 40
6.0
 40
6.0
 40
7.0
 40
7.0
 40
7.0
 40
8.0
 40
8.0
 40
8.0
 40
9.0
 40
9.0
 40
9.0
 40
9.0
 10
61.62362872808368
 20
-84.7245442496522
 30
0.0
 10
61.10738116961899
 20
-84.7245442496522
 30
0.0
 10
61.09894068568013
 20
-84.17057289562403
 30
0.0
 10
61.09894068568013
 20
-83.95663246599001
 30
0.0
 10
61.09894068568013
 20
-83.72615557802679
 30
0.0
 10
61.11806096562326
 20
-83.07882213634835
 30
0.0
 10
61.66169703319569
 20
-83.07882213634835
 30
0.0
 10
61.83515759087802
 20
-83.07882213634835
 30
0.0
 10
62.08062064420207
 20
-83.14875757469892
 30
0.0
 10
62.11868894931408
 20
-83.48086477947702
 30
0.0
 10
62.11868894931408
 20
-83.48086477947702
 30
0.0
 10
61.90492077445433
 20
-83.48086477947702
 30
0.0
 10
61.90492077445433
 20
-83.48086477947702
 30
0.0
 10
61.89441323322431
 20
-83.42367619442186
 30
0.0
 10
61.86271835476002
 20
-83.27553708855612
 30
0.0
 10
61.65962997590454
 20
-83.27553708855612
 30
0.0
 10
61.36765813352962
 20
-83.27553708855612
 30
0.0
 10
61.32735051635219
 20
-83.6035101787519
 30
0.0
 10
61.31477591783103
 20
-83.80849336012427
 30
0.0
 10
61.40779349593278
 20
-83.7302896926091
 30
0.0
 10
61.47548962221794
 20
-83.6710340502628
 30
0.0
 10
61.65739066383913
 20
-83.6710340502628
 30
0.0
 10
61.83722464816917
 20
-83.6710340502628
 30
0.0
 10
62.1397040317741
 20
-83.77921004849965
 30
0.0
 10
62.1397040317741
 20
-84.1853868062106
 30
0.0
 10
62.1397040317741
 20
-84.50474715769326
 30
0.0
 10
61.94092202227519
 20
-84.7245442496522
 30
0.0
 10
61.62362872808368
 20
-84.7245442496522
 30
0.0
  0
SPLINE
  5
A8
330
98
100
AcDbEntity
  8
_U+30EC_U+30A4_U+30E4_U+30FC 1
370
     0
100
AcDbSpline
210
0.0
220
0.0
230
1.0
 70
    11
 71
     3
 72
    17
 73
    13
 74
     0
 42
0.0000000001
 43
0.0000000001
 12
1.0
 22
0.0
 32
0.0
 13
1.0
 23
0.0
 33
0.0
 40
0.0
 40
0.0
 40
0.0
 40
0.0
 40
1.0
 40
1.0
 40
1.0
 40
2.0
 40
2.0
 40
2.0
 40
3.0
 40
3.0
 40
3.0
 40
4.0
 40
4.0
 40
4.0
 40
4.0
 10
61.64050969596141
 20
-83.86568194517942
 30
0.0
 10
61.37816567475963
 20
-83.86568194517942
 30
0.0
 10
61.34009736964762
 20
-84.07721080797376
 30
0.0
 10
61.34009736964762
 20
-84.1936550353752
 30
0.0
 10
61.34009736964762
 20
-84.36935490512295
 30
0.0
 10
61.43535425981477
 20
-84.53230792157527
 30
0.0
 10
61.61932235872712
 20
-84.53230792157527
 30
0.0
 10
61.73990070071086
 20
-84.53230792157527
 30
0.0
 10
61.9156005704586
 20
-84.47305227922897
 30
0.0
 10
61.9156005704586
 20
-84.18745386350174
 30
0.0
 10
61.9156005704586
 20
-83.96317814741198
 30
0.0
 10
61.77590194853172
 20
-83.86568194517942
 30
0.0
 10
61.64050969596141
 20
-83.86568194517942
 30
0.0
  0
HATCH
  5
A9
330
98
100
AcDbEntity
  8
_U+30EC_U+30A4_U+30E4_U+30FC 1
 62
   179
420
  2234388
100
AcDbHatch
 10
0.0
 20
0.0
 30
0.0
210
0.0
220
0.0
230
1.0
  2
SOLID
 70
     1
 71
     0
 91
        2
 92
        1
 93
        1
 72
     4
 94
        3
 73
     0
 74
     1
 95
       32
 96
       28
 40
0.0
 40
0.0
 40
0.0
 40
0.0
 40
1.0
 40
1.0
 40
1.0
 40
2.0
 40
2.0
 40
2.0
 40
3.0
 40
3.0
 40
3.0
 40
4.0
 40
4.0
 40
4.0
 40
5.0
 40
5.0
 40
5.0
 40
6.0
 40
6.0
 40
6.0
 40
7.0
 40
7.0
 40
7.0
 40
8.0
 40
8.0
 40
8.0
 40
9.0
 40
9.0
 40
9.0
 40
9.0
 10
61.62362872808368
 20
-84.7245442496522
 10
61.10738116961899
 20
-84.7245442496522
 10
61.09894068568013
 20
-84.17057289562403
 10
61.09894068568013
 20
-83.95663246599001
 10
61.09894068568013
 20
-83.72615557802679
 10
61.11806096562326
 20
-83.07882213634835
 10
61.66169703319569
 20
-83.07882213634835
 10
61.83515759087802
 20
-83.07882213634835
 10
62.08062064420207
 20
-83.14875757469892
 10
62.11868894931408
 20
-83.48086477947702
 10
62.11868894931408
 20
-83.48086477947702
 10
61.90492077445433
 20
-83.48086477947702
 10
61.90492077445433
 20
-83.48086477947702
 10
61.89441323322431
 20
-83.42367619442186
 10
61.86271835476002
 20
-83.27553708855612
 10
61.65962997590454
 20
-83.27553708855612
 10
61.36765813352962
 20
-83.27553708855612
 10
61.32735051635219
 20
-83.6035101787519
 10
61.31477591783103
 20
-83.80849336012427
 10
61.40779349593278
 20
-83.7302896926091
 10
61.47548962221794
 20
-83.6710340502628
 10
61.65739066383913
 20
-83.6710340502628
 10
61.83722464816917
 20
-83.6710340502628
 10
62.1397040317741
 20
-83.77921004849965
 10
62.1397040317741
 20
-84.1853868062106
 10
62.1397040317741
 20
-84.50474715769326
 10
61.94092202227519
 20
-84.7245442496522
 10
61.62362872808368
 20
-84.7245442496522
 97
        0
 97
        0
 92
        1
 93
        1
 72
     4
 94
        3
 73
     0
 74
     1
 95
       17
 96
       13
 40
0.0
 40
0.0
 40
0.0
 40
0.0
 40
1.0
 40
1.0
 40
1.0
 40
2.0
 40
2.0
 40
2.0
 40
3.0
 40
3.0
 40
3.0
 40
4.0
 40
4.0
 40
4.0
 40
4.0
 10
61.64050969596141
 20
-83.86568194517942
 10
61.37816567475963
 20
-83.86568194517942
 10
61.34009736964762
 20
-84.07721080797376
 10
61.34009736964762
 20
-84.1936550353752
 10
61.34009736964762
 20
-84.36935490512295
 10
61.43535425981477
 20
-84.53230792157527
 10
61.61932235872712
 20
-84.53230792157527
 10
61.73990070071086
 20
-84.53230792157527
 10
61.9156005704586
 20
-84.47305227922897
 10
61.9156005704586
 20
-84.18745386350174
 10
61.9156005704586
 20
-83.96317814741198
 10
61.77590194853172
 20
-83.86568194517942
 10
61.64050969596141
 20
-83.86568194517942
 97
        0
 97
        0
 75
     2
 76
     1
 98
        0
  0
ENDBLK
  5
9B
330
98
100
AcDbEntity
  8
0
100
AcDbBlockEnd
  0
BLOCK
  5
B8
330
B6
100
AcDbEntity
  8
0
100
AcDbBlockBegin
  2
block 5
 70
     0
 10
0.0
 20
0.0
 30
0.0
  3
block 5
  1

  0
SPLINE
  5
BA
330
B6
100
AcDbEntity
  8
_U+30EC_U+30A4_U+30E4_U+30FC 1
370
     0
100
AcDbSpline
210
0.0
220
0.0
230
1.0
 70
    11
 71
     3
 72
    29
 73
    25
 74
     0
 42
0.0000000001
 43
0.0000000001
 12
1.0
 22
0.0
 32
0.0
 13
1.0
 23
0.0
 33
0.0
 40
0.0
 40
0.0
 40
0.0
 40
0.0
 40
1.0
 40
1.0
 40
1.0
 40
2.0
 40
2.0
 40
2.0
 40
3.0
 40
3.0
 40
3.0
 40
4.0
 40
4.0
 40
4.0
 40
5.0
 40
5.0
 40
5.0
 40
6.0
 40
6.0
 40
6.0
 40
7.0
 40
7.0
 40
7.0
 40
8.0
 40
8.0
 40
8.0
 40
8.0
 10
48.65956216231428
 20
-124.6504448473096
 30
0.0
 10
48.65956216231428
 20
-124.9169229830937
 30
0.0
 10
48.52210285245281
 20
-125.1708265203566
 30
0.0
 10
48.173114679797
 20
-125.1708265203566
 30
0.0
 10
47.91714408524294
 20
-125.1708265203566
 30
0.0
 10
47.82205944985004
 20
-125.0290608411386
 30
0.0
 10
47.76073675021259
 20
-124.9232964097414
 30
0.0
 10
47.7014811078663
 20
-125.0481811210817
 30
0.0
 10
47.58710393775601
 20
-125.1243177313057
 30
0.0
 10
47.42621797859483
 20
-125.1243177313057
 30
0.0
 10
47.1512993588719
 20
-125.1243177313057
 30
0.0
 10
47.01590710630158
 20
-124.9253634670326
 30
0.0
 10
47.01590710630158
 20
-124.6504448473096
 30
0.0
 10
47.01590710630158
 20
-124.3669134888735
 30
0.0
 10
47.15991209758502
 20
-124.1765719633135
 30
0.0
 10
47.42621797859483
 20
-124.1765719633135
 30
0.0
 10
47.58710393775601
 20
-124.1765719633135
 30
0.0
 10
47.7014811078663
 20
-124.2547756308287
 30
0.0
 10
47.76073675021259
 20
-124.379660342169
 30
0.0
 10
47.81137965384577
 20
-124.2907768786495
 30
0.0
 10
47.90646428923866
 20
-124.1321302315538
 30
0.0
 10
48.1689805652147
 20
-124.1321302315538
 30
0.0
 10
48.54346244446136
 20
-124.1321302315538
 30
0.0
 10
48.65956216231428
 20
-124.4113552206333
 30
0.0
 10
48.65956216231428
 20
-124.6504448473096
 30
0.0
  0
SPLINE
  5
BB
330
B6
100
AcDbEntity
  8
_U+30EC_U+30A4_U+30E4_U+30FC 1
370
     0
100
AcDbSpline
210
0.0
220
0.0
230
1.0
 70
    11
 71
     3
 72
    17
 73
    13
 74
     0
 42
0.0000000001
 43
0.0000000001
 12
1.0
 22
0.0
 32
0.0
 13
1.0
 23
0.0
 33
0.0
 40
0.0
 40
0.0
 40
0.0
 40
0.0
 40
1.0
 40
1.0
 40
1.0
 40
2.0
 40
2.0
 40
2.0
 40
3.0
 40
3.0
 40
3.0
 40
4.0
 40
4.0
 40
4.0
 40
4.0
 10
47.20848794392705
 20
-124.6504448473096
 30
0.0
 10
47.20848794392705
 20
-124.8154649210531
 30
0.0
 10
47.30357257931994
 20
-124.900042015216
 30
0.0
 10
47.43896483189026
 20
-124.900042015216
 30
0.0
 10
47.56161023116515
 20
-124.900042015216
 30
0.0
 10
47.68012151585775
 20
-124.8280395195742
 30
0.0
 10
47.68012151585775
 20
-124.6504448473096
 30
0.0
 10
47.68012151585775
 20
-124.4726779202707
 30
0.0
 10
47.56161023116515
 20
-124.4008476794033
 30
0.0
 10
47.43896483189026
 20
-124.4008476794033
 30
0.0
 10
47.30357257931994
 20
-124.4008476794033
 30
0.0
 10
47.20848794392705
 20
-124.4874918308573
 30
0.0
 10
47.20848794392705
 20
-124.6504448473096
 30
0.0
  0
SPLINE
  5
BC
330
B6
100
AcDbEntity
  8
_U+30EC_U+30A4_U+30E4_U+30FC 1
370
     0
100
AcDbSpline
210
0.0
220
0.0
230
1.0
 70
    11
 71
     3
 72
    17
 73
    13
 74
     0
 42
0.0000000001
 43
0.0000000001
 12
1.0
 22
0.0
 32
0.0
 13
1.0
 23
0.0
 33
0.0
 40
0.0
 40
0.0
 40
0.0
 40
0.0
 40
1.0
 40
1.0
 40
1.0
 40
2.0
 40
2.0
 40
2.0
 40
3.0
 40
3.0
 40
3.0
 40
4.0
 40
4.0
 40
4.0
 40
4.0
 10
47.86856823890091
 20
-124.6504448473096
 30
0.0
 10
47.86856823890091
 20
-124.7942775838188
 30
0.0
 10
47.95538464512921
 20
-124.9465508042668
 30
0.0
 10
48.15830076921043
 20
-124.9465508042668
 30
0.0
 10
48.36362846013132
 20
-124.9465508042668
 30
0.0
 10
48.46491426739766
 20
-124.8195990356354
 30
0.0
 10
48.46491426739766
 20
-124.6504448473096
 30
0.0
 10
48.46491426739766
 20
-124.4642374363319
 30
0.0
 10
48.34226886812277
 20
-124.3541666355781
 30
0.0
 10
48.16450194108388
 20
-124.3541666355781
 30
0.0
 10
47.94263779183379
 20
-124.3541666355781
 30
0.0
 10
47.86856823890091
 20
-124.5171196520304
 30
0.0
 10
47.86856823890091
 20
-124.6504448473096
 30
0.0
  0
HATCH
  5
BD
330
B6
100
AcDbEntity
  8
_U+30EC_U+30A4_U+30E4_U+30FC 1
 62
   179
420
  2234388
100
AcDbHatch
 10
0.0
 20
0.0
 30
0.0
210
0.0
220
0.0
230
1.0
  2
SOLID
 70
     1
 71
     0
 91
        3
 92
        1
 93
        1
 72
     4
 94
        3
 73
     0
 74
     1
 95
       29
 96
       25
 40
0.0
 40
0.0
 40
0.0
 40
0.0
 40
1.0
 40
1.0
 40
1.0
 40
2.0
 40
2.0
 40
2.0
 40
3.0
 40
3.0
 40
3.0
 40
4.0
 40
4.0
 40
4.0
 40
5.0
 40
5.0
 40
5.0
 40
6.0
 40
6.0
 40
6.0
 40
7.0
 40
7.0
 40
7.0
 40
8.0
 40
8.0
 40
8.0
 40
8.0
 10
48.65956216231428
 20
-124.6504448473096
 10
48.65956216231428
 20
-124.9169229830937
 10
48.52210285245281
 20
-125.1708265203566
 10
48.173114679797
 20
-125.1708265203566
 10
47.91714408524294
 20
-125.1708265203566
 10
47.82205944985004
 20
-125.0290608411386
 10
47.76073675021259
 20
-124.9232964097414
 10
47.7014811078663
 20
-125.0481811210817
 10
47.58710393775601
 20
-125.1243177313057
 10
47.42621797859483
 20
-125.1243177313057
 10
47.1512993588719
 20
-125.1243177313057
 10
47.01590710630158
 20
-124.9253634670326
 10
47.01590710630158
 20
-124.6504448473096
 10
47.01590710630158
 20
-124.3669134888735
 10
47.15991209758502
 20
-124.1765719633135
 10
47.42621797859483
 20
-124.1765719633135
 10
47.58710393775601
 20
-124.1765719633135
 10
47.7014811078663
 20
-124.2547756308287
 10
47.76073675021259
 20
-124.379660342169
 10
47.81137965384577
 20
-124.2907768786495
 10
47.90646428923866
 20
-124.1321302315538
 10
48.1689805652147
 20
-124.1321302315538
 10
48.54346244446136
 20
-124.1321302315538
 10
48.65956216231428
 20
-124.4113552206333
 10
48.65956216231428
 20
-124.6504448473096
 97
        0
 97
        0
 92
        1
 93
        1
 72
     4
 94
        3
 73
     0
 74
     1
 95
       17
 96
       13
 40
0.0
 40
0.0
 40
0.0
 40
0.0
 40
1.0
 40
1.0
 40
1.0
 40
2.0
 40
2.0
 40
2.0
 40
3.0
 40
3.0
 40
3.0
 40
4.0
 40
4.0
 40
4.0
 40
4.0
 10
47.20848794392705
 20
-124.6504448473096
 10
47.20848794392705
 20
-124.8154649210531
 10
47.30357257931994
 20
-124.900042015216
 10
47.43896483189026
 20
-124.900042015216
 10
47.56161023116515
 20
-124.900042015216
 10
47.68012151585775
 20
-124.8280395195742
 10
47.68012151585775
 20
-124.6504448473096
 10
47.68012151585775
 20
-124.4726779202707
 10
47.56161023116515
 20
-124.4008476794033
 10
47.43896483189026
 20
-124.4008476794033
 10
47.30357257931994
 20
-124.4008476794033
 10
47.20848794392705
 20
-124.4874918308573
 10
47.20848794392705
 20
-124.6504448473096
 97
        0
 97
        0
 92
        1
 93
        1
 72
     4
 94
        3
 73
     0
 74
     1
 95
       17
 96
       13
 40
0.0
 40
0.0
 40
0.0
 40
0.0
 40
1.0
 40
1.0
 40
1.0
 40
2.0
 40
2.0
 40
2.0
 40
3.0
 40
3.0
 40
3.0
 40
4.0
 40
4.0
 40
4.0
 40
4.0
 10
47.86856823890091
 20
-124.6504448473096
 10
47.86856823890091
 20
-124.7942775838188
 10
47.95538464512921
 20
-124.9465508042668
 10
48.15830076921043
 20
-124.9465508042668
 10
48.36362846013132
 20
-124.9465508042668
 10
48.46491426739766
 20
-124.8195990356354
 10
48.46491426739766
 20
-124.6504448473096
 10
48.46491426739766
 20
-124.4642374363319
 10
48.34226886812277
 20
-124.3541666355781
 10
48.16450194108388
 20
-124.3541666355781
 10
47.94263779183379
 20
-124.3541666355781
 10
47.86856823890091
 20
-124.5171196520304
 10
47.86856823890091
 20
-124.6504448473096
 97
        0
 97
        0
 75
     2
 76
     1
 98
        0
  0
SPLINE
  5
BE
330
B6
100
AcDbEntity
  8
_U+30EC_U+30A4_U+30E4_U+30FC 1
370
     0
100
AcDbSpline
210
0.0
220
0.0
230
1.0
 70
    11
 71
     3
 72
    29
 73
    25
 74
     0
 42
0.0000000001
 43
0.0000000001
 12
1.0
 22
0.0
 32
0.0
 13
1.0
 23
0.0
 33
0.0
 40
0.0
 40
0.0
 40
0.0
 40
0.0
 40
1.0
 40
1.0
 40
1.0
 40
2.0
 40
2.0
 40
2.0
 40
3.0
 40
3.0
 40
3.0
 40
4.0
 40
4.0
 40
4.0
 40
5.0
 40
5.0
 40
5.0
 40
6.0
 40
6.0
 40
6.0
 40
7.0
 40
7.0
 40
7.0
 40
8.0
 40
8.0
 40
8.0
 40
8.0
 10
48.43115233164222
 20
-123.0758639557762
 30
0.0
 10
48.64061413714541
 20
-123.1836954444645
 30
0.0
 10
48.65956216231428
 20
-123.3571560021468
 30
0.0
 10
48.65956216231428
 20
-123.4736002295483
 30
0.0
 10
48.65956216231428
 20
-123.6343139339352
 30
0.0
 10
48.6130533732634
 20
-123.7760796131532
 30
0.0
 10
48.43115233164222
 20
-123.8713365033204
 30
0.0
 10
48.2365044367256
 20
-123.9748616226521
 30
0.0
 10
47.99948186734041
 20
-123.9939819025953
 30
0.0
 10
47.83687336043662
 20
-123.9939819025953
 30
0.0
 10
47.69286836915317
 20
-123.9939819025953
 30
0.0
 10
47.44103188918141
 20
-123.9771009347175
 30
0.0
 10
47.2422498796825
 20
-123.8713365033204
 30
0.0
 10
47.03933375560128
 20
-123.7633327598578
 30
0.0
 10
47.01590710630158
 20
-123.6026190554709
 30
0.0
 10
47.01590710630158
 20
-123.4736002295483
 30
0.0
 10
47.01590710630158
 20
-123.3149535824525
 30
0.0
 10
47.0603488380613
 20
-123.1711208459433
 30
0.0
 10
47.2422498796825
 20
-123.0758639557762
 30
0.0
 10
47.43483071730796
 20
-122.9764729510267
 30
0.0
 10
47.66324054798002
 20
-122.9532185565013
 30
0.0
 10
47.83687336043662
 20
-122.9532185565013
 30
0.0
 10
48.00809460605353
 20
-122.9532185565013
 30
0.0
 10
48.23857149401675
 20
-122.9742336389613
 30
0.0
 10
48.43115233164222
 20
-123.0758639557762
 30
0.0
  0
SPLINE
  5
BF
330
B6
100
AcDbEntity
  8
_U+30EC_U+30A4_U+30E4_U+30FC 1
370
     0
100
AcDbSpline
210
0.0
220
0.0
230
1.0
 70
    11
 71
     3
 72
    17
 73
    13
 74
     0
 42
0.0000000001
 43
0.0000000001
 12
1.0
 22
0.0
 32
0.0
 13
1.0
 23
0.0
 33
0.0
 40
0.0
 40
0.0
 40
0.0
 40
0.0
 40
1.0
 40
1.0
 40
1.0
 40
2.0
 40
2.0
 40
2.0
 40
3.0
 40
3.0
 40
3.0
 40
4.0
 40
4.0
 40
4.0
 40
4.0
 10
47.20848794392705
 20
-123.4736002295483
 30
0.0
 10
47.20848794392705
 20
-123.7231973974546
 30
0.0
 10
47.49201930236311
 20
-123.7697061865055
 30
0.0
 10
47.83687336043662
 20
-123.7697061865055
 30
0.0
 10
48.15623371191928
 20
-123.7697061865055
 30
0.0
 10
48.46491426739766
 20
-123.7337049386846
 30
0.0
 10
48.46491426739766
 20
-123.4736002295483
 30
0.0
 10
48.46491426739766
 20
-123.2260701189331
 30
0.0
 10
48.18379447580128
 20
-123.1773220178168
 30
0.0
 10
47.83687336043662
 20
-123.1773220178168
 30
0.0
 10
47.51716849940543
 20
-123.1773220178168
 30
0.0
 10
47.20848794392705
 20
-123.2155625777031
 30
0.0
 10
47.20848794392705
 20
-123.4736002295483
 30
0.0
  0
HATCH
  5
C0
330
B6
100
AcDbEntity
  8
_U+30EC_U+30A4_U+30E4_U+30FC 1
 62
   179
420
  2234388
100
AcDbHatch
 10
0.0
 20
0.0
 30
0.0
210
0.0
220
0.0
230
1.0
  2
SOLID
 70
     1
 71
     0
 91
        2
 92
        1
 93
        1
 72
     4
 94
        3
 73
     0
 74
     1
 95
       29
 96
       25
 40
0.0
 40
0.0
 40
0.0
 40
0.0
 40
1.0
 40
1.0
 40
1.0
 40
2.0
 40
2.0
 40
2.0
 40
3.0
 40
3.0
 40
3.0
 40
4.0
 40
4.0
 40
4.0
 40
5.0
 40
5.0
 40
5.0
 40
6.0
 40
6.0
 40
6.0
 40
7.0
 40
7.0
 40
7.0
 40
8.0
 40
8.0
 40
8.0
 40
8.0
 10
48.43115233164222
 20
-123.0758639557762
 10
48.64061413714541
 20
-123.1836954444645
 10
48.65956216231428
 20
-123.3571560021468
 10
48.65956216231428
 20
-123.4736002295483
 10
48.65956216231428
 20
-123.6343139339352
 10
48.6130533732634
 20
-123.7760796131532
 10
48.43115233164222
 20
-123.8713365033204
 10
48.2365044367256
 20
-123.9748616226521
 10
47.99948186734041
 20
-123.9939819025953
 10
47.83687336043662
 20
-123.9939819025953
 10
47.69286836915317
 20
-123.9939819025953
 10
47.44103188918141
 20
-123.9771009347175
 10
47.2422498796825
 20
-123.8713365033204
 10
47.03933375560128
 20
-123.7633327598578
 10
47.01590710630158
 20
-123.6026190554709
 10
47.01590710630158
 20
-123.4736002295483
 10
47.01590710630158
 20
-123.3149535824525
 10
47.0603488380613
 20
-123.1711208459433
 10
47.2422498796825
 20
-123.0758639557762
 10
47.43483071730796
 20
-122.9764729510267
 10
47.66324054798002
 20
-122.9532185565013
 10
47.83687336043662
 20
-122.9532185565013
 10
48.00809460605353
 20
-122.9532185565013
 10
48.23857149401675
 20
-122.9742336389613
 10
48.43115233164222
 20
-123.0758639557762
 97
        0
 97
        0
 92
        1
 93
        1
 72
     4
 94
        3
 73
     0
 74
     1
 95
       17
 96
       13
 40
0.0
 40
0.0
 40
0.0
 40
0.0
 40
1.0
 40
1.0
 40
1.0
 40
2.0
 40
2.0
 40
2.0
 40
3.0
 40
3.0
 40
3.0
 40
4.0
 40
4.0
 40
4.0
 40
4.0
 10
47.20848794392705
 20
-123.4736002295483
 10
47.20848794392705
 20
-123.7231973974546
 10
47.49201930236311
 20
-123.7697061865055
 10
47.83687336043662
 20
-123.7697061865055
 10
48.15623371191928
 20
-123.7697061865055
 10
48.46491426739766
 20
-123.7337049386846
 10
48.46491426739766
 20
-123.4736002295483
 10
48.46491426739766
 20
-123.2260701189331
 10
48.18379447580128
 20
-123.1773220178168
 10
47.83687336043662
 20
-123.1773220178168
 10
47.51716849940543
 20
-123.1773220178168
 10
47.20848794392705
 20
-123.2155625777031
 10
47.20848794392705
 20
-123.4736002295483
 97
        0
 97
        0
 75
     2
 76
     1
 98
        0
  0
ENDBLK
  5
B9
330
B6
100
AcDbEntity
  8
0
100
AcDbBlockEnd
  0
BLOCK
  5
CF
330
CD
100
AcDbEntity
  8
0
100
AcDbBlockBegin
  2
block 6
 70
     0
 10
0.0
 20
0.0
 30
0.0
  3
block 6
  1

  0
SPLINE
  5
D1
330
CD
100
AcDbEntity
  8
_U+30EC_U+30A4_U+30E4_U+30FC 1
370
     0
100
AcDbSpline
210
0.0
220
0.0
230
1.0
 70
    11
 71
     3
 72
    29
 73
    25
 74
     0
 42
0.0000000001
 43
0.0000000001
 12
1.0
 22
0.0
 32
0.0
 13
1.0
 23
0.0
 33
0.0
 40
0.0
 40
0.0
 40
0.0
 40
0.0
 40
1.0
 40
1.0
 40
1.0
 40
2.0
 40
2.0
 40
2.0
 40
3.0
 40
3.0
 40
3.0
 40
4.0
 40
4.0
 40
4.0
 40
5.0
 40
5.0
 40
5.0
 40
6.0
 40
6.0
 40
6.0
 40
7.0
 40
7.0
 40
7.0
 40
8.0
 40
8.0
 40
8.0
 40
8.0
 10
92.24174259846734
 20
-172.2048203779557
 30
0.0
 10
91.97509220790901
 20
-172.2048203779557
 30
0.0
 10
91.72153318019463
 20
-172.0673610680943
 30
0.0
 10
91.72153318019463
 20
-171.7183728954385
 30
0.0
 10
91.72153318019463
 20
-171.4624023008844
 30
0.0
 10
91.8631266046384
 20
-171.3673176654915
 30
0.0
 10
91.96889103603556
 20
-171.3059949658541
 30
0.0
 10
91.84417857946951
 20
-171.2467393235078
 30
0.0
 10
91.76769745969698
 20
-171.1323621533975
 30
0.0
 10
91.76769745969698
 20
-170.9714761942363
 30
0.0
 10
91.76769745969698
 20
-170.6965575745134
 30
0.0
 10
91.96682397874442
 20
-170.561165321943
 30
0.0
 10
92.24174259846734
 20
-170.561165321943
 30
0.0
 10
92.5252739569034
 20
-170.561165321943
 30
0.0
 10
92.71578773723772
 20
-170.7051703132265
 30
0.0
 10
92.71578773723772
 20
-170.9714761942363
 30
0.0
 10
92.71578773723772
 20
-171.1323621533975
 30
0.0
 10
92.63723956017402
 20
-171.2467393235078
 30
0.0
 10
92.51252710360798
 20
-171.3059949658541
 30
0.0
 10
92.60141056712743
 20
-171.3566378694872
 30
0.0
 10
92.75988495944893
 20
-171.4517225048801
 30
0.0
 10
92.75988495944893
 20
-171.7142387808562
 30
0.0
 10
92.75988495944893
 20
-172.0887206601028
 30
0.0
 10
92.48083222514369
 20
-172.2048203779557
 30
0.0
 10
92.24174259846734
 20
-172.2048203779557
 30
0.0
  0
SPLINE
  5
D2
330
CD
100
AcDbEntity
  8
_U+30EC_U+30A4_U+30E4_U+30FC 1
370
     0
100
AcDbSpline
210
0.0
220
0.0
230
1.0
 70
    11
 71
     3
 72
    17
 73
    13
 74
     0
 42
0.0000000001
 43
0.0000000001
 12
1.0
 22
0.0
 32
0.0
 13
1.0
 23
0.0
 33
0.0
 40
0.0
 40
0.0
 40
0.0
 40
0.0
 40
1.0
 40
1.0
 40
1.0
 40
2.0
 40
2.0
 40
2.0
 40
3.0
 40
3.0
 40
3.0
 40
4.0
 40
4.0
 40
4.0
 40
4.0
 10
92.24174259846734
 20
-171.4138264545424
 30
0.0
 10
92.0977376071839
 20
-171.4138264545424
 30
0.0
 10
91.94546438673586
 20
-171.5006428607707
 30
0.0
 10
91.94546438673586
 20
-171.7035589848519
 30
0.0
 10
91.94546438673586
 20
-171.9088866757728
 30
0.0
 10
92.07258841014158
 20
-172.0101724830391
 30
0.0
 10
92.24174259846734
 20
-172.0101724830391
 30
0.0
 10
92.42777775467084
 20
-172.0101724830391
 30
0.0
 10
92.53802081019883
 20
-171.8875270837642
 30
0.0
 10
92.53802081019883
 20
-171.7097601567253
 30
0.0
 10
92.53802081019883
 20
-171.4878960074753
 30
0.0
 10
92.37506779374651
 20
-171.4138264545424
 30
0.0
 10
92.24174259846734
 20
-171.4138264545424
 30
0.0
  0
SPLINE
  5
D3
330
CD
100
AcDbEntity
  8
_U+30EC_U+30A4_U+30E4_U+30FC 1
370
     0
100
AcDbSpline
210
0.0
220
0.0
230
1.0
 70
    11
 71
     3
 72
    17
 73
    13
 74
     0
 42
0.0000000001
 43
0.0000000001
 12
1.0
 22
0.0
 32
0.0
 13
1.0
 23
0.0
 33
0.0
 40
0.0
 40
0.0
 40
0.0
 40
0.0
 40
1.0
 40
1.0
 40
1.0
 40
2.0
 40
2.0
 40
2.0
 40
3.0
 40
3.0
 40
3.0
 40
4.0
 40
4.0
 40
4.0
 40
4.0
 10
92.24174259846734
 20
-170.7537461595685
 30
0.0
 10
92.07672252472388
 20
-170.7537461595685
 30
0.0
 10
91.99231768533525
 20
-170.8488307949614
 30
0.0
 10
91.99231768533525
 20
-170.9842230475317
 30
0.0
 10
91.99231768533525
 20
-171.1068684468066
 30
0.0
 10
92.06397567142845
 20
-171.2253797314992
 30
0.0
 10
92.24174259846734
 20
-171.2253797314992
 30
0.0
 10
92.41950952550624
 20
-171.2253797314992
 30
0.0
 10
92.49116751159943
 20
-171.1068684468066
 30
0.0
 10
92.49116751159943
 20
-170.9842230475317
 30
0.0
 10
92.49116751159943
 20
-170.8488307949614
 30
0.0
 10
92.40469561491966
 20
-170.7537461595685
 30
0.0
 10
92.24174259846734
 20
-170.7537461595685
 30
0.0
  0
HATCH
  5
D4
330
CD
100
AcDbEntity
  8
_U+30EC_U+30A4_U+30E4_U+30FC 1
 62
   179
420
  2234388
100
AcDbHatch
 10
0.0
 20
0.0
 30
0.0
210
0.0
220
0.0
230
1.0
  2
SOLID
 70
     1
 71
     0
 91
        3
 92
        1
 93
        1
 72
     4
 94
        3
 73
     0
 74
     1
 95
       29
 96
       25
 40
0.0
 40
0.0
 40
0.0
 40
0.0
 40
1.0
 40
1.0
 40
1.0
 40
2.0
 40
2.0
 40
2.0
 40
3.0
 40
3.0
 40
3.0
 40
4.0
 40
4.0
 40
4.0
 40
5.0
 40
5.0
 40
5.0
 40
6.0
 40
6.0
 40
6.0
 40
7.0
 40
7.0
 40
7.0
 40
8.0
 40
8.0
 40
8.0
 40
8.0
 10
92.24174259846734
 20
-172.2048203779557
 10
91.97509220790901
 20
-172.2048203779557
 10
91.72153318019463
 20
-172.0673610680943
 10
91.72153318019463
 20
-171.7183728954385
 10
91.72153318019463
 20
-171.4624023008844
 10
91.8631266046384
 20
-171.3673176654915
 10
91.96889103603556
 20
-171.3059949658541
 10
91.84417857946951
 20
-171.2467393235078
 10
91.76769745969698
 20
-171.1323621533975
 10
91.76769745969698
 20
-170.9714761942363
 10
91.76769745969698
 20
-170.6965575745134
 10
91.96682397874442
 20
-170.561165321943
 10
92.24174259846734
 20
-170.561165321943
 10
92.5252739569034
 20
-170.561165321943
 10
92.71578773723772
 20
-170.7051703132265
 10
92.71578773723772
 20
-170.9714761942363
 10
92.71578773723772
 20
-171.1323621533975
 10
92.63723956017402
 20
-171.2467393235078
 10
92.51252710360798
 20
-171.3059949658541
 10
92.60141056712743
 20
-171.3566378694872
 10
92.75988495944893
 20
-171.4517225048801
 10
92.75988495944893
 20
-171.7142387808562
 10
92.75988495944893
 20
-172.0887206601028
 10
92.48083222514369
 20
-172.2048203779557
 10
92.24174259846734
 20
-172.2048203779557
 97
        0
 97
        0
 92
        1
 93
        1
 72
     4
 94
        3
 73
     0
 74
     1
 95
       17
 96
       13
 40
0.0
 40
0.0
 40
0.0
 40
0.0
 40
1.0
 40
1.0
 40
1.0
 40
2.0
 40
2.0
 40
2.0
 40
3.0
 40
3.0
 40
3.0
 40
4.0
 40
4.0
 40
4.0
 40
4.0
 10
92.24174259846734
 20
-171.4138264545424
 10
92.0977376071839
 20
-171.4138264545424
 10
91.94546438673586
 20
-171.5006428607707
 10
91.94546438673586
 20
-171.7035589848519
 10
91.94546438673586
 20
-171.9088866757728
 10
92.07258841014158
 20
-172.0101724830391
 10
92.24174259846734
 20
-172.0101724830391
 10
92.42777775467084
 20
-172.0101724830391
 10
92.53802081019883
 20
-171.8875270837642
 10
92.53802081019883
 20
-171.7097601567253
 10
92.53802081019883
 20
-171.4878960074753
 10
92.37506779374651
 20
-171.4138264545424
 10
92.24174259846734
 20
-171.4138264545424
 97
        0
 97
        0
 92
        1
 93
        1
 72
     4
 94
        3
 73
     0
 74
     1
 95
       17
 96
       13
 40
0.0
 40
0.0
 40
0.0
 40
0.0
 40
1.0
 40
1.0
 40
1.0
 40
2.0
 40
2.0
 40
2.0
 40
3.0
 40
3.0
 40
3.0
 40
4.0
 40
4.0
 40
4.0
 40
4.0
 10
92.24174259846734
 20
-170.7537461595685
 10
92.07672252472388
 20
-170.7537461595685
 10
91.99231768533525
 20
-170.8488307949614
 10
91.99231768533525
 20
-170.9842230475317
 10
91.99231768533525
 20
-171.1068684468066
 10
92.06397567142845
 20
-171.2253797314992
 10
92.24174259846734
 20
-171.2253797314992
 10
92.41950952550624
 20
-171.2253797314992
 10
92.49116751159943
 20
-171.1068684468066
 10
92.49116751159943
 20
-170.9842230475317
 10
92.49116751159943
 20
-170.8488307949614
 10
92.40469561491966
 20
-170.7537461595685
 10
92.24174259846734
 20
-170.7537461595685
 97
        0
 97
        0
 75
     2
 76
     1
 98
        0
  0
SPLINE
  5
D5
330
CD
100
AcDbEntity
  8
_U+30EC_U+30A4_U+30E4_U+30FC 1
370
     0
100
AcDbSpline
210
0.0
220
0.0
230
1.0
 70
    11
 71
     3
 72
    29
 73
    25
 74
     0
 42
0.0000000001
 43
0.0000000001
 12
1.0
 22
0.0
 32
0.0
 13
1.0
 23
0.0
 33
0.0
 40
0.0
 40
0.0
 40
0.0
 40
0.0
 40
1.0
 40
1.0
 40
1.0
 40
2.0
 40
2.0
 40
2.0
 40
3.0
 40
3.0
 40
3.0
 40
4.0
 40
4.0
 40
4.0
 40
5.0
 40
5.0
 40
5.0
 40
6.0
 40
6.0
 40
6.0
 40
7.0
 40
7.0
 40
7.0
 40
8.0
 40
8.0
 40
8.0
 40
8.0
 10
93.81615123522653
 20
-171.9764105472837
 30
0.0
 10
93.70866425608672
 20
-172.1858723527869
 30
0.0
 10
93.53503144363013
 20
-172.2048203779557
 30
0.0
 10
93.41858721622869
 20
-172.2048203779557
 30
0.0
 10
93.25804576661605
 20
-172.2048203779557
 30
0.0
 10
93.11610783262375
 20
-172.1583115889049
 30
0.0
 10
93.02102319723086
 20
-171.9764105472837
 30
0.0
 10
92.91732582312484
 20
-171.7817626523671
 30
0.0
 10
92.89837779795596
 20
-171.5450845925304
 30
0.0
 10
92.89837779795596
 20
-171.3821315760781
 30
0.0
 10
92.89837779795596
 20
-171.2381265847947
 30
0.0
 10
92.91491425628516
 20
-170.9862901048229
 30
0.0
 10
93.02102319723086
 20
-170.787508095324
 30
0.0
 10
93.12885468591918
 20
-170.5845919712428
 30
0.0
 10
93.28974064508034
 20
-170.561165321943
 30
0.0
 10
93.41858721622869
 20
-170.561165321943
 30
0.0
 10
93.57706160855018
 20
-170.561165321943
 30
0.0
 10
93.72106659983362
 20
-170.6056070537028
 30
0.0
 10
93.81615123522653
 20
-170.787508095324
 30
0.0
 10
93.91571449475025
 20
-170.9800889329494
 30
0.0
 10
93.93879663450141
 20
-171.2084987636215
 30
0.0
 10
93.93879663450141
 20
-171.3821315760781
 30
0.0
 10
93.93879663450141
 20
-171.553352821695
 30
0.0
 10
93.91812606158992
 20
-171.7838297096582
 30
0.0
 10
93.81615123522653
 20
-171.9764105472837
 30
0.0
  0
SPLINE
  5
D6
330
CD
100
AcDbEntity
  8
_U+30EC_U+30A4_U+30E4_U+30FC 1
370
     0
100
AcDbSpline
210
0.0
220
0.0
230
1.0
 70
    11
 71
     3
 72
    17
 73
    13
 74
     0
 42
0.0000000001
 43
0.0000000001
 12
1.0
 22
0.0
 32
0.0
 13
1.0
 23
0.0
 33
0.0
 40
0.0
 40
0.0
 40
0.0
 40
0.0
 40
1.0
 40
1.0
 40
1.0
 40
2.0
 40
2.0
 40
2.0
 40
3.0
 40
3.0
 40
3.0
 40
4.0
 40
4.0
 40
4.0
 40
4.0
 10
93.41858721622869
 20
-170.7537461595685
 30
0.0
 10
93.1691623030966
 20
-170.7537461595685
 30
0.0
 10
93.12230900449721
 20
-171.0372775180046
 30
0.0
 10
93.12230900449721
 20
-171.3821315760781
 30
0.0
 10
93.12230900449721
 20
-171.7014919275607
 30
0.0
 10
93.15848250709233
 20
-172.0101724830391
 30
0.0
 10
93.41858721622869
 20
-172.0101724830391
 30
0.0
 10
93.66594507206963
 20
-172.0101724830391
 30
0.0
 10
93.71486542796018
 20
-171.7290526914427
 30
0.0
 10
93.71486542796018
 20
-171.3821315760781
 30
0.0
 10
93.71486542796018
 20
-171.0624267150469
 30
0.0
 10
93.6766248680739
 20
-170.7537461595685
 30
0.0
 10
93.41858721622869
 20
-170.7537461595685
 30
0.0
  0
HATCH
  5
D7
330
CD
100
AcDbEntity
  8
_U+30EC_U+30A4_U+30E4_U+30FC 1
 62
   179
420
  2234388
100
AcDbHatch
 10
0.0
 20
0.0
 30
0.0
210
0.0
220
0.0
230
1.0
  2
SOLID
 70
     1
 71
     0
 91
        2
 92
        1
 93
        1
 72
     4
 94
        3
 73
     0
 74
     1
 95
       29
 96
       25
 40
0.0
 40
0.0
 40
0.0
 40
0.0
 40
1.0
 40
1.0
 40
1.0
 40
2.0
 40
2.0
 40
2.0
 40
3.0
 40
3.0
 40
3.0
 40
4.0
 40
4.0
 40
4.0
 40
5.0
 40
5.0
 40
5.0
 40
6.0
 40
6.0
 40
6.0
 40
7.0
 40
7.0
 40
7.0
 40
8.0
 40
8.0
 40
8.0
 40
8.0
 10
93.81615123522653
 20
-171.9764105472837
 10
93.70866425608672
 20
-172.1858723527869
 10
93.53503144363013
 20
-172.2048203779557
 10
93.41858721622869
 20
-172.2048203779557
 10
93.25804576661605
 20
-172.2048203779557
 10
93.11610783262375
 20
-172.1583115889049
 10
93.02102319723086
 20
-171.9764105472837
 10
92.91732582312484
 20
-171.7817626523671
 10
92.89837779795596
 20
-171.5450845925304
 10
92.89837779795596
 20
-171.3821315760781
 10
92.89837779795596
 20
-171.2381265847947
 10
92.91491425628516
 20
-170.9862901048229
 10
93.02102319723086
 20
-170.787508095324
 10
93.12885468591918
 20
-170.5845919712428
 10
93.28974064508034
 20
-170.561165321943
 10
93.41858721622869
 20
-170.561165321943
 10
93.57706160855018
 20
-170.561165321943
 10
93.72106659983362
 20
-170.6056070537028
 10
93.81615123522653
 20
-170.787508095324
 10
93.91571449475025
 20
-170.9800889329494
 10
93.93879663450141
 20
-171.2084987636215
 10
93.93879663450141
 20
-171.3821315760781
 10
93.93879663450141
 20
-171.553352821695
 10
93.91812606158992
 20
-171.7838297096582
 10
93.81615123522653
 20
-171.9764105472837
 97
        0
 97
        0
 92
        1
 93
        1
 72
     4
 94
        3
 73
     0
 74
     1
 95
       17
 96
       13
 40
0.0
 40
0.0
 40
0.0
 40
0.0
 40
1.0
 40
1.0
 40
1.0
 40
2.0
 40
2.0
 40
2.0
 40
3.0
 40
3.0
 40
3.0
 40
4.0
 40
4.0
 40
4.0
 40
4.0
 10
93.41858721622869
 20
-170.7537461595685
 10
93.1691623030966
 20
-170.7537461595685
 10
93.12230900449721
 20
-171.0372775180046
 10
93.12230900449721
 20
-171.3821315760781
 10
93.12230900449721
 20
-171.7014919275607
 10
93.15848250709233
 20
-172.0101724830391
 10
93.41858721622869
 20
-172.0101724830391
 10
93.66594507206963
 20
-172.0101724830391
 10
93.71486542796018
 20
-171.7290526914427
 10
93.71486542796018
 20
-171.3821315760781
 10
93.71486542796018
 20
-171.0624267150469
 10
93.6766248680739
 20
-170.7537461595685
 10
93.41858721622869
 20
-170.7537461595685
 97
        0
 97
        0
 75
     2
 76
     1
 98
        0
  0
ENDBLK
  5
D0
330
CD
100
AcDbEntity
  8
0
100
AcDbBlockEnd
  0
ENDSEC
  0
SECTION
  2
ENTITIES
  0
SPLINE
  5
41
330
1F
100
AcDbEntity
  8
_U+30EC_U+30A4_U+30E4_U+30FC 1
 62
   179
420
  2234388
370
    25
100
AcDbSpline
210
0.0
220
0.0
230
1.0
 70
    11
 71
     3
 72
    50
 73
    46
 74
     0
 42
0.0000000001
 43
0.0000000001
 12
1.0
 22
0.0
 32
0.0
 13
1.0
 23
0.0
 33
0.0
 40
0.0
 40
0.0
 40
0.0
 40
0.0
 40
1.0
 40
1.0
 40
1.0
 40
2.0
 40
2.0
 40
2.0
 40
3.0
 40
3.0
 40
3.0
 40
4.0
 40
4.0
 40
4.0
 40
5.0
 40
5.0
 40
5.0
 40
6.0
 40
6.0
 40
6.0
 40
7.0
 40
7.0
 40
7.0
 40
8.0
 40
8.0
 40
8.0
 40
9.0
 40
9.0
 40
9.0
 40
10.0
 40
10.0
 40
10.0
 40
11.0
 40
11.0
 40
11.0
 40
12.0
 40
12.0
 40
12.0
 40
13.0
 40
13.0
 40
13.0
 40
14.0
 40
14.0
 40
14.0
 40
15.0
 40
15.0
 40
15.0
 40
15.0
 10
104.4132590028625
 20
-168.1048199579735
 30
0.0
 10
104.4132590028625
 20
-168.1048199579735
 30
0.0
 10
107.4132458707709
 20
-168.1048199579735
 30
0.0
 10
107.4132458707709
 20
-168.1048199579735
 30
0.0
 10
107.4132458707709
 20
-168.1048199579735
 30
0.0
 10
134.4152090707823
 20
-166.9045288471628
 30
0.0
 10
134.4152090707823
 20
-166.9045288471628
 30
0.0
 10
134.4152090707823
 20
-166.9045288471628
 30
0.0
 10
134.4152090707823
 20
-166.304418569535
 30
0.0
 10
134.4152090707823
 20
-166.304418569535
 30
0.0
 10
134.4152090707823
 20
-166.304418569535
 30
0.0
 10
107.4132458707709
 20
-166.304418569535
 30
0.0
 10
107.4132458707709
 20
-166.304418569535
 30
0.0
 10
107.4132458707709
 20
-166.304418569535
 30
0.0
 10
106.2136603458193
 20
-166.304418569535
 30
0.0
 10
106.2136603458193
 20
-166.304418569535
 30
0.0
 10
92.40643236473773
 20
-166.304418569535
 30
0.0
 10
79.9063871280849
 20
-160.7081988487122
 30
0.0
 10
70.85820180336778
 20
-151.6599780176405
 30
0.0
 10
70.85820180336778
 20
-151.6599780176405
 30
0.0
 10
70.85820180336778
 20
-151.6593077398631
 30
0.0
 10
70.85820180336778
 20
-151.6593077398631
 30
0.0
 10
61.81001647865066
 20
-142.6111221865696
 30
0.0
 10
56.21309134366234
 20
-130.1116058008052
 30
0.0
 10
56.21309134366234
 20
-116.3042010820351
 30
0.0
 10
56.21309134366234
 20
-116.3042010820351
 30
0.0
 10
56.21309134366234
 20
-115.1042627490018
 30
0.0
 10
56.21309134366234
 20
-115.1042627490018
 30
0.0
 10
56.21309134366234
 20
-115.1042627490018
 30
0.0
 10
56.2137968991999
 20
-88.104027477974
 30
0.0
 10
56.2137968991999
 20
-88.104027477974
 30
0.0
 10
56.2137968991999
 20
-88.104027477974
 30
0.0
 10
55.61365276387452
 20
-88.104027477974
 30
0.0
 10
55.61365276387452
 20
-88.104027477974
 30
0.0
 10
55.61365276387452
 20
-88.104027477974
 30
0.0
 10
54.41339555624307
 20
-115.1042627490018
 30
0.0
 10
54.41339555624307
 20
-115.1042627490018
 30
0.0
 10
54.41339555624307
 20
-115.1042627490018
 30
0.0
 10
54.41339555624307
 20
-118.1042496926961
 30
0.0
 10
54.41339555624307
 20
-118.1042496926961
 30
0.0
 10
54.41339555624307
 20
-131.9113369114664
 30
0.0
 10
60.00961665166418
 20
-144.4115235750081
 30
0.0
 10
69.05780046041096
 20
-153.4597091283017
 30
0.0
 10
78.10598578512807
 20
-162.5078946815952
 30
0.0
 10
90.60617213288842
 20
-168.1048199579735
 30
0.0
 10
104.4132590028625
 20
-168.1048199579735
 30
0.0
  0
POLYLINE
  5
42
330
1F
100
AcDbEntity
  8
_U+30EC_U+30A4_U+30E4_U+30FC 1
 62
   179
420
  2234388
370
     9
100
AcDb2dPolyline
 66
     1
 10
0.0
 20
0.0
 30
0.0
  0
VERTEX
  5
43
330
42
100
AcDbEntity
  8
_U+30EC_U+30A4_U+30E4_U+30FC 1
 62
   179
420
  2234388
370
     9
100
AcDbVertex
100
AcDb2dVertex
 10
68.44181519834827
 20
-154.5262974613683
 30
0.0
  0
VERTEX
  5
44
330
42
100
AcDbEntity
  8
_U+30EC_U+30A4_U+30E4_U+30FC 1
 62
   179
420
  2234388
370
     9
100
AcDbVertex
100
AcDb2dVertex
 10
69.05780046041096
 20
-153.4597091283017
 30
0.0
  0
SEQEND
  5
45
330
42
100
AcDbEntity
  8
_U+30EC_U+30A4_U+30E4_U+30FC 1
 62
   179
420
  2234388
370
     9
  0
POLYLINE
  5
46
330
1F
100
AcDbEntity
  8
_U+30EC_U+30A4_U+30E4_U+30FC 1
 62
   179
420
  2234388
370
     9
100
AcDb2dPolyline
 66
     1
 10
0.0
 20
0.0
 30
0.0
  0
VERTEX
  5
47
330
46
100
AcDbEntity
  8
_U+30EC_U+30A4_U+30E4_U+30FC 1
 62
   179
420
  2234388
370
     9
100
AcDbVertex
100
AcDb2dVertex
 10
67.991213871891
 20
-154.07498885037
 30
0.0
  0
VERTEX
  5
48
330
46
100
AcDbEntity
  8
_U+30EC_U+30A4_U+30E4_U+30FC 1
 62
   179
420
  2234388
370
     9
100
AcDbVertex
100
AcDb2dVertex
 10
69.05780046041096
 20
-153.4597091283017
 30
0.0
  0
SEQEND
  5
49
330
46
100
AcDbEntity
  8
_U+30EC_U+30A4_U+30E4_U+30FC 1
 62
   179
420
  2234388
370
     9
  0
POLYLINE
  5
4A
330
1F
100
AcDbEntity
  8
_U+30EC_U+30A4_U+30E4_U+30FC 1
 62
   179
420
  2234388
370
     9
100
AcDb2dPolyline
 66
     1
 10
0.0
 20
0.0
 30
0.0
  0
VERTEX
  5
4B
330
4A
100
AcDbEntity
  8
_U+30EC_U+30A4_U+30E4_U+30FC 1
 62
   179
420
  2234388
370
     9
100
AcDbVertex
100
AcDb2dVertex
 10
49.58474984609875
 20
-172.9327602345448
 30
0.0
  0
VERTEX
  5
4C
330
4A
100
AcDbEntity
  8
_U+30EC_U+30A4_U+30E4_U+30FC 1
 62
   179
420
  2234388
370
     9
100
AcDbVertex
100
AcDb2dVertex
 10
69.05780046041096
 20
-153.4597091283017
 30
0.0
  0
SEQEND
  5
4D
330
4A
100
AcDbEntity
  8
_U+30EC_U+30A4_U+30E4_U+30FC 1
 62
   179
420
  2234388
370
     9
  0
POLYLINE
  5
4E
330
1F
100
AcDbEntity
  8
_U+30EC_U+30A4_U+30E4_U+30FC 1
 62
   179
420
  2234388
370
     9
100
AcDb2dPolyline
 66
     1
 10
0.0
 20
0.0
 30
0.0
  0
VERTEX
  5
4F
330
4E
100
AcDbEntity
  8
_U+30EC_U+30A4_U+30E4_U+30FC 1
 62
   179
420
  2234388
370
     9
100
AcDbVertex
100
AcDb2dVertex
 10
43.2216619528791
 20
-172.9327602345448
 30
0.0
  0
VERTEX
  5
50
330
4E
100
AcDbEntity
  8
_U+30EC_U+30A4_U+30E4_U+30FC 1
 62
   179
420
  2234388
370
     9
100
AcDbVertex
100
AcDb2dVertex
 10
49.58474984609875
 20
-172.9327602345448
 30
0.0
  0
SEQEND
  5
51
330
4E
100
AcDbEntity
  8
_U+30EC_U+30A4_U+30E4_U+30FC 1
 62
   179
420
  2234388
370
     9
  0
SPLINE
  5
52
330
1F
100
AcDbEntity
  8
_U+30EC_U+30A4_U+30E4_U+30FC 1
 62
   179
420
  2234388
370
     9
100
AcDbSpline
210
0.0
220
0.0
230
1.0
 70
    11
 71
     3
 72
    17
 73
    13
 74
     0
 42
0.0000000001
 43
0.0000000001
 12
1.0
 22
0.0
 32
0.0
 13
1.0
 23
0.0
 33
0.0
 40
0.0
 40
0.0
 40
0.0
 40
0.0
 40
1.0
 40
1.0
 40
1.0
 40
2.0
 40
2.0
 40
2.0
 40
3.0
 40
3.0
 40
3.0
 40
4.0
 40
4.0
 40
4.0
 40
4.0
 10
137.4214082989777
 20
-166.9045288471628
 30
0.0
 10
137.4214082989777
 20
-166.8370071805132
 30
0.0
 10
137.3663009399382
 20
-166.7819032916376
 30
0.0
 10
137.2987792749941
 20
-166.7819032916376
 30
0.0
 10
137.2305555212479
 20
-166.7819032916376
 30
0.0
 10
137.1754481670294
 20
-166.8370071805132
 30
0.0
 10
137.1754481670294
 20
-166.9045288471628
 30
0.0
 10
137.1754481670294
 20
-166.972756069368
 30
0.0
 10
137.2305555212479
 20
-167.0278599582429
 30
0.0
 10
137.2987792749941
 20
-167.0278599582429
 30
0.0
 10
137.3663009399382
 20
-167.0278599582429
 30
0.0
 10
137.4214082989777
 20
-166.972756069368
 30
0.0
 10
137.4214082989777
 20
-166.9045288471628
 30
0.0
  0
SPLINE
  5
53
330
1F
100
AcDbEntity
  8
_U+30EC_U+30A4_U+30E4_U+30FC 1
 62
   179
420
  2234388
370
     9
100
AcDbSpline
210
0.0
220
0.0
230
1.0
 70
    11
 71
     3
 72
    17
 73
    13
 74
     0
 42
0.0000000001
 43
0.0000000001
 12
1.0
 22
0.0
 32
0.0
 13
1.0
 23
0.0
 33
0.0
 40
0.0
 40
0.0
 40
0.0
 40
0.0
 40
1.0
 40
1.0
 40
1.0
 40
2.0
 40
2.0
 40
2.0
 40
3.0
 40
3.0
 40
3.0
 40
4.0
 40
4.0
 40
4.0
 40
4.0
 10
134.4937726798891
 20
-173.0312910678536
 30
0.0
 10
134.4937726798891
 20
-172.9637694012033
 30
0.0
 10
134.4393390701667
 20
-172.9086655123283
 30
0.0
 10
134.3704415719244
 20
-172.9086655123283
 30
0.0
 10
134.3022143514428
 20
-172.9086655123283
 30
0.0
 10
134.247113855327
 20
-172.9637694012033
 30
0.0
 10
134.247113855327
 20
-173.0312910678536
 30
0.0
 10
134.247113855327
 20
-173.0995182900588
 30
0.0
 10
134.3022143514428
 20
-173.1546221789337
 30
0.0
 10
134.3704415719244
 20
-173.1546221789337
 30
0.0
 10
134.4393390701667
 20
-173.1546221789337
 30
0.0
 10
134.4937726798891
 20
-173.0995182900588
 30
0.0
 10
134.4937726798891
 20
-173.0312910678536
 30
0.0
  0
SPLINE
  5
54
330
1F
100
AcDbEntity
  8
_U+30EC_U+30A4_U+30E4_U+30FC 1
 62
   179
420
  2234388
370
     9
100
AcDbSpline
210
0.0
220
0.0
230
1.0
 70
    11
 71
     3
 72
    17
 73
    13
 74
     0
 42
0.0000000001
 43
0.0000000001
 12
1.0
 22
0.0
 32
0.0
 13
1.0
 23
0.0
 33
0.0
 40
0.0
 40
0.0
 40
0.0
 40
0.0
 40
1.0
 40
1.0
 40
1.0
 40
2.0
 40
2.0
 40
2.0
 40
3.0
 40
3.0
 40
3.0
 40
4.0
 40
4.0
 40
4.0
 40
4.0
 10
54.53672666420774
 20
-173.0312910678536
 30
0.0
 10
54.53672666420774
 20
-172.9637694012033
 30
0.0
 10
54.48158887526839
 20
-172.9086655123283
 30
0.0
 10
54.41269000070552
 20
-172.9086655123283
 30
0.0
 10
54.34587389129903
 20
-172.9086655123283
 30
0.0
 10
54.29073609753858
 20
-172.9637694012033
 30
0.0
 10
54.29073609753858
 20
-173.0312910678536
 30
0.0
 10
54.29073609753858
 20
-173.0995182900588
 30
0.0
 10
54.34587389129903
 20
-173.1546221789337
 30
0.0
 10
54.41269000070552
 20
-173.1546221789337
 30
0.0
 10
54.48158887526839
 20
-173.1546221789337
 30
0.0
 10
54.53672666420774
 20
-173.0995182900588
 30
0.0
 10
54.53672666420774
 20
-173.0312910678536
 30
0.0
  0
SPLINE
  5
55
330
1F
100
AcDbEntity
  8
_U+30EC_U+30A4_U+30E4_U+30FC 1
 62
   179
420
  2234388
370
     9
100
AcDbSpline
210
0.0
220
0.0
230
1.0
 70
    11
 71
     3
 72
    17
 73
    13
 74
     0
 42
0.0000000001
 43
0.0000000001
 12
1.0
 22
0.0
 32
0.0
 13
1.0
 23
0.0
 33
0.0
 40
0.0
 40
0.0
 40
0.0
 40
0.0
 40
1.0
 40
1.0
 40
1.0
 40
2.0
 40
2.0
 40
2.0
 40
3.0
 40
3.0
 40
3.0
 40
4.0
 40
4.0
 40
4.0
 40
4.0
 10
55.73631218915932
 20
-85.55153914527894
 30
0.0
 10
55.73631218915932
 20
-85.48331192307373
 30
0.0
 10
55.68117302389938
 20
-85.42887831197618
 30
0.0
 10
55.61298108119465
 20
-85.42887831197618
 30
0.0
 10
55.54545941625061
 20
-85.42887831197618
 30
0.0
 10
55.49032025099066
 20
-85.48331192307373
 30
0.0
 10
55.49032025099066
 20
-85.55153914527894
 30
0.0
 10
55.49032025099066
 20
-85.61976636748382
 30
0.0
 10
55.54545941625061
 20
-85.67487025635906
 30
0.0
 10
55.61298108119465
 20
-85.67487025635906
 30
0.0
 10
55.68117302389938
 20
-85.67487025635906
 30
0.0
 10
55.73631218915932
 20
-85.61976636748382
 30
0.0
 10
55.73631218915932
 20
-85.55153914527894
 30
0.0
  0
SPLINE
  5
56
330
1F
100
AcDbEntity
  8
_U+30EC_U+30A4_U+30E4_U+30FC 1
 62
   179
420
  2234388
370
     9
100
AcDbSpline
210
0.0
220
0.0
230
1.0
 70
    11
 71
     3
 72
    17
 73
    13
 74
     0
 42
0.0000000001
 43
0.0000000001
 12
1.0
 22
0.0
 32
0.0
 13
1.0
 23
0.0
 33
0.0
 40
0.0
 40
0.0
 40
0.0
 40
0.0
 40
1.0
 40
1.0
 40
1.0
 40
2.0
 40
2.0
 40
2.0
 40
3.0
 40
3.0
 40
3.0
 40
4.0
 40
4.0
 40
4.0
 40
4.0
 10
49.60919734547505
 20
-88.06095331131824
 30
0.0
 10
49.60919734547505
 20
-87.99272608911303
 30
0.0
 10
49.55511651352143
 20
-87.93829247801548
 30
0.0
 10
49.48621901527915
 20
-87.93829247801548
 30
0.0
 10
49.41834457256633
 20
-87.93829247801548
 30
0.0
 10
49.36355818507516
 20
-87.99272608911303
 30
0.0
 10
49.36355818507516
 20
-88.06095331131824
 30
0.0
 10
49.36355818507516
 20
-88.1291452557456
 30
0.0
 10
49.41834457256633
 20
-88.18428442239836
 30
0.0
 10
49.48621901527915
 20
-88.18428442239836
 30
0.0
 10
49.55511651352143
 20
-88.18428442239836
 30
0.0
 10
49.60919734547505
 20
-88.1291452557456
 30
0.0
 10
49.60919734547505
 20
-88.06095331131824
 30
0.0
  0
SPLINE
  5
57
330
1F
100
AcDbEntity
  8
_U+30EC_U+30A4_U+30E4_U+30FC 1
 62
   179
420
  2234388
370
     9
100
AcDbSpline
210
0.0
220
0.0
230
1.0
 70
    11
 71
     3
 72
    17
 73
    13
 74
     0
 42
0.0000000001
 43
0.0000000001
 12
1.0
 22
0.0
 32
0.0
 13
1.0
 23
0.0
 33
0.0
 40
0.0
 40
0.0
 40
0.0
 40
0.0
 40
1.0
 40
1.0
 40
1.0
 40
2.0
 40
2.0
 40
2.0
 40
3.0
 40
3.0
 40
3.0
 40
4.0
 40
4.0
 40
4.0
 40
4.0
 10
49.60919734547505
 20
-168.1048199579735
 30
0.0
 10
49.60919734547505
 20
-168.0372982913239
 30
0.0
 10
49.55511651352143
 20
-167.9821591246714
 30
0.0
 10
49.48621901527915
 20
-167.9821591246714
 30
0.0
 10
49.41834457256633
 20
-167.9821591246714
 30
0.0
 10
49.36355818507516
 20
-168.0372982913239
 30
0.0
 10
49.36355818507516
 20
-168.1048199579735
 30
0.0
 10
49.36355818507516
 20
-168.1730119024012
 30
0.0
 10
49.41834457256633
 20
-168.2281510690543
 30
0.0
 10
49.48621901527915
 20
-168.2281510690543
 30
0.0
 10
49.55511651352143
 20
-168.2281510690543
 30
0.0
 10
49.60919734547505
 20
-168.1730119024012
 30
0.0
 10
49.60919734547505
 20
-168.1048199579735
 30
0.0
  0
INSERT
  5
59
330
1F
100
AcDbEntity
  8
_U+30EC_U+30A4_U+30E4_U+30FC 1
100
AcDbBlockReference
  2
block 2
 10
0.0
 20
0.0
 30
0.0
  0
POLYLINE
  5
64
330
1F
100
AcDbEntity
  8
_U+30EC_U+30A4_U+30E4_U+30FC 1
 62
   179
420
  2234388
370
     9
100
AcDb2dPolyline
 66
     1
 10
0.0
 20
0.0
 30
0.0
  0
VERTEX
  5
65
330
64
100
AcDbEntity
  8
_U+30EC_U+30A4_U+30E4_U+30FC 1
 62
   179
420
  2234388
370
     9
100
AcDbVertex
100
AcDb2dVertex
 10
137.2987792749941
 20
-166.4112044028417
 30
0.0
  0
VERTEX
  5
66
330
64
100
AcDbEntity
  8
_U+30EC_U+30A4_U+30E4_U+30FC 1
 62
   179
420
  2234388
370
     9
100
AcDbVertex
100
AcDb2dVertex
 10
137.2987792749941
 20
-159.9351216266827
 30
0.0
  0
SEQEND
  5
67
330
64
100
AcDbEntity
  8
_U+30EC_U+30A4_U+30E4_U+30FC 1
 62
   179
420
  2234388
370
     9
  0
POLYLINE
  5
68
330
1F
100
AcDbEntity
  8
_U+30EC_U+30A4_U+30E4_U+30FC 1
 62
   179
420
  2234388
370
     9
100
AcDb2dPolyline
 66
     1
 10
0.0
 20
0.0
 30
0.0
  0
VERTEX
  5
69
330
68
100
AcDbEntity
  8
_U+30EC_U+30A4_U+30E4_U+30FC 1
 62
   179
420
  2234388
370
     9
100
AcDbVertex
100
AcDb2dVertex
 10
137.2987792749941
 20
-166.4112044028417
 30
0.0
  0
VERTEX
  5
6A
330
68
100
AcDbEntity
  8
_U+30EC_U+30A4_U+30E4_U+30FC 1
 62
   179
420
  2234388
370
     9
100
AcDbVertex
100
AcDb2dVertex
 10
137.2987792749941
 20
-168.1364994024106
 30
0.0
  0
SEQEND
  5
6B
330
68
100
AcDbEntity
  8
_U+30EC_U+30A4_U+30E4_U+30FC 1
 62
   179
420
  2234388
370
     9
  0
POLYLINE
  5
6C
330
1F
100
AcDbEntity
  8
_U+30EC_U+30A4_U+30E4_U+30FC 1
 62
   179
420
  2234388
370
     9
100
AcDb2dPolyline
 66
     1
 10
0.0
 20
0.0
 30
0.0
  0
VERTEX
  5
6D
330
6C
100
AcDbEntity
  8
_U+30EC_U+30A4_U+30E4_U+30FC 1
 62
   179
420
  2234388
370
     9
100
AcDbVertex
100
AcDb2dVertex
 10
135.5004240430962
 20
-166.9045288471628
 30
0.0
  0
VERTEX
  5
6E
330
6C
100
AcDbEntity
  8
_U+30EC_U+30A4_U+30E4_U+30FC 1
 62
   179
420
  2234388
370
     9
100
AcDbVertex
100
AcDb2dVertex
 10
138.5300442435819
 20
-166.9045288471628
 30
0.0
  0
SEQEND
  5
6F
330
6C
100
AcDbEntity
  8
_U+30EC_U+30A4_U+30E4_U+30FC 1
 62
   179
420
  2234388
370
     9
  0
SPLINE
  5
70
330
1F
100
AcDbEntity
  8
_U+30EC_U+30A4_U+30E4_U+30FC 1
 62
   179
420
  2234388
370
     9
100
AcDbSpline
210
0.0
220
0.0
230
1.0
 70
    11
 71
     3
 72
    17
 73
    13
 74
     0
 42
0.0000000001
 43
0.0000000001
 12
1.0
 22
0.0
 32
0.0
 13
1.0
 23
0.0
 33
0.0
 40
0.0
 40
0.0
 40
0.0
 40
0.0
 40
1.0
 40
1.0
 40
1.0
 40
2.0
 40
2.0
 40
2.0
 40
3.0
 40
3.0
 40
3.0
 40
4.0
 40
4.0
 40
4.0
 40
4.0
 10
137.4214082989777
 20
-166.304418569535
 30
0.0
 10
137.4214082989777
 20
-166.2368969028853
 30
0.0
 10
137.3663009399382
 20
-166.1817577362322
 30
0.0
 10
137.2987792749941
 20
-166.1817577362322
 30
0.0
 10
137.2305555212479
 20
-166.1817577362322
 30
0.0
 10
137.1754481670294
 20
-166.2368969028853
 30
0.0
 10
137.1754481670294
 20
-166.304418569535
 30
0.0
 10
137.1754481670294
 20
-166.3726105139627
 30
0.0
 10
137.2305555212479
 20
-166.4277496806151
 30
0.0
 10
137.2987792749941
 20
-166.4277496806151
 30
0.0
 10
137.3663009399382
 20
-166.4277496806151
 30
0.0
 10
137.4214082989777
 20
-166.3726105139627
 30
0.0
 10
137.4214082989777
 20
-166.304418569535
 30
0.0
  0
POLYLINE
  5
71
330
1F
100
AcDbEntity
  8
_U+30EC_U+30A4_U+30E4_U+30FC 1
 62
   179
420
  2234388
370
     9
100
AcDb2dPolyline
 66
     1
 10
0.0
 20
0.0
 30
0.0
  0
VERTEX
  5
72
330
71
100
AcDbEntity
  8
_U+30EC_U+30A4_U+30E4_U+30FC 1
 62
   179
420
  2234388
370
     9
100
AcDbVertex
100
AcDb2dVertex
 10
135.5004240430962
 20
-166.304418569535
 30
0.0
  0
VERTEX
  5
73
330
71
100
AcDbEntity
  8
_U+30EC_U+30A4_U+30E4_U+30FC 1
 62
   179
420
  2234388
370
     9
100
AcDbVertex
100
AcDb2dVertex
 10
138.5300442435819
 20
-166.304418569535
 30
0.0
  0
SEQEND
  5
74
330
71
100
AcDbEntity
  8
_U+30EC_U+30A4_U+30E4_U+30FC 1
 62
   179
420
  2234388
370
     9
  0
INSERT
  5
76
330
1F
100
AcDbEntity
  8
_U+30EC_U+30A4_U+30E4_U+30FC 1
100
AcDbBlockReference
  2
block 3
 10
0.0
 20
0.0
 30
0.0
  0
POLYLINE
  5
87
330
1F
100
AcDbEntity
  8
_U+30EC_U+30A4_U+30E4_U+30FC 1
 62
   179
420
  2234388
370
     9
100
AcDb2dPolyline
 66
     1
 10
0.0
 20
0.0
 30
0.0
  0
VERTEX
  5
88
330
87
100
AcDbEntity
  8
_U+30EC_U+30A4_U+30E4_U+30FC 1
 62
   179
420
  2234388
370
     9
100
AcDbVertex
100
AcDb2dVertex
 10
56.10563523529266
 20
-85.55153914527894
 30
0.0
  0
VERTEX
  5
89
330
87
100
AcDbEntity
  8
_U+30EC_U+30A4_U+30E4_U+30FC 1
 62
   179
420
  2234388
370
     9
100
AcDbVertex
100
AcDb2dVertex
 10
63.81435864973785
 20
-85.55153914527894
 30
0.0
  0
SEQEND
  5
8A
330
87
100
AcDbEntity
  8
_U+30EC_U+30A4_U+30E4_U+30FC 1
 62
   179
420
  2234388
370
     9
  0
POLYLINE
  5
8B
330
1F
100
AcDbEntity
  8
_U+30EC_U+30A4_U+30E4_U+30FC 1
 62
   179
420
  2234388
370
     9
100
AcDb2dPolyline
 66
     1
 10
0.0
 20
0.0
 30
0.0
  0
VERTEX
  5
8C
330
8B
100
AcDbEntity
  8
_U+30EC_U+30A4_U+30E4_U+30FC 1
 62
   179
420
  2234388
370
     9
100
AcDbVertex
100
AcDb2dVertex
 10
56.10563523529266
 20
-85.55153914527894
 30
0.0
  0
VERTEX
  5
8D
330
8B
100
AcDbEntity
  8
_U+30EC_U+30A4_U+30E4_U+30FC 1
 62
   179
420
  2234388
370
     9
100
AcDbVertex
100
AcDb2dVertex
 10
54.38168083482996
 20
-85.55153914527894
 30
0.0
  0
SEQEND
  5
8E
330
8B
100
AcDbEntity
  8
_U+30EC_U+30A4_U+30E4_U+30FC 1
 62
   179
420
  2234388
370
     9
  0
POLYLINE
  5
8F
330
1F
100
AcDbEntity
  8
_U+30EC_U+30A4_U+30E4_U+30FC 1
 62
   179
420
  2234388
370
     9
100
AcDb2dPolyline
 66
     1
 10
0.0
 20
0.0
 30
0.0
  0
VERTEX
  5
90
330
8F
100
AcDbEntity
  8
_U+30EC_U+30A4_U+30E4_U+30FC 1
 62
   179
420
  2234388
370
     9
100
AcDbVertex
100
AcDb2dVertex
 10
55.61365276387452
 20
-87.3498944226069
 30
0.0
  0
VERTEX
  5
91
330
8F
100
AcDbEntity
  8
_U+30EC_U+30A4_U+30E4_U+30FC 1
 62
   179
420
  2234388
370
     9
100
AcDbVertex
100
AcDb2dVertex
 10
55.61365276387452
 20
-84.31889831225348
 30
0.0
  0
SEQEND
  5
92
330
8F
100
AcDbEntity
  8
_U+30EC_U+30A4_U+30E4_U+30FC 1
 62
   179
420
  2234388
370
     9
  0
SPLINE
  5
93
330
1F
100
AcDbEntity
  8
_U+30EC_U+30A4_U+30E4_U+30FC 1
 62
   179
420
  2234388
370
     9
100
AcDbSpline
210
0.0
220
0.0
230
1.0
 70
    11
 71
     3
 72
    17
 73
    13
 74
     0
 42
0.0000000001
 43
0.0000000001
 12
1.0
 22
0.0
 32
0.0
 13
1.0
 23
0.0
 33
0.0
 40
0.0
 40
0.0
 40
0.0
 40
0.0
 40
1.0
 40
1.0
 40
1.0
 40
2.0
 40
2.0
 40
2.0
 40
3.0
 40
3.0
 40
3.0
 40
4.0
 40
4.0
 40
4.0
 40
4.0
 10
56.33575217386633
 20
-85.55153914527894
 30
0.0
 10
56.33575217386633
 20
-85.48331192307373
 30
0.0
 10
56.28131856414394
 20
-85.42887831197618
 30
0.0
 10
56.21309134366234
 20
-85.42887831197618
 30
0.0
 10
56.14489940095762
 20
-85.42887831197618
 30
0.0
 10
56.09046579123522
 20
-85.48331192307373
 30
0.0
 10
56.09046579123522
 20
-85.55153914527894
 30
0.0
 10
56.09046579123522
 20
-85.61976636748382
 30
0.0
 10
56.14489940095762
 20
-85.67487025635906
 30
0.0
 10
56.21309134366234
 20
-85.67487025635906
 30
0.0
 10
56.28131856414394
 20
-85.67487025635906
 30
0.0
 10
56.33575217386633
 20
-85.61976636748382
 30
0.0
 10
56.33575217386633
 20
-85.55153914527894
 30
0.0
  0
POLYLINE
  5
94
330
1F
100
AcDbEntity
  8
_U+30EC_U+30A4_U+30E4_U+30FC 1
 62
   179
420
  2234388
370
     9
100
AcDb2dPolyline
 66
     1
 10
0.0
 20
0.0
 30
0.0
  0
VERTEX
  5
95
330
94
100
AcDbEntity
  8
_U+30EC_U+30A4_U+30E4_U+30FC 1
 62
   179
420
  2234388
370
     9
100
AcDbVertex
100
AcDb2dVertex
 10
56.21309134366234
 20
-87.3498944226069
 30
0.0
  0
VERTEX
  5
96
330
94
100
AcDbEntity
  8
_U+30EC_U+30A4_U+30E4_U+30FC 1
 62
   179
420
  2234388
370
     9
100
AcDbVertex
100
AcDb2dVertex
 10
56.21309134366234
 20
-84.31889831225348
 30
0.0
  0
SEQEND
  5
97
330
94
100
AcDbEntity
  8
_U+30EC_U+30A4_U+30E4_U+30FC 1
 62
   179
420
  2234388
370
     9
  0
INSERT
  5
99
330
1F
100
AcDbEntity
  8
_U+30EC_U+30A4_U+30E4_U+30FC 1
100
AcDbBlockReference
  2
block 4
 10
0.0
 20
0.0
 30
0.0
  0
POLYLINE
  5
AA
330
1F
100
AcDbEntity
  8
_U+30EC_U+30A4_U+30E4_U+30FC 1
 62
   179
420
  2234388
370
     9
100
AcDb2dPolyline
 66
     1
 10
0.0
 20
0.0
 30
0.0
  0
VERTEX
  5
AB
330
AA
100
AcDbEntity
  8
_U+30EC_U+30A4_U+30E4_U+30FC 1
 62
   179
420
  2234388
370
     9
100
AcDbVertex
100
AcDb2dVertex
 10
49.48657179304793
 20
-88.06095331131824
 30
0.0
  0
VERTEX
  5
AC
330
AA
100
AcDbEntity
  8
_U+30EC_U+30A4_U+30E4_U+30FC 1
 62
   179
420
  2234388
370
     9
100
AcDbVertex
100
AcDb2dVertex
 10
49.48657179304793
 20
-168.1048199579735
 30
0.0
  0
SEQEND
  5
AD
330
AA
100
AcDbEntity
  8
_U+30EC_U+30A4_U+30E4_U+30FC 1
 62
   179
420
  2234388
370
     9
  0
POLYLINE
  5
AE
330
1F
100
AcDbEntity
  8
_U+30EC_U+30A4_U+30E4_U+30FC 1
 62
   179
420
  2234388
370
     9
100
AcDb2dPolyline
 66
     1
 10
0.0
 20
0.0
 30
0.0
  0
VERTEX
  5
AF
330
AE
100
AcDbEntity
  8
_U+30EC_U+30A4_U+30E4_U+30FC 1
 62
   179
420
  2234388
370
     9
100
AcDbVertex
100
AcDb2dVertex
 10
52.27037776471007
 20
-88.06095331131824
 30
0.0
  0
VERTEX
  5
B0
330
AE
100
AcDbEntity
  8
_U+30EC_U+30A4_U+30E4_U+30FC 1
 62
   179
420
  2234388
370
     9
100
AcDbVertex
100
AcDb2dVertex
 10
48.25460126892256
 20
-88.06095331131824
 30
0.0
  0
SEQEND
  5
B1
330
AE
100
AcDbEntity
  8
_U+30EC_U+30A4_U+30E4_U+30FC 1
 62
   179
420
  2234388
370
     9
  0
POLYLINE
  5
B2
330
1F
100
AcDbEntity
  8
_U+30EC_U+30A4_U+30E4_U+30FC 1
 62
   179
420
  2234388
370
     9
100
AcDb2dPolyline
 66
     1
 10
0.0
 20
0.0
 30
0.0
  0
VERTEX
  5
B3
330
B2
100
AcDbEntity
  8
_U+30EC_U+30A4_U+30E4_U+30FC 1
 62
   179
420
  2234388
370
     9
100
AcDbVertex
100
AcDb2dVertex
 10
99.92155133967773
 20
-168.1048199579735
 30
0.0
  0
VERTEX
  5
B4
330
B2
100
AcDbEntity
  8
_U+30EC_U+30A4_U+30E4_U+30FC 1
 62
   179
420
  2234388
370
     9
100
AcDbVertex
100
AcDb2dVertex
 10
48.25460126892256
 20
-168.1048199579735
 30
0.0
  0
SEQEND
  5
B5
330
B2
100
AcDbEntity
  8
_U+30EC_U+30A4_U+30E4_U+30FC 1
 62
   179
420
  2234388
370
     9
  0
INSERT
  5
B7
330
1F
100
AcDbEntity
  8
_U+30EC_U+30A4_U+30E4_U+30FC 1
100
AcDbBlockReference
  2
block 5
 10
0.0
 20
0.0
 30
0.0
  0
POLYLINE
  5
C1
330
1F
100
AcDbEntity
  8
_U+30EC_U+30A4_U+30E4_U+30FC 1
 62
   179
420
  2234388
370
     9
100
AcDb2dPolyline
 66
     1
 10
0.0
 20
0.0
 30
0.0
  0
VERTEX
  5
C2
330
C1
100
AcDbEntity
  8
_U+30EC_U+30A4_U+30E4_U+30FC 1
 62
   179
420
  2234388
370
     9
100
AcDbVertex
100
AcDb2dVertex
 10
134.3704415719244
 20
-173.0312910678536
 30
0.0
  0
VERTEX
  5
C3
330
C1
100
AcDbEntity
  8
_U+30EC_U+30A4_U+30E4_U+30FC 1
 62
   179
420
  2234388
370
     9
100
AcDbVertex
100
AcDb2dVertex
 10
54.41339555624307
 20
-173.0312910678536
 30
0.0
  0
SEQEND
  5
C4
330
C1
100
AcDbEntity
  8
_U+30EC_U+30A4_U+30E4_U+30FC 1
 62
   179
420
  2234388
370
     9
  0
POLYLINE
  5
C5
330
1F
100
AcDbEntity
  8
_U+30EC_U+30A4_U+30E4_U+30FC 1
 62
   179
420
  2234388
370
     9
100
AcDb2dPolyline
 66
     1
 10
0.0
 20
0.0
 30
0.0
  0
VERTEX
  5
C6
330
C5
100
AcDbEntity
  8
_U+30EC_U+30A4_U+30E4_U+30FC 1
 62
   179
420
  2234388
370
     9
100
AcDbVertex
100
AcDb2dVertex
 10
134.3704415719244
 20
-170.2476627352159
 30
0.0
  0
VERTEX
  5
C7
330
C5
100
AcDbEntity
  8
_U+30EC_U+30A4_U+30E4_U+30FC 1
 62
   179
420
  2234388
370
     9
100
AcDbVertex
100
AcDb2dVertex
 10
134.3704415719244
 20
-174.2632616231007
 30
0.0
  0
SEQEND
  5
C8
330
C5
100
AcDbEntity
  8
_U+30EC_U+30A4_U+30E4_U+30FC 1
 62
   179
420
  2234388
370
     9
  0
POLYLINE
  5
C9
330
1F
100
AcDbEntity
  8
_U+30EC_U+30A4_U+30E4_U+30FC 1
 62
   179
420
  2234388
370
     9
100
AcDb2dPolyline
 66
     1
 10
0.0
 20
0.0
 30
0.0
  0
VERTEX
  5
CA
330
C9
100
AcDbEntity
  8
_U+30EC_U+30A4_U+30E4_U+30FC 1
 62
   179
420
  2234388
370
     9
100
AcDbVertex
100
AcDb2dVertex
 10
54.41339555624307
 20
-121.8328638584307
 30
0.0
  0
VERTEX
  5
CB
330
C9
100
AcDbEntity
  8
_U+30EC_U+30A4_U+30E4_U+30FC 1
 62
   179
420
  2234388
370
     9
100
AcDbVertex
100
AcDb2dVertex
 10
54.41339555624307
 20
-174.2632616231007
 30
0.0
  0
SEQEND
  5
CC
330
C9
100
AcDbEntity
  8
_U+30EC_U+30A4_U+30E4_U+30FC 1
 62
   179
420
  2234388
370
     9
  0
INSERT
  5
CE
330
1F
100
AcDbEntity
  8
_U+30EC_U+30A4_U+30E4_U+30FC 1
100
AcDbBlockReference
  2
block 6
 10
0.0
 20
0.0
 30
0.0
  0
ENDSEC
  0
SECTION
  2
OBJECTS
  0
DICTIONARY
  5
C
330
0
100
AcDbDictionary
281
     1
  3
ACAD_GROUP
350
D
  3
ACAD_LAYOUT
350
1A
  3
ACAD_MATERIAL
350
3B
  3
ACAD_MLEADERSTYLE
350
D9
  3
ACAD_MLINESTYLE
350
17
  3
ACAD_PLOTSETTINGS
350
19
  3
ACAD_PLOTSTYLENAME
350
E
  3
ACAD_TABLESTYLE
350
D8
  3
ACAD_VISUALSTYLE
350
2A
  0
SUN
  5
3F
330
29
100
AcDbSun
 90
        1
290
     0
 63
     7
421
 16777215
 40
1.0
291
     1
 91
  2455826
 92
 54000000
292
     0
 70
     2
 71
   256
280
     1
  0
DICTIONARY
  5
D
102
{ACAD_REACTORS
330
C
102
}
330
C
100
AcDbDictionary
281
     1
  0
DICTIONARY
  5
1A
102
{ACAD_REACTORS
330
C
102
}
330
C
100
AcDbDictionary
281
     1
  3
Layout1
350
1E
  3
Layout2
350
26
  3
Model
350
22
  0
DICTIONARY
  5
3B
102
{ACAD_REACTORS
330
C
102
}
330
C
100
AcDbDictionary
281
     1
  3
ByBlock
350
3D
  3
ByLayer
350
3C
  3
Global
350
3E
  0
DICTIONARY
  5
D9
102
{ACAD_REACTORS
330
C
102
}
330
C
100
AcDbDictionary
281
     1
  0
DICTIONARY
  5
17
102
{ACAD_REACTORS
330
C
102
}
330
C
100
AcDbDictionary
281
     1
  3
Standard
350
18
  0
DICTIONARY
  5
19
102
{ACAD_REACTORS
330
C
102
}
330
C
100
AcDbDictionary
281
     1
  0
ACDBDICTIONARYWDFLT
  5
E
102
{ACAD_REACTORS
330
C
102
}
330
C
100
AcDbDictionary
281
     1
  3
Normal
350
F
100
AcDbDictionaryWithDefault
340
F
  0
DICTIONARY
  5
D8
102
{ACAD_REACTORS
330
C
102
}
330
C
100
AcDbDictionary
281
     1
  0
DICTIONARY
  5
2A
102
{ACAD_REACTORS
330
C
102
}
330
C
100
AcDbDictionary
281
     1
  3
2dWireframe
350
2F
  3
3D Hidden
350
31
  3
3dWireframe
350
30
  3
Basic
350
32
  3
Brighten
350
36
  3
ColorChange
350
3A
  3
Conceptual
350
34
  3
Dim
350
35
  3
Facepattern
350
39
  3
Flat
350
2B
  3
FlatWithEdges
350
2C
  3
Gouraud
350
2D
  3
GouraudWithEdges
350
2E
  3
Linepattern
350
38
  3
Realistic
350
33
  3
Thicken
350
37
  0
LAYOUT
  5
1E
102
{ACAD_REACTORS
330
1A
102
}
330
1A
100
AcDbPlotSettings
  1

  2
none_device
  4

  6

 40
0.0
 41
0.0
 42
0.0
 43
0.0
 44
0.0
 45
0.0
 46
0.0
 47
0.0
 48
0.0
 49
0.0
140
0.0
141
0.0
142
1.0
143
1.0
 70
   688
 72
     0
 73
     0
 74
     5
  7

 75
    16
 76
     0
 77
     2
 78
   300
147
1.0
148
0.0
149
0.0
100
AcDbLayout
  1
Layout1
 70
     1
 71
     1
 10
0.0
 20
0.0
 11
12.0
 21
9.0
 12
0.0
 22
0.0
 32
0.0
 14
1.000000000000000E+20
 24
1.000000000000000E+20
 34
1.000000000000000E+20
 15
-1.000000000000000E+20
 25
-1.000000000000000E+20
 35
-1.000000000000000E+20
146
0.0
 13
0.0
 23
0.0
 33
0.0
 16
1.0
 26
0.0
 36
0.0
 17
0.0
 27
1.0
 37
0.0
 76
     0
330
1B
  0
LAYOUT
  5
26
102
{ACAD_REACTORS
330
1A
102
}
330
1A
100
AcDbPlotSettings
  1

  2
none_device
  4

  6

 40
0.0
 41
0.0
 42
0.0
 43
0.0
 44
0.0
 45
0.0
 46
0.0
 47
0.0
 48
0.0
 49
0.0
140
0.0
141
0.0
142
1.0
143
1.0
 70
   688
 72
     0
 73
     0
 74
     5
  7

 75
    16
 76
     0
 77
     2
 78
   300
147
1.0
148
0.0
149
0.0
100
AcDbLayout
  1
Layout2
 70
     1
 71
     2
 10
0.0
 20
0.0
 11
0.0
 21
0.0
 12
0.0
 22
0.0
 32
0.0
 14
0.0
 24
0.0
 34
0.0
 15
0.0
 25
0.0
 35
0.0
146
0.0
 13
0.0
 23
0.0
 33
0.0
 16
1.0
 26
0.0
 36
0.0
 17
0.0
 27
1.0
 37
0.0
 76
     0
330
23
  0
LAYOUT
  5
22
102
{ACAD_REACTORS
330
1A
102
}
330
1A
100
AcDbPlotSettings
  1

  2
none_device
  4

  6

 40
0.0
 41
0.0
 42
0.0
 43
0.0
 44
0.0
 45
0.0
 46
0.0
 47
0.0
 48
0.0
 49
0.0
140
0.0
141
0.0
142
1.0
143
1.0
 70
  1712
 72
     0
 73
     0
 74
     0
  7

 75
     0
 76
     0
 77
     2
 78
   300
147
1.0
148
0.0
149
0.0
100
AcDbLayout
  1
Model
 70
     1
 71
     0
 10
0.0
 20
0.0
 11
12.0
 21
9.0
 12
0.0
 22
0.0
 32
0.0
 14
1.000000000000000E+20
 24
1.000000000000000E+20
 34
1.000000000000000E+20
 15
-1.000000000000000E+20
 25
-1.000000000000000E+20
 35
-1.000000000000000E+20
146
0.0
 13
0.0
 23
0.0
 33
0.0
 16
1.0
 26
0.0
 36
0.0
 17
0.0
 27
1.0
 37
0.0
 76
     0
330
1F
331
29
  0
MATERIAL
  5
3D
102
{ACAD_REACTORS
330
3B
102
}
330
3B
100
AcDbMaterial
  1
ByBlock
 72
     1
 94
      127
  0
MATERIAL
  5
3C
102
{ACAD_REACTORS
330
3B
102
}
330
3B
100
AcDbMaterial
  1
ByLayer
 72
     1
 94
      127
  0
MATERIAL
  5
3E
102
{ACAD_REACTORS
330
3B
102
}
330
3B
100
AcDbMaterial
  1
Global
 72
     1
 94
      127
  0
MLINESTYLE
  5
18
102
{ACAD_REACTORS
330
17
102
}
330
17
100
AcDbMlineStyle
  2
Standard
 70
     0
  3

 62
   256
 51
90.0
 52
90.0
 71
     2
 49
0.5
 62
   256
  6
BYLAYER
 49
-0.5
 62
   256
  6
BYLAYER
  0
ACDBPLACEHOLDER
  5
F
102
{ACAD_REACTORS
330
E
102
}
330
E
  0
VISUALSTYLE
  5
2F
102
{ACAD_REACTORS
330
2A
102
}
330
2A
100
AcDbVisualStyle
  2
2dWireframe
 70
     4
177
     2
291
     0
 71
     0
176
     1
 72
     2
176
     1
 73
     0
176
     1
 90
        0
176
     1
 40
-0.6
176
     1
 41
-30.0
176
     1
 62
     5
 63
     7
421
 16777215
176
     1
 74
     1
176
     1
 91
        4
176
     1
 64
     7
176
     1
 65
   257
176
     1
 75
     1
176
     1
175
     1
176
     1
 42
1.0
176
     1
 92
        0
176
     1
 66
   257
176
     1
 43
1.0
176
     1
 76
     1
176
     1
 77
     6
176
     1
 78
     2
176
     1
 67
     7
176
     1
 79
     5
176
     1
170
     0
176
     1
171
     0
176
     1
290
     0
176
     1
 93
        1
176
     1
 44
0.0
176
     1
173
     0
176
     1
  0
VISUALSTYLE
  5
31
102
{ACAD_REACTORS
330
2A
102
}
330
2A
100
AcDbVisualStyle
  2
3D Hidden
 70
     6
177
     2
291
     0
 71
     1
176
     1
 72
     2
176
     1
 73
     2
176
     1
 90
        0
176
     1
 40
-0.6
176
     1
 41
-30.0
176
     1
 62
     5
 63
     7
421
 16777215
176
     1
 74
     2
176
     1
 91
        2
176
     1
 64
     7
176
     1
 65
   257
176
     1
 75
     2
176
     1
175
     1
176
     1
 42
40.0
176
     1
 92
        0
176
     1
 66
   257
176
     1
 43
1.0
176
     1
 76
     1
176
     1
 77
     6
176
     1
 78
     2
176
     1
 67
     7
176
     1
 79
     3
176
     1
170
     0
176
     1
171
     0
176
     1
290
     0
176
     1
 93
        1
176
     1
 44
0.0
176
     1
173
     0
176
     1
  0
VISUALSTYLE
  5
30
102
{ACAD_REACTORS
330
2A
102
}
330
2A
100
AcDbVisualStyle
  2
3dWireframe
 70
     5
177
     2
291
     0
 71
     0
176
     1
 72
     2
176
     1
 73
     0
176
     1
 90
        0
176
     1
 40
-0.6
176
     1
 41
-30.0
176
     1
 62
     5
 63
     7
421
 16777215
176
     1
 74
     1
176
     1
 91
        4
176
     1
 64
     7
176
     1
 65
   257
176
     1
 75
     1
176
     1
175
     1
176
     1
 42
1.0
176
     1
 92
        0
176
     1
 66
   257
176
     1
 43
1.0
176
     1
 76
     1
176
     1
 77
     6
176
     1
 78
     2
176
     1
 67
     7
176
     1
 79
     5
176
     1
170
     0
176
     1
171
     0
176
     1
290
     0
176
     1
 93
        1
176
     1
 44
0.0
176
     1
173
     0
176
     1
  0
VISUALSTYLE
  5
32
102
{ACAD_REACTORS
330
2A
102
}
330
2A
100
AcDbVisualStyle
  2
Basic
 70
     7
177
     2
291
     1
 71
     1
176
     1
 72
     0
176
     1
 73
     1
176
     1
 90
        0
176
     1
 40
-0.6
176
     1
 41
-30.0
176
     1
 62
     5
 63
     7
421
 16777215
176
     1
 74
     0
176
     1
 91
        4
176
     1
 64
     7
176
     1
 65
   257
176
     1
 75
     1
176
     1
175
     1
176
     1
 42
1.0
176
     1
 92
        8
176
     1
 66
     7
176
     1
 43
1.0
176
     1
 76
     1
176
     1
 77
     6
176
     1
 78
     2
176
     1
 67
     7
176
     1
 79
     5
176
     1
170
     0
176
     1
171
     0
176
     1
290
     0
176
     1
 93
        1
176
     1
 44
0.0
176
     1
173
     0
176
     1
  0
VISUALSTYLE
  5
36
102
{ACAD_REACTORS
330
2A
102
}
330
2A
100
AcDbVisualStyle
  2
Brighten
 70
    12
177
     2
291
     1
 71
     2
176
     1
 72
     2
176
     1
 73
     0
176
     1
 90
        0
176
     1
 40
-0.6
176
     1
 41
-30.0
176
     1
 62
     5
 63
     7
421
 16777215
176
     1
 74
     1
176
     1
 91
        4
176
     1
 64
     7
176
     1
 65
   257
176
     1
 75
     1
176
     1
175
     1
176
     1
 42
1.0
176
     1
 92
        8
176
     1
 66
     7
176
     1
 43
1.0
176
     1
 76
     1
176
     1
 77
     6
176
     1
 78
     2
176
     1
 67
     7
176
     1
 79
     5
176
     1
170
     0
176
     1
171
     0
176
     1
290
     0
176
     1
 93
        1
176
     1
 44
50.0
176
     1
173
     0
176
     1
  0
VISUALSTYLE
  5
3A
102
{ACAD_REACTORS
330
2A
102
}
330
2A
100
AcDbVisualStyle
  2
ColorChange
 70
    16
177
     2
291
     1
 71
     2
176
     1
 72
     2
176
     1
 73
     3
176
     1
 90
        0
176
     1
 40
-0.6
176
     1
 41
-30.0
176
     1
 62
     5
 63
     8
421
  8421504
176
     1
 74
     1
176
     1
 91
        4
176
     1
 64
     7
176
     1
 65
   257
176
     1
 75
     1
176
     1
175
     1
176
     1
 42
1.0
176
     1
 92
        8
176
     1
 66
     8
424
  8421504
176
     1
 43
1.0
176
     1
 76
     1
176
     1
 77
     6
176
     1
 78
     2
176
     1
 67
     7
176
     1
 79
     5
176
     1
170
     0
176
     1
171
     0
176
     1
290
     0
176
     1
 93
        1
176
     1
 44
0.0
176
     1
173
     0
176
     1
  0
VISUALSTYLE
  5
34
102
{ACAD_REACTORS
330
2A
102
}
330
2A
100
AcDbVisualStyle
  2
Conceptual
 70
     9
177
     2
291
     0
 71
     3
176
     1
 72
     2
176
     1
 73
     0
176
     1
 90
        0
176
     1
 40
-0.6
176
     1
 41
-30.0
176
     1
 62
     5
 63
     7
421
 16777215
176
     1
 74
     2
176
     1
 91
        2
176
     1
 64
     7
176
     1
 65
   257
176
     1
 75
     1
176
     1
175
     1
176
     1
 42
40.0
176
     1
 92
        8
176
     1
 66
     7
176
     1
 43
1.0
176
     1
 76
     1
176
     1
 77
     6
176
     1
 78
     2
176
     1
 67
     7
176
     1
 79
     3
176
     1
170
     0
176
     1
171
     0
176
     1
290
     0
176
     1
 93
        1
176
     1
 44
0.0
176
     1
173
     0
176
     1
  0
VISUALSTYLE
  5
35
102
{ACAD_REACTORS
330
2A
102
}
330
2A
100
AcDbVisualStyle
  2
Dim
 70
    11
177
     2
291
     1
 71
     2
176
     1
 72
     2
176
     1
 73
     0
176
     1
 90
        0
176
     1
 40
-0.6
176
     1
 41
-30.0
176
     1
 62
     5
 63
     7
421
 16777215
176
     1
 74
     1
176
     1
 91
        4
176
     1
 64
     7
176
     1
 65
   257
176
     1
 75
     1
176
     1
175
     1
176
     1
 42
1.0
176
     1
 92
        8
176
     1
 66
     7
176
     1
 43
1.0
176
     1
 76
     1
176
     1
 77
     6
176
     1
 78
     2
176
     1
 67
     7
176
     1
 79
     5
176
     1
170
     0
176
     1
171
     0
176
     1
290
     0
176
     1
 93
        1
176
     1
 44
-50.0
176
     1
173
     0
176
     1
  0
VISUALSTYLE
  5
39
102
{ACAD_REACTORS
330
2A
102
}
330
2A
100
AcDbVisualStyle
  2
Facepattern
 70
    15
177
     2
291
     1
 71
     2
176
     1
 72
     2
176
     1
 73
     0
176
     1
 90
        0
176
     1
 40
-0.6
176
     1
 41
-30.0
176
     1
 62
     5
 63
     7
421
 16777215
176
     1
 74
     1
176
     1
 91
        4
176
     1
 64
     7
176
     1
 65
   257
176
     1
 75
     1
176
     1
175
     1
176
     1
 42
1.0
176
     1
 92
        8
176
     1
 66
     7
176
     1
 43
1.0
176
     1
 76
     1
176
     1
 77
     6
176
     1
 78
     2
176
     1
 67
     7
176
     1
 79
     5
176
     1
170
     0
176
     1
171
     0
176
     1
290
     0
176
     1
 93
        1
176
     1
 44
0.0
176
     1
173
     0
176
     1
  0
VISUALSTYLE
  5
2B
102
{ACAD_REACTORS
330
2A
102
}
330
2A
100
AcDbVisualStyle
  2
Flat
 70
     0
177
     2
291
     1
 71
     2
176
     1
 72
     1
176
     1
 73
     1
176
     1
 90
        2
176
     1
 40
-0.6
176
     1
 41
30.0
176
     1
 62
     5
 63
     7
421
 16777215
176
     1
 74
     0
176
     1
 91
        4
176
     1
 64
     7
176
     1
 65
   257
176
     1
 75
     1
176
     1
175
     1
176
     1
 42
1.0
176
     1
 92
        8
176
     1
 66
     7
176
     1
 43
1.0
176
     1
 76
     1
176
     1
 77
     6
176
     1
 78
     2
176
     1
 67
     7
176
     1
 79
     5
176
     1
170
     0
176
     1
171
     0
176
     1
290
     0
176
     1
 93
       13
176
     1
 44
0.0
176
     1
173
     0
176
     1
  0
VISUALSTYLE
  5
2C
102
{ACAD_REACTORS
330
2A
102
}
330
2A
100
AcDbVisualStyle
  2
FlatWithEdges
 70
     1
177
     2
291
     1
 71
     2
176
     1
 72
     1
176
     1
 73
     1
176
     1
 90
        2
176
     1
 40
-0.6
176
     1
 41
30.0
176
     1
 62
     5
 63
     7
421
 16777215
176
     1
 74
     1
176
     1
 91
        4
176
     1
 64
     7
176
     1
 65
   257
176
     1
 75
     1
176
     1
175
     1
176
     1
 42
1.0
176
     1
 92
        0
176
     1
 66
   257
176
     1
 43
1.0
176
     1
 76
     1
176
     1
 77
     6
176
     1
 78
     2
176
     1
 67
     7
176
     1
 79
     5
176
     1
170
     0
176
     1
171
     0
176
     1
290
     0
176
     1
 93
       13
176
     1
 44
0.0
176
     1
173
     0
176
     1
  0
VISUALSTYLE
  5
2D
102
{ACAD_REACTORS
330
2A
102
}
330
2A
100
AcDbVisualStyle
  2
Gouraud
 70
     2
177
     2
291
     1
 71
     2
176
     1
 72
     2
176
     1
 73
     1
176
     1
 90
        2
176
     1
 40
-0.6
176
     1
 41
30.0
176
     1
 62
     5
 63
     7
421
 16777215
176
     1
 74
     0
176
     1
 91
        4
176
     1
 64
     7
176
     1
 65
   257
176
     1
 75
     1
176
     1
175
     1
176
     1
 42
1.0
176
     1
 92
        0
176
     1
 66
     7
176
     1
 43
1.0
176
     1
 76
     1
176
     1
 77
     6
176
     1
 78
     2
176
     1
 67
     7
176
     1
 79
     5
176
     1
170
     0
176
     1
171
     0
176
     1
290
     0
176
     1
 93
       13
176
     1
 44
0.0
176
     1
173
     0
176
     1
  0
VISUALSTYLE
  5
2E
102
{ACAD_REACTORS
330
2A
102
}
330
2A
100
AcDbVisualStyle
  2
GouraudWithEdges
 70
     3
177
     2
291
     1
 71
     2
176
     1
 72
     2
176
     1
 73
     1
176
     1
 90
        2
176
     1
 40
-0.6
176
     1
 41
30.0
176
     1
 62
     5
 63
     7
421
 16777215
176
     1
 74
     1
176
     1
 91
        4
176
     1
 64
     7
176
     1
 65
   257
176
     1
 75
     1
176
     1
175
     1
176
     1
 42
1.0
176
     1
 92
        0
176
     1
 66
   257
176
     1
 43
1.0
176
     1
 76
     1
176
     1
 77
     6
176
     1
 78
     2
176
     1
 67
     7
176
     1
 79
     5
176
     1
170
     0
176
     1
171
     0
176
     1
290
     0
176
     1
 93
       13
176
     1
 44
0.0
176
     1
173
     0
176
     1
  0
VISUALSTYLE
  5
38
102
{ACAD_REACTORS
330
2A
102
}
330
2A
100
AcDbVisualStyle
  2
Linepattern
 70
    14
177
     2
291
     1
 71
     2
176
     1
 72
     2
176
     1
 73
     0
176
     1
 90
        0
176
     1
 40
-0.6
176
     1
 41
-30.0
176
     1
 62
     5
 63
     7
421
 16777215
176
     1
 74
     1
176
     1
 91
        4
176
     1
 64
     7
176
     1
 65
   257
176
     1
 75
     7
176
     1
175
     7
176
     1
 42
1.0
176
     1
 92
        8
176
     1
 66
     7
176
     1
 43
1.0
176
     1
 76
     1
176
     1
 77
     6
176
     1
 78
     2
176
     1
 67
     7
176
     1
 79
     5
176
     1
170
     0
176
     1
171
     0
176
     1
290
     0
176
     1
 93
        1
176
     1
 44
0.0
176
     1
173
     0
176
     1
  0
VISUALSTYLE
  5
33
102
{ACAD_REACTORS
330
2A
102
}
330
2A
100
AcDbVisualStyle
  2
Realistic
 70
     8
177
     2
291
     0
 71
     2
176
     1
 72
     2
176
     1
 73
     0
176
     1
 90
        0
176
     1
 40
-0.6
176
     1
 41
-30.0
176
     1
 62
     5
 63
     7
421
 16777215
176
     1
 74
     1
176
     1
 91
        0
176
     1
 64
     7
176
     1
 65
   257
176
     1
 75
     1
176
     1
175
     1
176
     1
 42
1.0
176
     1
 92
        8
176
     1
 66
     8
424
  7895160
176
     1
 43
1.0
176
     1
 76
     1
176
     1
 77
     6
176
     1
 78
     2
176
     1
 67
     7
176
     1
 79
     5
176
     1
170
     0
176
     1
171
     0
176
     1
290
     0
176
     1
 93
       13
176
     1
 44
0.0
176
     1
173
     0
176
     1
  0
VISUALSTYLE
  5
37
102
{ACAD_REACTORS
330
2A
102
}
330
2A
100
AcDbVisualStyle
  2
Thicken
 70
    13
177
     2
291
     1
 71
     2
176
     1
 72
     2
176
     1
 73
     0
176
     1
 90
        0
176
     1
 40
-0.6
176
     1
 41
-30.0
176
     1
 62
     5
 63
     7
421
 16777215
176
     1
 74
     1
176
     1
 91
        4
176
     1
 64
     7
176
     1
 65
   257
176
     1
 75
     1
176
     1
175
     1
176
     1
 42
1.0
176
     1
 92
       12
176
     1
 66
     7
176
     1
 43
1.0
176
     1
 76
     1
176
     1
 77
     6
176
     1
 78
     2
176
     1
 67
     7
176
     1
 79
     5
176
     1
170
     0
176
     1
171
     0
176
     1
290
     0
176
     1
 93
        1
176
     1
 44
0.0
176
     1
173
     0
176
     1
  0
ENDSEC
  0
EOF
