  0
SECTION
  2
HEADER
  9
$ACADVER
  1
AC1024
  9
$ACADMAINTVER
 70
     6
  9
$DWGCODEPAGE
  3
UNDEFINED
  9
$INSBASE
 10
0.0
 20
0.0
 30
0.0
  9
$EXTMIN
 10
1.000000000000000E+20
 20
1.000000000000000E+20
 30
1.000000000000000E+20
  9
$EXTMAX
 10
-1.000000000000000E+20
 20
-1.000000000000000E+20
 30
-1.000000000000000E+20
  9
$LIMMIN
 10
0.0
 20
0.0
  9
$LIMMAX
 10
12.0
 20
9.0
  9
$ORTHOMODE
 70
     0
  9
$REGENMODE
 70
     1
  9
$FILLMODE
 70
     1
  9
$QTEXTMODE
 70
     0
  9
$MIRRTEXT
 70
     1
  9
$LTSCALE
 40
1.0
  9
$ATTMODE
 70
     1
  9
$TEXTSIZE
 40
0.2
  9
$TRACEWID
 40
0.05
  9
$TEXTSTYLE
  7
Standard
  9
$CLAYER
  8
0
  9
$CELTYPE
  6
ByLayer
  9
$CECOLOR
 62
   256
  9
$CELTSCALE
 40
1.0
  9
$DISPSILH
 70
     0
  9
$DIMSCALE
 40
1.0
  9
$DIMASZ
 40
0.18
  9
$DIMEXO
 40
0.0625
  9
$DIMDLI
 40
0.38
  9
$DIMRND
 40
0.0
  9
$DIMDLE
 40
0.0
  9
$DIMEXE
 40
0.18
  9
$DIMTP
 40
0.0
  9
$DIMTM
 40
0.0
  9
$DIMTXT
 40
0.18
  9
$DIMCEN
 40
0.09
  9
$DIMTSZ
 40
0.0
  9
$DIMTOL
 70
     0
  9
$DIMLIM
 70
     0
  9
$DIMTIH
 70
     1
  9
$DIMTOH
 70
     1
  9
$DIMSE1
 70
     0
  9
$DIMSE2
 70
     0
  9
$DIMTAD
 70
     0
  9
$DIMZIN
 70
     0
  9
$DIMBLK
  1

  9
$DIMASO
 70
     1
  9
$DIMSHO
 70
     1
  9
$DIMPOST
  1

  9
$DIMAPOST
  1

  9
$DIMALT
 70
     0
  9
$DIMALTD
 70
     2
  9
$DIMALTF
 40
25.4
  9
$DIMLFAC
 40
1.0
  9
$DIMTOFL
 70
     0
  9
$DIMTVP
 40
0.0
  9
$DIMTIX
 70
     0
  9
$DIMSOXD
 70
     0
  9
$DIMSAH
 70
     0
  9
$DIMBLK1
  1

  9
$DIMBLK2
  1

  9
$DIMSTYLE
  2
Standard
  9
$DIMCLRD
 70
     0
  9
$DIMCLRE
 70
     0
  9
$DIMCLRT
 70
     0
  9
$DIMTFAC
 40
1.0
  9
$DIMGAP
 40
0.09
  9
$DIMJUST
 70
     0
  9
$DIMSD1
 70
     0
  9
$DIMSD2
 70
     0
  9
$DIMTOLJ
 70
     1
  9
$DIMTZIN
 70
     0
  9
$DIMALTZ
 70
     0
  9
$DIMALTTZ
 70
     0
  9
$DIMUPT
 70
     0
  9
$DIMDEC
 70
     4
  9
$DIMTDEC
 70
     4
  9
$DIMALTU
 70
     2
  9
$DIMALTTD
 70
     2
  9
$DIMTXSTY
  7
Standard
  9
$DIMAUNIT
 70
     0
  9
$DIMADEC
 70
     0
  9
$DIMALTRND
 40
0.0
  9
$DIMAZIN
 70
     0
  9
$DIMDSEP
 70
    46
  9
$DIMATFIT
 70
     3
  9
$DIMFRAC
 70
     0
  9
$DIMLDRBLK
  1

  9
$DIMLUNIT
 70
     2
  9
$DIMLWD
 70
    -2
  9
$DIMLWE
 70
    -2
  9
$DIMTMOVE
 70
     0
  9
$DIMFXL
 40
1.0
  9
$DIMFXLON
 70
     0
  9
$DIMJOGANG
 40
0.7853981633974483
  9
$DIMTFILL
 70
     0
  9
$DIMTFILLCLR
 70
     0
  9
$DIMARCSYM
 70
     0
  9
$DIMLTYPE
  6

  9
$DIMLTEX1
  6

  9
$DIMLTEX2
  6

  9
$DIMTXTDIRECTION
 70
     0
  9
$LUNITS
 70
     2
  9
$LUPREC
 70
     4
  9
$SKETCHINC
 40
0.1
  9
$FILLETRAD
 40
0.5
  9
$AUNITS
 70
     0
  9
$AUPREC
 70
     0
  9
$MENU
  1
.
  9
$ELEVATION
 40
0.0
  9
$PELEVATION
 40
0.0
  9
$THICKNESS
 40
0.0
  9
$LIMCHECK
 70
     0
  9
$CHAMFERA
 40
0.5
  9
$CHAMFERB
 40
0.5
  9
$CHAMFERC
 40
1.0
  9
$CHAMFERD
 40
0.0
  9
$SKPOLY
 70
     0
  9
$TDCREATE
 40
2457917.58398147
  9
$TDUCREATE
 40
2457917.208981481
  9
$TDUPDATE
 40
2457917.58398147
  9
$TDUUPDATE
 40
2457917.208981481
  9
$TDINDWG
 40
0.0000000116
  9
$TDUSRTIMER
 40
0.0000000116
  9
$USRTIMER
 70
     1
  9
$ANGBASE
 50
0.0
  9
$ANGDIR
 70
     0
  9
$PDMODE
 70
     0
  9
$PDSIZE
 40
0.0
  9
$PLINEWID
 40
0.0
  9
$SPLFRAME
 70
     0
  9
$SPLINETYPE
 70
     6
  9
$SPLINESEGS
 70
     8
  9
$HANDSEED
  5
114
  9
$SURFTAB1
 70
     6
  9
$SURFTAB2
 70
     6
  9
$SURFTYPE
 70
     6
  9
$SURFU
 70
     6
  9
$SURFV
 70
     6
  9
$UCSBASE
  2

  9
$UCSNAME
  2

  9
$UCSORG
 10
0.0
 20
0.0
 30
0.0
  9
$UCSXDIR
 10
1.0
 20
0.0
 30
0.0
  9
$UCSYDIR
 10
0.0
 20
1.0
 30
0.0
  9
$UCSORTHOREF
  2

  9
$UCSORTHOVIEW
 70
     0
  9
$UCSORGTOP
 10
0.0
 20
0.0
 30
0.0
  9
$UCSORGBOTTOM
 10
0.0
 20
0.0
 30
0.0
  9
$UCSORGLEFT
 10
0.0
 20
0.0
 30
0.0
  9
$UCSORGRIGHT
 10
0.0
 20
0.0
 30
0.0
  9
$UCSORGFRONT
 10
0.0
 20
0.0
 30
0.0
  9
$UCSORGBACK
 10
0.0
 20
0.0
 30
0.0
  9
$PUCSBASE
  2

  9
$PUCSNAME
  2

  9
$PUCSORG
 10
0.0
 20
0.0
 30
0.0
  9
$PUCSXDIR
 10
1.0
 20
0.0
 30
0.0
  9
$PUCSYDIR
 10
0.0
 20
1.0
 30
0.0
  9
$PUCSORTHOREF
  2

  9
$PUCSORTHOVIEW
 70
     0
  9
$PUCSORGTOP
 10
0.0
 20
0.0
 30
0.0
  9
$PUCSORGBOTTOM
 10
0.0
 20
0.0
 30
0.0
  9
$PUCSORGLEFT
 10
0.0
 20
0.0
 30
0.0
  9
$PUCSORGRIGHT
 10
0.0
 20
0.0
 30
0.0
  9
$PUCSORGFRONT
 10
0.0
 20
0.0
 30
0.0
  9
$PUCSORGBACK
 10
0.0
 20
0.0
 30
0.0
  9
$USERI1
 70
     0
  9
$USERI2
 70
     0
  9
$USERI3
 70
     0
  9
$USERI4
 70
     0
  9
$USERI5
 70
     0
  9
$USERR1
 40
0.0
  9
$USERR2
 40
0.0
  9
$USERR3
 40
0.0
  9
$USERR4
 40
0.0
  9
$USERR5
 40
0.0
  9
$WORLDVIEW
 70
     1
  9
$SHADEDGE
 70
     3
  9
$SHADEDIF
 70
    70
  9
$TILEMODE
 70
     1
  9
$MAXACTVP
 70
    64
  9
$PINSBASE
 10
0.0
 20
0.0
 30
0.0
  9
$PLIMCHECK
 70
     0
  9
$PEXTMIN
 10
1.000000000000000E+20
 20
1.000000000000000E+20
 30
1.000000000000000E+20
  9
$PEXTMAX
 10
-1.000000000000000E+20
 20
-1.000000000000000E+20
 30
-1.000000000000000E+20
  9
$PLIMMIN
 10
0.0
 20
0.0
  9
$PLIMMAX
 10
12.0
 20
9.0
  9
$UNITMODE
 70
     0
  9
$VISRETAIN
 70
     1
  9
$PLINEGEN
 70
     0
  9
$PSLTSCALE
 70
     1
  9
$TREEDEPTH
 70
  3020
  9
$CMLSTYLE
  2
Standard
  9
$CMLJUST
 70
     0
  9
$CMLSCALE
 40
1.0
  9
$PROXYGRAPHICS
 70
     1
  9
$MEASUREMENT
 70
     0
  9
$CELWEIGHT
370
    -1
  9
$ENDCAPS
280
     0
  9
$JOINSTYLE
280
     0
  9
$LWDISPLAY
290
     1
  9
$INSUNITS
 70
     1
  9
$HYPERLINKBASE
  1

  9
$STYLESHEET
  1

  9
$XEDIT
290
     1
  9
$CEPSNTYPE
380
     0
  9
$PSTYLEMODE
290
     1
  9
$FINGERPRINTGUID
  2
{BE25B21D-551B-626A-EC75-913BD5A9493B}
  9
$VERSIONGUID
  2
{FAEB1C32-E019-11D5-929B-00C0DF256EC4}
  9
$EXTNAMES
290
     1
  9
$PSVPSCALE
 40
0.0
  9
$OLESTARTUP
290
     0
  9
$SORTENTS
280
   127
  9
$INDEXCTL
280
     0
  9
$HIDETEXT
280
     1
  9
$XCLIPFRAME
280
     2
  9
$HALOGAP
280
     0
  9
$OBSCOLOR
 70
   257
  9
$OBSLTYPE
280
     0
  9
$INTERSECTIONDISPLAY
280
     0
  9
$INTERSECTIONCOLOR
 70
   257
  9
$DIMASSOC
280
     2
  9
$PROJECTNAME
  1

  9
$CAMERADISPLAY
290
     0
  9
$LENSLENGTH
 40
50.0
  9
$CAMERAHEIGHT
 40
0.0
  9
$STEPSPERSEC
 40
2.0
  9
$STEPSIZE
 40
6.0
  9
$3DDWFPREC
 40
2.0
  9
$PSOLWIDTH
 40
0.25
  9
$PSOLHEIGHT
 40
4.0
  9
$LOFTANG1
 40
1.570796326794897
  9
$LOFTANG2
 40
1.570796326794897
  9
$LOFTMAG1
 40
0.0
  9
$LOFTMAG2
 40
0.0
  9
$LOFTPARAM
 70
     7
  9
$LOFTNORMALS
280
     1
  9
$LATITUDE
 40
37.795
  9
$LONGITUDE
 40
-122.394
  9
$NORTHDIRECTION
 40
0.0
  9
$TIMEZONE
 70
 -8000
  9
$LIGHTGLYPHDISPLAY
280
     1
  9
$TILEMODELIGHTSYNCH
280
     1
  9
$CMATERIAL
347
3C
  9
$SOLIDHIST
280
     1
  9
$SHOWHIST
280
     1
  9
$DWFFRAME
280
     2
  9
$DGNFRAME
280
     2
  9
$REALWORLDSCALE
290
     1
  9
$INTERFERECOLOR
 62
   256
  9
$CSHADOW
280
     0
  9
$SHADOWPLANELOCATION
 40
0.0
  0
ENDSEC
  0
SECTION
  2
CLASSES
  0
CLASS
  1
ACDBDICTIONARYWDFLT
  2
AcDbDictionaryWithDefault
  3
ObjectDBX Classes
 90
        0
 91
        4
280
     0
281
     0
  0
CLASS
  1
VISUALSTYLE
  2
AcDbVisualStyle
  3
ObjectDBX Classes
 90
     4095
 91
        4
280
     0
281
     0
  0
CLASS
  1
MATERIAL
  2
AcDbMaterial
  3
ObjectDBX Classes
 90
     1153
 91
        4
280
     0
281
     0
  0
CLASS
  1
SUN
  2
AcDbSun
  3
SCENEOE
 90
     1024
 91
        4
280
     0
281
     0
  0
ENDSEC
  0
SECTION
  2
TABLES
  0
TABLE
  2
VPORT
  5
8
330
0
100
AcDbSymbolTable
 70
     1
  0
VPORT
  5
29
330
8
100
AcDbSymbolTableRecord
100
AcDbViewportTableRecord
  2
*Active
 70
     0
 10
0.0
 20
0.0
 11
1.0
 21
1.0
 12
0.0
 22
0.0
 13
0.0
 23
0.0
 14
0.5
 24
0.5
 15
0.5
 25
0.5
 16
0.0
 26
0.0
 36
1.0
 17
91.00082462281999
 27
-128.4993055234307
 37
0.0
 40
256.9986110468615
 41
0.7081814508812795
 42
50.0
 43
0.0
 44
0.0
 50
0.0
 51
0.0
 71
     0
 72
   100
 73
     1
 74
     3
 75
     0
 76
     0
 77
     0
 78
     0
281
     0
 65
     1
110
0.0
120
0.0
130
0.0
111
1.0
121
0.0
131
0.0
112
0.0
122
1.0
132
0.0
 79
     0
146
0.0
 60
     3
 61
     5
292
     1
282
     1
141
0.0
142
0.0
 63
   250
361
3F
  0
ENDTAB
  0
TABLE
  2
LTYPE
  5
5
330
0
100
AcDbSymbolTable
 70
     1
  0
LTYPE
  5
14
330
5
100
AcDbSymbolTableRecord
100
AcDbLinetypeTableRecord
  2
ByBlock
 70
     0
  3

 72
    65
 73
     0
 40
0.0
  0
LTYPE
  5
15
330
5
100
AcDbSymbolTableRecord
100
AcDbLinetypeTableRecord
  2
ByLayer
 70
     0
  3

 72
    65
 73
     0
 40
0.0
  0
LTYPE
  5
16
330
5
100
AcDbSymbolTableRecord
100
AcDbLinetypeTableRecord
  2
Continuous
 70
     0
  3
Solid line
 72
    65
 73
     0
 40
0.0
  0
ENDTAB
  0
TABLE
  2
LAYER
  5
2
330
0
100
AcDbSymbolTable
 70
     2
  0
LAYER
  5
10
330
2
100
AcDbSymbolTableRecord
100
AcDbLayerTableRecord
  2
0
 70
     0
 62
     7
  6
Continuous
370
    -3
390
F
347
3E
  0
LAYER
  5
40
330
2
100
AcDbSymbolTableRecord
100
AcDbLayerTableRecord
  2
_U+30EC_U+30A4_U+30E4_U+30FC 1
 70
     0
 62
     7
  6
Continuous
370
    -3
390
F
347
3E
  0
ENDTAB
  0
TABLE
  2
STYLE
  5
3
330
0
100
AcDbSymbolTable
 70
     1
  0
STYLE
  5
11
330
3
100
AcDbSymbolTableRecord
100
AcDbTextStyleTableRecord
  2
Standard
 70
     0
 40
0.0
 41
1.0
 50
0.0
 71
     0
 42
0.2
  3
txt
  4

  0
ENDTAB
  0
TABLE
  2
VIEW
  5
6
330
0
100
AcDbSymbolTable
 70
     0
  0
ENDTAB
  0
TABLE
  2
UCS
  5
7
330
0
100
AcDbSymbolTable
 70
     0
  0
ENDTAB
  0
TABLE
  2
APPID
  5
9
330
0
100
AcDbSymbolTable
 70
     1
  0
APPID
  5
12
330
9
100
AcDbSymbolTableRecord
100
AcDbRegAppTableRecord
  2
ACAD
 70
     0
  0
ENDTAB
  0
TABLE
  2
DIMSTYLE
  5
A
330
0
100
AcDbSymbolTable
 70
     1
100
AcDbDimStyleTable
  0
DIMSTYLE
105
27
330
A
100
AcDbSymbolTableRecord
100
AcDbDimStyleTableRecord
  2
Standard
 70
     0
178
     0
340
11
  0
ENDTAB
  0
TABLE
  2
BLOCK_RECORD
  5
1
330
0
100
AcDbSymbolTable
 70
     7
  0
BLOCK_RECORD
  5
1F
330
1
100
AcDbSymbolTableRecord
100
AcDbBlockTableRecord
  2
*Model_Space
340
22
 70
     0
280
     1
281
     0
  0
BLOCK_RECORD
  5
1B
330
1
100
AcDbSymbolTableRecord
100
AcDbBlockTableRecord
  2
*Paper_Space
340
1E
 70
     0
280
     1
281
     0
  0
BLOCK_RECORD
  5
23
330
1
100
AcDbSymbolTableRecord
100
AcDbBlockTableRecord
  2
*Paper_Space0
340
26
 70
     0
280
     1
281
     0
  0
BLOCK_RECORD
  5
41
330
1
100
AcDbSymbolTableRecord
100
AcDbBlockTableRecord
  2
block 2
340
0
102
{BLKREFS
331
42
102
}
 70
     0
280
     1
281
     0
  0
BLOCK_RECORD
  5
77
330
1
100
AcDbSymbolTableRecord
100
AcDbBlockTableRecord
  2
block 3
340
0
102
{BLKREFS
331
78
102
}
 70
     0
280
     1
281
     0
  0
BLOCK_RECORD
  5
92
330
1
100
AcDbSymbolTableRecord
100
AcDbBlockTableRecord
  2
block 4
340
0
102
{BLKREFS
331
93
102
}
 70
     0
280
     1
281
     0
  0
BLOCK_RECORD
  5
C6
330
1
100
AcDbSymbolTableRecord
100
AcDbBlockTableRecord
  2
block 5
340
0
102
{BLKREFS
331
C7
102
}
 70
     0
280
     1
281
     0
  0
BLOCK_RECORD
  5
F6
330
1
100
AcDbSymbolTableRecord
100
AcDbBlockTableRecord
  2
block 6
340
0
102
{BLKREFS
331
F7
102
}
 70
     0
280
     1
281
     0
  0
BLOCK_RECORD
  5
10A
330
1
100
AcDbSymbolTableRecord
100
AcDbBlockTableRecord
  2
block 7
340
0
102
{BLKREFS
331
10B
102
}
 70
     0
280
     1
281
     0
  0
ENDTAB
  0
ENDSEC
  0
SECTION
  2
BLOCKS
  0
BLOCK
  5
20
330
1F
100
AcDbEntity
  8
0
100
AcDbBlockBegin
  2
*Model_Space
 70
     0
 10
0.0
 20
0.0
 30
0.0
  3
*Model_Space
  1

  0
ENDBLK
  5
21
330
1F
100
AcDbEntity
  8
0
100
AcDbBlockEnd
  0
BLOCK
  5
1C
330
1B
100
AcDbEntity
 67
     1
  8
0
100
AcDbBlockBegin
  2
*Paper_Space
 70
     0
 10
0.0
 20
0.0
 30
0.0
  3
*Paper_Space
  1

  0
ENDBLK
  5
1D
330
1B
100
AcDbEntity
 67
     1
  8
0
100
AcDbBlockEnd
  0
BLOCK
  5
24
330
23
100
AcDbEntity
  8
0
100
AcDbBlockBegin
  2
*Paper_Space0
 70
     0
 10
0.0
 20
0.0
 30
0.0
  3
*Paper_Space0
  1

  0
ENDBLK
  5
25
330
23
100
AcDbEntity
  8
0
100
AcDbBlockEnd
  0
BLOCK
  5
43
330
41
100
AcDbEntity
  8
0
100
AcDbBlockBegin
  2
block 2
 70
     0
 10
0.0
 20
0.0
 30
0.0
  3
block 2
  1

  0
POLYLINE
  5
45
330
41
100
AcDbEntity
  8
_U+30EC_U+30A4_U+30E4_U+30FC 1
 62
   179
420
  2234388
370
    25
100
AcDb2dPolyline
 66
     1
 10
0.0
 20
0.0
 30
0.0
  0
VERTEX
  5
46
330
45
100
AcDbEntity
  8
_U+30EC_U+30A4_U+30E4_U+30FC 1
 62
   179
420
  2234388
370
    25
100
AcDbVertex
100
AcDb2dVertex
 10
92.16044042656907
 20
-144.8869269082229
 30
0.0
  0
VERTEX
  5
47
330
45
100
AcDbEntity
  8
_U+30EC_U+30A4_U+30E4_U+30FC 1
 62
   179
420
  2234388
370
    25
100
AcDbVertex
100
AcDb2dVertex
 10
110.1583155229606
 20
-144.8869269082229
 30
0.0
  0
SEQEND
  5
48
330
45
100
AcDbEntity
  8
_U+30EC_U+30A4_U+30E4_U+30FC 1
 62
   179
420
  2234388
370
    25
  0
POLYLINE
  5
49
330
41
100
AcDbEntity
  8
_U+30EC_U+30A4_U+30E4_U+30FC 1
 62
   179
420
  2234388
370
    25
100
AcDb2dPolyline
 66
     1
 10
0.0
 20
0.0
 30
0.0
  0
VERTEX
  5
4A
330
49
100
AcDbEntity
  8
_U+30EC_U+30A4_U+30E4_U+30FC 1
 62
   179
420
  2234388
370
    25
100
AcDbVertex
100
AcDb2dVertex
 10
110.1583155229606
 20
-144.8869269082229
 30
0.0
  0
VERTEX
  5
4B
330
49
100
AcDbEntity
  8
_U+30EC_U+30A4_U+30E4_U+30FC 1
 62
   179
420
  2234388
370
    25
100
AcDbVertex
100
AcDb2dVertex
 10
110.1583155229606
 20
-145.2865535747895
 30
0.0
  0
SEQEND
  5
4C
330
49
100
AcDbEntity
  8
_U+30EC_U+30A4_U+30E4_U+30FC 1
 62
   179
420
  2234388
370
    25
  0
POLYLINE
  5
4D
330
41
100
AcDbEntity
  8
_U+30EC_U+30A4_U+30E4_U+30FC 1
 62
   179
420
  2234388
370
    25
100
AcDb2dPolyline
 66
     1
 10
0.0
 20
0.0
 30
0.0
  0
VERTEX
  5
4E
330
4D
100
AcDbEntity
  8
_U+30EC_U+30A4_U+30E4_U+30FC 1
 62
   179
420
  2234388
370
    25
100
AcDbVertex
100
AcDb2dVertex
 10
78.16179720268167
 20
-112.8864899717783
 30
0.0
  0
VERTEX
  5
4F
330
4D
100
AcDbEntity
  8
_U+30EC_U+30A4_U+30E4_U+30FC 1
 62
   179
420
  2234388
370
    25
100
AcDbVertex
100
AcDb2dVertex
 10
77.76149829391667
 20
-112.8864899717783
 30
0.0
  0
SEQEND
  5
50
330
4D
100
AcDbEntity
  8
_U+30EC_U+30A4_U+30E4_U+30FC 1
 62
   179
420
  2234388
370
    25
  0
POLYLINE
  5
51
330
41
100
AcDbEntity
  8
_U+30EC_U+30A4_U+30E4_U+30FC 1
 62
   179
420
  2234388
370
    25
100
AcDb2dPolyline
 66
     1
 10
0.0
 20
0.0
 30
0.0
  0
VERTEX
  5
52
330
51
100
AcDbEntity
  8
_U+30EC_U+30A4_U+30E4_U+30FC 1
 62
   179
420
  2234388
370
    25
100
AcDbVertex
100
AcDb2dVertex
 10
78.16179720268167
 20
-130.8867644117225
 30
0.0
  0
VERTEX
  5
53
330
51
100
AcDbEntity
  8
_U+30EC_U+30A4_U+30E4_U+30FC 1
 62
   179
420
  2234388
370
    25
100
AcDbVertex
100
AcDb2dVertex
 10
78.16179720268167
 20
-112.8864899717783
 30
0.0
  0
SEQEND
  5
54
330
51
100
AcDbEntity
  8
_U+30EC_U+30A4_U+30E4_U+30FC 1
 62
   179
420
  2234388
370
    25
  0
POLYLINE
  5
55
330
41
100
AcDbEntity
  8
_U+30EC_U+30A4_U+30E4_U+30FC 1
 62
   179
420
  2234388
370
     9
100
AcDb2dPolyline
 66
     1
 10
0.0
 20
0.0
 30
0.0
  0
VERTEX
  5
56
330
55
100
AcDbEntity
  8
_U+30EC_U+30A4_U+30E4_U+30FC 1
 62
   179
420
  2234388
370
     9
100
AcDbVertex
100
AcDb2dVertex
 10
81.05464348767933
 20
-142.358921353299
 30
0.0
  0
VERTEX
  5
57
330
55
100
AcDbEntity
  8
_U+30EC_U+30A4_U+30E4_U+30FC 1
 62
   179
420
  2234388
370
     9
100
AcDbVertex
100
AcDb2dVertex
 10
81.55488236380606
 20
-141.4935221868491
 30
0.0
  0
SEQEND
  5
58
330
55
100
AcDbEntity
  8
_U+30EC_U+30A4_U+30E4_U+30FC 1
 62
   179
420
  2234388
370
     9
  0
POLYLINE
  5
59
330
41
100
AcDbEntity
  8
_U+30EC_U+30A4_U+30E4_U+30FC 1
 62
   179
420
  2234388
370
     9
100
AcDb2dPolyline
 66
     1
 10
0.0
 20
0.0
 30
0.0
  0
VERTEX
  5
5A
330
59
100
AcDbEntity
  8
_U+30EC_U+30A4_U+30E4_U+30FC 1
 62
   179
420
  2234388
370
     9
100
AcDbVertex
100
AcDb2dVertex
 10
80.68877766368
 20
-141.9930555200573
 30
0.0
  0
VERTEX
  5
5B
330
59
100
AcDbEntity
  8
_U+30EC_U+30A4_U+30E4_U+30FC 1
 62
   179
420
  2234388
370
     9
100
AcDbVertex
100
AcDb2dVertex
 10
81.55488236380606
 20
-141.4935221868491
 30
0.0
  0
SEQEND
  5
5C
330
59
100
AcDbEntity
  8
_U+30EC_U+30A4_U+30E4_U+30FC 1
 62
   179
420
  2234388
370
     9
  0
POLYLINE
  5
5D
330
41
100
AcDbEntity
  8
_U+30EC_U+30A4_U+30E4_U+30FC 1
 62
   179
420
  2234388
370
     9
100
AcDb2dPolyline
 66
     1
 10
0.0
 20
0.0
 30
0.0
  0
VERTEX
  5
5E
330
5D
100
AcDbEntity
  8
_U+30EC_U+30A4_U+30E4_U+30FC 1
 62
   179
420
  2234388
370
     9
100
AcDbVertex
100
AcDb2dVertex
 10
73.16177007793219
 20
-149.8864582958617
 30
0.0
  0
VERTEX
  5
5F
330
5D
100
AcDbEntity
  8
_U+30EC_U+30A4_U+30E4_U+30FC 1
 62
   179
420
  2234388
370
     9
100
AcDbVertex
100
AcDb2dVertex
 10
81.55488236380606
 20
-141.4935221868491
 30
0.0
  0
SEQEND
  5
60
330
5D
100
AcDbEntity
  8
_U+30EC_U+30A4_U+30E4_U+30FC 1
 62
   179
420
  2234388
370
     9
  0
POLYLINE
  5
61
330
41
100
AcDbEntity
  8
_U+30EC_U+30A4_U+30E4_U+30FC 1
 62
   179
420
  2234388
370
     9
100
AcDb2dPolyline
 66
     1
 10
0.0
 20
0.0
 30
0.0
  0
VERTEX
  5
62
330
61
100
AcDbEntity
  8
_U+30EC_U+30A4_U+30E4_U+30FC 1
 62
   179
420
  2234388
370
     9
100
AcDbVertex
100
AcDb2dVertex
 10
67.9965390985971
 20
-149.8864582958617
 30
0.0
  0
VERTEX
  5
63
330
61
100
AcDbEntity
  8
_U+30EC_U+30A4_U+30E4_U+30FC 1
 62
   179
420
  2234388
370
     9
100
AcDbVertex
100
AcDb2dVertex
 10
73.16177007793219
 20
-149.8864582958617
 30
0.0
  0
SEQEND
  5
64
330
61
100
AcDbEntity
  8
_U+30EC_U+30A4_U+30E4_U+30FC 1
 62
   179
420
  2234388
370
     9
  0
POLYLINE
  5
65
330
41
100
AcDbEntity
  8
_U+30EC_U+30A4_U+30E4_U+30FC 1
 62
   179
420
  2234388
370
    25
100
AcDb2dPolyline
 66
     1
 10
0.0
 20
0.0
 30
0.0
  0
VERTEX
  5
66
330
65
100
AcDbEntity
  8
_U+30EC_U+30A4_U+30E4_U+30FC 1
 62
   179
420
  2234388
370
    25
100
AcDbVertex
100
AcDb2dVertex
 10
77.76149829391667
 20
-112.8864899717783
 30
0.0
  0
VERTEX
  5
67
330
65
100
AcDbEntity
  8
_U+30EC_U+30A4_U+30E4_U+30FC 1
 62
   179
420
  2234388
370
    25
100
AcDbVertex
100
AcDb2dVertex
 10
77.17031330899907
 20
-130.3796463562937
 30
0.0
  0
SEQEND
  5
68
330
65
100
AcDbEntity
  8
_U+30EC_U+30A4_U+30E4_U+30FC 1
 62
   179
420
  2234388
370
    25
  0
POLYLINE
  5
69
330
41
100
AcDbEntity
  8
_U+30EC_U+30A4_U+30E4_U+30FC 1
 62
   179
420
  2234388
370
    25
100
AcDb2dPolyline
 66
     1
 10
0.0
 20
0.0
 30
0.0
  0
VERTEX
  5
6A
330
69
100
AcDbEntity
  8
_U+30EC_U+30A4_U+30E4_U+30FC 1
 62
   179
420
  2234388
370
    25
100
AcDbVertex
100
AcDb2dVertex
 10
110.1583155229606
 20
-145.2865535747895
 30
0.0
  0
VERTEX
  5
6B
330
69
100
AcDbEntity
  8
_U+30EC_U+30A4_U+30E4_U+30FC 1
 62
   179
420
  2234388
370
    25
100
AcDbVertex
100
AcDb2dVertex
 10
92.66755846918696
 20
-145.8777385746414
 30
0.0
  0
SEQEND
  5
6C
330
69
100
AcDbEntity
  8
_U+30EC_U+30A4_U+30E4_U+30FC 1
 62
   179
420
  2234388
370
    25
  0
SPLINE
  5
6D
330
41
100
AcDbEntity
  8
_U+30EC_U+30A4_U+30E4_U+30FC 1
 62
   179
420
  2234388
370
     9
100
AcDbSpline
210
0.0
220
0.0
230
1.0
 70
    11
 71
     3
 72
    17
 73
    13
 74
     0
 42
0.0000000001
 43
0.0000000001
 12
1.0
 22
0.0
 32
0.0
 13
1.0
 23
0.0
 33
0.0
 40
0.0
 40
0.0
 40
0.0
 40
0.0
 40
1.0
 40
1.0
 40
1.0
 40
2.0
 40
2.0
 40
2.0
 40
3.0
 40
3.0
 40
3.0
 40
4.0
 40
4.0
 40
4.0
 40
4.0
 10
114.2586515294634
 20
-144.8869269082229
 30
0.0
 10
114.2586515294634
 20
-144.8311174637925
 30
0.0
 10
114.2138840306055
 20
-144.7863499638033
 30
0.0
 10
114.1587448653456
 20
-144.7863499638033
 30
0.0
 10
114.1036409778625
 20
-144.7863499638033
 30
0.0
 10
114.0588382012277
 20
-144.8311174637925
 30
0.0
 10
114.0588382012277
 20
-144.8869269082229
 30
0.0
 10
114.0588382012277
 20
-144.9420660748754
 30
0.0
 10
114.1036409778625
 20
-144.9868335748646
 30
0.0
 10
114.1587448653456
 20
-144.9868335748646
 30
0.0
 10
114.2138840306055
 20
-144.9868335748646
 30
0.0
 10
114.2586515294634
 20
-144.9420660748754
 30
0.0
 10
114.2586515294634
 20
-144.8869269082229
 30
0.0
  0
SPLINE
  5
6E
330
41
100
AcDbEntity
  8
_U+30EC_U+30A4_U+30E4_U+30FC 1
 62
   179
420
  2234388
370
     9
100
AcDbSpline
210
0.0
220
0.0
230
1.0
 70
    11
 71
     3
 72
    17
 73
    13
 74
     0
 42
0.0000000001
 43
0.0000000001
 12
1.0
 22
0.0
 32
0.0
 13
1.0
 23
0.0
 33
0.0
 40
0.0
 40
0.0
 40
0.0
 40
0.0
 40
1.0
 40
1.0
 40
1.0
 40
2.0
 40
2.0
 40
2.0
 40
3.0
 40
3.0
 40
3.0
 40
4.0
 40
4.0
 40
4.0
 40
4.0
 10
114.2586515294634
 20
-145.2865535747895
 30
0.0
 10
114.2586515294634
 20
-145.2314496859146
 30
0.0
 10
114.2138840306055
 20
-145.1866469081478
 30
0.0
 10
114.1587448653456
 20
-145.1866469081478
 30
0.0
 10
114.1036409778625
 20
-145.1866469081478
 30
0.0
 10
114.0588382012277
 20
-145.2314496859146
 30
0.0
 10
114.0588382012277
 20
-145.2865535747895
 30
0.0
 10
114.0588382012277
 20
-145.3416927414426
 30
0.0
 10
114.1036409778625
 20
-145.3864602414311
 30
0.0
 10
114.1587448653456
 20
-145.3864602414311
 30
0.0
 10
114.2138840306055
 20
-145.3864602414311
 30
0.0
 10
114.2586515294634
 20
-145.3416927414426
 30
0.0
 10
114.2586515294634
 20
-145.2865535747895
 30
0.0
  0
SPLINE
  5
6F
330
41
100
AcDbEntity
  8
_U+30EC_U+30A4_U+30E4_U+30FC 1
 62
   179
420
  2234388
370
     9
100
AcDbSpline
210
0.0
220
0.0
230
1.0
 70
    11
 71
     3
 72
    17
 73
    13
 74
     0
 42
0.0000000001
 43
0.0000000001
 12
1.0
 22
0.0
 32
0.0
 13
1.0
 23
0.0
 33
0.0
 40
0.0
 40
0.0
 40
0.0
 40
0.0
 40
1.0
 40
1.0
 40
1.0
 40
2.0
 40
2.0
 40
2.0
 40
3.0
 40
3.0
 40
3.0
 40
4.0
 40
4.0
 40
4.0
 40
4.0
 10
110.2588924648391
 20
-149.8864582958617
 30
0.0
 10
110.2588924648391
 20
-149.8313544069868
 30
0.0
 10
110.2141277502241
 20
-149.7865516292201
 30
0.0
 10
110.1583155229606
 20
-149.7865516292201
 30
0.0
 10
110.1031763577006
 20
-149.7865516292201
 30
0.0
 10
110.0584088588427
 20
-149.8313544069868
 30
0.0
 10
110.0584088588427
 20
-149.8864582958617
 30
0.0
 10
110.0584088588427
 20
-149.9415974625148
 30
0.0
 10
110.1031763577006
 20
-149.9863649625034
 30
0.0
 10
110.1583155229606
 20
-149.9863649625034
 30
0.0
 10
110.2141277502241
 20
-149.9863649625034
 30
0.0
 10
110.2588924648391
 20
-149.9415974625148
 30
0.0
 10
110.2588924648391
 20
-149.8864582958617
 30
0.0
  0
SPLINE
  5
70
330
41
100
AcDbEntity
  8
_U+30EC_U+30A4_U+30E4_U+30FC 1
 62
   179
420
  2234388
370
     9
100
AcDbSpline
210
0.0
220
0.0
230
1.0
 70
    11
 71
     3
 72
    17
 73
    13
 74
     0
 42
0.0000000001
 43
0.0000000001
 12
1.0
 22
0.0
 32
0.0
 13
1.0
 23
0.0
 33
0.0
 40
0.0
 40
0.0
 40
0.0
 40
0.0
 40
1.0
 40
1.0
 40
1.0
 40
2.0
 40
2.0
 40
2.0
 40
3.0
 40
3.0
 40
3.0
 40
4.0
 40
4.0
 40
4.0
 40
4.0
 10
77.26196497332751
 20
-149.8864582958617
 30
0.0
 10
77.26196497332751
 20
-149.8313544069868
 30
0.0
 10
77.21716219669274
 20
-149.7865516292201
 30
0.0
 10
77.1613527536721
 20
-149.7865516292201
 30
0.0
 10
77.10621358841216
 20
-149.7865516292201
 30
0.0
 10
77.06144608955428
 20
-149.8313544069868
 30
0.0
 10
77.06144608955428
 20
-149.8864582958617
 30
0.0
 10
77.06144608955428
 20
-149.9415974625148
 30
0.0
 10
77.10621358841216
 20
-149.9863649625034
 30
0.0
 10
77.1613527536721
 20
-149.9863649625034
 30
0.0
 10
77.21716219669274
 20
-149.9863649625034
 30
0.0
 10
77.26196497332751
 20
-149.9415974625148
 30
0.0
 10
77.26196497332751
 20
-149.8864582958617
 30
0.0
  0
SPLINE
  5
71
330
41
100
AcDbEntity
  8
_U+30EC_U+30A4_U+30E4_U+30FC 1
 62
   179
420
  2234388
370
     9
100
AcDbSpline
210
0.0
220
0.0
230
1.0
 70
    11
 71
     3
 72
    17
 73
    13
 74
     0
 42
0.0000000001
 43
0.0000000001
 12
1.0
 22
0.0
 32
0.0
 13
1.0
 23
0.0
 33
0.0
 40
0.0
 40
0.0
 40
0.0
 40
0.0
 40
1.0
 40
1.0
 40
1.0
 40
2.0
 40
2.0
 40
2.0
 40
3.0
 40
3.0
 40
3.0
 40
4.0
 40
4.0
 40
4.0
 40
4.0
 10
77.86140495803451
 20
-108.886378028334
 30
0.0
 10
77.86140495803451
 20
-108.8312388616809
 30
0.0
 10
77.81660218139974
 20
-108.7864713616924
 30
0.0
 10
77.76149829391667
 20
-108.7864713616924
 30
0.0
 10
77.70636109168468
 20
-108.7864713616924
 30
0.0
 10
77.66159162979885
 20
-108.8312388616809
 30
0.0
 10
77.66159162979885
 20
-108.886378028334
 30
0.0
 10
77.66159162979885
 20
-108.9414819172089
 30
0.0
 10
77.70636109168468
 20
-108.9862846949757
 30
0.0
 10
77.76149829391667
 20
-108.9862846949757
 30
0.0
 10
77.81660218139974
 20
-108.9862846949757
 30
0.0
 10
77.86140495803451
 20
-108.9414819172089
 30
0.0
 10
77.86140495803451
 20
-108.886378028334
 30
0.0
  0
SPLINE
  5
72
330
41
100
AcDbEntity
  8
_U+30EC_U+30A4_U+30E4_U+30FC 1
 62
   179
420
  2234388
370
     9
100
AcDbSpline
210
0.0
220
0.0
230
1.0
 70
    11
 71
     3
 72
    17
 73
    13
 74
     0
 42
0.0000000001
 43
0.0000000001
 12
1.0
 22
0.0
 32
0.0
 13
1.0
 23
0.0
 33
0.0
 40
0.0
 40
0.0
 40
0.0
 40
0.0
 40
1.0
 40
1.0
 40
1.0
 40
2.0
 40
2.0
 40
2.0
 40
3.0
 40
3.0
 40
3.0
 40
4.0
 40
4.0
 40
4.0
 40
4.0
 10
78.26170189226653
 20
-108.886378028334
 30
0.0
 10
78.26170189226653
 20
-108.8312388616809
 30
0.0
 10
78.21693439340865
 20
-108.7864713616924
 30
0.0
 10
78.16179720268167
 20
-108.7864713616924
 30
0.0
 10
78.10669134066562
 20
-108.7864713616924
 30
0.0
 10
78.06188856403087
 20
-108.8312388616809
 30
0.0
 10
78.06188856403087
 20
-108.886378028334
 30
0.0
 10
78.06188856403087
 20
-108.9414819172089
 30
0.0
 10
78.10669134066562
 20
-108.9862846949757
 30
0.0
 10
78.16179720268167
 20
-108.9862846949757
 30
0.0
 10
78.21693439340865
 20
-108.9862846949757
 30
0.0
 10
78.26170189226653
 20
-108.9414819172089
 30
0.0
 10
78.26170189226653
 20
-108.886378028334
 30
0.0
  0
SPLINE
  5
73
330
41
100
AcDbEntity
  8
_U+30EC_U+30A4_U+30E4_U+30FC 1
 62
   179
420
  2234388
370
     9
100
AcDbSpline
210
0.0
220
0.0
230
1.0
 70
    11
 71
     3
 72
    17
 73
    13
 74
     0
 42
0.0000000001
 43
0.0000000001
 12
1.0
 22
0.0
 32
0.0
 13
1.0
 23
0.0
 33
0.0
 40
0.0
 40
0.0
 40
0.0
 40
0.0
 40
1.0
 40
1.0
 40
1.0
 40
2.0
 40
2.0
 40
2.0
 40
3.0
 40
3.0
 40
3.0
 40
4.0
 40
4.0
 40
4.0
 40
4.0
 10
73.26167674205003
 20
-112.8864899717783
 30
0.0
 10
73.26167674205003
 20
-112.8313508051256
 30
0.0
 10
73.21687396541526
 20
-112.7865833051367
 30
0.0
 10
73.16177007793219
 20
-112.7865833051367
 30
0.0
 10
73.10663091267224
 20
-112.7865833051367
 30
0.0
 10
73.06186341381435
 20
-112.8313508051256
 30
0.0
 10
73.06186341381435
 20
-112.8864899717783
 30
0.0
 10
73.06186341381435
 20
-112.9419466384313
 30
0.0
 10
73.10663091267224
 20
-112.9867141384199
 30
0.0
 10
73.16177007793219
 20
-112.9867141384199
 30
0.0
 10
73.21687396541526
 20
-112.9867141384199
 30
0.0
 10
73.26167674205003
 20
-112.9419466384313
 30
0.0
 10
73.26167674205003
 20
-112.8864899717783
 30
0.0
  0
SPLINE
  5
74
330
41
100
AcDbEntity
  8
_U+30EC_U+30A4_U+30E4_U+30FC 1
 62
   179
420
  2234388
370
     9
100
AcDbSpline
210
0.0
220
0.0
230
1.0
 70
    11
 71
     3
 72
    17
 73
    13
 74
     0
 42
0.0000000001
 43
0.0000000001
 12
1.0
 22
0.0
 32
0.0
 13
1.0
 23
0.0
 33
0.0
 40
0.0
 40
0.0
 40
0.0
 40
0.0
 40
1.0
 40
1.0
 40
1.0
 40
2.0
 40
2.0
 40
2.0
 40
3.0
 40
3.0
 40
3.0
 40
4.0
 40
4.0
 40
4.0
 40
4.0
 10
73.26167674205003
 20
-145.8866991301948
 30
0.0
 10
73.26167674205003
 20
-145.8315952413199
 30
0.0
 10
73.21687396541526
 20
-145.7867924635532
 30
0.0
 10
73.16177007793219
 20
-145.7867924635532
 30
0.0
 10
73.10663091267224
 20
-145.7867924635532
 30
0.0
 10
73.06186341381435
 20
-145.8315952413199
 30
0.0
 10
73.06186341381435
 20
-145.8866991301948
 30
0.0
 10
73.06186341381435
 20
-145.9418382968479
 30
0.0
 10
73.10663091267224
 20
-145.9866057968365
 30
0.0
 10
73.16177007793219
 20
-145.9866057968365
 30
0.0
 10
73.21687396541526
 20
-145.9866057968365
 30
0.0
 10
73.26167674205003
 20
-145.9418382968479
 30
0.0
 10
73.26167674205003
 20
-145.8866991301948
 30
0.0
  0
SPLINE
  5
75
330
41
100
AcDbEntity
  8
_U+30EC_U+30A4_U+30E4_U+30FC 1
 62
   179
420
  2234388
370
    25
100
AcDbSpline
210
0.0
220
0.0
230
1.0
 70
     8
 71
     3
 72
    11
 73
     7
 74
     0
 42
0.0000000001
 43
0.0000000001
 12
1.0
 22
0.0
 32
0.0
 13
1.0
 23
0.0
 33
0.0
 40
0.0
 40
0.0
 40
0.0
 40
0.0
 40
1.0
 40
1.0
 40
1.0
 40
2.0
 40
2.0
 40
2.0
 40
2.0
 10
77.17031330899907
 20
-130.3796463562937
 30
0.0
 10
76.89056053835837
 20
-138.6595877431132
 30
0.0
 10
83.37422787294624
 20
-145.5980210747118
 30
0.0
 10
91.65399266171184
 20
-145.8777385746414
 30
0.0
 10
91.99163626420895
 20
-145.8894507968612
 30
0.0
 10
92.32995014446674
 20
-145.8894507968612
 30
0.0
 10
92.66755846918696
 20
-145.8777385746414
 30
0.0
  0
SPLINE
  5
76
330
41
100
AcDbEntity
  8
_U+30EC_U+30A4_U+30E4_U+30FC 1
 62
   179
420
  2234388
370
    25
100
AcDbSpline
210
0.0
220
0.0
230
1.0
 70
     8
 71
     3
 72
     8
 73
     4
 74
     0
 42
0.0000000001
 43
0.0000000001
 12
1.0
 22
0.0
 32
0.0
 13
1.0
 23
0.0
 33
0.0
 40
0.0
 40
0.0
 40
0.0
 40
0.0
 40
1.0
 40
1.0
 40
1.0
 40
1.0
 10
78.16179720268167
 20
-130.8867644117225
 30
0.0
 10
78.16179720268167
 20
-138.6189124653451
 30
0.0
 10
84.4291392349221
 20
-144.8869269082229
 30
0.0
 10
92.16044042656907
 20
-144.8869269082229
 30
0.0
  0
INSERT
  5
78
330
41
100
AcDbEntity
  8
_U+30EC_U+30A4_U+30E4_U+30FC 1
100
AcDbBlockReference
  2
block 3
 10
0.0
 20
0.0
 30
0.0
  0
POLYLINE
  5
82
330
41
100
AcDbEntity
  8
_U+30EC_U+30A4_U+30E4_U+30FC 1
 62
   179
420
  2234388
370
     9
100
AcDb2dPolyline
 66
     1
 10
0.0
 20
0.0
 30
0.0
  0
VERTEX
  5
83
330
82
100
AcDbEntity
  8
_U+30EC_U+30A4_U+30E4_U+30FC 1
 62
   179
420
  2234388
370
     9
100
AcDbVertex
100
AcDb2dVertex
 10
114.1587448653456
 20
-144.8869269082229
 30
0.0
  0
VERTEX
  5
84
330
82
100
AcDbEntity
  8
_U+30EC_U+30A4_U+30E4_U+30FC 1
 62
   179
420
  2234388
370
     9
100
AcDbVertex
100
AcDb2dVertex
 10
114.1587448653456
 20
-139.629021076204
 30
0.0
  0
SEQEND
  5
85
330
82
100
AcDbEntity
  8
_U+30EC_U+30A4_U+30E4_U+30FC 1
 62
   179
420
  2234388
370
     9
  0
POLYLINE
  5
86
330
41
100
AcDbEntity
  8
_U+30EC_U+30A4_U+30E4_U+30FC 1
 62
   179
420
  2234388
370
     9
100
AcDb2dPolyline
 66
     1
 10
0.0
 20
0.0
 30
0.0
  0
VERTEX
  5
87
330
86
100
AcDbEntity
  8
_U+30EC_U+30A4_U+30E4_U+30FC 1
 62
   179
420
  2234388
370
     9
100
AcDbVertex
100
AcDb2dVertex
 10
114.1587448653456
 20
-144.8869269082229
 30
0.0
  0
VERTEX
  5
88
330
86
100
AcDbEntity
  8
_U+30EC_U+30A4_U+30E4_U+30FC 1
 62
   179
420
  2234388
370
     9
100
AcDbVertex
100
AcDb2dVertex
 10
114.1587448653456
 20
-146.286325796762
 30
0.0
  0
SEQEND
  5
89
330
86
100
AcDbEntity
  8
_U+30EC_U+30A4_U+30E4_U+30FC 1
 62
   179
420
  2234388
370
     9
  0
POLYLINE
  5
8A
330
41
100
AcDbEntity
  8
_U+30EC_U+30A4_U+30E4_U+30FC 1
 62
   179
420
  2234388
370
     9
100
AcDb2dPolyline
 66
     1
 10
0.0
 20
0.0
 30
0.0
  0
VERTEX
  5
8B
330
8A
100
AcDbEntity
  8
_U+30EC_U+30A4_U+30E4_U+30FC 1
 62
   179
420
  2234388
370
     9
100
AcDbVertex
100
AcDb2dVertex
 10
112.6987035137054
 20
-144.8869269082229
 30
0.0
  0
VERTEX
  5
8C
330
8A
100
AcDbEntity
  8
_U+30EC_U+30A4_U+30E4_U+30FC 1
 62
   179
420
  2234388
370
     9
100
AcDbVertex
100
AcDb2dVertex
 10
115.1585170620615
 20
-144.8869269082229
 30
0.0
  0
SEQEND
  5
8D
330
8A
100
AcDbEntity
  8
_U+30EC_U+30A4_U+30E4_U+30FC 1
 62
   179
420
  2234388
370
     9
  0
POLYLINE
  5
8E
330
41
100
AcDbEntity
  8
_U+30EC_U+30A4_U+30E4_U+30FC 1
 62
   179
420
  2234388
370
     9
100
AcDb2dPolyline
 66
     1
 10
0.0
 20
0.0
 30
0.0
  0
VERTEX
  5
8F
330
8E
100
AcDbEntity
  8
_U+30EC_U+30A4_U+30E4_U+30FC 1
 62
   179
420
  2234388
370
     9
100
AcDbVertex
100
AcDb2dVertex
 10
112.6987035137054
 20
-145.2865535747895
 30
0.0
  0
VERTEX
  5
90
330
8E
100
AcDbEntity
  8
_U+30EC_U+30A4_U+30E4_U+30FC 1
 62
   179
420
  2234388
370
     9
100
AcDbVertex
100
AcDb2dVertex
 10
115.1585170620615
 20
-145.2865535747895
 30
0.0
  0
SEQEND
  5
91
330
8E
100
AcDbEntity
  8
_U+30EC_U+30A4_U+30E4_U+30FC 1
 62
   179
420
  2234388
370
     9
  0
INSERT
  5
93
330
41
100
AcDbEntity
  8
_U+30EC_U+30A4_U+30E4_U+30FC 1
100
AcDbBlockReference
  2
block 4
 10
0.0
 20
0.0
 30
0.0
  0
POLYLINE
  5
B6
330
41
100
AcDbEntity
  8
_U+30EC_U+30A4_U+30E4_U+30FC 1
 62
   179
420
  2234388
370
     9
100
AcDb2dPolyline
 66
     1
 10
0.0
 20
0.0
 30
0.0
  0
VERTEX
  5
B7
330
B6
100
AcDbEntity
  8
_U+30EC_U+30A4_U+30E4_U+30FC 1
 62
   179
420
  2234388
370
     9
100
AcDbVertex
100
AcDb2dVertex
 10
78.16179720268167
 20
-108.886378028334
 30
0.0
  0
VERTEX
  5
B8
330
B6
100
AcDbEntity
  8
_U+30EC_U+30A4_U+30E4_U+30FC 1
 62
   179
420
  2234388
370
     9
100
AcDbVertex
100
AcDb2dVertex
 10
84.41880284629691
 20
-108.886378028334
 30
0.0
  0
SEQEND
  5
B9
330
B6
100
AcDbEntity
  8
_U+30EC_U+30A4_U+30E4_U+30FC 1
 62
   179
420
  2234388
370
     9
  0
POLYLINE
  5
BA
330
41
100
AcDbEntity
  8
_U+30EC_U+30A4_U+30E4_U+30FC 1
 62
   179
420
  2234388
370
     9
100
AcDb2dPolyline
 66
     1
 10
0.0
 20
0.0
 30
0.0
  0
VERTEX
  5
BB
330
BA
100
AcDbEntity
  8
_U+30EC_U+30A4_U+30E4_U+30FC 1
 62
   179
420
  2234388
370
     9
100
AcDbVertex
100
AcDb2dVertex
 10
78.16179720268167
 20
-108.886378028334
 30
0.0
  0
VERTEX
  5
BC
330
BA
100
AcDbEntity
  8
_U+30EC_U+30A4_U+30E4_U+30FC 1
 62
   179
420
  2234388
370
     9
100
AcDbVertex
100
AcDb2dVertex
 10
76.76172609720076
 20
-108.886378028334
 30
0.0
  0
SEQEND
  5
BD
330
BA
100
AcDbEntity
  8
_U+30EC_U+30A4_U+30E4_U+30FC 1
 62
   179
420
  2234388
370
     9
  0
POLYLINE
  5
BE
330
41
100
AcDbEntity
  8
_U+30EC_U+30A4_U+30E4_U+30FC 1
 62
   179
420
  2234388
370
     9
100
AcDb2dPolyline
 66
     1
 10
0.0
 20
0.0
 30
0.0
  0
VERTEX
  5
BF
330
BE
100
AcDbEntity
  8
_U+30EC_U+30A4_U+30E4_U+30FC 1
 62
   179
420
  2234388
370
     9
100
AcDbVertex
100
AcDb2dVertex
 10
78.16179720268167
 20
-110.3464194168577
 30
0.0
  0
VERTEX
  5
C0
330
BE
100
AcDbEntity
  8
_U+30EC_U+30A4_U+30E4_U+30FC 1
 62
   179
420
  2234388
370
     9
100
AcDbVertex
100
AcDb2dVertex
 10
78.16179720268167
 20
-107.8866058063618
 30
0.0
  0
SEQEND
  5
C1
330
BE
100
AcDbEntity
  8
_U+30EC_U+30A4_U+30E4_U+30FC 1
 62
   179
420
  2234388
370
     9
  0
POLYLINE
  5
C2
330
41
100
AcDbEntity
  8
_U+30EC_U+30A4_U+30E4_U+30FC 1
 62
   179
420
  2234388
370
     9
100
AcDb2dPolyline
 66
     1
 10
0.0
 20
0.0
 30
0.0
  0
VERTEX
  5
C3
330
C2
100
AcDbEntity
  8
_U+30EC_U+30A4_U+30E4_U+30FC 1
 62
   179
420
  2234388
370
     9
100
AcDbVertex
100
AcDb2dVertex
 10
77.76149829391667
 20
-110.3464194168577
 30
0.0
  0
VERTEX
  5
C4
330
C2
100
AcDbEntity
  8
_U+30EC_U+30A4_U+30E4_U+30FC 1
 62
   179
420
  2234388
370
     9
100
AcDbVertex
100
AcDb2dVertex
 10
77.76149829391667
 20
-107.8866058063618
 30
0.0
  0
SEQEND
  5
C5
330
C2
100
AcDbEntity
  8
_U+30EC_U+30A4_U+30E4_U+30FC 1
 62
   179
420
  2234388
370
     9
  0
INSERT
  5
C7
330
41
100
AcDbEntity
  8
_U+30EC_U+30A4_U+30E4_U+30FC 1
100
AcDbBlockReference
  2
block 5
 10
0.0
 20
0.0
 30
0.0
  0
POLYLINE
  5
EA
330
41
100
AcDbEntity
  8
_U+30EC_U+30A4_U+30E4_U+30FC 1
 62
   179
420
  2234388
370
     9
100
AcDb2dPolyline
 66
     1
 10
0.0
 20
0.0
 30
0.0
  0
VERTEX
  5
EB
330
EA
100
AcDbEntity
  8
_U+30EC_U+30A4_U+30E4_U+30FC 1
 62
   179
420
  2234388
370
     9
100
AcDbVertex
100
AcDb2dVertex
 10
110.1583155229606
 20
-149.8864582958617
 30
0.0
  0
VERTEX
  5
EC
330
EA
100
AcDbEntity
  8
_U+30EC_U+30A4_U+30E4_U+30FC 1
 62
   179
420
  2234388
370
     9
100
AcDbVertex
100
AcDb2dVertex
 10
77.1613527536721
 20
-149.8864582958617
 30
0.0
  0
SEQEND
  5
ED
330
EA
100
AcDbEntity
  8
_U+30EC_U+30A4_U+30E4_U+30FC 1
 62
   179
420
  2234388
370
     9
  0
POLYLINE
  5
EE
330
41
100
AcDbEntity
  8
_U+30EC_U+30A4_U+30E4_U+30FC 1
 62
   179
420
  2234388
370
     9
100
AcDb2dPolyline
 66
     1
 10
0.0
 20
0.0
 30
0.0
  0
VERTEX
  5
EF
330
EE
100
AcDbEntity
  8
_U+30EC_U+30A4_U+30E4_U+30FC 1
 62
   179
420
  2234388
370
     9
100
AcDbVertex
100
AcDb2dVertex
 10
110.1583155229606
 20
-147.8263066297102
 30
0.0
  0
VERTEX
  5
F0
330
EE
100
AcDbEntity
  8
_U+30EC_U+30A4_U+30E4_U+30FC 1
 62
   179
420
  2234388
370
     9
100
AcDbVertex
100
AcDb2dVertex
 10
110.1583155229606
 20
-150.8862305178343
 30
0.0
  0
SEQEND
  5
F1
330
EE
100
AcDbEntity
  8
_U+30EC_U+30A4_U+30E4_U+30FC 1
 62
   179
420
  2234388
370
     9
  0
POLYLINE
  5
F2
330
41
100
AcDbEntity
  8
_U+30EC_U+30A4_U+30E4_U+30FC 1
 62
   179
420
  2234388
370
     9
100
AcDb2dPolyline
 66
     1
 10
0.0
 20
0.0
 30
0.0
  0
VERTEX
  5
F3
330
F2
100
AcDbEntity
  8
_U+30EC_U+30A4_U+30E4_U+30FC 1
 62
   179
420
  2234388
370
     9
100
AcDbVertex
100
AcDb2dVertex
 10
77.1613527536721
 20
-133.4264821888657
 30
0.0
  0
VERTEX
  5
F4
330
F2
100
AcDbEntity
  8
_U+30EC_U+30A4_U+30E4_U+30FC 1
 62
   179
420
  2234388
370
     9
100
AcDbVertex
100
AcDb2dVertex
 10
77.1613527536721
 20
-150.8862305178343
 30
0.0
  0
SEQEND
  5
F5
330
F2
100
AcDbEntity
  8
_U+30EC_U+30A4_U+30E4_U+30FC 1
 62
   179
420
  2234388
370
     9
  0
INSERT
  5
F7
330
41
100
AcDbEntity
  8
_U+30EC_U+30A4_U+30E4_U+30FC 1
100
AcDbBlockReference
  2
block 6
 10
0.0
 20
0.0
 30
0.0
  0
POLYLINE
  5
FE
330
41
100
AcDbEntity
  8
_U+30EC_U+30A4_U+30E4_U+30FC 1
 62
   179
420
  2234388
370
     9
100
AcDb2dPolyline
 66
     1
 10
0.0
 20
0.0
 30
0.0
  0
VERTEX
  5
FF
330
FE
100
AcDbEntity
  8
_U+30EC_U+30A4_U+30E4_U+30FC 1
 62
   179
420
  2234388
370
     9
100
AcDbVertex
100
AcDb2dVertex
 10
73.16177007793219
 20
-112.8864899717783
 30
0.0
  0
VERTEX
  5
100
330
FE
100
AcDbEntity
  8
_U+30EC_U+30A4_U+30E4_U+30FC 1
 62
   179
420
  2234388
370
     9
100
AcDbVertex
100
AcDb2dVertex
 10
73.16177007793219
 20
-145.8866991301948
 30
0.0
  0
SEQEND
  5
101
330
FE
100
AcDbEntity
  8
_U+30EC_U+30A4_U+30E4_U+30FC 1
 62
   179
420
  2234388
370
     9
  0
POLYLINE
  5
102
330
41
100
AcDbEntity
  8
_U+30EC_U+30A4_U+30E4_U+30FC 1
 62
   179
420
  2234388
370
     9
100
AcDb2dPolyline
 66
     1
 10
0.0
 20
0.0
 30
0.0
  0
VERTEX
  5
103
330
102
100
AcDbEntity
  8
_U+30EC_U+30A4_U+30E4_U+30FC 1
 62
   179
420
  2234388
370
     9
100
AcDbVertex
100
AcDb2dVertex
 10
75.22192169204001
 20
-112.8864899717783
 30
0.0
  0
VERTEX
  5
104
330
102
100
AcDbEntity
  8
_U+30EC_U+30A4_U+30E4_U+30FC 1
 62
   179
420
  2234388
370
     9
100
AcDbVertex
100
AcDb2dVertex
 10
72.16217427010066
 20
-112.8864899717783
 30
0.0
  0
SEQEND
  5
105
330
102
100
AcDbEntity
  8
_U+30EC_U+30A4_U+30E4_U+30FC 1
 62
   179
420
  2234388
370
     9
  0
POLYLINE
  5
106
330
41
100
AcDbEntity
  8
_U+30EC_U+30A4_U+30E4_U+30FC 1
 62
   179
420
  2234388
370
     9
100
AcDb2dPolyline
 66
     1
 10
0.0
 20
0.0
 30
0.0
  0
VERTEX
  5
107
330
106
100
AcDbEntity
  8
_U+30EC_U+30A4_U+30E4_U+30FC 1
 62
   179
420
  2234388
370
     9
100
AcDbVertex
100
AcDb2dVertex
 10
89.62089910246927
 20
-145.8866991301948
 30
0.0
  0
VERTEX
  5
108
330
106
100
AcDbEntity
  8
_U+30EC_U+30A4_U+30E4_U+30FC 1
 62
   179
420
  2234388
370
     9
100
AcDbVertex
100
AcDb2dVertex
 10
72.16217427010066
 20
-145.8866991301948
 30
0.0
  0
SEQEND
  5
109
330
106
100
AcDbEntity
  8
_U+30EC_U+30A4_U+30E4_U+30FC 1
 62
   179
420
  2234388
370
     9
  0
INSERT
  5
10B
330
41
100
AcDbEntity
  8
_U+30EC_U+30A4_U+30E4_U+30FC 1
100
AcDbBlockReference
  2
block 7
 10
0.0
 20
0.0
 30
0.0
  0
ENDBLK
  5
44
330
41
100
AcDbEntity
  8
0
100
AcDbBlockEnd
  0
BLOCK
  5
79
330
77
100
AcDbEntity
  8
0
100
AcDbBlockBegin
  2
block 3
 70
     0
 10
0.0
 20
0.0
 30
0.0
  3
block 3
  1

  0
SPLINE
  5
7B
330
77
100
AcDbEntity
  8
_U+30EC_U+30A4_U+30E4_U+30FC 1
370
     0
100
AcDbSpline
210
0.0
220
0.0
230
1.0
 70
    11
 71
     3
 72
    26
 73
    22
 74
     0
 42
0.0000000001
 43
0.0000000001
 12
1.0
 22
0.0
 32
0.0
 13
1.0
 23
0.0
 33
0.0
 40
0.0
 40
0.0
 40
0.0
 40
0.0
 40
1.0
 40
1.0
 40
1.0
 40
2.0
 40
2.0
 40
2.0
 40
3.0
 40
3.0
 40
3.0
 40
4.0
 40
4.0
 40
4.0
 40
5.0
 40
5.0
 40
5.0
 40
6.0
 40
6.0
 40
6.0
 40
7.0
 40
7.0
 40
7.0
 40
7.0
 10
67.4044989523329
 20
-149.1736680399635
 30
0.0
 10
67.4044989523329
 20
-149.1736680399635
 30
0.0
 10
67.4044989523329
 20
-148.0695149369409
 30
0.0
 10
67.4044989523329
 20
-148.0695149369409
 30
0.0
 10
67.4044989523329
 20
-148.0695149369409
 30
0.0
 10
67.07445880484597
 20
-148.0695149369409
 30
0.0
 10
67.07445880484597
 20
-148.0695149369409
 30
0.0
 10
67.07445880484597
 20
-148.0695149369409
 30
0.0
 10
67.07445880484597
 20
-147.9213758310752
 30
0.0
 10
67.07445880484597
 20
-147.9213758310752
 30
0.0
 10
67.40656600962406
 20
-147.9065619204887
 30
0.0
 10
67.45307479867493
 20
-147.7436089040363
 30
0.0
 10
67.48270261984808
 20
-147.629231733926
 30
0.0
 10
67.48270261984808
 20
-147.629231733926
 30
0.0
 10
67.62877466842266
 20
-147.629231733926
 30
0.0
 10
67.62877466842266
 20
-147.629231733926
 30
0.0
 10
67.62877466842266
 20
-147.629231733926
 30
0.0
 10
67.62877466842266
 20
-149.1736680399635
 30
0.0
 10
67.62877466842266
 20
-149.1736680399635
 30
0.0
 10
67.62877466842266
 20
-149.1736680399635
 30
0.0
 10
67.4044989523329
 20
-149.1736680399635
 30
0.0
 10
67.4044989523329
 20
-149.1736680399635
 30
0.0
  0
HATCH
  5
7C
330
77
100
AcDbEntity
  8
_U+30EC_U+30A4_U+30E4_U+30FC 1
 62
   179
420
  2234388
100
AcDbHatch
 10
0.0
 20
0.0
 30
0.0
210
0.0
220
0.0
230
1.0
  2
SOLID
 70
     1
 71
     0
 91
        1
 92
        1
 93
        1
 72
     4
 94
        3
 73
     0
 74
     1
 95
       26
 96
       22
 40
0.0
 40
0.0
 40
0.0
 40
0.0
 40
1.0
 40
1.0
 40
1.0
 40
2.0
 40
2.0
 40
2.0
 40
3.0
 40
3.0
 40
3.0
 40
4.0
 40
4.0
 40
4.0
 40
5.0
 40
5.0
 40
5.0
 40
6.0
 40
6.0
 40
6.0
 40
7.0
 40
7.0
 40
7.0
 40
7.0
 10
67.4044989523329
 20
-149.1736680399635
 10
67.4044989523329
 20
-149.1736680399635
 10
67.4044989523329
 20
-148.0695149369409
 10
67.4044989523329
 20
-148.0695149369409
 10
67.4044989523329
 20
-148.0695149369409
 10
67.07445880484597
 20
-148.0695149369409
 10
67.07445880484597
 20
-148.0695149369409
 10
67.07445880484597
 20
-148.0695149369409
 10
67.07445880484597
 20
-147.9213758310752
 10
67.07445880484597
 20
-147.9213758310752
 10
67.40656600962406
 20
-147.9065619204887
 10
67.45307479867493
 20
-147.7436089040363
 10
67.48270261984808
 20
-147.629231733926
 10
67.48270261984808
 20
-147.629231733926
 10
67.62877466842266
 20
-147.629231733926
 10
67.62877466842266
 20
-147.629231733926
 10
67.62877466842266
 20
-147.629231733926
 10
67.62877466842266
 20
-149.1736680399635
 10
67.62877466842266
 20
-149.1736680399635
 10
67.62877466842266
 20
-149.1736680399635
 10
67.4044989523329
 20
-149.1736680399635
 10
67.4044989523329
 20
-149.1736680399635
 97
        0
 97
        0
 75
     2
 76
     1
 98
        0
  0
SPLINE
  5
7D
330
77
100
AcDbEntity
  8
_U+30EC_U+30A4_U+30E4_U+30FC 1
370
     0
100
AcDbSpline
210
0.0
220
0.0
230
1.0
 70
    11
 71
     3
 72
    53
 73
    49
 74
     0
 42
0.0000000001
 43
0.0000000001
 12
1.0
 22
0.0
 32
0.0
 13
1.0
 23
0.0
 33
0.0
 40
0.0
 40
0.0
 40
0.0
 40
0.0
 40
1.0
 40
1.0
 40
1.0
 40
2.0
 40
2.0
 40
2.0
 40
3.0
 40
3.0
 40
3.0
 40
4.0
 40
4.0
 40
4.0
 40
5.0
 40
5.0
 40
5.0
 40
6.0
 40
6.0
 40
6.0
 40
7.0
 40
7.0
 40
7.0
 40
8.0
 40
8.0
 40
8.0
 40
9.0
 40
9.0
 40
9.0
 40
10.0
 40
10.0
 40
10.0
 40
11.0
 40
11.0
 40
11.0
 40
12.0
 40
12.0
 40
12.0
 40
13.0
 40
13.0
 40
13.0
 40
14.0
 40
14.0
 40
14.0
 40
15.0
 40
15.0
 40
15.0
 40
16.0
 40
16.0
 40
16.0
 40
16.0
 10
68.6109713912674
 20
-149.2243109435967
 30
0.0
 10
68.53259546897796
 20
-149.2243109435967
 30
0.0
 10
68.43113740693735
 20
-149.207429975719
 30
0.0
 10
68.32950709012249
 20
-149.1440402187904
 30
0.0
 10
68.15604653244016
 20
-149.0341416728109
 30
0.0
 10
68.13485919520588
 20
-148.9028835348229
 30
0.0
 10
68.115911170037
 20
-148.7950520461346
 30
0.0
 10
68.115911170037
 20
-148.7950520461346
 30
0.0
 10
68.33794757406135
 20
-148.7950520461346
 30
0.0
 10
68.33794757406135
 20
-148.7950520461346
 30
0.0
 10
68.39306910182535
 20
-148.9938340556335
 30
0.0
 10
68.5200208704568
 20
-149.0234618768066
 30
0.0
 10
68.61303844855856
 20
-149.0234618768066
 30
0.0
 10
68.75256481571117
 20
-149.0234618768066
 30
0.0
 10
68.90501029093348
 20
-148.9238986172829
 30
0.0
 10
68.90501029093348
 20
-148.6913546720286
 30
0.0
 10
68.90501029093348
 20
-148.4353840774745
 30
0.0
 10
68.72517630660343
 20
-148.3654486391239
 30
0.0
 10
68.60459796461969
 20
-148.3654486391239
 30
0.0
 10
68.57290308615539
 20
-148.3654486391239
 30
0.0
 10
68.43113740693735
 20
-148.3654486391239
 30
0.0
 10
68.34225394341792
 20
-148.4946397198208
 30
0.0
 10
68.34225394341792
 20
-148.4946397198208
 30
0.0
 10
68.16672632844443
 20
-148.4756916946519
 30
0.0
 10
68.16672632844443
 20
-148.4756916946519
 30
0.0
 10
68.16672632844443
 20
-148.4756916946519
 30
0.0
 10
68.28730467042817
 20
-147.629231733926
 30
0.0
 10
68.28730467042817
 20
-147.629231733926
 30
0.0
 10
68.28730467042817
 20
-147.629231733926
 30
0.0
 10
69.06572399532038
 20
-147.629231733926
 30
0.0
 10
69.06572399532038
 20
-147.629231733926
 30
0.0
 10
69.06572399532038
 20
-147.629231733926
 30
0.0
 10
69.06572399532038
 20
-147.8238796288427
 30
0.0
 10
69.06572399532038
 20
-147.8238796288427
 30
0.0
 10
69.06572399532038
 20
-147.8238796288427
 30
0.0
 10
68.45008543210623
 20
-147.8238796288427
 30
0.0
 10
68.45008543210623
 20
-147.8238796288427
 30
0.0
 10
68.45008543210623
 20
-147.8238796288427
 30
0.0
 10
68.38462861788649
 20
-148.2469373544313
 30
0.0
 10
68.38462861788649
 20
-148.2469373544313
 30
0.0
 10
68.44595131752394
 20
-148.2131754186759
 30
0.0
 10
68.52846135439566
 20
-148.1728678014985
 30
0.0
 10
68.64680038431399
 20
-148.1728678014985
 30
0.0
 10
68.9007039215769
 20
-148.1728678014985
 30
0.0
 10
69.1377264909621
 20
-148.3592474672505
 30
0.0
 10
69.1377264909621
 20
-148.6724066468597
 30
0.0
 10
69.1377264909621
 20
-148.9896999410512
 30
0.0
 10
68.91345077487233
 20
-149.2243109435967
 30
0.0
 10
68.6109713912674
 20
-149.2243109435967
 30
0.0
  0
HATCH
  5
7E
330
77
100
AcDbEntity
  8
_U+30EC_U+30A4_U+30E4_U+30FC 1
 62
   179
420
  2234388
100
AcDbHatch
 10
0.0
 20
0.0
 30
0.0
210
0.0
220
0.0
230
1.0
  2
SOLID
 70
     1
 71
     0
 91
        1
 92
        1
 93
        1
 72
     4
 94
        3
 73
     0
 74
     1
 95
       53
 96
       49
 40
0.0
 40
0.0
 40
0.0
 40
0.0
 40
1.0
 40
1.0
 40
1.0
 40
2.0
 40
2.0
 40
2.0
 40
3.0
 40
3.0
 40
3.0
 40
4.0
 40
4.0
 40
4.0
 40
5.0
 40
5.0
 40
5.0
 40
6.0
 40
6.0
 40
6.0
 40
7.0
 40
7.0
 40
7.0
 40
8.0
 40
8.0
 40
8.0
 40
9.0
 40
9.0
 40
9.0
 40
10.0
 40
10.0
 40
10.0
 40
11.0
 40
11.0
 40
11.0
 40
12.0
 40
12.0
 40
12.0
 40
13.0
 40
13.0
 40
13.0
 40
14.0
 40
14.0
 40
14.0
 40
15.0
 40
15.0
 40
15.0
 40
16.0
 40
16.0
 40
16.0
 40
16.0
 10
68.6109713912674
 20
-149.2243109435967
 10
68.53259546897796
 20
-149.2243109435967
 10
68.43113740693735
 20
-149.207429975719
 10
68.32950709012249
 20
-149.1440402187904
 10
68.15604653244016
 20
-149.0341416728109
 10
68.13485919520588
 20
-148.9028835348229
 10
68.115911170037
 20
-148.7950520461346
 10
68.115911170037
 20
-148.7950520461346
 10
68.33794757406135
 20
-148.7950520461346
 10
68.33794757406135
 20
-148.7950520461346
 10
68.39306910182535
 20
-148.9938340556335
 10
68.5200208704568
 20
-149.0234618768066
 10
68.61303844855856
 20
-149.0234618768066
 10
68.75256481571117
 20
-149.0234618768066
 10
68.90501029093348
 20
-148.9238986172829
 10
68.90501029093348
 20
-148.6913546720286
 10
68.90501029093348
 20
-148.4353840774745
 10
68.72517630660343
 20
-148.3654486391239
 10
68.60459796461969
 20
-148.3654486391239
 10
68.57290308615539
 20
-148.3654486391239
 10
68.43113740693735
 20
-148.3654486391239
 10
68.34225394341792
 20
-148.4946397198208
 10
68.34225394341792
 20
-148.4946397198208
 10
68.16672632844443
 20
-148.4756916946519
 10
68.16672632844443
 20
-148.4756916946519
 10
68.16672632844443
 20
-148.4756916946519
 10
68.28730467042817
 20
-147.629231733926
 10
68.28730467042817
 20
-147.629231733926
 10
68.28730467042817
 20
-147.629231733926
 10
69.06572399532038
 20
-147.629231733926
 10
69.06572399532038
 20
-147.629231733926
 10
69.06572399532038
 20
-147.629231733926
 10
69.06572399532038
 20
-147.8238796288427
 10
69.06572399532038
 20
-147.8238796288427
 10
69.06572399532038
 20
-147.8238796288427
 10
68.45008543210623
 20
-147.8238796288427
 10
68.45008543210623
 20
-147.8238796288427
 10
68.45008543210623
 20
-147.8238796288427
 10
68.38462861788649
 20
-148.2469373544313
 10
68.38462861788649
 20
-148.2469373544313
 10
68.44595131752394
 20
-148.2131754186759
 10
68.52846135439566
 20
-148.1728678014985
 10
68.64680038431399
 20
-148.1728678014985
 10
68.9007039215769
 20
-148.1728678014985
 10
69.1377264909621
 20
-148.3592474672505
 10
69.1377264909621
 20
-148.6724066468597
 10
69.1377264909621
 20
-148.9896999410512
 10
68.91345077487233
 20
-149.2243109435967
 10
68.6109713912674
 20
-149.2243109435967
 97
        0
 97
        0
 75
     2
 76
     1
 98
        0
  0
SPLINE
  5
7F
330
77
100
AcDbEntity
  8
_U+30EC_U+30A4_U+30E4_U+30FC 1
370
     0
100
AcDbSpline
210
0.0
220
0.0
230
1.0
 70
    11
 71
     3
 72
    44
 73
    40
 74
     0
 42
0.0000000001
 43
0.0000000001
 12
1.0
 22
0.0
 32
0.0
 13
1.0
 23
0.0
 33
0.0
 40
0.0
 40
0.0
 40
0.0
 40
0.0
 40
1.0
 40
1.0
 40
1.0
 40
2.0
 40
2.0
 40
2.0
 40
3.0
 40
3.0
 40
3.0
 40
4.0
 40
4.0
 40
4.0
 40
5.0
 40
5.0
 40
5.0
 40
6.0
 40
6.0
 40
6.0
 40
7.0
 40
7.0
 40
7.0
 40
8.0
 40
8.0
 40
8.0
 40
9.0
 40
9.0
 40
9.0
 40
10.0
 40
10.0
 40
10.0
 40
11.0
 40
11.0
 40
11.0
 40
12.0
 40
12.0
 40
12.0
 40
13.0
 40
13.0
 40
13.0
 40
13.0
 10
70.32094453537115
 20
-149.1736680399635
 30
0.0
 10
70.29751788607146
 20
-149.1292263082038
 30
0.0
 10
70.27650280361144
 20
-149.0765163472795
 30
0.0
 10
70.27426349154602
 20
-148.8456949497678
 30
0.0
 10
70.27012937696372
 20
-148.6024712085091
 30
0.0
 10
70.21087373461742
 20
-148.5325357701585
 30
0.0
 10
70.03310680757853
 20
-148.5325357701585
 30
0.0
 10
70.03310680757853
 20
-148.5325357701585
 30
0.0
 10
69.62486299257642
 20
-148.5325357701585
 30
0.0
 10
69.62486299257642
 20
-148.5325357701585
 30
0.0
 10
69.62486299257642
 20
-148.5325357701585
 30
0.0
 10
69.62486299257642
 20
-149.1736680399635
 30
0.0
 10
69.62486299257642
 20
-149.1736680399635
 30
0.0
 10
69.62486299257642
 20
-149.1736680399635
 30
0.0
 10
69.39007973525665
 20
-149.1736680399635
 30
0.0
 10
69.39007973525665
 20
-149.1736680399635
 30
0.0
 10
69.39007973525665
 20
-149.1736680399635
 30
0.0
 10
69.39007973525665
 20
-147.629231733926
 30
0.0
 10
69.39007973525665
 20
-147.629231733926
 30
0.0
 10
69.39007973525665
 20
-147.629231733926
 30
0.0
 10
70.06480168604283
 20
-147.629231733926
 30
0.0
 10
70.06480168604283
 20
-147.629231733926
 30
0.0
 10
70.37158743900433
 20
-147.629231733926
 30
0.0
 10
70.5388468248132
 20
-147.8007974890915
 30
0.0
 10
70.5388468248132
 20
-148.0567680836456
 30
0.0
 10
70.5388468248132
 20
-148.1074109872787
 30
0.0
 10
70.53023408610008
 20
-148.1900932789247
 30
0.0
 10
70.48579235434036
 20
-148.270364003731
 30
0.0
 10
70.42670896676833
 20
-148.3740613778371
 30
0.0
 10
70.36107989777432
 20
-148.3930094030059
 30
0.0
 10
70.29975719813687
 20
-148.4098903708837
 30
0.0
 10
70.43721650799834
 20
-148.4522650453522
 30
0.0
 10
70.5049126342835
 20
-148.5008408916943
 30
0.0
 10
70.50921900364006
 20
-148.8160671285946
 30
0.0
 10
70.51335311822235
 20
-149.0868516337353
 30
0.0
 10
70.54935436604322
 20
-149.1185465121995
 30
0.0
 10
70.61705049232837
 20
-149.1736680399635
 30
0.0
 10
70.61705049232837
 20
-149.1736680399635
 30
0.0
 10
70.32094453537115
 20
-149.1736680399635
 30
0.0
 10
70.32094453537115
 20
-149.1736680399635
 30
0.0
  0
SPLINE
  5
80
330
77
100
AcDbEntity
  8
_U+30EC_U+30A4_U+30E4_U+30FC 1
370
     0
100
AcDbSpline
210
0.0
220
0.0
230
1.0
 70
    11
 71
     3
 72
    20
 73
    16
 74
     0
 42
0.0000000001
 43
0.0000000001
 12
1.0
 22
0.0
 32
0.0
 13
1.0
 23
0.0
 33
0.0
 40
0.0
 40
0.0
 40
0.0
 40
0.0
 40
1.0
 40
1.0
 40
1.0
 40
2.0
 40
2.0
 40
2.0
 40
3.0
 40
3.0
 40
3.0
 40
4.0
 40
4.0
 40
4.0
 40
5.0
 40
5.0
 40
5.0
 40
5.0
 10
70.0691080553994
 20
-147.8407605967204
 30
0.0
 10
70.0691080553994
 20
-147.8407605967204
 30
0.0
 10
69.62486299257642
 20
-147.8407605967204
 30
0.0
 10
69.62486299257642
 20
-147.8407605967204
 30
0.0
 10
69.62486299257642
 20
-147.8407605967204
 30
0.0
 10
69.62486299257642
 20
-148.3210069073642
 30
0.0
 10
69.62486299257642
 20
-148.3210069073642
 30
0.0
 10
69.62486299257642
 20
-148.3210069073642
 30
0.0
 10
70.06704099810824
 20
-148.3210069073642
 30
0.0
 10
70.06704099810824
 20
-148.3210069073642
 30
0.0
 10
70.1664320028577
 20
-148.3210069073642
 30
0.0
 10
70.30182425542802
 20
-148.2448702971402
 30
0.0
 10
70.30182425542802
 20
-148.0736490515233
 30
0.0
 10
70.30182425542802
 20
-147.9954453840081
 30
0.0
 10
70.26806231967257
 20
-147.8407605967204
 30
0.0
 10
70.0691080553994
 20
-147.8407605967204
 30
0.0
  0
HATCH
  5
81
330
77
100
AcDbEntity
  8
_U+30EC_U+30A4_U+30E4_U+30FC 1
 62
   179
420
  2234388
100
AcDbHatch
 10
0.0
 20
0.0
 30
0.0
210
0.0
220
0.0
230
1.0
  2
SOLID
 70
     1
 71
     0
 91
        2
 92
        1
 93
        1
 72
     4
 94
        3
 73
     0
 74
     1
 95
       44
 96
       40
 40
0.0
 40
0.0
 40
0.0
 40
0.0
 40
1.0
 40
1.0
 40
1.0
 40
2.0
 40
2.0
 40
2.0
 40
3.0
 40
3.0
 40
3.0
 40
4.0
 40
4.0
 40
4.0
 40
5.0
 40
5.0
 40
5.0
 40
6.0
 40
6.0
 40
6.0
 40
7.0
 40
7.0
 40
7.0
 40
8.0
 40
8.0
 40
8.0
 40
9.0
 40
9.0
 40
9.0
 40
10.0
 40
10.0
 40
10.0
 40
11.0
 40
11.0
 40
11.0
 40
12.0
 40
12.0
 40
12.0
 40
13.0
 40
13.0
 40
13.0
 40
13.0
 10
70.32094453537115
 20
-149.1736680399635
 10
70.29751788607146
 20
-149.1292263082038
 10
70.27650280361144
 20
-149.0765163472795
 10
70.27426349154602
 20
-148.8456949497678
 10
70.27012937696372
 20
-148.6024712085091
 10
70.21087373461742
 20
-148.5325357701585
 10
70.03310680757853
 20
-148.5325357701585
 10
70.03310680757853
 20
-148.5325357701585
 10
69.62486299257642
 20
-148.5325357701585
 10
69.62486299257642
 20
-148.5325357701585
 10
69.62486299257642
 20
-148.5325357701585
 10
69.62486299257642
 20
-149.1736680399635
 10
69.62486299257642
 20
-149.1736680399635
 10
69.62486299257642
 20
-149.1736680399635
 10
69.39007973525665
 20
-149.1736680399635
 10
69.39007973525665
 20
-149.1736680399635
 10
69.39007973525665
 20
-149.1736680399635
 10
69.39007973525665
 20
-147.629231733926
 10
69.39007973525665
 20
-147.629231733926
 10
69.39007973525665
 20
-147.629231733926
 10
70.06480168604283
 20
-147.629231733926
 10
70.06480168604283
 20
-147.629231733926
 10
70.37158743900433
 20
-147.629231733926
 10
70.5388468248132
 20
-147.8007974890915
 10
70.5388468248132
 20
-148.0567680836456
 10
70.5388468248132
 20
-148.1074109872787
 10
70.53023408610008
 20
-148.1900932789247
 10
70.48579235434036
 20
-148.270364003731
 10
70.42670896676833
 20
-148.3740613778371
 10
70.36107989777432
 20
-148.3930094030059
 10
70.29975719813687
 20
-148.4098903708837
 10
70.43721650799834
 20
-148.4522650453522
 10
70.5049126342835
 20
-148.5008408916943
 10
70.50921900364006
 20
-148.8160671285946
 10
70.51335311822235
 20
-149.0868516337353
 10
70.54935436604322
 20
-149.1185465121995
 10
70.61705049232837
 20
-149.1736680399635
 10
70.61705049232837
 20
-149.1736680399635
 10
70.32094453537115
 20
-149.1736680399635
 10
70.32094453537115
 20
-149.1736680399635
 97
        0
 97
        0
 92
        1
 93
        1
 72
     4
 94
        3
 73
     0
 74
     1
 95
       20
 96
       16
 40
0.0
 40
0.0
 40
0.0
 40
0.0
 40
1.0
 40
1.0
 40
1.0
 40
2.0
 40
2.0
 40
2.0
 40
3.0
 40
3.0
 40
3.0
 40
4.0
 40
4.0
 40
4.0
 40
5.0
 40
5.0
 40
5.0
 40
5.0
 10
70.0691080553994
 20
-147.8407605967204
 10
70.0691080553994
 20
-147.8407605967204
 10
69.62486299257642
 20
-147.8407605967204
 10
69.62486299257642
 20
-147.8407605967204
 10
69.62486299257642
 20
-147.8407605967204
 10
69.62486299257642
 20
-148.3210069073642
 10
69.62486299257642
 20
-148.3210069073642
 10
69.62486299257642
 20
-148.3210069073642
 10
70.06704099810824
 20
-148.3210069073642
 10
70.06704099810824
 20
-148.3210069073642
 10
70.1664320028577
 20
-148.3210069073642
 10
70.30182425542802
 20
-148.2448702971402
 10
70.30182425542802
 20
-148.0736490515233
 10
70.30182425542802
 20
-147.9954453840081
 10
70.26806231967257
 20
-147.8407605967204
 10
70.0691080553994
 20
-147.8407605967204
 97
        0
 97
        0
 75
     2
 76
     1
 98
        0
  0
ENDBLK
  5
7A
330
77
100
AcDbEntity
  8
0
100
AcDbBlockEnd
  0
BLOCK
  5
94
330
92
100
AcDbEntity
  8
0
100
AcDbBlockBegin
  2
block 4
 70
     0
 10
0.0
 20
0.0
 30
0.0
  3
block 4
  1

  0
SPLINE
  5
96
330
92
100
AcDbEntity
  8
_U+30EC_U+30A4_U+30E4_U+30FC 1
370
     0
100
AcDbSpline
210
0.0
220
0.0
230
1.0
 70
    11
 71
     3
 72
    29
 73
    25
 74
     0
 42
0.0000000001
 43
0.0000000001
 12
1.0
 22
0.0
 32
0.0
 13
1.0
 23
0.0
 33
0.0
 40
0.0
 40
0.0
 40
0.0
 40
0.0
 40
1.0
 40
1.0
 40
1.0
 40
2.0
 40
2.0
 40
2.0
 40
3.0
 40
3.0
 40
3.0
 40
4.0
 40
4.0
 40
4.0
 40
5.0
 40
5.0
 40
5.0
 40
6.0
 40
6.0
 40
6.0
 40
7.0
 40
7.0
 40
7.0
 40
8.0
 40
8.0
 40
8.0
 40
8.0
 10
113.2719834786265
 20
-142.3038031328268
 30
0.0
 10
113.4814452841296
 20
-142.4119791310637
 30
0.0
 10
113.5003933092985
 20
-142.5852674339718
 30
0.0
 10
113.5003933092985
 20
-142.7017116613732
 30
0.0
 10
113.5003933092985
 20
-142.8625976205344
 30
0.0
 10
113.4538845202476
 20
-143.0041910449781
 30
0.0
 10
113.2719834786265
 20
-143.099275680371
 30
0.0
 10
113.0773355837098
 20
-143.202973054477
 30
0.0
 10
112.8406575238732
 20
-143.2222655891944
 30
0.0
 10
112.6777045074209
 20
-143.2222655891944
 30
0.0
 10
112.5336995161374
 20
-143.2222655891944
 30
0.0
 10
112.2818630361656
 20
-143.2050401117682
 30
0.0
 10
112.0830810266667
 20
-143.099275680371
 30
0.0
 10
111.8801649025855
 20
-142.9914441916827
 30
0.0
 10
111.8567382532858
 20
-142.8305582325215
 30
0.0
 10
111.8567382532858
 20
-142.7017116613732
 30
0.0
 10
111.8567382532858
 20
-142.5428927595032
 30
0.0
 10
111.9011799850455
 20
-142.3992322777682
 30
0.0
 10
112.0830810266667
 20
-142.3038031328268
 30
0.0
 10
112.2756618642922
 20
-142.2045843828516
 30
0.0
 10
112.5040716949643
 20
-142.1811577335519
 30
0.0
 10
112.6777045074209
 20
-142.1811577335519
 30
0.0
 10
112.8489257530378
 20
-142.1811577335519
 30
0.0
 10
113.079402641001
 20
-142.2025173255605
 30
0.0
 10
113.2719834786265
 20
-142.3038031328268
 30
0.0
  0
SPLINE
  5
97
330
92
100
AcDbEntity
  8
_U+30EC_U+30A4_U+30E4_U+30FC 1
370
     0
100
AcDbSpline
210
0.0
220
0.0
230
1.0
 70
    11
 71
     3
 72
    17
 73
    13
 74
     0
 42
0.0000000001
 43
0.0000000001
 12
1.0
 22
0.0
 32
0.0
 13
1.0
 23
0.0
 33
0.0
 40
0.0
 40
0.0
 40
0.0
 40
0.0
 40
1.0
 40
1.0
 40
1.0
 40
2.0
 40
2.0
 40
2.0
 40
3.0
 40
3.0
 40
3.0
 40
4.0
 40
4.0
 40
4.0
 40
4.0
 10
112.0493190909113
 20
-142.7017116613732
 30
0.0
 10
112.0493190909113
 20
-142.9514810840538
 30
0.0
 10
112.3328504493473
 20
-142.9979898731047
 30
0.0
 10
112.6777045074209
 20
-142.9979898731047
 30
0.0
 10
112.9970648589035
 20
-142.9979898731047
 30
0.0
 10
113.3057454143819
 20
-142.9618163705096
 30
0.0
 10
113.3057454143819
 20
-142.7017116613732
 30
0.0
 10
113.3057454143819
 20
-142.4540092959837
 30
0.0
 10
113.0246256227855
 20
-142.4054334496417
 30
0.0
 10
112.6777045074209
 20
-142.4054334496417
 30
0.0
 10
112.3579996463897
 20
-142.4054334496417
 30
0.0
 10
112.0493190909113
 20
-142.443674009528
 30
0.0
 10
112.0493190909113
 20
-142.7017116613732
 30
0.0
  0
HATCH
  5
98
330
92
100
AcDbEntity
  8
_U+30EC_U+30A4_U+30E4_U+30FC 1
 62
   179
420
  2234388
100
AcDbHatch
 10
0.0
 20
0.0
 30
0.0
210
0.0
220
0.0
230
1.0
  2
SOLID
 70
     1
 71
     0
 91
        2
 92
        1
 93
        1
 72
     4
 94
        3
 73
     0
 74
     1
 95
       29
 96
       25
 40
0.0
 40
0.0
 40
0.0
 40
0.0
 40
1.0
 40
1.0
 40
1.0
 40
2.0
 40
2.0
 40
2.0
 40
3.0
 40
3.0
 40
3.0
 40
4.0
 40
4.0
 40
4.0
 40
5.0
 40
5.0
 40
5.0
 40
6.0
 40
6.0
 40
6.0
 40
7.0
 40
7.0
 40
7.0
 40
8.0
 40
8.0
 40
8.0
 40
8.0
 10
113.2719834786265
 20
-142.3038031328268
 10
113.4814452841296
 20
-142.4119791310637
 10
113.5003933092985
 20
-142.5852674339718
 10
113.5003933092985
 20
-142.7017116613732
 10
113.5003933092985
 20
-142.8625976205344
 10
113.4538845202476
 20
-143.0041910449781
 10
113.2719834786265
 20
-143.099275680371
 10
113.0773355837098
 20
-143.202973054477
 10
112.8406575238732
 20
-143.2222655891944
 10
112.6777045074209
 20
-143.2222655891944
 10
112.5336995161374
 20
-143.2222655891944
 10
112.2818630361656
 20
-143.2050401117682
 10
112.0830810266667
 20
-143.099275680371
 10
111.8801649025855
 20
-142.9914441916827
 10
111.8567382532858
 20
-142.8305582325215
 10
111.8567382532858
 20
-142.7017116613732
 10
111.8567382532858
 20
-142.5428927595032
 10
111.9011799850455
 20
-142.3992322777682
 10
112.0830810266667
 20
-142.3038031328268
 10
112.2756618642922
 20
-142.2045843828516
 10
112.5040716949643
 20
-142.1811577335519
 10
112.6777045074209
 20
-142.1811577335519
 10
112.8489257530378
 20
-142.1811577335519
 10
113.079402641001
 20
-142.2025173255605
 10
113.2719834786265
 20
-142.3038031328268
 97
        0
 97
        0
 92
        1
 93
        1
 72
     4
 94
        3
 73
     0
 74
     1
 95
       17
 96
       13
 40
0.0
 40
0.0
 40
0.0
 40
0.0
 40
1.0
 40
1.0
 40
1.0
 40
2.0
 40
2.0
 40
2.0
 40
3.0
 40
3.0
 40
3.0
 40
4.0
 40
4.0
 40
4.0
 40
4.0
 10
112.0493190909113
 20
-142.7017116613732
 10
112.0493190909113
 20
-142.9514810840538
 10
112.3328504493473
 20
-142.9979898731047
 10
112.6777045074209
 20
-142.9979898731047
 10
112.9970648589035
 20
-142.9979898731047
 10
113.3057454143819
 20
-142.9618163705096
 10
113.3057454143819
 20
-142.7017116613732
 10
113.3057454143819
 20
-142.4540092959837
 10
113.0246256227855
 20
-142.4054334496417
 10
112.6777045074209
 20
-142.4054334496417
 10
112.3579996463897
 20
-142.4054334496417
 10
112.0493190909113
 20
-142.443674009528
 10
112.0493190909113
 20
-142.7017116613732
 97
        0
 97
        0
 75
     2
 76
     1
 98
        0
  0
POLYLINE
  5
99
330
92
100
AcDbEntity
  8
_U+30EC_U+30A4_U+30E4_U+30FC 1
370
     0
100
AcDb2dPolyline
 66
     1
 10
0.0
 20
0.0
 30
0.0
  0
VERTEX
  5
9A
330
99
100
AcDbEntity
  8
_U+30EC_U+30A4_U+30E4_U+30FC 1
370
     0
100
AcDbVertex
100
AcDb2dVertex
 10
113.4497504056653
 20
-141.9648057370783
 30
0.0
  0
VERTEX
  5
9B
330
99
100
AcDbEntity
  8
_U+30EC_U+30A4_U+30E4_U+30FC 1
370
     0
100
AcDbVertex
100
AcDb2dVertex
 10
113.1979139256936
 20
-141.9648057370783
 30
0.0
  0
VERTEX
  5
9C
330
99
100
AcDbEntity
  8
_U+30EC_U+30A4_U+30E4_U+30FC 1
370
     0
100
AcDbVertex
100
AcDb2dVertex
 10
113.1979139256936
 20
-141.7129692571065
 30
0.0
  0
VERTEX
  5
9D
330
99
100
AcDbEntity
  8
_U+30EC_U+30A4_U+30E4_U+30FC 1
370
     0
100
AcDbVertex
100
AcDb2dVertex
 10
113.4497504056653
 20
-141.7129692571065
 30
0.0
  0
VERTEX
  5
9E
330
99
100
AcDbEntity
  8
_U+30EC_U+30A4_U+30E4_U+30FC 1
370
     0
100
AcDbVertex
100
AcDb2dVertex
 10
113.4497504056653
 20
-141.9648057370783
 30
0.0
  0
SEQEND
  5
9F
330
99
100
AcDbEntity
  8
_U+30EC_U+30A4_U+30E4_U+30FC 1
370
     0
  0
HATCH
  5
A0
330
92
100
AcDbEntity
  8
_U+30EC_U+30A4_U+30E4_U+30FC 1
 62
   179
420
  2234388
100
AcDbHatch
 10
0.0
 20
0.0
 30
0.0
210
0.0
220
0.0
230
1.0
  2
SOLID
 70
     1
 71
     0
 91
        1
 92
        1
 93
        4
 72
     1
 10
113.4497504056653
 20
-141.9648057370783
 11
113.1979139256936
 21
-141.9648057370783
 72
     1
 10
113.1979139256936
 20
-141.9648057370783
 11
113.1979139256936
 21
-141.7129692571065
 72
     1
 10
113.1979139256936
 20
-141.7129692571065
 11
113.4497504056653
 21
-141.7129692571065
 72
     1
 10
113.4497504056653
 20
-141.7129692571065
 11
113.4497504056653
 21
-141.9648057370783
 97
        0
 75
     2
 76
     1
 98
        0
  0
POLYLINE
  5
A1
330
92
100
AcDbEntity
  8
_U+30EC_U+30A4_U+30E4_U+30FC 1
370
     0
100
AcDb2dPolyline
 66
     1
 10
0.0
 20
0.0
 30
0.0
  0
VERTEX
  5
A2
330
A1
100
AcDbEntity
  8
_U+30EC_U+30A4_U+30E4_U+30FC 1
370
     0
100
AcDbVertex
100
AcDb2dVertex
 10
113.1028292903007
 20
-140.6446451471305
 30
0.0
  0
VERTEX
  5
A3
330
A1
100
AcDbEntity
  8
_U+30EC_U+30A4_U+30E4_U+30FC 1
370
     0
100
AcDbVertex
100
AcDb2dVertex
 10
113.4497504056653
 20
-140.6446451471305
 30
0.0
  0
VERTEX
  5
A4
330
A1
100
AcDbEntity
  8
_U+30EC_U+30A4_U+30E4_U+30FC 1
370
     0
100
AcDbVertex
100
AcDb2dVertex
 10
113.4497504056653
 20
-140.8623751817983
 30
0.0
  0
VERTEX
  5
A5
330
A1
100
AcDbEntity
  8
_U+30EC_U+30A4_U+30E4_U+30FC 1
370
     0
100
AcDbVertex
100
AcDb2dVertex
 10
113.1028292903007
 20
-140.8623751817983
 30
0.0
  0
VERTEX
  5
A6
330
A1
100
AcDbEntity
  8
_U+30EC_U+30A4_U+30E4_U+30FC 1
370
     0
100
AcDbVertex
100
AcDb2dVertex
 10
113.1028292903007
 20
-141.5183213621899
 30
0.0
  0
VERTEX
  5
A7
330
A1
100
AcDbEntity
  8
_U+30EC_U+30A4_U+30E4_U+30FC 1
370
     0
100
AcDbVertex
100
AcDb2dVertex
 10
112.8785535742109
 20
-141.5183213621899
 30
0.0
  0
VERTEX
  5
A8
330
A1
100
AcDbEntity
  8
_U+30EC_U+30A4_U+30E4_U+30FC 1
370
     0
100
AcDbVertex
100
AcDb2dVertex
 10
111.9053140996278
 20
-140.8392930420471
 30
0.0
  0
VERTEX
  5
A9
330
A1
100
AcDbEntity
  8
_U+30EC_U+30A4_U+30E4_U+30FC 1
370
     0
100
AcDbVertex
100
AcDb2dVertex
 10
111.9053140996278
 20
-140.6446451471305
 30
0.0
  0
VERTEX
  5
AA
330
A1
100
AcDbEntity
  8
_U+30EC_U+30A4_U+30E4_U+30FC 1
370
     0
100
AcDbVertex
100
AcDb2dVertex
 10
112.9040472808018
 20
-140.6446451471305
 30
0.0
  0
VERTEX
  5
AB
330
A1
100
AcDbEntity
  8
_U+30EC_U+30A4_U+30E4_U+30FC 1
370
     0
100
AcDbVertex
100
AcDb2dVertex
 10
112.9040472808018
 20
-140.4372503989185
 30
0.0
  0
VERTEX
  5
AC
330
A1
100
AcDbEntity
  8
_U+30EC_U+30A4_U+30E4_U+30FC 1
370
     0
100
AcDbVertex
100
AcDb2dVertex
 10
113.1028292903007
 20
-140.4372503989185
 30
0.0
  0
VERTEX
  5
AD
330
A1
100
AcDbEntity
  8
_U+30EC_U+30A4_U+30E4_U+30FC 1
370
     0
100
AcDbVertex
100
AcDb2dVertex
 10
113.1028292903007
 20
-140.6446451471305
 30
0.0
  0
SEQEND
  5
AE
330
A1
100
AcDbEntity
  8
_U+30EC_U+30A4_U+30E4_U+30FC 1
370
     0
  0
POLYLINE
  5
AF
330
92
100
AcDbEntity
  8
_U+30EC_U+30A4_U+30E4_U+30FC 1
370
     0
100
AcDb2dPolyline
 66
     1
 10
0.0
 20
0.0
 30
0.0
  0
VERTEX
  5
B0
330
AF
100
AcDbEntity
  8
_U+30EC_U+30A4_U+30E4_U+30FC 1
370
     0
100
AcDbVertex
100
AcDb2dVertex
 10
112.2481011004102
 20
-140.8623751817983
 30
0.0
  0
VERTEX
  5
B1
330
AF
100
AcDbEntity
  8
_U+30EC_U+30A4_U+30E4_U+30FC 1
370
     0
100
AcDbVertex
100
AcDb2dVertex
 10
112.9040472808018
 20
-141.319539352691
 30
0.0
  0
VERTEX
  5
B2
330
AF
100
AcDbEntity
  8
_U+30EC_U+30A4_U+30E4_U+30FC 1
370
     0
100
AcDbVertex
100
AcDb2dVertex
 10
112.9040472808018
 20
-140.8623751817983
 30
0.0
  0
VERTEX
  5
B3
330
AF
100
AcDbEntity
  8
_U+30EC_U+30A4_U+30E4_U+30FC 1
370
     0
100
AcDbVertex
100
AcDb2dVertex
 10
112.2481011004102
 20
-140.8623751817983
 30
0.0
  0
SEQEND
  5
B4
330
AF
100
AcDbEntity
  8
_U+30EC_U+30A4_U+30E4_U+30FC 1
370
     0
  0
HATCH
  5
B5
330
92
100
AcDbEntity
  8
_U+30EC_U+30A4_U+30E4_U+30FC 1
 62
   179
420
  2234388
100
AcDbHatch
 10
0.0
 20
0.0
 30
0.0
210
0.0
220
0.0
230
1.0
  2
SOLID
 70
     1
 71
     0
 91
        2
 92
        1
 93
       11
 72
     1
 10
113.1028292903007
 20
-140.6446451471305
 11
113.4497504056653
 21
-140.6446451471305
 72
     1
 10
113.4497504056653
 20
-140.6446451471305
 11
113.4497504056653
 21
-140.8623751817983
 72
     1
 10
113.4497504056653
 20
-140.8623751817983
 11
113.1028292903007
 21
-140.8623751817983
 72
     1
 10
113.1028292903007
 20
-140.8623751817983
 11
113.1028292903007
 21
-141.5183213621899
 72
     1
 10
113.1028292903007
 20
-141.5183213621899
 11
112.8785535742109
 21
-141.5183213621899
 72
     1
 10
112.8785535742109
 20
-141.5183213621899
 11
111.9053140996278
 21
-140.8392930420471
 72
     1
 10
111.9053140996278
 20
-140.8392930420471
 11
111.9053140996278
 21
-140.6446451471305
 72
     1
 10
111.9053140996278
 20
-140.6446451471305
 11
112.9040472808018
 21
-140.6446451471305
 72
     1
 10
112.9040472808018
 20
-140.6446451471305
 11
112.9040472808018
 21
-140.4372503989185
 72
     1
 10
112.9040472808018
 20
-140.4372503989185
 11
113.1028292903007
 21
-140.4372503989185
 72
     1
 10
113.1028292903007
 20
-140.4372503989185
 11
113.1028292903007
 21
-140.6446451471305
 97
        0
 92
        1
 93
        3
 72
     1
 10
112.2481011004102
 20
-140.8623751817983
 11
112.9040472808018
 21
-141.319539352691
 72
     1
 10
112.9040472808018
 20
-141.319539352691
 11
112.9040472808018
 21
-140.8623751817983
 72
     1
 10
112.9040472808018
 20
-140.8623751817983
 11
112.2481011004102
 21
-140.8623751817983
 97
        0
 75
     2
 76
     1
 98
        0
  0
ENDBLK
  5
95
330
92
100
AcDbEntity
  8
0
100
AcDbBlockEnd
  0
BLOCK
  5
C8
330
C6
100
AcDbEntity
  8
0
100
AcDbBlockBegin
  2
block 5
 70
     0
 10
0.0
 20
0.0
 30
0.0
  3
block 5
  1

  0
SPLINE
  5
CA
330
C6
100
AcDbEntity
  8
_U+30EC_U+30A4_U+30E4_U+30FC 1
370
     0
100
AcDbSpline
210
0.0
220
0.0
230
1.0
 70
    11
 71
     3
 72
    29
 73
    25
 74
     0
 42
0.0000000001
 43
0.0000000001
 12
1.0
 22
0.0
 32
0.0
 13
1.0
 23
0.0
 33
0.0
 40
0.0
 40
0.0
 40
0.0
 40
0.0
 40
1.0
 40
1.0
 40
1.0
 40
2.0
 40
2.0
 40
2.0
 40
3.0
 40
3.0
 40
3.0
 40
4.0
 40
4.0
 40
4.0
 40
5.0
 40
5.0
 40
5.0
 40
6.0
 40
6.0
 40
6.0
 40
7.0
 40
7.0
 40
7.0
 40
8.0
 40
8.0
 40
8.0
 40
8.0
 10
81.74539792878241
 20
-107.9954752334178
 30
0.0
 10
81.63756644009409
 20
-108.204937038921
 30
0.0
 10
81.46410588241176
 20
-108.2240573188641
 30
0.0
 10
81.34766165501031
 20
-108.2240573188641
 30
0.0
 10
81.1869479506234
 20
-108.2240573188641
 30
0.0
 10
81.04518227140538
 20
-108.1775485298133
 30
0.0
 10
80.94992538123822
 20
-107.9954752334178
 30
0.0
 10
80.84640026190645
 20
-107.8008273385012
 30
0.0
 10
80.82727998196333
 20
-107.5639770238903
 30
0.0
 10
80.82727998196333
 20
-107.4010240074379
 30
0.0
 10
80.82727998196333
 20
-107.2571912709288
 30
0.0
 10
80.84416094984104
 20
-107.0055270457313
 30
0.0
 10
80.94992538123822
 20
-106.8065727814581
 30
0.0
 10
81.0579291247008
 20
-106.6034844026026
 30
0.0
 10
81.2186428290877
 20
-106.5802300080772
 30
0.0
 10
81.34766165501031
 20
-106.5802300080772
 30
0.0
 10
81.50630830210606
 20
-106.5802300080772
 30
0.0
 10
81.65014103861525
 20
-106.6246717398369
 30
0.0
 10
81.74539792878241
 20
-106.8065727814581
 30
0.0
 10
81.84478893353186
 20
-106.9991536190835
 30
0.0
 10
81.8680433280573
 20
-107.2275634497556
 30
0.0
 10
81.8680433280573
 20
-107.4010240074379
 30
0.0
 10
81.8680433280573
 20
-107.5724175078291
 30
0.0
 10
81.84702824559727
 20
-107.8030666505666
 30
0.0
 10
81.74539792878241
 20
-107.9954752334178
 30
0.0
  0
SPLINE
  5
CB
330
C6
100
AcDbEntity
  8
_U+30EC_U+30A4_U+30E4_U+30FC 1
370
     0
100
AcDbSpline
210
0.0
220
0.0
230
1.0
 70
    11
 71
     3
 72
    17
 73
    13
 74
     0
 42
0.0000000001
 43
0.0000000001
 12
1.0
 22
0.0
 32
0.0
 13
1.0
 23
0.0
 33
0.0
 40
0.0
 40
0.0
 40
0.0
 40
0.0
 40
1.0
 40
1.0
 40
1.0
 40
2.0
 40
2.0
 40
2.0
 40
3.0
 40
3.0
 40
3.0
 40
4.0
 40
4.0
 40
4.0
 40
4.0
 10
81.34766165501031
 20
-106.7728108457026
 30
0.0
 10
81.09806448710395
 20
-106.7728108457026
 30
0.0
 10
81.0515556980531
 20
-107.0563422041387
 30
0.0
 10
81.0515556980531
 20
-107.4010240074379
 30
0.0
 10
81.0515556980531
 20
-107.7205566136949
 30
0.0
 10
81.08755694587394
 20
-108.0294094239475
 30
0.0
 10
81.34766165501031
 20
-108.0294094239475
 30
0.0
 10
81.59519176562551
 20
-108.0294094239475
 30
0.0
 10
81.6439398667418
 20
-107.7479451228026
 30
0.0
 10
81.6439398667418
 20
-107.4010240074379
 30
0.0
 10
81.6439398667418
 20
-107.0816636559553
 30
0.0
 10
81.60587156162978
 20
-106.7728108457026
 30
0.0
 10
81.34766165501031
 20
-106.7728108457026
 30
0.0
  0
HATCH
  5
CC
330
C6
100
AcDbEntity
  8
_U+30EC_U+30A4_U+30E4_U+30FC 1
 62
   179
420
  2234388
100
AcDbHatch
 10
0.0
 20
0.0
 30
0.0
210
0.0
220
0.0
230
1.0
  2
SOLID
 70
     1
 71
     0
 91
        2
 92
        1
 93
        1
 72
     4
 94
        3
 73
     0
 74
     1
 95
       29
 96
       25
 40
0.0
 40
0.0
 40
0.0
 40
0.0
 40
1.0
 40
1.0
 40
1.0
 40
2.0
 40
2.0
 40
2.0
 40
3.0
 40
3.0
 40
3.0
 40
4.0
 40
4.0
 40
4.0
 40
5.0
 40
5.0
 40
5.0
 40
6.0
 40
6.0
 40
6.0
 40
7.0
 40
7.0
 40
7.0
 40
8.0
 40
8.0
 40
8.0
 40
8.0
 10
81.74539792878241
 20
-107.9954752334178
 10
81.63756644009409
 20
-108.204937038921
 10
81.46410588241176
 20
-108.2240573188641
 10
81.34766165501031
 20
-108.2240573188641
 10
81.1869479506234
 20
-108.2240573188641
 10
81.04518227140538
 20
-108.1775485298133
 10
80.94992538123822
 20
-107.9954752334178
 10
80.84640026190645
 20
-107.8008273385012
 10
80.82727998196333
 20
-107.5639770238903
 10
80.82727998196333
 20
-107.4010240074379
 10
80.82727998196333
 20
-107.2571912709288
 10
80.84416094984104
 20
-107.0055270457313
 10
80.94992538123822
 20
-106.8065727814581
 10
81.0579291247008
 20
-106.6034844026026
 10
81.2186428290877
 20
-106.5802300080772
 10
81.34766165501031
 20
-106.5802300080772
 10
81.50630830210606
 20
-106.5802300080772
 10
81.65014103861525
 20
-106.6246717398369
 10
81.74539792878241
 20
-106.8065727814581
 10
81.84478893353186
 20
-106.9991536190835
 10
81.8680433280573
 20
-107.2275634497556
 10
81.8680433280573
 20
-107.4010240074379
 10
81.8680433280573
 20
-107.5724175078291
 10
81.84702824559727
 20
-107.8030666505666
 10
81.74539792878241
 20
-107.9954752334178
 97
        0
 97
        0
 92
        1
 93
        1
 72
     4
 94
        3
 73
     0
 74
     1
 95
       17
 96
       13
 40
0.0
 40
0.0
 40
0.0
 40
0.0
 40
1.0
 40
1.0
 40
1.0
 40
2.0
 40
2.0
 40
2.0
 40
3.0
 40
3.0
 40
3.0
 40
4.0
 40
4.0
 40
4.0
 40
4.0
 10
81.34766165501031
 20
-106.7728108457026
 10
81.09806448710395
 20
-106.7728108457026
 10
81.0515556980531
 20
-107.0563422041387
 10
81.0515556980531
 20
-107.4010240074379
 10
81.0515556980531
 20
-107.7205566136949
 10
81.08755694587394
 20
-108.0294094239475
 10
81.34766165501031
 20
-108.0294094239475
 10
81.59519176562551
 20
-108.0294094239475
 10
81.6439398667418
 20
-107.7479451228026
 10
81.6439398667418
 20
-107.4010240074379
 10
81.6439398667418
 20
-107.0816636559553
 10
81.60587156162978
 20
-106.7728108457026
 10
81.34766165501031
 20
-106.7728108457026
 97
        0
 97
        0
 75
     2
 76
     1
 98
        0
  0
POLYLINE
  5
CD
330
C6
100
AcDbEntity
  8
_U+30EC_U+30A4_U+30E4_U+30FC 1
370
     0
100
AcDb2dPolyline
 66
     1
 10
0.0
 20
0.0
 30
0.0
  0
VERTEX
  5
CE
330
CD
100
AcDbEntity
  8
_U+30EC_U+30A4_U+30E4_U+30FC 1
370
     0
100
AcDbVertex
100
AcDb2dVertex
 10
82.08456757930526
 20
-108.1732421604567
 30
0.0
  0
VERTEX
  5
CF
330
CD
100
AcDbEntity
  8
_U+30EC_U+30A4_U+30E4_U+30FC 1
370
     0
100
AcDbVertex
100
AcDb2dVertex
 10
82.08456757930526
 20
-107.9215779352592
 30
0.0
  0
VERTEX
  5
D0
330
CD
100
AcDbEntity
  8
_U+30EC_U+30A4_U+30E4_U+30FC 1
370
     0
100
AcDbVertex
100
AcDb2dVertex
 10
82.33623180450275
 20
-107.9215779352592
 30
0.0
  0
VERTEX
  5
D1
330
CD
100
AcDbEntity
  8
_U+30EC_U+30A4_U+30E4_U+30FC 1
370
     0
100
AcDbVertex
100
AcDb2dVertex
 10
82.33623180450275
 20
-108.1732421604567
 30
0.0
  0
VERTEX
  5
D2
330
CD
100
AcDbEntity
  8
_U+30EC_U+30A4_U+30E4_U+30FC 1
370
     0
100
AcDbVertex
100
AcDb2dVertex
 10
82.08456757930526
 20
-108.1732421604567
 30
0.0
  0
SEQEND
  5
D3
330
CD
100
AcDbEntity
  8
_U+30EC_U+30A4_U+30E4_U+30FC 1
370
     0
  0
HATCH
  5
D4
330
C6
100
AcDbEntity
  8
_U+30EC_U+30A4_U+30E4_U+30FC 1
 62
   179
420
  2234388
100
AcDbHatch
 10
0.0
 20
0.0
 30
0.0
210
0.0
220
0.0
230
1.0
  2
SOLID
 70
     1
 71
     0
 91
        1
 92
        1
 93
        4
 72
     1
 10
82.08456757930526
 20
-108.1732421604567
 11
82.08456757930526
 21
-107.9215779352592
 72
     1
 10
82.08456757930526
 20
-107.9215779352592
 11
82.33623180450275
 21
-107.9215779352592
 72
     1
 10
82.33623180450275
 20
-107.9215779352592
 11
82.33623180450275
 21
-108.1732421604567
 72
     1
 10
82.33623180450275
 20
-108.1732421604567
 11
82.08456757930526
 21
-108.1732421604567
 97
        0
 75
     2
 76
     1
 98
        0
  0
POLYLINE
  5
D5
330
C6
100
AcDbEntity
  8
_U+30EC_U+30A4_U+30E4_U+30FC 1
370
     0
100
AcDb2dPolyline
 66
     1
 10
0.0
 20
0.0
 30
0.0
  0
VERTEX
  5
D6
330
D5
100
AcDbEntity
  8
_U+30EC_U+30A4_U+30E4_U+30FC 1
370
     0
100
AcDbVertex
100
AcDb2dVertex
 10
83.40490042402725
 20
-107.826321045092
 30
0.0
  0
VERTEX
  5
D7
330
D5
100
AcDbEntity
  8
_U+30EC_U+30A4_U+30E4_U+30FC 1
370
     0
100
AcDbVertex
100
AcDb2dVertex
 10
83.40490042402725
 20
-108.1732421604567
 30
0.0
  0
VERTEX
  5
D8
330
D5
100
AcDbEntity
  8
_U+30EC_U+30A4_U+30E4_U+30FC 1
370
     0
100
AcDbVertex
100
AcDb2dVertex
 10
83.1869981345852
 20
-108.1732421604567
 30
0.0
  0
VERTEX
  5
D9
330
D5
100
AcDbEntity
  8
_U+30EC_U+30A4_U+30E4_U+30FC 1
370
     0
100
AcDbVertex
100
AcDb2dVertex
 10
83.1869981345852
 20
-107.826321045092
 30
0.0
  0
VERTEX
  5
DA
330
D5
100
AcDbEntity
  8
_U+30EC_U+30A4_U+30E4_U+30FC 1
370
     0
100
AcDbVertex
100
AcDb2dVertex
 10
82.5312242089679
 20
-107.826321045092
 30
0.0
  0
VERTEX
  5
DB
330
D5
100
AcDbEntity
  8
_U+30EC_U+30A4_U+30E4_U+30FC 1
370
     0
100
AcDbVertex
100
AcDb2dVertex
 10
82.5312242089679
 20
-107.6020453290023
 30
0.0
  0
VERTEX
  5
DC
330
D5
100
AcDbEntity
  8
_U+30EC_U+30A4_U+30E4_U+30FC 1
370
     0
100
AcDbVertex
100
AcDb2dVertex
 10
83.21025252911063
 20
-106.6289781091935
 30
0.0
  0
VERTEX
  5
DD
330
D5
100
AcDbEntity
  8
_U+30EC_U+30A4_U+30E4_U+30FC 1
370
     0
100
AcDbVertex
100
AcDb2dVertex
 10
83.40490042402725
 20
-106.6289781091935
 30
0.0
  0
VERTEX
  5
DE
330
D5
100
AcDbEntity
  8
_U+30EC_U+30A4_U+30E4_U+30FC 1
370
     0
100
AcDbVertex
100
AcDb2dVertex
 10
83.40490042402725
 20
-107.6273667808189
 30
0.0
  0
VERTEX
  5
DF
330
D5
100
AcDbEntity
  8
_U+30EC_U+30A4_U+30E4_U+30FC 1
370
     0
100
AcDbVertex
100
AcDb2dVertex
 10
83.61229517223929
 20
-107.6273667808189
 30
0.0
  0
VERTEX
  5
E0
330
D5
100
AcDbEntity
  8
_U+30EC_U+30A4_U+30E4_U+30FC 1
370
     0
100
AcDbVertex
100
AcDb2dVertex
 10
83.61229517223929
 20
-107.826321045092
 30
0.0
  0
VERTEX
  5
E1
330
D5
100
AcDbEntity
  8
_U+30EC_U+30A4_U+30E4_U+30FC 1
370
     0
100
AcDbVertex
100
AcDb2dVertex
 10
83.40490042402725
 20
-107.826321045092
 30
0.0
  0
SEQEND
  5
E2
330
D5
100
AcDbEntity
  8
_U+30EC_U+30A4_U+30E4_U+30FC 1
370
     0
  0
POLYLINE
  5
E3
330
C6
100
AcDbEntity
  8
_U+30EC_U+30A4_U+30E4_U+30FC 1
370
     0
100
AcDb2dPolyline
 66
     1
 10
0.0
 20
0.0
 30
0.0
  0
VERTEX
  5
E4
330
E3
100
AcDbEntity
  8
_U+30EC_U+30A4_U+30E4_U+30FC 1
370
     0
100
AcDbVertex
100
AcDb2dVertex
 10
83.1869981345852
 20
-106.9715928552015
 30
0.0
  0
VERTEX
  5
E5
330
E3
100
AcDbEntity
  8
_U+30EC_U+30A4_U+30E4_U+30FC 1
370
     0
100
AcDbVertex
100
AcDb2dVertex
 10
82.73017847324107
 20
-107.6273667808189
 30
0.0
  0
VERTEX
  5
E6
330
E3
100
AcDbEntity
  8
_U+30EC_U+30A4_U+30E4_U+30FC 1
370
     0
100
AcDbVertex
100
AcDb2dVertex
 10
83.1869981345852
 20
-107.6273667808189
 30
0.0
  0
VERTEX
  5
E7
330
E3
100
AcDbEntity
  8
_U+30EC_U+30A4_U+30E4_U+30FC 1
370
     0
100
AcDbVertex
100
AcDb2dVertex
 10
83.1869981345852
 20
-106.9715928552015
 30
0.0
  0
SEQEND
  5
E8
330
E3
100
AcDbEntity
  8
_U+30EC_U+30A4_U+30E4_U+30FC 1
370
     0
  0
HATCH
  5
E9
330
C6
100
AcDbEntity
  8
_U+30EC_U+30A4_U+30E4_U+30FC 1
 62
   179
420
  2234388
100
AcDbHatch
 10
0.0
 20
0.0
 30
0.0
210
0.0
220
0.0
230
1.0
  2
SOLID
 70
     1
 71
     0
 91
        2
 92
        1
 93
       11
 72
     1
 10
83.40490042402725
 20
-107.826321045092
 11
83.40490042402725
 21
-108.1732421604567
 72
     1
 10
83.40490042402725
 20
-108.1732421604567
 11
83.1869981345852
 21
-108.1732421604567
 72
     1
 10
83.1869981345852
 20
-108.1732421604567
 11
83.1869981345852
 21
-107.826321045092
 72
     1
 10
83.1869981345852
 20
-107.826321045092
 11
82.5312242089679
 21
-107.826321045092
 72
     1
 10
82.5312242089679
 20
-107.826321045092
 11
82.5312242089679
 21
-107.6020453290023
 72
     1
 10
82.5312242089679
 20
-107.6020453290023
 11
83.21025252911063
 21
-106.6289781091935
 72
     1
 10
83.21025252911063
 20
-106.6289781091935
 11
83.40490042402725
 21
-106.6289781091935
 72
     1
 10
83.40490042402725
 20
-106.6289781091935
 11
83.40490042402725
 21
-107.6273667808189
 72
     1
 10
83.40490042402725
 20
-107.6273667808189
 11
83.61229517223929
 21
-107.6273667808189
 72
     1
 10
83.61229517223929
 20
-107.6273667808189
 11
83.61229517223929
 21
-107.826321045092
 72
     1
 10
83.61229517223929
 20
-107.826321045092
 11
83.40490042402725
 21
-107.826321045092
 97
        0
 92
        1
 93
        3
 72
     1
 10
83.1869981345852
 20
-106.9715928552015
 11
82.73017847324107
 21
-107.6273667808189
 72
     1
 10
82.73017847324107
 20
-107.6273667808189
 11
83.1869981345852
 21
-107.6273667808189
 72
     1
 10
83.1869981345852
 20
-107.6273667808189
 11
83.1869981345852
 21
-106.9715928552015
 97
        0
 75
     2
 76
     1
 98
        0
  0
ENDBLK
  5
C9
330
C6
100
AcDbEntity
  8
0
100
AcDbBlockEnd
  0
BLOCK
  5
F8
330
F6
100
AcDbEntity
  8
0
100
AcDbBlockBegin
  2
block 6
 70
     0
 10
0.0
 20
0.0
 30
0.0
  3
block 6
  1

  0
SPLINE
  5
FA
330
F6
100
AcDbEntity
  8
_U+30EC_U+30A4_U+30E4_U+30FC 1
370
     0
100
AcDbSpline
210
0.0
220
0.0
230
1.0
 70
    11
 71
     3
 72
    62
 73
    58
 74
     0
 42
0.0000000001
 43
0.0000000001
 12
1.0
 22
0.0
 32
0.0
 13
1.0
 23
0.0
 33
0.0
 40
0.0
 40
0.0
 40
0.0
 40
0.0
 40
1.0
 40
1.0
 40
1.0
 40
2.0
 40
2.0
 40
2.0
 40
3.0
 40
3.0
 40
3.0
 40
4.0
 40
4.0
 40
4.0
 40
5.0
 40
5.0
 40
5.0
 40
6.0
 40
6.0
 40
6.0
 40
7.0
 40
7.0
 40
7.0
 40
8.0
 40
8.0
 40
8.0
 40
9.0
 40
9.0
 40
9.0
 40
10.0
 40
10.0
 40
10.0
 40
11.0
 40
11.0
 40
11.0
 40
12.0
 40
12.0
 40
12.0
 40
13.0
 40
13.0
 40
13.0
 40
14.0
 40
14.0
 40
14.0
 40
15.0
 40
15.0
 40
15.0
 40
16.0
 40
16.0
 40
16.0
 40
17.0
 40
17.0
 40
17.0
 40
18.0
 40
18.0
 40
18.0
 40
19.0
 40
19.0
 40
19.0
 40
19.0
 10
92.98967282831508
 20
-149.2239664340482
 30
0.0
 10
92.89424368337366
 20
-149.2239664340482
 30
0.0
 10
92.67651364870588
 20
-149.2029513515882
 30
0.0
 10
92.55145668259131
 20
-149.0169161953847
 30
0.0
 10
92.47738712965844
 20
-148.9046060825655
 30
0.0
 10
92.47325301507614
 20
-148.8053873325903
 30
0.0
 10
92.46911890049384
 20
-148.7206379836532
 30
0.0
 10
92.46911890049384
 20
-148.7206379836532
 30
0.0
 10
92.6892605020013
 20
-148.7206379836532
 30
0.0
 10
92.6892605020013
 20
-148.7206379836532
 30
0.0
 10
92.69132755929245
 20
-148.7947075365861
 30
0.0
 10
92.7016628457482
 20
-149.0293185391316
 30
0.0
 10
92.98519420418427
 20
-149.0293185391316
 30
0.0
 10
93.12265351404572
 20
-149.0293185391316
 30
0.0
 10
93.2752712440423
 20
-148.9597276103295
 30
0.0
 10
93.2752712440423
 20
-148.7313177796574
 30
0.0
 10
93.2752712440423
 20
-148.614873552256
 30
0.0
 10
93.23703068415603
 20
-148.566297705914
 30
0.0
 10
93.20533580569173
 20
-148.5346028274497
 30
0.0
 10
93.13126625275885
 20
-148.4605332745168
 30
0.0
 10
93.0148220253574
 20
-148.4477864212214
 30
0.0
 10
92.96004500714194
 20
-148.4477864212214
 30
0.0
 10
92.94075247242453
 20
-148.4477864212214
 30
0.0
 10
92.90492347937794
 20
-148.4498534785126
 30
0.0
 10
92.87736271549593
 20
-148.4539875930948
 30
0.0
 10
92.87736271549593
 20
-148.4539875930948
 30
0.0
 10
92.87736271549593
 20
-148.2593396981782
 30
0.0
 10
92.87736271549593
 20
-148.2593396981782
 30
0.0
 10
92.91560327538221
 20
-148.2658853796002
 30
0.0
 10
92.95763344030226
 20
-148.2679524368914
 30
0.0
 10
92.96417912172424
 20
-148.2679524368914
 30
0.0
 10
93.02963593594399
 20
-148.2679524368914
 30
0.0
 10
93.2284179454429
 20
-148.2465928448828
 30
0.0
 10
93.2284179454429
 20
-148.0099147850461
 30
0.0
 10
93.2284179454429
 20
-147.8321478580073
 30
0.0
 10
93.09750431700341
 20
-147.7770263302432
 30
0.0
 10
92.98726126147541
 20
-147.7770263302432
 30
0.0
 10
92.72302243775675
 20
-147.7770263302432
 30
0.0
 10
92.71440969904363
 20
-148.0099147850461
 30
0.0
 10
92.71027558446133
 20
-148.0815727711393
 30
0.0
 10
92.71027558446133
 20
-148.0815727711393
 30
0.0
 10
92.50701495083159
 20
-148.0815727711393
 30
0.0
 10
92.50701495083159
 20
-148.0815727711393
 30
0.0
 10
92.51562768954471
 20
-147.9568603145733
 30
0.0
 10
92.54318845342671
 20
-147.5803113780355
 30
0.0
 10
93.00000811477084
 20
-147.5803113780355
 30
0.0
 10
93.2242838308606
 20
-147.5803113780355
 30
0.0
 10
93.46544051482809
 20
-147.7074354014412
 30
0.0
 10
93.46544051482809
 20
-148.0033691036242
 30
0.0
 10
93.46544051482809
 20
-148.1897487693762
 30
0.0
 10
93.3703558794352
 20
-148.2720865514736
 30
0.0
 10
93.27079261991148
 20
-148.3334092511111
 30
0.0
 10
93.33211531954892
 20
-148.3609700149931
 30
0.0
 10
93.5140163611701
 20
-148.4412407397994
 30
0.0
 10
93.5140163611701
 20
-148.718570926362
 30
0.0
 10
93.5140163611701
 20
-149.0568793030136
 30
0.0
 10
93.26665850532918
 20
-149.2239664340482
 30
0.0
 10
92.98967282831508
 20
-149.2239664340482
 30
0.0
  0
HATCH
  5
FB
330
F6
100
AcDbEntity
  8
_U+30EC_U+30A4_U+30E4_U+30FC 1
 62
   179
420
  2234388
100
AcDbHatch
 10
0.0
 20
0.0
 30
0.0
210
0.0
220
0.0
230
1.0
  2
SOLID
 70
     1
 71
     0
 91
        1
 92
        1
 93
        1
 72
     4
 94
        3
 73
     0
 74
     1
 95
       62
 96
       58
 40
0.0
 40
0.0
 40
0.0
 40
0.0
 40
1.0
 40
1.0
 40
1.0
 40
2.0
 40
2.0
 40
2.0
 40
3.0
 40
3.0
 40
3.0
 40
4.0
 40
4.0
 40
4.0
 40
5.0
 40
5.0
 40
5.0
 40
6.0
 40
6.0
 40
6.0
 40
7.0
 40
7.0
 40
7.0
 40
8.0
 40
8.0
 40
8.0
 40
9.0
 40
9.0
 40
9.0
 40
10.0
 40
10.0
 40
10.0
 40
11.0
 40
11.0
 40
11.0
 40
12.0
 40
12.0
 40
12.0
 40
13.0
 40
13.0
 40
13.0
 40
14.0
 40
14.0
 40
14.0
 40
15.0
 40
15.0
 40
15.0
 40
16.0
 40
16.0
 40
16.0
 40
17.0
 40
17.0
 40
17.0
 40
18.0
 40
18.0
 40
18.0
 40
19.0
 40
19.0
 40
19.0
 40
19.0
 10
92.98967282831508
 20
-149.2239664340482
 10
92.89424368337366
 20
-149.2239664340482
 10
92.67651364870588
 20
-149.2029513515882
 10
92.55145668259131
 20
-149.0169161953847
 10
92.47738712965844
 20
-148.9046060825655
 10
92.47325301507614
 20
-148.8053873325903
 10
92.46911890049384
 20
-148.7206379836532
 10
92.46911890049384
 20
-148.7206379836532
 10
92.6892605020013
 20
-148.7206379836532
 10
92.6892605020013
 20
-148.7206379836532
 10
92.69132755929245
 20
-148.7947075365861
 10
92.7016628457482
 20
-149.0293185391316
 10
92.98519420418427
 20
-149.0293185391316
 10
93.12265351404572
 20
-149.0293185391316
 10
93.2752712440423
 20
-148.9597276103295
 10
93.2752712440423
 20
-148.7313177796574
 10
93.2752712440423
 20
-148.614873552256
 10
93.23703068415603
 20
-148.566297705914
 10
93.20533580569173
 20
-148.5346028274497
 10
93.13126625275885
 20
-148.4605332745168
 10
93.0148220253574
 20
-148.4477864212214
 10
92.96004500714194
 20
-148.4477864212214
 10
92.94075247242453
 20
-148.4477864212214
 10
92.90492347937794
 20
-148.4498534785126
 10
92.87736271549593
 20
-148.4539875930948
 10
92.87736271549593
 20
-148.4539875930948
 10
92.87736271549593
 20
-148.2593396981782
 10
92.87736271549593
 20
-148.2593396981782
 10
92.91560327538221
 20
-148.2658853796002
 10
92.95763344030226
 20
-148.2679524368914
 10
92.96417912172424
 20
-148.2679524368914
 10
93.02963593594399
 20
-148.2679524368914
 10
93.2284179454429
 20
-148.2465928448828
 10
93.2284179454429
 20
-148.0099147850461
 10
93.2284179454429
 20
-147.8321478580073
 10
93.09750431700341
 20
-147.7770263302432
 10
92.98726126147541
 20
-147.7770263302432
 10
92.72302243775675
 20
-147.7770263302432
 10
92.71440969904363
 20
-148.0099147850461
 10
92.71027558446133
 20
-148.0815727711393
 10
92.71027558446133
 20
-148.0815727711393
 10
92.50701495083159
 20
-148.0815727711393
 10
92.50701495083159
 20
-148.0815727711393
 10
92.51562768954471
 20
-147.9568603145733
 10
92.54318845342671
 20
-147.5803113780355
 10
93.00000811477084
 20
-147.5803113780355
 10
93.2242838308606
 20
-147.5803113780355
 10
93.46544051482809
 20
-147.7074354014412
 10
93.46544051482809
 20
-148.0033691036242
 10
93.46544051482809
 20
-148.1897487693762
 10
93.3703558794352
 20
-148.2720865514736
 10
93.27079261991148
 20
-148.3334092511111
 10
93.33211531954892
 20
-148.3609700149931
 10
93.5140163611701
 20
-148.4412407397994
 10
93.5140163611701
 20
-148.718570926362
 10
93.5140163611701
 20
-149.0568793030136
 10
93.26665850532918
 20
-149.2239664340482
 10
92.98967282831508
 20
-149.2239664340482
 97
        0
 97
        0
 75
     2
 76
     1
 98
        0
  0
SPLINE
  5
FC
330
F6
100
AcDbEntity
  8
_U+30EC_U+30A4_U+30E4_U+30FC 1
370
     0
100
AcDbSpline
210
0.0
220
0.0
230
1.0
 70
    11
 71
     3
 72
    62
 73
    58
 74
     0
 42
0.0000000001
 43
0.0000000001
 12
1.0
 22
0.0
 32
0.0
 13
1.0
 23
0.0
 33
0.0
 40
0.0
 40
0.0
 40
0.0
 40
0.0
 40
1.0
 40
1.0
 40
1.0
 40
2.0
 40
2.0
 40
2.0
 40
3.0
 40
3.0
 40
3.0
 40
4.0
 40
4.0
 40
4.0
 40
5.0
 40
5.0
 40
5.0
 40
6.0
 40
6.0
 40
6.0
 40
7.0
 40
7.0
 40
7.0
 40
8.0
 40
8.0
 40
8.0
 40
9.0
 40
9.0
 40
9.0
 40
10.0
 40
10.0
 40
10.0
 40
11.0
 40
11.0
 40
11.0
 40
12.0
 40
12.0
 40
12.0
 40
13.0
 40
13.0
 40
13.0
 40
14.0
 40
14.0
 40
14.0
 40
15.0
 40
15.0
 40
15.0
 40
16.0
 40
16.0
 40
16.0
 40
17.0
 40
17.0
 40
17.0
 40
18.0
 40
18.0
 40
18.0
 40
19.0
 40
19.0
 40
19.0
 40
19.0
 10
94.16651744607643
 20
-149.2239664340482
 30
0.0
 10
94.071088301135
 20
-149.2239664340482
 30
0.0
 10
93.85335826646723
 20
-149.2029513515882
 30
0.0
 10
93.72830130035265
 20
-149.0169161953847
 30
0.0
 10
93.65423174741979
 20
-148.9046060825655
 30
0.0
 10
93.65009763283749
 20
-148.8053873325903
 30
0.0
 10
93.64596351825519
 20
-148.7206379836532
 30
0.0
 10
93.64596351825519
 20
-148.7206379836532
 30
0.0
 10
93.86610511976265
 20
-148.7206379836532
 30
0.0
 10
93.86610511976265
 20
-148.7206379836532
 30
0.0
 10
93.8681721770538
 20
-148.7947075365861
 30
0.0
 10
93.87850746350955
 20
-149.0293185391316
 30
0.0
 10
94.1620388219456
 20
-149.0293185391316
 30
0.0
 10
94.29949813180707
 20
-149.0293185391316
 30
0.0
 10
94.45211586180365
 20
-148.9597276103295
 30
0.0
 10
94.45211586180365
 20
-148.7313177796574
 30
0.0
 10
94.45211586180365
 20
-148.614873552256
 30
0.0
 10
94.41387530191737
 20
-148.566297705914
 30
0.0
 10
94.38218042345306
 20
-148.5346028274497
 30
0.0
 10
94.3081108705202
 20
-148.4605332745168
 30
0.0
 10
94.19166664311875
 20
-148.4477864212214
 30
0.0
 10
94.13688962490328
 20
-148.4477864212214
 30
0.0
 10
94.11759709018588
 20
-148.4477864212214
 30
0.0
 10
94.08176809713929
 20
-148.4498534785126
 30
0.0
 10
94.05420733325728
 20
-148.4539875930948
 30
0.0
 10
94.05420733325728
 20
-148.4539875930948
 30
0.0
 10
94.05420733325728
 20
-148.2593396981782
 30
0.0
 10
94.05420733325728
 20
-148.2593396981782
 30
0.0
 10
94.09244789314356
 20
-148.2658853796002
 30
0.0
 10
94.1344780580636
 20
-148.2679524368914
 30
0.0
 10
94.14102373948558
 20
-148.2679524368914
 30
0.0
 10
94.20648055370533
 20
-148.2679524368914
 30
0.0
 10
94.40526256320425
 20
-148.2465928448828
 30
0.0
 10
94.40526256320425
 20
-148.0099147850461
 30
0.0
 10
94.40526256320425
 20
-147.8321478580073
 30
0.0
 10
94.27434893476475
 20
-147.7770263302432
 30
0.0
 10
94.16410587923676
 20
-147.7770263302432
 30
0.0
 10
93.89986705551809
 20
-147.7770263302432
 30
0.0
 10
93.89125431680498
 20
-148.0099147850461
 30
0.0
 10
93.88712020222268
 20
-148.0815727711393
 30
0.0
 10
93.88712020222268
 20
-148.0815727711393
 30
0.0
 10
93.68385956859292
 20
-148.0815727711393
 30
0.0
 10
93.68385956859292
 20
-148.0815727711393
 30
0.0
 10
93.69247230730605
 20
-147.9568603145733
 30
0.0
 10
93.72003307118806
 20
-147.5803113780355
 30
0.0
 10
94.17685273253218
 20
-147.5803113780355
 30
0.0
 10
94.40112844862195
 20
-147.5803113780355
 30
0.0
 10
94.64228513258944
 20
-147.7074354014412
 30
0.0
 10
94.64228513258944
 20
-148.0033691036242
 30
0.0
 10
94.64228513258944
 20
-148.1897487693762
 30
0.0
 10
94.54720049719654
 20
-148.2720865514736
 30
0.0
 10
94.44763723767282
 20
-148.3334092511111
 30
0.0
 10
94.50895993731027
 20
-148.3609700149931
 30
0.0
 10
94.69086097893145
 20
-148.4412407397994
 30
0.0
 10
94.69086097893145
 20
-148.718570926362
 30
0.0
 10
94.69086097893145
 20
-149.0568793030136
 30
0.0
 10
94.44350312309052
 20
-149.2239664340482
 30
0.0
 10
94.16651744607643
 20
-149.2239664340482
 30
0.0
  0
HATCH
  5
FD
330
F6
100
AcDbEntity
  8
_U+30EC_U+30A4_U+30E4_U+30FC 1
 62
   179
420
  2234388
100
AcDbHatch
 10
0.0
 20
0.0
 30
0.0
210
0.0
220
0.0
230
1.0
  2
SOLID
 70
     1
 71
     0
 91
        1
 92
        1
 93
        1
 72
     4
 94
        3
 73
     0
 74
     1
 95
       62
 96
       58
 40
0.0
 40
0.0
 40
0.0
 40
0.0
 40
1.0
 40
1.0
 40
1.0
 40
2.0
 40
2.0
 40
2.0
 40
3.0
 40
3.0
 40
3.0
 40
4.0
 40
4.0
 40
4.0
 40
5.0
 40
5.0
 40
5.0
 40
6.0
 40
6.0
 40
6.0
 40
7.0
 40
7.0
 40
7.0
 40
8.0
 40
8.0
 40
8.0
 40
9.0
 40
9.0
 40
9.0
 40
10.0
 40
10.0
 40
10.0
 40
11.0
 40
11.0
 40
11.0
 40
12.0
 40
12.0
 40
12.0
 40
13.0
 40
13.0
 40
13.0
 40
14.0
 40
14.0
 40
14.0
 40
15.0
 40
15.0
 40
15.0
 40
16.0
 40
16.0
 40
16.0
 40
17.0
 40
17.0
 40
17.0
 40
18.0
 40
18.0
 40
18.0
 40
19.0
 40
19.0
 40
19.0
 40
19.0
 10
94.16651744607643
 20
-149.2239664340482
 10
94.071088301135
 20
-149.2239664340482
 10
93.85335826646723
 20
-149.2029513515882
 10
93.72830130035265
 20
-149.0169161953847
 10
93.65423174741979
 20
-148.9046060825655
 10
93.65009763283749
 20
-148.8053873325903
 10
93.64596351825519
 20
-148.7206379836532
 10
93.64596351825519
 20
-148.7206379836532
 10
93.86610511976265
 20
-148.7206379836532
 10
93.86610511976265
 20
-148.7206379836532
 10
93.8681721770538
 20
-148.7947075365861
 10
93.87850746350955
 20
-149.0293185391316
 10
94.1620388219456
 20
-149.0293185391316
 10
94.29949813180707
 20
-149.0293185391316
 10
94.45211586180365
 20
-148.9597276103295
 10
94.45211586180365
 20
-148.7313177796574
 10
94.45211586180365
 20
-148.614873552256
 10
94.41387530191737
 20
-148.566297705914
 10
94.38218042345306
 20
-148.5346028274497
 10
94.3081108705202
 20
-148.4605332745168
 10
94.19166664311875
 20
-148.4477864212214
 10
94.13688962490328
 20
-148.4477864212214
 10
94.11759709018588
 20
-148.4477864212214
 10
94.08176809713929
 20
-148.4498534785126
 10
94.05420733325728
 20
-148.4539875930948
 10
94.05420733325728
 20
-148.4539875930948
 10
94.05420733325728
 20
-148.2593396981782
 10
94.05420733325728
 20
-148.2593396981782
 10
94.09244789314356
 20
-148.2658853796002
 10
94.1344780580636
 20
-148.2679524368914
 10
94.14102373948558
 20
-148.2679524368914
 10
94.20648055370533
 20
-148.2679524368914
 10
94.40526256320425
 20
-148.2465928448828
 10
94.40526256320425
 20
-148.0099147850461
 10
94.40526256320425
 20
-147.8321478580073
 10
94.27434893476475
 20
-147.7770263302432
 10
94.16410587923676
 20
-147.7770263302432
 10
93.89986705551809
 20
-147.7770263302432
 10
93.89125431680498
 20
-148.0099147850461
 10
93.88712020222268
 20
-148.0815727711393
 10
93.88712020222268
 20
-148.0815727711393
 10
93.68385956859292
 20
-148.0815727711393
 10
93.68385956859292
 20
-148.0815727711393
 10
93.69247230730605
 20
-147.9568603145733
 10
93.72003307118806
 20
-147.5803113780355
 10
94.17685273253218
 20
-147.5803113780355
 10
94.40112844862195
 20
-147.5803113780355
 10
94.64228513258944
 20
-147.7074354014412
 10
94.64228513258944
 20
-148.0033691036242
 10
94.64228513258944
 20
-148.1897487693762
 10
94.54720049719654
 20
-148.2720865514736
 10
94.44763723767282
 20
-148.3334092511111
 10
94.50895993731027
 20
-148.3609700149931
 10
94.69086097893145
 20
-148.4412407397994
 10
94.69086097893145
 20
-148.718570926362
 10
94.69086097893145
 20
-149.0568793030136
 10
94.44350312309052
 20
-149.2239664340482
 10
94.16651744607643
 20
-149.2239664340482
 97
        0
 97
        0
 75
     2
 76
     1
 98
        0
  0
ENDBLK
  5
F9
330
F6
100
AcDbEntity
  8
0
100
AcDbBlockEnd
  0
BLOCK
  5
10C
330
10A
100
AcDbEntity
  8
0
100
AcDbBlockBegin
  2
block 7
 70
     0
 10
0.0
 20
0.0
 30
0.0
  3
block 7
  1

  0
SPLINE
  5
10E
330
10A
100
AcDbEntity
  8
_U+30EC_U+30A4_U+30E4_U+30FC 1
370
     0
100
AcDbSpline
210
0.0
220
0.0
230
1.0
 70
    11
 71
     3
 72
    62
 73
    58
 74
     0
 42
0.0000000001
 43
0.0000000001
 12
1.0
 22
0.0
 32
0.0
 13
1.0
 23
0.0
 33
0.0
 40
0.0
 40
0.0
 40
0.0
 40
0.0
 40
1.0
 40
1.0
 40
1.0
 40
2.0
 40
2.0
 40
2.0
 40
3.0
 40
3.0
 40
3.0
 40
4.0
 40
4.0
 40
4.0
 40
5.0
 40
5.0
 40
5.0
 40
6.0
 40
6.0
 40
6.0
 40
7.0
 40
7.0
 40
7.0
 40
8.0
 40
8.0
 40
8.0
 40
9.0
 40
9.0
 40
9.0
 40
10.0
 40
10.0
 40
10.0
 40
11.0
 40
11.0
 40
11.0
 40
12.0
 40
12.0
 40
12.0
 40
13.0
 40
13.0
 40
13.0
 40
14.0
 40
14.0
 40
14.0
 40
15.0
 40
15.0
 40
15.0
 40
16.0
 40
16.0
 40
16.0
 40
17.0
 40
17.0
 40
17.0
 40
18.0
 40
18.0
 40
18.0
 40
19.0
 40
19.0
 40
19.0
 40
19.0
 10
72.50013968456594
 20
-130.0595892687004
 30
0.0
 10
72.50013968456594
 20
-130.1550184136418
 30
0.0
 10
72.47895234733166
 20
-130.3727484483096
 30
0.0
 10
72.2927449363539
 20
-130.4978054144242
 30
0.0
 10
72.18060707830902
 20
-130.571874967357
 30
0.0
 10
72.08121607355956
 20
-130.5760090819393
 30
0.0
 10
71.99663897939668
 20
-130.5801431965216
 30
0.0
 10
71.99663897939668
 20
-130.5801431965216
 30
0.0
 10
71.99663897939668
 20
-130.3600015950142
 30
0.0
 10
71.99663897939668
 20
-130.3600015950142
 30
0.0
 10
72.07070853232955
 20
-130.357934537723
 30
0.0
 10
72.30549178964932
 20
-130.3475992512673
 30
0.0
 10
72.30549178964932
 20
-130.0640678928312
 30
0.0
 10
72.30549178964932
 20
-129.9266085829697
 30
0.0
 10
72.23572860607301
 20
-129.7739908529732
 30
0.0
 10
72.00714652062669
 20
-129.7739908529732
 30
0.0
 10
71.8908745479995
 20
-129.7739908529732
 30
0.0
 10
71.84212644688323
 20
-129.8122314128595
 30
0.0
 10
71.81043156841892
 20
-129.8439262913238
 30
0.0
 10
71.73636201548605
 20
-129.9179958442566
 30
0.0
 10
71.7237874169649
 20
-130.0344400716581
 30
0.0
 10
71.7237874169649
 20
-130.0892170898735
 30
0.0
 10
71.7237874169649
 20
-130.1085096245909
 30
0.0
 10
71.72585447425604
 20
-130.1443386176375
 30
0.0
 10
71.72998858883834
 20
-130.1718993815195
 30
0.0
 10
71.72998858883834
 20
-130.1718993815195
 30
0.0
 10
71.53534069392173
 20
-130.1718993815195
 30
0.0
 10
71.53534069392173
 20
-130.1718993815195
 30
0.0
 10
71.54171412056944
 20
-130.1336588216332
 30
0.0
 10
71.54395343263485
 20
-130.0916286567132
 30
0.0
 10
71.54395343263485
 20
-130.0850829752912
 30
0.0
 10
71.54395343263485
 20
-130.0196261610715
 30
0.0
 10
71.52276609540056
 20
-129.8208441515726
 30
0.0
 10
71.28574352601537
 20
-129.8208441515726
 30
0.0
 10
71.10814885375075
 20
-129.8208441515726
 30
0.0
 10
71.05302732598675
 20
-129.9517577800121
 30
0.0
 10
71.05302732598675
 20
-130.0620008355401
 30
0.0
 10
71.05302732598675
 20
-130.3262396592587
 30
0.0
 10
71.28574352601537
 20
-130.3348523979718
 30
0.0
 10
71.35774602165709
 20
-130.3389865125542
 30
0.0
 10
71.35774602165709
 20
-130.3389865125542
 30
0.0
 10
71.35774602165709
 20
-130.5422471461839
 30
0.0
 10
71.35774602165709
 20
-130.5422471461839
 30
0.0
 10
71.23286131031679
 20
-130.5336344074708
 30
0.0
 10
70.85631237377898
 20
-130.5060736435888
 30
0.0
 10
70.85631237377898
 20
-130.0492539822446
 30
0.0
 10
70.85631237377898
 20
-129.8249782661549
 30
0.0
 10
70.98326414241043
 20
-129.5838215821874
 30
0.0
 10
71.27937009936765
 20
-129.5838215821874
 30
0.0
 10
71.46557751034541
 20
-129.5838215821874
 30
0.0
 10
71.54808754721715
 20
-129.6789062175803
 30
0.0
 10
71.6094102468546
 20
-129.778469477104
 30
0.0
 10
71.63697101073659
 20
-129.7171467774666
 30
0.0
 10
71.71741399031718
 20
-129.5352457358454
 30
0.0
 10
71.99457192210552
 20
-129.5352457358454
 30
0.0
 10
72.33305255353132
 20
-129.5352457358454
 30
0.0
 10
72.50013968456594
 20
-129.7826035916863
 30
0.0
 10
72.50013968456594
 20
-130.0595892687004
 30
0.0
  0
HATCH
  5
10F
330
10A
100
AcDbEntity
  8
_U+30EC_U+30A4_U+30E4_U+30FC 1
 62
   179
420
  2234388
100
AcDbHatch
 10
0.0
 20
0.0
 30
0.0
210
0.0
220
0.0
230
1.0
  2
SOLID
 70
     1
 71
     0
 91
        1
 92
        1
 93
        1
 72
     4
 94
        3
 73
     0
 74
     1
 95
       62
 96
       58
 40
0.0
 40
0.0
 40
0.0
 40
0.0
 40
1.0
 40
1.0
 40
1.0
 40
2.0
 40
2.0
 40
2.0
 40
3.0
 40
3.0
 40
3.0
 40
4.0
 40
4.0
 40
4.0
 40
5.0
 40
5.0
 40
5.0
 40
6.0
 40
6.0
 40
6.0
 40
7.0
 40
7.0
 40
7.0
 40
8.0
 40
8.0
 40
8.0
 40
9.0
 40
9.0
 40
9.0
 40
10.0
 40
10.0
 40
10.0
 40
11.0
 40
11.0
 40
11.0
 40
12.0
 40
12.0
 40
12.0
 40
13.0
 40
13.0
 40
13.0
 40
14.0
 40
14.0
 40
14.0
 40
15.0
 40
15.0
 40
15.0
 40
16.0
 40
16.0
 40
16.0
 40
17.0
 40
17.0
 40
17.0
 40
18.0
 40
18.0
 40
18.0
 40
19.0
 40
19.0
 40
19.0
 40
19.0
 10
72.50013968456594
 20
-130.0595892687004
 10
72.50013968456594
 20
-130.1550184136418
 10
72.47895234733166
 20
-130.3727484483096
 10
72.2927449363539
 20
-130.4978054144242
 10
72.18060707830902
 20
-130.571874967357
 10
72.08121607355956
 20
-130.5760090819393
 10
71.99663897939668
 20
-130.5801431965216
 10
71.99663897939668
 20
-130.5801431965216
 10
71.99663897939668
 20
-130.3600015950142
 10
71.99663897939668
 20
-130.3600015950142
 10
72.07070853232955
 20
-130.357934537723
 10
72.30549178964932
 20
-130.3475992512673
 10
72.30549178964932
 20
-130.0640678928312
 10
72.30549178964932
 20
-129.9266085829697
 10
72.23572860607301
 20
-129.7739908529732
 10
72.00714652062669
 20
-129.7739908529732
 10
71.8908745479995
 20
-129.7739908529732
 10
71.84212644688323
 20
-129.8122314128595
 10
71.81043156841892
 20
-129.8439262913238
 10
71.73636201548605
 20
-129.9179958442566
 10
71.7237874169649
 20
-130.0344400716581
 10
71.7237874169649
 20
-130.0892170898735
 10
71.7237874169649
 20
-130.1085096245909
 10
71.72585447425604
 20
-130.1443386176375
 10
71.72998858883834
 20
-130.1718993815195
 10
71.72998858883834
 20
-130.1718993815195
 10
71.53534069392173
 20
-130.1718993815195
 10
71.53534069392173
 20
-130.1718993815195
 10
71.54171412056944
 20
-130.1336588216332
 10
71.54395343263485
 20
-130.0916286567132
 10
71.54395343263485
 20
-130.0850829752912
 10
71.54395343263485
 20
-130.0196261610715
 10
71.52276609540056
 20
-129.8208441515726
 10
71.28574352601537
 20
-129.8208441515726
 10
71.10814885375075
 20
-129.8208441515726
 10
71.05302732598675
 20
-129.9517577800121
 10
71.05302732598675
 20
-130.0620008355401
 10
71.05302732598675
 20
-130.3262396592587
 10
71.28574352601537
 20
-130.3348523979718
 10
71.35774602165709
 20
-130.3389865125542
 10
71.35774602165709
 20
-130.3389865125542
 10
71.35774602165709
 20
-130.5422471461839
 10
71.35774602165709
 20
-130.5422471461839
 10
71.23286131031679
 20
-130.5336344074708
 10
70.85631237377898
 20
-130.5060736435888
 10
70.85631237377898
 20
-130.0492539822446
 10
70.85631237377898
 20
-129.8249782661549
 10
70.98326414241043
 20
-129.5838215821874
 10
71.27937009936765
 20
-129.5838215821874
 10
71.46557751034541
 20
-129.5838215821874
 10
71.54808754721715
 20
-129.6789062175803
 10
71.6094102468546
 20
-129.778469477104
 10
71.63697101073659
 20
-129.7171467774666
 10
71.71741399031718
 20
-129.5352457358454
 10
71.99457192210552
 20
-129.5352457358454
 10
72.33305255353132
 20
-129.5352457358454
 10
72.50013968456594
 20
-129.7826035916863
 10
72.50013968456594
 20
-130.0595892687004
 97
        0
 97
        0
 75
     2
 76
     1
 98
        0
  0
SPLINE
  5
110
330
10A
100
AcDbEntity
  8
_U+30EC_U+30A4_U+30E4_U+30FC 1
370
     0
100
AcDbSpline
210
0.0
220
0.0
230
1.0
 70
    11
 71
     3
 72
    62
 73
    58
 74
     0
 42
0.0000000001
 43
0.0000000001
 12
1.0
 22
0.0
 32
0.0
 13
1.0
 23
0.0
 33
0.0
 40
0.0
 40
0.0
 40
0.0
 40
0.0
 40
1.0
 40
1.0
 40
1.0
 40
2.0
 40
2.0
 40
2.0
 40
3.0
 40
3.0
 40
3.0
 40
4.0
 40
4.0
 40
4.0
 40
5.0
 40
5.0
 40
5.0
 40
6.0
 40
6.0
 40
6.0
 40
7.0
 40
7.0
 40
7.0
 40
8.0
 40
8.0
 40
8.0
 40
9.0
 40
9.0
 40
9.0
 40
10.0
 40
10.0
 40
10.0
 40
11.0
 40
11.0
 40
11.0
 40
12.0
 40
12.0
 40
12.0
 40
13.0
 40
13.0
 40
13.0
 40
14.0
 40
14.0
 40
14.0
 40
15.0
 40
15.0
 40
15.0
 40
16.0
 40
16.0
 40
16.0
 40
17.0
 40
17.0
 40
17.0
 40
18.0
 40
18.0
 40
18.0
 40
19.0
 40
19.0
 40
19.0
 40
19.0
 10
72.50013968456594
 20
-128.882744650939
 30
0.0
 10
72.50013968456594
 20
-128.9781737958805
 30
0.0
 10
72.47895234733166
 20
-129.1959038305482
 30
0.0
 10
72.2927449363539
 20
-129.3209607966628
 30
0.0
 10
72.18060707830902
 20
-129.3950303495957
 30
0.0
 10
72.08121607355956
 20
-129.399164464178
 30
0.0
 10
71.99663897939668
 20
-129.4032985787603
 30
0.0
 10
71.99663897939668
 20
-129.4032985787603
 30
0.0
 10
71.99663897939668
 20
-129.1831569772528
 30
0.0
 10
71.99663897939668
 20
-129.1831569772528
 30
0.0
 10
72.07070853232955
 20
-129.1810899199617
 30
0.0
 10
72.30549178964932
 20
-129.1707546335059
 30
0.0
 10
72.30549178964932
 20
-128.8872232750699
 30
0.0
 10
72.30549178964932
 20
-128.7497639652084
 30
0.0
 10
72.23572860607301
 20
-128.5971462352118
 30
0.0
 10
72.00714652062669
 20
-128.5971462352118
 30
0.0
 10
71.8908745479995
 20
-128.5971462352118
 30
0.0
 10
71.84212644688323
 20
-128.6353867950981
 30
0.0
 10
71.81043156841892
 20
-128.6670816735624
 30
0.0
 10
71.73636201548605
 20
-128.7411512264953
 30
0.0
 10
71.7237874169649
 20
-128.8575954538967
 30
0.0
 10
71.7237874169649
 20
-128.9123724721122
 30
0.0
 10
71.7237874169649
 20
-128.9316650068296
 30
0.0
 10
71.72585447425604
 20
-128.9674939998762
 30
0.0
 10
71.72998858883834
 20
-128.9950547637582
 30
0.0
 10
71.72998858883834
 20
-128.9950547637582
 30
0.0
 10
71.53534069392173
 20
-128.9950547637582
 30
0.0
 10
71.53534069392173
 20
-128.9950547637582
 30
0.0
 10
71.54171412056944
 20
-128.9568142038719
 30
0.0
 10
71.54395343263485
 20
-128.9147840389519
 30
0.0
 10
71.54395343263485
 20
-128.9082383575299
 30
0.0
 10
71.54395343263485
 20
-128.8427815433101
 30
0.0
 10
71.52276609540056
 20
-128.6439995338112
 30
0.0
 10
71.28574352601537
 20
-128.6439995338112
 30
0.0
 10
71.10814885375075
 20
-128.6439995338112
 30
0.0
 10
71.05302732598675
 20
-128.7749131622507
 30
0.0
 10
71.05302732598675
 20
-128.8851562177787
 30
0.0
 10
71.05302732598675
 20
-129.1493950414974
 30
0.0
 10
71.28574352601537
 20
-129.1580077802105
 30
0.0
 10
71.35774602165709
 20
-129.1621418947928
 30
0.0
 10
71.35774602165709
 20
-129.1621418947928
 30
0.0
 10
71.35774602165709
 20
-129.3654025284225
 30
0.0
 10
71.35774602165709
 20
-129.3654025284225
 30
0.0
 10
71.23286131031679
 20
-129.3567897897094
 30
0.0
 10
70.85631237377898
 20
-129.3292290258274
 30
0.0
 10
70.85631237377898
 20
-128.8724093644833
 30
0.0
 10
70.85631237377898
 20
-128.6481336483935
 30
0.0
 10
70.98326414241043
 20
-128.406976964426
 30
0.0
 10
71.27937009936765
 20
-128.406976964426
 30
0.0
 10
71.46557751034541
 20
-128.406976964426
 30
0.0
 10
71.54808754721715
 20
-128.5020615998189
 30
0.0
 10
71.6094102468546
 20
-128.6016248593426
 30
0.0
 10
71.63697101073659
 20
-128.5403021597052
 30
0.0
 10
71.71741399031718
 20
-128.358401118084
 30
0.0
 10
71.99457192210552
 20
-128.358401118084
 30
0.0
 10
72.33305255353132
 20
-128.358401118084
 30
0.0
 10
72.50013968456594
 20
-128.605758973925
 30
0.0
 10
72.50013968456594
 20
-128.882744650939
 30
0.0
  0
HATCH
  5
111
330
10A
100
AcDbEntity
  8
_U+30EC_U+30A4_U+30E4_U+30FC 1
 62
   179
420
  2234388
100
AcDbHatch
 10
0.0
 20
0.0
 30
0.0
210
0.0
220
0.0
230
1.0
  2
SOLID
 70
     1
 71
     0
 91
        1
 92
        1
 93
        1
 72
     4
 94
        3
 73
     0
 74
     1
 95
       62
 96
       58
 40
0.0
 40
0.0
 40
0.0
 40
0.0
 40
1.0
 40
1.0
 40
1.0
 40
2.0
 40
2.0
 40
2.0
 40
3.0
 40
3.0
 40
3.0
 40
4.0
 40
4.0
 40
4.0
 40
5.0
 40
5.0
 40
5.0
 40
6.0
 40
6.0
 40
6.0
 40
7.0
 40
7.0
 40
7.0
 40
8.0
 40
8.0
 40
8.0
 40
9.0
 40
9.0
 40
9.0
 40
10.0
 40
10.0
 40
10.0
 40
11.0
 40
11.0
 40
11.0
 40
12.0
 40
12.0
 40
12.0
 40
13.0
 40
13.0
 40
13.0
 40
14.0
 40
14.0
 40
14.0
 40
15.0
 40
15.0
 40
15.0
 40
16.0
 40
16.0
 40
16.0
 40
17.0
 40
17.0
 40
17.0
 40
18.0
 40
18.0
 40
18.0
 40
19.0
 40
19.0
 40
19.0
 40
19.0
 10
72.50013968456594
 20
-128.882744650939
 10
72.50013968456594
 20
-128.9781737958805
 10
72.47895234733166
 20
-129.1959038305482
 10
72.2927449363539
 20
-129.3209607966628
 10
72.18060707830902
 20
-129.3950303495957
 10
72.08121607355956
 20
-129.399164464178
 10
71.99663897939668
 20
-129.4032985787603
 10
71.99663897939668
 20
-129.4032985787603
 10
71.99663897939668
 20
-129.1831569772528
 10
71.99663897939668
 20
-129.1831569772528
 10
72.07070853232955
 20
-129.1810899199617
 10
72.30549178964932
 20
-129.1707546335059
 10
72.30549178964932
 20
-128.8872232750699
 10
72.30549178964932
 20
-128.7497639652084
 10
72.23572860607301
 20
-128.5971462352118
 10
72.00714652062669
 20
-128.5971462352118
 10
71.8908745479995
 20
-128.5971462352118
 10
71.84212644688323
 20
-128.6353867950981
 10
71.81043156841892
 20
-128.6670816735624
 10
71.73636201548605
 20
-128.7411512264953
 10
71.7237874169649
 20
-128.8575954538967
 10
71.7237874169649
 20
-128.9123724721122
 10
71.7237874169649
 20
-128.9316650068296
 10
71.72585447425604
 20
-128.9674939998762
 10
71.72998858883834
 20
-128.9950547637582
 10
71.72998858883834
 20
-128.9950547637582
 10
71.53534069392173
 20
-128.9950547637582
 10
71.53534069392173
 20
-128.9950547637582
 10
71.54171412056944
 20
-128.9568142038719
 10
71.54395343263485
 20
-128.9147840389519
 10
71.54395343263485
 20
-128.9082383575299
 10
71.54395343263485
 20
-128.8427815433101
 10
71.52276609540056
 20
-128.6439995338112
 10
71.28574352601537
 20
-128.6439995338112
 10
71.10814885375075
 20
-128.6439995338112
 10
71.05302732598675
 20
-128.7749131622507
 10
71.05302732598675
 20
-128.8851562177787
 10
71.05302732598675
 20
-129.1493950414974
 10
71.28574352601537
 20
-129.1580077802105
 10
71.35774602165709
 20
-129.1621418947928
 10
71.35774602165709
 20
-129.1621418947928
 10
71.35774602165709
 20
-129.3654025284225
 10
71.35774602165709
 20
-129.3654025284225
 10
71.23286131031679
 20
-129.3567897897094
 10
70.85631237377898
 20
-129.3292290258274
 10
70.85631237377898
 20
-128.8724093644833
 10
70.85631237377898
 20
-128.6481336483935
 10
70.98326414241043
 20
-128.406976964426
 10
71.27937009936765
 20
-128.406976964426
 10
71.46557751034541
 20
-128.406976964426
 10
71.54808754721715
 20
-128.5020615998189
 10
71.6094102468546
 20
-128.6016248593426
 10
71.63697101073659
 20
-128.5403021597052
 10
71.71741399031718
 20
-128.358401118084
 10
71.99457192210552
 20
-128.358401118084
 10
72.33305255353132
 20
-128.358401118084
 10
72.50013968456594
 20
-128.605758973925
 10
72.50013968456594
 20
-128.882744650939
 97
        0
 97
        0
 75
     2
 76
     1
 98
        0
  0
ENDBLK
  5
10D
330
10A
100
AcDbEntity
  8
0
100
AcDbBlockEnd
  0
ENDSEC
  0
SECTION
  2
ENTITIES
  0
INSERT
  5
42
330
1F
100
AcDbEntity
  8
_U+30EC_U+30A4_U+30E4_U+30FC 1
100
AcDbBlockReference
  2
block 2
 10
0.0
 20
0.0
 30
0.0
  0
ENDSEC
  0
SECTION
  2
OBJECTS
  0
DICTIONARY
  5
C
330
0
100
AcDbDictionary
281
     1
  3
ACAD_GROUP
350
D
  3
ACAD_LAYOUT
350
1A
  3
ACAD_MATERIAL
350
3B
  3
ACAD_MLEADERSTYLE
350
113
  3
ACAD_MLINESTYLE
350
17
  3
ACAD_PLOTSETTINGS
350
19
  3
ACAD_PLOTSTYLENAME
350
E
  3
ACAD_TABLESTYLE
350
112
  3
ACAD_VISUALSTYLE
350
2A
  0
SUN
  5
3F
330
29
100
AcDbSun
 90
        1
290
     0
 63
     7
421
 16777215
 40
1.0
291
     1
 91
  2455826
 92
 54000000
292
     0
 70
     2
 71
   256
280
     1
  0
DICTIONARY
  5
D
102
{ACAD_REACTORS
330
C
102
}
330
C
100
AcDbDictionary
281
     1
  0
DICTIONARY
  5
1A
102
{ACAD_REACTORS
330
C
102
}
330
C
100
AcDbDictionary
281
     1
  3
Layout1
350
1E
  3
Layout2
350
26
  3
Model
350
22
  0
DICTIONARY
  5
3B
102
{ACAD_REACTORS
330
C
102
}
330
C
100
AcDbDictionary
281
     1
  3
ByBlock
350
3D
  3
ByLayer
350
3C
  3
Global
350
3E
  0
DICTIONARY
  5
113
102
{ACAD_REACTORS
330
C
102
}
330
C
100
AcDbDictionary
281
     1
  0
DICTIONARY
  5
17
102
{ACAD_REACTORS
330
C
102
}
330
C
100
AcDbDictionary
281
     1
  3
Standard
350
18
  0
DICTIONARY
  5
19
102
{ACAD_REACTORS
330
C
102
}
330
C
100
AcDbDictionary
281
     1
  0
ACDBDICTIONARYWDFLT
  5
E
102
{ACAD_REACTORS
330
C
102
}
330
C
100
AcDbDictionary
281
     1
  3
Normal
350
F
100
AcDbDictionaryWithDefault
340
F
  0
DICTIONARY
  5
112
102
{ACAD_REACTORS
330
C
102
}
330
C
100
AcDbDictionary
281
     1
  0
DICTIONARY
  5
2A
102
{ACAD_REACTORS
330
C
102
}
330
C
100
AcDbDictionary
281
     1
  3
2dWireframe
350
2F
  3
3D Hidden
350
31
  3
3dWireframe
350
30
  3
Basic
350
32
  3
Brighten
350
36
  3
ColorChange
350
3A
  3
Conceptual
350
34
  3
Dim
350
35
  3
Facepattern
350
39
  3
Flat
350
2B
  3
FlatWithEdges
350
2C
  3
Gouraud
350
2D
  3
GouraudWithEdges
350
2E
  3
Linepattern
350
38
  3
Realistic
350
33
  3
Thicken
350
37
  0
LAYOUT
  5
1E
102
{ACAD_REACTORS
330
1A
102
}
330
1A
100
AcDbPlotSettings
  1

  2
none_device
  4

  6

 40
0.0
 41
0.0
 42
0.0
 43
0.0
 44
0.0
 45
0.0
 46
0.0
 47
0.0
 48
0.0
 49
0.0
140
0.0
141
0.0
142
1.0
143
1.0
 70
   688
 72
     0
 73
     0
 74
     5
  7

 75
    16
 76
     0
 77
     2
 78
   300
147
1.0
148
0.0
149
0.0
100
AcDbLayout
  1
Layout1
 70
     1
 71
     1
 10
0.0
 20
0.0
 11
12.0
 21
9.0
 12
0.0
 22
0.0
 32
0.0
 14
1.000000000000000E+20
 24
1.000000000000000E+20
 34
1.000000000000000E+20
 15
-1.000000000000000E+20
 25
-1.000000000000000E+20
 35
-1.000000000000000E+20
146
0.0
 13
0.0
 23
0.0
 33
0.0
 16
1.0
 26
0.0
 36
0.0
 17
0.0
 27
1.0
 37
0.0
 76
     0
330
1B
  0
LAYOUT
  5
26
102
{ACAD_REACTORS
330
1A
102
}
330
1A
100
AcDbPlotSettings
  1

  2
none_device
  4

  6

 40
0.0
 41
0.0
 42
0.0
 43
0.0
 44
0.0
 45
0.0
 46
0.0
 47
0.0
 48
0.0
 49
0.0
140
0.0
141
0.0
142
1.0
143
1.0
 70
   688
 72
     0
 73
     0
 74
     5
  7

 75
    16
 76
     0
 77
     2
 78
   300
147
1.0
148
0.0
149
0.0
100
AcDbLayout
  1
Layout2
 70
     1
 71
     2
 10
0.0
 20
0.0
 11
0.0
 21
0.0
 12
0.0
 22
0.0
 32
0.0
 14
0.0
 24
0.0
 34
0.0
 15
0.0
 25
0.0
 35
0.0
146
0.0
 13
0.0
 23
0.0
 33
0.0
 16
1.0
 26
0.0
 36
0.0
 17
0.0
 27
1.0
 37
0.0
 76
     0
330
23
  0
LAYOUT
  5
22
102
{ACAD_REACTORS
330
1A
102
}
330
1A
100
AcDbPlotSettings
  1

  2
none_device
  4

  6

 40
0.0
 41
0.0
 42
0.0
 43
0.0
 44
0.0
 45
0.0
 46
0.0
 47
0.0
 48
0.0
 49
0.0
140
0.0
141
0.0
142
1.0
143
1.0
 70
  1712
 72
     0
 73
     0
 74
     0
  7

 75
     0
 76
     0
 77
     2
 78
   300
147
1.0
148
0.0
149
0.0
100
AcDbLayout
  1
Model
 70
     1
 71
     0
 10
0.0
 20
0.0
 11
12.0
 21
9.0
 12
0.0
 22
0.0
 32
0.0
 14
1.000000000000000E+20
 24
1.000000000000000E+20
 34
1.000000000000000E+20
 15
-1.000000000000000E+20
 25
-1.000000000000000E+20
 35
-1.000000000000000E+20
146
0.0
 13
0.0
 23
0.0
 33
0.0
 16
1.0
 26
0.0
 36
0.0
 17
0.0
 27
1.0
 37
0.0
 76
     0
330
1F
331
29
  0
MATERIAL
  5
3D
102
{ACAD_REACTORS
330
3B
102
}
330
3B
100
AcDbMaterial
  1
ByBlock
 72
     1
 94
      127
  0
MATERIAL
  5
3C
102
{ACAD_REACTORS
330
3B
102
}
330
3B
100
AcDbMaterial
  1
ByLayer
 72
     1
 94
      127
  0
MATERIAL
  5
3E
102
{ACAD_REACTORS
330
3B
102
}
330
3B
100
AcDbMaterial
  1
Global
 72
     1
 94
      127
  0
MLINESTYLE
  5
18
102
{ACAD_REACTORS
330
17
102
}
330
17
100
AcDbMlineStyle
  2
Standard
 70
     0
  3

 62
   256
 51
90.0
 52
90.0
 71
     2
 49
0.5
 62
   256
  6
BYLAYER
 49
-0.5
 62
   256
  6
BYLAYER
  0
ACDBPLACEHOLDER
  5
F
102
{ACAD_REACTORS
330
E
102
}
330
E
  0
VISUALSTYLE
  5
2F
102
{ACAD_REACTORS
330
2A
102
}
330
2A
100
AcDbVisualStyle
  2
2dWireframe
 70
     4
177
     2
291
     0
 71
     0
176
     1
 72
     2
176
     1
 73
     0
176
     1
 90
        0
176
     1
 40
-0.6
176
     1
 41
-30.0
176
     1
 62
     5
 63
     7
421
 16777215
176
     1
 74
     1
176
     1
 91
        4
176
     1
 64
     7
176
     1
 65
   257
176
     1
 75
     1
176
     1
175
     1
176
     1
 42
1.0
176
     1
 92
        0
176
     1
 66
   257
176
     1
 43
1.0
176
     1
 76
     1
176
     1
 77
     6
176
     1
 78
     2
176
     1
 67
     7
176
     1
 79
     5
176
     1
170
     0
176
     1
171
     0
176
     1
290
     0
176
     1
 93
        1
176
     1
 44
0.0
176
     1
173
     0
176
     1
  0
VISUALSTYLE
  5
31
102
{ACAD_REACTORS
330
2A
102
}
330
2A
100
AcDbVisualStyle
  2
3D Hidden
 70
     6
177
     2
291
     0
 71
     1
176
     1
 72
     2
176
     1
 73
     2
176
     1
 90
        0
176
     1
 40
-0.6
176
     1
 41
-30.0
176
     1
 62
     5
 63
     7
421
 16777215
176
     1
 74
     2
176
     1
 91
        2
176
     1
 64
     7
176
     1
 65
   257
176
     1
 75
     2
176
     1
175
     1
176
     1
 42
40.0
176
     1
 92
        0
176
     1
 66
   257
176
     1
 43
1.0
176
     1
 76
     1
176
     1
 77
     6
176
     1
 78
     2
176
     1
 67
     7
176
     1
 79
     3
176
     1
170
     0
176
     1
171
     0
176
     1
290
     0
176
     1
 93
        1
176
     1
 44
0.0
176
     1
173
     0
176
     1
  0
VISUALSTYLE
  5
30
102
{ACAD_REACTORS
330
2A
102
}
330
2A
100
AcDbVisualStyle
  2
3dWireframe
 70
     5
177
     2
291
     0
 71
     0
176
     1
 72
     2
176
     1
 73
     0
176
     1
 90
        0
176
     1
 40
-0.6
176
     1
 41
-30.0
176
     1
 62
     5
 63
     7
421
 16777215
176
     1
 74
     1
176
     1
 91
        4
176
     1
 64
     7
176
     1
 65
   257
176
     1
 75
     1
176
     1
175
     1
176
     1
 42
1.0
176
     1
 92
        0
176
     1
 66
   257
176
     1
 43
1.0
176
     1
 76
     1
176
     1
 77
     6
176
     1
 78
     2
176
     1
 67
     7
176
     1
 79
     5
176
     1
170
     0
176
     1
171
     0
176
     1
290
     0
176
     1
 93
        1
176
     1
 44
0.0
176
     1
173
     0
176
     1
  0
VISUALSTYLE
  5
32
102
{ACAD_REACTORS
330
2A
102
}
330
2A
100
AcDbVisualStyle
  2
Basic
 70
     7
177
     2
291
     1
 71
     1
176
     1
 72
     0
176
     1
 73
     1
176
     1
 90
        0
176
     1
 40
-0.6
176
     1
 41
-30.0
176
     1
 62
     5
 63
     7
421
 16777215
176
     1
 74
     0
176
     1
 91
        4
176
     1
 64
     7
176
     1
 65
   257
176
     1
 75
     1
176
     1
175
     1
176
     1
 42
1.0
176
     1
 92
        8
176
     1
 66
     7
176
     1
 43
1.0
176
     1
 76
     1
176
     1
 77
     6
176
     1
 78
     2
176
     1
 67
     7
176
     1
 79
     5
176
     1
170
     0
176
     1
171
     0
176
     1
290
     0
176
     1
 93
        1
176
     1
 44
0.0
176
     1
173
     0
176
     1
  0
VISUALSTYLE
  5
36
102
{ACAD_REACTORS
330
2A
102
}
330
2A
100
AcDbVisualStyle
  2
Brighten
 70
    12
177
     2
291
     1
 71
     2
176
     1
 72
     2
176
     1
 73
     0
176
     1
 90
        0
176
     1
 40
-0.6
176
     1
 41
-30.0
176
     1
 62
     5
 63
     7
421
 16777215
176
     1
 74
     1
176
     1
 91
        4
176
     1
 64
     7
176
     1
 65
   257
176
     1
 75
     1
176
     1
175
     1
176
     1
 42
1.0
176
     1
 92
        8
176
     1
 66
     7
176
     1
 43
1.0
176
     1
 76
     1
176
     1
 77
     6
176
     1
 78
     2
176
     1
 67
     7
176
     1
 79
     5
176
     1
170
     0
176
     1
171
     0
176
     1
290
     0
176
     1
 93
        1
176
     1
 44
50.0
176
     1
173
     0
176
     1
  0
VISUALSTYLE
  5
3A
102
{ACAD_REACTORS
330
2A
102
}
330
2A
100
AcDbVisualStyle
  2
ColorChange
 70
    16
177
     2
291
     1
 71
     2
176
     1
 72
     2
176
     1
 73
     3
176
     1
 90
        0
176
     1
 40
-0.6
176
     1
 41
-30.0
176
     1
 62
     5
 63
     8
421
  8421504
176
     1
 74
     1
176
     1
 91
        4
176
     1
 64
     7
176
     1
 65
   257
176
     1
 75
     1
176
     1
175
     1
176
     1
 42
1.0
176
     1
 92
        8
176
     1
 66
     8
424
  8421504
176
     1
 43
1.0
176
     1
 76
     1
176
     1
 77
     6
176
     1
 78
     2
176
     1
 67
     7
176
     1
 79
     5
176
     1
170
     0
176
     1
171
     0
176
     1
290
     0
176
     1
 93
        1
176
     1
 44
0.0
176
     1
173
     0
176
     1
  0
VISUALSTYLE
  5
34
102
{ACAD_REACTORS
330
2A
102
}
330
2A
100
AcDbVisualStyle
  2
Conceptual
 70
     9
177
     2
291
     0
 71
     3
176
     1
 72
     2
176
     1
 73
     0
176
     1
 90
        0
176
     1
 40
-0.6
176
     1
 41
-30.0
176
     1
 62
     5
 63
     7
421
 16777215
176
     1
 74
     2
176
     1
 91
        2
176
     1
 64
     7
176
     1
 65
   257
176
     1
 75
     1
176
     1
175
     1
176
     1
 42
40.0
176
     1
 92
        8
176
     1
 66
     7
176
     1
 43
1.0
176
     1
 76
     1
176
     1
 77
     6
176
     1
 78
     2
176
     1
 67
     7
176
     1
 79
     3
176
     1
170
     0
176
     1
171
     0
176
     1
290
     0
176
     1
 93
        1
176
     1
 44
0.0
176
     1
173
     0
176
     1
  0
VISUALSTYLE
  5
35
102
{ACAD_REACTORS
330
2A
102
}
330
2A
100
AcDbVisualStyle
  2
Dim
 70
    11
177
     2
291
     1
 71
     2
176
     1
 72
     2
176
     1
 73
     0
176
     1
 90
        0
176
     1
 40
-0.6
176
     1
 41
-30.0
176
     1
 62
     5
 63
     7
421
 16777215
176
     1
 74
     1
176
     1
 91
        4
176
     1
 64
     7
176
     1
 65
   257
176
     1
 75
     1
176
     1
175
     1
176
     1
 42
1.0
176
     1
 92
        8
176
     1
 66
     7
176
     1
 43
1.0
176
     1
 76
     1
176
     1
 77
     6
176
     1
 78
     2
176
     1
 67
     7
176
     1
 79
     5
176
     1
170
     0
176
     1
171
     0
176
     1
290
     0
176
     1
 93
        1
176
     1
 44
-50.0
176
     1
173
     0
176
     1
  0
VISUALSTYLE
  5
39
102
{ACAD_REACTORS
330
2A
102
}
330
2A
100
AcDbVisualStyle
  2
Facepattern
 70
    15
177
     2
291
     1
 71
     2
176
     1
 72
     2
176
     1
 73
     0
176
     1
 90
        0
176
     1
 40
-0.6
176
     1
 41
-30.0
176
     1
 62
     5
 63
     7
421
 16777215
176
     1
 74
     1
176
     1
 91
        4
176
     1
 64
     7
176
     1
 65
   257
176
     1
 75
     1
176
     1
175
     1
176
     1
 42
1.0
176
     1
 92
        8
176
     1
 66
     7
176
     1
 43
1.0
176
     1
 76
     1
176
     1
 77
     6
176
     1
 78
     2
176
     1
 67
     7
176
     1
 79
     5
176
     1
170
     0
176
     1
171
     0
176
     1
290
     0
176
     1
 93
        1
176
     1
 44
0.0
176
     1
173
     0
176
     1
  0
VISUALSTYLE
  5
2B
102
{ACAD_REACTORS
330
2A
102
}
330
2A
100
AcDbVisualStyle
  2
Flat
 70
     0
177
     2
291
     1
 71
     2
176
     1
 72
     1
176
     1
 73
     1
176
     1
 90
        2
176
     1
 40
-0.6
176
     1
 41
30.0
176
     1
 62
     5
 63
     7
421
 16777215
176
     1
 74
     0
176
     1
 91
        4
176
     1
 64
     7
176
     1
 65
   257
176
     1
 75
     1
176
     1
175
     1
176
     1
 42
1.0
176
     1
 92
        8
176
     1
 66
     7
176
     1
 43
1.0
176
     1
 76
     1
176
     1
 77
     6
176
     1
 78
     2
176
     1
 67
     7
176
     1
 79
     5
176
     1
170
     0
176
     1
171
     0
176
     1
290
     0
176
     1
 93
       13
176
     1
 44
0.0
176
     1
173
     0
176
     1
  0
VISUALSTYLE
  5
2C
102
{ACAD_REACTORS
330
2A
102
}
330
2A
100
AcDbVisualStyle
  2
FlatWithEdges
 70
     1
177
     2
291
     1
 71
     2
176
     1
 72
     1
176
     1
 73
     1
176
     1
 90
        2
176
     1
 40
-0.6
176
     1
 41
30.0
176
     1
 62
     5
 63
     7
421
 16777215
176
     1
 74
     1
176
     1
 91
        4
176
     1
 64
     7
176
     1
 65
   257
176
     1
 75
     1
176
     1
175
     1
176
     1
 42
1.0
176
     1
 92
        0
176
     1
 66
   257
176
     1
 43
1.0
176
     1
 76
     1
176
     1
 77
     6
176
     1
 78
     2
176
     1
 67
     7
176
     1
 79
     5
176
     1
170
     0
176
     1
171
     0
176
     1
290
     0
176
     1
 93
       13
176
     1
 44
0.0
176
     1
173
     0
176
     1
  0
VISUALSTYLE
  5
2D
102
{ACAD_REACTORS
330
2A
102
}
330
2A
100
AcDbVisualStyle
  2
Gouraud
 70
     2
177
     2
291
     1
 71
     2
176
     1
 72
     2
176
     1
 73
     1
176
     1
 90
        2
176
     1
 40
-0.6
176
     1
 41
30.0
176
     1
 62
     5
 63
     7
421
 16777215
176
     1
 74
     0
176
     1
 91
        4
176
     1
 64
     7
176
     1
 65
   257
176
     1
 75
     1
176
     1
175
     1
176
     1
 42
1.0
176
     1
 92
        0
176
     1
 66
     7
176
     1
 43
1.0
176
     1
 76
     1
176
     1
 77
     6
176
     1
 78
     2
176
     1
 67
     7
176
     1
 79
     5
176
     1
170
     0
176
     1
171
     0
176
     1
290
     0
176
     1
 93
       13
176
     1
 44
0.0
176
     1
173
     0
176
     1
  0
VISUALSTYLE
  5
2E
102
{ACAD_REACTORS
330
2A
102
}
330
2A
100
AcDbVisualStyle
  2
GouraudWithEdges
 70
     3
177
     2
291
     1
 71
     2
176
     1
 72
     2
176
     1
 73
     1
176
     1
 90
        2
176
     1
 40
-0.6
176
     1
 41
30.0
176
     1
 62
     5
 63
     7
421
 16777215
176
     1
 74
     1
176
     1
 91
        4
176
     1
 64
     7
176
     1
 65
   257
176
     1
 75
     1
176
     1
175
     1
176
     1
 42
1.0
176
     1
 92
        0
176
     1
 66
   257
176
     1
 43
1.0
176
     1
 76
     1
176
     1
 77
     6
176
     1
 78
     2
176
     1
 67
     7
176
     1
 79
     5
176
     1
170
     0
176
     1
171
     0
176
     1
290
     0
176
     1
 93
       13
176
     1
 44
0.0
176
     1
173
     0
176
     1
  0
VISUALSTYLE
  5
38
102
{ACAD_REACTORS
330
2A
102
}
330
2A
100
AcDbVisualStyle
  2
Linepattern
 70
    14
177
     2
291
     1
 71
     2
176
     1
 72
     2
176
     1
 73
     0
176
     1
 90
        0
176
     1
 40
-0.6
176
     1
 41
-30.0
176
     1
 62
     5
 63
     7
421
 16777215
176
     1
 74
     1
176
     1
 91
        4
176
     1
 64
     7
176
     1
 65
   257
176
     1
 75
     7
176
     1
175
     7
176
     1
 42
1.0
176
     1
 92
        8
176
     1
 66
     7
176
     1
 43
1.0
176
     1
 76
     1
176
     1
 77
     6
176
     1
 78
     2
176
     1
 67
     7
176
     1
 79
     5
176
     1
170
     0
176
     1
171
     0
176
     1
290
     0
176
     1
 93
        1
176
     1
 44
0.0
176
     1
173
     0
176
     1
  0
VISUALSTYLE
  5
33
102
{ACAD_REACTORS
330
2A
102
}
330
2A
100
AcDbVisualStyle
  2
Realistic
 70
     8
177
     2
291
     0
 71
     2
176
     1
 72
     2
176
     1
 73
     0
176
     1
 90
        0
176
     1
 40
-0.6
176
     1
 41
-30.0
176
     1
 62
     5
 63
     7
421
 16777215
176
     1
 74
     1
176
     1
 91
        0
176
     1
 64
     7
176
     1
 65
   257
176
     1
 75
     1
176
     1
175
     1
176
     1
 42
1.0
176
     1
 92
        8
176
     1
 66
     8
424
  7895160
176
     1
 43
1.0
176
     1
 76
     1
176
     1
 77
     6
176
     1
 78
     2
176
     1
 67
     7
176
     1
 79
     5
176
     1
170
     0
176
     1
171
     0
176
     1
290
     0
176
     1
 93
       13
176
     1
 44
0.0
176
     1
173
     0
176
     1
  0
VISUALSTYLE
  5
37
102
{ACAD_REACTORS
330
2A
102
}
330
2A
100
AcDbVisualStyle
  2
Thicken
 70
    13
177
     2
291
     1
 71
     2
176
     1
 72
     2
176
     1
 73
     0
176
     1
 90
        0
176
     1
 40
-0.6
176
     1
 41
-30.0
176
     1
 62
     5
 63
     7
421
 16777215
176
     1
 74
     1
176
     1
 91
        4
176
     1
 64
     7
176
     1
 65
   257
176
     1
 75
     1
176
     1
175
     1
176
     1
 42
1.0
176
     1
 92
       12
176
     1
 66
     7
176
     1
 43
1.0
176
     1
 76
     1
176
     1
 77
     6
176
     1
 78
     2
176
     1
 67
     7
176
     1
 79
     5
176
     1
170
     0
176
     1
171
     0
176
     1
290
     0
176
     1
 93
        1
176
     1
 44
0.0
176
     1
173
     0
176
     1
  0
ENDSEC
  0
EOF
