  0
SECTION
  2
HEADER
  9
$ACADVER
  1
AC1024
  9
$ACADMAINTVER
 70
     6
  9
$DWGCODEPAGE
  3
UNDEFINED
  9
$INSBASE
 10
0.0
 20
0.0
 30
0.0
  9
$EXTMIN
 10
1.000000000000000E+20
 20
1.000000000000000E+20
 30
1.000000000000000E+20
  9
$EXTMAX
 10
-1.000000000000000E+20
 20
-1.000000000000000E+20
 30
-1.000000000000000E+20
  9
$LIMMIN
 10
0.0
 20
0.0
  9
$LIMMAX
 10
12.0
 20
9.0
  9
$ORTHOMODE
 70
     0
  9
$REGENMODE
 70
     1
  9
$FILLMODE
 70
     1
  9
$QTEXTMODE
 70
     0
  9
$MIRRTEXT
 70
     1
  9
$LTSCALE
 40
1.0
  9
$ATTMODE
 70
     1
  9
$TEXTSIZE
 40
0.2
  9
$TRACEWID
 40
0.05
  9
$TEXTSTYLE
  7
Standard
  9
$CLAYER
  8
0
  9
$CELTYPE
  6
ByLayer
  9
$CECOLOR
 62
   256
  9
$CELTSCALE
 40
1.0
  9
$DISPSILH
 70
     0
  9
$DIMSCALE
 40
1.0
  9
$DIMASZ
 40
0.18
  9
$DIMEXO
 40
0.0625
  9
$DIMDLI
 40
0.38
  9
$DIMRND
 40
0.0
  9
$DIMDLE
 40
0.0
  9
$DIMEXE
 40
0.18
  9
$DIMTP
 40
0.0
  9
$DIMTM
 40
0.0
  9
$DIMTXT
 40
0.18
  9
$DIMCEN
 40
0.09
  9
$DIMTSZ
 40
0.0
  9
$DIMTOL
 70
     0
  9
$DIMLIM
 70
     0
  9
$DIMTIH
 70
     1
  9
$DIMTOH
 70
     1
  9
$DIMSE1
 70
     0
  9
$DIMSE2
 70
     0
  9
$DIMTAD
 70
     0
  9
$DIMZIN
 70
     0
  9
$DIMBLK
  1

  9
$DIMASO
 70
     1
  9
$DIMSHO
 70
     1
  9
$DIMPOST
  1

  9
$DIMAPOST
  1

  9
$DIMALT
 70
     0
  9
$DIMALTD
 70
     2
  9
$DIMALTF
 40
25.4
  9
$DIMLFAC
 40
1.0
  9
$DIMTOFL
 70
     0
  9
$DIMTVP
 40
0.0
  9
$DIMTIX
 70
     0
  9
$DIMSOXD
 70
     0
  9
$DIMSAH
 70
     0
  9
$DIMBLK1
  1

  9
$DIMBLK2
  1

  9
$DIMSTYLE
  2
Standard
  9
$DIMCLRD
 70
     0
  9
$DIMCLRE
 70
     0
  9
$DIMCLRT
 70
     0
  9
$DIMTFAC
 40
1.0
  9
$DIMGAP
 40
0.09
  9
$DIMJUST
 70
     0
  9
$DIMSD1
 70
     0
  9
$DIMSD2
 70
     0
  9
$DIMTOLJ
 70
     1
  9
$DIMTZIN
 70
     0
  9
$DIMALTZ
 70
     0
  9
$DIMALTTZ
 70
     0
  9
$DIMUPT
 70
     0
  9
$DIMDEC
 70
     4
  9
$DIMTDEC
 70
     4
  9
$DIMALTU
 70
     2
  9
$DIMALTTD
 70
     2
  9
$DIMTXSTY
  7
Standard
  9
$DIMAUNIT
 70
     0
  9
$DIMADEC
 70
     0
  9
$DIMALTRND
 40
0.0
  9
$DIMAZIN
 70
     0
  9
$DIMDSEP
 70
    46
  9
$DIMATFIT
 70
     3
  9
$DIMFRAC
 70
     0
  9
$DIMLDRBLK
  1

  9
$DIMLUNIT
 70
     2
  9
$DIMLWD
 70
    -2
  9
$DIMLWE
 70
    -2
  9
$DIMTMOVE
 70
     0
  9
$DIMFXL
 40
1.0
  9
$DIMFXLON
 70
     0
  9
$DIMJOGANG
 40
0.7853981633974483
  9
$DIMTFILL
 70
     0
  9
$DIMTFILLCLR
 70
     0
  9
$DIMARCSYM
 70
     0
  9
$DIMLTYPE
  6

  9
$DIMLTEX1
  6

  9
$DIMLTEX2
  6

  9
$DIMTXTDIRECTION
 70
     0
  9
$LUNITS
 70
     2
  9
$LUPREC
 70
     4
  9
$SKETCHINC
 40
0.1
  9
$FILLETRAD
 40
0.5
  9
$AUNITS
 70
     0
  9
$AUPREC
 70
     0
  9
$MENU
  1
.
  9
$ELEVATION
 40
0.0
  9
$PELEVATION
 40
0.0
  9
$THICKNESS
 40
0.0
  9
$LIMCHECK
 70
     0
  9
$CHAMFERA
 40
0.5
  9
$CHAMFERB
 40
0.5
  9
$CHAMFERC
 40
1.0
  9
$CHAMFERD
 40
0.0
  9
$SKPOLY
 70
     0
  9
$TDCREATE
 40
2457917.585243056
  9
$TDUCREATE
 40
2457917.210243056
  9
$TDUPDATE
 40
2457917.585243056
  9
$TDUUPDATE
 40
2457917.210243056
  9
$TDINDWG
 40
0.0000000116
  9
$TDUSRTIMER
 40
0.0000000116
  9
$USRTIMER
 70
     1
  9
$ANGBASE
 50
0.0
  9
$ANGDIR
 70
     0
  9
$PDMODE
 70
     0
  9
$PDSIZE
 40
0.0
  9
$PLINEWID
 40
0.0
  9
$SPLFRAME
 70
     0
  9
$SPLINETYPE
 70
     6
  9
$SPLINESEGS
 70
     8
  9
$HANDSEED
  5
129
  9
$SURFTAB1
 70
     6
  9
$SURFTAB2
 70
     6
  9
$SURFTYPE
 70
     6
  9
$SURFU
 70
     6
  9
$SURFV
 70
     6
  9
$UCSBASE
  2

  9
$UCSNAME
  2

  9
$UCSORG
 10
0.0
 20
0.0
 30
0.0
  9
$UCSXDIR
 10
1.0
 20
0.0
 30
0.0
  9
$UCSYDIR
 10
0.0
 20
1.0
 30
0.0
  9
$UCSORTHOREF
  2

  9
$UCSORTHOVIEW
 70
     0
  9
$UCSORGTOP
 10
0.0
 20
0.0
 30
0.0
  9
$UCSORGBOTTOM
 10
0.0
 20
0.0
 30
0.0
  9
$UCSORGLEFT
 10
0.0
 20
0.0
 30
0.0
  9
$UCSORGRIGHT
 10
0.0
 20
0.0
 30
0.0
  9
$UCSORGFRONT
 10
0.0
 20
0.0
 30
0.0
  9
$UCSORGBACK
 10
0.0
 20
0.0
 30
0.0
  9
$PUCSBASE
  2

  9
$PUCSNAME
  2

  9
$PUCSORG
 10
0.0
 20
0.0
 30
0.0
  9
$PUCSXDIR
 10
1.0
 20
0.0
 30
0.0
  9
$PUCSYDIR
 10
0.0
 20
1.0
 30
0.0
  9
$PUCSORTHOREF
  2

  9
$PUCSORTHOVIEW
 70
     0
  9
$PUCSORGTOP
 10
0.0
 20
0.0
 30
0.0
  9
$PUCSORGBOTTOM
 10
0.0
 20
0.0
 30
0.0
  9
$PUCSORGLEFT
 10
0.0
 20
0.0
 30
0.0
  9
$PUCSORGRIGHT
 10
0.0
 20
0.0
 30
0.0
  9
$PUCSORGFRONT
 10
0.0
 20
0.0
 30
0.0
  9
$PUCSORGBACK
 10
0.0
 20
0.0
 30
0.0
  9
$USERI1
 70
     0
  9
$USERI2
 70
     0
  9
$USERI3
 70
     0
  9
$USERI4
 70
     0
  9
$USERI5
 70
     0
  9
$USERR1
 40
0.0
  9
$USERR2
 40
0.0
  9
$USERR3
 40
0.0
  9
$USERR4
 40
0.0
  9
$USERR5
 40
0.0
  9
$WORLDVIEW
 70
     1
  9
$SHADEDGE
 70
     3
  9
$SHADEDIF
 70
    70
  9
$TILEMODE
 70
     1
  9
$MAXACTVP
 70
    64
  9
$PINSBASE
 10
0.0
 20
0.0
 30
0.0
  9
$PLIMCHECK
 70
     0
  9
$PEXTMIN
 10
1.000000000000000E+20
 20
1.000000000000000E+20
 30
1.000000000000000E+20
  9
$PEXTMAX
 10
-1.000000000000000E+20
 20
-1.000000000000000E+20
 30
-1.000000000000000E+20
  9
$PLIMMIN
 10
0.0
 20
0.0
  9
$PLIMMAX
 10
12.0
 20
9.0
  9
$UNITMODE
 70
     0
  9
$VISRETAIN
 70
     1
  9
$PLINEGEN
 70
     0
  9
$PSLTSCALE
 70
     1
  9
$TREEDEPTH
 70
  3020
  9
$CMLSTYLE
  2
Standard
  9
$CMLJUST
 70
     0
  9
$CMLSCALE
 40
1.0
  9
$PROXYGRAPHICS
 70
     1
  9
$MEASUREMENT
 70
     0
  9
$CELWEIGHT
370
    -1
  9
$ENDCAPS
280
     0
  9
$JOINSTYLE
280
     0
  9
$LWDISPLAY
290
     1
  9
$INSUNITS
 70
     1
  9
$HYPERLINKBASE
  1

  9
$STYLESHEET
  1

  9
$XEDIT
290
     1
  9
$CEPSNTYPE
380
     0
  9
$PSTYLEMODE
290
     1
  9
$FINGERPRINTGUID
  2
{BAB9E82F-6B1B-30A3-4546-0E42408D02AF}
  9
$VERSIONGUID
  2
{FAEB1C32-E019-11D5-929B-00C0DF256EC4}
  9
$EXTNAMES
290
     1
  9
$PSVPSCALE
 40
0.0
  9
$OLESTARTUP
290
     0
  9
$SORTENTS
280
   127
  9
$INDEXCTL
280
     0
  9
$HIDETEXT
280
     1
  9
$XCLIPFRAME
280
     2
  9
$HALOGAP
280
     0
  9
$OBSCOLOR
 70
   257
  9
$OBSLTYPE
280
     0
  9
$INTERSECTIONDISPLAY
280
     0
  9
$INTERSECTIONCOLOR
 70
   257
  9
$DIMASSOC
280
     2
  9
$PROJECTNAME
  1

  9
$CAMERADISPLAY
290
     0
  9
$LENSLENGTH
 40
50.0
  9
$CAMERAHEIGHT
 40
0.0
  9
$STEPSPERSEC
 40
2.0
  9
$STEPSIZE
 40
6.0
  9
$3DDWFPREC
 40
2.0
  9
$PSOLWIDTH
 40
0.25
  9
$PSOLHEIGHT
 40
4.0
  9
$LOFTANG1
 40
1.570796326794897
  9
$LOFTANG2
 40
1.570796326794897
  9
$LOFTMAG1
 40
0.0
  9
$LOFTMAG2
 40
0.0
  9
$LOFTPARAM
 70
     7
  9
$LOFTNORMALS
280
     1
  9
$LATITUDE
 40
37.795
  9
$LONGITUDE
 40
-122.394
  9
$NORTHDIRECTION
 40
0.0
  9
$TIMEZONE
 70
 -8000
  9
$LIGHTGLYPHDISPLAY
280
     1
  9
$TILEMODELIGHTSYNCH
280
     1
  9
$CMATERIAL
347
3C
  9
$SOLIDHIST
280
     1
  9
$SHOWHIST
280
     1
  9
$DWFFRAME
280
     2
  9
$DGNFRAME
280
     2
  9
$REALWORLDSCALE
290
     1
  9
$INTERFERECOLOR
 62
   256
  9
$CSHADOW
280
     0
  9
$SHADOWPLANELOCATION
 40
0.0
  0
ENDSEC
  0
SECTION
  2
CLASSES
  0
CLASS
  1
ACDBDICTIONARYWDFLT
  2
AcDbDictionaryWithDefault
  3
ObjectDBX Classes
 90
        0
 91
        4
280
     0
281
     0
  0
CLASS
  1
VISUALSTYLE
  2
AcDbVisualStyle
  3
ObjectDBX Classes
 90
     4095
 91
        4
280
     0
281
     0
  0
CLASS
  1
MATERIAL
  2
AcDbMaterial
  3
ObjectDBX Classes
 90
     1153
 91
        4
280
     0
281
     0
  0
CLASS
  1
SUN
  2
AcDbSun
  3
SCENEOE
 90
     1024
 91
        4
280
     0
281
     0
  0
ENDSEC
  0
SECTION
  2
TABLES
  0
TABLE
  2
VPORT
  5
8
330
0
100
AcDbSymbolTable
 70
     1
  0
VPORT
  5
29
330
8
100
AcDbSymbolTableRecord
100
AcDbViewportTableRecord
  2
*Active
 70
     0
 10
0.0
 20
0.0
 11
1.0
 21
1.0
 12
0.0
 22
0.0
 13
0.0
 23
0.0
 14
0.5
 24
0.5
 15
0.5
 25
0.5
 16
0.0
 26
0.0
 36
1.0
 17
91.00082462281999
 27
-128.4993055234307
 37
0.0
 40
256.9986110468615
 41
0.7081814508812795
 42
50.0
 43
0.0
 44
0.0
 50
0.0
 51
0.0
 71
     0
 72
   100
 73
     1
 74
     3
 75
     0
 76
     0
 77
     0
 78
     0
281
     0
 65
     1
110
0.0
120
0.0
130
0.0
111
1.0
121
0.0
131
0.0
112
0.0
122
1.0
132
0.0
 79
     0
146
0.0
 60
     3
 61
     5
292
     1
282
     1
141
0.0
142
0.0
 63
   250
361
3F
  0
ENDTAB
  0
TABLE
  2
LTYPE
  5
5
330
0
100
AcDbSymbolTable
 70
     2
  0
LTYPE
  5
14
330
5
100
AcDbSymbolTableRecord
100
AcDbLinetypeTableRecord
  2
ByBlock
 70
     0
  3

 72
    65
 73
     0
 40
0.0
  0
LTYPE
  5
15
330
5
100
AcDbSymbolTableRecord
100
AcDbLinetypeTableRecord
  2
ByLayer
 70
     0
  3

 72
    65
 73
     0
 40
0.0
  0
LTYPE
  5
16
330
5
100
AcDbSymbolTableRecord
100
AcDbLinetypeTableRecord
  2
Continuous
 70
     0
  3
Solid line
 72
    65
 73
     0
 40
0.0
  0
LTYPE
  5
F0
330
5
100
AcDbSymbolTableRecord
100
AcDbLinetypeTableRecord
  2
AI-Linetype-1
 70
     0
  3
Adobe Illustrator Linetype No. 1
 72
    65
 73
     2
 40
1.411111110758333
 49
0.7055555553791667
 74
     0
 49
-0.7055555553791667
 74
     0
  0
ENDTAB
  0
TABLE
  2
LAYER
  5
2
330
0
100
AcDbSymbolTable
 70
     2
  0
LAYER
  5
10
330
2
100
AcDbSymbolTableRecord
100
AcDbLayerTableRecord
  2
0
 70
     0
 62
     7
  6
Continuous
370
    -3
390
F
347
3E
  0
LAYER
  5
40
330
2
100
AcDbSymbolTableRecord
100
AcDbLayerTableRecord
  2
_U+30EC_U+30A4_U+30E4_U+30FC 1
 70
     0
 62
     7
  6
Continuous
370
    -3
390
F
347
3E
  0
ENDTAB
  0
TABLE
  2
STYLE
  5
3
330
0
100
AcDbSymbolTable
 70
     1
  0
STYLE
  5
11
330
3
100
AcDbSymbolTableRecord
100
AcDbTextStyleTableRecord
  2
Standard
 70
     0
 40
0.0
 41
1.0
 50
0.0
 71
     0
 42
0.2
  3
txt
  4

  0
ENDTAB
  0
TABLE
  2
VIEW
  5
6
330
0
100
AcDbSymbolTable
 70
     0
  0
ENDTAB
  0
TABLE
  2
UCS
  5
7
330
0
100
AcDbSymbolTable
 70
     0
  0
ENDTAB
  0
TABLE
  2
APPID
  5
9
330
0
100
AcDbSymbolTable
 70
     1
  0
APPID
  5
12
330
9
100
AcDbSymbolTableRecord
100
AcDbRegAppTableRecord
  2
ACAD
 70
     0
  0
ENDTAB
  0
TABLE
  2
DIMSTYLE
  5
A
330
0
100
AcDbSymbolTable
 70
     1
100
AcDbDimStyleTable
  0
DIMSTYLE
105
27
330
A
100
AcDbSymbolTableRecord
100
AcDbDimStyleTableRecord
  2
Standard
 70
     0
178
     0
340
11
  0
ENDTAB
  0
TABLE
  2
BLOCK_RECORD
  5
1
330
0
100
AcDbSymbolTable
 70
    17
  0
BLOCK_RECORD
  5
1F
330
1
100
AcDbSymbolTableRecord
100
AcDbBlockTableRecord
  2
*Model_Space
340
22
 70
     0
280
     1
281
     0
  0
BLOCK_RECORD
  5
1B
330
1
100
AcDbSymbolTableRecord
100
AcDbBlockTableRecord
  2
*Paper_Space
340
1E
 70
     0
280
     1
281
     0
  0
BLOCK_RECORD
  5
23
330
1
100
AcDbSymbolTableRecord
100
AcDbBlockTableRecord
  2
*Paper_Space0
340
26
 70
     0
280
     1
281
     0
  0
BLOCK_RECORD
  5
41
330
1
100
AcDbSymbolTableRecord
100
AcDbBlockTableRecord
  2
block 2
340
0
102
{BLKREFS
331
42
102
}
 70
     0
280
     1
281
     0
  0
BLOCK_RECORD
  5
45
330
1
100
AcDbSymbolTableRecord
100
AcDbBlockTableRecord
  2
block 3
340
0
102
{BLKREFS
331
46
102
}
 70
     0
280
     1
281
     0
  0
BLOCK_RECORD
  5
58
330
1
100
AcDbSymbolTableRecord
100
AcDbBlockTableRecord
  2
block 4
340
0
102
{BLKREFS
331
59
102
}
 70
     0
280
     1
281
     0
  0
BLOCK_RECORD
  5
5E
330
1
100
AcDbSymbolTableRecord
100
AcDbBlockTableRecord
  2
block 5
340
0
102
{BLKREFS
331
5F
102
}
 70
     0
280
     1
281
     0
  0
BLOCK_RECORD
  5
64
330
1
100
AcDbSymbolTableRecord
100
AcDbBlockTableRecord
  2
block 6
340
0
102
{BLKREFS
331
65
102
}
 70
     0
280
     1
281
     0
  0
BLOCK_RECORD
  5
6A
330
1
100
AcDbSymbolTableRecord
100
AcDbBlockTableRecord
  2
block 7
340
0
102
{BLKREFS
331
6B
102
}
 70
     0
280
     1
281
     0
  0
BLOCK_RECORD
  5
70
330
1
100
AcDbSymbolTableRecord
100
AcDbBlockTableRecord
  2
block 8
340
0
102
{BLKREFS
331
71
102
}
 70
     0
280
     1
281
     0
  0
BLOCK_RECORD
  5
76
330
1
100
AcDbSymbolTableRecord
100
AcDbBlockTableRecord
  2
block 9
340
0
102
{BLKREFS
331
77
102
}
 70
     0
280
     1
281
     0
  0
BLOCK_RECORD
  5
7C
330
1
100
AcDbSymbolTableRecord
100
AcDbBlockTableRecord
  2
block 10
340
0
102
{BLKREFS
331
7D
102
}
 70
     0
280
     1
281
     0
  0
BLOCK_RECORD
  5
82
330
1
100
AcDbSymbolTableRecord
100
AcDbBlockTableRecord
  2
block 11
340
0
102
{BLKREFS
331
83
102
}
 70
     0
280
     1
281
     0
  0
BLOCK_RECORD
  5
88
330
1
100
AcDbSymbolTableRecord
100
AcDbBlockTableRecord
  2
block 12
340
0
102
{BLKREFS
331
89
102
}
 70
     0
280
     1
281
     0
  0
BLOCK_RECORD
  5
8E
330
1
100
AcDbSymbolTableRecord
100
AcDbBlockTableRecord
  2
block 13
340
0
102
{BLKREFS
331
8F
102
}
 70
     0
280
     1
281
     0
  0
BLOCK_RECORD
  5
94
330
1
100
AcDbSymbolTableRecord
100
AcDbBlockTableRecord
  2
block 14
340
0
102
{BLKREFS
331
95
102
}
 70
     0
280
     1
281
     0
  0
BLOCK_RECORD
  5
D2
330
1
100
AcDbSymbolTableRecord
100
AcDbBlockTableRecord
  2
block 15
340
0
102
{BLKREFS
331
D3
102
}
 70
     0
280
     1
281
     0
  0
BLOCK_RECORD
  5
E6
330
1
100
AcDbSymbolTableRecord
100
AcDbBlockTableRecord
  2
block 16
340
0
102
{BLKREFS
331
E7
102
}
 70
     0
280
     1
281
     0
  0
BLOCK_RECORD
  5
FE
330
1
100
AcDbSymbolTableRecord
100
AcDbBlockTableRecord
  2
block 17
340
0
102
{BLKREFS
331
FF
102
}
 70
     0
280
     1
281
     0
  0
ENDTAB
  0
ENDSEC
  0
SECTION
  2
BLOCKS
  0
BLOCK
  5
20
330
1F
100
AcDbEntity
  8
0
100
AcDbBlockBegin
  2
*Model_Space
 70
     0
 10
0.0
 20
0.0
 30
0.0
  3
*Model_Space
  1

  0
ENDBLK
  5
21
330
1F
100
AcDbEntity
  8
0
100
AcDbBlockEnd
  0
BLOCK
  5
1C
330
1B
100
AcDbEntity
 67
     1
  8
0
100
AcDbBlockBegin
  2
*Paper_Space
 70
     0
 10
0.0
 20
0.0
 30
0.0
  3
*Paper_Space
  1

  0
ENDBLK
  5
1D
330
1B
100
AcDbEntity
 67
     1
  8
0
100
AcDbBlockEnd
  0
BLOCK
  5
24
330
23
100
AcDbEntity
  8
0
100
AcDbBlockBegin
  2
*Paper_Space0
 70
     0
 10
0.0
 20
0.0
 30
0.0
  3
*Paper_Space0
  1

  0
ENDBLK
  5
25
330
23
100
AcDbEntity
  8
0
100
AcDbBlockEnd
  0
BLOCK
  5
43
330
41
100
AcDbEntity
  8
0
100
AcDbBlockBegin
  2
block 2
 70
     0
 10
0.0
 20
0.0
 30
0.0
  3
block 2
  1

  0
INSERT
  5
46
330
41
100
AcDbEntity
  8
_U+30EC_U+30A4_U+30E4_U+30FC 1
100
AcDbBlockReference
  2
block 3
 10
0.0
 20
0.0
 30
0.0
  0
POLYLINE
  5
A9
330
41
100
AcDbEntity
  8
_U+30EC_U+30A4_U+30E4_U+30FC 1
 62
   179
420
  2234388
370
    25
100
AcDb2dPolyline
 66
     1
 10
0.0
 20
0.0
 30
0.0
  0
VERTEX
  5
AA
330
A9
100
AcDbEntity
  8
_U+30EC_U+30A4_U+30E4_U+30FC 1
 62
   179
420
  2234388
370
    25
100
AcDbVertex
100
AcDb2dVertex
 10
94.64537175206208
 20
-132.169005800291
 30
0.0
  0
VERTEX
  5
AB
330
A9
100
AcDbEntity
  8
_U+30EC_U+30A4_U+30E4_U+30FC 1
 62
   179
420
  2234388
370
    25
100
AcDbVertex
100
AcDb2dVertex
 10
94.64537175206208
 20
-132.6692446890547
 30
0.0
  0
SEQEND
  5
AC
330
A9
100
AcDbEntity
  8
_U+30EC_U+30A4_U+30E4_U+30FC 1
 62
   179
420
  2234388
370
    25
  0
POLYLINE
  5
AD
330
41
100
AcDbEntity
  8
_U+30EC_U+30A4_U+30E4_U+30FC 1
 62
   179
420
  2234388
370
    25
100
AcDb2dPolyline
 66
     1
 10
0.0
 20
0.0
 30
0.0
  0
VERTEX
  5
AE
330
AD
100
AcDbEntity
  8
_U+30EC_U+30A4_U+30E4_U+30FC 1
 62
   179
420
  2234388
370
    25
100
AcDbVertex
100
AcDb2dVertex
 10
70.64547680879484
 20
-132.169005800291
 30
0.0
  0
VERTEX
  5
AF
330
AD
100
AcDbEntity
  8
_U+30EC_U+30A4_U+30E4_U+30FC 1
 62
   179
420
  2234388
370
    25
100
AcDbVertex
100
AcDb2dVertex
 10
94.64537175206208
 20
-132.169005800291
 30
0.0
  0
SEQEND
  5
B0
330
AD
100
AcDbEntity
  8
_U+30EC_U+30A4_U+30E4_U+30FC 1
 62
   179
420
  2234388
370
    25
  0
POLYLINE
  5
B1
330
41
100
AcDbEntity
  8
_U+30EC_U+30A4_U+30E4_U+30FC 1
 62
   179
420
  2234388
370
    25
100
AcDb2dPolyline
 66
     1
 10
0.0
 20
0.0
 30
0.0
  0
VERTEX
  5
B2
330
B1
100
AcDbEntity
  8
_U+30EC_U+30A4_U+30E4_U+30FC 1
 62
   179
420
  2234388
370
    25
100
AcDbVertex
100
AcDb2dVertex
 10
94.64537175206208
 20
-132.6692446890547
 30
0.0
  0
VERTEX
  5
B3
330
B1
100
AcDbEntity
  8
_U+30EC_U+30A4_U+30E4_U+30FC 1
 62
   179
420
  2234388
370
    25
100
AcDbVertex
100
AcDb2dVertex
 10
70.46185598014607
 20
-133.1687780222635
 30
0.0
  0
SEQEND
  5
B4
330
B1
100
AcDbEntity
  8
_U+30EC_U+30A4_U+30E4_U+30FC 1
 62
   179
420
  2234388
370
    25
  0
POLYLINE
  5
B5
330
41
100
AcDbEntity
  8
_U+30EC_U+30A4_U+30E4_U+30FC 1
 62
   179
420
  2234388
370
    25
100
AcDb2dPolyline
 66
     1
 10
0.0
 20
0.0
 30
0.0
  0
VERTEX
  5
B6
330
B5
100
AcDbEntity
  8
_U+30EC_U+30A4_U+30E4_U+30FC 1
 62
   179
420
  2234388
370
    25
100
AcDbVertex
100
AcDb2dVertex
 10
70.64547680879484
 20
-124.1691699689576
 30
0.0
  0
VERTEX
  5
B7
330
B5
100
AcDbEntity
  8
_U+30EC_U+30A4_U+30E4_U+30FC 1
 62
   179
420
  2234388
370
    25
100
AcDbVertex
100
AcDb2dVertex
 10
70.64547680879484
 20
-132.169005800291
 30
0.0
  0
SEQEND
  5
B8
330
B5
100
AcDbEntity
  8
_U+30EC_U+30A4_U+30E4_U+30FC 1
 62
   179
420
  2234388
370
    25
  0
POLYLINE
  5
B9
330
41
100
AcDbEntity
  8
_U+30EC_U+30A4_U+30E4_U+30FC 1
 62
   179
420
  2234388
370
    25
100
AcDb2dPolyline
 66
     1
 10
0.0
 20
0.0
 30
0.0
  0
VERTEX
  5
BA
330
B9
100
AcDbEntity
  8
_U+30EC_U+30A4_U+30E4_U+30FC 1
 62
   179
420
  2234388
370
    25
100
AcDbVertex
100
AcDb2dVertex
 10
70.14523793266811
 20
-124.1691699689576
 30
0.0
  0
VERTEX
  5
BB
330
B9
100
AcDbEntity
  8
_U+30EC_U+30A4_U+30E4_U+30FC 1
 62
   179
420
  2234388
370
    25
100
AcDbVertex
100
AcDb2dVertex
 10
70.64547680879484
 20
-124.1691699689576
 30
0.0
  0
SEQEND
  5
BC
330
B9
100
AcDbEntity
  8
_U+30EC_U+30A4_U+30E4_U+30FC 1
 62
   179
420
  2234388
370
    25
  0
POLYLINE
  5
BD
330
41
100
AcDbEntity
  8
_U+30EC_U+30A4_U+30E4_U+30FC 1
 62
   179
420
  2234388
370
    25
100
AcDb2dPolyline
 66
     1
 10
0.0
 20
0.0
 30
0.0
  0
VERTEX
  5
BE
330
BD
100
AcDbEntity
  8
_U+30EC_U+30A4_U+30E4_U+30FC 1
 62
   179
420
  2234388
370
    25
100
AcDbVertex
100
AcDb2dVertex
 10
70.14523793266811
 20
-124.1691699689576
 30
0.0
  0
VERTEX
  5
BF
330
BD
100
AcDbEntity
  8
_U+30EC_U+30A4_U+30E4_U+30FC 1
 62
   179
420
  2234388
370
    25
100
AcDbVertex
100
AcDb2dVertex
 10
69.64672766760839
 20
-132.3202769113642
 30
0.0
  0
SEQEND
  5
C0
330
BD
100
AcDbEntity
  8
_U+30EC_U+30A4_U+30E4_U+30FC 1
 62
   179
420
  2234388
370
    25
  0
SPLINE
  5
C1
330
41
100
AcDbEntity
  8
_U+30EC_U+30A4_U+30E4_U+30FC 1
 62
   179
420
  2234388
370
    25
100
AcDbSpline
210
0.0
220
0.0
230
1.0
 70
     8
 71
     3
 72
    11
 73
     7
 74
     0
 42
0.0000000001
 43
0.0000000001
 12
1.0
 22
0.0
 32
0.0
 13
1.0
 23
0.0
 33
0.0
 40
0.0
 40
0.0
 40
0.0
 40
0.0
 40
1.0
 40
1.0
 40
1.0
 40
2.0
 40
2.0
 40
2.0
 40
2.0
 10
69.64672766760839
 20
-132.3202769113642
 30
0.0
 10
69.61952850163563
 20
-132.7612491334762
 30
0.0
 10
69.95540821528886
 20
-133.1405558000484
 30
0.0
 10
70.39638042626093
 20
-133.1674021889307
 30
0.0
 10
70.41811153681763
 20
-133.1687780222635
 30
0.0
 10
70.44016014736624
 20
-133.1694835778191
 30
0.0
 10
70.46185598014607
 20
-133.1687780222635
 30
0.0
  0
SPLINE
  5
C2
330
41
100
AcDbEntity
  8
_U+30EC_U+30A4_U+30E4_U+30FC 1
 62
   179
420
  2234388
370
     9
100
AcDbSpline
210
0.0
220
0.0
230
1.0
 70
    11
 71
     3
 72
    17
 73
    13
 74
     0
 42
0.0000000001
 43
0.0000000001
 12
1.0
 22
0.0
 32
0.0
 13
1.0
 23
0.0
 33
0.0
 40
0.0
 40
0.0
 40
0.0
 40
0.0
 40
1.0
 40
1.0
 40
1.0
 40
2.0
 40
2.0
 40
2.0
 40
3.0
 40
3.0
 40
3.0
 40
4.0
 40
4.0
 40
4.0
 40
4.0
 10
94.7452784161799
 20
-137.1692427434853
 30
0.0
 10
94.7452784161799
 20
-137.1137507990551
 30
0.0
 10
94.70051091732202
 20
-137.0689832990659
 30
0.0
 10
94.64537175206208
 20
-137.0689832990659
 30
0.0
 10
94.590267864579
 20
-137.0689832990659
 30
0.0
 10
94.54546508794424
 20
-137.1137507990551
 30
0.0
 10
94.54546508794424
 20
-137.1692427434853
 30
0.0
 10
94.54546508794424
 20
-137.2243466323609
 30
0.0
 10
94.590267864579
 20
-137.2691494101269
 30
0.0
 10
94.64537175206208
 20
-137.2691494101269
 30
0.0
 10
94.70051091732202
 20
-137.2691494101269
 30
0.0
 10
94.7452784161799
 20
-137.2243466323609
 30
0.0
 10
94.7452784161799
 20
-137.1692427434853
 30
0.0
  0
SPLINE
  5
C3
330
41
100
AcDbEntity
  8
_U+30EC_U+30A4_U+30E4_U+30FC 1
 62
   179
420
  2234388
370
     9
100
AcDbSpline
210
0.0
220
0.0
230
1.0
 70
    11
 71
     3
 72
    17
 73
    13
 74
     0
 42
0.0000000001
 43
0.0000000001
 12
1.0
 22
0.0
 32
0.0
 13
1.0
 23
0.0
 33
0.0
 40
0.0
 40
0.0
 40
0.0
 40
0.0
 40
1.0
 40
1.0
 40
1.0
 40
2.0
 40
2.0
 40
2.0
 40
3.0
 40
3.0
 40
3.0
 40
4.0
 40
4.0
 40
4.0
 40
4.0
 10
65.74518193381178
 20
-133.1691308000413
 30
0.0
 10
65.74518193381178
 20
-133.113674133388
 30
0.0
 10
65.70037915717703
 20
-133.0692241333997
 30
0.0
 10
65.64527526969395
 20
-133.0692241333997
 30
0.0
 10
65.590136104434
 20
-133.0692241333997
 30
0.0
 10
65.54536860557612
 20
-133.113674133388
 30
0.0
 10
65.54536860557612
 20
-133.1691308000413
 30
0.0
 10
65.54536860557612
 20
-133.2242699666937
 30
0.0
 10
65.590136104434
 20
-133.2690374666829
 30
0.0
 10
65.64527526969395
 20
-133.2690374666829
 30
0.0
 10
65.70037915717703
 20
-133.2690374666829
 30
0.0
 10
65.74518193381178
 20
-133.2242699666937
 30
0.0
 10
65.74518193381178
 20
-133.1691308000413
 30
0.0
  0
SPLINE
  5
C4
330
41
100
AcDbEntity
  8
_U+30EC_U+30A4_U+30E4_U+30FC 1
 62
   179
420
  2234388
370
     9
100
AcDbSpline
210
0.0
220
0.0
230
1.0
 70
    11
 71
     3
 72
    17
 73
    13
 74
     0
 42
0.0000000001
 43
0.0000000001
 12
1.0
 22
0.0
 32
0.0
 13
1.0
 23
0.0
 33
0.0
 40
0.0
 40
0.0
 40
0.0
 40
0.0
 40
1.0
 40
1.0
 40
1.0
 40
2.0
 40
2.0
 40
2.0
 40
3.0
 40
3.0
 40
3.0
 40
4.0
 40
4.0
 40
4.0
 40
4.0
 10
69.745258498428
 20
-137.1692427434853
 30
0.0
 10
69.745258498428
 20
-137.1137507990551
 30
0.0
 10
69.7004909995701
 20
-137.0689832990659
 30
0.0
 10
69.64499905654138
 20
-137.0689832990659
 30
0.0
 10
69.58989516905831
 20
-137.0689832990659
 30
0.0
 10
69.54509239242354
 20
-137.1137507990551
 30
0.0
 10
69.54509239242354
 20
-137.1692427434853
 30
0.0
 10
69.54509239242354
 20
-137.2243466323609
 30
0.0
 10
69.58989516905831
 20
-137.2691494101269
 30
0.0
 10
69.64499905654138
 20
-137.2691494101269
 30
0.0
 10
69.7004909995701
 20
-137.2691494101269
 30
0.0
 10
69.745258498428
 20
-137.2243466323609
 30
0.0
 10
69.745258498428
 20
-137.1692427434853
 30
0.0
  0
SPLINE
  5
C5
330
41
100
AcDbEntity
  8
_U+30EC_U+30A4_U+30E4_U+30FC 1
 62
   179
420
  2234388
370
     9
100
AcDbSpline
210
0.0
220
0.0
230
1.0
 70
    11
 71
     3
 72
    17
 73
    13
 74
     0
 42
0.0000000001
 43
0.0000000001
 12
1.0
 22
0.0
 32
0.0
 13
1.0
 23
0.0
 33
0.0
 40
0.0
 40
0.0
 40
0.0
 40
0.0
 40
1.0
 40
1.0
 40
1.0
 40
2.0
 40
2.0
 40
2.0
 40
3.0
 40
3.0
 40
3.0
 40
4.0
 40
4.0
 40
4.0
 40
4.0
 10
65.74518193381178
 20
-124.1691699689576
 30
0.0
 10
65.74518193381178
 20
-124.1137133023049
 30
0.0
 10
65.70037915717703
 20
-124.0689105245382
 30
0.0
 10
65.64527526969395
 20
-124.0689105245382
 30
0.0
 10
65.590136104434
 20
-124.0689105245382
 30
0.0
 10
65.54536860557612
 20
-124.1137133023049
 30
0.0
 10
65.54536860557612
 20
-124.1691699689576
 30
0.0
 10
65.54536860557612
 20
-124.2242738578329
 30
0.0
 10
65.590136104434
 20
-124.2690766355993
 30
0.0
 10
65.64527526969395
 20
-124.2690766355993
 30
0.0
 10
65.70037915717703
 20
-124.2690766355993
 30
0.0
 10
65.74518193381178
 20
-124.2242738578329
 30
0.0
 10
65.74518193381178
 20
-124.1691699689576
 30
0.0
  0
POLYLINE
  5
C6
330
41
100
AcDbEntity
  8
_U+30EC_U+30A4_U+30E4_U+30FC 1
 62
   179
420
  2234388
370
     9
100
AcDb2dPolyline
 66
     1
 10
0.0
 20
0.0
 30
0.0
  0
VERTEX
  5
C7
330
C6
100
AcDbEntity
  8
_U+30EC_U+30A4_U+30E4_U+30FC 1
 62
   179
420
  2234388
370
     9
100
AcDbVertex
100
AcDb2dVertex
 10
69.64499905654138
 20
-137.1692427434853
 30
0.0
  0
VERTEX
  5
C8
330
C6
100
AcDbEntity
  8
_U+30EC_U+30A4_U+30E4_U+30FC 1
 62
   179
420
  2234388
370
     9
100
AcDbVertex
100
AcDb2dVertex
 10
94.64537175206208
 20
-137.1692427434853
 30
0.0
  0
SEQEND
  5
C9
330
C6
100
AcDbEntity
  8
_U+30EC_U+30A4_U+30E4_U+30FC 1
 62
   179
420
  2234388
370
     9
  0
POLYLINE
  5
CA
330
41
100
AcDbEntity
  8
_U+30EC_U+30A4_U+30E4_U+30FC 1
 62
   179
420
  2234388
370
     9
100
AcDb2dPolyline
 66
     1
 10
0.0
 20
0.0
 30
0.0
  0
VERTEX
  5
CB
330
CA
100
AcDbEntity
  8
_U+30EC_U+30A4_U+30E4_U+30FC 1
 62
   179
420
  2234388
370
     9
100
AcDbVertex
100
AcDb2dVertex
 10
69.64499905654138
 20
-134.909242466273
 30
0.0
  0
VERTEX
  5
CC
330
CA
100
AcDbEntity
  8
_U+30EC_U+30A4_U+30E4_U+30FC 1
 62
   179
420
  2234388
370
     9
100
AcDbVertex
100
AcDb2dVertex
 10
69.64499905654138
 20
-138.1690149654578
 30
0.0
  0
SEQEND
  5
CD
330
CA
100
AcDbEntity
  8
_U+30EC_U+30A4_U+30E4_U+30FC 1
 62
   179
420
  2234388
370
     9
  0
POLYLINE
  5
CE
330
41
100
AcDbEntity
  8
_U+30EC_U+30A4_U+30E4_U+30FC 1
 62
   179
420
  2234388
370
     9
100
AcDb2dPolyline
 66
     1
 10
0.0
 20
0.0
 30
0.0
  0
VERTEX
  5
CF
330
CE
100
AcDbEntity
  8
_U+30EC_U+30A4_U+30E4_U+30FC 1
 62
   179
420
  2234388
370
     9
100
AcDbVertex
100
AcDb2dVertex
 10
94.64537175206208
 20
-135.2089624661979
 30
0.0
  0
VERTEX
  5
D0
330
CE
100
AcDbEntity
  8
_U+30EC_U+30A4_U+30E4_U+30FC 1
 62
   179
420
  2234388
370
     9
100
AcDbVertex
100
AcDb2dVertex
 10
94.64537175206208
 20
-138.1690149654578
 30
0.0
  0
SEQEND
  5
D1
330
CE
100
AcDbEntity
  8
_U+30EC_U+30A4_U+30E4_U+30FC 1
 62
   179
420
  2234388
370
     9
  0
INSERT
  5
D3
330
41
100
AcDbEntity
  8
_U+30EC_U+30A4_U+30E4_U+30FC 1
100
AcDbBlockReference
  2
block 15
 10
0.0
 20
0.0
 30
0.0
  0
POLYLINE
  5
DA
330
41
100
AcDbEntity
  8
_U+30EC_U+30A4_U+30E4_U+30FC 1
 62
   179
420
  2234388
370
     9
100
AcDb2dPolyline
 66
     1
 10
0.0
 20
0.0
 30
0.0
  0
VERTEX
  5
DB
330
DA
100
AcDbEntity
  8
_U+30EC_U+30A4_U+30E4_U+30FC 1
 62
   179
420
  2234388
370
     9
100
AcDbVertex
100
AcDb2dVertex
 10
65.64527526969395
 20
-133.1691308000413
 30
0.0
  0
VERTEX
  5
DC
330
DA
100
AcDbEntity
  8
_U+30EC_U+30A4_U+30E4_U+30FC 1
 62
   179
420
  2234388
370
     9
100
AcDbVertex
100
AcDb2dVertex
 10
65.64527526969395
 20
-124.1691699689576
 30
0.0
  0
SEQEND
  5
DD
330
DA
100
AcDbEntity
  8
_U+30EC_U+30A4_U+30E4_U+30FC 1
 62
   179
420
  2234388
370
     9
  0
POLYLINE
  5
DE
330
41
100
AcDbEntity
  8
_U+30EC_U+30A4_U+30E4_U+30FC 1
 62
   179
420
  2234388
370
     9
100
AcDb2dPolyline
 66
     1
 10
0.0
 20
0.0
 30
0.0
  0
VERTEX
  5
DF
330
DE
100
AcDbEntity
  8
_U+30EC_U+30A4_U+30E4_U+30FC 1
 62
   179
420
  2234388
370
     9
100
AcDbVertex
100
AcDb2dVertex
 10
67.90524021203744
 20
-133.1691308000413
 30
0.0
  0
VERTEX
  5
E0
330
DE
100
AcDbEntity
  8
_U+30EC_U+30A4_U+30E4_U+30FC 1
 62
   179
420
  2234388
370
     9
100
AcDbVertex
100
AcDb2dVertex
 10
64.64550307297804
 20
-133.1691308000413
 30
0.0
  0
SEQEND
  5
E1
330
DE
100
AcDbEntity
  8
_U+30EC_U+30A4_U+30E4_U+30FC 1
 62
   179
420
  2234388
370
     9
  0
POLYLINE
  5
E2
330
41
100
AcDbEntity
  8
_U+30EC_U+30A4_U+30E4_U+30FC 1
 62
   179
420
  2234388
370
     9
100
AcDb2dPolyline
 66
     1
 10
0.0
 20
0.0
 30
0.0
  0
VERTEX
  5
E3
330
E2
100
AcDbEntity
  8
_U+30EC_U+30A4_U+30E4_U+30FC 1
 62
   179
420
  2234388
370
     9
100
AcDbVertex
100
AcDb2dVertex
 10
67.60516744191516
 20
-124.1691699689576
 30
0.0
  0
VERTEX
  5
E4
330
E2
100
AcDbEntity
  8
_U+30EC_U+30A4_U+30E4_U+30FC 1
 62
   179
420
  2234388
370
     9
100
AcDbVertex
100
AcDb2dVertex
 10
64.64550307297804
 20
-124.1691699689576
 30
0.0
  0
SEQEND
  5
E5
330
E2
100
AcDbEntity
  8
_U+30EC_U+30A4_U+30E4_U+30FC 1
 62
   179
420
  2234388
370
     9
  0
INSERT
  5
E7
330
41
100
AcDbEntity
  8
_U+30EC_U+30A4_U+30E4_U+30FC 1
100
AcDbBlockReference
  2
block 16
 10
0.0
 20
0.0
 30
0.0
  0
POLYLINE
  5
ED
330
41
100
AcDbEntity
  8
_U+30EC_U+30A4_U+30E4_U+30FC 1
  6
AI-Linetype-1
 62
   154
420
    23468
370
    25
100
AcDb2dPolyline
 66
     1
 10
0.0
 20
0.0
 30
0.0
  0
VERTEX
  5
EE
330
ED
100
AcDbEntity
  8
_U+30EC_U+30A4_U+30E4_U+30FC 1
  6
AI-Linetype-1
 62
   154
420
    23468
370
    25
100
AcDbVertex
100
AcDb2dVertex
 10
84.57053256464819
 20
-131.5220466337862
 30
0.0
  0
VERTEX
  5
EF
330
ED
100
AcDbEntity
  8
_U+30EC_U+30A4_U+30E4_U+30FC 1
  6
AI-Linetype-1
 62
   154
420
    23468
370
    25
100
AcDbVertex
100
AcDb2dVertex
 10
94.5702653650893
 20
-131.5220466337862
 30
0.0
  0
SEQEND
  5
F1
330
ED
100
AcDbEntity
  8
_U+30EC_U+30A4_U+30E4_U+30FC 1
  6
AI-Linetype-1
 62
   154
420
    23468
370
    25
  0
POLYLINE
  5
F2
330
41
100
AcDbEntity
  8
_U+30EC_U+30A4_U+30E4_U+30FC 1
 62
   179
420
  2234388
370
     9
100
AcDb2dPolyline
 66
     1
 10
0.0
 20
0.0
 30
0.0
  0
VERTEX
  5
F3
330
F2
100
AcDbEntity
  8
_U+30EC_U+30A4_U+30E4_U+30FC 1
 62
   179
420
  2234388
370
     9
100
AcDbVertex
100
AcDb2dVertex
 10
86.61487973471476
 20
-131.0218077450225
 30
0.0
  0
VERTEX
  5
F4
330
F2
100
AcDbEntity
  8
_U+30EC_U+30A4_U+30E4_U+30FC 1
 62
   179
420
  2234388
370
     9
100
AcDbVertex
100
AcDb2dVertex
 10
86.87325417256753
 20
-130.0557963563748
 30
0.0
  0
SEQEND
  5
F5
330
F2
100
AcDbEntity
  8
_U+30EC_U+30A4_U+30E4_U+30FC 1
 62
   179
420
  2234388
370
     9
  0
POLYLINE
  5
F6
330
41
100
AcDbEntity
  8
_U+30EC_U+30A4_U+30E4_U+30FC 1
 62
   179
420
  2234388
370
     9
100
AcDb2dPolyline
 66
     1
 10
0.0
 20
0.0
 30
0.0
  0
VERTEX
  5
F7
330
F6
100
AcDbEntity
  8
_U+30EC_U+30A4_U+30E4_U+30FC 1
 62
   179
420
  2234388
370
     9
100
AcDbVertex
100
AcDb2dVertex
 10
86.61487973471476
 20
-131.0218077450225
 30
0.0
  0
VERTEX
  5
F8
330
F6
100
AcDbEntity
  8
_U+30EC_U+30A4_U+30E4_U+30FC 1
 62
   179
420
  2234388
370
     9
100
AcDbVertex
100
AcDb2dVertex
 10
86.61487973471476
 20
-121.6463149695884
 30
0.0
  0
SEQEND
  5
F9
330
F6
100
AcDbEntity
  8
_U+30EC_U+30A4_U+30E4_U+30FC 1
 62
   179
420
  2234388
370
     9
  0
POLYLINE
  5
FA
330
41
100
AcDbEntity
  8
_U+30EC_U+30A4_U+30E4_U+30FC 1
 62
   179
420
  2234388
370
     9
100
AcDb2dPolyline
 66
     1
 10
0.0
 20
0.0
 30
0.0
  0
VERTEX
  5
FB
330
FA
100
AcDbEntity
  8
_U+30EC_U+30A4_U+30E4_U+30FC 1
 62
   179
420
  2234388
370
     9
100
AcDbVertex
100
AcDb2dVertex
 10
86.61487973471476
 20
-131.0218077450225
 30
0.0
  0
VERTEX
  5
FC
330
FA
100
AcDbEntity
  8
_U+30EC_U+30A4_U+30E4_U+30FC 1
 62
   179
420
  2234388
370
     9
100
AcDbVertex
100
AcDb2dVertex
 10
86.35579974132445
 20
-130.0557963563748
 30
0.0
  0
SEQEND
  5
FD
330
FA
100
AcDbEntity
  8
_U+30EC_U+30A4_U+30E4_U+30FC 1
 62
   179
420
  2234388
370
     9
  0
INSERT
  5
FF
330
41
100
AcDbEntity
  8
_U+30EC_U+30A4_U+30E4_U+30FC 1
100
AcDbBlockReference
  2
block 17
 10
0.0
 20
0.0
 30
0.0
  0
ENDBLK
  5
44
330
41
100
AcDbEntity
  8
0
100
AcDbBlockEnd
  0
BLOCK
  5
47
330
45
100
AcDbEntity
  8
0
100
AcDbBlockBegin
  2
block 3
 70
     0
 10
0.0
 20
0.0
 30
0.0
  3
block 3
  1

  0
POLYLINE
  5
49
330
45
100
AcDbEntity
  8
_U+30EC_U+30A4_U+30E4_U+30FC 1
 62
     7
420
 16777215
370
     9
100
AcDb2dPolyline
 66
     1
 10
0.0
 20
0.0
 30
0.0
  0
VERTEX
  5
4A
330
49
100
AcDbEntity
  8
_U+30EC_U+30A4_U+30E4_U+30FC 1
 62
     7
420
 16777215
370
     9
100
AcDbVertex
100
AcDb2dVertex
 10
119.154466126783
 20
-129.6513366342541
 30
0.0
  0
VERTEX
  5
126
330
49
100
AcDbEntity
  8
0
100
AcDbVertex
100
AcDb2dVertex
 10
119.154466126783
 20
-129.6513366342541
 30
0.0
  0
SEQEND
  5
4B
330
49
100
AcDbEntity
  8
_U+30EC_U+30A4_U+30E4_U+30FC 1
 62
     7
420
 16777215
370
     9
  0
POLYLINE
  5
4C
330
45
100
AcDbEntity
  8
_U+30EC_U+30A4_U+30E4_U+30FC 1
 62
     7
420
 16777215
370
     9
100
AcDb2dPolyline
 66
     1
 10
0.0
 20
0.0
 30
0.0
  0
VERTEX
  5
4D
330
4C
100
AcDbEntity
  8
_U+30EC_U+30A4_U+30E4_U+30FC 1
 62
     7
420
 16777215
370
     9
100
AcDbVertex
100
AcDb2dVertex
 10
118.8685397451887
 20
-129.8614863564237
 30
0.0
  0
VERTEX
  5
4E
330
4C
100
AcDbEntity
  8
_U+30EC_U+30A4_U+30E4_U+30FC 1
 62
     7
420
 16777215
370
     9
100
AcDbVertex
100
AcDb2dVertex
 10
109.8857946965798
 20
-133.6565991332525
 30
0.0
  0
VERTEX
  5
4F
330
4C
100
AcDbEntity
  8
_U+30EC_U+30A4_U+30E4_U+30FC 1
 62
     7
420
 16777215
370
     9
100
AcDbVertex
100
AcDb2dVertex
 10
109.8782099745511
 20
-133.4164985777571
 30
0.0
  0
VERTEX
  5
50
330
4C
100
AcDbEntity
  8
_U+30EC_U+30A4_U+30E4_U+30FC 1
 62
     7
420
 16777215
370
     9
100
AcDbVertex
100
AcDb2dVertex
 10
118.8754189116798
 20
-129.6513366342541
 30
0.0
  0
SEQEND
  5
51
330
4C
100
AcDbEntity
  8
_U+30EC_U+30A4_U+30E4_U+30FC 1
 62
     7
420
 16777215
370
     9
  0
POLYLINE
  5
52
330
45
100
AcDbEntity
  8
_U+30EC_U+30A4_U+30E4_U+30FC 1
 62
     7
420
 16777215
370
     9
100
AcDb2dPolyline
 66
     1
 10
0.0
 20
0.0
 30
0.0
  0
VERTEX
  5
53
330
52
100
AcDbEntity
  8
_U+30EC_U+30A4_U+30E4_U+30FC 1
 62
     7
420
 16777215
370
     9
100
AcDbVertex
100
AcDb2dVertex
 10
113.5534487696768
 20
-124.4265213577823
 30
0.0
  0
VERTEX
  5
54
330
52
100
AcDbEntity
  8
_U+30EC_U+30A4_U+30E4_U+30FC 1
 62
     7
420
 16777215
370
     9
100
AcDbVertex
100
AcDb2dVertex
 10
104.0911376221916
 20
-128.3956241345679
 30
0.0
  0
VERTEX
  5
55
330
52
100
AcDbEntity
  8
_U+30EC_U+30A4_U+30E4_U+30FC 1
 62
     7
420
 16777215
370
     9
100
AcDbVertex
100
AcDb2dVertex
 10
104.0821770668647
 20
-130.9443024672642
 30
0.0
  0
VERTEX
  5
56
330
52
100
AcDbEntity
  8
_U+30EC_U+30A4_U+30E4_U+30FC 1
 62
     7
420
 16777215
370
     9
100
AcDbVertex
100
AcDb2dVertex
 10
113.8958901498293
 20
-126.8081241349648
 30
0.0
  0
SEQEND
  5
57
330
52
100
AcDbEntity
  8
_U+30EC_U+30A4_U+30E4_U+30FC 1
 62
     7
420
 16777215
370
     9
  0
INSERT
  5
59
330
45
100
AcDbEntity
  8
_U+30EC_U+30A4_U+30E4_U+30FC 1
100
AcDbBlockReference
  2
block 4
 10
0.0
 20
0.0
 30
0.0
  0
INSERT
  5
5F
330
45
100
AcDbEntity
  8
_U+30EC_U+30A4_U+30E4_U+30FC 1
100
AcDbBlockReference
  2
block 5
 10
0.0
 20
0.0
 30
0.0
  0
INSERT
  5
65
330
45
100
AcDbEntity
  8
_U+30EC_U+30A4_U+30E4_U+30FC 1
100
AcDbBlockReference
  2
block 6
 10
0.0
 20
0.0
 30
0.0
  0
INSERT
  5
6B
330
45
100
AcDbEntity
  8
_U+30EC_U+30A4_U+30E4_U+30FC 1
100
AcDbBlockReference
  2
block 7
 10
0.0
 20
0.0
 30
0.0
  0
INSERT
  5
71
330
45
100
AcDbEntity
  8
_U+30EC_U+30A4_U+30E4_U+30FC 1
100
AcDbBlockReference
  2
block 8
 10
0.0
 20
0.0
 30
0.0
  0
INSERT
  5
77
330
45
100
AcDbEntity
  8
_U+30EC_U+30A4_U+30E4_U+30FC 1
100
AcDbBlockReference
  2
block 9
 10
0.0
 20
0.0
 30
0.0
  0
INSERT
  5
7D
330
45
100
AcDbEntity
  8
_U+30EC_U+30A4_U+30E4_U+30FC 1
100
AcDbBlockReference
  2
block 10
 10
0.0
 20
0.0
 30
0.0
  0
INSERT
  5
83
330
45
100
AcDbEntity
  8
_U+30EC_U+30A4_U+30E4_U+30FC 1
100
AcDbBlockReference
  2
block 11
 10
0.0
 20
0.0
 30
0.0
  0
INSERT
  5
89
330
45
100
AcDbEntity
  8
_U+30EC_U+30A4_U+30E4_U+30FC 1
100
AcDbBlockReference
  2
block 12
 10
0.0
 20
0.0
 30
0.0
  0
INSERT
  5
8F
330
45
100
AcDbEntity
  8
_U+30EC_U+30A4_U+30E4_U+30FC 1
100
AcDbBlockReference
  2
block 13
 10
0.0
 20
0.0
 30
0.0
  0
INSERT
  5
95
330
45
100
AcDbEntity
  8
_U+30EC_U+30A4_U+30E4_U+30FC 1
100
AcDbBlockReference
  2
block 14
 10
0.0
 20
0.0
 30
0.0
  0
POLYLINE
  5
9A
330
45
100
AcDbEntity
  8
_U+30EC_U+30A4_U+30E4_U+30FC 1
 62
     7
420
 16777215
370
     9
100
AcDb2dPolyline
 66
     1
 10
0.0
 20
0.0
 30
0.0
  0
VERTEX
  5
9B
330
9A
100
AcDbEntity
  8
_U+30EC_U+30A4_U+30E4_U+30FC 1
 62
     7
420
 16777215
370
     9
100
AcDbVertex
100
AcDb2dVertex
 10
118.8685397451887
 20
-129.8614863564237
 30
0.0
  0
VERTEX
  5
9C
330
9A
100
AcDbEntity
  8
_U+30EC_U+30A4_U+30E4_U+30FC 1
 62
     7
420
 16777215
370
     9
100
AcDbVertex
100
AcDb2dVertex
 10
118.8754189116798
 20
-129.6513366342541
 30
0.0
  0
SEQEND
  5
9D
330
9A
100
AcDbEntity
  8
_U+30EC_U+30A4_U+30E4_U+30FC 1
 62
     7
420
 16777215
370
     9
  0
POLYLINE
  5
9E
330
45
100
AcDbEntity
  8
_U+30EC_U+30A4_U+30E4_U+30FC 1
 62
     7
420
 16777215
370
     9
100
AcDb2dPolyline
 66
     1
 10
0.0
 20
0.0
 30
0.0
  0
VERTEX
  5
9F
330
9E
100
AcDbEntity
  8
_U+30EC_U+30A4_U+30E4_U+30FC 1
 62
     7
420
 16777215
370
     9
100
AcDbVertex
100
AcDb2dVertex
 10
109.8782099745511
 20
-133.4164985777571
 30
0.0
  0
VERTEX
  5
A0
330
9E
100
AcDbEntity
  8
_U+30EC_U+30A4_U+30E4_U+30FC 1
 62
     7
420
 16777215
370
     9
100
AcDbVertex
100
AcDb2dVertex
 10
104.0821770668647
 20
-130.9443024672642
 30
0.0
  0
VERTEX
  5
A1
330
9E
100
AcDbEntity
  8
_U+30EC_U+30A4_U+30E4_U+30FC 1
 62
     7
420
 16777215
370
     9
100
AcDbVertex
100
AcDb2dVertex
 10
103.7549051307696
 20
-131.4624271893567
 30
0.0
  0
VERTEX
  5
A2
330
9E
100
AcDbEntity
  8
_U+30EC_U+30A4_U+30E4_U+30FC 1
 62
     7
420
 16777215
370
     9
100
AcDbVertex
100
AcDb2dVertex
 10
109.8857946965798
 20
-133.6565991332525
 30
0.0
  0
SEQEND
  5
A3
330
9E
100
AcDbEntity
  8
_U+30EC_U+30A4_U+30E4_U+30FC 1
 62
     7
420
 16777215
370
     9
  0
POLYLINE
  5
A4
330
45
100
AcDbEntity
  8
_U+30EC_U+30A4_U+30E4_U+30FC 1
 62
     7
420
 16777215
370
     9
100
AcDb2dPolyline
 66
     1
 10
0.0
 20
0.0
 30
0.0
  0
VERTEX
  5
A5
330
A4
100
AcDbEntity
  8
_U+30EC_U+30A4_U+30E4_U+30FC 1
 62
     7
420
 16777215
370
     9
100
AcDbVertex
100
AcDb2dVertex
 10
104.0911376221916
 20
-128.3956241345679
 30
0.0
  0
VERTEX
  5
A6
330
A4
100
AcDbEntity
  8
_U+30EC_U+30A4_U+30E4_U+30FC 1
 62
     7
420
 16777215
370
     9
100
AcDbVertex
100
AcDb2dVertex
 10
103.9443820703801
 20
-128.4838185789903
 30
0.0
  0
VERTEX
  5
A7
330
A4
100
AcDbEntity
  8
_U+30EC_U+30A4_U+30E4_U+30FC 1
 62
     7
420
 16777215
370
     9
100
AcDbVertex
100
AcDb2dVertex
 10
103.7549051307696
 20
-131.4624271893567
 30
0.0
  0
SEQEND
  5
A8
330
A4
100
AcDbEntity
  8
_U+30EC_U+30A4_U+30E4_U+30FC 1
 62
     7
420
 16777215
370
     9
  0
ENDBLK
  5
48
330
45
100
AcDbEntity
  8
0
100
AcDbBlockEnd
  0
BLOCK
  5
5A
330
58
100
AcDbEntity
  8
0
100
AcDbBlockBegin
  2
block 4
 70
     0
 10
0.0
 20
0.0
 30
0.0
  3
block 4
  1

  0
SPLINE
  5
5C
330
58
100
AcDbEntity
  8
_U+30EC_U+30A4_U+30E4_U+30FC 1
 62
     7
420
 16777215
370
     9
100
AcDbSpline
210
0.0
220
0.0
230
1.0
 70
    11
 71
     3
 72
    17
 73
    13
 74
     0
 42
0.0000000001
 43
0.0000000001
 12
1.0
 22
0.0
 32
0.0
 13
1.0
 23
0.0
 33
0.0
 40
0.0
 40
0.0
 40
0.0
 40
0.0
 40
1.0
 40
1.0
 40
1.0
 40
2.0
 40
2.0
 40
2.0
 40
3.0
 40
3.0
 40
3.0
 40
4.0
 40
4.0
 40
4.0
 40
4.0
 10
108.024083306327
 20
-131.2798294116242
 30
0.0
 10
108.024083306327
 20
-131.4872274671281
 30
0.0
 10
107.733285862606
 20
-131.6560316337529
 30
0.0
 10
107.3750047606354
 20
-131.6560316337529
 30
0.0
 10
107.0153478253666
 20
-131.6560316337529
 30
0.0
 10
106.7252586661007
 20
-131.4872274671281
 30
0.0
 10
106.7252586661007
 20
-131.2798294116242
 30
0.0
 10
106.7252586661007
 20
-131.0710555227881
 30
0.0
 10
107.0153478253666
 20
-130.9022513561632
 30
0.0
 10
107.3750047606354
 20
-130.9022513561632
 30
0.0
 10
107.733285862606
 20
-130.9022513561632
 30
0.0
 10
108.024083306327
 20
-131.0710555227881
 30
0.0
 10
108.024083306327
 20
-131.2798294116242
 30
0.0
  0
SPLINE
  5
5D
330
58
100
AcDbEntity
  8
_U+30EC_U+30A4_U+30E4_U+30FC 1
 62
     7
420
 16777215
370
     9
100
AcDbSpline
210
0.0
220
0.0
230
1.0
 70
     8
 71
     3
 72
    11
 73
     7
 74
     0
 42
0.0000000001
 43
0.0000000001
 12
1.0
 22
0.0
 32
0.0
 13
1.0
 23
0.0
 33
0.0
 40
0.0
 40
0.0
 40
0.0
 40
0.0
 40
1.0
 40
1.0
 40
1.0
 40
2.0
 40
2.0
 40
2.0
 40
2.0
 10
106.8375831076795
 20
-131.4858516337952
 30
0.0
 10
106.8375831076795
 20
-131.4858516337952
 30
0.0
 10
106.8189564414881
 20
-131.0345430227969
 30
0.0
 10
107.552772195334
 20
-131.071761078343
 30
0.0
 10
107.552772195334
 20
-131.071761078343
 30
0.0
 10
107.9868625228034
 20
-131.1282408005514
 30
0.0
 10
107.9110505802931
 20
-131.4672602449109
 30
0.0
  0
ENDBLK
  5
5B
330
58
100
AcDbEntity
  8
0
100
AcDbBlockEnd
  0
BLOCK
  5
60
330
5E
100
AcDbEntity
  8
0
100
AcDbBlockBegin
  2
block 5
 70
     0
 10
0.0
 20
0.0
 30
0.0
  3
block 5
  1

  0
SPLINE
  5
62
330
5E
100
AcDbEntity
  8
_U+30EC_U+30A4_U+30E4_U+30FC 1
 62
     7
420
 16777215
370
     9
100
AcDbSpline
210
0.0
220
0.0
230
1.0
 70
    11
 71
     3
 72
    17
 73
    13
 74
     0
 42
0.0000000001
 43
0.0000000001
 12
1.0
 22
0.0
 32
0.0
 13
1.0
 23
0.0
 33
0.0
 40
0.0
 40
0.0
 40
0.0
 40
0.0
 40
1.0
 40
1.0
 40
1.0
 40
2.0
 40
2.0
 40
2.0
 40
3.0
 40
3.0
 40
3.0
 40
4.0
 40
4.0
 40
4.0
 40
4.0
 10
112.9746815622202
 20
-131.2798294116242
 30
0.0
 10
112.9746815622202
 20
-131.4872274671281
 30
0.0
 10
112.6838868474168
 20
-131.6560316337529
 30
0.0
 10
112.3249354676855
 20
-131.6560316337529
 30
0.0
 10
111.9673246434756
 20
-131.6560316337529
 30
0.0
 10
111.6758596509115
 20
-131.4872274671281
 30
0.0
 10
111.6758596509115
 20
-131.2798294116242
 30
0.0
 10
111.6758596509115
 20
-131.0710555227881
 30
0.0
 10
111.9673246434756
 20
-130.9022513561632
 30
0.0
 10
112.3249354676855
 20
-130.9022513561632
 30
0.0
 10
112.6838868474168
 20
-130.9022513561632
 30
0.0
 10
112.9746815622202
 20
-131.0710555227881
 30
0.0
 10
112.9746815622202
 20
-131.2798294116242
 30
0.0
  0
SPLINE
  5
63
330
5E
100
AcDbEntity
  8
_U+30EC_U+30A4_U+30E4_U+30FC 1
 62
     7
420
 16777215
370
     9
100
AcDbSpline
210
0.0
220
0.0
230
1.0
 70
     8
 71
     3
 72
    11
 73
     7
 74
     0
 42
0.0000000001
 43
0.0000000001
 12
1.0
 22
0.0
 32
0.0
 13
1.0
 23
0.0
 33
0.0
 40
0.0
 40
0.0
 40
0.0
 40
0.0
 40
1.0
 40
1.0
 40
1.0
 40
2.0
 40
2.0
 40
2.0
 40
2.0
 10
111.7888543702509
 20
-131.4858516337952
 30
0.0
 10
111.7888543702509
 20
-131.4858516337952
 30
0.0
 10
111.7702629818364
 20
-131.0345430227969
 30
0.0
 10
112.5033704631332
 20
-131.071761078343
 30
0.0
 10
112.5033704631332
 20
-131.071761078343
 30
0.0
 10
112.9374635076142
 20
-131.1282408005514
 30
0.0
 10
112.8616868428807
 20
-131.4672602449109
 30
0.0
  0
ENDBLK
  5
61
330
5E
100
AcDbEntity
  8
0
100
AcDbBlockEnd
  0
BLOCK
  5
66
330
64
100
AcDbEntity
  8
0
100
AcDbBlockBegin
  2
block 6
 70
     0
 10
0.0
 20
0.0
 30
0.0
  3
block 6
  1

  0
SPLINE
  5
68
330
64
100
AcDbEntity
  8
_U+30EC_U+30A4_U+30E4_U+30FC 1
 62
     7
420
 16777215
370
     9
100
AcDbSpline
210
0.0
220
0.0
230
1.0
 70
    11
 71
     3
 72
    17
 73
    13
 74
     0
 42
0.0000000001
 43
0.0000000001
 12
1.0
 22
0.0
 32
0.0
 13
1.0
 23
0.0
 33
0.0
 40
0.0
 40
0.0
 40
0.0
 40
0.0
 40
1.0
 40
1.0
 40
1.0
 40
2.0
 40
2.0
 40
2.0
 40
3.0
 40
3.0
 40
3.0
 40
4.0
 40
4.0
 40
4.0
 40
4.0
 10
110.351567184697
 20
-132.4394452446681
 30
0.0
 10
110.351567184697
 20
-132.6475488557269
 30
0.0
 10
110.0608077476704
 20
-132.8156827445737
 30
0.0
 10
109.7018210901623
 20
-132.8156827445737
 30
0.0
 10
109.3428344326541
 20
-132.8156827445737
 30
0.0
 10
109.0520777505147
 20
-132.6475488557269
 30
0.0
 10
109.0520777505147
 20
-132.4394452446681
 30
0.0
 10
109.0520777505147
 20
-132.2306713558314
 30
0.0
 10
109.3428344326541
 20
-132.0625727447621
 30
0.0
 10
109.7018210901623
 20
-132.0625727447621
 30
0.0
 10
110.0608077476704
 20
-132.0625727447621
 30
0.0
 10
110.351567184697
 20
-132.2306713558314
 30
0.0
 10
110.351567184697
 20
-132.4394452446681
 30
0.0
  0
SPLINE
  5
69
330
64
100
AcDbEntity
  8
_U+30EC_U+30A4_U+30E4_U+30FC 1
 62
     7
420
 16777215
370
     9
100
AcDbSpline
210
0.0
220
0.0
230
1.0
 70
     8
 71
     3
 72
    11
 73
     7
 74
     0
 42
0.0000000001
 43
0.0000000001
 12
1.0
 22
0.0
 32
0.0
 13
1.0
 23
0.0
 33
0.0
 40
0.0
 40
0.0
 40
0.0
 40
0.0
 40
1.0
 40
1.0
 40
1.0
 40
2.0
 40
2.0
 40
2.0
 40
2.0
 10
109.165069714967
 20
-132.646173022394
 30
0.0
 10
109.165069714967
 20
-132.646173022394
 30
0.0
 10
109.1457727710149
 20
-132.1948644113957
 30
0.0
 10
109.8809616411476
 20
-132.231729689164
 30
0.0
 10
109.8809616411476
 20
-132.231729689164
 30
0.0
 10
110.3136788523303
 20
-132.2878919113722
 30
0.0
 10
110.2385724653575
 20
-132.6275463557322
 30
0.0
  0
ENDBLK
  5
67
330
64
100
AcDbEntity
  8
0
100
AcDbBlockEnd
  0
BLOCK
  5
6C
330
6A
100
AcDbEntity
  8
0
100
AcDbBlockBegin
  2
block 7
 70
     0
 10
0.0
 20
0.0
 30
0.0
  3
block 7
  1

  0
SPLINE
  5
6E
330
6A
100
AcDbEntity
  8
_U+30EC_U+30A4_U+30E4_U+30FC 1
 62
     7
420
 16777215
370
     9
100
AcDbSpline
210
0.0
220
0.0
230
1.0
 70
    11
 71
     3
 72
    17
 73
    13
 74
     0
 42
0.0000000001
 43
0.0000000001
 12
1.0
 22
0.0
 32
0.0
 13
1.0
 23
0.0
 33
0.0
 40
0.0
 40
0.0
 40
0.0
 40
0.0
 40
1.0
 40
1.0
 40
1.0
 40
2.0
 40
2.0
 40
2.0
 40
3.0
 40
3.0
 40
3.0
 40
4.0
 40
4.0
 40
4.0
 40
4.0
 10
110.351567184697
 20
-131.4052419115934
 30
0.0
 10
110.351567184697
 20
-131.6122871893188
 30
0.0
 10
110.0608077476704
 20
-131.7814441337214
 30
0.0
 10
109.7018210901623
 20
-131.7814441337214
 30
0.0
 10
109.3428344326541
 20
-131.7814441337214
 30
0.0
 10
109.0520777505147
 20
-131.6122871893188
 30
0.0
 10
109.0520777505147
 20
-131.4052419115934
 30
0.0
 10
109.0520777505147
 20
-131.1964680227566
 30
0.0
 10
109.3428344326541
 20
-131.0280166339095
 30
0.0
 10
109.7018210901623
 20
-131.0280166339095
 30
0.0
 10
110.0608077476704
 20
-131.0280166339095
 30
0.0
 10
110.351567184697
 20
-131.1964680227566
 30
0.0
 10
110.351567184697
 20
-131.4052419115934
 30
0.0
  0
SPLINE
  5
6F
330
6A
100
AcDbEntity
  8
_U+30EC_U+30A4_U+30E4_U+30FC 1
 62
     7
420
 16777215
370
     9
100
AcDbSpline
210
0.0
220
0.0
230
1.0
 70
     8
 71
     3
 72
    11
 73
     7
 74
     0
 42
0.0000000001
 43
0.0000000001
 12
1.0
 22
0.0
 32
0.0
 13
1.0
 23
0.0
 33
0.0
 40
0.0
 40
0.0
 40
0.0
 40
0.0
 40
1.0
 40
1.0
 40
1.0
 40
2.0
 40
2.0
 40
2.0
 40
2.0
 10
109.165069714967
 20
-131.6116169115415
 30
0.0
 10
109.165069714967
 20
-131.6116169115415
 30
0.0
 10
109.1457727710149
 20
-131.1596027449876
 30
0.0
 10
109.8809616411476
 20
-131.1974910783118
 30
0.0
 10
109.8809616411476
 20
-131.1974910783118
 30
0.0
 10
110.3136788523303
 20
-131.2533005227422
 30
0.0
 10
110.2385724653575
 20
-131.5926727448794
 30
0.0
  0
ENDBLK
  5
6D
330
6A
100
AcDbEntity
  8
0
100
AcDbBlockEnd
  0
BLOCK
  5
72
330
70
100
AcDbEntity
  8
0
100
AcDbBlockBegin
  2
block 8
 70
     0
 10
0.0
 20
0.0
 30
0.0
  3
block 8
  1

  0
SPLINE
  5
74
330
70
100
AcDbEntity
  8
_U+30EC_U+30A4_U+30E4_U+30FC 1
 62
     7
420
 16777215
370
     9
100
AcDbSpline
210
0.0
220
0.0
230
1.0
 70
    11
 71
     3
 72
    17
 73
    13
 74
     0
 42
0.0000000001
 43
0.0000000001
 12
1.0
 22
0.0
 32
0.0
 13
1.0
 23
0.0
 33
0.0
 40
0.0
 40
0.0
 40
0.0
 40
0.0
 40
1.0
 40
1.0
 40
1.0
 40
2.0
 40
2.0
 40
2.0
 40
3.0
 40
3.0
 40
3.0
 40
4.0
 40
4.0
 40
4.0
 40
4.0
 10
110.351567184697
 20
-130.2380413563295
 30
0.0
 10
110.351567184697
 20
-130.4457921896105
 30
0.0
 10
110.0608077476704
 20
-130.6142435784576
 30
0.0
 10
109.7018210901623
 20
-130.6142435784576
 30
0.0
 10
109.3428344326541
 20
-130.6142435784576
 30
0.0
 10
109.0520777505147
 20
-130.4457921896105
 30
0.0
 10
109.0520777505147
 20
-130.2380413563295
 30
0.0
 10
109.0520777505147
 20
-130.0296202452705
 30
0.0
 10
109.3428344326541
 20
-129.8608160786457
 30
0.0
 10
109.7018210901623
 20
-129.8608160786457
 30
0.0
 10
110.0608077476704
 20
-129.8608160786457
 30
0.0
 10
110.351567184697
 20
-130.0296202452705
 30
0.0
 10
110.351567184697
 20
-130.2380413563295
 30
0.0
  0
SPLINE
  5
75
330
70
100
AcDbEntity
  8
_U+30EC_U+30A4_U+30E4_U+30FC 1
 62
     7
420
 16777215
370
     9
100
AcDbSpline
210
0.0
220
0.0
230
1.0
 70
     8
 71
     3
 72
    11
 73
     7
 74
     0
 42
0.0000000001
 43
0.0000000001
 12
1.0
 22
0.0
 32
0.0
 13
1.0
 23
0.0
 33
0.0
 40
0.0
 40
0.0
 40
0.0
 40
0.0
 40
1.0
 40
1.0
 40
1.0
 40
2.0
 40
2.0
 40
2.0
 40
2.0
 10
109.165069714967
 20
-130.4447338562778
 30
0.0
 10
109.165069714967
 20
-130.4447338562778
 30
0.0
 10
109.1457727710149
 20
-129.9927549675015
 30
0.0
 10
109.8809616411476
 20
-130.0302905230479
 30
0.0
 10
109.8809616411476
 20
-130.0302905230479
 30
0.0
 10
110.3136788523303
 20
-130.0868055230339
 30
0.0
 10
110.2385724653575
 20
-130.4257896896158
 30
0.0
  0
ENDBLK
  5
73
330
70
100
AcDbEntity
  8
0
100
AcDbBlockEnd
  0
BLOCK
  5
78
330
76
100
AcDbEntity
  8
0
100
AcDbBlockBegin
  2
block 9
 70
     0
 10
0.0
 20
0.0
 30
0.0
  3
block 9
  1

  0
SPLINE
  5
7A
330
76
100
AcDbEntity
  8
_U+30EC_U+30A4_U+30E4_U+30FC 1
 62
     7
420
 16777215
370
     9
100
AcDbSpline
210
0.0
220
0.0
230
1.0
 70
    11
 71
     3
 72
    17
 73
    13
 74
     0
 42
0.0000000001
 43
0.0000000001
 12
1.0
 22
0.0
 32
0.0
 13
1.0
 23
0.0
 33
0.0
 40
0.0
 40
0.0
 40
0.0
 40
0.0
 40
1.0
 40
1.0
 40
1.0
 40
2.0
 40
2.0
 40
2.0
 40
3.0
 40
3.0
 40
3.0
 40
4.0
 40
4.0
 40
4.0
 40
4.0
 10
117.126699511849
 20
-129.7137077453493
 30
0.0
 10
117.126699511849
 20
-129.9211058008532
 30
0.0
 10
116.8366103525831
 20
-130.0899099674774
 30
0.0
 10
116.4776589728518
 20
-130.0899099674774
 30
0.0
 10
116.1186723153436
 20
-130.0899099674774
 30
0.0
 10
115.8272073227795
 20
-129.9211058008532
 30
0.0
 10
115.8272073227795
 20
-129.7137077453493
 30
0.0
 10
115.8272073227795
 20
-129.5049338565126
 30
0.0
 10
116.1186723153436
 20
-129.3361296898884
 30
0.0
 10
116.4776589728518
 20
-129.3361296898884
 30
0.0
 10
116.8366103525831
 20
-129.3361296898884
 30
0.0
 10
117.126699511849
 20
-129.5049338565126
 30
0.0
 10
117.126699511849
 20
-129.7137077453493
 30
0.0
  0
SPLINE
  5
7B
330
76
100
AcDbEntity
  8
_U+30EC_U+30A4_U+30E4_U+30FC 1
 62
     7
420
 16777215
370
     9
100
AcDbSpline
210
0.0
220
0.0
230
1.0
 70
     8
 71
     3
 72
    11
 73
     7
 74
     0
 42
0.0000000001
 43
0.0000000001
 12
1.0
 22
0.0
 32
0.0
 13
1.0
 23
0.0
 33
0.0
 40
0.0
 40
0.0
 40
0.0
 40
0.0
 40
1.0
 40
1.0
 40
1.0
 40
2.0
 40
2.0
 40
2.0
 40
2.0
 10
115.940202042119
 20
-129.9197299675203
 30
0.0
 10
115.940202042119
 20
-129.9197299675203
 30
0.0
 10
115.9222809314651
 20
-129.468421356522
 30
0.0
 10
116.6560939682995
 20
-129.5056041342906
 30
0.0
 10
116.6560939682995
 20
-129.5056041342906
 30
0.0
 10
117.0894814572429
 20
-129.5621191342759
 30
0.0
 10
117.0137047925095
 20
-129.9011033008578
 30
0.0
  0
ENDBLK
  5
79
330
76
100
AcDbEntity
  8
0
100
AcDbBlockEnd
  0
BLOCK
  5
7E
330
7C
100
AcDbEntity
  8
0
100
AcDbBlockBegin
  2
block 10
 70
     0
 10
0.0
 20
0.0
 30
0.0
  3
block 10
  1

  0
SPLINE
  5
80
330
7C
100
AcDbEntity
  8
_U+30EC_U+30A4_U+30E4_U+30FC 1
 62
     7
420
 16777215
370
     9
100
AcDbSpline
210
0.0
220
0.0
230
1.0
 70
    11
 71
     3
 72
    17
 73
    13
 74
     0
 42
0.0000000001
 43
0.0000000001
 12
1.0
 22
0.0
 32
0.0
 13
1.0
 23
0.0
 33
0.0
 40
0.0
 40
0.0
 40
0.0
 40
0.0
 40
1.0
 40
1.0
 40
1.0
 40
2.0
 40
2.0
 40
2.0
 40
3.0
 40
3.0
 40
3.0
 40
4.0
 40
4.0
 40
4.0
 40
4.0
 10
112.6342862931266
 20
-129.3881291343198
 30
0.0
 10
112.6342862931266
 20
-129.5969030231565
 30
0.0
 10
112.3442324116376
 20
-129.7646841342256
 30
0.0
 10
111.9852457541295
 20
-129.7646841342256
 30
0.0
 10
111.6262590966213
 20
-129.7646841342256
 30
0.0
 10
111.3361699373555
 20
-129.5969030231565
 30
0.0
 10
111.3361699373555
 20
-129.3881291343198
 30
0.0
 10
111.3361699373555
 20
-129.1804135788163
 30
0.0
 10
111.6262590966213
 20
-129.0115741344139
 30
0.0
 10
111.9852457541295
 20
-129.0115741344139
 30
0.0
 10
112.3442324116376
 20
-129.0115741344139
 30
0.0
 10
112.6342862931266
 20
-129.1804135788163
 30
0.0
 10
112.6342862931266
 20
-129.3881291343198
 30
0.0
  0
SPLINE
  5
81
330
7C
100
AcDbEntity
  8
_U+30EC_U+30A4_U+30E4_U+30FC 1
 62
     7
420
 16777215
370
     9
100
AcDbSpline
210
0.0
220
0.0
230
1.0
 70
     8
 71
     3
 72
    11
 73
     7
 74
     0
 42
0.0000000001
 43
0.0000000001
 12
1.0
 22
0.0
 32
0.0
 13
1.0
 23
0.0
 33
0.0
 40
0.0
 40
0.0
 40
0.0
 40
0.0
 40
1.0
 40
1.0
 40
1.0
 40
2.0
 40
2.0
 40
2.0
 40
2.0
 10
111.4484971943599
 20
-129.5951744120458
 30
0.0
 10
111.4484971943599
 20
-129.5951744120458
 30
0.0
 10
111.4305732682804
 20
-129.1438658010475
 30
0.0
 10
112.1636807495772
 20
-129.1810838565937
 30
0.0
 10
112.1636807495772
 20
-129.1810838565937
 30
0.0
 10
112.5977737940581
 20
-129.2372460788019
 30
0.0
 10
112.5212944163143
 20
-129.5769358009393
 30
0.0
  0
ENDBLK
  5
7F
330
7C
100
AcDbEntity
  8
0
100
AcDbBlockEnd
  0
BLOCK
  5
84
330
82
100
AcDbEntity
  8
0
100
AcDbBlockBegin
  2
block 11
 70
     0
 10
0.0
 20
0.0
 30
0.0
  3
block 11
  1

  0
SPLINE
  5
86
330
82
100
AcDbEntity
  8
_U+30EC_U+30A4_U+30E4_U+30FC 1
 62
     7
420
 16777215
370
     9
100
AcDbSpline
210
0.0
220
0.0
230
1.0
 70
    11
 71
     3
 72
    17
 73
    13
 74
     0
 42
0.0000000001
 43
0.0000000001
 12
1.0
 22
0.0
 32
0.0
 13
1.0
 23
0.0
 33
0.0
 40
0.0
 40
0.0
 40
0.0
 40
0.0
 40
1.0
 40
1.0
 40
1.0
 40
2.0
 40
2.0
 40
2.0
 40
3.0
 40
3.0
 40
3.0
 40
4.0
 40
4.0
 40
4.0
 40
4.0
 10
114.7916281825327
 20
-130.6889971895501
 30
0.0
 10
114.7916281825327
 20
-130.896395245054
 30
0.0
 10
114.5001631899686
 20
-131.0651994116782
 30
0.0
 10
114.141882087998
 20
-131.0651994116782
 30
0.0
 10
113.7828954304898
 20
-131.0651994116782
 30
0.0
 10
113.4921388605156
 20
-130.896395245054
 30
0.0
 10
113.4921388605156
 20
-130.6889971895501
 30
0.0
 10
113.4921388605156
 20
-130.4802233007134
 30
0.0
 10
113.7828954304898
 20
-130.3117719118663
 30
0.0
 10
114.141882087998
 20
-130.3117719118663
 30
0.0
 10
114.5001631899686
 20
-130.3117719118663
 30
0.0
 10
114.7916281825327
 20
-130.4802233007134
 30
0.0
 10
114.7916281825327
 20
-130.6889971895501
 30
0.0
  0
SPLINE
  5
87
330
82
100
AcDbEntity
  8
_U+30EC_U+30A4_U+30E4_U+30FC 1
 62
     7
420
 16777215
370
     9
100
AcDbSpline
210
0.0
220
0.0
230
1.0
 70
     8
 71
     3
 72
    11
 73
     7
 74
     0
 42
0.0000000001
 43
0.0000000001
 12
1.0
 22
0.0
 32
0.0
 13
1.0
 23
0.0
 33
0.0
 40
0.0
 40
0.0
 40
0.0
 40
0.0
 40
1.0
 40
1.0
 40
1.0
 40
2.0
 40
2.0
 40
2.0
 40
2.0
 10
113.6044251572652
 20
-130.8950194117204
 30
0.0
 10
113.6044251572652
 20
-130.8950194117204
 30
0.0
 10
113.5865040466113
 20
-130.4437108007221
 30
0.0
 10
114.3203170834457
 20
-130.4809288562689
 30
0.0
 10
114.3203170834457
 20
-130.4809288562689
 30
0.0
 10
114.7537045723891
 20
-130.5374085784767
 30
0.0
 10
114.6779279076557
 20
-130.8764280228368
 30
0.0
  0
ENDBLK
  5
85
330
82
100
AcDbEntity
  8
0
100
AcDbBlockEnd
  0
BLOCK
  5
8A
330
88
100
AcDbEntity
  8
0
100
AcDbBlockBegin
  2
block 12
 70
     0
 10
0.0
 20
0.0
 30
0.0
  3
block 12
  1

  0
SPLINE
  5
8C
330
88
100
AcDbEntity
  8
_U+30EC_U+30A4_U+30E4_U+30FC 1
 62
     7
420
 16777215
370
     9
100
AcDbSpline
210
0.0
220
0.0
230
1.0
 70
    11
 71
     3
 72
    17
 73
    13
 74
     0
 42
0.0000000001
 43
0.0000000001
 12
1.0
 22
0.0
 32
0.0
 13
1.0
 23
0.0
 33
0.0
 40
0.0
 40
0.0
 40
0.0
 40
0.0
 40
1.0
 40
1.0
 40
1.0
 40
2.0
 40
2.0
 40
2.0
 40
3.0
 40
3.0
 40
3.0
 40
4.0
 40
4.0
 40
4.0
 40
4.0
 10
114.7916281825327
 20
-129.6547938564754
 30
0.0
 10
114.7916281825327
 20
-129.8632149675343
 30
0.0
 10
114.5001631899686
 20
-130.0313488563812
 30
0.0
 10
114.141882087998
 20
-130.0313488563812
 30
0.0
 10
113.7828954304898
 20
-130.0313488563812
 30
0.0
 10
113.4921388605156
 20
-129.8632149675343
 30
0.0
 10
113.4921388605156
 20
-129.6547938564754
 30
0.0
 10
113.4921388605156
 20
-129.4463727454164
 30
0.0
 10
113.7828954304898
 20
-129.2775685787915
 30
0.0
 10
114.141882087998
 20
-129.2775685787915
 30
0.0
 10
114.5001631899686
 20
-129.2775685787915
 30
0.0
 10
114.7916281825327
 20
-129.4463727454164
 30
0.0
 10
114.7916281825327
 20
-129.6547938564754
 30
0.0
  0
SPLINE
  5
8D
330
88
100
AcDbEntity
  8
_U+30EC_U+30A4_U+30E4_U+30FC 1
 62
     7
420
 16777215
370
     9
100
AcDbSpline
210
0.0
220
0.0
230
1.0
 70
     8
 71
     3
 72
    11
 73
     7
 74
     0
 42
0.0000000001
 43
0.0000000001
 12
1.0
 22
0.0
 32
0.0
 13
1.0
 23
0.0
 33
0.0
 40
0.0
 40
0.0
 40
0.0
 40
0.0
 40
1.0
 40
1.0
 40
1.0
 40
2.0
 40
2.0
 40
2.0
 40
2.0
 10
113.6044251572652
 20
-129.8614863564237
 30
0.0
 10
113.6044251572652
 20
-129.8614863564237
 30
0.0
 10
113.5865040466113
 20
-129.4098602454251
 30
0.0
 10
114.3203170834457
 20
-129.4470430231937
 30
0.0
 10
114.3203170834457
 20
-129.4470430231937
 30
0.0
 10
114.7537045723891
 20
-129.5035580231797
 30
0.0
 10
114.6779279076557
 20
-129.8432477453171
 30
0.0
  0
ENDBLK
  5
8B
330
88
100
AcDbEntity
  8
0
100
AcDbBlockEnd
  0
BLOCK
  5
90
330
8E
100
AcDbEntity
  8
0
100
AcDbBlockBegin
  2
block 13
 70
     0
 10
0.0
 20
0.0
 30
0.0
  3
block 13
  1

  0
SPLINE
  5
92
330
8E
100
AcDbEntity
  8
_U+30EC_U+30A4_U+30E4_U+30FC 1
 62
     7
420
 16777215
370
     9
100
AcDbSpline
210
0.0
220
0.0
230
1.0
 70
    11
 71
     3
 72
    17
 73
    13
 74
     0
 42
0.0000000001
 43
0.0000000001
 12
1.0
 22
0.0
 32
0.0
 13
1.0
 23
0.0
 33
0.0
 40
0.0
 40
0.0
 40
0.0
 40
0.0
 40
1.0
 40
1.0
 40
1.0
 40
2.0
 40
2.0
 40
2.0
 40
3.0
 40
3.0
 40
3.0
 40
4.0
 40
4.0
 40
4.0
 40
4.0
 10
112.7466107347054
 20
-130.3365721896383
 30
0.0
 10
112.7466107347054
 20
-130.544675800697
 30
0.0
 10
112.4551457421413
 20
-130.7127744117663
 30
0.0
 10
112.0968646401707
 20
-130.7127744117663
 30
0.0
 10
111.7392538159608
 20
-130.7127744117663
 30
0.0
 10
111.447791638805
 20
-130.544675800697
 30
0.0
 10
111.447791638805
 20
-130.3365721896383
 30
0.0
 10
111.447791638805
 20
-130.1281510785793
 30
0.0
 10
111.7392538159608
 20
-129.9596644119547
 30
0.0
 10
112.0968646401707
 20
-129.9596644119547
 30
0.0
 10
112.4551457421413
 20
-129.9596644119547
 30
0.0
 10
112.7466107347054
 20
-130.1281510785793
 30
0.0
 10
112.7466107347054
 20
-130.3365721896383
 30
0.0
  0
SPLINE
  5
93
330
8E
100
AcDbEntity
  8
_U+30EC_U+30A4_U+30E4_U+30FC 1
 62
     7
420
 16777215
370
     9
100
AcDbSpline
210
0.0
220
0.0
230
1.0
 70
     8
 71
     3
 72
    11
 73
     7
 74
     0
 42
0.0000000001
 43
0.0000000001
 12
1.0
 22
0.0
 32
0.0
 13
1.0
 23
0.0
 33
0.0
 40
0.0
 40
0.0
 40
0.0
 40
0.0
 40
1.0
 40
1.0
 40
1.0
 40
2.0
 40
2.0
 40
2.0
 40
2.0
 10
111.5608188205131
 20
-130.5432646895866
 30
0.0
 10
111.5608188205131
 20
-130.5432646895866
 30
0.0
 10
111.5421921543216
 20
-130.0912858008103
 30
0.0
 10
112.2752996356185
 20
-130.1288213563566
 30
0.0
 10
112.2752996356185
 20
-130.1288213563566
 30
0.0
 10
112.7100982356369
 20
-130.1849835785648
 30
0.0
 10
112.6336160153659
 20
-130.5246733007023
 30
0.0
  0
ENDBLK
  5
91
330
8E
100
AcDbEntity
  8
0
100
AcDbBlockEnd
  0
BLOCK
  5
96
330
94
100
AcDbEntity
  8
0
100
AcDbBlockBegin
  2
block 14
 70
     0
 10
0.0
 20
0.0
 30
0.0
  3
block 14
  1

  0
SPLINE
  5
98
330
94
100
AcDbEntity
  8
_U+30EC_U+30A4_U+30E4_U+30FC 1
 62
     7
420
 16777215
370
     9
100
AcDbSpline
210
0.0
220
0.0
230
1.0
 70
    11
 71
     3
 72
    17
 73
    13
 74
     0
 42
0.0000000001
 43
0.0000000001
 12
1.0
 22
0.0
 32
0.0
 13
1.0
 23
0.0
 33
0.0
 40
0.0
 40
0.0
 40
0.0
 40
0.0
 40
1.0
 40
1.0
 40
1.0
 40
2.0
 40
2.0
 40
2.0
 40
3.0
 40
3.0
 40
3.0
 40
4.0
 40
4.0
 40
4.0
 40
4.0
 10
114.7916281825327
 20
-128.4875933012115
 30
0.0
 10
114.7916281825327
 20
-128.6956616344927
 30
0.0
 10
114.5001631899686
 20
-128.8634427455618
 30
0.0
 10
114.141882087998
 20
-128.8634427455618
 30
0.0
 10
113.7828954304898
 20
-128.8634427455618
 30
0.0
 10
113.4921388605156
 20
-128.6956616344927
 30
0.0
 10
113.4921388605156
 20
-128.4875933012115
 30
0.0
 10
113.4921388605156
 20
-128.2791721901525
 30
0.0
 10
113.7828954304898
 20
-128.1110383013057
 30
0.0
 10
114.141882087998
 20
-128.1110383013057
 30
0.0
 10
114.5001631899686
 20
-128.1110383013057
 30
0.0
 10
114.7916281825327
 20
-128.2791721901525
 30
0.0
 10
114.7916281825327
 20
-128.4875933012115
 30
0.0
  0
SPLINE
  5
99
330
94
100
AcDbEntity
  8
_U+30EC_U+30A4_U+30E4_U+30FC 1
 62
     7
420
 16777215
370
     9
100
AcDbSpline
210
0.0
220
0.0
230
1.0
 70
     8
 71
     3
 72
    11
 73
     7
 74
     0
 42
0.0000000001
 43
0.0000000001
 12
1.0
 22
0.0
 32
0.0
 13
1.0
 23
0.0
 33
0.0
 40
0.0
 40
0.0
 40
0.0
 40
0.0
 40
1.0
 40
1.0
 40
1.0
 40
2.0
 40
2.0
 40
2.0
 40
2.0
 10
113.6044251572652
 20
-128.6939683011599
 30
0.0
 10
113.6044251572652
 20
-128.6939683011599
 30
0.0
 10
113.5865040466113
 20
-128.2426596901616
 30
0.0
 10
114.3203170834457
 20
-128.2798424679302
 30
0.0
 10
114.3203170834457
 20
-128.2798424679302
 30
0.0
 10
114.7537045723891
 20
-128.3363574679158
 30
0.0
 10
114.6779279076557
 20
-128.6753416344978
 30
0.0
  0
ENDBLK
  5
97
330
94
100
AcDbEntity
  8
0
100
AcDbBlockEnd
  0
BLOCK
  5
D4
330
D2
100
AcDbEntity
  8
0
100
AcDbBlockBegin
  2
block 15
 70
     0
 10
0.0
 20
0.0
 30
0.0
  3
block 15
  1

  0
SPLINE
  5
D6
330
D2
100
AcDbEntity
  8
_U+30EC_U+30A4_U+30E4_U+30FC 1
370
     0
100
AcDbSpline
210
0.0
220
0.0
230
1.0
 70
    11
 71
     3
 72
    44
 73
    40
 74
     0
 42
0.0000000001
 43
0.0000000001
 12
1.0
 22
0.0
 32
0.0
 13
1.0
 23
0.0
 33
0.0
 40
0.0
 40
0.0
 40
0.0
 40
0.0
 40
1.0
 40
1.0
 40
1.0
 40
2.0
 40
2.0
 40
2.0
 40
3.0
 40
3.0
 40
3.0
 40
4.0
 40
4.0
 40
4.0
 40
5.0
 40
5.0
 40
5.0
 40
6.0
 40
6.0
 40
6.0
 40
7.0
 40
7.0
 40
7.0
 40
8.0
 40
8.0
 40
8.0
 40
9.0
 40
9.0
 40
9.0
 40
10.0
 40
10.0
 40
10.0
 40
11.0
 40
11.0
 40
11.0
 40
12.0
 40
12.0
 40
12.0
 40
13.0
 40
13.0
 40
13.0
 40
13.0
 10
81.62034096266784
 20
-135.873532409608
 30
0.0
 10
81.38745250786495
 20
-136.032351311478
 30
0.0
 10
81.28788924834123
 20
-136.1064208644109
 30
0.0
 10
81.23621281606248
 20
-136.2500813461458
 30
0.0
 10
81.23621281606248
 20
-136.2500813461458
 30
0.0
 10
82.06785886620179
 20
-136.2500813461458
 30
0.0
 10
82.06785886620179
 20
-136.2500813461458
 30
0.0
 10
82.06785886620179
 20
-136.2500813461458
 30
0.0
 10
82.06785886620179
 20
-136.4554090370667
 30
0.0
 10
82.06785886620179
 20
-136.4554090370667
 30
0.0
 10
82.06785886620179
 20
-136.4554090370667
 30
0.0
 10
80.96921791595561
 20
-136.4554090370667
 30
0.0
 10
80.96921791595561
 20
-136.4554090370667
 30
0.0
 10
81.00332436125959
 20
-136.0978081256978
 30
0.0
 10
81.07325979961016
 20
-136.0196044581826
 30
0.0
 10
81.48460420054899
 20
-135.72125918916
 30
0.0
 10
81.75814478207784
 20
-135.5224771796611
 30
0.0
 10
81.82842472997693
 20
-135.4546087986016
 30
0.0
 10
81.82842472997693
 20
-135.3171494887402
 30
0.0
 10
81.82842472997693
 20
-135.1986382040476
 30
0.0
 10
81.75159910065585
 20
-135.0677245756081
 30
0.0
 10
81.54110376650709
 20
-135.0677245756081
 30
0.0
 10
81.26308456084743
 20
-135.0677245756081
 30
0.0
 10
81.25412731258578
 20
-135.2982014635713
 30
0.0
 10
81.24964868845495
 20
-135.4146456909727
 30
0.0
 10
81.24964868845495
 20
-135.4146456909727
 30
0.0
 10
81.00987004268157
 20
-135.4146456909727
 30
0.0
 10
81.00987004268157
 20
-135.4146456909727
 30
0.0
 10
81.01917180049173
 20
-135.287521667567
 30
0.0
 10
81.03019610604454
 20
-135.1755560642964
 30
0.0
 10
81.11632349317578
 20
-135.0570447796038
 30
0.0
 10
81.23380124922281
 20
-134.8961588204426
 30
0.0
 10
81.43258325872172
 20
-134.8623968846872
 30
0.0
 10
81.55695120573924
 20
-134.8623968846872
 30
0.0
 10
81.85322941747073
 20
-134.8623968846872
 30
0.0
 10
82.07474905717228
 20
-135.0463649835995
 30
0.0
 10
82.07474905717228
 20
-135.3192165460313
 30
0.0
 10
82.07474905717228
 20
-135.5479708862519
 30
0.0
 10
81.95038111015477
 20
-135.6471896362271
 30
0.0
 10
81.62034096266784
 20
-135.873532409608
 30
0.0
  0
HATCH
  5
D7
330
D2
100
AcDbEntity
  8
_U+30EC_U+30A4_U+30E4_U+30FC 1
 62
   179
420
  2234388
100
AcDbHatch
 10
0.0
 20
0.0
 30
0.0
210
0.0
220
0.0
230
1.0
  2
SOLID
 70
     1
 71
     0
 91
        1
 92
        1
 93
        1
 72
     4
 94
        3
 73
     0
 74
     1
 95
       44
 96
       40
 40
0.0
 40
0.0
 40
0.0
 40
0.0
 40
1.0
 40
1.0
 40
1.0
 40
2.0
 40
2.0
 40
2.0
 40
3.0
 40
3.0
 40
3.0
 40
4.0
 40
4.0
 40
4.0
 40
5.0
 40
5.0
 40
5.0
 40
6.0
 40
6.0
 40
6.0
 40
7.0
 40
7.0
 40
7.0
 40
8.0
 40
8.0
 40
8.0
 40
9.0
 40
9.0
 40
9.0
 40
10.0
 40
10.0
 40
10.0
 40
11.0
 40
11.0
 40
11.0
 40
12.0
 40
12.0
 40
12.0
 40
13.0
 40
13.0
 40
13.0
 40
13.0
 10
81.62034096266784
 20
-135.873532409608
 10
81.38745250786495
 20
-136.032351311478
 10
81.28788924834123
 20
-136.1064208644109
 10
81.23621281606248
 20
-136.2500813461458
 10
81.23621281606248
 20
-136.2500813461458
 10
82.06785886620179
 20
-136.2500813461458
 10
82.06785886620179
 20
-136.2500813461458
 10
82.06785886620179
 20
-136.2500813461458
 10
82.06785886620179
 20
-136.4554090370667
 10
82.06785886620179
 20
-136.4554090370667
 10
82.06785886620179
 20
-136.4554090370667
 10
80.96921791595561
 20
-136.4554090370667
 10
80.96921791595561
 20
-136.4554090370667
 10
81.00332436125959
 20
-136.0978081256978
 10
81.07325979961016
 20
-136.0196044581826
 10
81.48460420054899
 20
-135.72125918916
 10
81.75814478207784
 20
-135.5224771796611
 10
81.82842472997693
 20
-135.4546087986016
 10
81.82842472997693
 20
-135.3171494887402
 10
81.82842472997693
 20
-135.1986382040476
 10
81.75159910065585
 20
-135.0677245756081
 10
81.54110376650709
 20
-135.0677245756081
 10
81.26308456084743
 20
-135.0677245756081
 10
81.25412731258578
 20
-135.2982014635713
 10
81.24964868845495
 20
-135.4146456909727
 10
81.24964868845495
 20
-135.4146456909727
 10
81.00987004268157
 20
-135.4146456909727
 10
81.00987004268157
 20
-135.4146456909727
 10
81.01917180049173
 20
-135.287521667567
 10
81.03019610604454
 20
-135.1755560642964
 10
81.11632349317578
 20
-135.0570447796038
 10
81.23380124922281
 20
-134.8961588204426
 10
81.43258325872172
 20
-134.8623968846872
 10
81.55695120573924
 20
-134.8623968846872
 10
81.85322941747073
 20
-134.8623968846872
 10
82.07474905717228
 20
-135.0463649835995
 10
82.07474905717228
 20
-135.3192165460313
 10
82.07474905717228
 20
-135.5479708862519
 10
81.95038111015477
 20
-135.6471896362271
 10
81.62034096266784
 20
-135.873532409608
 97
        0
 97
        0
 75
     2
 76
     1
 98
        0
  0
SPLINE
  5
D8
330
D2
100
AcDbEntity
  8
_U+30EC_U+30A4_U+30E4_U+30FC 1
370
     0
100
AcDbSpline
210
0.0
220
0.0
230
1.0
 70
    11
 71
     3
 72
    53
 73
    49
 74
     0
 42
0.0000000001
 43
0.0000000001
 12
1.0
 22
0.0
 32
0.0
 13
1.0
 23
0.0
 33
0.0
 40
0.0
 40
0.0
 40
0.0
 40
0.0
 40
1.0
 40
1.0
 40
1.0
 40
2.0
 40
2.0
 40
2.0
 40
3.0
 40
3.0
 40
3.0
 40
4.0
 40
4.0
 40
4.0
 40
5.0
 40
5.0
 40
5.0
 40
6.0
 40
6.0
 40
6.0
 40
7.0
 40
7.0
 40
7.0
 40
8.0
 40
8.0
 40
8.0
 40
9.0
 40
9.0
 40
9.0
 40
10.0
 40
10.0
 40
10.0
 40
11.0
 40
11.0
 40
11.0
 40
12.0
 40
12.0
 40
12.0
 40
13.0
 40
13.0
 40
13.0
 40
14.0
 40
14.0
 40
14.0
 40
15.0
 40
15.0
 40
15.0
 40
16.0
 40
16.0
 40
16.0
 40
16.0
 10
82.75825600144586
 20
-136.5060519406999
 30
0.0
 10
82.67488469070281
 20
-136.5060519406999
 30
0.0
 10
82.56601967336891
 20
-136.4891709728222
 30
0.0
 10
82.45784367513207
 20
-136.4257812158936
 30
0.0
 10
82.2721530284771
 20
-136.3158826699141
 30
0.0
 10
82.24975990782298
 20
-136.1846245319261
 30
0.0
 10
82.22943384446
 20
-136.0767930432378
 30
0.0
 10
82.22943384446
 20
-136.0767930432378
 30
0.0
 10
82.46680092339372
 20
-136.0767930432378
 30
0.0
 10
82.46680092339372
 20
-136.0767930432378
 30
0.0
 10
82.52536754664297
 20
-136.2755750527367
 30
0.0
 10
82.66110430876181
 20
-136.3052028739098
 30
0.0
 10
82.76066756828553
 20
-136.3052028739098
 30
0.0
 10
82.90984020279684
 20
-136.3052028739098
 30
0.0
 10
83.07244870970064
 20
-136.2056396143861
 30
0.0
 10
83.07244870970064
 20
-135.9730956691317
 30
0.0
 10
83.07244870970064
 20
-135.7171250745777
 30
0.0
 10
82.88055689117222
 20
-135.6471896362271
 30
0.0
 10
82.75171032002388
 20
-135.6471896362271
 30
0.0
 10
82.71760387471991
 20
-135.6471896362271
 30
0.0
 10
82.56601967336891
 20
-135.6471896362271
 30
0.0
 10
82.47127954752455
 20
-135.776380716924
 30
0.0
 10
82.47127954752455
 20
-135.776380716924
 30
0.0
 10
82.28352184357843
 20
-135.7574326917551
 30
0.0
 10
82.28352184357843
 20
-135.7574326917551
 30
0.0
 10
82.28352184357843
 20
-135.7574326917551
 30
0.0
 10
82.41236841472677
 20
-134.9109727310292
 30
0.0
 10
82.41236841472677
 20
-134.9109727310292
 30
0.0
 10
82.41236841472677
 20
-134.9109727310292
 30
0.0
 10
83.24435897441461
 20
-134.9109727310292
 30
0.0
 10
83.24435897441461
 20
-134.9109727310292
 30
0.0
 10
83.24435897441461
 20
-134.9109727310292
 30
0.0
 10
83.24435897441461
 20
-135.1056206259458
 30
0.0
 10
83.24435897441461
 20
-135.1056206259458
 30
0.0
 10
83.24435897441461
 20
-135.1056206259458
 30
0.0
 10
82.58669024628041
 20
-135.1056206259458
 30
0.0
 10
82.58669024628041
 20
-135.1056206259458
 30
0.0
 10
82.58669024628041
 20
-135.1056206259458
 30
0.0
 10
82.51641029838132
 20
-135.5286783515345
 30
0.0
 10
82.51641029838132
 20
-135.5286783515345
 30
0.0
 10
82.58186711260106
 20
-135.494916415779
 30
0.0
 10
82.67006155702346
 20
-135.4546087986016
 30
0.0
 10
82.79684107088066
 20
-135.4546087986016
 30
0.0
 10
83.06797008556981
 20
-135.4546087986016
 30
0.0
 10
83.32118460373567
 20
-135.6409884643537
 30
0.0
 10
83.32118460373567
 20
-135.9541476439629
 30
0.0
 10
83.32118460373567
 20
-136.2714409381544
 30
0.0
 10
83.08175046751082
 20
-136.5060519406999
 30
0.0
 10
82.75825600144586
 20
-136.5060519406999
 30
0.0
  0
HATCH
  5
D9
330
D2
100
AcDbEntity
  8
_U+30EC_U+30A4_U+30E4_U+30FC 1
 62
   179
420
  2234388
100
AcDbHatch
 10
0.0
 20
0.0
 30
0.0
210
0.0
220
0.0
230
1.0
  2
SOLID
 70
     1
 71
     0
 91
        1
 92
        1
 93
        1
 72
     4
 94
        3
 73
     0
 74
     1
 95
       53
 96
       49
 40
0.0
 40
0.0
 40
0.0
 40
0.0
 40
1.0
 40
1.0
 40
1.0
 40
2.0
 40
2.0
 40
2.0
 40
3.0
 40
3.0
 40
3.0
 40
4.0
 40
4.0
 40
4.0
 40
5.0
 40
5.0
 40
5.0
 40
6.0
 40
6.0
 40
6.0
 40
7.0
 40
7.0
 40
7.0
 40
8.0
 40
8.0
 40
8.0
 40
9.0
 40
9.0
 40
9.0
 40
10.0
 40
10.0
 40
10.0
 40
11.0
 40
11.0
 40
11.0
 40
12.0
 40
12.0
 40
12.0
 40
13.0
 40
13.0
 40
13.0
 40
14.0
 40
14.0
 40
14.0
 40
15.0
 40
15.0
 40
15.0
 40
16.0
 40
16.0
 40
16.0
 40
16.0
 10
82.75825600144586
 20
-136.5060519406999
 10
82.67488469070281
 20
-136.5060519406999
 10
82.56601967336891
 20
-136.4891709728222
 10
82.45784367513207
 20
-136.4257812158936
 10
82.2721530284771
 20
-136.3158826699141
 10
82.24975990782298
 20
-136.1846245319261
 10
82.22943384446
 20
-136.0767930432378
 10
82.22943384446
 20
-136.0767930432378
 10
82.46680092339372
 20
-136.0767930432378
 10
82.46680092339372
 20
-136.0767930432378
 10
82.52536754664297
 20
-136.2755750527367
 10
82.66110430876181
 20
-136.3052028739098
 10
82.76066756828553
 20
-136.3052028739098
 10
82.90984020279684
 20
-136.3052028739098
 10
83.07244870970064
 20
-136.2056396143861
 10
83.07244870970064
 20
-135.9730956691317
 10
83.07244870970064
 20
-135.7171250745777
 10
82.88055689117222
 20
-135.6471896362271
 10
82.75171032002388
 20
-135.6471896362271
 10
82.71760387471991
 20
-135.6471896362271
 10
82.56601967336891
 20
-135.6471896362271
 10
82.47127954752455
 20
-135.776380716924
 10
82.47127954752455
 20
-135.776380716924
 10
82.28352184357843
 20
-135.7574326917551
 10
82.28352184357843
 20
-135.7574326917551
 10
82.28352184357843
 20
-135.7574326917551
 10
82.41236841472677
 20
-134.9109727310292
 10
82.41236841472677
 20
-134.9109727310292
 10
82.41236841472677
 20
-134.9109727310292
 10
83.24435897441461
 20
-134.9109727310292
 10
83.24435897441461
 20
-134.9109727310292
 10
83.24435897441461
 20
-134.9109727310292
 10
83.24435897441461
 20
-135.1056206259458
 10
83.24435897441461
 20
-135.1056206259458
 10
83.24435897441461
 20
-135.1056206259458
 10
82.58669024628041
 20
-135.1056206259458
 10
82.58669024628041
 20
-135.1056206259458
 10
82.58669024628041
 20
-135.1056206259458
 10
82.51641029838132
 20
-135.5286783515345
 10
82.51641029838132
 20
-135.5286783515345
 10
82.58186711260106
 20
-135.494916415779
 10
82.67006155702346
 20
-135.4546087986016
 10
82.79684107088066
 20
-135.4546087986016
 10
83.06797008556981
 20
-135.4546087986016
 10
83.32118460373567
 20
-135.6409884643537
 10
83.32118460373567
 20
-135.9541476439629
 10
83.32118460373567
 20
-136.2714409381544
 10
83.08175046751082
 20
-136.5060519406999
 10
82.75825600144586
 20
-136.5060519406999
 97
        0
 97
        0
 75
     2
 76
     1
 98
        0
  0
ENDBLK
  5
D5
330
D2
100
AcDbEntity
  8
0
100
AcDbBlockEnd
  0
BLOCK
  5
E8
330
E6
100
AcDbEntity
  8
0
100
AcDbBlockBegin
  2
block 16
 70
     0
 10
0.0
 20
0.0
 30
0.0
  3
block 16
  1

  0
SPLINE
  5
EA
330
E6
100
AcDbEntity
  8
_U+30EC_U+30A4_U+30E4_U+30FC 1
370
     0
100
AcDbSpline
210
0.0
220
0.0
230
1.0
 70
    11
 71
     3
 72
    32
 73
    28
 74
     0
 42
0.0000000001
 43
0.0000000001
 12
1.0
 22
0.0
 32
0.0
 13
1.0
 23
0.0
 33
0.0
 40
0.0
 40
0.0
 40
0.0
 40
0.0
 40
1.0
 40
1.0
 40
1.0
 40
2.0
 40
2.0
 40
2.0
 40
3.0
 40
3.0
 40
3.0
 40
4.0
 40
4.0
 40
4.0
 40
5.0
 40
5.0
 40
5.0
 40
6.0
 40
6.0
 40
6.0
 40
7.0
 40
7.0
 40
7.0
 40
8.0
 40
8.0
 40
8.0
 40
9.0
 40
9.0
 40
9.0
 40
9.0
 10
64.9829413357508
 20
-128.6715602976932
 30
0.0
 10
64.9829413357508
 20
-128.8569064347997
 30
0.0
 10
64.91300589740023
 20
-129.1190782012272
 30
0.0
 10
64.58089869262214
 20
-129.1597303279531
 30
0.0
 10
64.58089869262214
 20
-129.1597303279531
 30
0.0
 10
64.58089869262214
 20
-128.9316650068296
 30
0.0
 10
64.58089869262214
 20
-128.9316650068296
 30
0.0
 10
64.64015433496844
 20
-128.9202961917283
 30
0.0
 10
64.78829344083418
 20
-128.8861897464243
 30
0.0
 10
64.78829344083418
 20
-128.6693209856278
 30
0.0
 10
64.78829344083418
 20
-128.3571953346642
 30
0.0
 10
64.45825329334724
 20
-128.3165432079382
 30
0.0
 10
64.25309785720061
 20
-128.3029350807715
 30
0.0
 10
64.33336858200694
 20
-128.4002590282298
 30
0.0
 10
64.39055716706208
 20
-128.47260603342
 30
0.0
 10
64.39055716706208
 20
-128.6670816735624
 30
0.0
 10
64.39055716706208
 20
-128.8593180016393
 30
0.0
 10
64.28479273566492
 20
-129.1824679581558
 30
0.0
 10
63.87861597795396
 20
-129.1824679581558
 30
0.0
 10
63.55908337169704
 20
-129.1824679581558
 30
0.0
 10
63.33911402496383
 20
-128.9699055667159
 30
0.0
 10
63.33911402496383
 20
-128.6309081709673
 30
0.0
 10
63.33911402496383
 20
-128.0814154410699
 30
0.0
 10
63.89342988854053
 20
-128.0700466259686
 30
0.0
 10
64.10702580862602
 20
-128.0700466259686
 30
0.0
 10
64.3376749513635
 20
-128.0700466259686
 30
0.0
 10
64.9829413357508
 20
-128.0905449441058
 30
0.0
 10
64.9829413357508
 20
-128.6715602976932
 30
0.0
  0
SPLINE
  5
EB
330
E6
100
AcDbEntity
  8
_U+30EC_U+30A4_U+30E4_U+30FC 1
370
     0
100
AcDbSpline
210
0.0
220
0.0
230
1.0
 70
    11
 71
     3
 72
    17
 73
    13
 74
     0
 42
0.0000000001
 43
0.0000000001
 12
1.0
 22
0.0
 32
0.0
 13
1.0
 23
0.0
 33
0.0
 40
0.0
 40
0.0
 40
0.0
 40
0.0
 40
1.0
 40
1.0
 40
1.0
 40
2.0
 40
2.0
 40
2.0
 40
3.0
 40
3.0
 40
3.0
 40
4.0
 40
4.0
 40
4.0
 40
4.0
 10
63.5316948625893
 20
-128.6284966041276
 30
0.0
 10
63.5316948625893
 20
-128.7551038632105
 30
0.0
 10
63.58871119287019
 20
-128.9426893123824
 30
0.0
 10
63.8743096085974
 20
-128.9426893123824
 30
0.0
 10
64.1006523819783
 20
-128.9426893123824
 30
0.0
 10
64.19590927214547
 20
-128.7935166778711
 30
0.0
 10
64.19590927214547
 20
-128.6488226674906
 30
0.0
 10
64.19590927214547
 20
-128.3685641497655
 30
0.0
 10
63.98644746664228
 20
-128.3279120230395
 30
0.0
 10
63.8701754940151
 20
-128.3279120230395
 30
0.0
 10
63.69447562426735
 20
-128.3279120230395
 30
0.0
 10
63.5316948625893
 20
-128.4295423398544
 30
0.0
 10
63.5316948625893
 20
-128.6284966041276
 30
0.0
  0
HATCH
  5
EC
330
E6
100
AcDbEntity
  8
_U+30EC_U+30A4_U+30E4_U+30FC 1
 62
   179
420
  2234388
100
AcDbHatch
 10
0.0
 20
0.0
 30
0.0
210
0.0
220
0.0
230
1.0
  2
SOLID
 70
     1
 71
     0
 91
        2
 92
        1
 93
        1
 72
     4
 94
        3
 73
     0
 74
     1
 95
       32
 96
       28
 40
0.0
 40
0.0
 40
0.0
 40
0.0
 40
1.0
 40
1.0
 40
1.0
 40
2.0
 40
2.0
 40
2.0
 40
3.0
 40
3.0
 40
3.0
 40
4.0
 40
4.0
 40
4.0
 40
5.0
 40
5.0
 40
5.0
 40
6.0
 40
6.0
 40
6.0
 40
7.0
 40
7.0
 40
7.0
 40
8.0
 40
8.0
 40
8.0
 40
9.0
 40
9.0
 40
9.0
 40
9.0
 10
64.9829413357508
 20
-128.6715602976932
 10
64.9829413357508
 20
-128.8569064347997
 10
64.91300589740023
 20
-129.1190782012272
 10
64.58089869262214
 20
-129.1597303279531
 10
64.58089869262214
 20
-129.1597303279531
 10
64.58089869262214
 20
-128.9316650068296
 10
64.58089869262214
 20
-128.9316650068296
 10
64.64015433496844
 20
-128.9202961917283
 10
64.78829344083418
 20
-128.8861897464243
 10
64.78829344083418
 20
-128.6693209856278
 10
64.78829344083418
 20
-128.3571953346642
 10
64.45825329334724
 20
-128.3165432079382
 10
64.25309785720061
 20
-128.3029350807715
 10
64.33336858200694
 20
-128.4002590282298
 10
64.39055716706208
 20
-128.47260603342
 10
64.39055716706208
 20
-128.6670816735624
 10
64.39055716706208
 20
-128.8593180016393
 10
64.28479273566492
 20
-129.1824679581558
 10
63.87861597795396
 20
-129.1824679581558
 10
63.55908337169704
 20
-129.1824679581558
 10
63.33911402496383
 20
-128.9699055667159
 10
63.33911402496383
 20
-128.6309081709673
 10
63.33911402496383
 20
-128.0814154410699
 10
63.89342988854053
 20
-128.0700466259686
 10
64.10702580862602
 20
-128.0700466259686
 10
64.3376749513635
 20
-128.0700466259686
 10
64.9829413357508
 20
-128.0905449441058
 10
64.9829413357508
 20
-128.6715602976932
 97
        0
 97
        0
 92
        1
 93
        1
 72
     4
 94
        3
 73
     0
 74
     1
 95
       17
 96
       13
 40
0.0
 40
0.0
 40
0.0
 40
0.0
 40
1.0
 40
1.0
 40
1.0
 40
2.0
 40
2.0
 40
2.0
 40
3.0
 40
3.0
 40
3.0
 40
4.0
 40
4.0
 40
4.0
 40
4.0
 10
63.5316948625893
 20
-128.6284966041276
 10
63.5316948625893
 20
-128.7551038632105
 10
63.58871119287019
 20
-128.9426893123824
 10
63.8743096085974
 20
-128.9426893123824
 10
64.1006523819783
 20
-128.9426893123824
 10
64.19590927214547
 20
-128.7935166778711
 10
64.19590927214547
 20
-128.6488226674906
 10
64.19590927214547
 20
-128.3685641497655
 10
63.98644746664228
 20
-128.3279120230395
 10
63.8701754940151
 20
-128.3279120230395
 10
63.69447562426735
 20
-128.3279120230395
 10
63.5316948625893
 20
-128.4295423398544
 10
63.5316948625893
 20
-128.6284966041276
 97
        0
 97
        0
 75
     2
 76
     1
 98
        0
  0
ENDBLK
  5
E9
330
E6
100
AcDbEntity
  8
0
100
AcDbBlockEnd
  0
BLOCK
  5
100
330
FE
100
AcDbEntity
  8
0
100
AcDbBlockBegin
  2
block 17
 70
     0
 10
0.0
 20
0.0
 30
0.0
  3
block 17
  1

  0
SPLINE
  5
102
330
FE
100
AcDbEntity
  8
_U+30EC_U+30A4_U+30E4_U+30FC 1
370
     0
100
AcDbSpline
210
0.0
220
0.0
230
1.0
 70
    11
 71
     3
 72
   242
 73
   238
 74
     0
 42
0.0000000001
 43
0.0000000001
 12
1.0
 22
0.0
 32
0.0
 13
1.0
 23
0.0
 33
0.0
 40
0.0
 40
0.0
 40
0.0
 40
0.0
 40
1.0
 40
1.0
 40
1.0
 40
2.0
 40
2.0
 40
2.0
 40
3.0
 40
3.0
 40
3.0
 40
4.0
 40
4.0
 40
4.0
 40
5.0
 40
5.0
 40
5.0
 40
6.0
 40
6.0
 40
6.0
 40
7.0
 40
7.0
 40
7.0
 40
8.0
 40
8.0
 40
8.0
 40
9.0
 40
9.0
 40
9.0
 40
10.0
 40
10.0
 40
10.0
 40
11.0
 40
11.0
 40
11.0
 40
12.0
 40
12.0
 40
12.0
 40
13.0
 40
13.0
 40
13.0
 40
14.0
 40
14.0
 40
14.0
 40
15.0
 40
15.0
 40
15.0
 40
16.0
 40
16.0
 40
16.0
 40
17.0
 40
17.0
 40
17.0
 40
18.0
 40
18.0
 40
18.0
 40
19.0
 40
19.0
 40
19.0
 40
20.0
 40
20.0
 40
20.0
 40
21.0
 40
21.0
 40
21.0
 40
22.0
 40
22.0
 40
22.0
 40
23.0
 40
23.0
 40
23.0
 40
24.0
 40
24.0
 40
24.0
 40
25.0
 40
25.0
 40
25.0
 40
26.0
 40
26.0
 40
26.0
 40
27.0
 40
27.0
 40
27.0
 40
28.0
 40
28.0
 40
28.0
 40
29.0
 40
29.0
 40
29.0
 40
30.0
 40
30.0
 40
30.0
 40
31.0
 40
31.0
 40
31.0
 40
32.0
 40
32.0
 40
32.0
 40
33.0
 40
33.0
 40
33.0
 40
34.0
 40
34.0
 40
34.0
 40
35.0
 40
35.0
 40
35.0
 40
36.0
 40
36.0
 40
36.0
 40
37.0
 40
37.0
 40
37.0
 40
38.0
 40
38.0
 40
38.0
 40
39.0
 40
39.0
 40
39.0
 40
40.0
 40
40.0
 40
40.0
 40
41.0
 40
41.0
 40
41.0
 40
42.0
 40
42.0
 40
42.0
 40
43.0
 40
43.0
 40
43.0
 40
44.0
 40
44.0
 40
44.0
 40
45.0
 40
45.0
 40
45.0
 40
46.0
 40
46.0
 40
46.0
 40
47.0
 40
47.0
 40
47.0
 40
48.0
 40
48.0
 40
48.0
 40
49.0
 40
49.0
 40
49.0
 40
50.0
 40
50.0
 40
50.0
 40
51.0
 40
51.0
 40
51.0
 40
52.0
 40
52.0
 40
52.0
 40
53.0
 40
53.0
 40
53.0
 40
54.0
 40
54.0
 40
54.0
 40
55.0
 40
55.0
 40
55.0
 40
56.0
 40
56.0
 40
56.0
 40
57.0
 40
57.0
 40
57.0
 40
58.0
 40
58.0
 40
58.0
 40
59.0
 40
59.0
 40
59.0
 40
60.0
 40
60.0
 40
60.0
 40
61.0
 40
61.0
 40
61.0
 40
62.0
 40
62.0
 40
62.0
 40
63.0
 40
63.0
 40
63.0
 40
64.0
 40
64.0
 40
64.0
 40
65.0
 40
65.0
 40
65.0
 40
66.0
 40
66.0
 40
66.0
 40
67.0
 40
67.0
 40
67.0
 40
68.0
 40
68.0
 40
68.0
 40
69.0
 40
69.0
 40
69.0
 40
70.0
 40
70.0
 40
70.0
 40
71.0
 40
71.0
 40
71.0
 40
72.0
 40
72.0
 40
72.0
 40
73.0
 40
73.0
 40
73.0
 40
74.0
 40
74.0
 40
74.0
 40
75.0
 40
75.0
 40
75.0
 40
76.0
 40
76.0
 40
76.0
 40
77.0
 40
77.0
 40
77.0
 40
78.0
 40
78.0
 40
78.0
 40
79.0
 40
79.0
 40
79.0
 40
79.0
 10
85.41132403463676
 20
-119.6447211072416
 30
0.0
 10
85.41132403463676
 20
-119.6447211072416
 30
0.0
 10
85.18945988538667
 20
-119.6447211072416
 30
0.0
 10
85.18945988538667
 20
-119.6447211072416
 30
0.0
 10
85.18945988538667
 20
-119.6447211072416
 30
0.0
 10
84.94658065367655
 20
-119.6447211072416
 30
0.0
 10
84.94658065367655
 20
-119.6447211072416
 30
0.0
 10
84.94658065367655
 20
-119.6447211072416
 30
0.0
 10
85.05785723785013
 20
-119.6870957817102
 30
0.0
 10
85.05785723785013
 20
-119.6870957817102
 30
0.0
 10
85.0671589956603
 20
-119.6914021510667
 30
0.0
 10
85.0781833012131
 20
-119.6976033229402
 30
0.0
 10
85.0781833012131
 20
-119.7103501762356
 30
0.0
 10
85.0781833012131
 20
-119.7315375134699
 30
0.0
 10
85.05027802778257
 20
-119.7379109401176
 30
0.0
 10
85.03201902171075
 20
-119.7420450546999
 30
0.0
 10
85.02271726390057
 20
-119.7652994492254
 30
0.0
 10
84.99653453821267
 20
-119.8309285182194
 30
0.0
 10
84.97999807988347
 20
-119.8753702499791
 30
0.0
 10
84.97999807988347
 20
-119.8753702499791
 30
0.0
 10
85.21702064926866
 20
-119.8753702499791
 30
0.0
 10
85.21702064926866
 20
-119.8753702499791
 30
0.0
 10
85.29660235497794
 20
-119.8753702499791
 30
0.0
 10
85.46885712924043
 20
-119.8710638806225
 30
0.0
 10
85.59288056670943
 20
-119.8626233966837
 30
0.0
 10
85.59288056670943
 20
-119.8626233966837
 30
0.0
 10
85.59288056670943
 20
-120.0403903237225
 30
0.0
 10
85.59288056670943
 20
-120.0403903237225
 30
0.0
 10
85.5208780710677
 20
-120.036083954366
 30
0.0
 10
85.50227455544736
 20
-120.036083954366
 30
0.0
 10
85.34483369177144
 20
-120.0319498397837
 30
0.0
 10
85.31692841834091
 20
-120.1862901175229
 30
0.0
 10
85.27834334890612
 20
-120.2667330971035
 30
0.0
 10
85.23941376992279
 20
-120.3364962806798
 30
0.0
 10
85.34483369177144
 20
-120.3957519230261
 30
0.0
 10
85.43750676032465
 20
-120.4634480493112
 30
0.0
 10
85.52811277158672
 20
-120.545958086183
 30
0.0
 10
85.52811277158672
 20
-120.545958086183
 30
0.0
 10
85.4244153974807
 20
-120.7130452172176
 30
0.0
 10
85.4244153974807
 20
-120.7130452172176
 30
0.0
 10
85.40408933411773
 20
-120.6940971920487
 30
0.0
 10
85.39306502856493
 20
-120.6856567081098
 30
0.0
 10
85.29487980723532
 20
-120.6009073591727
 30
0.0
 10
85.25216062321822
 20
-120.5628390540607
 30
0.0
 10
85.20048419093946
 20
-120.5270100610141
 30
0.0
 10
85.13020424304037
 20
-120.4825683292544
 30
0.0
 10
84.94485810593393
 20
-120.6687757402321
 30
0.0
 10
84.76536863115241
 20
-120.6920301347576
 30
0.0
 10
84.5114650938895
 20
-120.7216579559307
 30
0.0
 10
84.5114650938895
 20
-120.7216579559307
 30
0.0
 10
84.42085908262743
 20
-120.5418239716007
 30
0.0
 10
84.42085908262743
 20
-120.5418239716007
 30
0.0
 10
84.69853377873856
 20
-120.5375176022441
 30
0.0
 10
84.8521850373807
 20
-120.5121961504275
 30
0.0
 10
84.98551023265988
 20
-120.4021253496738
 30
0.0
 10
84.88181285855386
 20
-120.3513101912664
 30
0.0
 10
84.80429821013574
 20
-120.3239216821586
 30
0.0
 10
84.77260333167143
 20
-120.3111748288632
 30
0.0
 10
84.75606687334223
 20
-120.3387355927452
 30
0.0
 10
84.74297551049828
 20
-120.3576836179141
 30
0.0
 10
84.71885984210154
 20
-120.3916178084438
 30
0.0
 10
84.71885984210154
 20
-120.3916178084438
 30
0.0
 10
84.54660506783905
 20
-120.309107771572
 30
0.0
 10
84.54660506783905
 20
-120.309107771572
 30
0.0
 10
84.61895207302929
 20
-120.2286647919914
 30
0.0
 10
84.67269556259919
 20
-120.1334079018243
 30
0.0
 10
84.72264944713531
 20
-120.0319498397837
 30
0.0
 10
84.55590682564922
 20
-120.036083954366
 30
0.0
 10
84.5376478195774
 20
-120.036083954366
 30
0.0
 10
84.46530081438715
 20
-120.0403903237225
 30
0.0
 10
84.46530081438715
 20
-120.0403903237225
 30
0.0
 10
84.46530081438715
 20
-119.8626233966837
 30
0.0
 10
84.46530081438715
 20
-119.8626233966837
 30
0.0
 10
84.58760170411352
 20
-119.8689968233314
 30
0.0
 10
84.77088078392882
 20
-119.8733031926879
 30
0.0
 10
84.7929293950344
 20
-119.8733031926879
 30
0.0
 10
84.80774330562099
 20
-119.8393690021582
 30
0.0
 10
84.85597464241448
 20
-119.7187906601745
 30
0.0
 10
84.87251110074368
 20
-119.6447211072416
 30
0.0
 10
84.85597464241448
 20
-119.6447211072416
 30
0.0
 10
84.7002563264812
 20
-119.6510945338893
 30
0.0
 10
84.53006860950985
 20
-119.6638413871847
 30
0.0
 10
84.53006860950985
 20
-119.6638413871847
 30
0.0
 10
84.53006860950985
 20
-119.7971665824639
 30
0.0
 10
84.53006860950985
 20
-119.7971665824639
 30
0.0
 10
84.48734942549275
 20
-119.8224880342805
 30
0.0
 10
84.435672993214
 20
-119.8541829127448
 30
0.0
 10
84.31888425626403
 20
-119.9198119817388
 30
0.0
 10
84.31888425626403
 20
-119.9198119817388
 30
0.0
 10
84.31888425626403
 20
-120.0657117755391
 30
0.0
 10
84.31888425626403
 20
-120.0657117755391
 30
0.0
 10
84.31888425626403
 20
-120.0657117755391
 30
0.0
 10
84.31888425626403
 20
-120.5333834876618
 30
0.0
 10
84.31888425626403
 20
-120.5333834876618
 30
0.0
 10
84.31888425626403
 20
-120.660163001519
 30
0.0
 10
84.28753388734826
 20
-120.7194186438653
 30
0.0
 10
84.03948701241028
 20
-120.7109781599264
 30
0.0
 10
84.03948701241028
 20
-120.7109781599264
 30
0.0
 10
83.94853649159967
 20
-120.5037556664886
 30
0.0
 10
83.94853649159967
 20
-120.5037556664886
 30
0.0
 10
84.00434703846072
 20
-120.5163302650098
 30
0.0
 10
84.0467217129293
 20
-120.5206366343664
 30
0.0
 10
84.08186168687884
 20
-120.5206366343664
 30
0.0
 10
84.14869653929269
 20
-120.5206366343664
 30
0.0
 10
84.15799829710286
 20
-120.4973822398409
 30
0.0
 10
84.15799829710286
 20
-120.4317531708469
 30
0.0
 10
84.15799829710286
 20
-120.4317531708469
 30
0.0
 10
84.15799829710286
 20
-120.0023220186105
 30
0.0
 10
84.15799829710286
 20
-120.0023220186105
 30
0.0
 10
84.07255992906867
 20
-120.0424573810137
 30
0.0
 10
84.05774601848209
 20
-120.0488308076614
 30
0.0
 10
84.01709389175615
 20
-120.0679510876045
 30
0.0
 10
84.01330428672237
 20
-120.0889661700646
 30
0.0
 10
84.00985919123713
 20
-120.1185939912377
 30
0.0
 10
83.9929782233594
 20
-120.1185939912377
 30
0.0
 10
83.98574352284038
 20
-120.1185939912377
 30
0.0
 10
83.9764417650302
 20
-120.1144598766554
 30
0.0
 10
83.9709296122538
 20
-120.09120548213
 30
0.0
 10
83.9709296122538
 20
-120.09120548213
 30
0.0
 10
83.92442082320292
 20
-119.8986246445045
 30
0.0
 10
83.92442082320292
 20
-119.8986246445045
 30
0.0
 10
84.0522338657057
 20
-119.8521158554536
 30
0.0
 10
84.10976696030937
 20
-119.8288614609282
 30
0.0
 10
84.15799829710286
 20
-119.8076741236939
 30
0.0
 10
84.15799829710286
 20
-119.8076741236939
 30
0.0
 10
84.15799829710286
 20
-119.3951239393352
 30
0.0
 10
84.15799829710286
 20
-119.3951239393352
 30
0.0
 10
84.15799829710286
 20
-119.3951239393352
 30
0.0
 10
84.11148950805199
 20
-119.3951239393352
 30
0.0
 10
84.11148950805199
 20
-119.3951239393352
 30
0.0
 10
84.11148950805199
 20
-119.3951239393352
 30
0.0
 10
84.04293210789552
 20
-119.3951239393352
 30
0.0
 10
84.04293210789552
 20
-119.3951239393352
 30
0.0
 10
83.98367646554922
 20
-119.3951239393352
 30
0.0
 10
83.9764417650302
 20
-119.3951239393352
 30
0.0
 10
83.94509139611442
 20
-119.401497365983
 30
0.0
 10
83.94509139611442
 20
-119.401497365983
 30
0.0
 10
83.94509139611442
 20
-119.2068494710663
 30
0.0
 10
83.94509139611442
 20
-119.2068494710663
 30
0.0
 10
83.96886255496266
 20
-119.2132228977141
 30
0.0
 10
83.9764417650302
 20
-119.2132228977141
 30
0.0
 10
84.03741995511912
 20
-119.2132228977141
 30
0.0
 10
84.03741995511912
 20
-119.2132228977141
 30
0.0
 10
84.15420869206909
 20
-119.2132228977141
 30
0.0
 10
84.15420869206909
 20
-119.2132228977141
 30
0.0
 10
84.15420869206909
 20
-119.1434597141377
 30
0.0
 10
84.15420869206909
 20
-119.060949677266
 30
0.0
 10
84.15248614432646
 20
-119.0566433079095
 30
0.0
 10
84.14490693425891
 20
-118.8768093235794
 30
0.0
 10
84.14490693425891
 20
-118.8578612984105
 30
0.0
 10
84.1431843865163
 20
-118.8113525093597
 30
0.0
 10
84.1431843865163
 20
-118.8113525093597
 30
0.0
 10
84.33197561910798
 20
-118.8197929932985
 30
0.0
 10
84.33197561910798
 20
-118.8197929932985
 30
0.0
 10
84.34127737691816
 20
-118.8197929932985
 30
0.0
 10
84.35988089253851
 20
-118.8218600505897
 30
0.0
 10
84.35988089253851
 20
-118.8387410184674
 30
0.0
 10
84.35988089253851
 20
-118.8578612984105
 30
0.0
 10
84.34678952969456
 20
-118.8683688396406
 30
0.0
 10
84.32439640904043
 20
-118.8874891195837
 30
0.0
 10
84.32439640904043
 20
-118.9381320232169
 30
0.0
 10
84.31888425626403
 20
-119.1667141086632
 30
0.0
 10
84.32095131355518
 20
-119.2132228977141
 30
0.0
 10
84.43360593592286
 20
-119.2132228977141
 30
0.0
 10
84.44497475102418
 20
-119.2132228977141
 30
0.0
 10
84.53006860950985
 20
-119.2047824137752
 30
0.0
 10
84.53006860950985
 20
-119.2047824137752
 30
0.0
 10
84.53006860950985
 20
-119.3994303086918
 30
0.0
 10
84.53006860950985
 20
-119.3994303086918
 30
0.0
 10
84.49665118330293
 20
-119.3971909966264
 30
0.0
 10
84.43739554095663
 20
-119.3930568820441
 30
0.0
 10
84.31888425626403
 20
-119.3951239393352
 30
0.0
 10
84.31888425626403
 20
-119.3951239393352
 30
0.0
 10
84.31888425626403
 20
-119.733604570761
 30
0.0
 10
84.31888425626403
 20
-119.733604570761
 30
0.0
 10
84.36711559305753
 20
-119.7103501762356
 30
0.0
 10
84.4246486876612
 20
-119.6827894123536
 30
0.0
 10
84.46702336212978
 20
-119.6595350178282
 30
0.0
 10
84.46702336212978
 20
-119.6595350178282
 30
0.0
 10
84.46702336212978
 20
-119.4819403455635
 30
0.0
 10
84.46702336212978
 20
-119.4819403455635
 30
0.0
 10
84.56727564075055
 20
-119.4945149440847
 30
0.0
 10
84.67062850530804
 20
-119.4945149440847
 30
0.0
 10
84.77260333167143
 20
-119.4945149440847
 30
0.0
 10
84.75227726830846
 20
-119.3994303086918
 30
0.0
 10
84.72816159991172
 20
-119.3169202718201
 30
0.0
 10
84.67269556259919
 20
-119.1835950765409
 30
0.0
 10
84.63376598361587
 20
-119.1856621338321
 30
0.0
 10
84.56141897842562
 20
-119.1899685031886
 30
0.0
 10
84.52834606176722
 20
-119.1920355604798
 30
0.0
 10
84.52834606176722
 20
-119.1920355604798
 30
0.0
 10
84.52834606176722
 20
-119.0122015761497
 30
0.0
 10
84.52834606176722
 20
-119.0122015761497
 30
0.0
 10
84.63755558864965
 20
-119.0206420600886
 30
0.0
 10
84.78913979000063
 20
-119.0249484294452
 30
0.0
 10
84.86148679519088
 20
-119.0249484294452
 30
0.0
 10
84.86148679519088
 20
-119.0249484294452
 30
0.0
 10
84.93383380038112
 20
-119.0249484294452
 30
0.0
 10
84.93383380038112
 20
-119.0249484294452
 30
0.0
 10
84.93383380038112
 20
-118.8619954129928
 30
0.0
 10
84.93383380038112
 20
-118.8514878717628
 30
0.0
 10
84.93176674308998
 20
-118.7965385987731
 30
0.0
 10
84.93176674308998
 20
-118.7965385987731
 30
0.0
 10
85.12813718574922
 20
-118.8218600505897
 30
0.0
 10
85.12813718574922
 20
-118.8218600505897
 30
0.0
 10
85.131926790783
 20
-118.8218600505897
 30
0.0
 10
85.15053030640334
 20
-118.8239271078808
 30
0.0
 10
85.15053030640334
 20
-118.8408080757586
 30
0.0
 10
85.15053030640334
 20
-118.8556219863451
 30
0.0
 10
85.14122854859316
 20
-118.8642347250583
 30
0.0
 10
85.11711288019642
 20
-118.8790486356448
 30
0.0
 10
85.11160072742003
 20
-118.9445054498646
 30
0.0
 10
85.10953367012887
 20
-118.9656927870989
 30
0.0
 10
85.10953367012887
 20
-119.0249484294452
 30
0.0
 10
85.10953367012887
 20
-119.0249484294452
 30
0.0
 10
85.19290498087192
 20
-119.0249484294452
 30
0.0
 10
85.19290498087192
 20
-119.0249484294452
 30
0.0
 10
85.26525198606217
 20
-119.0249484294452
 30
0.0
 10
85.41718069696168
 20
-119.0206420600886
 30
0.0
 10
85.5263902238441
 20
-119.0122015761497
 30
0.0
 10
85.5263902238441
 20
-119.0122015761497
 30
0.0
 10
85.5263902238441
 20
-119.1920355604798
 30
0.0
 10
85.5263902238441
 20
-119.1920355604798
 30
0.0
 10
85.5002074981562
 20
-119.1899685031886
 30
0.0
 10
85.3968546335987
 20
-119.1856621338321
 30
0.0
 10
85.36137015010064
 20
-119.1835950765409
 30
0.0
 10
85.34862329680521
 20
-119.2344102349483
 30
0.0
 10
85.31899547563206
 20
-119.3465480929932
 30
0.0
 10
85.2614623810284
 20
-119.4860744601458
 30
0.0
 10
85.29866941226909
 20
-119.4860744601458
 30
0.0
 10
85.54120413443067
 20
-119.467126434977
 30
0.0
 10
85.59494762400057
 20
-119.4648871229116
 30
0.0
 10
85.59494762400057
 20
-119.4648871229116
 30
0.0
 10
85.59494762400057
 20
-119.6490274765982
 30
0.0
 10
85.59494762400057
 20
-119.6490274765982
 30
0.0
 10
85.56876489831268
 20
-119.6490274765982
 30
0.0
 10
85.5539509877261
 20
-119.6447211072416
 30
0.0
 10
85.41132403463676
 20
-119.6447211072416
 30
0.0
  0
SPLINE
  5
103
330
FE
100
AcDbEntity
  8
_U+30EC_U+30A4_U+30E4_U+30FC 1
370
     0
100
AcDbSpline
210
0.0
220
0.0
230
1.0
 70
    11
 71
     3
 72
    20
 73
    16
 74
     0
 42
0.0000000001
 43
0.0000000001
 12
1.0
 22
0.0
 32
0.0
 13
1.0
 23
0.0
 33
0.0
 40
0.0
 40
0.0
 40
0.0
 40
0.0
 40
1.0
 40
1.0
 40
1.0
 40
2.0
 40
2.0
 40
2.0
 40
3.0
 40
3.0
 40
3.0
 40
4.0
 40
4.0
 40
4.0
 40
5.0
 40
5.0
 40
5.0
 40
5.0
 10
84.86148679519088
 20
-119.1794609619586
 30
0.0
 10
84.86148679519088
 20
-119.1794609619586
 30
0.0
 10
84.83392603130888
 20
-119.1794609619586
 30
0.0
 10
84.83392603130888
 20
-119.1794609619586
 30
0.0
 10
84.87457815803484
 20
-119.2788519667081
 30
0.0
 10
84.90213892191683
 20
-119.3591226915144
 30
0.0
 10
84.93176674308998
 20
-119.4860744601458
 30
0.0
 10
84.93176674308998
 20
-119.4860744601458
 30
0.0
 10
85.11332327516264
 20
-119.4860744601458
 30
0.0
 10
85.11332327516264
 20
-119.4860744601458
 30
0.0
 10
85.14122854859316
 20
-119.3930568820441
 30
0.0
 10
85.16155461195615
 20
-119.3084797878812
 30
0.0
 10
85.18188067531912
 20
-119.1794609619586
 30
0.0
 10
85.18188067531912
 20
-119.1794609619586
 30
0.0
 10
84.86148679519088
 20
-119.1794609619586
 30
0.0
 10
84.86148679519088
 20
-119.1794609619586
 30
0.0
  0
SPLINE
  5
104
330
FE
100
AcDbEntity
  8
_U+30EC_U+30A4_U+30E4_U+30FC 1
370
     0
100
AcDbSpline
210
0.0
220
0.0
230
1.0
 70
    11
 71
     3
 72
    17
 73
    13
 74
     0
 42
0.0000000001
 43
0.0000000001
 12
1.0
 22
0.0
 32
0.0
 13
1.0
 23
0.0
 33
0.0
 40
0.0
 40
0.0
 40
0.0
 40
0.0
 40
1.0
 40
1.0
 40
1.0
 40
2.0
 40
2.0
 40
2.0
 40
3.0
 40
3.0
 40
3.0
 40
4.0
 40
4.0
 40
4.0
 40
4.0
 10
84.9169528325034
 20
-120.0298827824925
 30
0.0
 10
84.90213892191683
 20
-120.0593383488914
 30
0.0
 10
84.85769719015711
 20
-120.1525281817674
 30
0.0
 10
84.84839543234693
 20
-120.1714762069363
 30
0.0
 10
85.01513805383303
 20
-120.2307318492826
 30
0.0
 10
85.03374156945337
 20
-120.2371052759303
 30
0.0
 10
85.09678681683344
 20
-120.2646660398123
 30
0.0
 10
85.14467364407842
 20
-120.177849633584
 30
0.0
 10
85.16534421698992
 20
-120.1037800806511
 30
0.0
 10
85.17809107028535
 20
-120.0298827824925
 30
0.0
 10
85.17809107028535
 20
-120.0298827824925
 30
0.0
 10
84.9169528325034
 20
-120.0298827824925
 30
0.0
 10
84.9169528325034
 20
-120.0298827824925
 30
0.0
  0
HATCH
  5
105
330
FE
100
AcDbEntity
  8
_U+30EC_U+30A4_U+30E4_U+30FC 1
 62
   179
420
  2234388
100
AcDbHatch
 10
0.0
 20
0.0
 30
0.0
210
0.0
220
0.0
230
1.0
  2
SOLID
 70
     1
 71
     0
 91
        3
 92
        1
 93
        1
 72
     4
 94
        3
 73
     0
 74
     1
 95
      242
 96
      238
 40
0.0
 40
0.0
 40
0.0
 40
0.0
 40
1.0
 40
1.0
 40
1.0
 40
2.0
 40
2.0
 40
2.0
 40
3.0
 40
3.0
 40
3.0
 40
4.0
 40
4.0
 40
4.0
 40
5.0
 40
5.0
 40
5.0
 40
6.0
 40
6.0
 40
6.0
 40
7.0
 40
7.0
 40
7.0
 40
8.0
 40
8.0
 40
8.0
 40
9.0
 40
9.0
 40
9.0
 40
10.0
 40
10.0
 40
10.0
 40
11.0
 40
11.0
 40
11.0
 40
12.0
 40
12.0
 40
12.0
 40
13.0
 40
13.0
 40
13.0
 40
14.0
 40
14.0
 40
14.0
 40
15.0
 40
15.0
 40
15.0
 40
16.0
 40
16.0
 40
16.0
 40
17.0
 40
17.0
 40
17.0
 40
18.0
 40
18.0
 40
18.0
 40
19.0
 40
19.0
 40
19.0
 40
20.0
 40
20.0
 40
20.0
 40
21.0
 40
21.0
 40
21.0
 40
22.0
 40
22.0
 40
22.0
 40
23.0
 40
23.0
 40
23.0
 40
24.0
 40
24.0
 40
24.0
 40
25.0
 40
25.0
 40
25.0
 40
26.0
 40
26.0
 40
26.0
 40
27.0
 40
27.0
 40
27.0
 40
28.0
 40
28.0
 40
28.0
 40
29.0
 40
29.0
 40
29.0
 40
30.0
 40
30.0
 40
30.0
 40
31.0
 40
31.0
 40
31.0
 40
32.0
 40
32.0
 40
32.0
 40
33.0
 40
33.0
 40
33.0
 40
34.0
 40
34.0
 40
34.0
 40
35.0
 40
35.0
 40
35.0
 40
36.0
 40
36.0
 40
36.0
 40
37.0
 40
37.0
 40
37.0
 40
38.0
 40
38.0
 40
38.0
 40
39.0
 40
39.0
 40
39.0
 40
40.0
 40
40.0
 40
40.0
 40
41.0
 40
41.0
 40
41.0
 40
42.0
 40
42.0
 40
42.0
 40
43.0
 40
43.0
 40
43.0
 40
44.0
 40
44.0
 40
44.0
 40
45.0
 40
45.0
 40
45.0
 40
46.0
 40
46.0
 40
46.0
 40
47.0
 40
47.0
 40
47.0
 40
48.0
 40
48.0
 40
48.0
 40
49.0
 40
49.0
 40
49.0
 40
50.0
 40
50.0
 40
50.0
 40
51.0
 40
51.0
 40
51.0
 40
52.0
 40
52.0
 40
52.0
 40
53.0
 40
53.0
 40
53.0
 40
54.0
 40
54.0
 40
54.0
 40
55.0
 40
55.0
 40
55.0
 40
56.0
 40
56.0
 40
56.0
 40
57.0
 40
57.0
 40
57.0
 40
58.0
 40
58.0
 40
58.0
 40
59.0
 40
59.0
 40
59.0
 40
60.0
 40
60.0
 40
60.0
 40
61.0
 40
61.0
 40
61.0
 40
62.0
 40
62.0
 40
62.0
 40
63.0
 40
63.0
 40
63.0
 40
64.0
 40
64.0
 40
64.0
 40
65.0
 40
65.0
 40
65.0
 40
66.0
 40
66.0
 40
66.0
 40
67.0
 40
67.0
 40
67.0
 40
68.0
 40
68.0
 40
68.0
 40
69.0
 40
69.0
 40
69.0
 40
70.0
 40
70.0
 40
70.0
 40
71.0
 40
71.0
 40
71.0
 40
72.0
 40
72.0
 40
72.0
 40
73.0
 40
73.0
 40
73.0
 40
74.0
 40
74.0
 40
74.0
 40
75.0
 40
75.0
 40
75.0
 40
76.0
 40
76.0
 40
76.0
 40
77.0
 40
77.0
 40
77.0
 40
78.0
 40
78.0
 40
78.0
 40
79.0
 40
79.0
 40
79.0
 40
79.0
 10
85.41132403463676
 20
-119.6447211072416
 10
85.41132403463676
 20
-119.6447211072416
 10
85.18945988538667
 20
-119.6447211072416
 10
85.18945988538667
 20
-119.6447211072416
 10
85.18945988538667
 20
-119.6447211072416
 10
84.94658065367655
 20
-119.6447211072416
 10
84.94658065367655
 20
-119.6447211072416
 10
84.94658065367655
 20
-119.6447211072416
 10
85.05785723785013
 20
-119.6870957817102
 10
85.05785723785013
 20
-119.6870957817102
 10
85.0671589956603
 20
-119.6914021510667
 10
85.0781833012131
 20
-119.6976033229402
 10
85.0781833012131
 20
-119.7103501762356
 10
85.0781833012131
 20
-119.7315375134699
 10
85.05027802778257
 20
-119.7379109401176
 10
85.03201902171075
 20
-119.7420450546999
 10
85.02271726390057
 20
-119.7652994492254
 10
84.99653453821267
 20
-119.8309285182194
 10
84.97999807988347
 20
-119.8753702499791
 10
84.97999807988347
 20
-119.8753702499791
 10
85.21702064926866
 20
-119.8753702499791
 10
85.21702064926866
 20
-119.8753702499791
 10
85.29660235497794
 20
-119.8753702499791
 10
85.46885712924043
 20
-119.8710638806225
 10
85.59288056670943
 20
-119.8626233966837
 10
85.59288056670943
 20
-119.8626233966837
 10
85.59288056670943
 20
-120.0403903237225
 10
85.59288056670943
 20
-120.0403903237225
 10
85.5208780710677
 20
-120.036083954366
 10
85.50227455544736
 20
-120.036083954366
 10
85.34483369177144
 20
-120.0319498397837
 10
85.31692841834091
 20
-120.1862901175229
 10
85.27834334890612
 20
-120.2667330971035
 10
85.23941376992279
 20
-120.3364962806798
 10
85.34483369177144
 20
-120.3957519230261
 10
85.43750676032465
 20
-120.4634480493112
 10
85.52811277158672
 20
-120.545958086183
 10
85.52811277158672
 20
-120.545958086183
 10
85.4244153974807
 20
-120.7130452172176
 10
85.4244153974807
 20
-120.7130452172176
 10
85.40408933411773
 20
-120.6940971920487
 10
85.39306502856493
 20
-120.6856567081098
 10
85.29487980723532
 20
-120.6009073591727
 10
85.25216062321822
 20
-120.5628390540607
 10
85.20048419093946
 20
-120.5270100610141
 10
85.13020424304037
 20
-120.4825683292544
 10
84.94485810593393
 20
-120.6687757402321
 10
84.76536863115241
 20
-120.6920301347576
 10
84.5114650938895
 20
-120.7216579559307
 10
84.5114650938895
 20
-120.7216579559307
 10
84.42085908262743
 20
-120.5418239716007
 10
84.42085908262743
 20
-120.5418239716007
 10
84.69853377873856
 20
-120.5375176022441
 10
84.8521850373807
 20
-120.5121961504275
 10
84.98551023265988
 20
-120.4021253496738
 10
84.88181285855386
 20
-120.3513101912664
 10
84.80429821013574
 20
-120.3239216821586
 10
84.77260333167143
 20
-120.3111748288632
 10
84.75606687334223
 20
-120.3387355927452
 10
84.74297551049828
 20
-120.3576836179141
 10
84.71885984210154
 20
-120.3916178084438
 10
84.71885984210154
 20
-120.3916178084438
 10
84.54660506783905
 20
-120.309107771572
 10
84.54660506783905
 20
-120.309107771572
 10
84.61895207302929
 20
-120.2286647919914
 10
84.67269556259919
 20
-120.1334079018243
 10
84.72264944713531
 20
-120.0319498397837
 10
84.55590682564922
 20
-120.036083954366
 10
84.5376478195774
 20
-120.036083954366
 10
84.46530081438715
 20
-120.0403903237225
 10
84.46530081438715
 20
-120.0403903237225
 10
84.46530081438715
 20
-119.8626233966837
 10
84.46530081438715
 20
-119.8626233966837
 10
84.58760170411352
 20
-119.8689968233314
 10
84.77088078392882
 20
-119.8733031926879
 10
84.7929293950344
 20
-119.8733031926879
 10
84.80774330562099
 20
-119.8393690021582
 10
84.85597464241448
 20
-119.7187906601745
 10
84.87251110074368
 20
-119.6447211072416
 10
84.85597464241448
 20
-119.6447211072416
 10
84.7002563264812
 20
-119.6510945338893
 10
84.53006860950985
 20
-119.6638413871847
 10
84.53006860950985
 20
-119.6638413871847
 10
84.53006860950985
 20
-119.7971665824639
 10
84.53006860950985
 20
-119.7971665824639
 10
84.48734942549275
 20
-119.8224880342805
 10
84.435672993214
 20
-119.8541829127448
 10
84.31888425626403
 20
-119.9198119817388
 10
84.31888425626403
 20
-119.9198119817388
 10
84.31888425626403
 20
-120.0657117755391
 10
84.31888425626403
 20
-120.0657117755391
 10
84.31888425626403
 20
-120.0657117755391
 10
84.31888425626403
 20
-120.5333834876618
 10
84.31888425626403
 20
-120.5333834876618
 10
84.31888425626403
 20
-120.660163001519
 10
84.28753388734826
 20
-120.7194186438653
 10
84.03948701241028
 20
-120.7109781599264
 10
84.03948701241028
 20
-120.7109781599264
 10
83.94853649159967
 20
-120.5037556664886
 10
83.94853649159967
 20
-120.5037556664886
 10
84.00434703846072
 20
-120.5163302650098
 10
84.0467217129293
 20
-120.5206366343664
 10
84.08186168687884
 20
-120.5206366343664
 10
84.14869653929269
 20
-120.5206366343664
 10
84.15799829710286
 20
-120.4973822398409
 10
84.15799829710286
 20
-120.4317531708469
 10
84.15799829710286
 20
-120.4317531708469
 10
84.15799829710286
 20
-120.0023220186105
 10
84.15799829710286
 20
-120.0023220186105
 10
84.07255992906867
 20
-120.0424573810137
 10
84.05774601848209
 20
-120.0488308076614
 10
84.01709389175615
 20
-120.0679510876045
 10
84.01330428672237
 20
-120.0889661700646
 10
84.00985919123713
 20
-120.1185939912377
 10
83.9929782233594
 20
-120.1185939912377
 10
83.98574352284038
 20
-120.1185939912377
 10
83.9764417650302
 20
-120.1144598766554
 10
83.9709296122538
 20
-120.09120548213
 10
83.9709296122538
 20
-120.09120548213
 10
83.92442082320292
 20
-119.8986246445045
 10
83.92442082320292
 20
-119.8986246445045
 10
84.0522338657057
 20
-119.8521158554536
 10
84.10976696030937
 20
-119.8288614609282
 10
84.15799829710286
 20
-119.8076741236939
 10
84.15799829710286
 20
-119.8076741236939
 10
84.15799829710286
 20
-119.3951239393352
 10
84.15799829710286
 20
-119.3951239393352
 10
84.15799829710286
 20
-119.3951239393352
 10
84.11148950805199
 20
-119.3951239393352
 10
84.11148950805199
 20
-119.3951239393352
 10
84.11148950805199
 20
-119.3951239393352
 10
84.04293210789552
 20
-119.3951239393352
 10
84.04293210789552
 20
-119.3951239393352
 10
83.98367646554922
 20
-119.3951239393352
 10
83.9764417650302
 20
-119.3951239393352
 10
83.94509139611442
 20
-119.401497365983
 10
83.94509139611442
 20
-119.401497365983
 10
83.94509139611442
 20
-119.2068494710663
 10
83.94509139611442
 20
-119.2068494710663
 10
83.96886255496266
 20
-119.2132228977141
 10
83.9764417650302
 20
-119.2132228977141
 10
84.03741995511912
 20
-119.2132228977141
 10
84.03741995511912
 20
-119.2132228977141
 10
84.15420869206909
 20
-119.2132228977141
 10
84.15420869206909
 20
-119.2132228977141
 10
84.15420869206909
 20
-119.1434597141377
 10
84.15420869206909
 20
-119.060949677266
 10
84.15248614432646
 20
-119.0566433079095
 10
84.14490693425891
 20
-118.8768093235794
 10
84.14490693425891
 20
-118.8578612984105
 10
84.1431843865163
 20
-118.8113525093597
 10
84.1431843865163
 20
-118.8113525093597
 10
84.33197561910798
 20
-118.8197929932985
 10
84.33197561910798
 20
-118.8197929932985
 10
84.34127737691816
 20
-118.8197929932985
 10
84.35988089253851
 20
-118.8218600505897
 10
84.35988089253851
 20
-118.8387410184674
 10
84.35988089253851
 20
-118.8578612984105
 10
84.34678952969456
 20
-118.8683688396406
 10
84.32439640904043
 20
-118.8874891195837
 10
84.32439640904043
 20
-118.9381320232169
 10
84.31888425626403
 20
-119.1667141086632
 10
84.32095131355518
 20
-119.2132228977141
 10
84.43360593592286
 20
-119.2132228977141
 10
84.44497475102418
 20
-119.2132228977141
 10
84.53006860950985
 20
-119.2047824137752
 10
84.53006860950985
 20
-119.2047824137752
 10
84.53006860950985
 20
-119.3994303086918
 10
84.53006860950985
 20
-119.3994303086918
 10
84.49665118330293
 20
-119.3971909966264
 10
84.43739554095663
 20
-119.3930568820441
 10
84.31888425626403
 20
-119.3951239393352
 10
84.31888425626403
 20
-119.3951239393352
 10
84.31888425626403
 20
-119.733604570761
 10
84.31888425626403
 20
-119.733604570761
 10
84.36711559305753
 20
-119.7103501762356
 10
84.4246486876612
 20
-119.6827894123536
 10
84.46702336212978
 20
-119.6595350178282
 10
84.46702336212978
 20
-119.6595350178282
 10
84.46702336212978
 20
-119.4819403455635
 10
84.46702336212978
 20
-119.4819403455635
 10
84.56727564075055
 20
-119.4945149440847
 10
84.67062850530804
 20
-119.4945149440847
 10
84.77260333167143
 20
-119.4945149440847
 10
84.75227726830846
 20
-119.3994303086918
 10
84.72816159991172
 20
-119.3169202718201
 10
84.67269556259919
 20
-119.1835950765409
 10
84.63376598361587
 20
-119.1856621338321
 10
84.56141897842562
 20
-119.1899685031886
 10
84.52834606176722
 20
-119.1920355604798
 10
84.52834606176722
 20
-119.1920355604798
 10
84.52834606176722
 20
-119.0122015761497
 10
84.52834606176722
 20
-119.0122015761497
 10
84.63755558864965
 20
-119.0206420600886
 10
84.78913979000063
 20
-119.0249484294452
 10
84.86148679519088
 20
-119.0249484294452
 10
84.86148679519088
 20
-119.0249484294452
 10
84.93383380038112
 20
-119.0249484294452
 10
84.93383380038112
 20
-119.0249484294452
 10
84.93383380038112
 20
-118.8619954129928
 10
84.93383380038112
 20
-118.8514878717628
 10
84.93176674308998
 20
-118.7965385987731
 10
84.93176674308998
 20
-118.7965385987731
 10
85.12813718574922
 20
-118.8218600505897
 10
85.12813718574922
 20
-118.8218600505897
 10
85.131926790783
 20
-118.8218600505897
 10
85.15053030640334
 20
-118.8239271078808
 10
85.15053030640334
 20
-118.8408080757586
 10
85.15053030640334
 20
-118.8556219863451
 10
85.14122854859316
 20
-118.8642347250583
 10
85.11711288019642
 20
-118.8790486356448
 10
85.11160072742003
 20
-118.9445054498646
 10
85.10953367012887
 20
-118.9656927870989
 10
85.10953367012887
 20
-119.0249484294452
 10
85.10953367012887
 20
-119.0249484294452
 10
85.19290498087192
 20
-119.0249484294452
 10
85.19290498087192
 20
-119.0249484294452
 10
85.26525198606217
 20
-119.0249484294452
 10
85.41718069696168
 20
-119.0206420600886
 10
85.5263902238441
 20
-119.0122015761497
 10
85.5263902238441
 20
-119.0122015761497
 10
85.5263902238441
 20
-119.1920355604798
 10
85.5263902238441
 20
-119.1920355604798
 10
85.5002074981562
 20
-119.1899685031886
 10
85.3968546335987
 20
-119.1856621338321
 10
85.36137015010064
 20
-119.1835950765409
 10
85.34862329680521
 20
-119.2344102349483
 10
85.31899547563206
 20
-119.3465480929932
 10
85.2614623810284
 20
-119.4860744601458
 10
85.29866941226909
 20
-119.4860744601458
 10
85.54120413443067
 20
-119.467126434977
 10
85.59494762400057
 20
-119.4648871229116
 10
85.59494762400057
 20
-119.4648871229116
 10
85.59494762400057
 20
-119.6490274765982
 10
85.59494762400057
 20
-119.6490274765982
 10
85.56876489831268
 20
-119.6490274765982
 10
85.5539509877261
 20
-119.6447211072416
 10
85.41132403463676
 20
-119.6447211072416
 97
        0
 97
        0
 92
        1
 93
        1
 72
     4
 94
        3
 73
     0
 74
     1
 95
       20
 96
       16
 40
0.0
 40
0.0
 40
0.0
 40
0.0
 40
1.0
 40
1.0
 40
1.0
 40
2.0
 40
2.0
 40
2.0
 40
3.0
 40
3.0
 40
3.0
 40
4.0
 40
4.0
 40
4.0
 40
5.0
 40
5.0
 40
5.0
 40
5.0
 10
84.86148679519088
 20
-119.1794609619586
 10
84.86148679519088
 20
-119.1794609619586
 10
84.83392603130888
 20
-119.1794609619586
 10
84.83392603130888
 20
-119.1794609619586
 10
84.87457815803484
 20
-119.2788519667081
 10
84.90213892191683
 20
-119.3591226915144
 10
84.93176674308998
 20
-119.4860744601458
 10
84.93176674308998
 20
-119.4860744601458
 10
85.11332327516264
 20
-119.4860744601458
 10
85.11332327516264
 20
-119.4860744601458
 10
85.14122854859316
 20
-119.3930568820441
 10
85.16155461195615
 20
-119.3084797878812
 10
85.18188067531912
 20
-119.1794609619586
 10
85.18188067531912
 20
-119.1794609619586
 10
84.86148679519088
 20
-119.1794609619586
 10
84.86148679519088
 20
-119.1794609619586
 97
        0
 97
        0
 92
        1
 93
        1
 72
     4
 94
        3
 73
     0
 74
     1
 95
       17
 96
       13
 40
0.0
 40
0.0
 40
0.0
 40
0.0
 40
1.0
 40
1.0
 40
1.0
 40
2.0
 40
2.0
 40
2.0
 40
3.0
 40
3.0
 40
3.0
 40
4.0
 40
4.0
 40
4.0
 40
4.0
 10
84.9169528325034
 20
-120.0298827824925
 10
84.90213892191683
 20
-120.0593383488914
 10
84.85769719015711
 20
-120.1525281817674
 10
84.84839543234693
 20
-120.1714762069363
 10
85.01513805383303
 20
-120.2307318492826
 10
85.03374156945337
 20
-120.2371052759303
 10
85.09678681683344
 20
-120.2646660398123
 10
85.14467364407842
 20
-120.177849633584
 10
85.16534421698992
 20
-120.1037800806511
 10
85.17809107028535
 20
-120.0298827824925
 10
85.17809107028535
 20
-120.0298827824925
 10
84.9169528325034
 20
-120.0298827824925
 10
84.9169528325034
 20
-120.0298827824925
 97
        0
 97
        0
 75
     2
 76
     1
 98
        0
  0
SPLINE
  5
106
330
FE
100
AcDbEntity
  8
_U+30EC_U+30A4_U+30E4_U+30FC 1
370
     0
100
AcDbSpline
210
0.0
220
0.0
230
1.0
 70
    11
 71
     3
 72
   203
 73
   199
 74
     0
 42
0.0000000001
 43
0.0000000001
 12
1.0
 22
0.0
 32
0.0
 13
1.0
 23
0.0
 33
0.0
 40
0.0
 40
0.0
 40
0.0
 40
0.0
 40
1.0
 40
1.0
 40
1.0
 40
2.0
 40
2.0
 40
2.0
 40
3.0
 40
3.0
 40
3.0
 40
4.0
 40
4.0
 40
4.0
 40
5.0
 40
5.0
 40
5.0
 40
6.0
 40
6.0
 40
6.0
 40
7.0
 40
7.0
 40
7.0
 40
8.0
 40
8.0
 40
8.0
 40
9.0
 40
9.0
 40
9.0
 40
10.0
 40
10.0
 40
10.0
 40
11.0
 40
11.0
 40
11.0
 40
12.0
 40
12.0
 40
12.0
 40
13.0
 40
13.0
 40
13.0
 40
14.0
 40
14.0
 40
14.0
 40
15.0
 40
15.0
 40
15.0
 40
16.0
 40
16.0
 40
16.0
 40
17.0
 40
17.0
 40
17.0
 40
18.0
 40
18.0
 40
18.0
 40
19.0
 40
19.0
 40
19.0
 40
20.0
 40
20.0
 40
20.0
 40
21.0
 40
21.0
 40
21.0
 40
22.0
 40
22.0
 40
22.0
 40
23.0
 40
23.0
 40
23.0
 40
24.0
 40
24.0
 40
24.0
 40
25.0
 40
25.0
 40
25.0
 40
26.0
 40
26.0
 40
26.0
 40
27.0
 40
27.0
 40
27.0
 40
28.0
 40
28.0
 40
28.0
 40
29.0
 40
29.0
 40
29.0
 40
30.0
 40
30.0
 40
30.0
 40
31.0
 40
31.0
 40
31.0
 40
32.0
 40
32.0
 40
32.0
 40
33.0
 40
33.0
 40
33.0
 40
34.0
 40
34.0
 40
34.0
 40
35.0
 40
35.0
 40
35.0
 40
36.0
 40
36.0
 40
36.0
 40
37.0
 40
37.0
 40
37.0
 40
38.0
 40
38.0
 40
38.0
 40
39.0
 40
39.0
 40
39.0
 40
40.0
 40
40.0
 40
40.0
 40
41.0
 40
41.0
 40
41.0
 40
42.0
 40
42.0
 40
42.0
 40
43.0
 40
43.0
 40
43.0
 40
44.0
 40
44.0
 40
44.0
 40
45.0
 40
45.0
 40
45.0
 40
46.0
 40
46.0
 40
46.0
 40
47.0
 40
47.0
 40
47.0
 40
48.0
 40
48.0
 40
48.0
 40
49.0
 40
49.0
 40
49.0
 40
50.0
 40
50.0
 40
50.0
 40
51.0
 40
51.0
 40
51.0
 40
52.0
 40
52.0
 40
52.0
 40
53.0
 40
53.0
 40
53.0
 40
54.0
 40
54.0
 40
54.0
 40
55.0
 40
55.0
 40
55.0
 40
56.0
 40
56.0
 40
56.0
 40
57.0
 40
57.0
 40
57.0
 40
58.0
 40
58.0
 40
58.0
 40
59.0
 40
59.0
 40
59.0
 40
60.0
 40
60.0
 40
60.0
 40
61.0
 40
61.0
 40
61.0
 40
62.0
 40
62.0
 40
62.0
 40
63.0
 40
63.0
 40
63.0
 40
64.0
 40
64.0
 40
64.0
 40
65.0
 40
65.0
 40
65.0
 40
66.0
 40
66.0
 40
66.0
 40
66.0
 10
86.89340411239124
 20
-119.7124172335268
 30
0.0
 10
86.89340411239124
 20
-119.7124172335268
 30
0.0
 10
86.40454506303429
 20
-119.7124172335268
 30
0.0
 10
86.40454506303429
 20
-119.7124172335268
 30
0.0
 10
86.39524330522411
 20
-119.7568589652865
 30
0.0
 10
86.38800860470508
 20
-119.7885538437508
 30
0.0
 10
86.37663978960376
 20
-119.8267944036371
 30
0.0
 10
86.39903291025789
 20
-119.8267944036371
 30
0.0
 10
86.41212427310184
 20
-119.8288614609282
 30
0.0
 10
86.41763642587823
 20
-119.8288614609282
 30
0.0
 10
86.41763642587823
 20
-119.8288614609282
 30
0.0
 10
86.58231199007318
 20
-119.8288614609282
 30
0.0
 10
86.58231199007318
 20
-119.8288614609282
 30
0.0
 10
86.58231199007318
 20
-119.8288614609282
 30
0.0
 10
86.90994057072044
 20
-119.8288614609282
 30
0.0
 10
86.90994057072044
 20
-119.8288614609282
 30
0.0
 10
86.95472681202868
 20
-119.8288614609282
 30
0.0
 10
87.20277368696667
 20
-119.8161146076328
 30
0.0
 10
87.23033445084867
 20
-119.8161146076328
 30
0.0
 10
87.22861190310604
 20
-119.8436753715148
 30
0.0
 10
87.22688935536343
 20
-119.8626233966837
 30
0.0
 10
87.22688935536343
 20
-119.8922512178568
 30
0.0
 10
87.22482229807227
 20
-119.9239460963211
 30
0.0
 10
87.22482229807227
 20
-120.0593383488914
 30
0.0
 10
87.22482229807227
 20
-120.0868991127734
 30
0.0
 10
87.22482229807227
 20
-120.0868991127734
 30
0.0
 10
87.22482229807227
 20
-120.3323621660975
 30
0.0
 10
87.22482229807227
 20
-120.3323621660975
 30
0.0
 10
87.22482229807227
 20
-120.3768038978572
 30
0.0
 10
87.22861190310604
 20
-120.573518850065
 30
0.0
 10
87.23240150813982
 20
-120.725792070513
 30
0.0
 10
87.23240150813982
 20
-120.725792070513
 30
0.0
 10
87.03430851773795
 20
-120.725792070513
 30
0.0
 10
87.03430851773795
 20
-120.725792070513
 30
0.0
 10
87.03430851773795
 20
-120.725792070513
 30
0.0
 10
87.03603106548059
 20
-120.6920301347576
 30
0.0
 10
87.03603106548059
 20
-120.6920301347576
 30
0.0
 10
87.03603106548059
 20
-120.6920301347576
 30
0.0
 10
86.421426030912
 20
-120.6920301347576
 30
0.0
 10
86.421426030912
 20
-120.6920301347576
 30
0.0
 10
86.421426030912
 20
-120.6920301347576
 30
0.0
 10
86.42314857865463
 20
-120.725792070513
 30
0.0
 10
86.42314857865463
 20
-120.725792070513
 30
0.0
 10
86.42314857865463
 20
-120.725792070513
 30
0.0
 10
86.2322902887718
 20
-120.725792070513
 30
0.0
 10
86.2322902887718
 20
-120.725792070513
 30
0.0
 10
86.23607989380557
 20
-120.6708427975233
 30
0.0
 10
86.23607989380557
 20
-120.6580959442278
 30
0.0
 10
86.24159204658197
 20
-120.5438910288918
 30
0.0
 10
86.24365910387311
 20
-120.5163302650098
 30
0.0
 10
86.24538165161574
 20
-120.3831773245049
 30
0.0
 10
86.24538165161574
 20
-120.3640570445618
 30
0.0
 10
86.24538165161574
 20
-120.3640570445618
 30
0.0
 10
86.24538165161574
 20
-120.1609686657063
 30
0.0
 10
86.24538165161574
 20
-120.1609686657063
 30
0.0
 10
86.12308076188937
 20
-120.4105658336126
 30
0.0
 10
85.97494165602363
 20
-120.5418239716007
 30
0.0
 10
85.8822685874704
 20
-120.6072807858204
 30
0.0
 10
85.8822685874704
 20
-120.6072807858204
 30
0.0
 10
85.73068438611942
 20
-120.4677544186678
 30
0.0
 10
85.73068438611942
 20
-120.4677544186678
 30
0.0
 10
85.80819903453754
 20
-120.4169392602603
 30
0.0
 10
85.93428952929769
 20
-120.3301228540321
 30
0.0
 10
86.0545233617329
 20
-120.1356472138897
 30
0.0
 10
86.13410506744218
 20
-120.0086954452583
 30
0.0
 10
86.19163816204585
 20
-119.8648627087491
 30
0.0
 10
86.221265983219
 20
-119.7124172335268
 30
0.0
 10
86.02110593552598
 20
-119.7146565455922
 30
0.0
 10
85.86400958139859
 20
-119.7210299722399
 30
0.0
 10
85.78063827065554
 20
-119.723097029531
 30
0.0
 10
85.78063827065554
 20
-119.723097029531
 30
0.0
 10
85.78063827065554
 20
-119.5453301024921
 30
0.0
 10
85.78063827065554
 20
-119.5453301024921
 30
0.0
 10
85.95289304491803
 20
-119.5517035291399
 30
0.0
 10
86.20093991985603
 20
-119.5560098984964
 30
0.0
 10
86.33254256739257
 20
-119.5560098984964
 30
0.0
 10
86.33254256739257
 20
-119.5560098984964
 30
0.0
 10
86.5192667426931
 20
-119.5560098984964
 30
0.0
 10
86.5192667426931
 20
-119.5560098984964
 30
0.0
 10
86.5192667426931
 20
-119.5560098984964
 30
0.0
 10
86.5192667426931
 20
-119.4480061550338
 30
0.0
 10
86.5192667426931
 20
-119.4480061550338
 30
0.0
 10
86.5192667426931
 20
-119.4480061550338
 30
0.0
 10
86.39179820973887
 20
-119.4480061550338
 30
0.0
 10
86.39179820973887
 20
-119.4480061550338
 30
0.0
 10
86.24365910387311
 20
-119.4480061550338
 30
0.0
 10
86.09551999800738
 20
-119.4523125243904
 30
0.0
 10
85.94910343988425
 20
-119.4586859510381
 30
0.0
 10
85.94910343988425
 20
-119.4586859510381
 30
0.0
 10
85.94910343988425
 20
-119.2872924506469
 30
0.0
 10
85.94910343988425
 20
-119.2872924506469
 30
0.0
 10
86.08415118290606
 20
-119.2977999918769
 30
0.0
 10
86.24710419935836
 20
-119.2977999918769
 30
0.0
 10
86.39179820973887
 20
-119.2977999918769
 30
0.0
 10
86.39179820973887
 20
-119.2977999918769
 30
0.0
 10
86.5192667426931
 20
-119.2977999918769
 30
0.0
 10
86.5192667426931
 20
-119.2977999918769
 30
0.0
 10
86.5192667426931
 20
-119.2977999918769
 30
0.0
 10
86.5192667426931
 20
-119.1794609619586
 30
0.0
 10
86.5192667426931
 20
-119.1794609619586
 30
0.0
 10
86.5192667426931
 20
-119.1794609619586
 30
0.0
 10
86.40454506303429
 20
-119.1794609619586
 30
0.0
 10
86.40454506303429
 20
-119.1794609619586
 30
0.0
 10
86.36389293630833
 20
-119.1794609619586
 30
0.0
 10
86.18612600926944
 20
-119.1879014458975
 30
0.0
 10
86.14891897802875
 20
-119.1879014458975
 30
0.0
 10
85.97115205098986
 20
-119.1920355604798
 30
0.0
 10
85.90466170812454
 20
-119.1941026177709
 30
0.0
 10
85.83610430796806
 20
-119.1963419298363
 30
0.0
 10
85.83610430796806
 20
-119.1963419298363
 30
0.0
 10
85.83610430796806
 20
-119.0122015761497
 30
0.0
 10
85.83610430796806
 20
-119.0122015761497
 30
0.0
 10
85.9360120770403
 20
-119.0206420600886
 30
0.0
 10
85.97494165602363
 20
-119.0206420600886
 30
0.0
 10
86.31014944673844
 20
-119.0292547988017
 30
0.0
 10
86.25468340942592
 20
-118.9339979086346
 30
0.0
 10
86.23056774102916
 20
-118.9064371447526
 30
0.0
 10
86.19887286256487
 20
-118.8704358969317
 30
0.0
 10
86.19887286256487
 20
-118.8704358969317
 30
0.0
 10
86.35286863075554
 20
-118.78792586006
 30
0.0
 10
86.35286863075554
 20
-118.78792586006
 30
0.0
 10
86.38800860470508
 20
-118.8239271078808
 30
0.0
 10
86.4269381836884
 20
-118.8663017823494
 30
0.0
 10
86.49170597881111
 20
-118.9762003283289
 30
0.0
 10
86.49170597881111
 20
-118.9762003283289
 30
0.0
 10
86.39179820973887
 20
-119.0313218560929
 30
0.0
 10
86.39179820973887
 20
-119.0313218560929
 30
0.0
 10
86.39179820973887
 20
-119.0313218560929
 30
0.0
 10
86.4007554580005
 20
-119.0313218560929
 30
0.0
 10
86.4007554580005
 20
-119.0313218560929
 30
0.0
 10
86.4007554580005
 20
-119.0313218560929
 30
0.0
 10
86.85826413844168
 20
-119.0313218560929
 30
0.0
 10
86.85826413844168
 20
-119.0313218560929
 30
0.0
 10
86.85826413844168
 20
-119.0313218560929
 30
0.0
 10
86.77489282769864
 20
-118.9868801243331
 30
0.0
 10
86.77489282769864
 20
-118.9868801243331
 30
0.0
 10
86.7990084960954
 20
-118.9488118192211
 30
0.0
 10
86.84896238063152
 20
-118.8683688396406
 30
0.0
 10
86.86205374347546
 20
-118.7942992867077
 30
0.0
 10
86.86205374347546
 20
-118.7942992867077
 30
0.0
 10
87.04912242832452
 20
-118.8578612984105
 30
0.0
 10
87.04912242832452
 20
-118.8578612984105
 30
0.0
 10
87.05635712884356
 20
-118.8599283557017
 30
0.0
 10
87.0749606444639
 20
-118.8704358969317
 30
0.0
 10
87.0749606444639
 20
-118.891623234166
 30
0.0
 10
87.0749606444639
 20
-118.929691539278
 30
0.0
 10
87.01742754986023
 20
-118.929691539278
 30
0.0
 10
87.00089109153103
 20
-118.929691539278
 30
0.0
 10
86.99158933372085
 20
-118.9488118192211
 30
0.0
 10
86.97126327035788
 20
-118.9889471816243
 30
0.0
 10
86.9454250542185
 20
-119.0292547988017
 30
0.0
 10
87.29510224597136
 20
-119.022881372154
 30
0.0
 10
87.32128497165927
 20
-119.0206420600886
 30
0.0
 10
87.38777531452459
 20
-119.0144408882151
 30
0.0
 10
87.38777531452459
 20
-119.0144408882151
 30
0.0
 10
87.38777531452459
 20
-119.1963419298363
 30
0.0
 10
87.38777531452459
 20
-119.1963419298363
 30
0.0
 10
87.37123885619539
 20
-119.1963419298363
 30
0.0
 10
87.34884573554126
 20
-119.1941026177709
 30
0.0
 10
87.1562648979158
 20
-119.1856621338321
 30
0.0
 10
87.11182316615607
 20
-119.1835950765409
 30
0.0
 10
86.91924232853061
 20
-119.1794609619586
 30
0.0
 10
86.88031274954729
 20
-119.1794609619586
 30
0.0
 10
86.88031274954729
 20
-119.1794609619586
 30
0.0
 10
86.69152151695559
 20
-119.1794609619586
 30
0.0
 10
86.69152151695559
 20
-119.1794609619586
 30
0.0
 10
86.69152151695559
 20
-119.1794609619586
 30
0.0
 10
86.69152151695559
 20
-119.2977999918769
 30
0.0
 10
86.69152151695559
 20
-119.2977999918769
 30
0.0
 10
86.69152151695559
 20
-119.2977999918769
 30
0.0
 10
86.84345022785512
 20
-119.2977999918769
 30
0.0
 10
86.84345022785512
 20
-119.2977999918769
 30
0.0
 10
86.98607718094446
 20
-119.2977999918769
 30
0.0
 10
87.15281980243054
 20
-119.2977999918769
 30
0.0
 10
87.28959009319497
 20
-119.2872924506469
 30
0.0
 10
87.28959009319497
 20
-119.2872924506469
 30
0.0
 10
87.28959009319497
 20
-119.4586859510381
 30
0.0
 10
87.28959009319497
 20
-119.4586859510381
 30
0.0
 10
87.10631101337968
 20
-119.4502454670993
 30
0.0
 10
86.93405623911718
 20
-119.4480061550338
 30
0.0
 10
86.84345022785512
 20
-119.4480061550338
 30
0.0
 10
86.84345022785512
 20
-119.4480061550338
 30
0.0
 10
86.69152151695559
 20
-119.4480061550338
 30
0.0
 10
86.69152151695559
 20
-119.4480061550338
 30
0.0
 10
86.69152151695559
 20
-119.4480061550338
 30
0.0
 10
86.69152151695559
 20
-119.5560098984964
 30
0.0
 10
86.69152151695559
 20
-119.5560098984964
 30
0.0
 10
86.69152151695559
 20
-119.5560098984964
 30
0.0
 10
86.89340411239124
 20
-119.5560098984964
 30
0.0
 10
86.89340411239124
 20
-119.5560098984964
 30
0.0
 10
87.01019284934121
 20
-119.5560098984964
 30
0.0
 10
87.26202932931297
 20
-119.5517035291399
 30
0.0
 10
87.44530840912826
 20
-119.5453301024921
 30
0.0
 10
87.44530840912826
 20
-119.5453301024921
 30
0.0
 10
87.44530840912826
 20
-119.723097029531
 30
0.0
 10
87.44530840912826
 20
-119.723097029531
 30
0.0
 10
87.27684323989955
 20
-119.7167236028833
 30
0.0
 10
87.00261363927366
 20
-119.7124172335268
 30
0.0
 10
86.89340411239124
 20
-119.7124172335268
 30
0.0
  0
POLYLINE
  5
107
330
FE
100
AcDbEntity
  8
_U+30EC_U+30A4_U+30E4_U+30FC 1
370
     0
100
AcDb2dPolyline
 66
     1
 10
0.0
 20
0.0
 30
0.0
  0
VERTEX
  5
108
330
107
100
AcDbEntity
  8
_U+30EC_U+30A4_U+30E4_U+30FC 1
370
     0
100
AcDbVertex
100
AcDb2dVertex
 10
87.0377536132232
 20
-119.9683878280808
 30
0.0
  0
VERTEX
  5
109
330
107
100
AcDbEntity
  8
_U+30EC_U+30A4_U+30E4_U+30FC 1
370
     0
100
AcDbVertex
100
AcDb2dVertex
 10
86.41935897362086
 20
-119.9683878280808
 30
0.0
  0
VERTEX
  5
10A
330
107
100
AcDbEntity
  8
_U+30EC_U+30A4_U+30E4_U+30FC 1
370
     0
100
AcDbVertex
100
AcDb2dVertex
 10
86.41935897362086
 20
-120.0763915715434
 30
0.0
  0
VERTEX
  5
10B
330
107
100
AcDbEntity
  8
_U+30EC_U+30A4_U+30E4_U+30FC 1
370
     0
100
AcDbVertex
100
AcDb2dVertex
 10
87.0377536132232
 20
-120.0763915715434
 30
0.0
  0
VERTEX
  5
10C
330
107
100
AcDbEntity
  8
_U+30EC_U+30A4_U+30E4_U+30FC 1
370
     0
100
AcDbVertex
100
AcDb2dVertex
 10
87.0377536132232
 20
-119.9683878280808
 30
0.0
  0
SEQEND
  5
10D
330
107
100
AcDbEntity
  8
_U+30EC_U+30A4_U+30E4_U+30FC 1
370
     0
  0
POLYLINE
  5
10E
330
FE
100
AcDbEntity
  8
_U+30EC_U+30A4_U+30E4_U+30FC 1
370
     0
100
AcDb2dPolyline
 66
     1
 10
0.0
 20
0.0
 30
0.0
  0
VERTEX
  5
10F
330
10E
100
AcDbEntity
  8
_U+30EC_U+30A4_U+30E4_U+30FC 1
370
     0
100
AcDbVertex
100
AcDb2dVertex
 10
87.0377536132232
 20
-120.2011040281095
 30
0.0
  0
VERTEX
  5
110
330
10E
100
AcDbEntity
  8
_U+30EC_U+30A4_U+30E4_U+30FC 1
370
     0
100
AcDbVertex
100
AcDb2dVertex
 10
86.41935897362086
 20
-120.2011040281095
 30
0.0
  0
VERTEX
  5
111
330
10E
100
AcDbEntity
  8
_U+30EC_U+30A4_U+30E4_U+30FC 1
370
     0
100
AcDbVertex
100
AcDb2dVertex
 10
86.41935897362086
 20
-120.3154811982197
 30
0.0
  0
VERTEX
  5
112
330
10E
100
AcDbEntity
  8
_U+30EC_U+30A4_U+30E4_U+30FC 1
370
     0
100
AcDbVertex
100
AcDb2dVertex
 10
87.0377536132232
 20
-120.3154811982197
 30
0.0
  0
VERTEX
  5
113
330
10E
100
AcDbEntity
  8
_U+30EC_U+30A4_U+30E4_U+30FC 1
370
     0
100
AcDbVertex
100
AcDb2dVertex
 10
87.0377536132232
 20
-120.2011040281095
 30
0.0
  0
SEQEND
  5
114
330
10E
100
AcDbEntity
  8
_U+30EC_U+30A4_U+30E4_U+30FC 1
370
     0
  0
POLYLINE
  5
115
330
FE
100
AcDbEntity
  8
_U+30EC_U+30A4_U+30E4_U+30FC 1
370
     0
100
AcDb2dPolyline
 66
     1
 10
0.0
 20
0.0
 30
0.0
  0
VERTEX
  5
116
330
115
100
AcDbEntity
  8
_U+30EC_U+30A4_U+30E4_U+30FC 1
370
     0
100
AcDbVertex
100
AcDb2dVertex
 10
87.0377536132232
 20
-120.4445000241424
 30
0.0
  0
VERTEX
  5
117
330
115
100
AcDbEntity
  8
_U+30EC_U+30A4_U+30E4_U+30FC 1
370
     0
100
AcDbVertex
100
AcDb2dVertex
 10
86.41935897362086
 20
-120.4445000241424
 30
0.0
  0
VERTEX
  5
118
330
115
100
AcDbEntity
  8
_U+30EC_U+30A4_U+30E4_U+30FC 1
370
     0
100
AcDbVertex
100
AcDb2dVertex
 10
86.41935897362086
 20
-120.5587049394784
 30
0.0
  0
VERTEX
  5
119
330
115
100
AcDbEntity
  8
_U+30EC_U+30A4_U+30E4_U+30FC 1
370
     0
100
AcDbVertex
100
AcDb2dVertex
 10
87.0377536132232
 20
-120.5587049394784
 30
0.0
  0
VERTEX
  5
11A
330
115
100
AcDbEntity
  8
_U+30EC_U+30A4_U+30E4_U+30FC 1
370
     0
100
AcDbVertex
100
AcDb2dVertex
 10
87.0377536132232
 20
-120.4445000241424
 30
0.0
  0
SEQEND
  5
11B
330
115
100
AcDbEntity
  8
_U+30EC_U+30A4_U+30E4_U+30FC 1
370
     0
  0
HATCH
  5
11C
330
FE
100
AcDbEntity
  8
_U+30EC_U+30A4_U+30E4_U+30FC 1
 62
   179
420
  2234388
100
AcDbHatch
 10
0.0
 20
0.0
 30
0.0
210
0.0
220
0.0
230
1.0
  2
SOLID
 70
     1
 71
     0
 91
        4
 92
        1
 93
        1
 72
     4
 94
        3
 73
     0
 74
     1
 95
      203
 96
      199
 40
0.0
 40
0.0
 40
0.0
 40
0.0
 40
1.0
 40
1.0
 40
1.0
 40
2.0
 40
2.0
 40
2.0
 40
3.0
 40
3.0
 40
3.0
 40
4.0
 40
4.0
 40
4.0
 40
5.0
 40
5.0
 40
5.0
 40
6.0
 40
6.0
 40
6.0
 40
7.0
 40
7.0
 40
7.0
 40
8.0
 40
8.0
 40
8.0
 40
9.0
 40
9.0
 40
9.0
 40
10.0
 40
10.0
 40
10.0
 40
11.0
 40
11.0
 40
11.0
 40
12.0
 40
12.0
 40
12.0
 40
13.0
 40
13.0
 40
13.0
 40
14.0
 40
14.0
 40
14.0
 40
15.0
 40
15.0
 40
15.0
 40
16.0
 40
16.0
 40
16.0
 40
17.0
 40
17.0
 40
17.0
 40
18.0
 40
18.0
 40
18.0
 40
19.0
 40
19.0
 40
19.0
 40
20.0
 40
20.0
 40
20.0
 40
21.0
 40
21.0
 40
21.0
 40
22.0
 40
22.0
 40
22.0
 40
23.0
 40
23.0
 40
23.0
 40
24.0
 40
24.0
 40
24.0
 40
25.0
 40
25.0
 40
25.0
 40
26.0
 40
26.0
 40
26.0
 40
27.0
 40
27.0
 40
27.0
 40
28.0
 40
28.0
 40
28.0
 40
29.0
 40
29.0
 40
29.0
 40
30.0
 40
30.0
 40
30.0
 40
31.0
 40
31.0
 40
31.0
 40
32.0
 40
32.0
 40
32.0
 40
33.0
 40
33.0
 40
33.0
 40
34.0
 40
34.0
 40
34.0
 40
35.0
 40
35.0
 40
35.0
 40
36.0
 40
36.0
 40
36.0
 40
37.0
 40
37.0
 40
37.0
 40
38.0
 40
38.0
 40
38.0
 40
39.0
 40
39.0
 40
39.0
 40
40.0
 40
40.0
 40
40.0
 40
41.0
 40
41.0
 40
41.0
 40
42.0
 40
42.0
 40
42.0
 40
43.0
 40
43.0
 40
43.0
 40
44.0
 40
44.0
 40
44.0
 40
45.0
 40
45.0
 40
45.0
 40
46.0
 40
46.0
 40
46.0
 40
47.0
 40
47.0
 40
47.0
 40
48.0
 40
48.0
 40
48.0
 40
49.0
 40
49.0
 40
49.0
 40
50.0
 40
50.0
 40
50.0
 40
51.0
 40
51.0
 40
51.0
 40
52.0
 40
52.0
 40
52.0
 40
53.0
 40
53.0
 40
53.0
 40
54.0
 40
54.0
 40
54.0
 40
55.0
 40
55.0
 40
55.0
 40
56.0
 40
56.0
 40
56.0
 40
57.0
 40
57.0
 40
57.0
 40
58.0
 40
58.0
 40
58.0
 40
59.0
 40
59.0
 40
59.0
 40
60.0
 40
60.0
 40
60.0
 40
61.0
 40
61.0
 40
61.0
 40
62.0
 40
62.0
 40
62.0
 40
63.0
 40
63.0
 40
63.0
 40
64.0
 40
64.0
 40
64.0
 40
65.0
 40
65.0
 40
65.0
 40
66.0
 40
66.0
 40
66.0
 40
66.0
 10
86.89340411239124
 20
-119.7124172335268
 10
86.89340411239124
 20
-119.7124172335268
 10
86.40454506303429
 20
-119.7124172335268
 10
86.40454506303429
 20
-119.7124172335268
 10
86.39524330522411
 20
-119.7568589652865
 10
86.38800860470508
 20
-119.7885538437508
 10
86.37663978960376
 20
-119.8267944036371
 10
86.39903291025789
 20
-119.8267944036371
 10
86.41212427310184
 20
-119.8288614609282
 10
86.41763642587823
 20
-119.8288614609282
 10
86.41763642587823
 20
-119.8288614609282
 10
86.58231199007318
 20
-119.8288614609282
 10
86.58231199007318
 20
-119.8288614609282
 10
86.58231199007318
 20
-119.8288614609282
 10
86.90994057072044
 20
-119.8288614609282
 10
86.90994057072044
 20
-119.8288614609282
 10
86.95472681202868
 20
-119.8288614609282
 10
87.20277368696667
 20
-119.8161146076328
 10
87.23033445084867
 20
-119.8161146076328
 10
87.22861190310604
 20
-119.8436753715148
 10
87.22688935536343
 20
-119.8626233966837
 10
87.22688935536343
 20
-119.8922512178568
 10
87.22482229807227
 20
-119.9239460963211
 10
87.22482229807227
 20
-120.0593383488914
 10
87.22482229807227
 20
-120.0868991127734
 10
87.22482229807227
 20
-120.0868991127734
 10
87.22482229807227
 20
-120.3323621660975
 10
87.22482229807227
 20
-120.3323621660975
 10
87.22482229807227
 20
-120.3768038978572
 10
87.22861190310604
 20
-120.573518850065
 10
87.23240150813982
 20
-120.725792070513
 10
87.23240150813982
 20
-120.725792070513
 10
87.03430851773795
 20
-120.725792070513
 10
87.03430851773795
 20
-120.725792070513
 10
87.03430851773795
 20
-120.725792070513
 10
87.03603106548059
 20
-120.6920301347576
 10
87.03603106548059
 20
-120.6920301347576
 10
87.03603106548059
 20
-120.6920301347576
 10
86.421426030912
 20
-120.6920301347576
 10
86.421426030912
 20
-120.6920301347576
 10
86.421426030912
 20
-120.6920301347576
 10
86.42314857865463
 20
-120.725792070513
 10
86.42314857865463
 20
-120.725792070513
 10
86.42314857865463
 20
-120.725792070513
 10
86.2322902887718
 20
-120.725792070513
 10
86.2322902887718
 20
-120.725792070513
 10
86.23607989380557
 20
-120.6708427975233
 10
86.23607989380557
 20
-120.6580959442278
 10
86.24159204658197
 20
-120.5438910288918
 10
86.24365910387311
 20
-120.5163302650098
 10
86.24538165161574
 20
-120.3831773245049
 10
86.24538165161574
 20
-120.3640570445618
 10
86.24538165161574
 20
-120.3640570445618
 10
86.24538165161574
 20
-120.1609686657063
 10
86.24538165161574
 20
-120.1609686657063
 10
86.12308076188937
 20
-120.4105658336126
 10
85.97494165602363
 20
-120.5418239716007
 10
85.8822685874704
 20
-120.6072807858204
 10
85.8822685874704
 20
-120.6072807858204
 10
85.73068438611942
 20
-120.4677544186678
 10
85.73068438611942
 20
-120.4677544186678
 10
85.80819903453754
 20
-120.4169392602603
 10
85.93428952929769
 20
-120.3301228540321
 10
86.0545233617329
 20
-120.1356472138897
 10
86.13410506744218
 20
-120.0086954452583
 10
86.19163816204585
 20
-119.8648627087491
 10
86.221265983219
 20
-119.7124172335268
 10
86.02110593552598
 20
-119.7146565455922
 10
85.86400958139859
 20
-119.7210299722399
 10
85.78063827065554
 20
-119.723097029531
 10
85.78063827065554
 20
-119.723097029531
 10
85.78063827065554
 20
-119.5453301024921
 10
85.78063827065554
 20
-119.5453301024921
 10
85.95289304491803
 20
-119.5517035291399
 10
86.20093991985603
 20
-119.5560098984964
 10
86.33254256739257
 20
-119.5560098984964
 10
86.33254256739257
 20
-119.5560098984964
 10
86.5192667426931
 20
-119.5560098984964
 10
86.5192667426931
 20
-119.5560098984964
 10
86.5192667426931
 20
-119.5560098984964
 10
86.5192667426931
 20
-119.4480061550338
 10
86.5192667426931
 20
-119.4480061550338
 10
86.5192667426931
 20
-119.4480061550338
 10
86.39179820973887
 20
-119.4480061550338
 10
86.39179820973887
 20
-119.4480061550338
 10
86.24365910387311
 20
-119.4480061550338
 10
86.09551999800738
 20
-119.4523125243904
 10
85.94910343988425
 20
-119.4586859510381
 10
85.94910343988425
 20
-119.4586859510381
 10
85.94910343988425
 20
-119.2872924506469
 10
85.94910343988425
 20
-119.2872924506469
 10
86.08415118290606
 20
-119.2977999918769
 10
86.24710419935836
 20
-119.2977999918769
 10
86.39179820973887
 20
-119.2977999918769
 10
86.39179820973887
 20
-119.2977999918769
 10
86.5192667426931
 20
-119.2977999918769
 10
86.5192667426931
 20
-119.2977999918769
 10
86.5192667426931
 20
-119.2977999918769
 10
86.5192667426931
 20
-119.1794609619586
 10
86.5192667426931
 20
-119.1794609619586
 10
86.5192667426931
 20
-119.1794609619586
 10
86.40454506303429
 20
-119.1794609619586
 10
86.40454506303429
 20
-119.1794609619586
 10
86.36389293630833
 20
-119.1794609619586
 10
86.18612600926944
 20
-119.1879014458975
 10
86.14891897802875
 20
-119.1879014458975
 10
85.97115205098986
 20
-119.1920355604798
 10
85.90466170812454
 20
-119.1941026177709
 10
85.83610430796806
 20
-119.1963419298363
 10
85.83610430796806
 20
-119.1963419298363
 10
85.83610430796806
 20
-119.0122015761497
 10
85.83610430796806
 20
-119.0122015761497
 10
85.9360120770403
 20
-119.0206420600886
 10
85.97494165602363
 20
-119.0206420600886
 10
86.31014944673844
 20
-119.0292547988017
 10
86.25468340942592
 20
-118.9339979086346
 10
86.23056774102916
 20
-118.9064371447526
 10
86.19887286256487
 20
-118.8704358969317
 10
86.19887286256487
 20
-118.8704358969317
 10
86.35286863075554
 20
-118.78792586006
 10
86.35286863075554
 20
-118.78792586006
 10
86.38800860470508
 20
-118.8239271078808
 10
86.4269381836884
 20
-118.8663017823494
 10
86.49170597881111
 20
-118.9762003283289
 10
86.49170597881111
 20
-118.9762003283289
 10
86.39179820973887
 20
-119.0313218560929
 10
86.39179820973887
 20
-119.0313218560929
 10
86.39179820973887
 20
-119.0313218560929
 10
86.4007554580005
 20
-119.0313218560929
 10
86.4007554580005
 20
-119.0313218560929
 10
86.4007554580005
 20
-119.0313218560929
 10
86.85826413844168
 20
-119.0313218560929
 10
86.85826413844168
 20
-119.0313218560929
 10
86.85826413844168
 20
-119.0313218560929
 10
86.77489282769864
 20
-118.9868801243331
 10
86.77489282769864
 20
-118.9868801243331
 10
86.7990084960954
 20
-118.9488118192211
 10
86.84896238063152
 20
-118.8683688396406
 10
86.86205374347546
 20
-118.7942992867077
 10
86.86205374347546
 20
-118.7942992867077
 10
87.04912242832452
 20
-118.8578612984105
 10
87.04912242832452
 20
-118.8578612984105
 10
87.05635712884356
 20
-118.8599283557017
 10
87.0749606444639
 20
-118.8704358969317
 10
87.0749606444639
 20
-118.891623234166
 10
87.0749606444639
 20
-118.929691539278
 10
87.01742754986023
 20
-118.929691539278
 10
87.00089109153103
 20
-118.929691539278
 10
86.99158933372085
 20
-118.9488118192211
 10
86.97126327035788
 20
-118.9889471816243
 10
86.9454250542185
 20
-119.0292547988017
 10
87.29510224597136
 20
-119.022881372154
 10
87.32128497165927
 20
-119.0206420600886
 10
87.38777531452459
 20
-119.0144408882151
 10
87.38777531452459
 20
-119.0144408882151
 10
87.38777531452459
 20
-119.1963419298363
 10
87.38777531452459
 20
-119.1963419298363
 10
87.37123885619539
 20
-119.1963419298363
 10
87.34884573554126
 20
-119.1941026177709
 10
87.1562648979158
 20
-119.1856621338321
 10
87.11182316615607
 20
-119.1835950765409
 10
86.91924232853061
 20
-119.1794609619586
 10
86.88031274954729
 20
-119.1794609619586
 10
86.88031274954729
 20
-119.1794609619586
 10
86.69152151695559
 20
-119.1794609619586
 10
86.69152151695559
 20
-119.1794609619586
 10
86.69152151695559
 20
-119.1794609619586
 10
86.69152151695559
 20
-119.2977999918769
 10
86.69152151695559
 20
-119.2977999918769
 10
86.69152151695559
 20
-119.2977999918769
 10
86.84345022785512
 20
-119.2977999918769
 10
86.84345022785512
 20
-119.2977999918769
 10
86.98607718094446
 20
-119.2977999918769
 10
87.15281980243054
 20
-119.2977999918769
 10
87.28959009319497
 20
-119.2872924506469
 10
87.28959009319497
 20
-119.2872924506469
 10
87.28959009319497
 20
-119.4586859510381
 10
87.28959009319497
 20
-119.4586859510381
 10
87.10631101337968
 20
-119.4502454670993
 10
86.93405623911718
 20
-119.4480061550338
 10
86.84345022785512
 20
-119.4480061550338
 10
86.84345022785512
 20
-119.4480061550338
 10
86.69152151695559
 20
-119.4480061550338
 10
86.69152151695559
 20
-119.4480061550338
 10
86.69152151695559
 20
-119.4480061550338
 10
86.69152151695559
 20
-119.5560098984964
 10
86.69152151695559
 20
-119.5560098984964
 10
86.69152151695559
 20
-119.5560098984964
 10
86.89340411239124
 20
-119.5560098984964
 10
86.89340411239124
 20
-119.5560098984964
 10
87.01019284934121
 20
-119.5560098984964
 10
87.26202932931297
 20
-119.5517035291399
 10
87.44530840912826
 20
-119.5453301024921
 10
87.44530840912826
 20
-119.5453301024921
 10
87.44530840912826
 20
-119.723097029531
 10
87.44530840912826
 20
-119.723097029531
 10
87.27684323989955
 20
-119.7167236028833
 10
87.00261363927366
 20
-119.7124172335268
 10
86.89340411239124
 20
-119.7124172335268
 97
        0
 97
        0
 92
        1
 93
        4
 72
     1
 10
87.0377536132232
 20
-119.9683878280808
 11
86.41935897362086
 21
-119.9683878280808
 72
     1
 10
86.41935897362086
 20
-119.9683878280808
 11
86.41935897362086
 21
-120.0763915715434
 72
     1
 10
86.41935897362086
 20
-120.0763915715434
 11
87.0377536132232
 21
-120.0763915715434
 72
     1
 10
87.0377536132232
 20
-120.0763915715434
 11
87.0377536132232
 21
-119.9683878280808
 97
        0
 92
        1
 93
        4
 72
     1
 10
87.0377536132232
 20
-120.2011040281095
 11
86.41935897362086
 21
-120.2011040281095
 72
     1
 10
86.41935897362086
 20
-120.2011040281095
 11
86.41935897362086
 21
-120.3154811982197
 72
     1
 10
86.41935897362086
 20
-120.3154811982197
 11
87.0377536132232
 21
-120.3154811982197
 72
     1
 10
87.0377536132232
 20
-120.3154811982197
 11
87.0377536132232
 21
-120.2011040281095
 97
        0
 92
        1
 93
        4
 72
     1
 10
87.0377536132232
 20
-120.4445000241424
 11
86.41935897362086
 21
-120.4445000241424
 72
     1
 10
86.41935897362086
 20
-120.4445000241424
 11
86.41935897362086
 21
-120.5587049394784
 72
     1
 10
86.41935897362086
 20
-120.5587049394784
 11
87.0377536132232
 21
-120.5587049394784
 72
     1
 10
87.0377536132232
 20
-120.5587049394784
 11
87.0377536132232
 21
-120.4445000241424
 97
        0
 75
     2
 76
     1
 98
        0
  0
SPLINE
  5
11D
330
FE
100
AcDbEntity
  8
_U+30EC_U+30A4_U+30E4_U+30FC 1
370
     0
100
AcDbSpline
210
0.0
220
0.0
230
1.0
 70
    11
 71
     3
 72
    47
 73
    43
 74
     0
 42
0.0000000001
 43
0.0000000001
 12
1.0
 22
0.0
 32
0.0
 13
1.0
 23
0.0
 33
0.0
 40
0.0
 40
0.0
 40
0.0
 40
0.0
 40
1.0
 40
1.0
 40
1.0
 40
2.0
 40
2.0
 40
2.0
 40
3.0
 40
3.0
 40
3.0
 40
4.0
 40
4.0
 40
4.0
 40
5.0
 40
5.0
 40
5.0
 40
6.0
 40
6.0
 40
6.0
 40
7.0
 40
7.0
 40
7.0
 40
8.0
 40
8.0
 40
8.0
 40
9.0
 40
9.0
 40
9.0
 40
10.0
 40
10.0
 40
10.0
 40
11.0
 40
11.0
 40
11.0
 40
12.0
 40
12.0
 40
12.0
 40
13.0
 40
13.0
 40
13.0
 40
14.0
 40
14.0
 40
14.0
 40
14.0
 10
88.62525361282633
 20
-119.6891628390013
 30
0.0
 10
88.62525361282633
 20
-119.6891628390013
 30
0.0
 10
88.53637014930689
 20
-119.6891628390013
 30
0.0
 10
88.53637014930689
 20
-119.6891628390013
 30
0.0
 10
88.53637014930689
 20
-119.7759792452296
 30
0.0
 10
88.51776663368653
 20
-120.1652750350628
 30
0.0
 10
88.34551185942404
 20
-120.3852443817961
 30
0.0
 10
88.21218666414488
 20
-120.5543985701218
 30
0.0
 10
88.0306301320722
 20
-120.6243340084724
 30
0.0
 10
87.95656057913934
 20
-120.6517225175801
 30
0.0
 10
87.95656057913934
 20
-120.6517225175801
 30
0.0
 10
87.786372862168
 20
-120.4846353865455
 30
0.0
 10
87.786372862168
 20
-120.4846353865455
 30
0.0
 10
87.87146672065367
 20
-120.4718885332501
 30
0.0
 10
88.02511797929581
 20
-120.4486341387247
 30
0.0
 10
88.19013805303928
 20
-120.2603596704557
 30
0.0
 10
88.25490584816197
 20
-120.1885294295883
 30
0.0
 10
88.34551185942404
 20
-120.0488308076614
 30
0.0
 10
88.34551185942404
 20
-119.6891628390013
 30
0.0
 10
88.34551185942404
 20
-119.6891628390013
 30
0.0
 10
88.1436292639884
 20
-119.6891628390013
 30
0.0
 10
88.1436292639884
 20
-119.6891628390013
 30
0.0
 10
87.98067624753608
 20
-119.6891628390013
 30
0.0
 10
87.81772323108376
 20
-119.6934692083579
 30
0.0
 10
87.65477021463145
 20
-119.7082831189445
 30
0.0
 10
87.65477021463145
 20
-119.7082831189445
 30
0.0
 10
87.65477021463145
 20
-119.4883137722113
 30
0.0
 10
87.65477021463145
 20
-119.4883137722113
 30
0.0
 10
87.81944577882639
 20
-119.5031276827978
 30
0.0
 10
88.06955971105553
 20
-119.5072617973801
 30
0.0
 10
88.1436292639884
 20
-119.5072617973801
 30
0.0
 10
88.1436292639884
 20
-119.5072617973801
 30
0.0
 10
88.62525361282633
 20
-119.5072617973801
 30
0.0
 10
88.62525361282633
 20
-119.5072617973801
 30
0.0
 10
88.64179007115553
 20
-119.5072617973801
 30
0.0
 10
88.91946476726666
 20
-119.5072617973801
 30
0.0
 10
89.11962481495968
 20
-119.4883137722113
 30
0.0
 10
89.11962481495968
 20
-119.4883137722113
 30
0.0
 10
89.11962481495968
 20
-119.7082831189445
 30
0.0
 10
89.11962481495968
 20
-119.7082831189445
 30
0.0
 10
88.95460474121622
 20
-119.6934692083579
 30
0.0
 10
88.78992917702128
 20
-119.6891628390013
 30
0.0
 10
88.62525361282633
 20
-119.6891628390013
 30
0.0
  0
SPLINE
  5
11E
330
FE
100
AcDbEntity
  8
_U+30EC_U+30A4_U+30E4_U+30FC 1
370
     0
100
AcDbSpline
210
0.0
220
0.0
230
1.0
 70
    11
 71
     3
 72
    29
 73
    25
 74
     0
 42
0.0000000001
 43
0.0000000001
 12
1.0
 22
0.0
 32
0.0
 13
1.0
 23
0.0
 33
0.0
 40
0.0
 40
0.0
 40
0.0
 40
0.0
 40
1.0
 40
1.0
 40
1.0
 40
2.0
 40
2.0
 40
2.0
 40
3.0
 40
3.0
 40
3.0
 40
4.0
 40
4.0
 40
4.0
 40
5.0
 40
5.0
 40
5.0
 40
6.0
 40
6.0
 40
6.0
 40
7.0
 40
7.0
 40
7.0
 40
8.0
 40
8.0
 40
8.0
 40
8.0
 10
88.53637014930689
 20
-119.1603406820155
 30
0.0
 10
88.53637014930689
 20
-119.1603406820155
 30
0.0
 10
88.22700057473145
 20
-119.1603406820155
 30
0.0
 10
88.22700057473145
 20
-119.1603406820155
 30
0.0
 10
88.12881535340183
 20
-119.1603406820155
 30
0.0
 10
88.00651446367546
 20
-119.1667141086632
 30
0.0
 10
87.91211884737962
 20
-119.1794609619586
 30
0.0
 10
87.91211884737962
 20
-119.1794609619586
 30
0.0
 10
87.91211884737962
 20
-118.9445054498646
 30
0.0
 10
87.91211884737962
 20
-118.9445054498646
 30
0.0
 10
88.01581622148564
 20
-118.9593193604511
 30
0.0
 10
88.17704669019533
 20
-118.9636257298077
 30
0.0
 10
88.22700057473145
 20
-118.9636257298077
 30
0.0
 10
88.22700057473145
 20
-118.9636257298077
 30
0.0
 10
88.53637014930689
 20
-118.9636257298077
 30
0.0
 10
88.53637014930689
 20
-118.9636257298077
 30
0.0
 10
88.55290660763609
 20
-118.9636257298077
 30
0.0
 10
88.73067353467498
 20
-118.9636257298077
 30
0.0
 10
88.85469697214397
 20
-118.9445054498646
 30
0.0
 10
88.85469697214397
 20
-118.9445054498646
 30
0.0
 10
88.85469697214397
 20
-119.1794609619586
 30
0.0
 10
88.85469697214397
 20
-119.1794609619586
 30
0.0
 10
88.71758217183103
 20
-119.1603406820155
 30
0.0
 10
88.55118405989346
 20
-119.1603406820155
 30
0.0
 10
88.53637014930689
 20
-119.1603406820155
 30
0.0
  0
HATCH
  5
11F
330
FE
100
AcDbEntity
  8
_U+30EC_U+30A4_U+30E4_U+30FC 1
 62
   179
420
  2234388
100
AcDbHatch
 10
0.0
 20
0.0
 30
0.0
210
0.0
220
0.0
230
1.0
  2
SOLID
 70
     1
 71
     0
 91
        2
 92
        1
 93
        1
 72
     4
 94
        3
 73
     0
 74
     1
 95
       47
 96
       43
 40
0.0
 40
0.0
 40
0.0
 40
0.0
 40
1.0
 40
1.0
 40
1.0
 40
2.0
 40
2.0
 40
2.0
 40
3.0
 40
3.0
 40
3.0
 40
4.0
 40
4.0
 40
4.0
 40
5.0
 40
5.0
 40
5.0
 40
6.0
 40
6.0
 40
6.0
 40
7.0
 40
7.0
 40
7.0
 40
8.0
 40
8.0
 40
8.0
 40
9.0
 40
9.0
 40
9.0
 40
10.0
 40
10.0
 40
10.0
 40
11.0
 40
11.0
 40
11.0
 40
12.0
 40
12.0
 40
12.0
 40
13.0
 40
13.0
 40
13.0
 40
14.0
 40
14.0
 40
14.0
 40
14.0
 10
88.62525361282633
 20
-119.6891628390013
 10
88.62525361282633
 20
-119.6891628390013
 10
88.53637014930689
 20
-119.6891628390013
 10
88.53637014930689
 20
-119.6891628390013
 10
88.53637014930689
 20
-119.7759792452296
 10
88.51776663368653
 20
-120.1652750350628
 10
88.34551185942404
 20
-120.3852443817961
 10
88.21218666414488
 20
-120.5543985701218
 10
88.0306301320722
 20
-120.6243340084724
 10
87.95656057913934
 20
-120.6517225175801
 10
87.95656057913934
 20
-120.6517225175801
 10
87.786372862168
 20
-120.4846353865455
 10
87.786372862168
 20
-120.4846353865455
 10
87.87146672065367
 20
-120.4718885332501
 10
88.02511797929581
 20
-120.4486341387247
 10
88.19013805303928
 20
-120.2603596704557
 10
88.25490584816197
 20
-120.1885294295883
 10
88.34551185942404
 20
-120.0488308076614
 10
88.34551185942404
 20
-119.6891628390013
 10
88.34551185942404
 20
-119.6891628390013
 10
88.1436292639884
 20
-119.6891628390013
 10
88.1436292639884
 20
-119.6891628390013
 10
87.98067624753608
 20
-119.6891628390013
 10
87.81772323108376
 20
-119.6934692083579
 10
87.65477021463145
 20
-119.7082831189445
 10
87.65477021463145
 20
-119.7082831189445
 10
87.65477021463145
 20
-119.4883137722113
 10
87.65477021463145
 20
-119.4883137722113
 10
87.81944577882639
 20
-119.5031276827978
 10
88.06955971105553
 20
-119.5072617973801
 10
88.1436292639884
 20
-119.5072617973801
 10
88.1436292639884
 20
-119.5072617973801
 10
88.62525361282633
 20
-119.5072617973801
 10
88.62525361282633
 20
-119.5072617973801
 10
88.64179007115553
 20
-119.5072617973801
 10
88.91946476726666
 20
-119.5072617973801
 10
89.11962481495968
 20
-119.4883137722113
 10
89.11962481495968
 20
-119.4883137722113
 10
89.11962481495968
 20
-119.7082831189445
 10
89.11962481495968
 20
-119.7082831189445
 10
88.95460474121622
 20
-119.6934692083579
 10
88.78992917702128
 20
-119.6891628390013
 10
88.62525361282633
 20
-119.6891628390013
 97
        0
 97
        0
 92
        1
 93
        1
 72
     4
 94
        3
 73
     0
 74
     1
 95
       29
 96
       25
 40
0.0
 40
0.0
 40
0.0
 40
0.0
 40
1.0
 40
1.0
 40
1.0
 40
2.0
 40
2.0
 40
2.0
 40
3.0
 40
3.0
 40
3.0
 40
4.0
 40
4.0
 40
4.0
 40
5.0
 40
5.0
 40
5.0
 40
6.0
 40
6.0
 40
6.0
 40
7.0
 40
7.0
 40
7.0
 40
8.0
 40
8.0
 40
8.0
 40
8.0
 10
88.53637014930689
 20
-119.1603406820155
 10
88.53637014930689
 20
-119.1603406820155
 10
88.22700057473145
 20
-119.1603406820155
 10
88.22700057473145
 20
-119.1603406820155
 10
88.12881535340183
 20
-119.1603406820155
 10
88.00651446367546
 20
-119.1667141086632
 10
87.91211884737962
 20
-119.1794609619586
 10
87.91211884737962
 20
-119.1794609619586
 10
87.91211884737962
 20
-118.9445054498646
 10
87.91211884737962
 20
-118.9445054498646
 10
88.01581622148564
 20
-118.9593193604511
 10
88.17704669019533
 20
-118.9636257298077
 10
88.22700057473145
 20
-118.9636257298077
 10
88.22700057473145
 20
-118.9636257298077
 10
88.53637014930689
 20
-118.9636257298077
 10
88.53637014930689
 20
-118.9636257298077
 10
88.55290660763609
 20
-118.9636257298077
 10
88.73067353467498
 20
-118.9636257298077
 10
88.85469697214397
 20
-118.9445054498646
 10
88.85469697214397
 20
-118.9445054498646
 10
88.85469697214397
 20
-119.1794609619586
 10
88.85469697214397
 20
-119.1794609619586
 10
88.71758217183103
 20
-119.1603406820155
 10
88.55118405989346
 20
-119.1603406820155
 10
88.53637014930689
 20
-119.1603406820155
 97
        0
 97
        0
 75
     2
 76
     1
 98
        0
  0
SPLINE
  5
120
330
FE
100
AcDbEntity
  8
_U+30EC_U+30A4_U+30E4_U+30FC 1
370
     0
100
AcDbSpline
210
0.0
220
0.0
230
1.0
 70
    11
 71
     3
 72
    29
 73
    25
 74
     0
 42
0.0000000001
 43
0.0000000001
 12
1.0
 22
0.0
 32
0.0
 13
1.0
 23
0.0
 33
0.0
 40
0.0
 40
0.0
 40
0.0
 40
0.0
 40
1.0
 40
1.0
 40
1.0
 40
2.0
 40
2.0
 40
2.0
 40
3.0
 40
3.0
 40
3.0
 40
4.0
 40
4.0
 40
4.0
 40
5.0
 40
5.0
 40
5.0
 40
6.0
 40
6.0
 40
6.0
 40
7.0
 40
7.0
 40
7.0
 40
8.0
 40
8.0
 40
8.0
 40
8.0
 10
90.24203692405408
 20
-119.8521158554536
 30
0.0
 10
90.24203692405408
 20
-119.8521158554536
 30
0.0
 10
89.81794566981982
 20
-119.8521158554536
 30
0.0
 10
89.81794566981982
 20
-119.8521158554536
 30
0.0
 10
89.79383000142307
 20
-119.8521158554536
 30
0.0
 10
89.51581079576341
 20
-119.8521158554536
 30
0.0
 10
89.33080916820549
 20
-119.8774373072702
 30
0.0
 10
89.33080916820549
 20
-119.8774373072702
 30
0.0
 10
89.33080916820549
 20
-119.646960419307
 30
0.0
 10
89.33080916820549
 20
-119.646960419307
 30
0.0
 10
89.46964651626107
 20
-119.6702148138325
 30
0.0
 10
89.63638913774716
 20
-119.6722818711236
 30
0.0
 10
89.81794566981982
 20
-119.6722818711236
 30
0.0
 10
89.81794566981982
 20
-119.6722818711236
 30
0.0
 10
90.24203692405408
 20
-119.6722818711236
 30
0.0
 10
90.24203692405408
 20
-119.6722818711236
 30
0.0
 10
90.40464543095787
 20
-119.6722818711236
 30
0.0
 10
90.56794295695872
 20
-119.6702148138325
 30
0.0
 10
90.72882891611988
 20
-119.646960419307
 30
0.0
 10
90.72882891611988
 20
-119.646960419307
 30
0.0
 10
90.72882891611988
 20
-119.8774373072702
 30
0.0
 10
90.72882891611988
 20
-119.8774373072702
 30
0.0
 10
90.56794295695872
 20
-119.8541829127448
 30
0.0
 10
90.3512464509365
 20
-119.8521158554536
 30
0.0
 10
90.24203692405408
 20
-119.8521158554536
 30
0.0
  0
HATCH
  5
121
330
FE
100
AcDbEntity
  8
_U+30EC_U+30A4_U+30E4_U+30FC 1
 62
   179
420
  2234388
100
AcDbHatch
 10
0.0
 20
0.0
 30
0.0
210
0.0
220
0.0
230
1.0
  2
SOLID
 70
     1
 71
     0
 91
        1
 92
        1
 93
        1
 72
     4
 94
        3
 73
     0
 74
     1
 95
       29
 96
       25
 40
0.0
 40
0.0
 40
0.0
 40
0.0
 40
1.0
 40
1.0
 40
1.0
 40
2.0
 40
2.0
 40
2.0
 40
3.0
 40
3.0
 40
3.0
 40
4.0
 40
4.0
 40
4.0
 40
5.0
 40
5.0
 40
5.0
 40
6.0
 40
6.0
 40
6.0
 40
7.0
 40
7.0
 40
7.0
 40
8.0
 40
8.0
 40
8.0
 40
8.0
 10
90.24203692405408
 20
-119.8521158554536
 10
90.24203692405408
 20
-119.8521158554536
 10
89.81794566981982
 20
-119.8521158554536
 10
89.81794566981982
 20
-119.8521158554536
 10
89.79383000142307
 20
-119.8521158554536
 10
89.51581079576341
 20
-119.8521158554536
 10
89.33080916820549
 20
-119.8774373072702
 10
89.33080916820549
 20
-119.8774373072702
 10
89.33080916820549
 20
-119.646960419307
 10
89.33080916820549
 20
-119.646960419307
 10
89.46964651626107
 20
-119.6702148138325
 10
89.63638913774716
 20
-119.6722818711236
 10
89.81794566981982
 20
-119.6722818711236
 10
89.81794566981982
 20
-119.6722818711236
 10
90.24203692405408
 20
-119.6722818711236
 10
90.24203692405408
 20
-119.6722818711236
 10
90.40464543095787
 20
-119.6722818711236
 10
90.56794295695872
 20
-119.6702148138325
 10
90.72882891611988
 20
-119.646960419307
 10
90.72882891611988
 20
-119.646960419307
 10
90.72882891611988
 20
-119.8774373072702
 10
90.72882891611988
 20
-119.8774373072702
 10
90.56794295695872
 20
-119.8541829127448
 10
90.3512464509365
 20
-119.8521158554536
 10
90.24203692405408
 20
-119.8521158554536
 97
        0
 97
        0
 75
     2
 76
     1
 98
        0
  0
SPLINE
  5
122
330
FE
100
AcDbEntity
  8
_U+30EC_U+30A4_U+30E4_U+30FC 1
370
     0
100
AcDbSpline
210
0.0
220
0.0
230
1.0
 70
    11
 71
     3
 72
    44
 73
    40
 74
     0
 42
0.0000000001
 43
0.0000000001
 12
1.0
 22
0.0
 32
0.0
 13
1.0
 23
0.0
 33
0.0
 40
0.0
 40
0.0
 40
0.0
 40
0.0
 40
1.0
 40
1.0
 40
1.0
 40
2.0
 40
2.0
 40
2.0
 40
3.0
 40
3.0
 40
3.0
 40
4.0
 40
4.0
 40
4.0
 40
5.0
 40
5.0
 40
5.0
 40
6.0
 40
6.0
 40
6.0
 40
7.0
 40
7.0
 40
7.0
 40
8.0
 40
8.0
 40
8.0
 40
9.0
 40
9.0
 40
9.0
 40
10.0
 40
10.0
 40
10.0
 40
11.0
 40
11.0
 40
11.0
 40
12.0
 40
12.0
 40
12.0
 40
13.0
 40
13.0
 40
13.0
 40
13.0
 10
92.17869735108728
 20
-119.4142442192784
 30
0.0
 10
92.08051212975765
 20
-119.7823526718773
 30
0.0
 10
92.03607039799793
 20
-119.9409993189731
 30
0.0
 10
91.86381562373543
 20
-120.1905964868794
 30
0.0
 10
91.70292966457427
 20
-120.4212456296169
 30
0.0
 10
91.49553491636223
 20
-120.6072807858204
 30
0.0
 10
91.25110539168375
 20
-120.7004706186964
 30
0.0
 10
91.25110539168375
 20
-120.7004706186964
 30
0.0
 10
91.08264022245504
 20
-120.5206366343664
 30
0.0
 10
91.08264022245504
 20
-120.5206366343664
 30
0.0
 10
91.64367402222797
 20
-120.3683634139183
 30
0.0
 10
91.93237302389191
 20
-119.8119804930505
 30
0.0
 10
91.98783906120444
 20
-119.3718695448098
 30
0.0
 10
91.98783906120444
 20
-119.3718695448098
 30
0.0
 10
91.3179402440976
 20
-119.3718695448098
 30
0.0
 10
91.3179402440976
 20
-119.3718695448098
 30
0.0
 10
91.23629148109718
 20
-119.3718695448098
 30
0.0
 10
91.07540552193602
 20
-119.3761759141664
 30
0.0
 10
90.93829072162308
 20
-119.3951239393352
 30
0.0
 10
90.93829072162308
 20
-119.3951239393352
 30
0.0
 10
90.93829072162308
 20
-119.1751545926021
 30
0.0
 10
90.93829072162308
 20
-119.1751545926021
 30
0.0
 10
91.01408282229856
 20
-119.1963419298363
 30
0.0
 10
91.23456893335455
 20
-119.1963419298363
 30
0.0
 10
91.32172984913137
 20
-119.1963419298363
 30
0.0
 10
91.32172984913137
 20
-119.1963419298363
 30
0.0
 10
91.6991400595405
 20
-119.1963419298363
 30
0.0
 10
91.6991400595405
 20
-119.1963419298363
 30
0.0
 10
91.7363470907812
 20
-119.1963419298363
 30
0.0
 10
91.94167478170209
 20
-119.1941026177709
 30
0.0
 10
91.97509220790901
 20
-119.1879014458975
 30
0.0
 10
92.01195472960119
 20
-119.1815280192498
 30
0.0
 10
92.01402178689233
 20
-119.1794609619586
 30
0.0
 10
92.06776527646223
 20
-119.1391533447812
 30
0.0
 10
92.06776527646223
 20
-119.1391533447812
 30
0.0
 10
92.23244084065718
 20
-119.2936658772946
 30
0.0
 10
92.23244084065718
 20
-119.2936658772946
 30
0.0
 10
92.2066026245178
 20
-119.3232936984678
 30
0.0
 10
92.19351126167385
 20
-119.3549885769321
 30
0.0
 10
92.17869735108728
 20
-119.4142442192784
 30
0.0
  0
SPLINE
  5
123
330
FE
100
AcDbEntity
  8
_U+30EC_U+30A4_U+30E4_U+30FC 1
370
     0
100
AcDbSpline
210
0.0
220
0.0
230
1.0
 70
    11
 71
     3
 72
    17
 73
    13
 74
     0
 42
0.0000000001
 43
0.0000000001
 12
1.0
 22
0.0
 32
0.0
 13
1.0
 23
0.0
 33
0.0
 40
0.0
 40
0.0
 40
0.0
 40
0.0
 40
1.0
 40
1.0
 40
1.0
 40
2.0
 40
2.0
 40
2.0
 40
3.0
 40
3.0
 40
3.0
 40
4.0
 40
4.0
 40
4.0
 40
4.0
 10
92.36197643090257
 20
-119.2152899550052
 30
0.0
 10
92.25104435627752
 20
-119.2152899550052
 30
0.0
 10
92.16216089275808
 20
-119.1138318929646
 30
0.0
 10
92.16216089275808
 20
-118.9868801243331
 30
0.0
 10
92.16216089275808
 20
-118.8599283557017
 30
0.0
 10
92.25104435627752
 20
-118.7562309815957
 30
0.0
 10
92.36197643090257
 20
-118.7562309815957
 30
0.0
 10
92.47325301507614
 20
-118.7562309815957
 30
0.0
 10
92.5638590263382
 20
-118.8599283557017
 30
0.0
 10
92.5638590263382
 20
-118.9868801243331
 30
0.0
 10
92.5638590263382
 20
-119.1138318929646
 30
0.0
 10
92.47325301507614
 20
-119.2152899550052
 30
0.0
 10
92.36197643090257
 20
-119.2152899550052
 30
0.0
  0
SPLINE
  5
124
330
FE
100
AcDbEntity
  8
_U+30EC_U+30A4_U+30E4_U+30FC 1
370
     0
100
AcDbSpline
210
0.0
220
0.0
230
1.0
 70
    11
 71
     3
 72
    17
 73
    13
 74
     0
 42
0.0000000001
 43
0.0000000001
 12
1.0
 22
0.0
 32
0.0
 13
1.0
 23
0.0
 33
0.0
 40
0.0
 40
0.0
 40
0.0
 40
0.0
 40
1.0
 40
1.0
 40
1.0
 40
2.0
 40
2.0
 40
2.0
 40
3.0
 40
3.0
 40
3.0
 40
4.0
 40
4.0
 40
4.0
 40
4.0
 10
92.36025388315994
 20
-118.8852498075183
 30
0.0
 10
92.31202254636645
 20
-118.8852498075183
 30
0.0
 10
92.27309296738312
 20
-118.929691539278
 30
0.0
 10
92.27309296738312
 20
-118.984813067042
 30
0.0
 10
92.27309296738312
 20
-119.0418293973229
 30
0.0
 10
92.31202254636645
 20
-119.0905774984392
 30
0.0
 10
92.36404348819372
 20
-119.0905774984392
 30
0.0
 10
92.41571992047247
 20
-119.0905774984392
 30
0.0
 10
92.45085989442201
 20
-119.0397623400317
 30
0.0
 10
92.45085989442201
 20
-118.9868801243331
 30
0.0
 10
92.45085989442201
 20
-118.929691539278
 30
0.0
 10
92.41020776769606
 20
-118.8852498075183
 30
0.0
 10
92.36025388315994
 20
-118.8852498075183
 30
0.0
  0
HATCH
  5
125
330
FE
100
AcDbEntity
  8
_U+30EC_U+30A4_U+30E4_U+30FC 1
 62
   179
420
  2234388
100
AcDbHatch
 10
0.0
 20
0.0
 30
0.0
210
0.0
220
0.0
230
1.0
  2
SOLID
 70
     1
 71
     0
 91
        3
 92
        1
 93
        1
 72
     4
 94
        3
 73
     0
 74
     1
 95
       44
 96
       40
 40
0.0
 40
0.0
 40
0.0
 40
0.0
 40
1.0
 40
1.0
 40
1.0
 40
2.0
 40
2.0
 40
2.0
 40
3.0
 40
3.0
 40
3.0
 40
4.0
 40
4.0
 40
4.0
 40
5.0
 40
5.0
 40
5.0
 40
6.0
 40
6.0
 40
6.0
 40
7.0
 40
7.0
 40
7.0
 40
8.0
 40
8.0
 40
8.0
 40
9.0
 40
9.0
 40
9.0
 40
10.0
 40
10.0
 40
10.0
 40
11.0
 40
11.0
 40
11.0
 40
12.0
 40
12.0
 40
12.0
 40
13.0
 40
13.0
 40
13.0
 40
13.0
 10
92.17869735108728
 20
-119.4142442192784
 10
92.08051212975765
 20
-119.7823526718773
 10
92.03607039799793
 20
-119.9409993189731
 10
91.86381562373543
 20
-120.1905964868794
 10
91.70292966457427
 20
-120.4212456296169
 10
91.49553491636223
 20
-120.6072807858204
 10
91.25110539168375
 20
-120.7004706186964
 10
91.25110539168375
 20
-120.7004706186964
 10
91.08264022245504
 20
-120.5206366343664
 10
91.08264022245504
 20
-120.5206366343664
 10
91.64367402222797
 20
-120.3683634139183
 10
91.93237302389191
 20
-119.8119804930505
 10
91.98783906120444
 20
-119.3718695448098
 10
91.98783906120444
 20
-119.3718695448098
 10
91.3179402440976
 20
-119.3718695448098
 10
91.3179402440976
 20
-119.3718695448098
 10
91.23629148109718
 20
-119.3718695448098
 10
91.07540552193602
 20
-119.3761759141664
 10
90.93829072162308
 20
-119.3951239393352
 10
90.93829072162308
 20
-119.3951239393352
 10
90.93829072162308
 20
-119.1751545926021
 10
90.93829072162308
 20
-119.1751545926021
 10
91.01408282229856
 20
-119.1963419298363
 10
91.23456893335455
 20
-119.1963419298363
 10
91.32172984913137
 20
-119.1963419298363
 10
91.32172984913137
 20
-119.1963419298363
 10
91.6991400595405
 20
-119.1963419298363
 10
91.6991400595405
 20
-119.1963419298363
 10
91.7363470907812
 20
-119.1963419298363
 10
91.94167478170209
 20
-119.1941026177709
 10
91.97509220790901
 20
-119.1879014458975
 10
92.01195472960119
 20
-119.1815280192498
 10
92.01402178689233
 20
-119.1794609619586
 10
92.06776527646223
 20
-119.1391533447812
 10
92.06776527646223
 20
-119.1391533447812
 10
92.23244084065718
 20
-119.2936658772946
 10
92.23244084065718
 20
-119.2936658772946
 10
92.2066026245178
 20
-119.3232936984678
 10
92.19351126167385
 20
-119.3549885769321
 10
92.17869735108728
 20
-119.4142442192784
 97
        0
 97
        0
 92
        1
 93
        1
 72
     4
 94
        3
 73
     0
 74
     1
 95
       17
 96
       13
 40
0.0
 40
0.0
 40
0.0
 40
0.0
 40
1.0
 40
1.0
 40
1.0
 40
2.0
 40
2.0
 40
2.0
 40
3.0
 40
3.0
 40
3.0
 40
4.0
 40
4.0
 40
4.0
 40
4.0
 10
92.36197643090257
 20
-119.2152899550052
 10
92.25104435627752
 20
-119.2152899550052
 10
92.16216089275808
 20
-119.1138318929646
 10
92.16216089275808
 20
-118.9868801243331
 10
92.16216089275808
 20
-118.8599283557017
 10
92.25104435627752
 20
-118.7562309815957
 10
92.36197643090257
 20
-118.7562309815957
 10
92.47325301507614
 20
-118.7562309815957
 10
92.5638590263382
 20
-118.8599283557017
 10
92.5638590263382
 20
-118.9868801243331
 10
92.5638590263382
 20
-119.1138318929646
 10
92.47325301507614
 20
-119.2152899550052
 10
92.36197643090257
 20
-119.2152899550052
 97
        0
 97
        0
 92
        1
 93
        1
 72
     4
 94
        3
 73
     0
 74
     1
 95
       17
 96
       13
 40
0.0
 40
0.0
 40
0.0
 40
0.0
 40
1.0
 40
1.0
 40
1.0
 40
2.0
 40
2.0
 40
2.0
 40
3.0
 40
3.0
 40
3.0
 40
4.0
 40
4.0
 40
4.0
 40
4.0
 10
92.36025388315994
 20
-118.8852498075183
 10
92.31202254636645
 20
-118.8852498075183
 10
92.27309296738312
 20
-118.929691539278
 10
92.27309296738312
 20
-118.984813067042
 10
92.27309296738312
 20
-119.0418293973229
 10
92.31202254636645
 20
-119.0905774984392
 10
92.36404348819372
 20
-119.0905774984392
 10
92.41571992047247
 20
-119.0905774984392
 10
92.45085989442201
 20
-119.0397623400317
 10
92.45085989442201
 20
-118.9868801243331
 10
92.45085989442201
 20
-118.929691539278
 10
92.41020776769606
 20
-118.8852498075183
 10
92.36025388315994
 20
-118.8852498075183
 97
        0
 97
        0
 75
     2
 76
     1
 98
        0
  0
ENDBLK
  5
101
330
FE
100
AcDbEntity
  8
0
100
AcDbBlockEnd
  0
ENDSEC
  0
SECTION
  2
ENTITIES
  0
INSERT
  5
42
330
1F
100
AcDbEntity
  8
_U+30EC_U+30A4_U+30E4_U+30FC 1
100
AcDbBlockReference
  2
block 2
 10
0.0
 20
0.0
 30
0.0
  0
ENDSEC
  0
SECTION
  2
OBJECTS
  0
DICTIONARY
  5
C
330
0
100
AcDbDictionary
281
     1
  3
ACAD_GROUP
350
D
  3
ACAD_LAYOUT
350
1A
  3
ACAD_MATERIAL
350
3B
  3
ACAD_MLEADERSTYLE
350
128
  3
ACAD_MLINESTYLE
350
17
  3
ACAD_PLOTSETTINGS
350
19
  3
ACAD_PLOTSTYLENAME
350
E
  3
ACAD_TABLESTYLE
350
127
  3
ACAD_VISUALSTYLE
350
2A
  0
SUN
  5
3F
330
29
100
AcDbSun
 90
        1
290
     0
 63
     7
421
 16777215
 40
1.0
291
     1
 91
  2455826
 92
 54000000
292
     0
 70
     2
 71
   256
280
     1
  0
DICTIONARY
  5
D
102
{ACAD_REACTORS
330
C
102
}
330
C
100
AcDbDictionary
281
     1
  0
DICTIONARY
  5
1A
102
{ACAD_REACTORS
330
C
102
}
330
C
100
AcDbDictionary
281
     1
  3
Layout1
350
1E
  3
Layout2
350
26
  3
Model
350
22
  0
DICTIONARY
  5
3B
102
{ACAD_REACTORS
330
C
102
}
330
C
100
AcDbDictionary
281
     1
  3
ByBlock
350
3D
  3
ByLayer
350
3C
  3
Global
350
3E
  0
DICTIONARY
  5
128
102
{ACAD_REACTORS
330
C
102
}
330
C
100
AcDbDictionary
281
     1
  0
DICTIONARY
  5
17
102
{ACAD_REACTORS
330
C
102
}
330
C
100
AcDbDictionary
281
     1
  3
Standard
350
18
  0
DICTIONARY
  5
19
102
{ACAD_REACTORS
330
C
102
}
330
C
100
AcDbDictionary
281
     1
  0
ACDBDICTIONARYWDFLT
  5
E
102
{ACAD_REACTORS
330
C
102
}
330
C
100
AcDbDictionary
281
     1
  3
Normal
350
F
100
AcDbDictionaryWithDefault
340
F
  0
DICTIONARY
  5
127
102
{ACAD_REACTORS
330
C
102
}
330
C
100
AcDbDictionary
281
     1
  0
DICTIONARY
  5
2A
102
{ACAD_REACTORS
330
C
102
}
330
C
100
AcDbDictionary
281
     1
  3
2dWireframe
350
2F
  3
3D Hidden
350
31
  3
3dWireframe
350
30
  3
Basic
350
32
  3
Brighten
350
36
  3
ColorChange
350
3A
  3
Conceptual
350
34
  3
Dim
350
35
  3
Facepattern
350
39
  3
Flat
350
2B
  3
FlatWithEdges
350
2C
  3
Gouraud
350
2D
  3
GouraudWithEdges
350
2E
  3
Linepattern
350
38
  3
Realistic
350
33
  3
Thicken
350
37
  0
LAYOUT
  5
1E
102
{ACAD_REACTORS
330
1A
102
}
330
1A
100
AcDbPlotSettings
  1

  2
none_device
  4

  6

 40
0.0
 41
0.0
 42
0.0
 43
0.0
 44
0.0
 45
0.0
 46
0.0
 47
0.0
 48
0.0
 49
0.0
140
0.0
141
0.0
142
1.0
143
1.0
 70
   688
 72
     0
 73
     0
 74
     5
  7

 75
    16
 76
     0
 77
     2
 78
   300
147
1.0
148
0.0
149
0.0
100
AcDbLayout
  1
Layout1
 70
     1
 71
     1
 10
0.0
 20
0.0
 11
12.0
 21
9.0
 12
0.0
 22
0.0
 32
0.0
 14
1.000000000000000E+20
 24
1.000000000000000E+20
 34
1.000000000000000E+20
 15
-1.000000000000000E+20
 25
-1.000000000000000E+20
 35
-1.000000000000000E+20
146
0.0
 13
0.0
 23
0.0
 33
0.0
 16
1.0
 26
0.0
 36
0.0
 17
0.0
 27
1.0
 37
0.0
 76
     0
330
1B
  0
LAYOUT
  5
26
102
{ACAD_REACTORS
330
1A
102
}
330
1A
100
AcDbPlotSettings
  1

  2
none_device
  4

  6

 40
0.0
 41
0.0
 42
0.0
 43
0.0
 44
0.0
 45
0.0
 46
0.0
 47
0.0
 48
0.0
 49
0.0
140
0.0
141
0.0
142
1.0
143
1.0
 70
   688
 72
     0
 73
     0
 74
     5
  7

 75
    16
 76
     0
 77
     2
 78
   300
147
1.0
148
0.0
149
0.0
100
AcDbLayout
  1
Layout2
 70
     1
 71
     2
 10
0.0
 20
0.0
 11
0.0
 21
0.0
 12
0.0
 22
0.0
 32
0.0
 14
0.0
 24
0.0
 34
0.0
 15
0.0
 25
0.0
 35
0.0
146
0.0
 13
0.0
 23
0.0
 33
0.0
 16
1.0
 26
0.0
 36
0.0
 17
0.0
 27
1.0
 37
0.0
 76
     0
330
23
  0
LAYOUT
  5
22
102
{ACAD_REACTORS
330
1A
102
}
330
1A
100
AcDbPlotSettings
  1

  2
none_device
  4

  6

 40
0.0
 41
0.0
 42
0.0
 43
0.0
 44
0.0
 45
0.0
 46
0.0
 47
0.0
 48
0.0
 49
0.0
140
0.0
141
0.0
142
1.0
143
1.0
 70
  1712
 72
     0
 73
     0
 74
     0
  7

 75
     0
 76
     0
 77
     2
 78
   300
147
1.0
148
0.0
149
0.0
100
AcDbLayout
  1
Model
 70
     1
 71
     0
 10
0.0
 20
0.0
 11
12.0
 21
9.0
 12
0.0
 22
0.0
 32
0.0
 14
1.000000000000000E+20
 24
1.000000000000000E+20
 34
1.000000000000000E+20
 15
-1.000000000000000E+20
 25
-1.000000000000000E+20
 35
-1.000000000000000E+20
146
0.0
 13
0.0
 23
0.0
 33
0.0
 16
1.0
 26
0.0
 36
0.0
 17
0.0
 27
1.0
 37
0.0
 76
     0
330
1F
331
29
  0
MATERIAL
  5
3D
102
{ACAD_REACTORS
330
3B
102
}
330
3B
100
AcDbMaterial
  1
ByBlock
 72
     1
 94
      127
  0
MATERIAL
  5
3C
102
{ACAD_REACTORS
330
3B
102
}
330
3B
100
AcDbMaterial
  1
ByLayer
 72
     1
 94
      127
  0
MATERIAL
  5
3E
102
{ACAD_REACTORS
330
3B
102
}
330
3B
100
AcDbMaterial
  1
Global
 72
     1
 94
      127
  0
MLINESTYLE
  5
18
102
{ACAD_REACTORS
330
17
102
}
330
17
100
AcDbMlineStyle
  2
Standard
 70
     0
  3

 62
   256
 51
90.0
 52
90.0
 71
     2
 49
0.5
 62
   256
  6
BYLAYER
 49
-0.5
 62
   256
  6
BYLAYER
  0
ACDBPLACEHOLDER
  5
F
102
{ACAD_REACTORS
330
E
102
}
330
E
  0
VISUALSTYLE
  5
2F
102
{ACAD_REACTORS
330
2A
102
}
330
2A
100
AcDbVisualStyle
  2
2dWireframe
 70
     4
177
     2
291
     0
 71
     0
176
     1
 72
     2
176
     1
 73
     0
176
     1
 90
        0
176
     1
 40
-0.6
176
     1
 41
-30.0
176
     1
 62
     5
 63
     7
421
 16777215
176
     1
 74
     1
176
     1
 91
        4
176
     1
 64
     7
176
     1
 65
   257
176
     1
 75
     1
176
     1
175
     1
176
     1
 42
1.0
176
     1
 92
        0
176
     1
 66
   257
176
     1
 43
1.0
176
     1
 76
     1
176
     1
 77
     6
176
     1
 78
     2
176
     1
 67
     7
176
     1
 79
     5
176
     1
170
     0
176
     1
171
     0
176
     1
290
     0
176
     1
 93
        1
176
     1
 44
0.0
176
     1
173
     0
176
     1
  0
VISUALSTYLE
  5
31
102
{ACAD_REACTORS
330
2A
102
}
330
2A
100
AcDbVisualStyle
  2
3D Hidden
 70
     6
177
     2
291
     0
 71
     1
176
     1
 72
     2
176
     1
 73
     2
176
     1
 90
        0
176
     1
 40
-0.6
176
     1
 41
-30.0
176
     1
 62
     5
 63
     7
421
 16777215
176
     1
 74
     2
176
     1
 91
        2
176
     1
 64
     7
176
     1
 65
   257
176
     1
 75
     2
176
     1
175
     1
176
     1
 42
40.0
176
     1
 92
        0
176
     1
 66
   257
176
     1
 43
1.0
176
     1
 76
     1
176
     1
 77
     6
176
     1
 78
     2
176
     1
 67
     7
176
     1
 79
     3
176
     1
170
     0
176
     1
171
     0
176
     1
290
     0
176
     1
 93
        1
176
     1
 44
0.0
176
     1
173
     0
176
     1
  0
VISUALSTYLE
  5
30
102
{ACAD_REACTORS
330
2A
102
}
330
2A
100
AcDbVisualStyle
  2
3dWireframe
 70
     5
177
     2
291
     0
 71
     0
176
     1
 72
     2
176
     1
 73
     0
176
     1
 90
        0
176
     1
 40
-0.6
176
     1
 41
-30.0
176
     1
 62
     5
 63
     7
421
 16777215
176
     1
 74
     1
176
     1
 91
        4
176
     1
 64
     7
176
     1
 65
   257
176
     1
 75
     1
176
     1
175
     1
176
     1
 42
1.0
176
     1
 92
        0
176
     1
 66
   257
176
     1
 43
1.0
176
     1
 76
     1
176
     1
 77
     6
176
     1
 78
     2
176
     1
 67
     7
176
     1
 79
     5
176
     1
170
     0
176
     1
171
     0
176
     1
290
     0
176
     1
 93
        1
176
     1
 44
0.0
176
     1
173
     0
176
     1
  0
VISUALSTYLE
  5
32
102
{ACAD_REACTORS
330
2A
102
}
330
2A
100
AcDbVisualStyle
  2
Basic
 70
     7
177
     2
291
     1
 71
     1
176
     1
 72
     0
176
     1
 73
     1
176
     1
 90
        0
176
     1
 40
-0.6
176
     1
 41
-30.0
176
     1
 62
     5
 63
     7
421
 16777215
176
     1
 74
     0
176
     1
 91
        4
176
     1
 64
     7
176
     1
 65
   257
176
     1
 75
     1
176
     1
175
     1
176
     1
 42
1.0
176
     1
 92
        8
176
     1
 66
     7
176
     1
 43
1.0
176
     1
 76
     1
176
     1
 77
     6
176
     1
 78
     2
176
     1
 67
     7
176
     1
 79
     5
176
     1
170
     0
176
     1
171
     0
176
     1
290
     0
176
     1
 93
        1
176
     1
 44
0.0
176
     1
173
     0
176
     1
  0
VISUALSTYLE
  5
36
102
{ACAD_REACTORS
330
2A
102
}
330
2A
100
AcDbVisualStyle
  2
Brighten
 70
    12
177
     2
291
     1
 71
     2
176
     1
 72
     2
176
     1
 73
     0
176
     1
 90
        0
176
     1
 40
-0.6
176
     1
 41
-30.0
176
     1
 62
     5
 63
     7
421
 16777215
176
     1
 74
     1
176
     1
 91
        4
176
     1
 64
     7
176
     1
 65
   257
176
     1
 75
     1
176
     1
175
     1
176
     1
 42
1.0
176
     1
 92
        8
176
     1
 66
     7
176
     1
 43
1.0
176
     1
 76
     1
176
     1
 77
     6
176
     1
 78
     2
176
     1
 67
     7
176
     1
 79
     5
176
     1
170
     0
176
     1
171
     0
176
     1
290
     0
176
     1
 93
        1
176
     1
 44
50.0
176
     1
173
     0
176
     1
  0
VISUALSTYLE
  5
3A
102
{ACAD_REACTORS
330
2A
102
}
330
2A
100
AcDbVisualStyle
  2
ColorChange
 70
    16
177
     2
291
     1
 71
     2
176
     1
 72
     2
176
     1
 73
     3
176
     1
 90
        0
176
     1
 40
-0.6
176
     1
 41
-30.0
176
     1
 62
     5
 63
     8
421
  8421504
176
     1
 74
     1
176
     1
 91
        4
176
     1
 64
     7
176
     1
 65
   257
176
     1
 75
     1
176
     1
175
     1
176
     1
 42
1.0
176
     1
 92
        8
176
     1
 66
     8
424
  8421504
176
     1
 43
1.0
176
     1
 76
     1
176
     1
 77
     6
176
     1
 78
     2
176
     1
 67
     7
176
     1
 79
     5
176
     1
170
     0
176
     1
171
     0
176
     1
290
     0
176
     1
 93
        1
176
     1
 44
0.0
176
     1
173
     0
176
     1
  0
VISUALSTYLE
  5
34
102
{ACAD_REACTORS
330
2A
102
}
330
2A
100
AcDbVisualStyle
  2
Conceptual
 70
     9
177
     2
291
     0
 71
     3
176
     1
 72
     2
176
     1
 73
     0
176
     1
 90
        0
176
     1
 40
-0.6
176
     1
 41
-30.0
176
     1
 62
     5
 63
     7
421
 16777215
176
     1
 74
     2
176
     1
 91
        2
176
     1
 64
     7
176
     1
 65
   257
176
     1
 75
     1
176
     1
175
     1
176
     1
 42
40.0
176
     1
 92
        8
176
     1
 66
     7
176
     1
 43
1.0
176
     1
 76
     1
176
     1
 77
     6
176
     1
 78
     2
176
     1
 67
     7
176
     1
 79
     3
176
     1
170
     0
176
     1
171
     0
176
     1
290
     0
176
     1
 93
        1
176
     1
 44
0.0
176
     1
173
     0
176
     1
  0
VISUALSTYLE
  5
35
102
{ACAD_REACTORS
330
2A
102
}
330
2A
100
AcDbVisualStyle
  2
Dim
 70
    11
177
     2
291
     1
 71
     2
176
     1
 72
     2
176
     1
 73
     0
176
     1
 90
        0
176
     1
 40
-0.6
176
     1
 41
-30.0
176
     1
 62
     5
 63
     7
421
 16777215
176
     1
 74
     1
176
     1
 91
        4
176
     1
 64
     7
176
     1
 65
   257
176
     1
 75
     1
176
     1
175
     1
176
     1
 42
1.0
176
     1
 92
        8
176
     1
 66
     7
176
     1
 43
1.0
176
     1
 76
     1
176
     1
 77
     6
176
     1
 78
     2
176
     1
 67
     7
176
     1
 79
     5
176
     1
170
     0
176
     1
171
     0
176
     1
290
     0
176
     1
 93
        1
176
     1
 44
-50.0
176
     1
173
     0
176
     1
  0
VISUALSTYLE
  5
39
102
{ACAD_REACTORS
330
2A
102
}
330
2A
100
AcDbVisualStyle
  2
Facepattern
 70
    15
177
     2
291
     1
 71
     2
176
     1
 72
     2
176
     1
 73
     0
176
     1
 90
        0
176
     1
 40
-0.6
176
     1
 41
-30.0
176
     1
 62
     5
 63
     7
421
 16777215
176
     1
 74
     1
176
     1
 91
        4
176
     1
 64
     7
176
     1
 65
   257
176
     1
 75
     1
176
     1
175
     1
176
     1
 42
1.0
176
     1
 92
        8
176
     1
 66
     7
176
     1
 43
1.0
176
     1
 76
     1
176
     1
 77
     6
176
     1
 78
     2
176
     1
 67
     7
176
     1
 79
     5
176
     1
170
     0
176
     1
171
     0
176
     1
290
     0
176
     1
 93
        1
176
     1
 44
0.0
176
     1
173
     0
176
     1
  0
VISUALSTYLE
  5
2B
102
{ACAD_REACTORS
330
2A
102
}
330
2A
100
AcDbVisualStyle
  2
Flat
 70
     0
177
     2
291
     1
 71
     2
176
     1
 72
     1
176
     1
 73
     1
176
     1
 90
        2
176
     1
 40
-0.6
176
     1
 41
30.0
176
     1
 62
     5
 63
     7
421
 16777215
176
     1
 74
     0
176
     1
 91
        4
176
     1
 64
     7
176
     1
 65
   257
176
     1
 75
     1
176
     1
175
     1
176
     1
 42
1.0
176
     1
 92
        8
176
     1
 66
     7
176
     1
 43
1.0
176
     1
 76
     1
176
     1
 77
     6
176
     1
 78
     2
176
     1
 67
     7
176
     1
 79
     5
176
     1
170
     0
176
     1
171
     0
176
     1
290
     0
176
     1
 93
       13
176
     1
 44
0.0
176
     1
173
     0
176
     1
  0
VISUALSTYLE
  5
2C
102
{ACAD_REACTORS
330
2A
102
}
330
2A
100
AcDbVisualStyle
  2
FlatWithEdges
 70
     1
177
     2
291
     1
 71
     2
176
     1
 72
     1
176
     1
 73
     1
176
     1
 90
        2
176
     1
 40
-0.6
176
     1
 41
30.0
176
     1
 62
     5
 63
     7
421
 16777215
176
     1
 74
     1
176
     1
 91
        4
176
     1
 64
     7
176
     1
 65
   257
176
     1
 75
     1
176
     1
175
     1
176
     1
 42
1.0
176
     1
 92
        0
176
     1
 66
   257
176
     1
 43
1.0
176
     1
 76
     1
176
     1
 77
     6
176
     1
 78
     2
176
     1
 67
     7
176
     1
 79
     5
176
     1
170
     0
176
     1
171
     0
176
     1
290
     0
176
     1
 93
       13
176
     1
 44
0.0
176
     1
173
     0
176
     1
  0
VISUALSTYLE
  5
2D
102
{ACAD_REACTORS
330
2A
102
}
330
2A
100
AcDbVisualStyle
  2
Gouraud
 70
     2
177
     2
291
     1
 71
     2
176
     1
 72
     2
176
     1
 73
     1
176
     1
 90
        2
176
     1
 40
-0.6
176
     1
 41
30.0
176
     1
 62
     5
 63
     7
421
 16777215
176
     1
 74
     0
176
     1
 91
        4
176
     1
 64
     7
176
     1
 65
   257
176
     1
 75
     1
176
     1
175
     1
176
     1
 42
1.0
176
     1
 92
        0
176
     1
 66
     7
176
     1
 43
1.0
176
     1
 76
     1
176
     1
 77
     6
176
     1
 78
     2
176
     1
 67
     7
176
     1
 79
     5
176
     1
170
     0
176
     1
171
     0
176
     1
290
     0
176
     1
 93
       13
176
     1
 44
0.0
176
     1
173
     0
176
     1
  0
VISUALSTYLE
  5
2E
102
{ACAD_REACTORS
330
2A
102
}
330
2A
100
AcDbVisualStyle
  2
GouraudWithEdges
 70
     3
177
     2
291
     1
 71
     2
176
     1
 72
     2
176
     1
 73
     1
176
     1
 90
        2
176
     1
 40
-0.6
176
     1
 41
30.0
176
     1
 62
     5
 63
     7
421
 16777215
176
     1
 74
     1
176
     1
 91
        4
176
     1
 64
     7
176
     1
 65
   257
176
     1
 75
     1
176
     1
175
     1
176
     1
 42
1.0
176
     1
 92
        0
176
     1
 66
   257
176
     1
 43
1.0
176
     1
 76
     1
176
     1
 77
     6
176
     1
 78
     2
176
     1
 67
     7
176
     1
 79
     5
176
     1
170
     0
176
     1
171
     0
176
     1
290
     0
176
     1
 93
       13
176
     1
 44
0.0
176
     1
173
     0
176
     1
  0
VISUALSTYLE
  5
38
102
{ACAD_REACTORS
330
2A
102
}
330
2A
100
AcDbVisualStyle
  2
Linepattern
 70
    14
177
     2
291
     1
 71
     2
176
     1
 72
     2
176
     1
 73
     0
176
     1
 90
        0
176
     1
 40
-0.6
176
     1
 41
-30.0
176
     1
 62
     5
 63
     7
421
 16777215
176
     1
 74
     1
176
     1
 91
        4
176
     1
 64
     7
176
     1
 65
   257
176
     1
 75
     7
176
     1
175
     7
176
     1
 42
1.0
176
     1
 92
        8
176
     1
 66
     7
176
     1
 43
1.0
176
     1
 76
     1
176
     1
 77
     6
176
     1
 78
     2
176
     1
 67
     7
176
     1
 79
     5
176
     1
170
     0
176
     1
171
     0
176
     1
290
     0
176
     1
 93
        1
176
     1
 44
0.0
176
     1
173
     0
176
     1
  0
VISUALSTYLE
  5
33
102
{ACAD_REACTORS
330
2A
102
}
330
2A
100
AcDbVisualStyle
  2
Realistic
 70
     8
177
     2
291
     0
 71
     2
176
     1
 72
     2
176
     1
 73
     0
176
     1
 90
        0
176
     1
 40
-0.6
176
     1
 41
-30.0
176
     1
 62
     5
 63
     7
421
 16777215
176
     1
 74
     1
176
     1
 91
        0
176
     1
 64
     7
176
     1
 65
   257
176
     1
 75
     1
176
     1
175
     1
176
     1
 42
1.0
176
     1
 92
        8
176
     1
 66
     8
424
  7895160
176
     1
 43
1.0
176
     1
 76
     1
176
     1
 77
     6
176
     1
 78
     2
176
     1
 67
     7
176
     1
 79
     5
176
     1
170
     0
176
     1
171
     0
176
     1
290
     0
176
     1
 93
       13
176
     1
 44
0.0
176
     1
173
     0
176
     1
  0
VISUALSTYLE
  5
37
102
{ACAD_REACTORS
330
2A
102
}
330
2A
100
AcDbVisualStyle
  2
Thicken
 70
    13
177
     2
291
     1
 71
     2
176
     1
 72
     2
176
     1
 73
     0
176
     1
 90
        0
176
     1
 40
-0.6
176
     1
 41
-30.0
176
     1
 62
     5
 63
     7
421
 16777215
176
     1
 74
     1
176
     1
 91
        4
176
     1
 64
     7
176
     1
 65
   257
176
     1
 75
     1
176
     1
175
     1
176
     1
 42
1.0
176
     1
 92
       12
176
     1
 66
     7
176
     1
 43
1.0
176
     1
 76
     1
176
     1
 77
     6
176
     1
 78
     2
176
     1
 67
     7
176
     1
 79
     5
176
     1
170
     0
176
     1
171
     0
176
     1
290
     0
176
     1
 93
        1
176
     1
 44
0.0
176
     1
173
     0
176
     1
  0
ENDSEC
  0
EOF
