  0
SECTION
  2
HEADER
  9
$ACADVER
  1
AC1024
  9
$ACADMAINTVER
 70
     6
  9
$DWGCODEPAGE
  3
UNDEFINED
  9
$INSBASE
 10
0.0
 20
0.0
 30
0.0
  9
$EXTMIN
 10
1.000000000000000E+20
 20
1.000000000000000E+20
 30
1.000000000000000E+20
  9
$EXTMAX
 10
-1.000000000000000E+20
 20
-1.000000000000000E+20
 30
-1.000000000000000E+20
  9
$LIMMIN
 10
0.0
 20
0.0
  9
$LIMMAX
 10
12.0
 20
9.0
  9
$ORTHOMODE
 70
     0
  9
$REGENMODE
 70
     1
  9
$FILLMODE
 70
     1
  9
$QTEXTMODE
 70
     0
  9
$MIRRTEXT
 70
     1
  9
$LTSCALE
 40
1.0
  9
$ATTMODE
 70
     1
  9
$TEXTSIZE
 40
0.2
  9
$TRACEWID
 40
0.05
  9
$TEXTSTYLE
  7
Standard
  9
$CLAYER
  8
0
  9
$CELTYPE
  6
ByLayer
  9
$CECOLOR
 62
   256
  9
$CELTSCALE
 40
1.0
  9
$DISPSILH
 70
     0
  9
$DIMSCALE
 40
1.0
  9
$DIMASZ
 40
0.18
  9
$DIMEXO
 40
0.0625
  9
$DIMDLI
 40
0.38
  9
$DIMRND
 40
0.0
  9
$DIMDLE
 40
0.0
  9
$DIMEXE
 40
0.18
  9
$DIMTP
 40
0.0
  9
$DIMTM
 40
0.0
  9
$DIMTXT
 40
0.18
  9
$DIMCEN
 40
0.09
  9
$DIMTSZ
 40
0.0
  9
$DIMTOL
 70
     0
  9
$DIMLIM
 70
     0
  9
$DIMTIH
 70
     1
  9
$DIMTOH
 70
     1
  9
$DIMSE1
 70
     0
  9
$DIMSE2
 70
     0
  9
$DIMTAD
 70
     0
  9
$DIMZIN
 70
     0
  9
$DIMBLK
  1

  9
$DIMASO
 70
     1
  9
$DIMSHO
 70
     1
  9
$DIMPOST
  1

  9
$DIMAPOST
  1

  9
$DIMALT
 70
     0
  9
$DIMALTD
 70
     2
  9
$DIMALTF
 40
25.4
  9
$DIMLFAC
 40
1.0
  9
$DIMTOFL
 70
     0
  9
$DIMTVP
 40
0.0
  9
$DIMTIX
 70
     0
  9
$DIMSOXD
 70
     0
  9
$DIMSAH
 70
     0
  9
$DIMBLK1
  1

  9
$DIMBLK2
  1

  9
$DIMSTYLE
  2
Standard
  9
$DIMCLRD
 70
     0
  9
$DIMCLRE
 70
     0
  9
$DIMCLRT
 70
     0
  9
$DIMTFAC
 40
1.0
  9
$DIMGAP
 40
0.09
  9
$DIMJUST
 70
     0
  9
$DIMSD1
 70
     0
  9
$DIMSD2
 70
     0
  9
$DIMTOLJ
 70
     1
  9
$DIMTZIN
 70
     0
  9
$DIMALTZ
 70
     0
  9
$DIMALTTZ
 70
     0
  9
$DIMUPT
 70
     0
  9
$DIMDEC
 70
     4
  9
$DIMTDEC
 70
     4
  9
$DIMALTU
 70
     2
  9
$DIMALTTD
 70
     2
  9
$DIMTXSTY
  7
Standard
  9
$DIMAUNIT
 70
     0
  9
$DIMADEC
 70
     0
  9
$DIMALTRND
 40
0.0
  9
$DIMAZIN
 70
     0
  9
$DIMDSEP
 70
    46
  9
$DIMATFIT
 70
     3
  9
$DIMFRAC
 70
     0
  9
$DIMLDRBLK
  1

  9
$DIMLUNIT
 70
     2
  9
$DIMLWD
 70
    -2
  9
$DIMLWE
 70
    -2
  9
$DIMTMOVE
 70
     0
  9
$DIMFXL
 40
1.0
  9
$DIMFXLON
 70
     0
  9
$DIMJOGANG
 40
0.7853981633974483
  9
$DIMTFILL
 70
     0
  9
$DIMTFILLCLR
 70
     0
  9
$DIMARCSYM
 70
     0
  9
$DIMLTYPE
  6

  9
$DIMLTEX1
  6

  9
$DIMLTEX2
  6

  9
$DIMTXTDIRECTION
 70
     0
  9
$LUNITS
 70
     2
  9
$LUPREC
 70
     4
  9
$SKETCHINC
 40
0.1
  9
$FILLETRAD
 40
0.5
  9
$AUNITS
 70
     0
  9
$AUPREC
 70
     0
  9
$MENU
  1
.
  9
$ELEVATION
 40
0.0
  9
$PELEVATION
 40
0.0
  9
$THICKNESS
 40
0.0
  9
$LIMCHECK
 70
     0
  9
$CHAMFERA
 40
0.5
  9
$CHAMFERB
 40
0.5
  9
$CHAMFERC
 40
1.0
  9
$CHAMFERD
 40
0.0
  9
$SKPOLY
 70
     0
  9
$TDCREATE
 40
2457917.585208334
  9
$TDUCREATE
 40
2457917.210208334
  9
$TDUPDATE
 40
2457917.585208334
  9
$TDUUPDATE
 40
2457917.210208334
  9
$TDINDWG
 40
0.0000000116
  9
$TDUSRTIMER
 40
0.0000000116
  9
$USRTIMER
 70
     1
  9
$ANGBASE
 50
0.0
  9
$ANGDIR
 70
     0
  9
$PDMODE
 70
     0
  9
$PDSIZE
 40
0.0
  9
$PLINEWID
 40
0.0
  9
$SPLFRAME
 70
     0
  9
$SPLINETYPE
 70
     6
  9
$SPLINESEGS
 70
     8
  9
$HANDSEED
  5
C4
  9
$SURFTAB1
 70
     6
  9
$SURFTAB2
 70
     6
  9
$SURFTYPE
 70
     6
  9
$SURFU
 70
     6
  9
$SURFV
 70
     6
  9
$UCSBASE
  2

  9
$UCSNAME
  2

  9
$UCSORG
 10
0.0
 20
0.0
 30
0.0
  9
$UCSXDIR
 10
1.0
 20
0.0
 30
0.0
  9
$UCSYDIR
 10
0.0
 20
1.0
 30
0.0
  9
$UCSORTHOREF
  2

  9
$UCSORTHOVIEW
 70
     0
  9
$UCSORGTOP
 10
0.0
 20
0.0
 30
0.0
  9
$UCSORGBOTTOM
 10
0.0
 20
0.0
 30
0.0
  9
$UCSORGLEFT
 10
0.0
 20
0.0
 30
0.0
  9
$UCSORGRIGHT
 10
0.0
 20
0.0
 30
0.0
  9
$UCSORGFRONT
 10
0.0
 20
0.0
 30
0.0
  9
$UCSORGBACK
 10
0.0
 20
0.0
 30
0.0
  9
$PUCSBASE
  2

  9
$PUCSNAME
  2

  9
$PUCSORG
 10
0.0
 20
0.0
 30
0.0
  9
$PUCSXDIR
 10
1.0
 20
0.0
 30
0.0
  9
$PUCSYDIR
 10
0.0
 20
1.0
 30
0.0
  9
$PUCSORTHOREF
  2

  9
$PUCSORTHOVIEW
 70
     0
  9
$PUCSORGTOP
 10
0.0
 20
0.0
 30
0.0
  9
$PUCSORGBOTTOM
 10
0.0
 20
0.0
 30
0.0
  9
$PUCSORGLEFT
 10
0.0
 20
0.0
 30
0.0
  9
$PUCSORGRIGHT
 10
0.0
 20
0.0
 30
0.0
  9
$PUCSORGFRONT
 10
0.0
 20
0.0
 30
0.0
  9
$PUCSORGBACK
 10
0.0
 20
0.0
 30
0.0
  9
$USERI1
 70
     0
  9
$USERI2
 70
     0
  9
$USERI3
 70
     0
  9
$USERI4
 70
     0
  9
$USERI5
 70
     0
  9
$USERR1
 40
0.0
  9
$USERR2
 40
0.0
  9
$USERR3
 40
0.0
  9
$USERR4
 40
0.0
  9
$USERR5
 40
0.0
  9
$WORLDVIEW
 70
     1
  9
$SHADEDGE
 70
     3
  9
$SHADEDIF
 70
    70
  9
$TILEMODE
 70
     1
  9
$MAXACTVP
 70
    64
  9
$PINSBASE
 10
0.0
 20
0.0
 30
0.0
  9
$PLIMCHECK
 70
     0
  9
$PEXTMIN
 10
1.000000000000000E+20
 20
1.000000000000000E+20
 30
1.000000000000000E+20
  9
$PEXTMAX
 10
-1.000000000000000E+20
 20
-1.000000000000000E+20
 30
-1.000000000000000E+20
  9
$PLIMMIN
 10
0.0
 20
0.0
  9
$PLIMMAX
 10
12.0
 20
9.0
  9
$UNITMODE
 70
     0
  9
$VISRETAIN
 70
     1
  9
$PLINEGEN
 70
     0
  9
$PSLTSCALE
 70
     1
  9
$TREEDEPTH
 70
  3020
  9
$CMLSTYLE
  2
Standard
  9
$CMLJUST
 70
     0
  9
$CMLSCALE
 40
1.0
  9
$PROXYGRAPHICS
 70
     1
  9
$MEASUREMENT
 70
     0
  9
$CELWEIGHT
370
    -1
  9
$ENDCAPS
280
     0
  9
$JOINSTYLE
280
     0
  9
$LWDISPLAY
290
     1
  9
$INSUNITS
 70
     1
  9
$HYPERLINKBASE
  1

  9
$STYLESHEET
  1

  9
$XEDIT
290
     1
  9
$CEPSNTYPE
380
     0
  9
$PSTYLEMODE
290
     1
  9
$FINGERPRINTGUID
  2
{9F1F3EC7-6ADE-AF4A-5D0B-FFC5CE8D2AD0}
  9
$VERSIONGUID
  2
{FAEB1C32-E019-11D5-929B-00C0DF256EC4}
  9
$EXTNAMES
290
     1
  9
$PSVPSCALE
 40
0.0
  9
$OLESTARTUP
290
     0
  9
$SORTENTS
280
   127
  9
$INDEXCTL
280
     0
  9
$HIDETEXT
280
     1
  9
$XCLIPFRAME
280
     2
  9
$HALOGAP
280
     0
  9
$OBSCOLOR
 70
   257
  9
$OBSLTYPE
280
     0
  9
$INTERSECTIONDISPLAY
280
     0
  9
$INTERSECTIONCOLOR
 70
   257
  9
$DIMASSOC
280
     2
  9
$PROJECTNAME
  1

  9
$CAMERADISPLAY
290
     0
  9
$LENSLENGTH
 40
50.0
  9
$CAMERAHEIGHT
 40
0.0
  9
$STEPSPERSEC
 40
2.0
  9
$STEPSIZE
 40
6.0
  9
$3DDWFPREC
 40
2.0
  9
$PSOLWIDTH
 40
0.25
  9
$PSOLHEIGHT
 40
4.0
  9
$LOFTANG1
 40
1.570796326794897
  9
$LOFTANG2
 40
1.570796326794897
  9
$LOFTMAG1
 40
0.0
  9
$LOFTMAG2
 40
0.0
  9
$LOFTPARAM
 70
     7
  9
$LOFTNORMALS
280
     1
  9
$LATITUDE
 40
37.795
  9
$LONGITUDE
 40
-122.394
  9
$NORTHDIRECTION
 40
0.0
  9
$TIMEZONE
 70
 -8000
  9
$LIGHTGLYPHDISPLAY
280
     1
  9
$TILEMODELIGHTSYNCH
280
     1
  9
$CMATERIAL
347
3C
  9
$SOLIDHIST
280
     1
  9
$SHOWHIST
280
     1
  9
$DWFFRAME
280
     2
  9
$DGNFRAME
280
     2
  9
$REALWORLDSCALE
290
     1
  9
$INTERFERECOLOR
 62
   256
  9
$CSHADOW
280
     0
  9
$SHADOWPLANELOCATION
 40
0.0
  0
ENDSEC
  0
SECTION
  2
CLASSES
  0
CLASS
  1
ACDBDICTIONARYWDFLT
  2
AcDbDictionaryWithDefault
  3
ObjectDBX Classes
 90
        0
 91
        4
280
     0
281
     0
  0
CLASS
  1
VISUALSTYLE
  2
AcDbVisualStyle
  3
ObjectDBX Classes
 90
     4095
 91
        4
280
     0
281
     0
  0
CLASS
  1
MATERIAL
  2
AcDbMaterial
  3
ObjectDBX Classes
 90
     1153
 91
        4
280
     0
281
     0
  0
CLASS
  1
SUN
  2
AcDbSun
  3
SCENEOE
 90
     1024
 91
        4
280
     0
281
     0
  0
ENDSEC
  0
SECTION
  2
TABLES
  0
TABLE
  2
VPORT
  5
8
330
0
100
AcDbSymbolTable
 70
     1
  0
VPORT
  5
29
330
8
100
AcDbSymbolTableRecord
100
AcDbViewportTableRecord
  2
*Active
 70
     0
 10
0.0
 20
0.0
 11
1.0
 21
1.0
 12
0.0
 22
0.0
 13
0.0
 23
0.0
 14
0.5
 24
0.5
 15
0.5
 25
0.5
 16
0.0
 26
0.0
 36
1.0
 17
91.00082462281999
 27
-128.4993055234307
 37
0.0
 40
256.9986110468615
 41
0.7081814508812795
 42
50.0
 43
0.0
 44
0.0
 50
0.0
 51
0.0
 71
     0
 72
   100
 73
     1
 74
     3
 75
     0
 76
     0
 77
     0
 78
     0
281
     0
 65
     1
110
0.0
120
0.0
130
0.0
111
1.0
121
0.0
131
0.0
112
0.0
122
1.0
132
0.0
 79
     0
146
0.0
 60
     3
 61
     5
292
     1
282
     1
141
0.0
142
0.0
 63
   250
361
3F
  0
ENDTAB
  0
TABLE
  2
LTYPE
  5
5
330
0
100
AcDbSymbolTable
 70
     2
  0
LTYPE
  5
14
330
5
100
AcDbSymbolTableRecord
100
AcDbLinetypeTableRecord
  2
ByBlock
 70
     0
  3

 72
    65
 73
     0
 40
0.0
  0
LTYPE
  5
15
330
5
100
AcDbSymbolTableRecord
100
AcDbLinetypeTableRecord
  2
ByLayer
 70
     0
  3

 72
    65
 73
     0
 40
0.0
  0
LTYPE
  5
16
330
5
100
AcDbSymbolTableRecord
100
AcDbLinetypeTableRecord
  2
Continuous
 70
     0
  3
Solid line
 72
    65
 73
     0
 40
0.0
  0
LTYPE
  5
8C
330
5
100
AcDbSymbolTableRecord
100
AcDbLinetypeTableRecord
  2
AI-Linetype-1
 70
     0
  3
Adobe Illustrator Linetype No. 1
 72
    65
 73
     2
 40
1.411111110758333
 49
0.7055555553791667
 74
     0
 49
-0.7055555553791667
 74
     0
  0
ENDTAB
  0
TABLE
  2
LAYER
  5
2
330
0
100
AcDbSymbolTable
 70
     2
  0
LAYER
  5
10
330
2
100
AcDbSymbolTableRecord
100
AcDbLayerTableRecord
  2
0
 70
     0
 62
     7
  6
Continuous
370
    -3
390
F
347
3E
  0
LAYER
  5
40
330
2
100
AcDbSymbolTableRecord
100
AcDbLayerTableRecord
  2
_U+30EC_U+30A4_U+30E4_U+30FC 1
 70
     0
 62
     7
  6
Continuous
370
    -3
390
F
347
3E
  0
ENDTAB
  0
TABLE
  2
STYLE
  5
3
330
0
100
AcDbSymbolTable
 70
     1
  0
STYLE
  5
11
330
3
100
AcDbSymbolTableRecord
100
AcDbTextStyleTableRecord
  2
Standard
 70
     0
 40
0.0
 41
1.0
 50
0.0
 71
     0
 42
0.2
  3
txt
  4

  0
ENDTAB
  0
TABLE
  2
VIEW
  5
6
330
0
100
AcDbSymbolTable
 70
     0
  0
ENDTAB
  0
TABLE
  2
UCS
  5
7
330
0
100
AcDbSymbolTable
 70
     0
  0
ENDTAB
  0
TABLE
  2
APPID
  5
9
330
0
100
AcDbSymbolTable
 70
     1
  0
APPID
  5
12
330
9
100
AcDbSymbolTableRecord
100
AcDbRegAppTableRecord
  2
ACAD
 70
     0
  0
ENDTAB
  0
TABLE
  2
DIMSTYLE
  5
A
330
0
100
AcDbSymbolTable
 70
     1
100
AcDbDimStyleTable
  0
DIMSTYLE
105
27
330
A
100
AcDbSymbolTableRecord
100
AcDbDimStyleTableRecord
  2
Standard
 70
     0
178
     0
340
11
  0
ENDTAB
  0
TABLE
  2
BLOCK_RECORD
  5
1
330
0
100
AcDbSymbolTable
 70
     5
  0
BLOCK_RECORD
  5
1F
330
1
100
AcDbSymbolTableRecord
100
AcDbBlockTableRecord
  2
*Model_Space
340
22
 70
     0
280
     1
281
     0
  0
BLOCK_RECORD
  5
1B
330
1
100
AcDbSymbolTableRecord
100
AcDbBlockTableRecord
  2
*Paper_Space
340
1E
 70
     0
280
     1
281
     0
  0
BLOCK_RECORD
  5
23
330
1
100
AcDbSymbolTableRecord
100
AcDbBlockTableRecord
  2
*Paper_Space0
340
26
 70
     0
280
     1
281
     0
  0
BLOCK_RECORD
  5
41
330
1
100
AcDbSymbolTableRecord
100
AcDbBlockTableRecord
  2
block 2
340
0
102
{BLKREFS
331
42
102
}
 70
     0
280
     1
281
     0
  0
BLOCK_RECORD
  5
6E
330
1
100
AcDbSymbolTableRecord
100
AcDbBlockTableRecord
  2
block 3
340
0
102
{BLKREFS
331
6F
102
}
 70
     0
280
     1
281
     0
  0
BLOCK_RECORD
  5
82
330
1
100
AcDbSymbolTableRecord
100
AcDbBlockTableRecord
  2
block 4
340
0
102
{BLKREFS
331
83
102
}
 70
     0
280
     1
281
     0
  0
BLOCK_RECORD
  5
9A
330
1
100
AcDbSymbolTableRecord
100
AcDbBlockTableRecord
  2
block 5
340
0
102
{BLKREFS
331
9B
102
}
 70
     0
280
     1
281
     0
  0
ENDTAB
  0
ENDSEC
  0
SECTION
  2
BLOCKS
  0
BLOCK
  5
20
330
1F
100
AcDbEntity
  8
0
100
AcDbBlockBegin
  2
*Model_Space
 70
     0
 10
0.0
 20
0.0
 30
0.0
  3
*Model_Space
  1

  0
ENDBLK
  5
21
330
1F
100
AcDbEntity
  8
0
100
AcDbBlockEnd
  0
BLOCK
  5
1C
330
1B
100
AcDbEntity
 67
     1
  8
0
100
AcDbBlockBegin
  2
*Paper_Space
 70
     0
 10
0.0
 20
0.0
 30
0.0
  3
*Paper_Space
  1

  0
ENDBLK
  5
1D
330
1B
100
AcDbEntity
 67
     1
  8
0
100
AcDbBlockEnd
  0
BLOCK
  5
24
330
23
100
AcDbEntity
  8
0
100
AcDbBlockBegin
  2
*Paper_Space0
 70
     0
 10
0.0
 20
0.0
 30
0.0
  3
*Paper_Space0
  1

  0
ENDBLK
  5
25
330
23
100
AcDbEntity
  8
0
100
AcDbBlockEnd
  0
BLOCK
  5
43
330
41
100
AcDbEntity
  8
0
100
AcDbBlockBegin
  2
block 2
 70
     0
 10
0.0
 20
0.0
 30
0.0
  3
block 2
  1

  0
POLYLINE
  5
45
330
41
100
AcDbEntity
  8
_U+30EC_U+30A4_U+30E4_U+30FC 1
 62
   179
420
  2234388
370
    25
100
AcDb2dPolyline
 66
     1
 10
0.0
 20
0.0
 30
0.0
  0
VERTEX
  5
46
330
45
100
AcDbEntity
  8
_U+30EC_U+30A4_U+30E4_U+30FC 1
 62
   179
420
  2234388
370
    25
100
AcDbVertex
100
AcDb2dVertex
 10
106.9925936592804
 20
-132.2689124669326
 30
0.0
  0
VERTEX
  5
47
330
45
100
AcDbEntity
  8
_U+30EC_U+30A4_U+30E4_U+30FC 1
 62
   179
420
  2234388
370
    25
100
AcDbVertex
100
AcDb2dVertex
 10
106.9925936592804
 20
-132.7691513556964
 30
0.0
  0
SEQEND
  5
48
330
45
100
AcDbEntity
  8
_U+30EC_U+30A4_U+30E4_U+30FC 1
 62
   179
420
  2234388
370
    25
  0
POLYLINE
  5
49
330
41
100
AcDbEntity
  8
_U+30EC_U+30A4_U+30E4_U+30FC 1
 62
   179
420
  2234388
370
    25
100
AcDb2dPolyline
 66
     1
 10
0.0
 20
0.0
 30
0.0
  0
VERTEX
  5
4A
330
49
100
AcDbEntity
  8
_U+30EC_U+30A4_U+30E4_U+30FC 1
 62
   179
420
  2234388
370
    25
100
AcDbVertex
100
AcDb2dVertex
 10
82.9926987160132
 20
-132.2689124669326
 30
0.0
  0
VERTEX
  5
4B
330
49
100
AcDbEntity
  8
_U+30EC_U+30A4_U+30E4_U+30FC 1
 62
   179
420
  2234388
370
    25
100
AcDbVertex
100
AcDb2dVertex
 10
106.9925936592804
 20
-132.2689124669326
 30
0.0
  0
SEQEND
  5
4C
330
49
100
AcDbEntity
  8
_U+30EC_U+30A4_U+30E4_U+30FC 1
 62
   179
420
  2234388
370
    25
  0
POLYLINE
  5
4D
330
41
100
AcDbEntity
  8
_U+30EC_U+30A4_U+30E4_U+30FC 1
 62
   179
420
  2234388
370
    25
100
AcDb2dPolyline
 66
     1
 10
0.0
 20
0.0
 30
0.0
  0
VERTEX
  5
4E
330
4D
100
AcDbEntity
  8
_U+30EC_U+30A4_U+30E4_U+30FC 1
 62
   179
420
  2234388
370
    25
100
AcDbVertex
100
AcDb2dVertex
 10
106.9925936592804
 20
-132.7691513556964
 30
0.0
  0
VERTEX
  5
4F
330
4D
100
AcDbEntity
  8
_U+30EC_U+30A4_U+30E4_U+30FC 1
 62
   179
420
  2234388
370
    25
100
AcDbVertex
100
AcDb2dVertex
 10
82.80907788736442
 20
-133.2686846889052
 30
0.0
  0
SEQEND
  5
50
330
4D
100
AcDbEntity
  8
_U+30EC_U+30A4_U+30E4_U+30FC 1
 62
   179
420
  2234388
370
    25
  0
POLYLINE
  5
51
330
41
100
AcDbEntity
  8
_U+30EC_U+30A4_U+30E4_U+30FC 1
 62
   179
420
  2234388
370
    25
100
AcDb2dPolyline
 66
     1
 10
0.0
 20
0.0
 30
0.0
  0
VERTEX
  5
52
330
51
100
AcDbEntity
  8
_U+30EC_U+30A4_U+30E4_U+30FC 1
 62
   179
420
  2234388
370
    25
100
AcDbVertex
100
AcDb2dVertex
 10
82.9926987160132
 20
-124.2690766355993
 30
0.0
  0
VERTEX
  5
53
330
51
100
AcDbEntity
  8
_U+30EC_U+30A4_U+30E4_U+30FC 1
 62
   179
420
  2234388
370
    25
100
AcDbVertex
100
AcDb2dVertex
 10
82.9926987160132
 20
-132.2689124669326
 30
0.0
  0
SEQEND
  5
54
330
51
100
AcDbEntity
  8
_U+30EC_U+30A4_U+30E4_U+30FC 1
 62
   179
420
  2234388
370
    25
  0
POLYLINE
  5
55
330
41
100
AcDbEntity
  8
_U+30EC_U+30A4_U+30E4_U+30FC 1
 62
   179
420
  2234388
370
    25
100
AcDb2dPolyline
 66
     1
 10
0.0
 20
0.0
 30
0.0
  0
VERTEX
  5
56
330
55
100
AcDbEntity
  8
_U+30EC_U+30A4_U+30E4_U+30FC 1
 62
   179
420
  2234388
370
    25
100
AcDbVertex
100
AcDb2dVertex
 10
82.49245983988646
 20
-124.2690766355993
 30
0.0
  0
VERTEX
  5
57
330
55
100
AcDbEntity
  8
_U+30EC_U+30A4_U+30E4_U+30FC 1
 62
   179
420
  2234388
370
    25
100
AcDbVertex
100
AcDb2dVertex
 10
82.9926987160132
 20
-124.2690766355993
 30
0.0
  0
SEQEND
  5
58
330
55
100
AcDbEntity
  8
_U+30EC_U+30A4_U+30E4_U+30FC 1
 62
   179
420
  2234388
370
    25
  0
POLYLINE
  5
59
330
41
100
AcDbEntity
  8
_U+30EC_U+30A4_U+30E4_U+30FC 1
 62
   179
420
  2234388
370
    25
100
AcDb2dPolyline
 66
     1
 10
0.0
 20
0.0
 30
0.0
  0
VERTEX
  5
5A
330
59
100
AcDbEntity
  8
_U+30EC_U+30A4_U+30E4_U+30FC 1
 62
   179
420
  2234388
370
    25
100
AcDbVertex
100
AcDb2dVertex
 10
82.49245983988646
 20
-124.2690766355993
 30
0.0
  0
VERTEX
  5
5B
330
59
100
AcDbEntity
  8
_U+30EC_U+30A4_U+30E4_U+30FC 1
 62
   179
420
  2234388
370
    25
100
AcDbVertex
100
AcDb2dVertex
 10
81.99394957482674
 20
-132.4201835780058
 30
0.0
  0
SEQEND
  5
5C
330
59
100
AcDbEntity
  8
_U+30EC_U+30A4_U+30E4_U+30FC 1
 62
   179
420
  2234388
370
    25
  0
SPLINE
  5
5D
330
41
100
AcDbEntity
  8
_U+30EC_U+30A4_U+30E4_U+30FC 1
 62
   179
420
  2234388
370
    25
100
AcDbSpline
210
0.0
220
0.0
230
1.0
 70
     8
 71
     3
 72
    11
 73
     7
 74
     0
 42
0.0000000001
 43
0.0000000001
 12
1.0
 22
0.0
 32
0.0
 13
1.0
 23
0.0
 33
0.0
 40
0.0
 40
0.0
 40
0.0
 40
0.0
 40
1.0
 40
1.0
 40
1.0
 40
2.0
 40
2.0
 40
2.0
 40
2.0
 10
81.99394957482674
 20
-132.4201835780058
 30
0.0
 10
81.96675040885398
 20
-132.8611558001178
 30
0.0
 10
82.3026301225072
 20
-133.24046246669
 30
0.0
 10
82.74360233347929
 20
-133.2673088555723
 30
0.0
 10
82.76533344403599
 20
-133.2686846889052
 30
0.0
 10
82.7873820545846
 20
-133.2693902444607
 30
0.0
 10
82.80907788736442
 20
-133.2686846889052
 30
0.0
  0
SPLINE
  5
5E
330
41
100
AcDbEntity
  8
_U+30EC_U+30A4_U+30E4_U+30FC 1
 62
   179
420
  2234388
370
     9
100
AcDbSpline
210
0.0
220
0.0
230
1.0
 70
    11
 71
     3
 72
    17
 73
    13
 74
     0
 42
0.0000000001
 43
0.0000000001
 12
1.0
 22
0.0
 32
0.0
 13
1.0
 23
0.0
 33
0.0
 40
0.0
 40
0.0
 40
0.0
 40
0.0
 40
1.0
 40
1.0
 40
1.0
 40
2.0
 40
2.0
 40
2.0
 40
3.0
 40
3.0
 40
3.0
 40
4.0
 40
4.0
 40
4.0
 40
4.0
 10
107.0925003233983
 20
-137.2691494101269
 30
0.0
 10
107.0925003233983
 20
-137.2136574656967
 30
0.0
 10
107.0477328245404
 20
-137.1688899657075
 30
0.0
 10
106.9925936592804
 20
-137.1688899657075
 30
0.0
 10
106.9374897717973
 20
-137.1688899657075
 30
0.0
 10
106.8926869951626
 20
-137.2136574656967
 30
0.0
 10
106.8926869951626
 20
-137.2691494101269
 30
0.0
 10
106.8926869951626
 20
-137.3242532990025
 30
0.0
 10
106.9374897717973
 20
-137.3690560767686
 30
0.0
 10
106.9925936592804
 20
-137.3690560767686
 30
0.0
 10
107.0477328245404
 20
-137.3690560767686
 30
0.0
 10
107.0925003233983
 20
-137.3242532990025
 30
0.0
 10
107.0925003233983
 20
-137.2691494101269
 30
0.0
  0
SPLINE
  5
5F
330
41
100
AcDbEntity
  8
_U+30EC_U+30A4_U+30E4_U+30FC 1
 62
   179
420
  2234388
370
     9
100
AcDbSpline
210
0.0
220
0.0
230
1.0
 70
    11
 71
     3
 72
    17
 73
    13
 74
     0
 42
0.0000000001
 43
0.0000000001
 12
1.0
 22
0.0
 32
0.0
 13
1.0
 23
0.0
 33
0.0
 40
0.0
 40
0.0
 40
0.0
 40
0.0
 40
1.0
 40
1.0
 40
1.0
 40
2.0
 40
2.0
 40
2.0
 40
3.0
 40
3.0
 40
3.0
 40
4.0
 40
4.0
 40
4.0
 40
4.0
 10
78.09240384103013
 20
-133.2690374666829
 30
0.0
 10
78.09240384103013
 20
-133.2135808000303
 30
0.0
 10
78.04760106439537
 20
-133.1691308000413
 30
0.0
 10
77.9924971769123
 20
-133.1691308000413
 30
0.0
 10
77.93735801165235
 20
-133.1691308000413
 30
0.0
 10
77.89259051279446
 20
-133.2135808000303
 30
0.0
 10
77.89259051279446
 20
-133.2690374666829
 30
0.0
 10
77.89259051279446
 20
-133.3241766333354
 30
0.0
 10
77.93735801165235
 20
-133.3689441333246
 30
0.0
 10
77.9924971769123
 20
-133.3689441333246
 30
0.0
 10
78.04760106439537
 20
-133.3689441333246
 30
0.0
 10
78.09240384103013
 20
-133.3241766333354
 30
0.0
 10
78.09240384103013
 20
-133.2690374666829
 30
0.0
  0
SPLINE
  5
60
330
41
100
AcDbEntity
  8
_U+30EC_U+30A4_U+30E4_U+30FC 1
 62
   179
420
  2234388
370
     9
100
AcDbSpline
210
0.0
220
0.0
230
1.0
 70
    11
 71
     3
 72
    17
 73
    13
 74
     0
 42
0.0000000001
 43
0.0000000001
 12
1.0
 22
0.0
 32
0.0
 13
1.0
 23
0.0
 33
0.0
 40
0.0
 40
0.0
 40
0.0
 40
0.0
 40
1.0
 40
1.0
 40
1.0
 40
2.0
 40
2.0
 40
2.0
 40
3.0
 40
3.0
 40
3.0
 40
4.0
 40
4.0
 40
4.0
 40
4.0
 10
82.09248040564634
 20
-137.2691494101269
 30
0.0
 10
82.09248040564634
 20
-137.2136574656967
 30
0.0
 10
82.04771290678846
 20
-137.1688899657075
 30
0.0
 10
81.99222096375973
 20
-137.1688899657075
 30
0.0
 10
81.93711707627666
 20
-137.1688899657075
 30
0.0
 10
81.8923142996419
 20
-137.2136574656967
 30
0.0
 10
81.8923142996419
 20
-137.2691494101269
 30
0.0
 10
81.8923142996419
 20
-137.3242532990025
 30
0.0
 10
81.93711707627666
 20
-137.3690560767686
 30
0.0
 10
81.99222096375973
 20
-137.3690560767686
 30
0.0
 10
82.04771290678846
 20
-137.3690560767686
 30
0.0
 10
82.09248040564634
 20
-137.3242532990025
 30
0.0
 10
82.09248040564634
 20
-137.2691494101269
 30
0.0
  0
SPLINE
  5
61
330
41
100
AcDbEntity
  8
_U+30EC_U+30A4_U+30E4_U+30FC 1
 62
   179
420
  2234388
370
     9
100
AcDbSpline
210
0.0
220
0.0
230
1.0
 70
    11
 71
     3
 72
    17
 73
    13
 74
     0
 42
0.0000000001
 43
0.0000000001
 12
1.0
 22
0.0
 32
0.0
 13
1.0
 23
0.0
 33
0.0
 40
0.0
 40
0.0
 40
0.0
 40
0.0
 40
1.0
 40
1.0
 40
1.0
 40
2.0
 40
2.0
 40
2.0
 40
3.0
 40
3.0
 40
3.0
 40
4.0
 40
4.0
 40
4.0
 40
4.0
 10
78.09240384103013
 20
-124.2690766355993
 30
0.0
 10
78.09240384103013
 20
-124.2136199689466
 30
0.0
 10
78.04760106439537
 20
-124.1688171911799
 30
0.0
 10
77.9924971769123
 20
-124.1688171911799
 30
0.0
 10
77.93735801165235
 20
-124.1688171911799
 30
0.0
 10
77.89259051279446
 20
-124.2136199689466
 30
0.0
 10
77.89259051279446
 20
-124.2690766355993
 30
0.0
 10
77.89259051279446
 20
-124.3241805244745
 30
0.0
 10
77.93735801165235
 20
-124.3689833022412
 30
0.0
 10
77.9924971769123
 20
-124.3689833022412
 30
0.0
 10
78.04760106439537
 20
-124.3689833022412
 30
0.0
 10
78.09240384103013
 20
-124.3241805244745
 30
0.0
 10
78.09240384103013
 20
-124.2690766355993
 30
0.0
  0
POLYLINE
  5
62
330
41
100
AcDbEntity
  8
_U+30EC_U+30A4_U+30E4_U+30FC 1
 62
   179
420
  2234388
370
     9
100
AcDb2dPolyline
 66
     1
 10
0.0
 20
0.0
 30
0.0
  0
VERTEX
  5
63
330
62
100
AcDbEntity
  8
_U+30EC_U+30A4_U+30E4_U+30FC 1
 62
   179
420
  2234388
370
     9
100
AcDbVertex
100
AcDb2dVertex
 10
81.99222096375973
 20
-137.2691494101269
 30
0.0
  0
VERTEX
  5
64
330
62
100
AcDbEntity
  8
_U+30EC_U+30A4_U+30E4_U+30FC 1
 62
   179
420
  2234388
370
     9
100
AcDbVertex
100
AcDb2dVertex
 10
106.9925936592804
 20
-137.2691494101269
 30
0.0
  0
SEQEND
  5
65
330
62
100
AcDbEntity
  8
_U+30EC_U+30A4_U+30E4_U+30FC 1
 62
   179
420
  2234388
370
     9
  0
POLYLINE
  5
66
330
41
100
AcDbEntity
  8
_U+30EC_U+30A4_U+30E4_U+30FC 1
 62
   179
420
  2234388
370
     9
100
AcDb2dPolyline
 66
     1
 10
0.0
 20
0.0
 30
0.0
  0
VERTEX
  5
67
330
66
100
AcDbEntity
  8
_U+30EC_U+30A4_U+30E4_U+30FC 1
 62
   179
420
  2234388
370
     9
100
AcDbVertex
100
AcDb2dVertex
 10
81.99222096375973
 20
-135.0091491329146
 30
0.0
  0
VERTEX
  5
68
330
66
100
AcDbEntity
  8
_U+30EC_U+30A4_U+30E4_U+30FC 1
 62
   179
420
  2234388
370
     9
100
AcDbVertex
100
AcDb2dVertex
 10
81.99222096375973
 20
-138.2689216320995
 30
0.0
  0
SEQEND
  5
69
330
66
100
AcDbEntity
  8
_U+30EC_U+30A4_U+30E4_U+30FC 1
 62
   179
420
  2234388
370
     9
  0
POLYLINE
  5
6A
330
41
100
AcDbEntity
  8
_U+30EC_U+30A4_U+30E4_U+30FC 1
 62
   179
420
  2234388
370
     9
100
AcDb2dPolyline
 66
     1
 10
0.0
 20
0.0
 30
0.0
  0
VERTEX
  5
6B
330
6A
100
AcDbEntity
  8
_U+30EC_U+30A4_U+30E4_U+30FC 1
 62
   179
420
  2234388
370
     9
100
AcDbVertex
100
AcDb2dVertex
 10
106.9925936592804
 20
-135.3088691328395
 30
0.0
  0
VERTEX
  5
6C
330
6A
100
AcDbEntity
  8
_U+30EC_U+30A4_U+30E4_U+30FC 1
 62
   179
420
  2234388
370
     9
100
AcDbVertex
100
AcDb2dVertex
 10
106.9925936592804
 20
-138.2689216320995
 30
0.0
  0
SEQEND
  5
6D
330
6A
100
AcDbEntity
  8
_U+30EC_U+30A4_U+30E4_U+30FC 1
 62
   179
420
  2234388
370
     9
  0
INSERT
  5
6F
330
41
100
AcDbEntity
  8
_U+30EC_U+30A4_U+30E4_U+30FC 1
100
AcDbBlockReference
  2
block 3
 10
0.0
 20
0.0
 30
0.0
  0
POLYLINE
  5
76
330
41
100
AcDbEntity
  8
_U+30EC_U+30A4_U+30E4_U+30FC 1
 62
   179
420
  2234388
370
     9
100
AcDb2dPolyline
 66
     1
 10
0.0
 20
0.0
 30
0.0
  0
VERTEX
  5
77
330
76
100
AcDbEntity
  8
_U+30EC_U+30A4_U+30E4_U+30FC 1
 62
   179
420
  2234388
370
     9
100
AcDbVertex
100
AcDb2dVertex
 10
77.9924971769123
 20
-133.2690374666829
 30
0.0
  0
VERTEX
  5
78
330
76
100
AcDbEntity
  8
_U+30EC_U+30A4_U+30E4_U+30FC 1
 62
   179
420
  2234388
370
     9
100
AcDbVertex
100
AcDb2dVertex
 10
77.9924971769123
 20
-124.2690766355993
 30
0.0
  0
SEQEND
  5
79
330
76
100
AcDbEntity
  8
_U+30EC_U+30A4_U+30E4_U+30FC 1
 62
   179
420
  2234388
370
     9
  0
POLYLINE
  5
7A
330
41
100
AcDbEntity
  8
_U+30EC_U+30A4_U+30E4_U+30FC 1
 62
   179
420
  2234388
370
     9
100
AcDb2dPolyline
 66
     1
 10
0.0
 20
0.0
 30
0.0
  0
VERTEX
  5
7B
330
7A
100
AcDbEntity
  8
_U+30EC_U+30A4_U+30E4_U+30FC 1
 62
   179
420
  2234388
370
     9
100
AcDbVertex
100
AcDb2dVertex
 10
80.25246211925578
 20
-133.2690374666829
 30
0.0
  0
VERTEX
  5
7C
330
7A
100
AcDbEntity
  8
_U+30EC_U+30A4_U+30E4_U+30FC 1
 62
   179
420
  2234388
370
     9
100
AcDbVertex
100
AcDb2dVertex
 10
76.99272498019639
 20
-133.2690374666829
 30
0.0
  0
SEQEND
  5
7D
330
7A
100
AcDbEntity
  8
_U+30EC_U+30A4_U+30E4_U+30FC 1
 62
   179
420
  2234388
370
     9
  0
POLYLINE
  5
7E
330
41
100
AcDbEntity
  8
_U+30EC_U+30A4_U+30E4_U+30FC 1
 62
   179
420
  2234388
370
     9
100
AcDb2dPolyline
 66
     1
 10
0.0
 20
0.0
 30
0.0
  0
VERTEX
  5
7F
330
7E
100
AcDbEntity
  8
_U+30EC_U+30A4_U+30E4_U+30FC 1
 62
   179
420
  2234388
370
     9
100
AcDbVertex
100
AcDb2dVertex
 10
79.9523893491335
 20
-124.2690766355993
 30
0.0
  0
VERTEX
  5
80
330
7E
100
AcDbEntity
  8
_U+30EC_U+30A4_U+30E4_U+30FC 1
 62
   179
420
  2234388
370
     9
100
AcDbVertex
100
AcDb2dVertex
 10
76.99272498019639
 20
-124.2690766355993
 30
0.0
  0
SEQEND
  5
81
330
7E
100
AcDbEntity
  8
_U+30EC_U+30A4_U+30E4_U+30FC 1
 62
   179
420
  2234388
370
     9
  0
INSERT
  5
83
330
41
100
AcDbEntity
  8
_U+30EC_U+30A4_U+30E4_U+30FC 1
100
AcDbBlockReference
  2
block 4
 10
0.0
 20
0.0
 30
0.0
  0
POLYLINE
  5
89
330
41
100
AcDbEntity
  8
_U+30EC_U+30A4_U+30E4_U+30FC 1
  6
AI-Linetype-1
 62
   154
420
    23468
370
    25
100
AcDb2dPolyline
 66
     1
 10
0.0
 20
0.0
 30
0.0
  0
VERTEX
  5
8A
330
89
100
AcDbEntity
  8
_U+30EC_U+30A4_U+30E4_U+30FC 1
  6
AI-Linetype-1
 62
   154
420
    23468
370
    25
100
AcDbVertex
100
AcDb2dVertex
 10
96.91775447186653
 20
-131.6219533004278
 30
0.0
  0
VERTEX
  5
8B
330
89
100
AcDbEntity
  8
_U+30EC_U+30A4_U+30E4_U+30FC 1
  6
AI-Linetype-1
 62
   154
420
    23468
370
    25
100
AcDbVertex
100
AcDb2dVertex
 10
106.9174872723077
 20
-131.6219533004278
 30
0.0
  0
SEQEND
  5
8D
330
89
100
AcDbEntity
  8
_U+30EC_U+30A4_U+30E4_U+30FC 1
  6
AI-Linetype-1
 62
   154
420
    23468
370
    25
  0
POLYLINE
  5
8E
330
41
100
AcDbEntity
  8
_U+30EC_U+30A4_U+30E4_U+30FC 1
 62
   179
420
  2234388
370
     9
100
AcDb2dPolyline
 66
     1
 10
0.0
 20
0.0
 30
0.0
  0
VERTEX
  5
8F
330
8E
100
AcDbEntity
  8
_U+30EC_U+30A4_U+30E4_U+30FC 1
 62
   179
420
  2234388
370
     9
100
AcDbVertex
100
AcDb2dVertex
 10
98.96210164193312
 20
-131.1217144116641
 30
0.0
  0
VERTEX
  5
90
330
8E
100
AcDbEntity
  8
_U+30EC_U+30A4_U+30E4_U+30FC 1
 62
   179
420
  2234388
370
     9
100
AcDbVertex
100
AcDb2dVertex
 10
99.22047607978588
 20
-130.1557030230164
 30
0.0
  0
SEQEND
  5
91
330
8E
100
AcDbEntity
  8
_U+30EC_U+30A4_U+30E4_U+30FC 1
 62
   179
420
  2234388
370
     9
  0
POLYLINE
  5
92
330
41
100
AcDbEntity
  8
_U+30EC_U+30A4_U+30E4_U+30FC 1
 62
   179
420
  2234388
370
     9
100
AcDb2dPolyline
 66
     1
 10
0.0
 20
0.0
 30
0.0
  0
VERTEX
  5
93
330
92
100
AcDbEntity
  8
_U+30EC_U+30A4_U+30E4_U+30FC 1
 62
   179
420
  2234388
370
     9
100
AcDbVertex
100
AcDb2dVertex
 10
98.96210164193312
 20
-131.1217144116641
 30
0.0
  0
VERTEX
  5
94
330
92
100
AcDbEntity
  8
_U+30EC_U+30A4_U+30E4_U+30FC 1
 62
   179
420
  2234388
370
     9
100
AcDbVertex
100
AcDb2dVertex
 10
98.96210164193312
 20
-121.7462216362301
 30
0.0
  0
SEQEND
  5
95
330
92
100
AcDbEntity
  8
_U+30EC_U+30A4_U+30E4_U+30FC 1
 62
   179
420
  2234388
370
     9
  0
POLYLINE
  5
96
330
41
100
AcDbEntity
  8
_U+30EC_U+30A4_U+30E4_U+30FC 1
 62
   179
420
  2234388
370
     9
100
AcDb2dPolyline
 66
     1
 10
0.0
 20
0.0
 30
0.0
  0
VERTEX
  5
97
330
96
100
AcDbEntity
  8
_U+30EC_U+30A4_U+30E4_U+30FC 1
 62
   179
420
  2234388
370
     9
100
AcDbVertex
100
AcDb2dVertex
 10
98.96210164193312
 20
-131.1217144116641
 30
0.0
  0
VERTEX
  5
98
330
96
100
AcDbEntity
  8
_U+30EC_U+30A4_U+30E4_U+30FC 1
 62
   179
420
  2234388
370
     9
100
AcDbVertex
100
AcDb2dVertex
 10
98.7030216485428
 20
-130.1557030230164
 30
0.0
  0
SEQEND
  5
99
330
96
100
AcDbEntity
  8
_U+30EC_U+30A4_U+30E4_U+30FC 1
 62
   179
420
  2234388
370
     9
  0
INSERT
  5
9B
330
41
100
AcDbEntity
  8
_U+30EC_U+30A4_U+30E4_U+30FC 1
100
AcDbBlockReference
  2
block 5
 10
0.0
 20
0.0
 30
0.0
  0
ENDBLK
  5
44
330
41
100
AcDbEntity
  8
0
100
AcDbBlockEnd
  0
BLOCK
  5
70
330
6E
100
AcDbEntity
  8
0
100
AcDbBlockBegin
  2
block 3
 70
     0
 10
0.0
 20
0.0
 30
0.0
  3
block 3
  1

  0
SPLINE
  5
72
330
6E
100
AcDbEntity
  8
_U+30EC_U+30A4_U+30E4_U+30FC 1
370
     0
100
AcDbSpline
210
0.0
220
0.0
230
1.0
 70
    11
 71
     3
 72
    44
 73
    40
 74
     0
 42
0.0000000001
 43
0.0000000001
 12
1.0
 22
0.0
 32
0.0
 13
1.0
 23
0.0
 33
0.0
 40
0.0
 40
0.0
 40
0.0
 40
0.0
 40
1.0
 40
1.0
 40
1.0
 40
2.0
 40
2.0
 40
2.0
 40
3.0
 40
3.0
 40
3.0
 40
4.0
 40
4.0
 40
4.0
 40
5.0
 40
5.0
 40
5.0
 40
6.0
 40
6.0
 40
6.0
 40
7.0
 40
7.0
 40
7.0
 40
8.0
 40
8.0
 40
8.0
 40
9.0
 40
9.0
 40
9.0
 40
10.0
 40
10.0
 40
10.0
 40
11.0
 40
11.0
 40
11.0
 40
12.0
 40
12.0
 40
12.0
 40
13.0
 40
13.0
 40
13.0
 40
13.0
 10
93.96739092702899
 20
-135.9734401786802
 30
0.0
 10
93.7345024722261
 20
-136.1322590805503
 30
0.0
 10
93.63493921270238
 20
-136.2063286334831
 30
0.0
 10
93.58326278042364
 20
-136.3499891152181
 30
0.0
 10
93.58326278042364
 20
-136.3499891152181
 30
0.0
 10
94.41490883056295
 20
-136.3499891152181
 30
0.0
 10
94.41490883056295
 20
-136.3499891152181
 30
0.0
 10
94.41490883056295
 20
-136.3499891152181
 30
0.0
 10
94.41490883056295
 20
-136.555316806139
 30
0.0
 10
94.41490883056295
 20
-136.555316806139
 30
0.0
 10
94.41490883056295
 20
-136.555316806139
 30
0.0
 10
93.31626788031677
 20
-136.555316806139
 30
0.0
 10
93.31626788031677
 20
-136.555316806139
 30
0.0
 10
93.35037432562075
 20
-136.19771589477
 30
0.0
 10
93.42030976397132
 20
-136.1195122272549
 30
0.0
 10
93.83165416491015
 20
-135.8211669582322
 30
0.0
 10
94.10519474643898
 20
-135.6223849487333
 30
0.0
 10
94.17547469433808
 20
-135.5545165676739
 30
0.0
 10
94.17547469433808
 20
-135.4170572578124
 30
0.0
 10
94.17547469433808
 20
-135.2985459731198
 30
0.0
 10
94.09864906501701
 20
-135.1676323446803
 30
0.0
 10
93.88815373086824
 20
-135.1676323446803
 30
0.0
 10
93.61013452520858
 20
-135.1676323446803
 30
0.0
 10
93.60117727694693
 20
-135.3981092326435
 30
0.0
 10
93.5966986528161
 20
-135.514553460045
 30
0.0
 10
93.5966986528161
 20
-135.514553460045
 30
0.0
 10
93.35692000704272
 20
-135.514553460045
 30
0.0
 10
93.35692000704272
 20
-135.514553460045
 30
0.0
 10
93.3662217648529
 20
-135.3874294366393
 30
0.0
 10
93.37724607040569
 20
-135.2754638333686
 30
0.0
 10
93.46337345753693
 20
-135.1569525486761
 30
0.0
 10
93.58085121358395
 20
-134.9960665895149
 30
0.0
 10
93.77963322308287
 20
-134.9623046537594
 30
0.0
 10
93.90400117010039
 20
-134.9623046537594
 30
0.0
 10
94.20027938183188
 20
-134.9623046537594
 30
0.0
 10
94.42179902153345
 20
-135.1462727526718
 30
0.0
 10
94.42179902153345
 20
-135.4191243151035
 30
0.0
 10
94.42179902153345
 20
-135.6478786553241
 30
0.0
 10
94.29743107451593
 20
-135.7470974052993
 30
0.0
 10
93.96739092702899
 20
-135.9734401786802
 30
0.0
  0
HATCH
  5
73
330
6E
100
AcDbEntity
  8
_U+30EC_U+30A4_U+30E4_U+30FC 1
 62
   179
420
  2234388
100
AcDbHatch
 10
0.0
 20
0.0
 30
0.0
210
0.0
220
0.0
230
1.0
  2
SOLID
 70
     1
 71
     0
 91
        1
 92
        1
 93
        1
 72
     4
 94
        3
 73
     0
 74
     1
 95
       44
 96
       40
 40
0.0
 40
0.0
 40
0.0
 40
0.0
 40
1.0
 40
1.0
 40
1.0
 40
2.0
 40
2.0
 40
2.0
 40
3.0
 40
3.0
 40
3.0
 40
4.0
 40
4.0
 40
4.0
 40
5.0
 40
5.0
 40
5.0
 40
6.0
 40
6.0
 40
6.0
 40
7.0
 40
7.0
 40
7.0
 40
8.0
 40
8.0
 40
8.0
 40
9.0
 40
9.0
 40
9.0
 40
10.0
 40
10.0
 40
10.0
 40
11.0
 40
11.0
 40
11.0
 40
12.0
 40
12.0
 40
12.0
 40
13.0
 40
13.0
 40
13.0
 40
13.0
 10
93.96739092702899
 20
-135.9734401786802
 10
93.7345024722261
 20
-136.1322590805503
 10
93.63493921270238
 20
-136.2063286334831
 10
93.58326278042364
 20
-136.3499891152181
 10
93.58326278042364
 20
-136.3499891152181
 10
94.41490883056295
 20
-136.3499891152181
 10
94.41490883056295
 20
-136.3499891152181
 10
94.41490883056295
 20
-136.3499891152181
 10
94.41490883056295
 20
-136.555316806139
 10
94.41490883056295
 20
-136.555316806139
 10
94.41490883056295
 20
-136.555316806139
 10
93.31626788031677
 20
-136.555316806139
 10
93.31626788031677
 20
-136.555316806139
 10
93.35037432562075
 20
-136.19771589477
 10
93.42030976397132
 20
-136.1195122272549
 10
93.83165416491015
 20
-135.8211669582322
 10
94.10519474643898
 20
-135.6223849487333
 10
94.17547469433808
 20
-135.5545165676739
 10
94.17547469433808
 20
-135.4170572578124
 10
94.17547469433808
 20
-135.2985459731198
 10
94.09864906501701
 20
-135.1676323446803
 10
93.88815373086824
 20
-135.1676323446803
 10
93.61013452520858
 20
-135.1676323446803
 10
93.60117727694693
 20
-135.3981092326435
 10
93.5966986528161
 20
-135.514553460045
 10
93.5966986528161
 20
-135.514553460045
 10
93.35692000704272
 20
-135.514553460045
 10
93.35692000704272
 20
-135.514553460045
 10
93.3662217648529
 20
-135.3874294366393
 10
93.37724607040569
 20
-135.2754638333686
 10
93.46337345753693
 20
-135.1569525486761
 10
93.58085121358395
 20
-134.9960665895149
 10
93.77963322308287
 20
-134.9623046537594
 10
93.90400117010039
 20
-134.9623046537594
 10
94.20027938183188
 20
-134.9623046537594
 10
94.42179902153345
 20
-135.1462727526718
 10
94.42179902153345
 20
-135.4191243151035
 10
94.42179902153345
 20
-135.6478786553241
 10
94.29743107451593
 20
-135.7470974052993
 10
93.96739092702899
 20
-135.9734401786802
 97
        0
 97
        0
 75
     2
 76
     1
 98
        0
  0
SPLINE
  5
74
330
6E
100
AcDbEntity
  8
_U+30EC_U+30A4_U+30E4_U+30FC 1
370
     0
100
AcDbSpline
210
0.0
220
0.0
230
1.0
 70
    11
 71
     3
 72
    53
 73
    49
 74
     0
 42
0.0000000001
 43
0.0000000001
 12
1.0
 22
0.0
 32
0.0
 13
1.0
 23
0.0
 33
0.0
 40
0.0
 40
0.0
 40
0.0
 40
0.0
 40
1.0
 40
1.0
 40
1.0
 40
2.0
 40
2.0
 40
2.0
 40
3.0
 40
3.0
 40
3.0
 40
4.0
 40
4.0
 40
4.0
 40
5.0
 40
5.0
 40
5.0
 40
6.0
 40
6.0
 40
6.0
 40
7.0
 40
7.0
 40
7.0
 40
8.0
 40
8.0
 40
8.0
 40
9.0
 40
9.0
 40
9.0
 40
10.0
 40
10.0
 40
10.0
 40
11.0
 40
11.0
 40
11.0
 40
12.0
 40
12.0
 40
12.0
 40
13.0
 40
13.0
 40
13.0
 40
14.0
 40
14.0
 40
14.0
 40
15.0
 40
15.0
 40
15.0
 40
16.0
 40
16.0
 40
16.0
 40
16.0
 10
95.105305965807
 20
-136.6059597097721
 30
0.0
 10
95.02193465506396
 20
-136.6059597097721
 30
0.0
 10
94.91306963773008
 20
-136.5890787418944
 30
0.0
 10
94.80489363949323
 20
-136.5256889849658
 30
0.0
 10
94.61920299283825
 20
-136.4157904389863
 30
0.0
 10
94.59680987218414
 20
-136.2845323009983
 30
0.0
 10
94.57648380882117
 20
-136.17670081231
 30
0.0
 10
94.57648380882117
 20
-136.17670081231
 30
0.0
 10
94.81385088775488
 20
-136.17670081231
 30
0.0
 10
94.81385088775488
 20
-136.17670081231
 30
0.0
 10
94.87241751100412
 20
-136.3754828218089
 30
0.0
 10
95.00815427312297
 20
-136.4051106429821
 30
0.0
 10
95.10771753264669
 20
-136.4051106429821
 30
0.0
 10
95.256890167158
 20
-136.4051106429821
 30
0.0
 10
95.4194986740618
 20
-136.3055473834583
 30
0.0
 10
95.4194986740618
 20
-136.073003438204
 30
0.0
 10
95.4194986740618
 20
-135.8170328436499
 30
0.0
 10
95.22760685553338
 20
-135.7470974052993
 30
0.0
 10
95.09876028438504
 20
-135.7470974052993
 30
0.0
 10
95.06465383908106
 20
-135.7470974052993
 30
0.0
 10
94.91306963773008
 20
-135.7470974052993
 30
0.0
 10
94.8183295118857
 20
-135.8762884859962
 30
0.0
 10
94.8183295118857
 20
-135.8762884859962
 30
0.0
 10
94.63057180793959
 20
-135.8573404608273
 30
0.0
 10
94.63057180793959
 20
-135.8573404608273
 30
0.0
 10
94.63057180793959
 20
-135.8573404608273
 30
0.0
 10
94.75941837908793
 20
-135.0108805001015
 30
0.0
 10
94.75941837908793
 20
-135.0108805001015
 30
0.0
 10
94.75941837908793
 20
-135.0108805001015
 30
0.0
 10
95.59140893877576
 20
-135.0108805001015
 30
0.0
 10
95.59140893877576
 20
-135.0108805001015
 30
0.0
 10
95.59140893877576
 20
-135.0108805001015
 30
0.0
 10
95.59140893877576
 20
-135.2055283950181
 30
0.0
 10
95.59140893877576
 20
-135.2055283950181
 30
0.0
 10
95.59140893877576
 20
-135.2055283950181
 30
0.0
 10
94.93374021064157
 20
-135.2055283950181
 30
0.0
 10
94.93374021064157
 20
-135.2055283950181
 30
0.0
 10
94.93374021064157
 20
-135.2055283950181
 30
0.0
 10
94.86346026274248
 20
-135.6285861206067
 30
0.0
 10
94.86346026274248
 20
-135.6285861206067
 30
0.0
 10
94.92891707696222
 20
-135.5948241848513
 30
0.0
 10
95.01711152138462
 20
-135.5545165676739
 30
0.0
 10
95.14389103524181
 20
-135.5545165676739
 30
0.0
 10
95.41502004993097
 20
-135.5545165676739
 30
0.0
 10
95.66823456809684
 20
-135.7408962334259
 30
0.0
 10
95.66823456809684
 20
-136.0540554130351
 30
0.0
 10
95.66823456809684
 20
-136.3713487072266
 30
0.0
 10
95.42880043187198
 20
-136.6059597097721
 30
0.0
 10
95.105305965807
 20
-136.6059597097721
 30
0.0
  0
HATCH
  5
75
330
6E
100
AcDbEntity
  8
_U+30EC_U+30A4_U+30E4_U+30FC 1
 62
   179
420
  2234388
100
AcDbHatch
 10
0.0
 20
0.0
 30
0.0
210
0.0
220
0.0
230
1.0
  2
SOLID
 70
     1
 71
     0
 91
        1
 92
        1
 93
        1
 72
     4
 94
        3
 73
     0
 74
     1
 95
       53
 96
       49
 40
0.0
 40
0.0
 40
0.0
 40
0.0
 40
1.0
 40
1.0
 40
1.0
 40
2.0
 40
2.0
 40
2.0
 40
3.0
 40
3.0
 40
3.0
 40
4.0
 40
4.0
 40
4.0
 40
5.0
 40
5.0
 40
5.0
 40
6.0
 40
6.0
 40
6.0
 40
7.0
 40
7.0
 40
7.0
 40
8.0
 40
8.0
 40
8.0
 40
9.0
 40
9.0
 40
9.0
 40
10.0
 40
10.0
 40
10.0
 40
11.0
 40
11.0
 40
11.0
 40
12.0
 40
12.0
 40
12.0
 40
13.0
 40
13.0
 40
13.0
 40
14.0
 40
14.0
 40
14.0
 40
15.0
 40
15.0
 40
15.0
 40
16.0
 40
16.0
 40
16.0
 40
16.0
 10
95.105305965807
 20
-136.6059597097721
 10
95.02193465506396
 20
-136.6059597097721
 10
94.91306963773008
 20
-136.5890787418944
 10
94.80489363949323
 20
-136.5256889849658
 10
94.61920299283825
 20
-136.4157904389863
 10
94.59680987218414
 20
-136.2845323009983
 10
94.57648380882117
 20
-136.17670081231
 10
94.57648380882117
 20
-136.17670081231
 10
94.81385088775488
 20
-136.17670081231
 10
94.81385088775488
 20
-136.17670081231
 10
94.87241751100412
 20
-136.3754828218089
 10
95.00815427312297
 20
-136.4051106429821
 10
95.10771753264669
 20
-136.4051106429821
 10
95.256890167158
 20
-136.4051106429821
 10
95.4194986740618
 20
-136.3055473834583
 10
95.4194986740618
 20
-136.073003438204
 10
95.4194986740618
 20
-135.8170328436499
 10
95.22760685553338
 20
-135.7470974052993
 10
95.09876028438504
 20
-135.7470974052993
 10
95.06465383908106
 20
-135.7470974052993
 10
94.91306963773008
 20
-135.7470974052993
 10
94.8183295118857
 20
-135.8762884859962
 10
94.8183295118857
 20
-135.8762884859962
 10
94.63057180793959
 20
-135.8573404608273
 10
94.63057180793959
 20
-135.8573404608273
 10
94.63057180793959
 20
-135.8573404608273
 10
94.75941837908793
 20
-135.0108805001015
 10
94.75941837908793
 20
-135.0108805001015
 10
94.75941837908793
 20
-135.0108805001015
 10
95.59140893877576
 20
-135.0108805001015
 10
95.59140893877576
 20
-135.0108805001015
 10
95.59140893877576
 20
-135.0108805001015
 10
95.59140893877576
 20
-135.2055283950181
 10
95.59140893877576
 20
-135.2055283950181
 10
95.59140893877576
 20
-135.2055283950181
 10
94.93374021064157
 20
-135.2055283950181
 10
94.93374021064157
 20
-135.2055283950181
 10
94.93374021064157
 20
-135.2055283950181
 10
94.86346026274248
 20
-135.6285861206067
 10
94.86346026274248
 20
-135.6285861206067
 10
94.92891707696222
 20
-135.5948241848513
 10
95.01711152138462
 20
-135.5545165676739
 10
95.14389103524181
 20
-135.5545165676739
 10
95.41502004993097
 20
-135.5545165676739
 10
95.66823456809684
 20
-135.7408962334259
 10
95.66823456809684
 20
-136.0540554130351
 10
95.66823456809684
 20
-136.3713487072266
 10
95.42880043187198
 20
-136.6059597097721
 10
95.105305965807
 20
-136.6059597097721
 97
        0
 97
        0
 75
     2
 76
     1
 98
        0
  0
ENDBLK
  5
71
330
6E
100
AcDbEntity
  8
0
100
AcDbBlockEnd
  0
BLOCK
  5
84
330
82
100
AcDbEntity
  8
0
100
AcDbBlockBegin
  2
block 4
 70
     0
 10
0.0
 20
0.0
 30
0.0
  3
block 4
  1

  0
SPLINE
  5
86
330
82
100
AcDbEntity
  8
_U+30EC_U+30A4_U+30E4_U+30FC 1
370
     0
100
AcDbSpline
210
0.0
220
0.0
230
1.0
 70
    11
 71
     3
 72
    32
 73
    28
 74
     0
 42
0.0000000001
 43
0.0000000001
 12
1.0
 22
0.0
 32
0.0
 13
1.0
 23
0.0
 33
0.0
 40
0.0
 40
0.0
 40
0.0
 40
0.0
 40
1.0
 40
1.0
 40
1.0
 40
2.0
 40
2.0
 40
2.0
 40
3.0
 40
3.0
 40
3.0
 40
4.0
 40
4.0
 40
4.0
 40
5.0
 40
5.0
 40
5.0
 40
6.0
 40
6.0
 40
6.0
 40
7.0
 40
7.0
 40
7.0
 40
8.0
 40
8.0
 40
8.0
 40
9.0
 40
9.0
 40
9.0
 40
9.0
 10
77.33016355488621
 20
-128.7714680667655
 30
0.0
 10
77.33016355488621
 20
-128.9568142038719
 30
0.0
 10
77.26022811653564
 20
-129.2189859702994
 30
0.0
 10
76.92812091175756
 20
-129.2596380970254
 30
0.0
 10
76.92812091175756
 20
-129.2596380970254
 30
0.0
 10
76.92812091175756
 20
-129.0315727759018
 30
0.0
 10
76.92812091175756
 20
-129.0315727759018
 30
0.0
 10
76.98737655410386
 20
-129.0202039608005
 30
0.0
 10
77.1355156599696
 20
-128.9860975154965
 30
0.0
 10
77.1355156599696
 20
-128.7690564999258
 30
0.0
 10
77.1355156599696
 20
-128.4571031037364
 30
0.0
 10
76.80547551248266
 20
-128.4164509770105
 30
0.0
 10
76.60032007633603
 20
-128.4028428498438
 30
0.0
 10
76.68059080114236
 20
-128.5001667973021
 30
0.0
 10
76.7377793861975
 20
-128.5725138024923
 30
0.0
 10
76.7377793861975
 20
-128.7669894426346
 30
0.0
 10
76.7377793861975
 20
-128.9592257707116
 30
0.0
 10
76.63201495480034
 20
-129.282375727228
 30
0.0
 10
76.22583819708937
 20
-129.282375727228
 30
0.0
 10
75.90630559083246
 20
-129.282375727228
 30
0.0
 10
75.68633624409925
 20
-129.0698133357881
 30
0.0
 10
75.68633624409925
 20
-128.7308159400395
 30
0.0
 10
75.68633624409925
 20
-128.1813232101422
 30
0.0
 10
76.24065210767596
 20
-128.1699543950409
 30
0.0
 10
76.45424802776144
 20
-128.1699543950409
 30
0.0
 10
76.68489717049891
 20
-128.1699543950409
 30
0.0
 10
77.33016355488621
 20
-128.1904527131781
 30
0.0
 10
77.33016355488621
 20
-128.7714680667655
 30
0.0
  0
SPLINE
  5
87
330
82
100
AcDbEntity
  8
_U+30EC_U+30A4_U+30E4_U+30FC 1
370
     0
100
AcDbSpline
210
0.0
220
0.0
230
1.0
 70
    11
 71
     3
 72
    17
 73
    13
 74
     0
 42
0.0000000001
 43
0.0000000001
 12
1.0
 22
0.0
 32
0.0
 13
1.0
 23
0.0
 33
0.0
 40
0.0
 40
0.0
 40
0.0
 40
0.0
 40
1.0
 40
1.0
 40
1.0
 40
2.0
 40
2.0
 40
2.0
 40
3.0
 40
3.0
 40
3.0
 40
4.0
 40
4.0
 40
4.0
 40
4.0
 10
75.87891708172472
 20
-128.7284043731999
 30
0.0
 10
75.87891708172472
 20
-128.8551838870571
 30
0.0
 10
75.93593341200561
 20
-129.0425970814546
 30
0.0
 10
76.22153182773282
 20
-129.0425970814546
 30
0.0
 10
76.44787460111372
 20
-129.0425970814546
 30
0.0
 10
76.54313149128089
 20
-128.8934244469433
 30
0.0
 10
76.54313149128089
 20
-128.7487304365628
 30
0.0
 10
76.54313149128089
 20
-128.4684719188377
 30
0.0
 10
76.33366968577769
 20
-128.4278197921118
 30
0.0
 10
76.21739771315052
 20
-128.4278197921118
 30
0.0
 10
76.04169784340277
 20
-128.4278197921118
 30
0.0
 10
75.87891708172472
 20
-128.5294501089267
 30
0.0
 10
75.87891708172472
 20
-128.7284043731999
 30
0.0
  0
HATCH
  5
88
330
82
100
AcDbEntity
  8
_U+30EC_U+30A4_U+30E4_U+30FC 1
 62
   179
420
  2234388
100
AcDbHatch
 10
0.0
 20
0.0
 30
0.0
210
0.0
220
0.0
230
1.0
  2
SOLID
 70
     1
 71
     0
 91
        2
 92
        1
 93
        1
 72
     4
 94
        3
 73
     0
 74
     1
 95
       32
 96
       28
 40
0.0
 40
0.0
 40
0.0
 40
0.0
 40
1.0
 40
1.0
 40
1.0
 40
2.0
 40
2.0
 40
2.0
 40
3.0
 40
3.0
 40
3.0
 40
4.0
 40
4.0
 40
4.0
 40
5.0
 40
5.0
 40
5.0
 40
6.0
 40
6.0
 40
6.0
 40
7.0
 40
7.0
 40
7.0
 40
8.0
 40
8.0
 40
8.0
 40
9.0
 40
9.0
 40
9.0
 40
9.0
 10
77.33016355488621
 20
-128.7714680667655
 10
77.33016355488621
 20
-128.9568142038719
 10
77.26022811653564
 20
-129.2189859702994
 10
76.92812091175756
 20
-129.2596380970254
 10
76.92812091175756
 20
-129.2596380970254
 10
76.92812091175756
 20
-129.0315727759018
 10
76.92812091175756
 20
-129.0315727759018
 10
76.98737655410386
 20
-129.0202039608005
 10
77.1355156599696
 20
-128.9860975154965
 10
77.1355156599696
 20
-128.7690564999258
 10
77.1355156599696
 20
-128.4571031037364
 10
76.80547551248266
 20
-128.4164509770105
 10
76.60032007633603
 20
-128.4028428498438
 10
76.68059080114236
 20
-128.5001667973021
 10
76.7377793861975
 20
-128.5725138024923
 10
76.7377793861975
 20
-128.7669894426346
 10
76.7377793861975
 20
-128.9592257707116
 10
76.63201495480034
 20
-129.282375727228
 10
76.22583819708937
 20
-129.282375727228
 10
75.90630559083246
 20
-129.282375727228
 10
75.68633624409925
 20
-129.0698133357881
 10
75.68633624409925
 20
-128.7308159400395
 10
75.68633624409925
 20
-128.1813232101422
 10
76.24065210767596
 20
-128.1699543950409
 10
76.45424802776144
 20
-128.1699543950409
 10
76.68489717049891
 20
-128.1699543950409
 10
77.33016355488621
 20
-128.1904527131781
 10
77.33016355488621
 20
-128.7714680667655
 97
        0
 97
        0
 92
        1
 93
        1
 72
     4
 94
        3
 73
     0
 74
     1
 95
       17
 96
       13
 40
0.0
 40
0.0
 40
0.0
 40
0.0
 40
1.0
 40
1.0
 40
1.0
 40
2.0
 40
2.0
 40
2.0
 40
3.0
 40
3.0
 40
3.0
 40
4.0
 40
4.0
 40
4.0
 40
4.0
 10
75.87891708172472
 20
-128.7284043731999
 10
75.87891708172472
 20
-128.8551838870571
 10
75.93593341200561
 20
-129.0425970814546
 10
76.22153182773282
 20
-129.0425970814546
 10
76.44787460111372
 20
-129.0425970814546
 10
76.54313149128089
 20
-128.8934244469433
 10
76.54313149128089
 20
-128.7487304365628
 10
76.54313149128089
 20
-128.4684719188377
 10
76.33366968577769
 20
-128.4278197921118
 10
76.21739771315052
 20
-128.4278197921118
 10
76.04169784340277
 20
-128.4278197921118
 10
75.87891708172472
 20
-128.5294501089267
 10
75.87891708172472
 20
-128.7284043731999
 97
        0
 97
        0
 75
     2
 76
     1
 98
        0
  0
ENDBLK
  5
85
330
82
100
AcDbEntity
  8
0
100
AcDbBlockEnd
  0
BLOCK
  5
9C
330
9A
100
AcDbEntity
  8
0
100
AcDbBlockBegin
  2
block 5
 70
     0
 10
0.0
 20
0.0
 30
0.0
  3
block 5
  1

  0
SPLINE
  5
9E
330
9A
100
AcDbEntity
  8
_U+30EC_U+30A4_U+30E4_U+30FC 1
370
     0
100
AcDbSpline
210
0.0
220
0.0
230
1.0
 70
    11
 71
     3
 72
   242
 73
   238
 74
     0
 42
0.0000000001
 43
0.0000000001
 12
1.0
 22
0.0
 32
0.0
 13
1.0
 23
0.0
 33
0.0
 40
0.0
 40
0.0
 40
0.0
 40
0.0
 40
1.0
 40
1.0
 40
1.0
 40
2.0
 40
2.0
 40
2.0
 40
3.0
 40
3.0
 40
3.0
 40
4.0
 40
4.0
 40
4.0
 40
5.0
 40
5.0
 40
5.0
 40
6.0
 40
6.0
 40
6.0
 40
7.0
 40
7.0
 40
7.0
 40
8.0
 40
8.0
 40
8.0
 40
9.0
 40
9.0
 40
9.0
 40
10.0
 40
10.0
 40
10.0
 40
11.0
 40
11.0
 40
11.0
 40
12.0
 40
12.0
 40
12.0
 40
13.0
 40
13.0
 40
13.0
 40
14.0
 40
14.0
 40
14.0
 40
15.0
 40
15.0
 40
15.0
 40
16.0
 40
16.0
 40
16.0
 40
17.0
 40
17.0
 40
17.0
 40
18.0
 40
18.0
 40
18.0
 40
19.0
 40
19.0
 40
19.0
 40
20.0
 40
20.0
 40
20.0
 40
21.0
 40
21.0
 40
21.0
 40
22.0
 40
22.0
 40
22.0
 40
23.0
 40
23.0
 40
23.0
 40
24.0
 40
24.0
 40
24.0
 40
25.0
 40
25.0
 40
25.0
 40
26.0
 40
26.0
 40
26.0
 40
27.0
 40
27.0
 40
27.0
 40
28.0
 40
28.0
 40
28.0
 40
29.0
 40
29.0
 40
29.0
 40
30.0
 40
30.0
 40
30.0
 40
31.0
 40
31.0
 40
31.0
 40
32.0
 40
32.0
 40
32.0
 40
33.0
 40
33.0
 40
33.0
 40
34.0
 40
34.0
 40
34.0
 40
35.0
 40
35.0
 40
35.0
 40
36.0
 40
36.0
 40
36.0
 40
37.0
 40
37.0
 40
37.0
 40
38.0
 40
38.0
 40
38.0
 40
39.0
 40
39.0
 40
39.0
 40
40.0
 40
40.0
 40
40.0
 40
41.0
 40
41.0
 40
41.0
 40
42.0
 40
42.0
 40
42.0
 40
43.0
 40
43.0
 40
43.0
 40
44.0
 40
44.0
 40
44.0
 40
45.0
 40
45.0
 40
45.0
 40
46.0
 40
46.0
 40
46.0
 40
47.0
 40
47.0
 40
47.0
 40
48.0
 40
48.0
 40
48.0
 40
49.0
 40
49.0
 40
49.0
 40
50.0
 40
50.0
 40
50.0
 40
51.0
 40
51.0
 40
51.0
 40
52.0
 40
52.0
 40
52.0
 40
53.0
 40
53.0
 40
53.0
 40
54.0
 40
54.0
 40
54.0
 40
55.0
 40
55.0
 40
55.0
 40
56.0
 40
56.0
 40
56.0
 40
57.0
 40
57.0
 40
57.0
 40
58.0
 40
58.0
 40
58.0
 40
59.0
 40
59.0
 40
59.0
 40
60.0
 40
60.0
 40
60.0
 40
61.0
 40
61.0
 40
61.0
 40
62.0
 40
62.0
 40
62.0
 40
63.0
 40
63.0
 40
63.0
 40
64.0
 40
64.0
 40
64.0
 40
65.0
 40
65.0
 40
65.0
 40
66.0
 40
66.0
 40
66.0
 40
67.0
 40
67.0
 40
67.0
 40
68.0
 40
68.0
 40
68.0
 40
69.0
 40
69.0
 40
69.0
 40
70.0
 40
70.0
 40
70.0
 40
71.0
 40
71.0
 40
71.0
 40
72.0
 40
72.0
 40
72.0
 40
73.0
 40
73.0
 40
73.0
 40
74.0
 40
74.0
 40
74.0
 40
75.0
 40
75.0
 40
75.0
 40
76.0
 40
76.0
 40
76.0
 40
77.0
 40
77.0
 40
77.0
 40
78.0
 40
78.0
 40
78.0
 40
79.0
 40
79.0
 40
79.0
 40
79.0
 10
97.75837399899791
 20
-119.7446288763139
 30
0.0
 10
97.75837399899791
 20
-119.7446288763139
 30
0.0
 10
97.53650984974782
 20
-119.7446288763139
 30
0.0
 10
97.53650984974782
 20
-119.7446288763139
 30
0.0
 10
97.53650984974782
 20
-119.7446288763139
 30
0.0
 10
97.29363061803771
 20
-119.7446288763139
 30
0.0
 10
97.29363061803771
 20
-119.7446288763139
 30
0.0
 10
97.29363061803771
 20
-119.7446288763139
 30
0.0
 10
97.40490720221128
 20
-119.7870035507824
 30
0.0
 10
97.40490720221128
 20
-119.7870035507824
 30
0.0
 10
97.41420896002145
 20
-119.791309920139
 30
0.0
 10
97.42523326557425
 20
-119.7975110920124
 30
0.0
 10
97.42523326557425
 20
-119.8102579453079
 30
0.0
 10
97.42523326557425
 20
-119.8314452825421
 30
0.0
 10
97.39732799214373
 20
-119.8378187091899
 30
0.0
 10
97.3790689860719
 20
-119.8419528237722
 30
0.0
 10
97.36976722826174
 20
-119.8652072182976
 30
0.0
 10
97.34358450257383
 20
-119.9308362872916
 30
0.0
 10
97.32704804424463
 20
-119.9752780190513
 30
0.0
 10
97.32704804424463
 20
-119.9752780190513
 30
0.0
 10
97.56407061362982
 20
-119.9752780190513
 30
0.0
 10
97.56407061362982
 20
-119.9752780190513
 30
0.0
 10
97.6436523193391
 20
-119.9752780190513
 30
0.0
 10
97.81590709360158
 20
-119.9709716496948
 30
0.0
 10
97.93993053107057
 20
-119.9625311657559
 30
0.0
 10
97.93993053107057
 20
-119.9625311657559
 30
0.0
 10
97.93993053107057
 20
-120.1402980927948
 30
0.0
 10
97.93993053107057
 20
-120.1402980927948
 30
0.0
 10
97.86792803542886
 20
-120.1359917234382
 30
0.0
 10
97.8493245198085
 20
-120.1359917234382
 30
0.0
 10
97.69188365613259
 20
-120.1318576088559
 30
0.0
 10
97.66397838270207
 20
-120.2861978865951
 30
0.0
 10
97.62539331326727
 20
-120.3666408661757
 30
0.0
 10
97.58646373428394
 20
-120.436404049752
 30
0.0
 10
97.69188365613259
 20
-120.4956596920983
 30
0.0
 10
97.78455672468581
 20
-120.5633558183835
 30
0.0
 10
97.87516273594788
 20
-120.6458658552552
 30
0.0
 10
97.87516273594788
 20
-120.6458658552552
 30
0.0
 10
97.77146536184186
 20
-120.8129529862898
 30
0.0
 10
97.77146536184186
 20
-120.8129529862898
 30
0.0
 10
97.75113929847889
 20
-120.7940049611209
 30
0.0
 10
97.74011499292608
 20
-120.7855644771821
 30
0.0
 10
97.64192977159647
 20
-120.7008151282449
 30
0.0
 10
97.59921058757936
 20
-120.6627468231329
 30
0.0
 10
97.54753415530062
 20
-120.6269178300863
 30
0.0
 10
97.47725420740153
 20
-120.5824760983266
 30
0.0
 10
97.29190807029508
 20
-120.7686835093044
 30
0.0
 10
97.11241859551356
 20
-120.7919379038298
 30
0.0
 10
96.85851505825066
 20
-120.8215657250029
 30
0.0
 10
96.85851505825066
 20
-120.8215657250029
 30
0.0
 10
96.76790904698858
 20
-120.6417317406729
 30
0.0
 10
96.76790904698858
 20
-120.6417317406729
 30
0.0
 10
97.04558374309973
 20
-120.6374253713163
 30
0.0
 10
97.19923500174187
 20
-120.6121039194998
 30
0.0
 10
97.33256019702102
 20
-120.502033118746
 30
0.0
 10
97.228862822915
 20
-120.4512179603386
 30
0.0
 10
97.15134817449689
 20
-120.4238294512309
 30
0.0
 10
97.1196532960326
 20
-120.4110825979354
 30
0.0
 10
97.1031168377034
 20
-120.4386433618174
 30
0.0
 10
97.09002547485944
 20
-120.4575913869863
 30
0.0
 10
97.0659098064627
 20
-120.491525577516
 30
0.0
 10
97.0659098064627
 20
-120.491525577516
 30
0.0
 10
96.8936550322002
 20
-120.4090155406443
 30
0.0
 10
96.8936550322002
 20
-120.4090155406443
 30
0.0
 10
96.96600203739045
 20
-120.3285725610637
 30
0.0
 10
97.01974552696035
 20
-120.2333156708965
 30
0.0
 10
97.06969941149647
 20
-120.1318576088559
 30
0.0
 10
96.90295679001038
 20
-120.1359917234382
 30
0.0
 10
96.88469778393855
 20
-120.1359917234382
 30
0.0
 10
96.81235077874831
 20
-120.1402980927948
 30
0.0
 10
96.81235077874831
 20
-120.1402980927948
 30
0.0
 10
96.81235077874831
 20
-119.9625311657559
 30
0.0
 10
96.81235077874831
 20
-119.9625311657559
 30
0.0
 10
96.93465166847467
 20
-119.9689045924036
 30
0.0
 10
97.11793074828996
 20
-119.9732109617602
 30
0.0
 10
97.13997935939557
 20
-119.9732109617602
 30
0.0
 10
97.15479326998214
 20
-119.9392767712305
 30
0.0
 10
97.20302460677564
 20
-119.8186984292467
 30
0.0
 10
97.21956106510484
 20
-119.7446288763139
 30
0.0
 10
97.20302460677564
 20
-119.7446288763139
 30
0.0
 10
97.04730629084234
 20
-119.7510023029616
 30
0.0
 10
96.877118573871
 20
-119.763749156257
 30
0.0
 10
96.877118573871
 20
-119.763749156257
 30
0.0
 10
96.877118573871
 20
-119.8970743515361
 30
0.0
 10
96.877118573871
 20
-119.8970743515361
 30
0.0
 10
96.8343993898539
 20
-119.9223958033527
 30
0.0
 10
96.78272295757516
 20
-119.954090681817
 30
0.0
 10
96.66593422062519
 20
-120.019719750811
 30
0.0
 10
96.66593422062519
 20
-120.019719750811
 30
0.0
 10
96.66593422062519
 20
-120.1656195446114
 30
0.0
 10
96.66593422062519
 20
-120.1656195446114
 30
0.0
 10
96.66593422062519
 20
-120.1656195446114
 30
0.0
 10
96.66593422062519
 20
-120.633291256734
 30
0.0
 10
96.66593422062519
 20
-120.633291256734
 30
0.0
 10
96.66593422062519
 20
-120.7600707705912
 30
0.0
 10
96.63458385170941
 20
-120.8193264129375
 30
0.0
 10
96.38653697677142
 20
-120.8108859289987
 30
0.0
 10
96.38653697677142
 20
-120.8108859289987
 30
0.0
 10
96.29558645596083
 20
-120.6036634355609
 30
0.0
 10
96.29558645596083
 20
-120.6036634355609
 30
0.0
 10
96.35139700282188
 20
-120.6162380340821
 30
0.0
 10
96.39377167729045
 20
-120.6205444034386
 30
0.0
 10
96.42891165124
 20
-120.6205444034386
 30
0.0
 10
96.49574650365385
 20
-120.6205444034386
 30
0.0
 10
96.50504826146403
 20
-120.5972900089132
 30
0.0
 10
96.50504826146403
 20
-120.5316609399192
 30
0.0
 10
96.50504826146403
 20
-120.5316609399192
 30
0.0
 10
96.50504826146403
 20
-120.1022297876828
 30
0.0
 10
96.50504826146403
 20
-120.1022297876828
 30
0.0
 10
96.41960989342982
 20
-120.1423651500859
 30
0.0
 10
96.40479598284325
 20
-120.1487385767336
 30
0.0
 10
96.3641438561173
 20
-120.1678588566768
 30
0.0
 10
96.36035425108352
 20
-120.1888739391368
 30
0.0
 10
96.35690915559827
 20
-120.21850176031
 30
0.0
 10
96.34002818772055
 20
-120.21850176031
 30
0.0
 10
96.33279348720153
 20
-120.21850176031
 30
0.0
 10
96.32349172939135
 20
-120.2143676457277
 30
0.0
 10
96.31797957661496
 20
-120.1911132512022
 30
0.0
 10
96.31797957661496
 20
-120.1911132512022
 30
0.0
 10
96.27147078756408
 20
-119.9985324135768
 30
0.0
 10
96.27147078756408
 20
-119.9985324135768
 30
0.0
 10
96.39928383006685
 20
-119.9520236245259
 30
0.0
 10
96.45681692467052
 20
-119.9287692300005
 30
0.0
 10
96.50504826146403
 20
-119.9075818927662
 30
0.0
 10
96.50504826146403
 20
-119.9075818927662
 30
0.0
 10
96.50504826146403
 20
-119.4950317084075
 30
0.0
 10
96.50504826146403
 20
-119.4950317084075
 30
0.0
 10
96.50504826146403
 20
-119.4950317084075
 30
0.0
 10
96.45853947241315
 20
-119.4950317084075
 30
0.0
 10
96.45853947241315
 20
-119.4950317084075
 30
0.0
 10
96.45853947241315
 20
-119.4950317084075
 30
0.0
 10
96.38998207225667
 20
-119.4950317084075
 30
0.0
 10
96.38998207225667
 20
-119.4950317084075
 30
0.0
 10
96.33072642991038
 20
-119.4950317084075
 30
0.0
 10
96.32349172939135
 20
-119.4950317084075
 30
0.0
 10
96.29214136047558
 20
-119.5014051350552
 30
0.0
 10
96.29214136047558
 20
-119.5014051350552
 30
0.0
 10
96.29214136047558
 20
-119.3067572401386
 30
0.0
 10
96.29214136047558
 20
-119.3067572401386
 30
0.0
 10
96.3159125193238
 20
-119.3131306667863
 30
0.0
 10
96.32349172939135
 20
-119.3131306667863
 30
0.0
 10
96.38446991948028
 20
-119.3131306667863
 30
0.0
 10
96.38446991948028
 20
-119.3131306667863
 30
0.0
 10
96.50125865643025
 20
-119.3131306667863
 30
0.0
 10
96.50125865643025
 20
-119.3131306667863
 30
0.0
 10
96.50125865643025
 20
-119.24336748321
 30
0.0
 10
96.50125865643025
 20
-119.1608574463383
 30
0.0
 10
96.49953610868762
 20
-119.1565510769817
 30
0.0
 10
96.49195689862007
 20
-118.9767170926517
 30
0.0
 10
96.49195689862007
 20
-118.9577690674828
 30
0.0
 10
96.49023435087744
 20
-118.9112602784319
 30
0.0
 10
96.49023435087744
 20
-118.9112602784319
 30
0.0
 10
96.67902558346914
 20
-118.9197007623708
 30
0.0
 10
96.67902558346914
 20
-118.9197007623708
 30
0.0
 10
96.6883273412793
 20
-118.9197007623708
 30
0.0
 10
96.70693085689966
 20
-118.9217678196619
 30
0.0
 10
96.70693085689966
 20
-118.9386487875396
 30
0.0
 10
96.70693085689966
 20
-118.9577690674828
 30
0.0
 10
96.69383949405571
 20
-118.9682766087128
 30
0.0
 10
96.6714463734016
 20
-118.9873968886559
 30
0.0
 10
96.6714463734016
 20
-119.0380397922891
 30
0.0
 10
96.66593422062519
 20
-119.2666218777354
 30
0.0
 10
96.66800127791633
 20
-119.3131306667863
 30
0.0
 10
96.780655900284
 20
-119.3131306667863
 30
0.0
 10
96.79202471538534
 20
-119.3131306667863
 30
0.0
 10
96.877118573871
 20
-119.3046901828474
 30
0.0
 10
96.877118573871
 20
-119.3046901828474
 30
0.0
 10
96.877118573871
 20
-119.4993380777641
 30
0.0
 10
96.877118573871
 20
-119.4993380777641
 30
0.0
 10
96.84370114766408
 20
-119.4970987656987
 30
0.0
 10
96.78444550531778
 20
-119.4929646511164
 30
0.0
 10
96.66593422062519
 20
-119.4950317084075
 30
0.0
 10
96.66593422062519
 20
-119.4950317084075
 30
0.0
 10
96.66593422062519
 20
-119.8335123398333
 30
0.0
 10
96.66593422062519
 20
-119.8335123398333
 30
0.0
 10
96.71416555741868
 20
-119.8102579453079
 30
0.0
 10
96.77169865202235
 20
-119.7826971814259
 30
0.0
 10
96.81407332649093
 20
-119.7594427869004
 30
0.0
 10
96.81407332649093
 20
-119.7594427869004
 30
0.0
 10
96.81407332649093
 20
-119.5818481146358
 30
0.0
 10
96.81407332649093
 20
-119.5818481146358
 30
0.0
 10
96.9143256051117
 20
-119.594422713157
 30
0.0
 10
97.01767846966919
 20
-119.594422713157
 30
0.0
 10
97.1196532960326
 20
-119.594422713157
 30
0.0
 10
97.09932723266962
 20
-119.4993380777641
 30
0.0
 10
97.07521156427286
 20
-119.4168280408923
 30
0.0
 10
97.01974552696035
 20
-119.2835028456132
 30
0.0
 10
96.98081594797702
 20
-119.2855699029043
 30
0.0
 10
96.90846894278678
 20
-119.2898762722609
 30
0.0
 10
96.87539602612837
 20
-119.291943329552
 30
0.0
 10
96.87539602612837
 20
-119.291943329552
 30
0.0
 10
96.87539602612837
 20
-119.112109345222
 30
0.0
 10
96.87539602612837
 20
-119.112109345222
 30
0.0
 10
96.9846055530108
 20
-119.1205498291608
 30
0.0
 10
97.1361897543618
 20
-119.1248561985174
 30
0.0
 10
97.20853675955203
 20
-119.1248561985174
 30
0.0
 10
97.20853675955203
 20
-119.1248561985174
 30
0.0
 10
97.28088376474228
 20
-119.1248561985174
 30
0.0
 10
97.28088376474228
 20
-119.1248561985174
 30
0.0
 10
97.28088376474228
 20
-118.9619031820651
 30
0.0
 10
97.28088376474228
 20
-118.9513956408351
 30
0.0
 10
97.27881670745113
 20
-118.8964463678453
 30
0.0
 10
97.27881670745113
 20
-118.8964463678453
 30
0.0
 10
97.47518715011037
 20
-118.9217678196619
 30
0.0
 10
97.47518715011037
 20
-118.9217678196619
 30
0.0
 10
97.47897675514415
 20
-118.9217678196619
 30
0.0
 10
97.4975802707645
 20
-118.9238348769531
 30
0.0
 10
97.4975802707645
 20
-118.9407158448308
 30
0.0
 10
97.4975802707645
 20
-118.9555297554174
 30
0.0
 10
97.48827851295432
 20
-118.9641424941305
 30
0.0
 10
97.46416284455758
 20
-118.9789564047171
 30
0.0
 10
97.45865069178117
 20
-119.0444132189368
 30
0.0
 10
97.45658363449003
 20
-119.0656005561711
 30
0.0
 10
97.45658363449003
 20
-119.1248561985174
 30
0.0
 10
97.45658363449003
 20
-119.1248561985174
 30
0.0
 10
97.53995494523308
 20
-119.1248561985174
 30
0.0
 10
97.53995494523308
 20
-119.1248561985174
 30
0.0
 10
97.61230195042332
 20
-119.1248561985174
 30
0.0
 10
97.76423066132284
 20
-119.1205498291608
 30
0.0
 10
97.87344018820525
 20
-119.112109345222
 30
0.0
 10
97.87344018820525
 20
-119.112109345222
 30
0.0
 10
97.87344018820525
 20
-119.291943329552
 30
0.0
 10
97.87344018820525
 20
-119.291943329552
 30
0.0
 10
97.84725746251736
 20
-119.2898762722609
 30
0.0
 10
97.74390459795985
 20
-119.2855699029043
 30
0.0
 10
97.70842011446179
 20
-119.2835028456132
 30
0.0
 10
97.69567326116636
 20
-119.3343180040206
 30
0.0
 10
97.66604543999321
 20
-119.4464558620655
 30
0.0
 10
97.60851234538954
 20
-119.5859822292181
 30
0.0
 10
97.64571937663024
 20
-119.5859822292181
 30
0.0
 10
97.88825409879183
 20
-119.5670342040492
 30
0.0
 10
97.94199758836173
 20
-119.5647948919838
 30
0.0
 10
97.94199758836173
 20
-119.5647948919838
 30
0.0
 10
97.94199758836173
 20
-119.7489352456704
 30
0.0
 10
97.94199758836173
 20
-119.7489352456704
 30
0.0
 10
97.91581486267383
 20
-119.7489352456704
 30
0.0
 10
97.90100095208726
 20
-119.7446288763139
 30
0.0
 10
97.75837399899791
 20
-119.7446288763139
 30
0.0
  0
SPLINE
  5
9F
330
9A
100
AcDbEntity
  8
_U+30EC_U+30A4_U+30E4_U+30FC 1
370
     0
100
AcDbSpline
210
0.0
220
0.0
230
1.0
 70
    11
 71
     3
 72
    20
 73
    16
 74
     0
 42
0.0000000001
 43
0.0000000001
 12
1.0
 22
0.0
 32
0.0
 13
1.0
 23
0.0
 33
0.0
 40
0.0
 40
0.0
 40
0.0
 40
0.0
 40
1.0
 40
1.0
 40
1.0
 40
2.0
 40
2.0
 40
2.0
 40
3.0
 40
3.0
 40
3.0
 40
4.0
 40
4.0
 40
4.0
 40
5.0
 40
5.0
 40
5.0
 40
5.0
 10
97.20853675955203
 20
-119.2793687310309
 30
0.0
 10
97.20853675955203
 20
-119.2793687310309
 30
0.0
 10
97.18097599567004
 20
-119.2793687310309
 30
0.0
 10
97.18097599567004
 20
-119.2793687310309
 30
0.0
 10
97.22162812239598
 20
-119.3787597357803
 30
0.0
 10
97.24918888627799
 20
-119.4590304605866
 30
0.0
 10
97.27881670745113
 20
-119.5859822292181
 30
0.0
 10
97.27881670745113
 20
-119.5859822292181
 30
0.0
 10
97.4603732395238
 20
-119.5859822292181
 30
0.0
 10
97.4603732395238
 20
-119.5859822292181
 30
0.0
 10
97.48827851295432
 20
-119.4929646511164
 30
0.0
 10
97.5086045763173
 20
-119.4083875569535
 30
0.0
 10
97.52893063968027
 20
-119.2793687310309
 30
0.0
 10
97.52893063968027
 20
-119.2793687310309
 30
0.0
 10
97.20853675955203
 20
-119.2793687310309
 30
0.0
 10
97.20853675955203
 20
-119.2793687310309
 30
0.0
  0
SPLINE
  5
A0
330
9A
100
AcDbEntity
  8
_U+30EC_U+30A4_U+30E4_U+30FC 1
370
     0
100
AcDbSpline
210
0.0
220
0.0
230
1.0
 70
    11
 71
     3
 72
    17
 73
    13
 74
     0
 42
0.0000000001
 43
0.0000000001
 12
1.0
 22
0.0
 32
0.0
 13
1.0
 23
0.0
 33
0.0
 40
0.0
 40
0.0
 40
0.0
 40
0.0
 40
1.0
 40
1.0
 40
1.0
 40
2.0
 40
2.0
 40
2.0
 40
3.0
 40
3.0
 40
3.0
 40
4.0
 40
4.0
 40
4.0
 40
4.0
 10
97.26400279686456
 20
-120.1297905515648
 30
0.0
 10
97.24918888627799
 20
-120.1592461179637
 30
0.0
 10
97.20474715451826
 20
-120.2524359508397
 30
0.0
 10
97.19544539670808
 20
-120.2713839760086
 30
0.0
 10
97.36218801819417
 20
-120.3306396183549
 30
0.0
 10
97.38079153381453
 20
-120.3370130450026
 30
0.0
 10
97.4438367811946
 20
-120.3645738088846
 30
0.0
 10
97.49172360843957
 20
-120.2777574026563
 30
0.0
 10
97.51239418135107
 20
-120.2036878497234
 30
0.0
 10
97.5251410346465
 20
-120.1297905515648
 30
0.0
 10
97.5251410346465
 20
-120.1297905515648
 30
0.0
 10
97.26400279686456
 20
-120.1297905515648
 30
0.0
 10
97.26400279686456
 20
-120.1297905515648
 30
0.0
  0
HATCH
  5
A1
330
9A
100
AcDbEntity
  8
_U+30EC_U+30A4_U+30E4_U+30FC 1
 62
   179
420
  2234388
100
AcDbHatch
 10
0.0
 20
0.0
 30
0.0
210
0.0
220
0.0
230
1.0
  2
SOLID
 70
     1
 71
     0
 91
        3
 92
        1
 93
        1
 72
     4
 94
        3
 73
     0
 74
     1
 95
      242
 96
      238
 40
0.0
 40
0.0
 40
0.0
 40
0.0
 40
1.0
 40
1.0
 40
1.0
 40
2.0
 40
2.0
 40
2.0
 40
3.0
 40
3.0
 40
3.0
 40
4.0
 40
4.0
 40
4.0
 40
5.0
 40
5.0
 40
5.0
 40
6.0
 40
6.0
 40
6.0
 40
7.0
 40
7.0
 40
7.0
 40
8.0
 40
8.0
 40
8.0
 40
9.0
 40
9.0
 40
9.0
 40
10.0
 40
10.0
 40
10.0
 40
11.0
 40
11.0
 40
11.0
 40
12.0
 40
12.0
 40
12.0
 40
13.0
 40
13.0
 40
13.0
 40
14.0
 40
14.0
 40
14.0
 40
15.0
 40
15.0
 40
15.0
 40
16.0
 40
16.0
 40
16.0
 40
17.0
 40
17.0
 40
17.0
 40
18.0
 40
18.0
 40
18.0
 40
19.0
 40
19.0
 40
19.0
 40
20.0
 40
20.0
 40
20.0
 40
21.0
 40
21.0
 40
21.0
 40
22.0
 40
22.0
 40
22.0
 40
23.0
 40
23.0
 40
23.0
 40
24.0
 40
24.0
 40
24.0
 40
25.0
 40
25.0
 40
25.0
 40
26.0
 40
26.0
 40
26.0
 40
27.0
 40
27.0
 40
27.0
 40
28.0
 40
28.0
 40
28.0
 40
29.0
 40
29.0
 40
29.0
 40
30.0
 40
30.0
 40
30.0
 40
31.0
 40
31.0
 40
31.0
 40
32.0
 40
32.0
 40
32.0
 40
33.0
 40
33.0
 40
33.0
 40
34.0
 40
34.0
 40
34.0
 40
35.0
 40
35.0
 40
35.0
 40
36.0
 40
36.0
 40
36.0
 40
37.0
 40
37.0
 40
37.0
 40
38.0
 40
38.0
 40
38.0
 40
39.0
 40
39.0
 40
39.0
 40
40.0
 40
40.0
 40
40.0
 40
41.0
 40
41.0
 40
41.0
 40
42.0
 40
42.0
 40
42.0
 40
43.0
 40
43.0
 40
43.0
 40
44.0
 40
44.0
 40
44.0
 40
45.0
 40
45.0
 40
45.0
 40
46.0
 40
46.0
 40
46.0
 40
47.0
 40
47.0
 40
47.0
 40
48.0
 40
48.0
 40
48.0
 40
49.0
 40
49.0
 40
49.0
 40
50.0
 40
50.0
 40
50.0
 40
51.0
 40
51.0
 40
51.0
 40
52.0
 40
52.0
 40
52.0
 40
53.0
 40
53.0
 40
53.0
 40
54.0
 40
54.0
 40
54.0
 40
55.0
 40
55.0
 40
55.0
 40
56.0
 40
56.0
 40
56.0
 40
57.0
 40
57.0
 40
57.0
 40
58.0
 40
58.0
 40
58.0
 40
59.0
 40
59.0
 40
59.0
 40
60.0
 40
60.0
 40
60.0
 40
61.0
 40
61.0
 40
61.0
 40
62.0
 40
62.0
 40
62.0
 40
63.0
 40
63.0
 40
63.0
 40
64.0
 40
64.0
 40
64.0
 40
65.0
 40
65.0
 40
65.0
 40
66.0
 40
66.0
 40
66.0
 40
67.0
 40
67.0
 40
67.0
 40
68.0
 40
68.0
 40
68.0
 40
69.0
 40
69.0
 40
69.0
 40
70.0
 40
70.0
 40
70.0
 40
71.0
 40
71.0
 40
71.0
 40
72.0
 40
72.0
 40
72.0
 40
73.0
 40
73.0
 40
73.0
 40
74.0
 40
74.0
 40
74.0
 40
75.0
 40
75.0
 40
75.0
 40
76.0
 40
76.0
 40
76.0
 40
77.0
 40
77.0
 40
77.0
 40
78.0
 40
78.0
 40
78.0
 40
79.0
 40
79.0
 40
79.0
 40
79.0
 10
97.75837399899791
 20
-119.7446288763139
 10
97.75837399899791
 20
-119.7446288763139
 10
97.53650984974782
 20
-119.7446288763139
 10
97.53650984974782
 20
-119.7446288763139
 10
97.53650984974782
 20
-119.7446288763139
 10
97.29363061803771
 20
-119.7446288763139
 10
97.29363061803771
 20
-119.7446288763139
 10
97.29363061803771
 20
-119.7446288763139
 10
97.40490720221128
 20
-119.7870035507824
 10
97.40490720221128
 20
-119.7870035507824
 10
97.41420896002145
 20
-119.791309920139
 10
97.42523326557425
 20
-119.7975110920124
 10
97.42523326557425
 20
-119.8102579453079
 10
97.42523326557425
 20
-119.8314452825421
 10
97.39732799214373
 20
-119.8378187091899
 10
97.3790689860719
 20
-119.8419528237722
 10
97.36976722826174
 20
-119.8652072182976
 10
97.34358450257383
 20
-119.9308362872916
 10
97.32704804424463
 20
-119.9752780190513
 10
97.32704804424463
 20
-119.9752780190513
 10
97.56407061362982
 20
-119.9752780190513
 10
97.56407061362982
 20
-119.9752780190513
 10
97.6436523193391
 20
-119.9752780190513
 10
97.81590709360158
 20
-119.9709716496948
 10
97.93993053107057
 20
-119.9625311657559
 10
97.93993053107057
 20
-119.9625311657559
 10
97.93993053107057
 20
-120.1402980927948
 10
97.93993053107057
 20
-120.1402980927948
 10
97.86792803542886
 20
-120.1359917234382
 10
97.8493245198085
 20
-120.1359917234382
 10
97.69188365613259
 20
-120.1318576088559
 10
97.66397838270207
 20
-120.2861978865951
 10
97.62539331326727
 20
-120.3666408661757
 10
97.58646373428394
 20
-120.436404049752
 10
97.69188365613259
 20
-120.4956596920983
 10
97.78455672468581
 20
-120.5633558183835
 10
97.87516273594788
 20
-120.6458658552552
 10
97.87516273594788
 20
-120.6458658552552
 10
97.77146536184186
 20
-120.8129529862898
 10
97.77146536184186
 20
-120.8129529862898
 10
97.75113929847889
 20
-120.7940049611209
 10
97.74011499292608
 20
-120.7855644771821
 10
97.64192977159647
 20
-120.7008151282449
 10
97.59921058757936
 20
-120.6627468231329
 10
97.54753415530062
 20
-120.6269178300863
 10
97.47725420740153
 20
-120.5824760983266
 10
97.29190807029508
 20
-120.7686835093044
 10
97.11241859551356
 20
-120.7919379038298
 10
96.85851505825066
 20
-120.8215657250029
 10
96.85851505825066
 20
-120.8215657250029
 10
96.76790904698858
 20
-120.6417317406729
 10
96.76790904698858
 20
-120.6417317406729
 10
97.04558374309973
 20
-120.6374253713163
 10
97.19923500174187
 20
-120.6121039194998
 10
97.33256019702102
 20
-120.502033118746
 10
97.228862822915
 20
-120.4512179603386
 10
97.15134817449689
 20
-120.4238294512309
 10
97.1196532960326
 20
-120.4110825979354
 10
97.1031168377034
 20
-120.4386433618174
 10
97.09002547485944
 20
-120.4575913869863
 10
97.0659098064627
 20
-120.491525577516
 10
97.0659098064627
 20
-120.491525577516
 10
96.8936550322002
 20
-120.4090155406443
 10
96.8936550322002
 20
-120.4090155406443
 10
96.96600203739045
 20
-120.3285725610637
 10
97.01974552696035
 20
-120.2333156708965
 10
97.06969941149647
 20
-120.1318576088559
 10
96.90295679001038
 20
-120.1359917234382
 10
96.88469778393855
 20
-120.1359917234382
 10
96.81235077874831
 20
-120.1402980927948
 10
96.81235077874831
 20
-120.1402980927948
 10
96.81235077874831
 20
-119.9625311657559
 10
96.81235077874831
 20
-119.9625311657559
 10
96.93465166847467
 20
-119.9689045924036
 10
97.11793074828996
 20
-119.9732109617602
 10
97.13997935939557
 20
-119.9732109617602
 10
97.15479326998214
 20
-119.9392767712305
 10
97.20302460677564
 20
-119.8186984292467
 10
97.21956106510484
 20
-119.7446288763139
 10
97.20302460677564
 20
-119.7446288763139
 10
97.04730629084234
 20
-119.7510023029616
 10
96.877118573871
 20
-119.763749156257
 10
96.877118573871
 20
-119.763749156257
 10
96.877118573871
 20
-119.8970743515361
 10
96.877118573871
 20
-119.8970743515361
 10
96.8343993898539
 20
-119.9223958033527
 10
96.78272295757516
 20
-119.954090681817
 10
96.66593422062519
 20
-120.019719750811
 10
96.66593422062519
 20
-120.019719750811
 10
96.66593422062519
 20
-120.1656195446114
 10
96.66593422062519
 20
-120.1656195446114
 10
96.66593422062519
 20
-120.1656195446114
 10
96.66593422062519
 20
-120.633291256734
 10
96.66593422062519
 20
-120.633291256734
 10
96.66593422062519
 20
-120.7600707705912
 10
96.63458385170941
 20
-120.8193264129375
 10
96.38653697677142
 20
-120.8108859289987
 10
96.38653697677142
 20
-120.8108859289987
 10
96.29558645596083
 20
-120.6036634355609
 10
96.29558645596083
 20
-120.6036634355609
 10
96.35139700282188
 20
-120.6162380340821
 10
96.39377167729045
 20
-120.6205444034386
 10
96.42891165124
 20
-120.6205444034386
 10
96.49574650365385
 20
-120.6205444034386
 10
96.50504826146403
 20
-120.5972900089132
 10
96.50504826146403
 20
-120.5316609399192
 10
96.50504826146403
 20
-120.5316609399192
 10
96.50504826146403
 20
-120.1022297876828
 10
96.50504826146403
 20
-120.1022297876828
 10
96.41960989342982
 20
-120.1423651500859
 10
96.40479598284325
 20
-120.1487385767336
 10
96.3641438561173
 20
-120.1678588566768
 10
96.36035425108352
 20
-120.1888739391368
 10
96.35690915559827
 20
-120.21850176031
 10
96.34002818772055
 20
-120.21850176031
 10
96.33279348720153
 20
-120.21850176031
 10
96.32349172939135
 20
-120.2143676457277
 10
96.31797957661496
 20
-120.1911132512022
 10
96.31797957661496
 20
-120.1911132512022
 10
96.27147078756408
 20
-119.9985324135768
 10
96.27147078756408
 20
-119.9985324135768
 10
96.39928383006685
 20
-119.9520236245259
 10
96.45681692467052
 20
-119.9287692300005
 10
96.50504826146403
 20
-119.9075818927662
 10
96.50504826146403
 20
-119.9075818927662
 10
96.50504826146403
 20
-119.4950317084075
 10
96.50504826146403
 20
-119.4950317084075
 10
96.50504826146403
 20
-119.4950317084075
 10
96.45853947241315
 20
-119.4950317084075
 10
96.45853947241315
 20
-119.4950317084075
 10
96.45853947241315
 20
-119.4950317084075
 10
96.38998207225667
 20
-119.4950317084075
 10
96.38998207225667
 20
-119.4950317084075
 10
96.33072642991038
 20
-119.4950317084075
 10
96.32349172939135
 20
-119.4950317084075
 10
96.29214136047558
 20
-119.5014051350552
 10
96.29214136047558
 20
-119.5014051350552
 10
96.29214136047558
 20
-119.3067572401386
 10
96.29214136047558
 20
-119.3067572401386
 10
96.3159125193238
 20
-119.3131306667863
 10
96.32349172939135
 20
-119.3131306667863
 10
96.38446991948028
 20
-119.3131306667863
 10
96.38446991948028
 20
-119.3131306667863
 10
96.50125865643025
 20
-119.3131306667863
 10
96.50125865643025
 20
-119.3131306667863
 10
96.50125865643025
 20
-119.24336748321
 10
96.50125865643025
 20
-119.1608574463383
 10
96.49953610868762
 20
-119.1565510769817
 10
96.49195689862007
 20
-118.9767170926517
 10
96.49195689862007
 20
-118.9577690674828
 10
96.49023435087744
 20
-118.9112602784319
 10
96.49023435087744
 20
-118.9112602784319
 10
96.67902558346914
 20
-118.9197007623708
 10
96.67902558346914
 20
-118.9197007623708
 10
96.6883273412793
 20
-118.9197007623708
 10
96.70693085689966
 20
-118.9217678196619
 10
96.70693085689966
 20
-118.9386487875396
 10
96.70693085689966
 20
-118.9577690674828
 10
96.69383949405571
 20
-118.9682766087128
 10
96.6714463734016
 20
-118.9873968886559
 10
96.6714463734016
 20
-119.0380397922891
 10
96.66593422062519
 20
-119.2666218777354
 10
96.66800127791633
 20
-119.3131306667863
 10
96.780655900284
 20
-119.3131306667863
 10
96.79202471538534
 20
-119.3131306667863
 10
96.877118573871
 20
-119.3046901828474
 10
96.877118573871
 20
-119.3046901828474
 10
96.877118573871
 20
-119.4993380777641
 10
96.877118573871
 20
-119.4993380777641
 10
96.84370114766408
 20
-119.4970987656987
 10
96.78444550531778
 20
-119.4929646511164
 10
96.66593422062519
 20
-119.4950317084075
 10
96.66593422062519
 20
-119.4950317084075
 10
96.66593422062519
 20
-119.8335123398333
 10
96.66593422062519
 20
-119.8335123398333
 10
96.71416555741868
 20
-119.8102579453079
 10
96.77169865202235
 20
-119.7826971814259
 10
96.81407332649093
 20
-119.7594427869004
 10
96.81407332649093
 20
-119.7594427869004
 10
96.81407332649093
 20
-119.5818481146358
 10
96.81407332649093
 20
-119.5818481146358
 10
96.9143256051117
 20
-119.594422713157
 10
97.01767846966919
 20
-119.594422713157
 10
97.1196532960326
 20
-119.594422713157
 10
97.09932723266962
 20
-119.4993380777641
 10
97.07521156427286
 20
-119.4168280408923
 10
97.01974552696035
 20
-119.2835028456132
 10
96.98081594797702
 20
-119.2855699029043
 10
96.90846894278678
 20
-119.2898762722609
 10
96.87539602612837
 20
-119.291943329552
 10
96.87539602612837
 20
-119.291943329552
 10
96.87539602612837
 20
-119.112109345222
 10
96.87539602612837
 20
-119.112109345222
 10
96.9846055530108
 20
-119.1205498291608
 10
97.1361897543618
 20
-119.1248561985174
 10
97.20853675955203
 20
-119.1248561985174
 10
97.20853675955203
 20
-119.1248561985174
 10
97.28088376474228
 20
-119.1248561985174
 10
97.28088376474228
 20
-119.1248561985174
 10
97.28088376474228
 20
-118.9619031820651
 10
97.28088376474228
 20
-118.9513956408351
 10
97.27881670745113
 20
-118.8964463678453
 10
97.27881670745113
 20
-118.8964463678453
 10
97.47518715011037
 20
-118.9217678196619
 10
97.47518715011037
 20
-118.9217678196619
 10
97.47897675514415
 20
-118.9217678196619
 10
97.4975802707645
 20
-118.9238348769531
 10
97.4975802707645
 20
-118.9407158448308
 10
97.4975802707645
 20
-118.9555297554174
 10
97.48827851295432
 20
-118.9641424941305
 10
97.46416284455758
 20
-118.9789564047171
 10
97.45865069178117
 20
-119.0444132189368
 10
97.45658363449003
 20
-119.0656005561711
 10
97.45658363449003
 20
-119.1248561985174
 10
97.45658363449003
 20
-119.1248561985174
 10
97.53995494523308
 20
-119.1248561985174
 10
97.53995494523308
 20
-119.1248561985174
 10
97.61230195042332
 20
-119.1248561985174
 10
97.76423066132284
 20
-119.1205498291608
 10
97.87344018820525
 20
-119.112109345222
 10
97.87344018820525
 20
-119.112109345222
 10
97.87344018820525
 20
-119.291943329552
 10
97.87344018820525
 20
-119.291943329552
 10
97.84725746251736
 20
-119.2898762722609
 10
97.74390459795985
 20
-119.2855699029043
 10
97.70842011446179
 20
-119.2835028456132
 10
97.69567326116636
 20
-119.3343180040206
 10
97.66604543999321
 20
-119.4464558620655
 10
97.60851234538954
 20
-119.5859822292181
 10
97.64571937663024
 20
-119.5859822292181
 10
97.88825409879183
 20
-119.5670342040492
 10
97.94199758836173
 20
-119.5647948919838
 10
97.94199758836173
 20
-119.5647948919838
 10
97.94199758836173
 20
-119.7489352456704
 10
97.94199758836173
 20
-119.7489352456704
 10
97.91581486267383
 20
-119.7489352456704
 10
97.90100095208726
 20
-119.7446288763139
 10
97.75837399899791
 20
-119.7446288763139
 97
        0
 97
        0
 92
        1
 93
        1
 72
     4
 94
        3
 73
     0
 74
     1
 95
       20
 96
       16
 40
0.0
 40
0.0
 40
0.0
 40
0.0
 40
1.0
 40
1.0
 40
1.0
 40
2.0
 40
2.0
 40
2.0
 40
3.0
 40
3.0
 40
3.0
 40
4.0
 40
4.0
 40
4.0
 40
5.0
 40
5.0
 40
5.0
 40
5.0
 10
97.20853675955203
 20
-119.2793687310309
 10
97.20853675955203
 20
-119.2793687310309
 10
97.18097599567004
 20
-119.2793687310309
 10
97.18097599567004
 20
-119.2793687310309
 10
97.22162812239598
 20
-119.3787597357803
 10
97.24918888627799
 20
-119.4590304605866
 10
97.27881670745113
 20
-119.5859822292181
 10
97.27881670745113
 20
-119.5859822292181
 10
97.4603732395238
 20
-119.5859822292181
 10
97.4603732395238
 20
-119.5859822292181
 10
97.48827851295432
 20
-119.4929646511164
 10
97.5086045763173
 20
-119.4083875569535
 10
97.52893063968027
 20
-119.2793687310309
 10
97.52893063968027
 20
-119.2793687310309
 10
97.20853675955203
 20
-119.2793687310309
 10
97.20853675955203
 20
-119.2793687310309
 97
        0
 97
        0
 92
        1
 93
        1
 72
     4
 94
        3
 73
     0
 74
     1
 95
       17
 96
       13
 40
0.0
 40
0.0
 40
0.0
 40
0.0
 40
1.0
 40
1.0
 40
1.0
 40
2.0
 40
2.0
 40
2.0
 40
3.0
 40
3.0
 40
3.0
 40
4.0
 40
4.0
 40
4.0
 40
4.0
 10
97.26400279686456
 20
-120.1297905515648
 10
97.24918888627799
 20
-120.1592461179637
 10
97.20474715451826
 20
-120.2524359508397
 10
97.19544539670808
 20
-120.2713839760086
 10
97.36218801819417
 20
-120.3306396183549
 10
97.38079153381453
 20
-120.3370130450026
 10
97.4438367811946
 20
-120.3645738088846
 10
97.49172360843957
 20
-120.2777574026563
 10
97.51239418135107
 20
-120.2036878497234
 10
97.5251410346465
 20
-120.1297905515648
 10
97.5251410346465
 20
-120.1297905515648
 10
97.26400279686456
 20
-120.1297905515648
 10
97.26400279686456
 20
-120.1297905515648
 97
        0
 97
        0
 75
     2
 76
     1
 98
        0
  0
SPLINE
  5
A2
330
9A
100
AcDbEntity
  8
_U+30EC_U+30A4_U+30E4_U+30FC 1
370
     0
100
AcDbSpline
210
0.0
220
0.0
230
1.0
 70
    11
 71
     3
 72
   203
 73
   199
 74
     0
 42
0.0000000001
 43
0.0000000001
 12
1.0
 22
0.0
 32
0.0
 13
1.0
 23
0.0
 33
0.0
 40
0.0
 40
0.0
 40
0.0
 40
0.0
 40
1.0
 40
1.0
 40
1.0
 40
2.0
 40
2.0
 40
2.0
 40
3.0
 40
3.0
 40
3.0
 40
4.0
 40
4.0
 40
4.0
 40
5.0
 40
5.0
 40
5.0
 40
6.0
 40
6.0
 40
6.0
 40
7.0
 40
7.0
 40
7.0
 40
8.0
 40
8.0
 40
8.0
 40
9.0
 40
9.0
 40
9.0
 40
10.0
 40
10.0
 40
10.0
 40
11.0
 40
11.0
 40
11.0
 40
12.0
 40
12.0
 40
12.0
 40
13.0
 40
13.0
 40
13.0
 40
14.0
 40
14.0
 40
14.0
 40
15.0
 40
15.0
 40
15.0
 40
16.0
 40
16.0
 40
16.0
 40
17.0
 40
17.0
 40
17.0
 40
18.0
 40
18.0
 40
18.0
 40
19.0
 40
19.0
 40
19.0
 40
20.0
 40
20.0
 40
20.0
 40
21.0
 40
21.0
 40
21.0
 40
22.0
 40
22.0
 40
22.0
 40
23.0
 40
23.0
 40
23.0
 40
24.0
 40
24.0
 40
24.0
 40
25.0
 40
25.0
 40
25.0
 40
26.0
 40
26.0
 40
26.0
 40
27.0
 40
27.0
 40
27.0
 40
28.0
 40
28.0
 40
28.0
 40
29.0
 40
29.0
 40
29.0
 40
30.0
 40
30.0
 40
30.0
 40
31.0
 40
31.0
 40
31.0
 40
32.0
 40
32.0
 40
32.0
 40
33.0
 40
33.0
 40
33.0
 40
34.0
 40
34.0
 40
34.0
 40
35.0
 40
35.0
 40
35.0
 40
36.0
 40
36.0
 40
36.0
 40
37.0
 40
37.0
 40
37.0
 40
38.0
 40
38.0
 40
38.0
 40
39.0
 40
39.0
 40
39.0
 40
40.0
 40
40.0
 40
40.0
 40
41.0
 40
41.0
 40
41.0
 40
42.0
 40
42.0
 40
42.0
 40
43.0
 40
43.0
 40
43.0
 40
44.0
 40
44.0
 40
44.0
 40
45.0
 40
45.0
 40
45.0
 40
46.0
 40
46.0
 40
46.0
 40
47.0
 40
47.0
 40
47.0
 40
48.0
 40
48.0
 40
48.0
 40
49.0
 40
49.0
 40
49.0
 40
50.0
 40
50.0
 40
50.0
 40
51.0
 40
51.0
 40
51.0
 40
52.0
 40
52.0
 40
52.0
 40
53.0
 40
53.0
 40
53.0
 40
54.0
 40
54.0
 40
54.0
 40
55.0
 40
55.0
 40
55.0
 40
56.0
 40
56.0
 40
56.0
 40
57.0
 40
57.0
 40
57.0
 40
58.0
 40
58.0
 40
58.0
 40
59.0
 40
59.0
 40
59.0
 40
60.0
 40
60.0
 40
60.0
 40
61.0
 40
61.0
 40
61.0
 40
62.0
 40
62.0
 40
62.0
 40
63.0
 40
63.0
 40
63.0
 40
64.0
 40
64.0
 40
64.0
 40
65.0
 40
65.0
 40
65.0
 40
66.0
 40
66.0
 40
66.0
 40
66.0
 10
99.24045407675239
 20
-119.812325002599
 30
0.0
 10
99.24045407675239
 20
-119.812325002599
 30
0.0
 10
98.75159502739544
 20
-119.812325002599
 30
0.0
 10
98.75159502739544
 20
-119.812325002599
 30
0.0
 10
98.74229326958526
 20
-119.8567667343587
 30
0.0
 10
98.73505856906624
 20
-119.888461612823
 30
0.0
 10
98.72368975396492
 20
-119.9267021727093
 30
0.0
 10
98.74608287461903
 20
-119.9267021727093
 30
0.0
 10
98.75917423746299
 20
-119.9287692300005
 30
0.0
 10
98.76468639023939
 20
-119.9287692300005
 30
0.0
 10
98.76468639023939
 20
-119.9287692300005
 30
0.0
 10
98.92936195443433
 20
-119.9287692300005
 30
0.0
 10
98.92936195443433
 20
-119.9287692300005
 30
0.0
 10
98.92936195443433
 20
-119.9287692300005
 30
0.0
 10
99.25699053508158
 20
-119.9287692300005
 30
0.0
 10
99.25699053508158
 20
-119.9287692300005
 30
0.0
 10
99.30177677638984
 20
-119.9287692300005
 30
0.0
 10
99.54982365132783
 20
-119.916022376705
 30
0.0
 10
99.57738441520982
 20
-119.916022376705
 30
0.0
 10
99.5756618674672
 20
-119.943583140587
 30
0.0
 10
99.57393931972457
 20
-119.9625311657559
 30
0.0
 10
99.57393931972457
 20
-119.9921589869291
 30
0.0
 10
99.57187226243343
 20
-120.0238538653933
 30
0.0
 10
99.57187226243343
 20
-120.1592461179637
 30
0.0
 10
99.57187226243343
 20
-120.1868068818457
 30
0.0
 10
99.57187226243343
 20
-120.1868068818457
 30
0.0
 10
99.57187226243343
 20
-120.4322699351697
 30
0.0
 10
99.57187226243343
 20
-120.4322699351697
 30
0.0
 10
99.57187226243343
 20
-120.4767116669294
 30
0.0
 10
99.5756618674672
 20
-120.6734266191372
 30
0.0
 10
99.57945147250098
 20
-120.8256998395852
 30
0.0
 10
99.57945147250098
 20
-120.8256998395852
 30
0.0
 10
99.3813584820991
 20
-120.8256998395852
 30
0.0
 10
99.3813584820991
 20
-120.8256998395852
 30
0.0
 10
99.3813584820991
 20
-120.8256998395852
 30
0.0
 10
99.38308102984173
 20
-120.7919379038298
 30
0.0
 10
99.38308102984173
 20
-120.7919379038298
 30
0.0
 10
99.38308102984173
 20
-120.7919379038298
 30
0.0
 10
98.76847599527316
 20
-120.7919379038298
 30
0.0
 10
98.76847599527316
 20
-120.7919379038298
 30
0.0
 10
98.76847599527316
 20
-120.7919379038298
 30
0.0
 10
98.7701985430158
 20
-120.8256998395852
 30
0.0
 10
98.7701985430158
 20
-120.8256998395852
 30
0.0
 10
98.7701985430158
 20
-120.8256998395852
 30
0.0
 10
98.57934025313294
 20
-120.8256998395852
 30
0.0
 10
98.57934025313294
 20
-120.8256998395852
 30
0.0
 10
98.58312985816673
 20
-120.7707505665955
 30
0.0
 10
98.58312985816673
 20
-120.7580037133001
 30
0.0
 10
98.58864201094312
 20
-120.6437987979641
 30
0.0
 10
98.59070906823428
 20
-120.6162380340821
 30
0.0
 10
98.59243161597689
 20
-120.4830850935771
 30
0.0
 10
98.59243161597689
 20
-120.463964813634
 30
0.0
 10
98.59243161597689
 20
-120.463964813634
 30
0.0
 10
98.59243161597689
 20
-120.2608764347785
 30
0.0
 10
98.59243161597689
 20
-120.2608764347785
 30
0.0
 10
98.47013072625053
 20
-120.5104736026849
 30
0.0
 10
98.32199162038478
 20
-120.6417317406729
 30
0.0
 10
98.22931855183157
 20
-120.7071885548927
 30
0.0
 10
98.22931855183157
 20
-120.7071885548927
 30
0.0
 10
98.07773435048057
 20
-120.56766218774
 30
0.0
 10
98.07773435048057
 20
-120.56766218774
 30
0.0
 10
98.1552489988987
 20
-120.5168470293326
 30
0.0
 10
98.28133949365883
 20
-120.4300306231043
 30
0.0
 10
98.40157332609405
 20
-120.2355549829619
 30
0.0
 10
98.48115503180333
 20
-120.1086032143305
 30
0.0
 10
98.538688126407
 20
-119.9647704778213
 30
0.0
 10
98.56831594758015
 20
-119.812325002599
 30
0.0
 10
98.36815589988713
 20
-119.8145643146644
 30
0.0
 10
98.21105954575974
 20
-119.8209377413121
 30
0.0
 10
98.12768823501669
 20
-119.8230047986033
 30
0.0
 10
98.12768823501669
 20
-119.8230047986033
 30
0.0
 10
98.12768823501669
 20
-119.6452378715644
 30
0.0
 10
98.12768823501669
 20
-119.6452378715644
 30
0.0
 10
98.29994300927919
 20
-119.6516112982121
 30
0.0
 10
98.54798988421717
 20
-119.6559176675687
 30
0.0
 10
98.67959253175371
 20
-119.6559176675687
 30
0.0
 10
98.67959253175371
 20
-119.6559176675687
 30
0.0
 10
98.86631670705425
 20
-119.6559176675687
 30
0.0
 10
98.86631670705425
 20
-119.6559176675687
 30
0.0
 10
98.86631670705425
 20
-119.6559176675687
 30
0.0
 10
98.86631670705425
 20
-119.5479139241061
 30
0.0
 10
98.86631670705425
 20
-119.5479139241061
 30
0.0
 10
98.86631670705425
 20
-119.5479139241061
 30
0.0
 10
98.73884817410001
 20
-119.5479139241061
 30
0.0
 10
98.73884817410001
 20
-119.5479139241061
 30
0.0
 10
98.59070906823428
 20
-119.5479139241061
 30
0.0
 10
98.44256996236852
 20
-119.5522202934626
 30
0.0
 10
98.29615340424542
 20
-119.5585937201104
 30
0.0
 10
98.29615340424542
 20
-119.5585937201104
 30
0.0
 10
98.29615340424542
 20
-119.3872002197192
 30
0.0
 10
98.29615340424542
 20
-119.3872002197192
 30
0.0
 10
98.4312011472672
 20
-119.3977077609492
 30
0.0
 10
98.59415416371952
 20
-119.3977077609492
 30
0.0
 10
98.73884817410001
 20
-119.3977077609492
 30
0.0
 10
98.73884817410001
 20
-119.3977077609492
 30
0.0
 10
98.86631670705425
 20
-119.3977077609492
 30
0.0
 10
98.86631670705425
 20
-119.3977077609492
 30
0.0
 10
98.86631670705425
 20
-119.3977077609492
 30
0.0
 10
98.86631670705425
 20
-119.2793687310309
 30
0.0
 10
98.86631670705425
 20
-119.2793687310309
 30
0.0
 10
98.86631670705425
 20
-119.2793687310309
 30
0.0
 10
98.75159502739544
 20
-119.2793687310309
 30
0.0
 10
98.75159502739544
 20
-119.2793687310309
 30
0.0
 10
98.7109429006695
 20
-119.2793687310309
 30
0.0
 10
98.5331759736306
 20
-119.2878092149697
 30
0.0
 10
98.49596894238991
 20
-119.2878092149697
 30
0.0
 10
98.318202015351
 20
-119.291943329552
 30
0.0
 10
98.25171167248568
 20
-119.2940103868432
 30
0.0
 10
98.18315427232922
 20
-119.2962496989086
 30
0.0
 10
98.18315427232922
 20
-119.2962496989086
 30
0.0
 10
98.18315427232922
 20
-119.112109345222
 30
0.0
 10
98.18315427232922
 20
-119.112109345222
 30
0.0
 10
98.28306204140146
 20
-119.1205498291608
 30
0.0
 10
98.32199162038478
 20
-119.1205498291608
 30
0.0
 10
98.6571994110996
 20
-119.129162567874
 30
0.0
 10
98.60173337378707
 20
-119.0339056777068
 30
0.0
 10
98.57761770539032
 20
-119.0063449138248
 30
0.0
 10
98.54592282692603
 20
-118.9703436660039
 30
0.0
 10
98.54592282692603
 20
-118.9703436660039
 30
0.0
 10
98.69991859511669
 20
-118.8878336291322
 30
0.0
 10
98.69991859511669
 20
-118.8878336291322
 30
0.0
 10
98.73505856906624
 20
-118.9238348769531
 30
0.0
 10
98.77398814804957
 20
-118.9662095514216
 30
0.0
 10
98.83875594317226
 20
-119.0761080974011
 30
0.0
 10
98.83875594317226
 20
-119.0761080974011
 30
0.0
 10
98.73884817410001
 20
-119.1312296251651
 30
0.0
 10
98.73884817410001
 20
-119.1312296251651
 30
0.0
 10
98.73884817410001
 20
-119.1312296251651
 30
0.0
 10
98.74780542236167
 20
-119.1312296251651
 30
0.0
 10
98.74780542236167
 20
-119.1312296251651
 30
0.0
 10
98.74780542236167
 20
-119.1312296251651
 30
0.0
 10
99.20531410280284
 20
-119.1312296251651
 30
0.0
 10
99.20531410280284
 20
-119.1312296251651
 30
0.0
 10
99.20531410280284
 20
-119.1312296251651
 30
0.0
 10
99.1219427920598
 20
-119.0867878934054
 30
0.0
 10
99.1219427920598
 20
-119.0867878934054
 30
0.0
 10
99.14605846045654
 20
-119.0487195882934
 30
0.0
 10
99.19601234499267
 20
-118.9682766087128
 30
0.0
 10
99.20910370783662
 20
-118.8942070557799
 30
0.0
 10
99.20910370783662
 20
-118.8942070557799
 30
0.0
 10
99.39617239268568
 20
-118.9577690674828
 30
0.0
 10
99.39617239268568
 20
-118.9577690674828
 30
0.0
 10
99.4034070932047
 20
-118.9598361247739
 30
0.0
 10
99.42201060882506
 20
-118.9703436660039
 30
0.0
 10
99.42201060882506
 20
-118.9915310032382
 30
0.0
 10
99.42201060882506
 20
-119.0295993083502
 30
0.0
 10
99.36447751422139
 20
-119.0295993083502
 30
0.0
 10
99.34794105589219
 20
-119.0295993083502
 30
0.0
 10
99.33863929808201
 20
-119.0487195882934
 30
0.0
 10
99.31831323471904
 20
-119.0888549506965
 30
0.0
 10
99.29247501857967
 20
-119.129162567874
 30
0.0
 10
99.64215221033253
 20
-119.1227891412262
 30
0.0
 10
99.66833493602041
 20
-119.1205498291608
 30
0.0
 10
99.73482527888574
 20
-119.1143486572874
 30
0.0
 10
99.73482527888574
 20
-119.1143486572874
 30
0.0
 10
99.73482527888574
 20
-119.2962496989086
 30
0.0
 10
99.73482527888574
 20
-119.2962496989086
 30
0.0
 10
99.71828882055654
 20
-119.2962496989086
 30
0.0
 10
99.69589569990242
 20
-119.2940103868432
 30
0.0
 10
99.50331486227695
 20
-119.2855699029043
 30
0.0
 10
99.45887313051723
 20
-119.2835028456132
 30
0.0
 10
99.26629229289176
 20
-119.2793687310309
 30
0.0
 10
99.22736271390845
 20
-119.2793687310309
 30
0.0
 10
99.22736271390845
 20
-119.2793687310309
 30
0.0
 10
99.03857148131675
 20
-119.2793687310309
 30
0.0
 10
99.03857148131675
 20
-119.2793687310309
 30
0.0
 10
99.03857148131675
 20
-119.2793687310309
 30
0.0
 10
99.03857148131675
 20
-119.3977077609492
 30
0.0
 10
99.03857148131675
 20
-119.3977077609492
 30
0.0
 10
99.03857148131675
 20
-119.3977077609492
 30
0.0
 10
99.19050019221626
 20
-119.3977077609492
 30
0.0
 10
99.19050019221626
 20
-119.3977077609492
 30
0.0
 10
99.33312714530561
 20
-119.3977077609492
 30
0.0
 10
99.4998697667917
 20
-119.3977077609492
 30
0.0
 10
99.63664005755612
 20
-119.3872002197192
 30
0.0
 10
99.63664005755612
 20
-119.3872002197192
 30
0.0
 10
99.63664005755612
 20
-119.5585937201104
 30
0.0
 10
99.63664005755612
 20
-119.5585937201104
 30
0.0
 10
99.45336097774083
 20
-119.5501532361715
 30
0.0
 10
99.28110620347834
 20
-119.5479139241061
 30
0.0
 10
99.19050019221626
 20
-119.5479139241061
 30
0.0
 10
99.19050019221626
 20
-119.5479139241061
 30
0.0
 10
99.03857148131675
 20
-119.5479139241061
 30
0.0
 10
99.03857148131675
 20
-119.5479139241061
 30
0.0
 10
99.03857148131675
 20
-119.5479139241061
 30
0.0
 10
99.03857148131675
 20
-119.6559176675687
 30
0.0
 10
99.03857148131675
 20
-119.6559176675687
 30
0.0
 10
99.03857148131675
 20
-119.6559176675687
 30
0.0
 10
99.24045407675239
 20
-119.6559176675687
 30
0.0
 10
99.24045407675239
 20
-119.6559176675687
 30
0.0
 10
99.35724281370236
 20
-119.6559176675687
 30
0.0
 10
99.60907929367413
 20
-119.6516112982121
 30
0.0
 10
99.79235837348942
 20
-119.6452378715644
 30
0.0
 10
99.79235837348942
 20
-119.6452378715644
 30
0.0
 10
99.79235837348942
 20
-119.8230047986033
 30
0.0
 10
99.79235837348942
 20
-119.8230047986033
 30
0.0
 10
99.6238932042607
 20
-119.8166313719556
 30
0.0
 10
99.34966360363481
 20
-119.812325002599
 30
0.0
 10
99.24045407675239
 20
-119.812325002599
 30
0.0
  0
POLYLINE
  5
A3
330
9A
100
AcDbEntity
  8
_U+30EC_U+30A4_U+30E4_U+30FC 1
370
     0
100
AcDb2dPolyline
 66
     1
 10
0.0
 20
0.0
 30
0.0
  0
VERTEX
  5
A4
330
A3
100
AcDbEntity
  8
_U+30EC_U+30A4_U+30E4_U+30FC 1
370
     0
100
AcDbVertex
100
AcDb2dVertex
 10
99.38480357758436
 20
-120.0682955971531
 30
0.0
  0
VERTEX
  5
A5
330
A3
100
AcDbEntity
  8
_U+30EC_U+30A4_U+30E4_U+30FC 1
370
     0
100
AcDbVertex
100
AcDb2dVertex
 10
98.766408937982
 20
-120.0682955971531
 30
0.0
  0
VERTEX
  5
A6
330
A3
100
AcDbEntity
  8
_U+30EC_U+30A4_U+30E4_U+30FC 1
370
     0
100
AcDbVertex
100
AcDb2dVertex
 10
98.766408937982
 20
-120.1762993406157
 30
0.0
  0
VERTEX
  5
A7
330
A3
100
AcDbEntity
  8
_U+30EC_U+30A4_U+30E4_U+30FC 1
370
     0
100
AcDbVertex
100
AcDb2dVertex
 10
99.38480357758436
 20
-120.1762993406157
 30
0.0
  0
VERTEX
  5
A8
330
A3
100
AcDbEntity
  8
_U+30EC_U+30A4_U+30E4_U+30FC 1
370
     0
100
AcDbVertex
100
AcDb2dVertex
 10
99.38480357758436
 20
-120.0682955971531
 30
0.0
  0
SEQEND
  5
A9
330
A3
100
AcDbEntity
  8
_U+30EC_U+30A4_U+30E4_U+30FC 1
370
     0
  0
POLYLINE
  5
AA
330
9A
100
AcDbEntity
  8
_U+30EC_U+30A4_U+30E4_U+30FC 1
370
     0
100
AcDb2dPolyline
 66
     1
 10
0.0
 20
0.0
 30
0.0
  0
VERTEX
  5
AB
330
AA
100
AcDbEntity
  8
_U+30EC_U+30A4_U+30E4_U+30FC 1
370
     0
100
AcDbVertex
100
AcDb2dVertex
 10
99.38480357758436
 20
-120.3010117971817
 30
0.0
  0
VERTEX
  5
AC
330
AA
100
AcDbEntity
  8
_U+30EC_U+30A4_U+30E4_U+30FC 1
370
     0
100
AcDbVertex
100
AcDb2dVertex
 10
98.766408937982
 20
-120.3010117971817
 30
0.0
  0
VERTEX
  5
AD
330
AA
100
AcDbEntity
  8
_U+30EC_U+30A4_U+30E4_U+30FC 1
370
     0
100
AcDbVertex
100
AcDb2dVertex
 10
98.766408937982
 20
-120.415388967292
 30
0.0
  0
VERTEX
  5
AE
330
AA
100
AcDbEntity
  8
_U+30EC_U+30A4_U+30E4_U+30FC 1
370
     0
100
AcDbVertex
100
AcDb2dVertex
 10
99.38480357758436
 20
-120.415388967292
 30
0.0
  0
VERTEX
  5
AF
330
AA
100
AcDbEntity
  8
_U+30EC_U+30A4_U+30E4_U+30FC 1
370
     0
100
AcDbVertex
100
AcDb2dVertex
 10
99.38480357758436
 20
-120.3010117971817
 30
0.0
  0
SEQEND
  5
B0
330
AA
100
AcDbEntity
  8
_U+30EC_U+30A4_U+30E4_U+30FC 1
370
     0
  0
POLYLINE
  5
B1
330
9A
100
AcDbEntity
  8
_U+30EC_U+30A4_U+30E4_U+30FC 1
370
     0
100
AcDb2dPolyline
 66
     1
 10
0.0
 20
0.0
 30
0.0
  0
VERTEX
  5
B2
330
B1
100
AcDbEntity
  8
_U+30EC_U+30A4_U+30E4_U+30FC 1
370
     0
100
AcDbVertex
100
AcDb2dVertex
 10
99.38480357758436
 20
-120.5444077932146
 30
0.0
  0
VERTEX
  5
B3
330
B1
100
AcDbEntity
  8
_U+30EC_U+30A4_U+30E4_U+30FC 1
370
     0
100
AcDbVertex
100
AcDb2dVertex
 10
98.766408937982
 20
-120.5444077932146
 30
0.0
  0
VERTEX
  5
B4
330
B1
100
AcDbEntity
  8
_U+30EC_U+30A4_U+30E4_U+30FC 1
370
     0
100
AcDbVertex
100
AcDb2dVertex
 10
98.766408937982
 20
-120.6586127085506
 30
0.0
  0
VERTEX
  5
B5
330
B1
100
AcDbEntity
  8
_U+30EC_U+30A4_U+30E4_U+30FC 1
370
     0
100
AcDbVertex
100
AcDb2dVertex
 10
99.38480357758436
 20
-120.6586127085506
 30
0.0
  0
VERTEX
  5
B6
330
B1
100
AcDbEntity
  8
_U+30EC_U+30A4_U+30E4_U+30FC 1
370
     0
100
AcDbVertex
100
AcDb2dVertex
 10
99.38480357758436
 20
-120.5444077932146
 30
0.0
  0
SEQEND
  5
B7
330
B1
100
AcDbEntity
  8
_U+30EC_U+30A4_U+30E4_U+30FC 1
370
     0
  0
HATCH
  5
B8
330
9A
100
AcDbEntity
  8
_U+30EC_U+30A4_U+30E4_U+30FC 1
 62
   179
420
  2234388
100
AcDbHatch
 10
0.0
 20
0.0
 30
0.0
210
0.0
220
0.0
230
1.0
  2
SOLID
 70
     1
 71
     0
 91
        4
 92
        1
 93
        1
 72
     4
 94
        3
 73
     0
 74
     1
 95
      203
 96
      199
 40
0.0
 40
0.0
 40
0.0
 40
0.0
 40
1.0
 40
1.0
 40
1.0
 40
2.0
 40
2.0
 40
2.0
 40
3.0
 40
3.0
 40
3.0
 40
4.0
 40
4.0
 40
4.0
 40
5.0
 40
5.0
 40
5.0
 40
6.0
 40
6.0
 40
6.0
 40
7.0
 40
7.0
 40
7.0
 40
8.0
 40
8.0
 40
8.0
 40
9.0
 40
9.0
 40
9.0
 40
10.0
 40
10.0
 40
10.0
 40
11.0
 40
11.0
 40
11.0
 40
12.0
 40
12.0
 40
12.0
 40
13.0
 40
13.0
 40
13.0
 40
14.0
 40
14.0
 40
14.0
 40
15.0
 40
15.0
 40
15.0
 40
16.0
 40
16.0
 40
16.0
 40
17.0
 40
17.0
 40
17.0
 40
18.0
 40
18.0
 40
18.0
 40
19.0
 40
19.0
 40
19.0
 40
20.0
 40
20.0
 40
20.0
 40
21.0
 40
21.0
 40
21.0
 40
22.0
 40
22.0
 40
22.0
 40
23.0
 40
23.0
 40
23.0
 40
24.0
 40
24.0
 40
24.0
 40
25.0
 40
25.0
 40
25.0
 40
26.0
 40
26.0
 40
26.0
 40
27.0
 40
27.0
 40
27.0
 40
28.0
 40
28.0
 40
28.0
 40
29.0
 40
29.0
 40
29.0
 40
30.0
 40
30.0
 40
30.0
 40
31.0
 40
31.0
 40
31.0
 40
32.0
 40
32.0
 40
32.0
 40
33.0
 40
33.0
 40
33.0
 40
34.0
 40
34.0
 40
34.0
 40
35.0
 40
35.0
 40
35.0
 40
36.0
 40
36.0
 40
36.0
 40
37.0
 40
37.0
 40
37.0
 40
38.0
 40
38.0
 40
38.0
 40
39.0
 40
39.0
 40
39.0
 40
40.0
 40
40.0
 40
40.0
 40
41.0
 40
41.0
 40
41.0
 40
42.0
 40
42.0
 40
42.0
 40
43.0
 40
43.0
 40
43.0
 40
44.0
 40
44.0
 40
44.0
 40
45.0
 40
45.0
 40
45.0
 40
46.0
 40
46.0
 40
46.0
 40
47.0
 40
47.0
 40
47.0
 40
48.0
 40
48.0
 40
48.0
 40
49.0
 40
49.0
 40
49.0
 40
50.0
 40
50.0
 40
50.0
 40
51.0
 40
51.0
 40
51.0
 40
52.0
 40
52.0
 40
52.0
 40
53.0
 40
53.0
 40
53.0
 40
54.0
 40
54.0
 40
54.0
 40
55.0
 40
55.0
 40
55.0
 40
56.0
 40
56.0
 40
56.0
 40
57.0
 40
57.0
 40
57.0
 40
58.0
 40
58.0
 40
58.0
 40
59.0
 40
59.0
 40
59.0
 40
60.0
 40
60.0
 40
60.0
 40
61.0
 40
61.0
 40
61.0
 40
62.0
 40
62.0
 40
62.0
 40
63.0
 40
63.0
 40
63.0
 40
64.0
 40
64.0
 40
64.0
 40
65.0
 40
65.0
 40
65.0
 40
66.0
 40
66.0
 40
66.0
 40
66.0
 10
99.24045407675239
 20
-119.812325002599
 10
99.24045407675239
 20
-119.812325002599
 10
98.75159502739544
 20
-119.812325002599
 10
98.75159502739544
 20
-119.812325002599
 10
98.74229326958526
 20
-119.8567667343587
 10
98.73505856906624
 20
-119.888461612823
 10
98.72368975396492
 20
-119.9267021727093
 10
98.74608287461903
 20
-119.9267021727093
 10
98.75917423746299
 20
-119.9287692300005
 10
98.76468639023939
 20
-119.9287692300005
 10
98.76468639023939
 20
-119.9287692300005
 10
98.92936195443433
 20
-119.9287692300005
 10
98.92936195443433
 20
-119.9287692300005
 10
98.92936195443433
 20
-119.9287692300005
 10
99.25699053508158
 20
-119.9287692300005
 10
99.25699053508158
 20
-119.9287692300005
 10
99.30177677638984
 20
-119.9287692300005
 10
99.54982365132783
 20
-119.916022376705
 10
99.57738441520982
 20
-119.916022376705
 10
99.5756618674672
 20
-119.943583140587
 10
99.57393931972457
 20
-119.9625311657559
 10
99.57393931972457
 20
-119.9921589869291
 10
99.57187226243343
 20
-120.0238538653933
 10
99.57187226243343
 20
-120.1592461179637
 10
99.57187226243343
 20
-120.1868068818457
 10
99.57187226243343
 20
-120.1868068818457
 10
99.57187226243343
 20
-120.4322699351697
 10
99.57187226243343
 20
-120.4322699351697
 10
99.57187226243343
 20
-120.4767116669294
 10
99.5756618674672
 20
-120.6734266191372
 10
99.57945147250098
 20
-120.8256998395852
 10
99.57945147250098
 20
-120.8256998395852
 10
99.3813584820991
 20
-120.8256998395852
 10
99.3813584820991
 20
-120.8256998395852
 10
99.3813584820991
 20
-120.8256998395852
 10
99.38308102984173
 20
-120.7919379038298
 10
99.38308102984173
 20
-120.7919379038298
 10
99.38308102984173
 20
-120.7919379038298
 10
98.76847599527316
 20
-120.7919379038298
 10
98.76847599527316
 20
-120.7919379038298
 10
98.76847599527316
 20
-120.7919379038298
 10
98.7701985430158
 20
-120.8256998395852
 10
98.7701985430158
 20
-120.8256998395852
 10
98.7701985430158
 20
-120.8256998395852
 10
98.57934025313294
 20
-120.8256998395852
 10
98.57934025313294
 20
-120.8256998395852
 10
98.58312985816673
 20
-120.7707505665955
 10
98.58312985816673
 20
-120.7580037133001
 10
98.58864201094312
 20
-120.6437987979641
 10
98.59070906823428
 20
-120.6162380340821
 10
98.59243161597689
 20
-120.4830850935771
 10
98.59243161597689
 20
-120.463964813634
 10
98.59243161597689
 20
-120.463964813634
 10
98.59243161597689
 20
-120.2608764347785
 10
98.59243161597689
 20
-120.2608764347785
 10
98.47013072625053
 20
-120.5104736026849
 10
98.32199162038478
 20
-120.6417317406729
 10
98.22931855183157
 20
-120.7071885548927
 10
98.22931855183157
 20
-120.7071885548927
 10
98.07773435048057
 20
-120.56766218774
 10
98.07773435048057
 20
-120.56766218774
 10
98.1552489988987
 20
-120.5168470293326
 10
98.28133949365883
 20
-120.4300306231043
 10
98.40157332609405
 20
-120.2355549829619
 10
98.48115503180333
 20
-120.1086032143305
 10
98.538688126407
 20
-119.9647704778213
 10
98.56831594758015
 20
-119.812325002599
 10
98.36815589988713
 20
-119.8145643146644
 10
98.21105954575974
 20
-119.8209377413121
 10
98.12768823501669
 20
-119.8230047986033
 10
98.12768823501669
 20
-119.8230047986033
 10
98.12768823501669
 20
-119.6452378715644
 10
98.12768823501669
 20
-119.6452378715644
 10
98.29994300927919
 20
-119.6516112982121
 10
98.54798988421717
 20
-119.6559176675687
 10
98.67959253175371
 20
-119.6559176675687
 10
98.67959253175371
 20
-119.6559176675687
 10
98.86631670705425
 20
-119.6559176675687
 10
98.86631670705425
 20
-119.6559176675687
 10
98.86631670705425
 20
-119.6559176675687
 10
98.86631670705425
 20
-119.5479139241061
 10
98.86631670705425
 20
-119.5479139241061
 10
98.86631670705425
 20
-119.5479139241061
 10
98.73884817410001
 20
-119.5479139241061
 10
98.73884817410001
 20
-119.5479139241061
 10
98.59070906823428
 20
-119.5479139241061
 10
98.44256996236852
 20
-119.5522202934626
 10
98.29615340424542
 20
-119.5585937201104
 10
98.29615340424542
 20
-119.5585937201104
 10
98.29615340424542
 20
-119.3872002197192
 10
98.29615340424542
 20
-119.3872002197192
 10
98.4312011472672
 20
-119.3977077609492
 10
98.59415416371952
 20
-119.3977077609492
 10
98.73884817410001
 20
-119.3977077609492
 10
98.73884817410001
 20
-119.3977077609492
 10
98.86631670705425
 20
-119.3977077609492
 10
98.86631670705425
 20
-119.3977077609492
 10
98.86631670705425
 20
-119.3977077609492
 10
98.86631670705425
 20
-119.2793687310309
 10
98.86631670705425
 20
-119.2793687310309
 10
98.86631670705425
 20
-119.2793687310309
 10
98.75159502739544
 20
-119.2793687310309
 10
98.75159502739544
 20
-119.2793687310309
 10
98.7109429006695
 20
-119.2793687310309
 10
98.5331759736306
 20
-119.2878092149697
 10
98.49596894238991
 20
-119.2878092149697
 10
98.318202015351
 20
-119.291943329552
 10
98.25171167248568
 20
-119.2940103868432
 10
98.18315427232922
 20
-119.2962496989086
 10
98.18315427232922
 20
-119.2962496989086
 10
98.18315427232922
 20
-119.112109345222
 10
98.18315427232922
 20
-119.112109345222
 10
98.28306204140146
 20
-119.1205498291608
 10
98.32199162038478
 20
-119.1205498291608
 10
98.6571994110996
 20
-119.129162567874
 10
98.60173337378707
 20
-119.0339056777068
 10
98.57761770539032
 20
-119.0063449138248
 10
98.54592282692603
 20
-118.9703436660039
 10
98.54592282692603
 20
-118.9703436660039
 10
98.69991859511669
 20
-118.8878336291322
 10
98.69991859511669
 20
-118.8878336291322
 10
98.73505856906624
 20
-118.9238348769531
 10
98.77398814804957
 20
-118.9662095514216
 10
98.83875594317226
 20
-119.0761080974011
 10
98.83875594317226
 20
-119.0761080974011
 10
98.73884817410001
 20
-119.1312296251651
 10
98.73884817410001
 20
-119.1312296251651
 10
98.73884817410001
 20
-119.1312296251651
 10
98.74780542236167
 20
-119.1312296251651
 10
98.74780542236167
 20
-119.1312296251651
 10
98.74780542236167
 20
-119.1312296251651
 10
99.20531410280284
 20
-119.1312296251651
 10
99.20531410280284
 20
-119.1312296251651
 10
99.20531410280284
 20
-119.1312296251651
 10
99.1219427920598
 20
-119.0867878934054
 10
99.1219427920598
 20
-119.0867878934054
 10
99.14605846045654
 20
-119.0487195882934
 10
99.19601234499267
 20
-118.9682766087128
 10
99.20910370783662
 20
-118.8942070557799
 10
99.20910370783662
 20
-118.8942070557799
 10
99.39617239268568
 20
-118.9577690674828
 10
99.39617239268568
 20
-118.9577690674828
 10
99.4034070932047
 20
-118.9598361247739
 10
99.42201060882506
 20
-118.9703436660039
 10
99.42201060882506
 20
-118.9915310032382
 10
99.42201060882506
 20
-119.0295993083502
 10
99.36447751422139
 20
-119.0295993083502
 10
99.34794105589219
 20
-119.0295993083502
 10
99.33863929808201
 20
-119.0487195882934
 10
99.31831323471904
 20
-119.0888549506965
 10
99.29247501857967
 20
-119.129162567874
 10
99.64215221033253
 20
-119.1227891412262
 10
99.66833493602041
 20
-119.1205498291608
 10
99.73482527888574
 20
-119.1143486572874
 10
99.73482527888574
 20
-119.1143486572874
 10
99.73482527888574
 20
-119.2962496989086
 10
99.73482527888574
 20
-119.2962496989086
 10
99.71828882055654
 20
-119.2962496989086
 10
99.69589569990242
 20
-119.2940103868432
 10
99.50331486227695
 20
-119.2855699029043
 10
99.45887313051723
 20
-119.2835028456132
 10
99.26629229289176
 20
-119.2793687310309
 10
99.22736271390845
 20
-119.2793687310309
 10
99.22736271390845
 20
-119.2793687310309
 10
99.03857148131675
 20
-119.2793687310309
 10
99.03857148131675
 20
-119.2793687310309
 10
99.03857148131675
 20
-119.2793687310309
 10
99.03857148131675
 20
-119.3977077609492
 10
99.03857148131675
 20
-119.3977077609492
 10
99.03857148131675
 20
-119.3977077609492
 10
99.19050019221626
 20
-119.3977077609492
 10
99.19050019221626
 20
-119.3977077609492
 10
99.33312714530561
 20
-119.3977077609492
 10
99.4998697667917
 20
-119.3977077609492
 10
99.63664005755612
 20
-119.3872002197192
 10
99.63664005755612
 20
-119.3872002197192
 10
99.63664005755612
 20
-119.5585937201104
 10
99.63664005755612
 20
-119.5585937201104
 10
99.45336097774083
 20
-119.5501532361715
 10
99.28110620347834
 20
-119.5479139241061
 10
99.19050019221626
 20
-119.5479139241061
 10
99.19050019221626
 20
-119.5479139241061
 10
99.03857148131675
 20
-119.5479139241061
 10
99.03857148131675
 20
-119.5479139241061
 10
99.03857148131675
 20
-119.5479139241061
 10
99.03857148131675
 20
-119.6559176675687
 10
99.03857148131675
 20
-119.6559176675687
 10
99.03857148131675
 20
-119.6559176675687
 10
99.24045407675239
 20
-119.6559176675687
 10
99.24045407675239
 20
-119.6559176675687
 10
99.35724281370236
 20
-119.6559176675687
 10
99.60907929367413
 20
-119.6516112982121
 10
99.79235837348942
 20
-119.6452378715644
 10
99.79235837348942
 20
-119.6452378715644
 10
99.79235837348942
 20
-119.8230047986033
 10
99.79235837348942
 20
-119.8230047986033
 10
99.6238932042607
 20
-119.8166313719556
 10
99.34966360363481
 20
-119.812325002599
 10
99.24045407675239
 20
-119.812325002599
 97
        0
 97
        0
 92
        1
 93
        4
 72
     1
 10
99.38480357758436
 20
-120.0682955971531
 11
98.766408937982
 21
-120.0682955971531
 72
     1
 10
98.766408937982
 20
-120.0682955971531
 11
98.766408937982
 21
-120.1762993406157
 72
     1
 10
98.766408937982
 20
-120.1762993406157
 11
99.38480357758436
 21
-120.1762993406157
 72
     1
 10
99.38480357758436
 20
-120.1762993406157
 11
99.38480357758436
 21
-120.0682955971531
 97
        0
 92
        1
 93
        4
 72
     1
 10
99.38480357758436
 20
-120.3010117971817
 11
98.766408937982
 21
-120.3010117971817
 72
     1
 10
98.766408937982
 20
-120.3010117971817
 11
98.766408937982
 21
-120.415388967292
 72
     1
 10
98.766408937982
 20
-120.415388967292
 11
99.38480357758436
 21
-120.415388967292
 72
     1
 10
99.38480357758436
 20
-120.415388967292
 11
99.38480357758436
 21
-120.3010117971817
 97
        0
 92
        1
 93
        4
 72
     1
 10
99.38480357758436
 20
-120.5444077932146
 11
98.766408937982
 21
-120.5444077932146
 72
     1
 10
98.766408937982
 20
-120.5444077932146
 11
98.766408937982
 21
-120.6586127085506
 72
     1
 10
98.766408937982
 20
-120.6586127085506
 11
99.38480357758436
 21
-120.6586127085506
 72
     1
 10
99.38480357758436
 20
-120.6586127085506
 11
99.38480357758436
 21
-120.5444077932146
 97
        0
 75
     2
 76
     1
 98
        0
  0
SPLINE
  5
B9
330
9A
100
AcDbEntity
  8
_U+30EC_U+30A4_U+30E4_U+30FC 1
370
     0
100
AcDbSpline
210
0.0
220
0.0
230
1.0
 70
    11
 71
     3
 72
    47
 73
    43
 74
     0
 42
0.0000000001
 43
0.0000000001
 12
1.0
 22
0.0
 32
0.0
 13
1.0
 23
0.0
 33
0.0
 40
0.0
 40
0.0
 40
0.0
 40
0.0
 40
1.0
 40
1.0
 40
1.0
 40
2.0
 40
2.0
 40
2.0
 40
3.0
 40
3.0
 40
3.0
 40
4.0
 40
4.0
 40
4.0
 40
5.0
 40
5.0
 40
5.0
 40
6.0
 40
6.0
 40
6.0
 40
7.0
 40
7.0
 40
7.0
 40
8.0
 40
8.0
 40
8.0
 40
9.0
 40
9.0
 40
9.0
 40
10.0
 40
10.0
 40
10.0
 40
11.0
 40
11.0
 40
11.0
 40
12.0
 40
12.0
 40
12.0
 40
13.0
 40
13.0
 40
13.0
 40
14.0
 40
14.0
 40
14.0
 40
14.0
 10
100.9723035771875
 20
-119.7890706080736
 30
0.0
 10
100.9723035771875
 20
-119.7890706080736
 30
0.0
 10
100.883420113668
 20
-119.7890706080736
 30
0.0
 10
100.883420113668
 20
-119.7890706080736
 30
0.0
 10
100.883420113668
 20
-119.8758870143019
 30
0.0
 10
100.8648165980477
 20
-120.2651828041351
 30
0.0
 10
100.6925618237852
 20
-120.4851521508683
 30
0.0
 10
100.559236628506
 20
-120.6543063391941
 30
0.0
 10
100.3776800964334
 20
-120.7242417775446
 30
0.0
 10
100.3036105435005
 20
-120.7516302866524
 30
0.0
 10
100.3036105435005
 20
-120.7516302866524
 30
0.0
 10
100.1334228265292
 20
-120.5845431556178
 30
0.0
 10
100.1334228265292
 20
-120.5845431556178
 30
0.0
 10
100.2185166850148
 20
-120.5717963023223
 30
0.0
 10
100.372167943657
 20
-120.5485419077969
 30
0.0
 10
100.5371880174004
 20
-120.360267439528
 30
0.0
 10
100.6019558125231
 20
-120.2884371986605
 30
0.0
 10
100.6925618237852
 20
-120.1487385767336
 30
0.0
 10
100.6925618237852
 20
-119.7890706080736
 30
0.0
 10
100.6925618237852
 20
-119.7890706080736
 30
0.0
 10
100.4906792283496
 20
-119.7890706080736
 30
0.0
 10
100.4906792283496
 20
-119.7890706080736
 30
0.0
 10
100.3277262118972
 20
-119.7890706080736
 30
0.0
 10
100.1647731954449
 20
-119.7933769774301
 30
0.0
 10
100.0018201789926
 20
-119.8081908880167
 30
0.0
 10
100.0018201789926
 20
-119.8081908880167
 30
0.0
 10
100.0018201789926
 20
-119.5882215412835
 30
0.0
 10
100.0018201789926
 20
-119.5882215412835
 30
0.0
 10
100.1664957431876
 20
-119.6030354518701
 30
0.0
 10
100.4166096754167
 20
-119.6071695664524
 30
0.0
 10
100.4906792283496
 20
-119.6071695664524
 30
0.0
 10
100.4906792283496
 20
-119.6071695664524
 30
0.0
 10
100.9723035771875
 20
-119.6071695664524
 30
0.0
 10
100.9723035771875
 20
-119.6071695664524
 30
0.0
 10
100.9888400355167
 20
-119.6071695664524
 30
0.0
 10
101.2665147316278
 20
-119.6071695664524
 30
0.0
 10
101.4666747793208
 20
-119.5882215412835
 30
0.0
 10
101.4666747793208
 20
-119.5882215412835
 30
0.0
 10
101.4666747793208
 20
-119.8081908880167
 30
0.0
 10
101.4666747793208
 20
-119.8081908880167
 30
0.0
 10
101.3016547055774
 20
-119.7933769774301
 30
0.0
 10
101.1369791413824
 20
-119.7890706080736
 30
0.0
 10
100.9723035771875
 20
-119.7890706080736
 30
0.0
  0
SPLINE
  5
BA
330
9A
100
AcDbEntity
  8
_U+30EC_U+30A4_U+30E4_U+30FC 1
370
     0
100
AcDbSpline
210
0.0
220
0.0
230
1.0
 70
    11
 71
     3
 72
    29
 73
    25
 74
     0
 42
0.0000000001
 43
0.0000000001
 12
1.0
 22
0.0
 32
0.0
 13
1.0
 23
0.0
 33
0.0
 40
0.0
 40
0.0
 40
0.0
 40
0.0
 40
1.0
 40
1.0
 40
1.0
 40
2.0
 40
2.0
 40
2.0
 40
3.0
 40
3.0
 40
3.0
 40
4.0
 40
4.0
 40
4.0
 40
5.0
 40
5.0
 40
5.0
 40
6.0
 40
6.0
 40
6.0
 40
7.0
 40
7.0
 40
7.0
 40
8.0
 40
8.0
 40
8.0
 40
8.0
 10
100.883420113668
 20
-119.2602484510877
 30
0.0
 10
100.883420113668
 20
-119.2602484510877
 30
0.0
 10
100.5740505390926
 20
-119.2602484510877
 30
0.0
 10
100.5740505390926
 20
-119.2602484510877
 30
0.0
 10
100.475865317763
 20
-119.2602484510877
 30
0.0
 10
100.3535644280366
 20
-119.2666218777354
 30
0.0
 10
100.2591688117408
 20
-119.2793687310309
 30
0.0
 10
100.2591688117408
 20
-119.2793687310309
 30
0.0
 10
100.2591688117408
 20
-119.0444132189368
 30
0.0
 10
100.2591688117408
 20
-119.0444132189368
 30
0.0
 10
100.3628661858468
 20
-119.0592271295234
 30
0.0
 10
100.5240966545565
 20
-119.0635334988799
 30
0.0
 10
100.5740505390926
 20
-119.0635334988799
 30
0.0
 10
100.5740505390926
 20
-119.0635334988799
 30
0.0
 10
100.883420113668
 20
-119.0635334988799
 30
0.0
 10
100.883420113668
 20
-119.0635334988799
 30
0.0
 10
100.8999565719972
 20
-119.0635334988799
 30
0.0
 10
101.0777234990361
 20
-119.0635334988799
 30
0.0
 10
101.2017469365051
 20
-119.0444132189368
 30
0.0
 10
101.2017469365051
 20
-119.0444132189368
 30
0.0
 10
101.2017469365051
 20
-119.2793687310309
 30
0.0
 10
101.2017469365051
 20
-119.2793687310309
 30
0.0
 10
101.0646321361922
 20
-119.2602484510877
 30
0.0
 10
100.8982340242546
 20
-119.2602484510877
 30
0.0
 10
100.883420113668
 20
-119.2602484510877
 30
0.0
  0
HATCH
  5
BB
330
9A
100
AcDbEntity
  8
_U+30EC_U+30A4_U+30E4_U+30FC 1
 62
   179
420
  2234388
100
AcDbHatch
 10
0.0
 20
0.0
 30
0.0
210
0.0
220
0.0
230
1.0
  2
SOLID
 70
     1
 71
     0
 91
        2
 92
        1
 93
        1
 72
     4
 94
        3
 73
     0
 74
     1
 95
       47
 96
       43
 40
0.0
 40
0.0
 40
0.0
 40
0.0
 40
1.0
 40
1.0
 40
1.0
 40
2.0
 40
2.0
 40
2.0
 40
3.0
 40
3.0
 40
3.0
 40
4.0
 40
4.0
 40
4.0
 40
5.0
 40
5.0
 40
5.0
 40
6.0
 40
6.0
 40
6.0
 40
7.0
 40
7.0
 40
7.0
 40
8.0
 40
8.0
 40
8.0
 40
9.0
 40
9.0
 40
9.0
 40
10.0
 40
10.0
 40
10.0
 40
11.0
 40
11.0
 40
11.0
 40
12.0
 40
12.0
 40
12.0
 40
13.0
 40
13.0
 40
13.0
 40
14.0
 40
14.0
 40
14.0
 40
14.0
 10
100.9723035771875
 20
-119.7890706080736
 10
100.9723035771875
 20
-119.7890706080736
 10
100.883420113668
 20
-119.7890706080736
 10
100.883420113668
 20
-119.7890706080736
 10
100.883420113668
 20
-119.8758870143019
 10
100.8648165980477
 20
-120.2651828041351
 10
100.6925618237852
 20
-120.4851521508683
 10
100.559236628506
 20
-120.6543063391941
 10
100.3776800964334
 20
-120.7242417775446
 10
100.3036105435005
 20
-120.7516302866524
 10
100.3036105435005
 20
-120.7516302866524
 10
100.1334228265292
 20
-120.5845431556178
 10
100.1334228265292
 20
-120.5845431556178
 10
100.2185166850148
 20
-120.5717963023223
 10
100.372167943657
 20
-120.5485419077969
 10
100.5371880174004
 20
-120.360267439528
 10
100.6019558125231
 20
-120.2884371986605
 10
100.6925618237852
 20
-120.1487385767336
 10
100.6925618237852
 20
-119.7890706080736
 10
100.6925618237852
 20
-119.7890706080736
 10
100.4906792283496
 20
-119.7890706080736
 10
100.4906792283496
 20
-119.7890706080736
 10
100.3277262118972
 20
-119.7890706080736
 10
100.1647731954449
 20
-119.7933769774301
 10
100.0018201789926
 20
-119.8081908880167
 10
100.0018201789926
 20
-119.8081908880167
 10
100.0018201789926
 20
-119.5882215412835
 10
100.0018201789926
 20
-119.5882215412835
 10
100.1664957431876
 20
-119.6030354518701
 10
100.4166096754167
 20
-119.6071695664524
 10
100.4906792283496
 20
-119.6071695664524
 10
100.4906792283496
 20
-119.6071695664524
 10
100.9723035771875
 20
-119.6071695664524
 10
100.9723035771875
 20
-119.6071695664524
 10
100.9888400355167
 20
-119.6071695664524
 10
101.2665147316278
 20
-119.6071695664524
 10
101.4666747793208
 20
-119.5882215412835
 10
101.4666747793208
 20
-119.5882215412835
 10
101.4666747793208
 20
-119.8081908880167
 10
101.4666747793208
 20
-119.8081908880167
 10
101.3016547055774
 20
-119.7933769774301
 10
101.1369791413824
 20
-119.7890706080736
 10
100.9723035771875
 20
-119.7890706080736
 97
        0
 97
        0
 92
        1
 93
        1
 72
     4
 94
        3
 73
     0
 74
     1
 95
       29
 96
       25
 40
0.0
 40
0.0
 40
0.0
 40
0.0
 40
1.0
 40
1.0
 40
1.0
 40
2.0
 40
2.0
 40
2.0
 40
3.0
 40
3.0
 40
3.0
 40
4.0
 40
4.0
 40
4.0
 40
5.0
 40
5.0
 40
5.0
 40
6.0
 40
6.0
 40
6.0
 40
7.0
 40
7.0
 40
7.0
 40
8.0
 40
8.0
 40
8.0
 40
8.0
 10
100.883420113668
 20
-119.2602484510877
 10
100.883420113668
 20
-119.2602484510877
 10
100.5740505390926
 20
-119.2602484510877
 10
100.5740505390926
 20
-119.2602484510877
 10
100.475865317763
 20
-119.2602484510877
 10
100.3535644280366
 20
-119.2666218777354
 10
100.2591688117408
 20
-119.2793687310309
 10
100.2591688117408
 20
-119.2793687310309
 10
100.2591688117408
 20
-119.0444132189368
 10
100.2591688117408
 20
-119.0444132189368
 10
100.3628661858468
 20
-119.0592271295234
 10
100.5240966545565
 20
-119.0635334988799
 10
100.5740505390926
 20
-119.0635334988799
 10
100.5740505390926
 20
-119.0635334988799
 10
100.883420113668
 20
-119.0635334988799
 10
100.883420113668
 20
-119.0635334988799
 10
100.8999565719972
 20
-119.0635334988799
 10
101.0777234990361
 20
-119.0635334988799
 10
101.2017469365051
 20
-119.0444132189368
 10
101.2017469365051
 20
-119.0444132189368
 10
101.2017469365051
 20
-119.2793687310309
 10
101.2017469365051
 20
-119.2793687310309
 10
101.0646321361922
 20
-119.2602484510877
 10
100.8982340242546
 20
-119.2602484510877
 10
100.883420113668
 20
-119.2602484510877
 97
        0
 97
        0
 75
     2
 76
     1
 98
        0
  0
SPLINE
  5
BC
330
9A
100
AcDbEntity
  8
_U+30EC_U+30A4_U+30E4_U+30FC 1
370
     0
100
AcDbSpline
210
0.0
220
0.0
230
1.0
 70
    11
 71
     3
 72
    29
 73
    25
 74
     0
 42
0.0000000001
 43
0.0000000001
 12
1.0
 22
0.0
 32
0.0
 13
1.0
 23
0.0
 33
0.0
 40
0.0
 40
0.0
 40
0.0
 40
0.0
 40
1.0
 40
1.0
 40
1.0
 40
2.0
 40
2.0
 40
2.0
 40
3.0
 40
3.0
 40
3.0
 40
4.0
 40
4.0
 40
4.0
 40
5.0
 40
5.0
 40
5.0
 40
6.0
 40
6.0
 40
6.0
 40
7.0
 40
7.0
 40
7.0
 40
8.0
 40
8.0
 40
8.0
 40
8.0
 10
102.5890868884152
 20
-119.9520236245259
 30
0.0
 10
102.5890868884152
 20
-119.9520236245259
 30
0.0
 10
102.164995634181
 20
-119.9520236245259
 30
0.0
 10
102.164995634181
 20
-119.9520236245259
 30
0.0
 10
102.1408799657842
 20
-119.9520236245259
 30
0.0
 10
101.8628607601246
 20
-119.9520236245259
 30
0.0
 10
101.6778591325667
 20
-119.9773450763425
 30
0.0
 10
101.6778591325667
 20
-119.9773450763425
 30
0.0
 10
101.6778591325667
 20
-119.7468681883793
 30
0.0
 10
101.6778591325667
 20
-119.7468681883793
 30
0.0
 10
101.8166964806222
 20
-119.7701225829047
 30
0.0
 10
101.9834391021083
 20
-119.7721896401958
 30
0.0
 10
102.164995634181
 20
-119.7721896401958
 30
0.0
 10
102.164995634181
 20
-119.7721896401958
 30
0.0
 10
102.5890868884152
 20
-119.7721896401958
 30
0.0
 10
102.5890868884152
 20
-119.7721896401958
 30
0.0
 10
102.751695395319
 20
-119.7721896401958
 30
0.0
 10
102.9149929213199
 20
-119.7701225829047
 30
0.0
 10
103.075878880481
 20
-119.7468681883793
 30
0.0
 10
103.075878880481
 20
-119.7468681883793
 30
0.0
 10
103.075878880481
 20
-119.9773450763425
 30
0.0
 10
103.075878880481
 20
-119.9773450763425
 30
0.0
 10
102.9149929213199
 20
-119.954090681817
 30
0.0
 10
102.6982964152976
 20
-119.9520236245259
 30
0.0
 10
102.5890868884152
 20
-119.9520236245259
 30
0.0
  0
HATCH
  5
BD
330
9A
100
AcDbEntity
  8
_U+30EC_U+30A4_U+30E4_U+30FC 1
 62
   179
420
  2234388
100
AcDbHatch
 10
0.0
 20
0.0
 30
0.0
210
0.0
220
0.0
230
1.0
  2
SOLID
 70
     1
 71
     0
 91
        1
 92
        1
 93
        1
 72
     4
 94
        3
 73
     0
 74
     1
 95
       29
 96
       25
 40
0.0
 40
0.0
 40
0.0
 40
0.0
 40
1.0
 40
1.0
 40
1.0
 40
2.0
 40
2.0
 40
2.0
 40
3.0
 40
3.0
 40
3.0
 40
4.0
 40
4.0
 40
4.0
 40
5.0
 40
5.0
 40
5.0
 40
6.0
 40
6.0
 40
6.0
 40
7.0
 40
7.0
 40
7.0
 40
8.0
 40
8.0
 40
8.0
 40
8.0
 10
102.5890868884152
 20
-119.9520236245259
 10
102.5890868884152
 20
-119.9520236245259
 10
102.164995634181
 20
-119.9520236245259
 10
102.164995634181
 20
-119.9520236245259
 10
102.1408799657842
 20
-119.9520236245259
 10
101.8628607601246
 20
-119.9520236245259
 10
101.6778591325667
 20
-119.9773450763425
 10
101.6778591325667
 20
-119.9773450763425
 10
101.6778591325667
 20
-119.7468681883793
 10
101.6778591325667
 20
-119.7468681883793
 10
101.8166964806222
 20
-119.7701225829047
 10
101.9834391021083
 20
-119.7721896401958
 10
102.164995634181
 20
-119.7721896401958
 10
102.164995634181
 20
-119.7721896401958
 10
102.5890868884152
 20
-119.7721896401958
 10
102.5890868884152
 20
-119.7721896401958
 10
102.751695395319
 20
-119.7721896401958
 10
102.9149929213199
 20
-119.7701225829047
 10
103.075878880481
 20
-119.7468681883793
 10
103.075878880481
 20
-119.7468681883793
 10
103.075878880481
 20
-119.9773450763425
 10
103.075878880481
 20
-119.9773450763425
 10
102.9149929213199
 20
-119.954090681817
 10
102.6982964152976
 20
-119.9520236245259
 10
102.5890868884152
 20
-119.9520236245259
 97
        0
 97
        0
 75
     2
 76
     1
 98
        0
  0
SPLINE
  5
BE
330
9A
100
AcDbEntity
  8
_U+30EC_U+30A4_U+30E4_U+30FC 1
370
     0
100
AcDbSpline
210
0.0
220
0.0
230
1.0
 70
    11
 71
     3
 72
    44
 73
    40
 74
     0
 42
0.0000000001
 43
0.0000000001
 12
1.0
 22
0.0
 32
0.0
 13
1.0
 23
0.0
 33
0.0
 40
0.0
 40
0.0
 40
0.0
 40
0.0
 40
1.0
 40
1.0
 40
1.0
 40
2.0
 40
2.0
 40
2.0
 40
3.0
 40
3.0
 40
3.0
 40
4.0
 40
4.0
 40
4.0
 40
5.0
 40
5.0
 40
5.0
 40
6.0
 40
6.0
 40
6.0
 40
7.0
 40
7.0
 40
7.0
 40
8.0
 40
8.0
 40
8.0
 40
9.0
 40
9.0
 40
9.0
 40
10.0
 40
10.0
 40
10.0
 40
11.0
 40
11.0
 40
11.0
 40
12.0
 40
12.0
 40
12.0
 40
13.0
 40
13.0
 40
13.0
 40
13.0
 10
104.5259195702227
 20
-119.5141519883506
 30
0.0
 10
104.4277343488931
 20
-119.8822604409496
 30
0.0
 10
104.3832926171333
 20
-120.0409070880453
 30
0.0
 10
104.2110378428709
 20
-120.2905042559517
 30
0.0
 10
104.0501518837097
 20
-120.5211533986892
 30
0.0
 10
103.8427571354976
 20
-120.7071885548927
 30
0.0
 10
103.5981553560449
 20
-120.8003783877687
 30
0.0
 10
103.5981553560449
 20
-120.8003783877687
 30
0.0
 10
103.4296901868162
 20
-120.6205444034386
 30
0.0
 10
103.4296901868162
 20
-120.6205444034386
 30
0.0
 10
103.9908962413634
 20
-120.4682711829906
 30
0.0
 10
104.2795952430273
 20
-119.9118882621227
 30
0.0
 10
104.3350612803399
 20
-119.4717773138821
 30
0.0
 10
104.3350612803399
 20
-119.4717773138821
 30
0.0
 10
103.6649902084588
 20
-119.4717773138821
 30
0.0
 10
103.6649902084588
 20
-119.4717773138821
 30
0.0
 10
103.5833414454583
 20
-119.4717773138821
 30
0.0
 10
103.4224554862972
 20
-119.4760836832386
 30
0.0
 10
103.2853406859842
 20
-119.4950317084075
 30
0.0
 10
103.2853406859842
 20
-119.4950317084075
 30
0.0
 10
103.2853406859842
 20
-119.2750623616743
 30
0.0
 10
103.2853406859842
 20
-119.2750623616743
 30
0.0
 10
103.3611327866597
 20
-119.2962496989086
 30
0.0
 10
103.5816188977157
 20
-119.2962496989086
 30
0.0
 10
103.6687798134925
 20
-119.2962496989086
 30
0.0
 10
103.6687798134925
 20
-119.2962496989086
 30
0.0
 10
104.0463622786759
 20
-119.2962496989086
 30
0.0
 10
104.0463622786759
 20
-119.2962496989086
 30
0.0
 10
104.0835693099166
 20
-119.2962496989086
 30
0.0
 10
104.2888970008375
 20
-119.2940103868432
 30
0.0
 10
104.3223144270444
 20
-119.2878092149697
 30
0.0
 10
104.3591769487366
 20
-119.281435788322
 30
0.0
 10
104.3612440060277
 20
-119.2793687310309
 30
0.0
 10
104.4149874955976
 20
-119.2390611138534
 30
0.0
 10
104.4149874955976
 20
-119.2390611138534
 30
0.0
 10
104.5796630597926
 20
-119.3935736463669
 30
0.0
 10
104.5796630597926
 20
-119.3935736463669
 30
0.0
 10
104.5538248436532
 20
-119.42320146754
 30
0.0
 10
104.5407334808093
 20
-119.4548963460043
 30
0.0
 10
104.5259195702227
 20
-119.5141519883506
 30
0.0
  0
SPLINE
  5
BF
330
9A
100
AcDbEntity
  8
_U+30EC_U+30A4_U+30E4_U+30FC 1
370
     0
100
AcDbSpline
210
0.0
220
0.0
230
1.0
 70
    11
 71
     3
 72
    17
 73
    13
 74
     0
 42
0.0000000001
 43
0.0000000001
 12
1.0
 22
0.0
 32
0.0
 13
1.0
 23
0.0
 33
0.0
 40
0.0
 40
0.0
 40
0.0
 40
0.0
 40
1.0
 40
1.0
 40
1.0
 40
2.0
 40
2.0
 40
2.0
 40
3.0
 40
3.0
 40
3.0
 40
4.0
 40
4.0
 40
4.0
 40
4.0
 10
104.709198650038
 20
-119.3151977240774
 30
0.0
 10
104.5982665754129
 20
-119.3151977240774
 30
0.0
 10
104.5093831118935
 20
-119.2137396620368
 30
0.0
 10
104.5093831118935
 20
-119.0867878934054
 30
0.0
 10
104.5093831118935
 20
-118.9598361247739
 30
0.0
 10
104.5982665754129
 20
-118.8561387506679
 30
0.0
 10
104.709198650038
 20
-118.8561387506679
 30
0.0
 10
104.8204752342116
 20
-118.8561387506679
 30
0.0
 10
104.9110812454736
 20
-118.9598361247739
 30
0.0
 10
104.9110812454736
 20
-119.0867878934054
 30
0.0
 10
104.9110812454736
 20
-119.2137396620368
 30
0.0
 10
104.8204752342116
 20
-119.3151977240774
 30
0.0
 10
104.709198650038
 20
-119.3151977240774
 30
0.0
  0
SPLINE
  5
C0
330
9A
100
AcDbEntity
  8
_U+30EC_U+30A4_U+30E4_U+30FC 1
370
     0
100
AcDbSpline
210
0.0
220
0.0
230
1.0
 70
    11
 71
     3
 72
    17
 73
    13
 74
     0
 42
0.0000000001
 43
0.0000000001
 12
1.0
 22
0.0
 32
0.0
 13
1.0
 23
0.0
 33
0.0
 40
0.0
 40
0.0
 40
0.0
 40
0.0
 40
1.0
 40
1.0
 40
1.0
 40
2.0
 40
2.0
 40
2.0
 40
3.0
 40
3.0
 40
3.0
 40
4.0
 40
4.0
 40
4.0
 40
4.0
 10
104.7074761022954
 20
-118.9851575765905
 30
0.0
 10
104.6592447655019
 20
-118.9851575765905
 30
0.0
 10
104.6203151865185
 20
-119.0295993083502
 30
0.0
 10
104.6203151865185
 20
-119.0847208361142
 30
0.0
 10
104.6203151865185
 20
-119.1417371663951
 30
0.0
 10
104.6592447655019
 20
-119.1904852675114
 30
0.0
 10
104.7112657073291
 20
-119.1904852675114
 30
0.0
 10
104.7629421396079
 20
-119.1904852675114
 30
0.0
 10
104.7980821135574
 20
-119.139670109104
 30
0.0
 10
104.7980821135574
 20
-119.0867878934054
 30
0.0
 10
104.7980821135574
 20
-119.0295993083502
 30
0.0
 10
104.7574299868315
 20
-118.9851575765905
 30
0.0
 10
104.7074761022954
 20
-118.9851575765905
 30
0.0
  0
HATCH
  5
C1
330
9A
100
AcDbEntity
  8
_U+30EC_U+30A4_U+30E4_U+30FC 1
 62
   179
420
  2234388
100
AcDbHatch
 10
0.0
 20
0.0
 30
0.0
210
0.0
220
0.0
230
1.0
  2
SOLID
 70
     1
 71
     0
 91
        3
 92
        1
 93
        1
 72
     4
 94
        3
 73
     0
 74
     1
 95
       44
 96
       40
 40
0.0
 40
0.0
 40
0.0
 40
0.0
 40
1.0
 40
1.0
 40
1.0
 40
2.0
 40
2.0
 40
2.0
 40
3.0
 40
3.0
 40
3.0
 40
4.0
 40
4.0
 40
4.0
 40
5.0
 40
5.0
 40
5.0
 40
6.0
 40
6.0
 40
6.0
 40
7.0
 40
7.0
 40
7.0
 40
8.0
 40
8.0
 40
8.0
 40
9.0
 40
9.0
 40
9.0
 40
10.0
 40
10.0
 40
10.0
 40
11.0
 40
11.0
 40
11.0
 40
12.0
 40
12.0
 40
12.0
 40
13.0
 40
13.0
 40
13.0
 40
13.0
 10
104.5259195702227
 20
-119.5141519883506
 10
104.4277343488931
 20
-119.8822604409496
 10
104.3832926171333
 20
-120.0409070880453
 10
104.2110378428709
 20
-120.2905042559517
 10
104.0501518837097
 20
-120.5211533986892
 10
103.8427571354976
 20
-120.7071885548927
 10
103.5981553560449
 20
-120.8003783877687
 10
103.5981553560449
 20
-120.8003783877687
 10
103.4296901868162
 20
-120.6205444034386
 10
103.4296901868162
 20
-120.6205444034386
 10
103.9908962413634
 20
-120.4682711829906
 10
104.2795952430273
 20
-119.9118882621227
 10
104.3350612803399
 20
-119.4717773138821
 10
104.3350612803399
 20
-119.4717773138821
 10
103.6649902084588
 20
-119.4717773138821
 10
103.6649902084588
 20
-119.4717773138821
 10
103.5833414454583
 20
-119.4717773138821
 10
103.4224554862972
 20
-119.4760836832386
 10
103.2853406859842
 20
-119.4950317084075
 10
103.2853406859842
 20
-119.4950317084075
 10
103.2853406859842
 20
-119.2750623616743
 10
103.2853406859842
 20
-119.2750623616743
 10
103.3611327866597
 20
-119.2962496989086
 10
103.5816188977157
 20
-119.2962496989086
 10
103.6687798134925
 20
-119.2962496989086
 10
103.6687798134925
 20
-119.2962496989086
 10
104.0463622786759
 20
-119.2962496989086
 10
104.0463622786759
 20
-119.2962496989086
 10
104.0835693099166
 20
-119.2962496989086
 10
104.2888970008375
 20
-119.2940103868432
 10
104.3223144270444
 20
-119.2878092149697
 10
104.3591769487366
 20
-119.281435788322
 10
104.3612440060277
 20
-119.2793687310309
 10
104.4149874955976
 20
-119.2390611138534
 10
104.4149874955976
 20
-119.2390611138534
 10
104.5796630597926
 20
-119.3935736463669
 10
104.5796630597926
 20
-119.3935736463669
 10
104.5538248436532
 20
-119.42320146754
 10
104.5407334808093
 20
-119.4548963460043
 10
104.5259195702227
 20
-119.5141519883506
 97
        0
 97
        0
 92
        1
 93
        1
 72
     4
 94
        3
 73
     0
 74
     1
 95
       17
 96
       13
 40
0.0
 40
0.0
 40
0.0
 40
0.0
 40
1.0
 40
1.0
 40
1.0
 40
2.0
 40
2.0
 40
2.0
 40
3.0
 40
3.0
 40
3.0
 40
4.0
 40
4.0
 40
4.0
 40
4.0
 10
104.709198650038
 20
-119.3151977240774
 10
104.5982665754129
 20
-119.3151977240774
 10
104.5093831118935
 20
-119.2137396620368
 10
104.5093831118935
 20
-119.0867878934054
 10
104.5093831118935
 20
-118.9598361247739
 10
104.5982665754129
 20
-118.8561387506679
 10
104.709198650038
 20
-118.8561387506679
 10
104.8204752342116
 20
-118.8561387506679
 10
104.9110812454736
 20
-118.9598361247739
 10
104.9110812454736
 20
-119.0867878934054
 10
104.9110812454736
 20
-119.2137396620368
 10
104.8204752342116
 20
-119.3151977240774
 10
104.709198650038
 20
-119.3151977240774
 97
        0
 97
        0
 92
        1
 93
        1
 72
     4
 94
        3
 73
     0
 74
     1
 95
       17
 96
       13
 40
0.0
 40
0.0
 40
0.0
 40
0.0
 40
1.0
 40
1.0
 40
1.0
 40
2.0
 40
2.0
 40
2.0
 40
3.0
 40
3.0
 40
3.0
 40
4.0
 40
4.0
 40
4.0
 40
4.0
 10
104.7074761022954
 20
-118.9851575765905
 10
104.6592447655019
 20
-118.9851575765905
 10
104.6203151865185
 20
-119.0295993083502
 10
104.6203151865185
 20
-119.0847208361142
 10
104.6203151865185
 20
-119.1417371663951
 10
104.6592447655019
 20
-119.1904852675114
 10
104.7112657073291
 20
-119.1904852675114
 10
104.7629421396079
 20
-119.1904852675114
 10
104.7980821135574
 20
-119.139670109104
 10
104.7980821135574
 20
-119.0867878934054
 10
104.7980821135574
 20
-119.0295993083502
 10
104.7574299868315
 20
-118.9851575765905
 10
104.7074761022954
 20
-118.9851575765905
 97
        0
 97
        0
 75
     2
 76
     1
 98
        0
  0
ENDBLK
  5
9D
330
9A
100
AcDbEntity
  8
0
100
AcDbBlockEnd
  0
ENDSEC
  0
SECTION
  2
ENTITIES
  0
INSERT
  5
42
330
1F
100
AcDbEntity
  8
_U+30EC_U+30A4_U+30E4_U+30FC 1
100
AcDbBlockReference
  2
block 2
 10
0.0
 20
0.0
 30
0.0
  0
ENDSEC
  0
SECTION
  2
OBJECTS
  0
DICTIONARY
  5
C
330
0
100
AcDbDictionary
281
     1
  3
ACAD_GROUP
350
D
  3
ACAD_LAYOUT
350
1A
  3
ACAD_MATERIAL
350
3B
  3
ACAD_MLEADERSTYLE
350
C3
  3
ACAD_MLINESTYLE
350
17
  3
ACAD_PLOTSETTINGS
350
19
  3
ACAD_PLOTSTYLENAME
350
E
  3
ACAD_TABLESTYLE
350
C2
  3
ACAD_VISUALSTYLE
350
2A
  0
SUN
  5
3F
330
29
100
AcDbSun
 90
        1
290
     0
 63
     7
421
 16777215
 40
1.0
291
     1
 91
  2455826
 92
 54000000
292
     0
 70
     2
 71
   256
280
     1
  0
DICTIONARY
  5
D
102
{ACAD_REACTORS
330
C
102
}
330
C
100
AcDbDictionary
281
     1
  0
DICTIONARY
  5
1A
102
{ACAD_REACTORS
330
C
102
}
330
C
100
AcDbDictionary
281
     1
  3
Layout1
350
1E
  3
Layout2
350
26
  3
Model
350
22
  0
DICTIONARY
  5
3B
102
{ACAD_REACTORS
330
C
102
}
330
C
100
AcDbDictionary
281
     1
  3
ByBlock
350
3D
  3
ByLayer
350
3C
  3
Global
350
3E
  0
DICTIONARY
  5
C3
102
{ACAD_REACTORS
330
C
102
}
330
C
100
AcDbDictionary
281
     1
  0
DICTIONARY
  5
17
102
{ACAD_REACTORS
330
C
102
}
330
C
100
AcDbDictionary
281
     1
  3
Standard
350
18
  0
DICTIONARY
  5
19
102
{ACAD_REACTORS
330
C
102
}
330
C
100
AcDbDictionary
281
     1
  0
ACDBDICTIONARYWDFLT
  5
E
102
{ACAD_REACTORS
330
C
102
}
330
C
100
AcDbDictionary
281
     1
  3
Normal
350
F
100
AcDbDictionaryWithDefault
340
F
  0
DICTIONARY
  5
C2
102
{ACAD_REACTORS
330
C
102
}
330
C
100
AcDbDictionary
281
     1
  0
DICTIONARY
  5
2A
102
{ACAD_REACTORS
330
C
102
}
330
C
100
AcDbDictionary
281
     1
  3
2dWireframe
350
2F
  3
3D Hidden
350
31
  3
3dWireframe
350
30
  3
Basic
350
32
  3
Brighten
350
36
  3
ColorChange
350
3A
  3
Conceptual
350
34
  3
Dim
350
35
  3
Facepattern
350
39
  3
Flat
350
2B
  3
FlatWithEdges
350
2C
  3
Gouraud
350
2D
  3
GouraudWithEdges
350
2E
  3
Linepattern
350
38
  3
Realistic
350
33
  3
Thicken
350
37
  0
LAYOUT
  5
1E
102
{ACAD_REACTORS
330
1A
102
}
330
1A
100
AcDbPlotSettings
  1

  2
none_device
  4

  6

 40
0.0
 41
0.0
 42
0.0
 43
0.0
 44
0.0
 45
0.0
 46
0.0
 47
0.0
 48
0.0
 49
0.0
140
0.0
141
0.0
142
1.0
143
1.0
 70
   688
 72
     0
 73
     0
 74
     5
  7

 75
    16
 76
     0
 77
     2
 78
   300
147
1.0
148
0.0
149
0.0
100
AcDbLayout
  1
Layout1
 70
     1
 71
     1
 10
0.0
 20
0.0
 11
12.0
 21
9.0
 12
0.0
 22
0.0
 32
0.0
 14
1.000000000000000E+20
 24
1.000000000000000E+20
 34
1.000000000000000E+20
 15
-1.000000000000000E+20
 25
-1.000000000000000E+20
 35
-1.000000000000000E+20
146
0.0
 13
0.0
 23
0.0
 33
0.0
 16
1.0
 26
0.0
 36
0.0
 17
0.0
 27
1.0
 37
0.0
 76
     0
330
1B
  0
LAYOUT
  5
26
102
{ACAD_REACTORS
330
1A
102
}
330
1A
100
AcDbPlotSettings
  1

  2
none_device
  4

  6

 40
0.0
 41
0.0
 42
0.0
 43
0.0
 44
0.0
 45
0.0
 46
0.0
 47
0.0
 48
0.0
 49
0.0
140
0.0
141
0.0
142
1.0
143
1.0
 70
   688
 72
     0
 73
     0
 74
     5
  7

 75
    16
 76
     0
 77
     2
 78
   300
147
1.0
148
0.0
149
0.0
100
AcDbLayout
  1
Layout2
 70
     1
 71
     2
 10
0.0
 20
0.0
 11
0.0
 21
0.0
 12
0.0
 22
0.0
 32
0.0
 14
0.0
 24
0.0
 34
0.0
 15
0.0
 25
0.0
 35
0.0
146
0.0
 13
0.0
 23
0.0
 33
0.0
 16
1.0
 26
0.0
 36
0.0
 17
0.0
 27
1.0
 37
0.0
 76
     0
330
23
  0
LAYOUT
  5
22
102
{ACAD_REACTORS
330
1A
102
}
330
1A
100
AcDbPlotSettings
  1

  2
none_device
  4

  6

 40
0.0
 41
0.0
 42
0.0
 43
0.0
 44
0.0
 45
0.0
 46
0.0
 47
0.0
 48
0.0
 49
0.0
140
0.0
141
0.0
142
1.0
143
1.0
 70
  1712
 72
     0
 73
     0
 74
     0
  7

 75
     0
 76
     0
 77
     2
 78
   300
147
1.0
148
0.0
149
0.0
100
AcDbLayout
  1
Model
 70
     1
 71
     0
 10
0.0
 20
0.0
 11
12.0
 21
9.0
 12
0.0
 22
0.0
 32
0.0
 14
1.000000000000000E+20
 24
1.000000000000000E+20
 34
1.000000000000000E+20
 15
-1.000000000000000E+20
 25
-1.000000000000000E+20
 35
-1.000000000000000E+20
146
0.0
 13
0.0
 23
0.0
 33
0.0
 16
1.0
 26
0.0
 36
0.0
 17
0.0
 27
1.0
 37
0.0
 76
     0
330
1F
331
29
  0
MATERIAL
  5
3D
102
{ACAD_REACTORS
330
3B
102
}
330
3B
100
AcDbMaterial
  1
ByBlock
 72
     1
 94
      127
  0
MATERIAL
  5
3C
102
{ACAD_REACTORS
330
3B
102
}
330
3B
100
AcDbMaterial
  1
ByLayer
 72
     1
 94
      127
  0
MATERIAL
  5
3E
102
{ACAD_REACTORS
330
3B
102
}
330
3B
100
AcDbMaterial
  1
Global
 72
     1
 94
      127
  0
MLINESTYLE
  5
18
102
{ACAD_REACTORS
330
17
102
}
330
17
100
AcDbMlineStyle
  2
Standard
 70
     0
  3

 62
   256
 51
90.0
 52
90.0
 71
     2
 49
0.5
 62
   256
  6
BYLAYER
 49
-0.5
 62
   256
  6
BYLAYER
  0
ACDBPLACEHOLDER
  5
F
102
{ACAD_REACTORS
330
E
102
}
330
E
  0
VISUALSTYLE
  5
2F
102
{ACAD_REACTORS
330
2A
102
}
330
2A
100
AcDbVisualStyle
  2
2dWireframe
 70
     4
177
     2
291
     0
 71
     0
176
     1
 72
     2
176
     1
 73
     0
176
     1
 90
        0
176
     1
 40
-0.6
176
     1
 41
-30.0
176
     1
 62
     5
 63
     7
421
 16777215
176
     1
 74
     1
176
     1
 91
        4
176
     1
 64
     7
176
     1
 65
   257
176
     1
 75
     1
176
     1
175
     1
176
     1
 42
1.0
176
     1
 92
        0
176
     1
 66
   257
176
     1
 43
1.0
176
     1
 76
     1
176
     1
 77
     6
176
     1
 78
     2
176
     1
 67
     7
176
     1
 79
     5
176
     1
170
     0
176
     1
171
     0
176
     1
290
     0
176
     1
 93
        1
176
     1
 44
0.0
176
     1
173
     0
176
     1
  0
VISUALSTYLE
  5
31
102
{ACAD_REACTORS
330
2A
102
}
330
2A
100
AcDbVisualStyle
  2
3D Hidden
 70
     6
177
     2
291
     0
 71
     1
176
     1
 72
     2
176
     1
 73
     2
176
     1
 90
        0
176
     1
 40
-0.6
176
     1
 41
-30.0
176
     1
 62
     5
 63
     7
421
 16777215
176
     1
 74
     2
176
     1
 91
        2
176
     1
 64
     7
176
     1
 65
   257
176
     1
 75
     2
176
     1
175
     1
176
     1
 42
40.0
176
     1
 92
        0
176
     1
 66
   257
176
     1
 43
1.0
176
     1
 76
     1
176
     1
 77
     6
176
     1
 78
     2
176
     1
 67
     7
176
     1
 79
     3
176
     1
170
     0
176
     1
171
     0
176
     1
290
     0
176
     1
 93
        1
176
     1
 44
0.0
176
     1
173
     0
176
     1
  0
VISUALSTYLE
  5
30
102
{ACAD_REACTORS
330
2A
102
}
330
2A
100
AcDbVisualStyle
  2
3dWireframe
 70
     5
177
     2
291
     0
 71
     0
176
     1
 72
     2
176
     1
 73
     0
176
     1
 90
        0
176
     1
 40
-0.6
176
     1
 41
-30.0
176
     1
 62
     5
 63
     7
421
 16777215
176
     1
 74
     1
176
     1
 91
        4
176
     1
 64
     7
176
     1
 65
   257
176
     1
 75
     1
176
     1
175
     1
176
     1
 42
1.0
176
     1
 92
        0
176
     1
 66
   257
176
     1
 43
1.0
176
     1
 76
     1
176
     1
 77
     6
176
     1
 78
     2
176
     1
 67
     7
176
     1
 79
     5
176
     1
170
     0
176
     1
171
     0
176
     1
290
     0
176
     1
 93
        1
176
     1
 44
0.0
176
     1
173
     0
176
     1
  0
VISUALSTYLE
  5
32
102
{ACAD_REACTORS
330
2A
102
}
330
2A
100
AcDbVisualStyle
  2
Basic
 70
     7
177
     2
291
     1
 71
     1
176
     1
 72
     0
176
     1
 73
     1
176
     1
 90
        0
176
     1
 40
-0.6
176
     1
 41
-30.0
176
     1
 62
     5
 63
     7
421
 16777215
176
     1
 74
     0
176
     1
 91
        4
176
     1
 64
     7
176
     1
 65
   257
176
     1
 75
     1
176
     1
175
     1
176
     1
 42
1.0
176
     1
 92
        8
176
     1
 66
     7
176
     1
 43
1.0
176
     1
 76
     1
176
     1
 77
     6
176
     1
 78
     2
176
     1
 67
     7
176
     1
 79
     5
176
     1
170
     0
176
     1
171
     0
176
     1
290
     0
176
     1
 93
        1
176
     1
 44
0.0
176
     1
173
     0
176
     1
  0
VISUALSTYLE
  5
36
102
{ACAD_REACTORS
330
2A
102
}
330
2A
100
AcDbVisualStyle
  2
Brighten
 70
    12
177
     2
291
     1
 71
     2
176
     1
 72
     2
176
     1
 73
     0
176
     1
 90
        0
176
     1
 40
-0.6
176
     1
 41
-30.0
176
     1
 62
     5
 63
     7
421
 16777215
176
     1
 74
     1
176
     1
 91
        4
176
     1
 64
     7
176
     1
 65
   257
176
     1
 75
     1
176
     1
175
     1
176
     1
 42
1.0
176
     1
 92
        8
176
     1
 66
     7
176
     1
 43
1.0
176
     1
 76
     1
176
     1
 77
     6
176
     1
 78
     2
176
     1
 67
     7
176
     1
 79
     5
176
     1
170
     0
176
     1
171
     0
176
     1
290
     0
176
     1
 93
        1
176
     1
 44
50.0
176
     1
173
     0
176
     1
  0
VISUALSTYLE
  5
3A
102
{ACAD_REACTORS
330
2A
102
}
330
2A
100
AcDbVisualStyle
  2
ColorChange
 70
    16
177
     2
291
     1
 71
     2
176
     1
 72
     2
176
     1
 73
     3
176
     1
 90
        0
176
     1
 40
-0.6
176
     1
 41
-30.0
176
     1
 62
     5
 63
     8
421
  8421504
176
     1
 74
     1
176
     1
 91
        4
176
     1
 64
     7
176
     1
 65
   257
176
     1
 75
     1
176
     1
175
     1
176
     1
 42
1.0
176
     1
 92
        8
176
     1
 66
     8
424
  8421504
176
     1
 43
1.0
176
     1
 76
     1
176
     1
 77
     6
176
     1
 78
     2
176
     1
 67
     7
176
     1
 79
     5
176
     1
170
     0
176
     1
171
     0
176
     1
290
     0
176
     1
 93
        1
176
     1
 44
0.0
176
     1
173
     0
176
     1
  0
VISUALSTYLE
  5
34
102
{ACAD_REACTORS
330
2A
102
}
330
2A
100
AcDbVisualStyle
  2
Conceptual
 70
     9
177
     2
291
     0
 71
     3
176
     1
 72
     2
176
     1
 73
     0
176
     1
 90
        0
176
     1
 40
-0.6
176
     1
 41
-30.0
176
     1
 62
     5
 63
     7
421
 16777215
176
     1
 74
     2
176
     1
 91
        2
176
     1
 64
     7
176
     1
 65
   257
176
     1
 75
     1
176
     1
175
     1
176
     1
 42
40.0
176
     1
 92
        8
176
     1
 66
     7
176
     1
 43
1.0
176
     1
 76
     1
176
     1
 77
     6
176
     1
 78
     2
176
     1
 67
     7
176
     1
 79
     3
176
     1
170
     0
176
     1
171
     0
176
     1
290
     0
176
     1
 93
        1
176
     1
 44
0.0
176
     1
173
     0
176
     1
  0
VISUALSTYLE
  5
35
102
{ACAD_REACTORS
330
2A
102
}
330
2A
100
AcDbVisualStyle
  2
Dim
 70
    11
177
     2
291
     1
 71
     2
176
     1
 72
     2
176
     1
 73
     0
176
     1
 90
        0
176
     1
 40
-0.6
176
     1
 41
-30.0
176
     1
 62
     5
 63
     7
421
 16777215
176
     1
 74
     1
176
     1
 91
        4
176
     1
 64
     7
176
     1
 65
   257
176
     1
 75
     1
176
     1
175
     1
176
     1
 42
1.0
176
     1
 92
        8
176
     1
 66
     7
176
     1
 43
1.0
176
     1
 76
     1
176
     1
 77
     6
176
     1
 78
     2
176
     1
 67
     7
176
     1
 79
     5
176
     1
170
     0
176
     1
171
     0
176
     1
290
     0
176
     1
 93
        1
176
     1
 44
-50.0
176
     1
173
     0
176
     1
  0
VISUALSTYLE
  5
39
102
{ACAD_REACTORS
330
2A
102
}
330
2A
100
AcDbVisualStyle
  2
Facepattern
 70
    15
177
     2
291
     1
 71
     2
176
     1
 72
     2
176
     1
 73
     0
176
     1
 90
        0
176
     1
 40
-0.6
176
     1
 41
-30.0
176
     1
 62
     5
 63
     7
421
 16777215
176
     1
 74
     1
176
     1
 91
        4
176
     1
 64
     7
176
     1
 65
   257
176
     1
 75
     1
176
     1
175
     1
176
     1
 42
1.0
176
     1
 92
        8
176
     1
 66
     7
176
     1
 43
1.0
176
     1
 76
     1
176
     1
 77
     6
176
     1
 78
     2
176
     1
 67
     7
176
     1
 79
     5
176
     1
170
     0
176
     1
171
     0
176
     1
290
     0
176
     1
 93
        1
176
     1
 44
0.0
176
     1
173
     0
176
     1
  0
VISUALSTYLE
  5
2B
102
{ACAD_REACTORS
330
2A
102
}
330
2A
100
AcDbVisualStyle
  2
Flat
 70
     0
177
     2
291
     1
 71
     2
176
     1
 72
     1
176
     1
 73
     1
176
     1
 90
        2
176
     1
 40
-0.6
176
     1
 41
30.0
176
     1
 62
     5
 63
     7
421
 16777215
176
     1
 74
     0
176
     1
 91
        4
176
     1
 64
     7
176
     1
 65
   257
176
     1
 75
     1
176
     1
175
     1
176
     1
 42
1.0
176
     1
 92
        8
176
     1
 66
     7
176
     1
 43
1.0
176
     1
 76
     1
176
     1
 77
     6
176
     1
 78
     2
176
     1
 67
     7
176
     1
 79
     5
176
     1
170
     0
176
     1
171
     0
176
     1
290
     0
176
     1
 93
       13
176
     1
 44
0.0
176
     1
173
     0
176
     1
  0
VISUALSTYLE
  5
2C
102
{ACAD_REACTORS
330
2A
102
}
330
2A
100
AcDbVisualStyle
  2
FlatWithEdges
 70
     1
177
     2
291
     1
 71
     2
176
     1
 72
     1
176
     1
 73
     1
176
     1
 90
        2
176
     1
 40
-0.6
176
     1
 41
30.0
176
     1
 62
     5
 63
     7
421
 16777215
176
     1
 74
     1
176
     1
 91
        4
176
     1
 64
     7
176
     1
 65
   257
176
     1
 75
     1
176
     1
175
     1
176
     1
 42
1.0
176
     1
 92
        0
176
     1
 66
   257
176
     1
 43
1.0
176
     1
 76
     1
176
     1
 77
     6
176
     1
 78
     2
176
     1
 67
     7
176
     1
 79
     5
176
     1
170
     0
176
     1
171
     0
176
     1
290
     0
176
     1
 93
       13
176
     1
 44
0.0
176
     1
173
     0
176
     1
  0
VISUALSTYLE
  5
2D
102
{ACAD_REACTORS
330
2A
102
}
330
2A
100
AcDbVisualStyle
  2
Gouraud
 70
     2
177
     2
291
     1
 71
     2
176
     1
 72
     2
176
     1
 73
     1
176
     1
 90
        2
176
     1
 40
-0.6
176
     1
 41
30.0
176
     1
 62
     5
 63
     7
421
 16777215
176
     1
 74
     0
176
     1
 91
        4
176
     1
 64
     7
176
     1
 65
   257
176
     1
 75
     1
176
     1
175
     1
176
     1
 42
1.0
176
     1
 92
        0
176
     1
 66
     7
176
     1
 43
1.0
176
     1
 76
     1
176
     1
 77
     6
176
     1
 78
     2
176
     1
 67
     7
176
     1
 79
     5
176
     1
170
     0
176
     1
171
     0
176
     1
290
     0
176
     1
 93
       13
176
     1
 44
0.0
176
     1
173
     0
176
     1
  0
VISUALSTYLE
  5
2E
102
{ACAD_REACTORS
330
2A
102
}
330
2A
100
AcDbVisualStyle
  2
GouraudWithEdges
 70
     3
177
     2
291
     1
 71
     2
176
     1
 72
     2
176
     1
 73
     1
176
     1
 90
        2
176
     1
 40
-0.6
176
     1
 41
30.0
176
     1
 62
     5
 63
     7
421
 16777215
176
     1
 74
     1
176
     1
 91
        4
176
     1
 64
     7
176
     1
 65
   257
176
     1
 75
     1
176
     1
175
     1
176
     1
 42
1.0
176
     1
 92
        0
176
     1
 66
   257
176
     1
 43
1.0
176
     1
 76
     1
176
     1
 77
     6
176
     1
 78
     2
176
     1
 67
     7
176
     1
 79
     5
176
     1
170
     0
176
     1
171
     0
176
     1
290
     0
176
     1
 93
       13
176
     1
 44
0.0
176
     1
173
     0
176
     1
  0
VISUALSTYLE
  5
38
102
{ACAD_REACTORS
330
2A
102
}
330
2A
100
AcDbVisualStyle
  2
Linepattern
 70
    14
177
     2
291
     1
 71
     2
176
     1
 72
     2
176
     1
 73
     0
176
     1
 90
        0
176
     1
 40
-0.6
176
     1
 41
-30.0
176
     1
 62
     5
 63
     7
421
 16777215
176
     1
 74
     1
176
     1
 91
        4
176
     1
 64
     7
176
     1
 65
   257
176
     1
 75
     7
176
     1
175
     7
176
     1
 42
1.0
176
     1
 92
        8
176
     1
 66
     7
176
     1
 43
1.0
176
     1
 76
     1
176
     1
 77
     6
176
     1
 78
     2
176
     1
 67
     7
176
     1
 79
     5
176
     1
170
     0
176
     1
171
     0
176
     1
290
     0
176
     1
 93
        1
176
     1
 44
0.0
176
     1
173
     0
176
     1
  0
VISUALSTYLE
  5
33
102
{ACAD_REACTORS
330
2A
102
}
330
2A
100
AcDbVisualStyle
  2
Realistic
 70
     8
177
     2
291
     0
 71
     2
176
     1
 72
     2
176
     1
 73
     0
176
     1
 90
        0
176
     1
 40
-0.6
176
     1
 41
-30.0
176
     1
 62
     5
 63
     7
421
 16777215
176
     1
 74
     1
176
     1
 91
        0
176
     1
 64
     7
176
     1
 65
   257
176
     1
 75
     1
176
     1
175
     1
176
     1
 42
1.0
176
     1
 92
        8
176
     1
 66
     8
424
  7895160
176
     1
 43
1.0
176
     1
 76
     1
176
     1
 77
     6
176
     1
 78
     2
176
     1
 67
     7
176
     1
 79
     5
176
     1
170
     0
176
     1
171
     0
176
     1
290
     0
176
     1
 93
       13
176
     1
 44
0.0
176
     1
173
     0
176
     1
  0
VISUALSTYLE
  5
37
102
{ACAD_REACTORS
330
2A
102
}
330
2A
100
AcDbVisualStyle
  2
Thicken
 70
    13
177
     2
291
     1
 71
     2
176
     1
 72
     2
176
     1
 73
     0
176
     1
 90
        0
176
     1
 40
-0.6
176
     1
 41
-30.0
176
     1
 62
     5
 63
     7
421
 16777215
176
     1
 74
     1
176
     1
 91
        4
176
     1
 64
     7
176
     1
 65
   257
176
     1
 75
     1
176
     1
175
     1
176
     1
 42
1.0
176
     1
 92
       12
176
     1
 66
     7
176
     1
 43
1.0
176
     1
 76
     1
176
     1
 77
     6
176
     1
 78
     2
176
     1
 67
     7
176
     1
 79
     5
176
     1
170
     0
176
     1
171
     0
176
     1
290
     0
176
     1
 93
        1
176
     1
 44
0.0
176
     1
173
     0
176
     1
  0
ENDSEC
  0
EOF
