  0
SECTION
  2
HEADER
  9
$ACADVER
  1
AC1024
  9
$ACADMAINTVER
 70
     6
  9
$DWGCODEPAGE
  3
UNDEFINED
  9
$INSBASE
 10
0.0
 20
0.0
 30
0.0
  9
$EXTMIN
 10
1.000000000000000E+20
 20
1.000000000000000E+20
 30
1.000000000000000E+20
  9
$EXTMAX
 10
-1.000000000000000E+20
 20
-1.000000000000000E+20
 30
-1.000000000000000E+20
  9
$LIMMIN
 10
0.0
 20
0.0
  9
$LIMMAX
 10
12.0
 20
9.0
  9
$ORTHOMODE
 70
     0
  9
$REGENMODE
 70
     1
  9
$FILLMODE
 70
     1
  9
$QTEXTMODE
 70
     0
  9
$MIRRTEXT
 70
     1
  9
$LTSCALE
 40
1.0
  9
$ATTMODE
 70
     1
  9
$TEXTSIZE
 40
0.2
  9
$TRACEWID
 40
0.05
  9
$TEXTSTYLE
  7
Standard
  9
$CLAYER
  8
0
  9
$CELTYPE
  6
ByLayer
  9
$CECOLOR
 62
   256
  9
$CELTSCALE
 40
1.0
  9
$DISPSILH
 70
     0
  9
$DIMSCALE
 40
1.0
  9
$DIMASZ
 40
0.18
  9
$DIMEXO
 40
0.0625
  9
$DIMDLI
 40
0.38
  9
$DIMRND
 40
0.0
  9
$DIMDLE
 40
0.0
  9
$DIMEXE
 40
0.18
  9
$DIMTP
 40
0.0
  9
$DIMTM
 40
0.0
  9
$DIMTXT
 40
0.18
  9
$DIMCEN
 40
0.09
  9
$DIMTSZ
 40
0.0
  9
$DIMTOL
 70
     0
  9
$DIMLIM
 70
     0
  9
$DIMTIH
 70
     1
  9
$DIMTOH
 70
     1
  9
$DIMSE1
 70
     0
  9
$DIMSE2
 70
     0
  9
$DIMTAD
 70
     0
  9
$DIMZIN
 70
     0
  9
$DIMBLK
  1

  9
$DIMASO
 70
     1
  9
$DIMSHO
 70
     1
  9
$DIMPOST
  1

  9
$DIMAPOST
  1

  9
$DIMALT
 70
     0
  9
$DIMALTD
 70
     2
  9
$DIMALTF
 40
25.4
  9
$DIMLFAC
 40
1.0
  9
$DIMTOFL
 70
     0
  9
$DIMTVP
 40
0.0
  9
$DIMTIX
 70
     0
  9
$DIMSOXD
 70
     0
  9
$DIMSAH
 70
     0
  9
$DIMBLK1
  1

  9
$DIMBLK2
  1

  9
$DIMSTYLE
  2
Standard
  9
$DIMCLRD
 70
     0
  9
$DIMCLRE
 70
     0
  9
$DIMCLRT
 70
     0
  9
$DIMTFAC
 40
1.0
  9
$DIMGAP
 40
0.09
  9
$DIMJUST
 70
     0
  9
$DIMSD1
 70
     0
  9
$DIMSD2
 70
     0
  9
$DIMTOLJ
 70
     1
  9
$DIMTZIN
 70
     0
  9
$DIMALTZ
 70
     0
  9
$DIMALTTZ
 70
     0
  9
$DIMUPT
 70
     0
  9
$DIMDEC
 70
     4
  9
$DIMTDEC
 70
     4
  9
$DIMALTU
 70
     2
  9
$DIMALTTD
 70
     2
  9
$DIMTXSTY
  7
Standard
  9
$DIMAUNIT
 70
     0
  9
$DIMADEC
 70
     0
  9
$DIMALTRND
 40
0.0
  9
$DIMAZIN
 70
     0
  9
$DIMDSEP
 70
    46
  9
$DIMATFIT
 70
     3
  9
$DIMFRAC
 70
     0
  9
$DIMLDRBLK
  1

  9
$DIMLUNIT
 70
     2
  9
$DIMLWD
 70
    -2
  9
$DIMLWE
 70
    -2
  9
$DIMTMOVE
 70
     0
  9
$DIMFXL
 40
1.0
  9
$DIMFXLON
 70
     0
  9
$DIMJOGANG
 40
0.7853981633974483
  9
$DIMTFILL
 70
     0
  9
$DIMTFILLCLR
 70
     0
  9
$DIMARCSYM
 70
     0
  9
$DIMLTYPE
  6

  9
$DIMLTEX1
  6

  9
$DIMLTEX2
  6

  9
$DIMTXTDIRECTION
 70
     0
  9
$LUNITS
 70
     2
  9
$LUPREC
 70
     4
  9
$SKETCHINC
 40
0.1
  9
$FILLETRAD
 40
0.5
  9
$AUNITS
 70
     0
  9
$AUPREC
 70
     0
  9
$MENU
  1
.
  9
$ELEVATION
 40
0.0
  9
$PELEVATION
 40
0.0
  9
$THICKNESS
 40
0.0
  9
$LIMCHECK
 70
     0
  9
$CHAMFERA
 40
0.5
  9
$CHAMFERB
 40
0.5
  9
$CHAMFERC
 40
1.0
  9
$CHAMFERD
 40
0.0
  9
$SKPOLY
 70
     0
  9
$TDCREATE
 40
2457917.583912026
  9
$TDUCREATE
 40
2457917.208912037
  9
$TDUPDATE
 40
2457917.583912026
  9
$TDUUPDATE
 40
2457917.208912037
  9
$TDINDWG
 40
0.0000000116
  9
$TDUSRTIMER
 40
0.0000000116
  9
$USRTIMER
 70
     1
  9
$ANGBASE
 50
0.0
  9
$ANGDIR
 70
     0
  9
$PDMODE
 70
     0
  9
$PDSIZE
 40
0.0
  9
$PLINEWID
 40
0.0
  9
$SPLFRAME
 70
     0
  9
$SPLINETYPE
 70
     6
  9
$SPLINESEGS
 70
     8
  9
$HANDSEED
  5
154
  9
$SURFTAB1
 70
     6
  9
$SURFTAB2
 70
     6
  9
$SURFTYPE
 70
     6
  9
$SURFU
 70
     6
  9
$SURFV
 70
     6
  9
$UCSBASE
  2

  9
$UCSNAME
  2

  9
$UCSORG
 10
0.0
 20
0.0
 30
0.0
  9
$UCSXDIR
 10
1.0
 20
0.0
 30
0.0
  9
$UCSYDIR
 10
0.0
 20
1.0
 30
0.0
  9
$UCSORTHOREF
  2

  9
$UCSORTHOVIEW
 70
     0
  9
$UCSORGTOP
 10
0.0
 20
0.0
 30
0.0
  9
$UCSORGBOTTOM
 10
0.0
 20
0.0
 30
0.0
  9
$UCSORGLEFT
 10
0.0
 20
0.0
 30
0.0
  9
$UCSORGRIGHT
 10
0.0
 20
0.0
 30
0.0
  9
$UCSORGFRONT
 10
0.0
 20
0.0
 30
0.0
  9
$UCSORGBACK
 10
0.0
 20
0.0
 30
0.0
  9
$PUCSBASE
  2

  9
$PUCSNAME
  2

  9
$PUCSORG
 10
0.0
 20
0.0
 30
0.0
  9
$PUCSXDIR
 10
1.0
 20
0.0
 30
0.0
  9
$PUCSYDIR
 10
0.0
 20
1.0
 30
0.0
  9
$PUCSORTHOREF
  2

  9
$PUCSORTHOVIEW
 70
     0
  9
$PUCSORGTOP
 10
0.0
 20
0.0
 30
0.0
  9
$PUCSORGBOTTOM
 10
0.0
 20
0.0
 30
0.0
  9
$PUCSORGLEFT
 10
0.0
 20
0.0
 30
0.0
  9
$PUCSORGRIGHT
 10
0.0
 20
0.0
 30
0.0
  9
$PUCSORGFRONT
 10
0.0
 20
0.0
 30
0.0
  9
$PUCSORGBACK
 10
0.0
 20
0.0
 30
0.0
  9
$USERI1
 70
     0
  9
$USERI2
 70
     0
  9
$USERI3
 70
     0
  9
$USERI4
 70
     0
  9
$USERI5
 70
     0
  9
$USERR1
 40
0.0
  9
$USERR2
 40
0.0
  9
$USERR3
 40
0.0
  9
$USERR4
 40
0.0
  9
$USERR5
 40
0.0
  9
$WORLDVIEW
 70
     1
  9
$SHADEDGE
 70
     3
  9
$SHADEDIF
 70
    70
  9
$TILEMODE
 70
     1
  9
$MAXACTVP
 70
    64
  9
$PINSBASE
 10
0.0
 20
0.0
 30
0.0
  9
$PLIMCHECK
 70
     0
  9
$PEXTMIN
 10
1.000000000000000E+20
 20
1.000000000000000E+20
 30
1.000000000000000E+20
  9
$PEXTMAX
 10
-1.000000000000000E+20
 20
-1.000000000000000E+20
 30
-1.000000000000000E+20
  9
$PLIMMIN
 10
0.0
 20
0.0
  9
$PLIMMAX
 10
12.0
 20
9.0
  9
$UNITMODE
 70
     0
  9
$VISRETAIN
 70
     1
  9
$PLINEGEN
 70
     0
  9
$PSLTSCALE
 70
     1
  9
$TREEDEPTH
 70
  3020
  9
$CMLSTYLE
  2
Standard
  9
$CMLJUST
 70
     0
  9
$CMLSCALE
 40
1.0
  9
$PROXYGRAPHICS
 70
     1
  9
$MEASUREMENT
 70
     0
  9
$CELWEIGHT
370
    -1
  9
$ENDCAPS
280
     0
  9
$JOINSTYLE
280
     0
  9
$LWDISPLAY
290
     1
  9
$INSUNITS
 70
     1
  9
$HYPERLINKBASE
  1

  9
$STYLESHEET
  1

  9
$XEDIT
290
     1
  9
$CEPSNTYPE
380
     0
  9
$PSTYLEMODE
290
     1
  9
$FINGERPRINTGUID
  2
{92A2FF6D-86FF-92CB-DF3A-81864FBE75DD}
  9
$VERSIONGUID
  2
{FAEB1C32-E019-11D5-929B-00C0DF256EC4}
  9
$EXTNAMES
290
     1
  9
$PSVPSCALE
 40
0.0
  9
$OLESTARTUP
290
     0
  9
$SORTENTS
280
   127
  9
$INDEXCTL
280
     0
  9
$HIDETEXT
280
     1
  9
$XCLIPFRAME
280
     2
  9
$HALOGAP
280
     0
  9
$OBSCOLOR
 70
   257
  9
$OBSLTYPE
280
     0
  9
$INTERSECTIONDISPLAY
280
     0
  9
$INTERSECTIONCOLOR
 70
   257
  9
$DIMASSOC
280
     2
  9
$PROJECTNAME
  1

  9
$CAMERADISPLAY
290
     0
  9
$LENSLENGTH
 40
50.0
  9
$CAMERAHEIGHT
 40
0.0
  9
$STEPSPERSEC
 40
2.0
  9
$STEPSIZE
 40
6.0
  9
$3DDWFPREC
 40
2.0
  9
$PSOLWIDTH
 40
0.25
  9
$PSOLHEIGHT
 40
4.0
  9
$LOFTANG1
 40
1.570796326794897
  9
$LOFTANG2
 40
1.570796326794897
  9
$LOFTMAG1
 40
0.0
  9
$LOFTMAG2
 40
0.0
  9
$LOFTPARAM
 70
     7
  9
$LOFTNORMALS
280
     1
  9
$LATITUDE
 40
37.795
  9
$LONGITUDE
 40
-122.394
  9
$NORTHDIRECTION
 40
0.0
  9
$TIMEZONE
 70
 -8000
  9
$LIGHTGLYPHDISPLAY
280
     1
  9
$TILEMODELIGHTSYNCH
280
     1
  9
$CMATERIAL
347
3C
  9
$SOLIDHIST
280
     1
  9
$SHOWHIST
280
     1
  9
$DWFFRAME
280
     2
  9
$DGNFRAME
280
     2
  9
$REALWORLDSCALE
290
     1
  9
$INTERFERECOLOR
 62
   256
  9
$CSHADOW
280
     0
  9
$SHADOWPLANELOCATION
 40
0.0
  0
ENDSEC
  0
SECTION
  2
CLASSES
  0
CLASS
  1
ACDBDICTIONARYWDFLT
  2
AcDbDictionaryWithDefault
  3
ObjectDBX Classes
 90
        0
 91
        4
280
     0
281
     0
  0
CLASS
  1
VISUALSTYLE
  2
AcDbVisualStyle
  3
ObjectDBX Classes
 90
     4095
 91
        4
280
     0
281
     0
  0
CLASS
  1
MATERIAL
  2
AcDbMaterial
  3
ObjectDBX Classes
 90
     1153
 91
        4
280
     0
281
     0
  0
CLASS
  1
SUN
  2
AcDbSun
  3
SCENEOE
 90
     1024
 91
        4
280
     0
281
     0
  0
ENDSEC
  0
SECTION
  2
TABLES
  0
TABLE
  2
VPORT
  5
8
330
0
100
AcDbSymbolTable
 70
     1
  0
VPORT
  5
29
330
8
100
AcDbSymbolTableRecord
100
AcDbViewportTableRecord
  2
*Active
 70
     0
 10
0.0
 20
0.0
 11
1.0
 21
1.0
 12
0.0
 22
0.0
 13
0.0
 23
0.0
 14
0.5
 24
0.5
 15
0.5
 25
0.5
 16
0.0
 26
0.0
 36
1.0
 17
91.00082462281999
 27
-128.4993055234307
 37
0.0
 40
256.9986110468615
 41
0.7081814508812795
 42
50.0
 43
0.0
 44
0.0
 50
0.0
 51
0.0
 71
     0
 72
   100
 73
     1
 74
     3
 75
     0
 76
     0
 77
     0
 78
     0
281
     0
 65
     1
110
0.0
120
0.0
130
0.0
111
1.0
121
0.0
131
0.0
112
0.0
122
1.0
132
0.0
 79
     0
146
0.0
 60
     3
 61
     5
292
     1
282
     1
141
0.0
142
0.0
 63
   250
361
3F
  0
ENDTAB
  0
TABLE
  2
LTYPE
  5
5
330
0
100
AcDbSymbolTable
 70
     3
  0
LTYPE
  5
14
330
5
100
AcDbSymbolTableRecord
100
AcDbLinetypeTableRecord
  2
ByBlock
 70
     0
  3

 72
    65
 73
     0
 40
0.0
  0
LTYPE
  5
15
330
5
100
AcDbSymbolTableRecord
100
AcDbLinetypeTableRecord
  2
ByLayer
 70
     0
  3

 72
    65
 73
     0
 40
0.0
  0
LTYPE
  5
16
330
5
100
AcDbSymbolTableRecord
100
AcDbLinetypeTableRecord
  2
Continuous
 70
     0
  3
Solid line
 72
    65
 73
     0
 40
0.0
  0
LTYPE
  5
97
330
5
100
AcDbSymbolTableRecord
100
AcDbLinetypeTableRecord
  2
AI-Linetype-1
 70
     0
  3
Adobe Illustrator Linetype No. 1
 72
    65
 73
     2
 40
1.411111110758333
 49
0.7055555553791667
 74
     0
 49
-0.7055555553791667
 74
     0
  0
LTYPE
  5
150
330
5
100
AcDbSymbolTableRecord
100
AcDbLinetypeTableRecord
  2
AI-Linetype-2
 70
     0
  3
Adobe Illustrator Linetype No. 2
 72
    65
 73
     2
 40
1.411111110758333
 49
0.7055555553791667
 74
     0
 49
-0.7055555553791667
 74
     0
  0
ENDTAB
  0
TABLE
  2
LAYER
  5
2
330
0
100
AcDbSymbolTable
 70
     2
  0
LAYER
  5
10
330
2
100
AcDbSymbolTableRecord
100
AcDbLayerTableRecord
  2
0
 70
     0
 62
     7
  6
Continuous
370
    -3
390
F
347
3E
  0
LAYER
  5
40
330
2
100
AcDbSymbolTableRecord
100
AcDbLayerTableRecord
  2
_U+30EC_U+30A4_U+30E4_U+30FC 1
 70
     0
 62
     7
  6
Continuous
370
    -3
390
F
347
3E
  0
ENDTAB
  0
TABLE
  2
STYLE
  5
3
330
0
100
AcDbSymbolTable
 70
     1
  0
STYLE
  5
11
330
3
100
AcDbSymbolTableRecord
100
AcDbTextStyleTableRecord
  2
Standard
 70
     0
 40
0.0
 41
1.0
 50
0.0
 71
     0
 42
0.2
  3
txt
  4

  0
ENDTAB
  0
TABLE
  2
VIEW
  5
6
330
0
100
AcDbSymbolTable
 70
     0
  0
ENDTAB
  0
TABLE
  2
UCS
  5
7
330
0
100
AcDbSymbolTable
 70
     0
  0
ENDTAB
  0
TABLE
  2
APPID
  5
9
330
0
100
AcDbSymbolTable
 70
     1
  0
APPID
  5
12
330
9
100
AcDbSymbolTableRecord
100
AcDbRegAppTableRecord
  2
ACAD
 70
     0
  0
ENDTAB
  0
TABLE
  2
DIMSTYLE
  5
A
330
0
100
AcDbSymbolTable
 70
     1
100
AcDbDimStyleTable
  0
DIMSTYLE
105
27
330
A
100
AcDbSymbolTableRecord
100
AcDbDimStyleTableRecord
  2
Standard
 70
     0
178
     0
340
11
  0
ENDTAB
  0
TABLE
  2
BLOCK_RECORD
  5
1
330
0
100
AcDbSymbolTable
 70
     8
  0
BLOCK_RECORD
  5
1F
330
1
100
AcDbSymbolTableRecord
100
AcDbBlockTableRecord
  2
*Model_Space
340
22
 70
     0
280
     1
281
     0
  0
BLOCK_RECORD
  5
1B
330
1
100
AcDbSymbolTableRecord
100
AcDbBlockTableRecord
  2
*Paper_Space
340
1E
 70
     0
280
     1
281
     0
  0
BLOCK_RECORD
  5
23
330
1
100
AcDbSymbolTableRecord
100
AcDbBlockTableRecord
  2
*Paper_Space0
340
26
 70
     0
280
     1
281
     0
  0
BLOCK_RECORD
  5
41
330
1
100
AcDbSymbolTableRecord
100
AcDbBlockTableRecord
  2
block 2
340
0
102
{BLKREFS
331
42
102
}
 70
     0
280
     1
281
     0
  0
BLOCK_RECORD
  5
61
330
1
100
AcDbSymbolTableRecord
100
AcDbBlockTableRecord
  2
block 3
340
0
102
{BLKREFS
331
62
102
}
 70
     0
280
     1
281
     0
  0
BLOCK_RECORD
  5
6A
330
1
100
AcDbSymbolTableRecord
100
AcDbBlockTableRecord
  2
block 4
340
0
102
{BLKREFS
331
6B
102
}
 70
     0
280
     1
281
     0
  0
BLOCK_RECORD
  5
7D
330
1
100
AcDbSymbolTableRecord
100
AcDbBlockTableRecord
  2
block 5
340
0
102
{BLKREFS
331
7E
102
}
 70
     0
280
     1
281
     0
  0
BLOCK_RECORD
  5
86
330
1
100
AcDbSymbolTableRecord
100
AcDbBlockTableRecord
  2
block 6
340
0
102
{BLKREFS
331
87
102
}
 70
     0
280
     1
281
     0
  0
BLOCK_RECORD
  5
99
330
1
100
AcDbSymbolTableRecord
100
AcDbBlockTableRecord
  2
block 7
340
0
102
{BLKREFS
331
9A
102
}
 70
     0
280
     1
281
     0
  0
BLOCK_RECORD
  5
11B
330
1
100
AcDbSymbolTableRecord
100
AcDbBlockTableRecord
  2
block 8
340
0
102
{BLKREFS
331
11C
102
}
 70
     0
280
     1
281
     0
  0
ENDTAB
  0
ENDSEC
  0
SECTION
  2
BLOCKS
  0
BLOCK
  5
20
330
1F
100
AcDbEntity
  8
0
100
AcDbBlockBegin
  2
*Model_Space
 70
     0
 10
0.0
 20
0.0
 30
0.0
  3
*Model_Space
  1

  0
ENDBLK
  5
21
330
1F
100
AcDbEntity
  8
0
100
AcDbBlockEnd
  0
BLOCK
  5
1C
330
1B
100
AcDbEntity
 67
     1
  8
0
100
AcDbBlockBegin
  2
*Paper_Space
 70
     0
 10
0.0
 20
0.0
 30
0.0
  3
*Paper_Space
  1

  0
ENDBLK
  5
1D
330
1B
100
AcDbEntity
 67
     1
  8
0
100
AcDbBlockEnd
  0
BLOCK
  5
24
330
23
100
AcDbEntity
  8
0
100
AcDbBlockBegin
  2
*Paper_Space0
 70
     0
 10
0.0
 20
0.0
 30
0.0
  3
*Paper_Space0
  1

  0
ENDBLK
  5
25
330
23
100
AcDbEntity
  8
0
100
AcDbBlockEnd
  0
BLOCK
  5
43
330
41
100
AcDbEntity
  8
0
100
AcDbBlockBegin
  2
block 2
 70
     0
 10
0.0
 20
0.0
 30
0.0
  3
block 2
  1

  0
POLYLINE
  5
45
330
41
100
AcDbEntity
  8
_U+30EC_U+30A4_U+30E4_U+30FC 1
 62
     7
420
 16777215
370
    25
100
AcDb2dPolyline
 66
     1
 10
0.0
 20
0.0
 30
0.0
  0
VERTEX
  5
46
330
45
100
AcDbEntity
  8
_U+30EC_U+30A4_U+30E4_U+30FC 1
 62
     7
420
 16777215
370
    25
100
AcDbVertex
100
AcDb2dVertex
 10
108.0898736312865
 20
-138.3929230209576
 30
0.0
  0
VERTEX
  5
47
330
45
100
AcDbEntity
  8
_U+30EC_U+30A4_U+30E4_U+30FC 1
 62
     7
420
 16777215
370
    25
100
AcDbVertex
100
AcDb2dVertex
 10
108.0898736312865
 20
-138.993068576363
 30
0.0
  0
SEQEND
  5
48
330
45
100
AcDbEntity
  8
_U+30EC_U+30A4_U+30E4_U+30FC 1
 62
     7
420
 16777215
370
    25
  0
POLYLINE
  5
49
330
41
100
AcDbEntity
  8
_U+30EC_U+30A4_U+30E4_U+30FC 1
 62
     7
420
 16777215
370
    25
100
AcDb2dPolyline
 66
     1
 10
0.0
 20
0.0
 30
0.0
  0
VERTEX
  5
4A
330
49
100
AcDbEntity
  8
_U+30EC_U+30A4_U+30E4_U+30FC 1
 62
     7
420
 16777215
370
    25
100
AcDbVertex
100
AcDb2dVertex
 10
82.08955235016549
 20
-112.9929230273073
 30
0.0
  0
VERTEX
  5
4B
330
49
100
AcDbEntity
  8
_U+30EC_U+30A4_U+30E4_U+30FC 1
 62
     7
420
 16777215
370
    25
100
AcDbVertex
100
AcDb2dVertex
 10
82.68934720155005
 20
-112.9929230273073
 30
0.0
  0
SEQEND
  5
4C
330
49
100
AcDbEntity
  8
_U+30EC_U+30A4_U+30E4_U+30FC 1
 62
     7
420
 16777215
370
    25
  0
POLYLINE
  5
4D
330
41
100
AcDbEntity
  8
_U+30EC_U+30A4_U+30E4_U+30FC 1
 62
     7
420
 16777215
370
    25
100
AcDb2dPolyline
 66
     1
 10
0.0
 20
0.0
 30
0.0
  0
VERTEX
  5
4E
330
4D
100
AcDbEntity
  8
_U+30EC_U+30A4_U+30E4_U+30FC 1
 62
     7
420
 16777215
370
    25
100
AcDbVertex
100
AcDb2dVertex
 10
108.0898736312865
 20
-138.993068576363
 30
0.0
  0
VERTEX
  5
4F
330
4D
100
AcDbEntity
  8
_U+30EC_U+30A4_U+30E4_U+30FC 1
 62
     7
420
 16777215
370
    25
100
AcDbVertex
100
AcDb2dVertex
 10
82.08955235016549
 20
-138.993068576363
 30
0.0
  0
VERTEX
  5
50
330
4D
100
AcDbEntity
  8
_U+30EC_U+30A4_U+30E4_U+30FC 1
 62
     7
420
 16777215
370
    25
100
AcDbVertex
100
AcDb2dVertex
 10
82.08955235016549
 20
-112.9930994161962
 30
0.0
  0
SEQEND
  5
51
330
4D
100
AcDbEntity
  8
_U+30EC_U+30A4_U+30E4_U+30FC 1
 62
     7
420
 16777215
370
    25
  0
SPLINE
  5
52
330
41
100
AcDbEntity
  8
_U+30EC_U+30A4_U+30E4_U+30FC 1
 62
     7
420
 16777215
370
    25
100
AcDbSpline
210
0.0
220
0.0
230
1.0
 70
     8
 71
     3
 72
   323
 73
   319
 74
     0
 42
0.0000000001
 43
0.0000000001
 12
1.0
 22
0.0
 32
0.0
 13
1.0
 23
0.0
 33
0.0
 40
0.0
 40
0.0
 40
0.0
 40
0.0
 40
1.0
 40
1.0
 40
1.0
 40
2.0
 40
2.0
 40
2.0
 40
3.0
 40
3.0
 40
3.0
 40
4.0
 40
4.0
 40
4.0
 40
5.0
 40
5.0
 40
5.0
 40
6.0
 40
6.0
 40
6.0
 40
7.0
 40
7.0
 40
7.0
 40
8.0
 40
8.0
 40
8.0
 40
9.0
 40
9.0
 40
9.0
 40
10.0
 40
10.0
 40
10.0
 40
11.0
 40
11.0
 40
11.0
 40
12.0
 40
12.0
 40
12.0
 40
13.0
 40
13.0
 40
13.0
 40
14.0
 40
14.0
 40
14.0
 40
15.0
 40
15.0
 40
15.0
 40
16.0
 40
16.0
 40
16.0
 40
17.0
 40
17.0
 40
17.0
 40
18.0
 40
18.0
 40
18.0
 40
19.0
 40
19.0
 40
19.0
 40
20.0
 40
20.0
 40
20.0
 40
21.0
 40
21.0
 40
21.0
 40
22.0
 40
22.0
 40
22.0
 40
23.0
 40
23.0
 40
23.0
 40
24.0
 40
24.0
 40
24.0
 40
25.0
 40
25.0
 40
25.0
 40
26.0
 40
26.0
 40
26.0
 40
27.0
 40
27.0
 40
27.0
 40
28.0
 40
28.0
 40
28.0
 40
29.0
 40
29.0
 40
29.0
 40
30.0
 40
30.0
 40
30.0
 40
31.0
 40
31.0
 40
31.0
 40
32.0
 40
32.0
 40
32.0
 40
33.0
 40
33.0
 40
33.0
 40
34.0
 40
34.0
 40
34.0
 40
35.0
 40
35.0
 40
35.0
 40
36.0
 40
36.0
 40
36.0
 40
37.0
 40
37.0
 40
37.0
 40
38.0
 40
38.0
 40
38.0
 40
39.0
 40
39.0
 40
39.0
 40
40.0
 40
40.0
 40
40.0
 40
41.0
 40
41.0
 40
41.0
 40
42.0
 40
42.0
 40
42.0
 40
43.0
 40
43.0
 40
43.0
 40
44.0
 40
44.0
 40
44.0
 40
45.0
 40
45.0
 40
45.0
 40
46.0
 40
46.0
 40
46.0
 40
47.0
 40
47.0
 40
47.0
 40
48.0
 40
48.0
 40
48.0
 40
49.0
 40
49.0
 40
49.0
 40
50.0
 40
50.0
 40
50.0
 40
51.0
 40
51.0
 40
51.0
 40
52.0
 40
52.0
 40
52.0
 40
53.0
 40
53.0
 40
53.0
 40
54.0
 40
54.0
 40
54.0
 40
55.0
 40
55.0
 40
55.0
 40
56.0
 40
56.0
 40
56.0
 40
57.0
 40
57.0
 40
57.0
 40
58.0
 40
58.0
 40
58.0
 40
59.0
 40
59.0
 40
59.0
 40
60.0
 40
60.0
 40
60.0
 40
61.0
 40
61.0
 40
61.0
 40
62.0
 40
62.0
 40
62.0
 40
63.0
 40
63.0
 40
63.0
 40
64.0
 40
64.0
 40
64.0
 40
65.0
 40
65.0
 40
65.0
 40
66.0
 40
66.0
 40
66.0
 40
67.0
 40
67.0
 40
67.0
 40
68.0
 40
68.0
 40
68.0
 40
69.0
 40
69.0
 40
69.0
 40
70.0
 40
70.0
 40
70.0
 40
71.0
 40
71.0
 40
71.0
 40
72.0
 40
72.0
 40
72.0
 40
73.0
 40
73.0
 40
73.0
 40
74.0
 40
74.0
 40
74.0
 40
75.0
 40
75.0
 40
75.0
 40
76.0
 40
76.0
 40
76.0
 40
77.0
 40
77.0
 40
77.0
 40
78.0
 40
78.0
 40
78.0
 40
79.0
 40
79.0
 40
79.0
 40
80.0
 40
80.0
 40
80.0
 40
81.0
 40
81.0
 40
81.0
 40
82.0
 40
82.0
 40
82.0
 40
83.0
 40
83.0
 40
83.0
 40
84.0
 40
84.0
 40
84.0
 40
85.0
 40
85.0
 40
85.0
 40
86.0
 40
86.0
 40
86.0
 40
87.0
 40
87.0
 40
87.0
 40
88.0
 40
88.0
 40
88.0
 40
89.0
 40
89.0
 40
89.0
 40
90.0
 40
90.0
 40
90.0
 40
91.0
 40
91.0
 40
91.0
 40
92.0
 40
92.0
 40
92.0
 40
93.0
 40
93.0
 40
93.0
 40
94.0
 40
94.0
 40
94.0
 40
95.0
 40
95.0
 40
95.0
 40
96.0
 40
96.0
 40
96.0
 40
97.0
 40
97.0
 40
97.0
 40
98.0
 40
98.0
 40
98.0
 40
99.0
 40
99.0
 40
99.0
 40
100.0
 40
100.0
 40
100.0
 40
101.0
 40
101.0
 40
101.0
 40
102.0
 40
102.0
 40
102.0
 40
103.0
 40
103.0
 40
103.0
 40
104.0
 40
104.0
 40
104.0
 40
105.0
 40
105.0
 40
105.0
 40
106.0
 40
106.0
 40
106.0
 40
106.0
 10
108.0898736312865
 20
-138.3929230209576
 30
0.0
 10
108.0898736312865
 20
-138.3929230209576
 30
0.0
 10
107.6888711415169
 20
-138.6905969097716
 30
0.0
 10
107.6888711415169
 20
-138.6905969097716
 30
0.0
 10
107.6888711415169
 20
-138.6905969097716
 30
0.0
 10
107.1920894875242
 20
-138.2868074654283
 30
0.0
 10
107.1920894875242
 20
-138.2868074654283
 30
0.0
 10
107.1920894875242
 20
-138.2868074654283
 30
0.0
 10
106.6880758892715
 20
-138.6819891319959
 30
0.0
 10
106.6880758892715
 20
-138.6819891319959
 30
0.0
 10
106.6880758892715
 20
-138.6819891319959
 30
0.0
 10
106.1912589575019
 20
-138.2778821876529
 30
0.0
 10
106.1912589575019
 20
-138.2778821876529
 30
0.0
 10
106.1912589575019
 20
-138.2778821876529
 30
0.0
 10
105.6875981370181
 20
-138.6736988542204
 30
0.0
 10
105.6875981370181
 20
-138.6736988542204
 30
0.0
 10
105.6875981370181
 20
-138.6736988542204
 30
0.0
 10
105.1904637052566
 20
-138.2689216320995
 30
0.0
 10
105.1904637052566
 20
-138.2689216320995
 30
0.0
 10
105.1904637052566
 20
-138.2689216320995
 30
0.0
 10
104.6868055293839
 20
-138.6650910764448
 30
0.0
 10
104.6868055293839
 20
-138.6650910764448
 30
0.0
 10
104.6868055293839
 20
-138.6650910764448
 30
0.0
 10
104.1907267863176
 20
-138.260631354324
 30
0.0
 10
104.1907267863176
 20
-138.260631354324
 30
0.0
 10
104.1907267863176
 20
-138.260631354324
 30
0.0
 10
103.6863604102961
 20
-138.6561305208913
 30
0.0
 10
103.6863604102961
 20
-138.6561305208913
 30
0.0
 10
103.6863604102961
 20
-138.6561305208913
 30
0.0
 10
103.1902490340641
 20
-138.2516707987705
 30
0.0
 10
103.1902490340641
 20
-138.2516707987705
 30
0.0
 10
103.1902490340641
 20
-138.2516707987705
 30
0.0
 10
102.6858826580427
 20
-138.6478755208933
 30
0.0
 10
102.6858826580427
 20
-138.6478755208933
 30
0.0
 10
102.6858826580427
 20
-138.6478755208933
 30
0.0
 10
102.1898065595875
 20
-138.2437685765504
 30
0.0
 10
102.1898065595875
 20
-138.2437685765504
 30
0.0
 10
102.1898065595875
 20
-138.2437685765504
 30
0.0
 10
101.6854401835661
 20
-138.6389149653405
 30
0.0
 10
101.6854401835661
 20
-138.6389149653405
 30
0.0
 10
101.6854401835661
 20
-138.6389149653405
 30
0.0
 10
101.1886610858142
 20
-138.2348080209969
 30
0.0
 10
101.1886610858142
 20
-138.2348080209969
 30
0.0
 10
101.1886610858142
 20
-138.2348080209969
 30
0.0
 10
100.6849977090895
 20
-138.629954409787
 30
0.0
 10
100.6849977090895
 20
-138.629954409787
 30
0.0
 10
100.6849977090895
 20
-138.629954409787
 30
0.0
 10
100.1881833082861
 20
-138.2262002432212
 30
0.0
 10
100.1881833082861
 20
-138.2262002432212
 30
0.0
 10
100.1881833082861
 20
-138.2262002432212
 30
0.0
 10
99.68451995683603
 20
-138.6213466320113
 30
0.0
 10
99.68451995683603
 20
-138.6213466320113
 30
0.0
 10
99.68451995683603
 20
-138.6213466320113
 30
0.0
 10
99.18773830284331
 20
-138.2172396876677
 30
0.0
 10
99.18773830284331
 20
-138.2172396876677
 30
0.0
 10
99.18773830284331
 20
-138.2172396876677
 30
0.0
 10
98.68407748235944
 20
-138.6127388542356
 30
0.0
 10
98.68407748235944
 20
-138.6127388542356
 30
0.0
 10
98.68407748235944
 20
-138.6127388542356
 30
0.0
 10
98.18729582836673
 20
-138.2089494098922
 30
0.0
 10
98.18729582836673
 20
-138.2089494098922
 30
0.0
 10
98.18729582836673
 20
-138.2089494098922
 30
0.0
 10
97.68359973010597
 20
-138.6044485764601
 30
0.0
 10
97.68359973010597
 20
-138.6044485764601
 30
0.0
 10
97.68359973010597
 20
-138.6044485764601
 30
0.0
 10
97.18681807611327
 20
-138.1999888543388
 30
0.0
 10
97.18681807611327
 20
-138.1999888543388
 30
0.0
 10
97.18681807611327
 20
-138.1999888543388
 30
0.0
 10
96.68280447786061
 20
-138.5961935764622
 30
0.0
 10
96.68280447786061
 20
-138.5961935764622
 30
0.0
 10
96.68280447786061
 20
-138.5961935764622
 30
0.0
 10
96.18637560163667
 20
-138.1910635765634
 30
0.0
 10
96.18637560163667
 20
-138.1910635765634
 30
0.0
 10
96.18637560163667
 20
-138.1910635765634
 30
0.0
 10
95.6827147811528
 20
-138.5872330209087
 30
0.0
 10
95.6827147811528
 20
-138.5872330209087
 30
0.0
 10
95.6827147811528
 20
-138.5872330209087
 30
0.0
 10
95.18593312716008
 20
-138.1824205210102
 30
0.0
 10
95.18593312716008
 20
-138.1824205210102
 30
0.0
 10
95.18593312716008
 20
-138.1824205210102
 30
0.0
 10
94.68223702889934
 20
-138.5782724653552
 30
0.0
 10
94.68223702889934
 20
-138.5782724653552
 30
0.0
 10
94.68223702889934
 20
-138.5782724653552
 30
0.0
 10
94.18478509714595
 20
-138.17451829879
 30
0.0
 10
94.18478509714595
 20
-138.17451829879
 30
0.0
 10
94.18478509714595
 20
-138.17451829879
 30
0.0
 10
93.68179455442275
 20
-138.5696646875795
 30
0.0
 10
93.68179455442275
 20
-138.5696646875795
 30
0.0
 10
93.68179455442275
 20
-138.5696646875795
 30
0.0
 10
93.18430734489249
 20
-138.1655577432365
 30
0.0
 10
93.18430734489249
 20
-138.1655577432365
 30
0.0
 10
93.18430734489249
 20
-138.1655577432365
 30
0.0
 10
92.68099930217738
 20
-138.5610569098044
 30
0.0
 10
92.68099930217738
 20
-138.5610569098044
 30
0.0
 10
92.68099930217738
 20
-138.5610569098044
 30
0.0
 10
92.1838648704159
 20
-138.1569499654609
 30
0.0
 10
92.1838648704159
 20
-138.1569499654609
 30
0.0
 10
92.1838648704159
 20
-138.1569499654609
 30
0.0
 10
91.68052154992392
 20
-138.552096354251
 30
0.0
 10
91.68052154992392
 20
-138.552096354251
 30
0.0
 10
91.68052154992392
 20
-138.552096354251
 30
0.0
 10
91.18342239593932
 20
-138.1483421876851
 30
0.0
 10
91.18342239593932
 20
-138.1483421876851
 30
0.0
 10
91.18342239593932
 20
-138.1483421876851
 30
0.0
 10
90.68007907544734
 20
-138.5431357986975
 30
0.0
 10
90.68007907544734
 20
-138.5431357986975
 30
0.0
 10
90.68007907544734
 20
-138.5431357986975
 30
0.0
 10
90.18294464368584
 20
-138.1393816321317
 30
0.0
 10
90.18294464368584
 20
-138.1393816321317
 30
0.0
 10
90.18294464368584
 20
-138.1393816321317
 30
0.0
 10
89.67928608869123
 20
-138.5355510764769
 30
0.0
 10
89.67928608869123
 20
-138.5355510764769
 30
0.0
 10
89.67928608869123
 20
-138.5355510764769
 30
0.0
 10
89.18232578032487
 20
-138.1307738543559
 30
0.0
 10
89.18232578032487
 20
-138.1307738543559
 30
0.0
 10
89.18232578032487
 20
-138.1307738543559
 30
0.0
 10
88.6788083111635
 20
-138.5265905209241
 30
0.0
 10
88.6788083111635
 20
-138.5265905209241
 30
0.0
 10
88.6788083111635
 20
-138.5265905209241
 30
0.0
 10
88.18188330584829
 20
-138.1221307988027
 30
0.0
 10
88.18188330584829
 20
-138.1221307988027
 30
0.0
 10
88.18188330584829
 20
-138.1221307988027
 30
0.0
 10
87.67818720758754
 20
-138.5179827431484
 30
0.0
 10
87.67818720758754
 20
-138.5179827431484
 30
0.0
 10
87.67818720758754
 20
-138.5179827431484
 30
0.0
 10
87.18158194247921
 20
-138.1132055210274
 30
0.0
 10
87.18158194247921
 20
-138.1132055210274
 30
0.0
 10
87.18158194247921
 20
-138.1132055210274
 30
0.0
 10
86.67774473311094
 20
-138.5093749653727
 30
0.0
 10
86.67774473311094
 20
-138.5093749653727
 30
0.0
 10
86.67774473311094
 20
-138.5093749653727
 30
0.0
 10
86.18078886734382
 20
-138.1049152432513
 30
0.0
 10
86.18078886734382
 20
-138.1049152432513
 30
0.0
 10
86.18078886734382
 20
-138.1049152432513
 30
0.0
 10
85.67712586974997
 20
-138.5004144098192
 30
0.0
 10
85.67712586974997
 20
-138.5004144098192
 30
0.0
 10
85.67712586974997
 20
-138.5004144098192
 30
0.0
 10
85.18034421575726
 20
-138.0966602432534
 30
0.0
 10
85.18034421575726
 20
-138.0966602432534
 30
0.0
 10
85.18034421575726
 20
-138.0966602432534
 30
0.0
 10
84.67700089526528
 20
-138.4914538542657
 30
0.0
 10
84.67700089526528
 20
-138.4914538542657
 30
0.0
 10
84.67700089526528
 20
-138.4914538542657
 30
0.0
 10
84.18124442339906
 20
-138.0711544099265
 30
0.0
 10
84.18124442339906
 20
-138.0711544099265
 30
0.0
 10
84.18124442339906
 20
-138.0711544099265
 30
0.0
 10
83.67793425408694
 20
-138.4666535764943
 30
0.0
 10
83.67793425408694
 20
-138.4666535764943
 30
0.0
 10
83.67793425408694
 20
-138.4666535764943
 30
0.0
 10
83.67722869854938
 20
-138.4666535764943
 30
0.0
 10
83.67722869854938
 20
-138.4666535764943
 30
0.0
 10
83.67722869854938
 20
-138.4666535764943
 30
0.0
 10
83.29756926379085
 20
-138.4631963542731
 30
0.0
 10
83.29756926379085
 20
-138.4631963542731
 30
0.0
 10
83.29069009729969
 20
-138.4639019098286
 30
0.0
 10
83.28381093080853
 20
-138.4639019098286
 30
0.0
 10
83.27760204207804
 20
-138.4631963542731
 30
0.0
 10
82.94616942370776
 20
-138.4583985764964
 30
0.0
 10
82.68158609044058
 20
-138.1848546876757
 30
0.0
 10
82.68712261269798
 20
-137.8534199655369
 30
0.0
 10
82.68712261269798
 20
-137.8534199655369
 30
0.0
 10
82.68712261269798
 20
-137.8169074655456
 30
0.0
 10
82.68712261269798
 20
-137.8169074655456
 30
0.0
 10
82.68712261269798
 20
-137.8169074655456
 30
0.0
 10
82.68606427939164
 20
-137.8176130211012
 30
0.0
 10
82.68606427939164
 20
-137.8176130211012
 30
0.0
 10
82.68606427939164
 20
-137.8176130211012
 30
0.0
 10
82.68193886821834
 20
-137.4806749656301
 30
0.0
 10
82.68193886821834
 20
-137.4806749656301
 30
0.0
 10
82.68193886821834
 20
-137.4806749656301
 30
0.0
 10
83.07570732500658
 20
-136.975285521312
 30
0.0
 10
83.07570732500658
 20
-136.975285521312
 30
0.0
 10
83.07570732500658
 20
-136.975285521312
 30
0.0
 10
82.66849594650651
 20
-136.480197188102
 30
0.0
 10
82.66849594650651
 20
-136.480197188102
 30
0.0
 10
82.66849594650651
 20
-136.480197188102
 30
0.0
 10
82.65163316915894
 20
-136.4740235769925
 30
0.0
 10
82.65163316915894
 20
-136.4740235769925
 30
0.0
 10
82.65163316915894
 20
-136.4740235769925
 30
0.0
 10
83.0450509368998
 20
-135.9689516326746
 30
0.0
 10
83.0450509368998
 20
-135.9689516326746
 30
0.0
 10
83.0450509368998
 20
-135.9689516326746
 30
0.0
 10
82.63784164600713
 20
-135.4735457994651
 30
0.0
 10
82.63784164600713
 20
-135.4735457994651
 30
0.0
 10
82.63784164600713
 20
-135.4735457994651
 30
0.0
 10
83.0309398261487
 20
-134.9685091329247
 30
0.0
 10
83.0309398261487
 20
-134.9685091329247
 30
0.0
 10
83.0309398261487
 20
-134.9685091329247
 30
0.0
 10
82.6243987254093
 20
-134.4731032997152
 30
0.0
 10
82.6243987254093
 20
-134.4731032997152
 30
0.0
 10
82.6243987254093
 20
-134.4731032997152
 30
0.0
 10
83.01714621538949
 20
-133.9680666331748
 30
0.0
 10
83.01714621538949
 20
-133.9680666331748
 30
0.0
 10
83.01714621538949
 20
-133.9680666331748
 30
0.0
 10
82.61064039242699
 20
-133.4726607999653
 30
0.0
 10
82.61064039242699
 20
-133.4726607999653
 30
0.0
 10
82.61064039242699
 20
-133.4726607999653
 30
0.0
 10
83.00338788240715
 20
-132.9672360778696
 30
0.0
 10
83.00338788240715
 20
-132.9672360778696
 30
0.0
 10
83.00338788240715
 20
-132.9672360778696
 30
0.0
 10
82.5961765039071
 20
-132.4721830224372
 30
0.0
 10
82.5961765039071
 20
-132.4721830224372
 30
0.0
 10
82.5961765039071
 20
-132.4721830224372
 30
0.0
 10
82.98959427164795
 20
-131.9667935781197
 30
0.0
 10
82.98959427164795
 20
-131.9667935781197
 30
0.0
 10
82.98959427164795
 20
-131.9667935781197
 30
0.0
 10
82.58273567091666
 20
-131.471740522688
 30
0.0
 10
82.58273567091666
 20
-131.471740522688
 30
0.0
 10
82.58273567091666
 20
-131.471740522688
 30
0.0
 10
82.97548316089684
 20
-130.9666685783694
 30
0.0
 10
82.97548316089684
 20
-130.9666685783694
 30
0.0
 10
82.97548316089684
 20
-130.9666685783694
 30
0.0
 10
82.56894206015745
 20
-130.4712627451599
 30
0.0
 10
82.56894206015745
 20
-130.4712627451599
 30
0.0
 10
82.56894206015745
 20
-130.4712627451599
 30
0.0
 10
82.96169164592638
 20
-129.9658733008417
 30
0.0
 10
82.96169164592638
 20
-129.9658733008417
 30
0.0
 10
82.96169164592638
 20
-129.9658733008417
 30
0.0
 10
82.55447817163757
 20
-129.47082024541
 30
0.0
 10
82.55447817163757
 20
-129.47082024541
 30
0.0
 10
82.55447817163757
 20
-129.47082024541
 30
0.0
 10
82.94789593937843
 20
-128.9654308010919
 30
0.0
 10
82.94789593937843
 20
-128.9654308010919
 30
0.0
 10
82.94789593937843
 20
-128.9654308010919
 30
0.0
 10
82.54068456087838
 20
-128.4708716345489
 30
0.0
 10
82.54068456087838
 20
-128.4708716345489
 30
0.0
 10
82.54068456087838
 20
-128.4708716345489
 30
0.0
 10
82.93378482862732
 20
-127.9649883013419
 30
0.0
 10
82.93378482862732
 20
-127.9649883013419
 30
0.0
 10
82.93378482862732
 20
-127.9649883013419
 30
0.0
 10
82.52724372788794
 20
-127.4706055236879
 30
0.0
 10
82.52724372788794
 20
-127.4706055236879
 30
0.0
 10
82.52724372788794
 20
-127.4706055236879
 30
0.0
 10
82.91999121786812
 20
-126.9643341349256
 30
0.0
 10
82.91999121786812
 20
-126.9643341349256
 30
0.0
 10
82.91999121786812
 20
-126.9643341349256
 30
0.0
 10
82.51348539490562
 20
-126.4701277461601
 30
0.0
 10
82.51348539490562
 20
-126.4701277461601
 30
0.0
 10
82.51348539490562
 20
-126.4701277461601
 30
0.0
 10
82.90623288488578
 20
-125.9638916351757
 30
0.0
 10
82.90623288488578
 20
-125.9638916351757
 30
0.0
 10
82.90623288488578
 20
-125.9638916351757
 30
0.0
 10
82.49902150638573
 20
-125.4695088575216
 30
0.0
 10
82.49902150638573
 20
-125.4695088575216
 30
0.0
 10
82.49902150638573
 20
-125.4695088575216
 30
0.0
 10
82.89243927412657
 20
-124.9634491354258
 30
0.0
 10
82.89243927412657
 20
-124.9634491354258
 30
0.0
 10
82.89243927412657
 20
-124.9634491354258
 30
0.0
 10
82.48522789562652
 20
-124.4690663577717
 30
0.0
 10
82.48522789562652
 20
-124.4690663577717
 30
0.0
 10
82.48522789562652
 20
-124.4690663577717
 30
0.0
 10
82.8779753856067
 20
-123.9627949690092
 30
0.0
 10
82.8779753856067
 20
-123.9627949690092
 30
0.0
 10
82.8779753856067
 20
-123.9627949690092
 30
0.0
 10
82.47143428486731
 20
-123.468588580244
 30
0.0
 10
82.47143428486731
 20
-123.468588580244
 30
0.0
 10
82.47143428486731
 20
-123.468588580244
 30
0.0
 10
82.86453455261626
 20
-122.9625288581482
 30
0.0
 10
82.86453455261626
 20
-122.9625288581482
 30
0.0
 10
82.86453455261626
 20
-122.9625288581482
 30
0.0
 10
82.45732317411621
 20
-122.4679696916052
 30
0.0
 10
82.45732317411621
 20
-122.4679696916052
 30
0.0
 10
82.45732317411621
 20
-122.4679696916052
 30
0.0
 10
82.85074094185705
 20
-121.9619099695094
 30
0.0
 10
82.85074094185705
 20
-121.9619099695094
 30
0.0
 10
82.85074094185705
 20
-121.9619099695094
 30
0.0
 10
82.443529563357
 20
-121.4675271918553
 30
0.0
 10
82.443529563357
 20
-121.4675271918553
 30
0.0
 10
82.443529563357
 20
-121.4675271918553
 30
0.0
 10
82.83627705333717
 20
-120.961432191982
 30
0.0
 10
82.83627705333717
 20
-120.961432191982
 30
0.0
 10
82.83627705333717
 20
-120.961432191982
 30
0.0
 10
82.42977123037467
 20
-120.4669083032165
 30
0.0
 10
82.42977123037467
 20
-120.4669083032165
 30
0.0
 10
82.42977123037467
 20
-120.4669083032165
 30
0.0
 10
82.82251872035485
 20
-119.9609896922321
 30
0.0
 10
82.82251872035485
 20
-119.9609896922321
 30
0.0
 10
82.82251872035485
 20
-119.9609896922321
 30
0.0
 10
82.41597761961546
 20
-119.4666069145777
 30
0.0
 10
82.41597761961546
 20
-119.4666069145777
 30
0.0
 10
82.41597761961546
 20
-119.4666069145777
 30
0.0
 10
82.80907788736442
 20
-118.9603355258155
 30
0.0
 10
82.80907788736442
 20
-118.9603355258155
 30
0.0
 10
82.80907788736442
 20
-118.9603355258155
 30
0.0
 10
82.40186650886436
 20
-118.4661644148278
 30
0.0
 10
82.40186650886436
 20
-118.4661644148278
 30
0.0
 10
82.40186650886436
 20
-118.4661644148278
 30
0.0
 10
82.79528427660522
 20
-117.9598930260656
 30
0.0
 10
82.79528427660522
 20
-117.9598930260656
 30
0.0
 10
82.79528427660522
 20
-117.9598930260656
 30
0.0
 10
82.38807497940304
 20
-117.4655102484115
 30
0.0
 10
82.38807497940304
 20
-117.4655102484115
 30
0.0
 10
82.38807497940304
 20
-117.4655102484115
 30
0.0
 10
82.78082038808533
 20
-116.9594505263156
 30
0.0
 10
82.78082038808533
 20
-116.9594505263156
 30
0.0
 10
82.78082038808533
 20
-116.9594505263156
 30
0.0
 10
82.37431664607324
 20
-116.4650677486616
 30
0.0
 10
82.37431664607324
 20
-116.4650677486616
 30
0.0
 10
82.37431664607324
 20
-116.4650677486616
 30
0.0
 10
82.76737955509489
 20
-115.9589727487879
 30
0.0
 10
82.76737955509489
 20
-115.9589727487879
 30
0.0
 10
82.76737955509489
 20
-115.9589727487879
 30
0.0
 10
82.36016817659484
 20
-115.4646252489117
 30
0.0
 10
82.36016817659484
 20
-115.4646252489117
 30
0.0
 10
82.36016817659484
 20
-115.4646252489117
 30
0.0
 10
82.7535859443357
 20
-114.9592358045935
 30
0.0
 10
82.7535859443357
 20
-114.9592358045935
 30
0.0
 10
82.7535859443357
 20
-114.9592358045935
 30
0.0
 10
82.3464098436125
 20
-114.463971082495
 30
0.0
 10
82.3464098436125
 20
-114.463971082495
 30
0.0
 10
82.3464098436125
 20
-114.463971082495
 30
0.0
 10
82.73912205581581
 20
-113.9587580270658
 30
0.0
 10
82.73912205581581
 20
-113.9587580270658
 30
0.0
 10
82.73912205581581
 20
-113.9587580270658
 30
0.0
 10
82.3326162328533
 20
-113.4635285827451
 30
0.0
 10
82.3326162328533
 20
-113.4635285827451
 30
0.0
 10
82.3326162328533
 20
-113.4635285827451
 30
0.0
 10
82.70416386821282
 20
-112.9965566384175
 30
0.0
 10
82.70416386821282
 20
-112.9965566384175
 30
0.0
  0
ENDBLK
  5
44
330
41
100
AcDbEntity
  8
0
100
AcDbBlockEnd
  0
BLOCK
  5
63
330
61
100
AcDbEntity
  8
0
100
AcDbBlockBegin
  2
block 3
 70
     0
 10
0.0
 20
0.0
 30
0.0
  3
block 3
  1

  0
SPLINE
  5
65
330
61
100
AcDbEntity
  8
_U+30EC_U+30A4_U+30E4_U+30FC 1
370
     0
100
AcDbSpline
210
0.0
220
0.0
230
1.0
 70
    11
 71
     3
 72
    44
 73
    40
 74
     0
 42
0.0000000001
 43
0.0000000001
 12
1.0
 22
0.0
 32
0.0
 13
1.0
 23
0.0
 33
0.0
 40
0.0
 40
0.0
 40
0.0
 40
0.0
 40
1.0
 40
1.0
 40
1.0
 40
2.0
 40
2.0
 40
2.0
 40
3.0
 40
3.0
 40
3.0
 40
4.0
 40
4.0
 40
4.0
 40
5.0
 40
5.0
 40
5.0
 40
6.0
 40
6.0
 40
6.0
 40
7.0
 40
7.0
 40
7.0
 40
8.0
 40
8.0
 40
8.0
 40
9.0
 40
9.0
 40
9.0
 40
10.0
 40
10.0
 40
10.0
 40
11.0
 40
11.0
 40
11.0
 40
12.0
 40
12.0
 40
12.0
 40
13.0
 40
13.0
 40
13.0
 40
13.0
 10
77.13379311222697
 20
-126.4274250986015
 30
0.0
 10
77.29243975932273
 20
-126.6181111337101
 30
0.0
 10
77.3665093122556
 20
-126.6995876419362
 30
0.0
 10
77.51034204876478
 20
-126.7421345711791
 30
0.0
 10
77.51034204876478
 20
-126.7421345711791
 30
0.0
 10
77.51034204876478
 20
-126.0606946841966
 30
0.0
 10
77.51034204876478
 20
-126.0606946841966
 30
0.0
 10
77.51034204876478
 20
-126.0606946841966
 30
0.0
 10
77.71549748491141
 20
-126.0606946841966
 30
0.0
 10
77.71549748491141
 20
-126.0606946841966
 30
0.0
 10
77.71549748491141
 20
-126.0606946841966
 30
0.0
 10
77.71549748491141
 20
-126.9607258797182
 30
0.0
 10
77.71549748491141
 20
-126.9607258797182
 30
0.0
 10
77.35806882831673
 20
-126.9328206062876
 30
0.0
 10
77.27969290602731
 20
-126.8754597664582
 30
0.0
 10
76.98151989177893
 20
-126.5385294280008
 30
0.0
 10
76.78256562750575
 20
-126.3144259666853
 30
0.0
 10
76.71486950122059
 20
-126.2570651268559
 30
0.0
 10
76.57741019135912
 20
-126.2570651268559
 30
0.0
 10
76.45889890666653
 20
-126.2570651268559
 30
0.0
 10
76.32781302345278
 20
-126.3199381194617
 30
0.0
 10
76.32781302345278
 20
-126.4921928937242
 30
0.0
 10
76.32781302345278
 20
-126.7199137052992
 30
0.0
 10
76.55828991141598
 20
-126.7273206605925
 30
0.0
 10
76.67473413881743
 20
-126.7311102656263
 30
0.0
 10
76.67473413881743
 20
-126.7311102656263
 30
0.0
 10
76.67473413881743
 20
-126.9273084535112
 30
0.0
 10
76.67473413881743
 20
-126.9273084535112
 30
0.0
 10
76.54778237018597
 20
-126.919901498218
 30
0.0
 10
76.4356445121411
 20
-126.910771995182
 30
0.0
 10
76.3171332274485
 20
-126.8403197925087
 30
0.0
 10
76.15641952306159
 20
-126.7440293736959
 30
0.0
 10
76.12248533253188
 20
-126.5810763572436
 30
0.0
 10
76.12248533253188
 20
-126.4792737856545
 30
0.0
 10
76.12248533253188
 20
-126.2365668087186
 30
0.0
 10
76.30662568621848
 20
-126.0551825314202
 30
0.0
 10
76.57947724865028
 20
-126.0551825314202
 30
0.0
 10
76.8080593340966
 20
-126.0551825314202
 30
0.0
 10
76.90745033884606
 20
-126.1569851030094
 30
0.0
 10
77.13379311222697
 20
-126.4274250986015
 30
0.0
  0
HATCH
  5
66
330
61
100
AcDbEntity
  8
_U+30EC_U+30A4_U+30E4_U+30FC 1
 62
     7
420
 16777215
100
AcDbHatch
 10
0.0
 20
0.0
 30
0.0
210
0.0
220
0.0
230
1.0
  2
SOLID
 70
     1
 71
     0
 91
        1
 92
        1
 93
        1
 72
     4
 94
        3
 73
     0
 74
     1
 95
       44
 96
       40
 40
0.0
 40
0.0
 40
0.0
 40
0.0
 40
1.0
 40
1.0
 40
1.0
 40
2.0
 40
2.0
 40
2.0
 40
3.0
 40
3.0
 40
3.0
 40
4.0
 40
4.0
 40
4.0
 40
5.0
 40
5.0
 40
5.0
 40
6.0
 40
6.0
 40
6.0
 40
7.0
 40
7.0
 40
7.0
 40
8.0
 40
8.0
 40
8.0
 40
9.0
 40
9.0
 40
9.0
 40
10.0
 40
10.0
 40
10.0
 40
11.0
 40
11.0
 40
11.0
 40
12.0
 40
12.0
 40
12.0
 40
13.0
 40
13.0
 40
13.0
 40
13.0
 10
77.13379311222697
 20
-126.4274250986015
 10
77.29243975932273
 20
-126.6181111337101
 10
77.3665093122556
 20
-126.6995876419362
 10
77.51034204876478
 20
-126.7421345711791
 10
77.51034204876478
 20
-126.7421345711791
 10
77.51034204876478
 20
-126.0606946841966
 10
77.51034204876478
 20
-126.0606946841966
 10
77.51034204876478
 20
-126.0606946841966
 10
77.71549748491141
 20
-126.0606946841966
 10
77.71549748491141
 20
-126.0606946841966
 10
77.71549748491141
 20
-126.0606946841966
 10
77.71549748491141
 20
-126.9607258797182
 10
77.71549748491141
 20
-126.9607258797182
 10
77.35806882831673
 20
-126.9328206062876
 10
77.27969290602731
 20
-126.8754597664582
 10
76.98151989177893
 20
-126.5385294280008
 10
76.78256562750575
 20
-126.3144259666853
 10
76.71486950122059
 20
-126.2570651268559
 10
76.57741019135912
 20
-126.2570651268559
 10
76.45889890666653
 20
-126.2570651268559
 10
76.32781302345278
 20
-126.3199381194617
 10
76.32781302345278
 20
-126.4921928937242
 10
76.32781302345278
 20
-126.7199137052992
 10
76.55828991141598
 20
-126.7273206605925
 10
76.67473413881743
 20
-126.7311102656263
 10
76.67473413881743
 20
-126.7311102656263
 10
76.67473413881743
 20
-126.9273084535112
 10
76.67473413881743
 20
-126.9273084535112
 10
76.54778237018597
 20
-126.919901498218
 10
76.4356445121411
 20
-126.910771995182
 10
76.3171332274485
 20
-126.8403197925087
 10
76.15641952306159
 20
-126.7440293736959
 10
76.12248533253188
 20
-126.5810763572436
 10
76.12248533253188
 20
-126.4792737856545
 10
76.12248533253188
 20
-126.2365668087186
 10
76.30662568621848
 20
-126.0551825314202
 10
76.57947724865028
 20
-126.0551825314202
 10
76.8080593340966
 20
-126.0551825314202
 10
76.90745033884606
 20
-126.1569851030094
 10
77.13379311222697
 20
-126.4274250986015
 97
        0
 97
        0
 75
     2
 76
     1
 98
        0
  0
SPLINE
  5
67
330
61
100
AcDbEntity
  8
_U+30EC_U+30A4_U+30E4_U+30FC 1
370
     0
100
AcDbSpline
210
0.0
220
0.0
230
1.0
 70
    11
 71
     3
 72
    32
 73
    28
 74
     0
 42
0.0000000001
 43
0.0000000001
 12
1.0
 22
0.0
 32
0.0
 13
1.0
 23
0.0
 33
0.0
 40
0.0
 40
0.0
 40
0.0
 40
0.0
 40
1.0
 40
1.0
 40
1.0
 40
2.0
 40
2.0
 40
2.0
 40
3.0
 40
3.0
 40
3.0
 40
4.0
 40
4.0
 40
4.0
 40
5.0
 40
5.0
 40
5.0
 40
6.0
 40
6.0
 40
6.0
 40
7.0
 40
7.0
 40
7.0
 40
8.0
 40
8.0
 40
8.0
 40
9.0
 40
9.0
 40
9.0
 40
9.0
 10
77.76631264331884
 20
-125.4743394326071
 30
0.0
 10
77.76631264331884
 20
-125.9261637054976
 30
0.0
 10
77.21199677974214
 20
-125.9335706607909
 30
0.0
 10
76.99840085965666
 20
-125.9335706607909
 30
0.0
 10
76.76775171691918
 20
-125.9335706607909
 30
0.0
 10
76.12041827524074
 20
-125.9168619476875
 30
0.0
 10
76.12041827524074
 20
-125.4410942611745
 30
0.0
 10
76.12041827524074
 20
-125.2891655502749
 30
0.0
 10
76.19018145881704
 20
-125.0743638467696
 30
0.0
 10
76.52246091836939
 20
-125.0411186753369
 30
0.0
 10
76.52246091836939
 20
-125.0411186753369
 30
0.0
 10
76.52246091836939
 20
-125.2280151054118
 30
0.0
 10
76.52246091836939
 20
-125.2280151054118
 30
0.0
 10
76.46527233331425
 20
-125.2373168632219
 30
0.0
 10
76.3171332274485
 20
-125.2650498818782
 30
0.0
 10
76.3171332274485
 20
-125.4428168089171
 30
0.0
 10
76.3171332274485
 20
-125.6984428939226
 30
0.0
 10
76.64510631764428
 20
-125.7335828678722
 30
0.0
 10
76.85026175379092
 20
-125.744607173425
 30
0.0
 10
76.77205808627573
 20
-125.6633029199731
 30
0.0
 10
76.71280244392945
 20
-125.6040472776268
 30
0.0
 10
76.71280244392945
 20
-125.444711611434
 30
0.0
 10
76.71280244392945
 20
-125.287270747758
 30
0.0
 10
76.82063393261777
 20
-125.0225151597166
 30
0.0
 10
77.22681069032872
 20
-125.0225151597166
 30
0.0
 10
77.54634329658565
 20
-125.0225151597166
 30
0.0
 10
77.76631264331884
 20
-125.1964924817217
 30
0.0
 10
77.76631264331884
 20
-125.4743394326071
 30
0.0
  0
SPLINE
  5
68
330
61
100
AcDbEntity
  8
_U+30EC_U+30A4_U+30E4_U+30FC 1
370
     0
100
AcDbSpline
210
0.0
220
0.0
230
1.0
 70
    11
 71
     3
 72
    17
 73
    13
 74
     0
 42
0.0000000001
 43
0.0000000001
 12
1.0
 22
0.0
 32
0.0
 13
1.0
 23
0.0
 33
0.0
 40
0.0
 40
0.0
 40
0.0
 40
0.0
 40
1.0
 40
1.0
 40
1.0
 40
2.0
 40
2.0
 40
2.0
 40
3.0
 40
3.0
 40
3.0
 40
4.0
 40
4.0
 40
4.0
 40
4.0
 10
76.90745033884606
 20
-125.4595255220205
 30
0.0
 10
76.90745033884606
 20
-125.6891411361124
 30
0.0
 10
77.1189792016404
 20
-125.7225585623194
 30
0.0
 10
77.23525117426757
 20
-125.7225585623194
 30
0.0
 10
77.41095104401532
 20
-125.7225585623194
 30
0.0
 10
77.57373180569337
 20
-125.6391872515763
 30
0.0
 10
77.57373180569337
 20
-125.4779567828666
 30
0.0
 10
77.57373180569337
 20
-125.372536861018
 30
0.0
 10
77.51447616334708
 20
-125.2188856023758
 30
0.0
 10
77.22905000239413
 20
-125.2188856023758
 30
0.0
 10
77.00477428630437
 20
-125.2188856023758
 30
0.0
 10
76.90745033884606
 20
-125.3410142373279
 30
0.0
 10
76.90745033884606
 20
-125.4595255220205
 30
0.0
  0
HATCH
  5
69
330
61
100
AcDbEntity
  8
_U+30EC_U+30A4_U+30E4_U+30FC 1
 62
     7
420
 16777215
100
AcDbHatch
 10
0.0
 20
0.0
 30
0.0
210
0.0
220
0.0
230
1.0
  2
SOLID
 70
     1
 71
     0
 91
        2
 92
        1
 93
        1
 72
     4
 94
        3
 73
     0
 74
     1
 95
       32
 96
       28
 40
0.0
 40
0.0
 40
0.0
 40
0.0
 40
1.0
 40
1.0
 40
1.0
 40
2.0
 40
2.0
 40
2.0
 40
3.0
 40
3.0
 40
3.0
 40
4.0
 40
4.0
 40
4.0
 40
5.0
 40
5.0
 40
5.0
 40
6.0
 40
6.0
 40
6.0
 40
7.0
 40
7.0
 40
7.0
 40
8.0
 40
8.0
 40
8.0
 40
9.0
 40
9.0
 40
9.0
 40
9.0
 10
77.76631264331884
 20
-125.4743394326071
 10
77.76631264331884
 20
-125.9261637054976
 10
77.21199677974214
 20
-125.9335706607909
 10
76.99840085965666
 20
-125.9335706607909
 10
76.76775171691918
 20
-125.9335706607909
 10
76.12041827524074
 20
-125.9168619476875
 10
76.12041827524074
 20
-125.4410942611745
 10
76.12041827524074
 20
-125.2891655502749
 10
76.19018145881704
 20
-125.0743638467696
 10
76.52246091836939
 20
-125.0411186753369
 10
76.52246091836939
 20
-125.0411186753369
 10
76.52246091836939
 20
-125.2280151054118
 10
76.52246091836939
 20
-125.2280151054118
 10
76.46527233331425
 20
-125.2373168632219
 10
76.3171332274485
 20
-125.2650498818782
 10
76.3171332274485
 20
-125.4428168089171
 10
76.3171332274485
 20
-125.6984428939226
 10
76.64510631764428
 20
-125.7335828678722
 10
76.85026175379092
 20
-125.744607173425
 10
76.77205808627573
 20
-125.6633029199731
 10
76.71280244392945
 20
-125.6040472776268
 10
76.71280244392945
 20
-125.444711611434
 10
76.71280244392945
 20
-125.287270747758
 10
76.82063393261777
 20
-125.0225151597166
 10
77.22681069032872
 20
-125.0225151597166
 10
77.54634329658565
 20
-125.0225151597166
 10
77.76631264331884
 20
-125.1964924817217
 10
77.76631264331884
 20
-125.4743394326071
 97
        0
 97
        0
 92
        1
 93
        1
 72
     4
 94
        3
 73
     0
 74
     1
 95
       17
 96
       13
 40
0.0
 40
0.0
 40
0.0
 40
0.0
 40
1.0
 40
1.0
 40
1.0
 40
2.0
 40
2.0
 40
2.0
 40
3.0
 40
3.0
 40
3.0
 40
4.0
 40
4.0
 40
4.0
 40
4.0
 10
76.90745033884606
 20
-125.4595255220205
 10
76.90745033884606
 20
-125.6891411361124
 10
77.1189792016404
 20
-125.7225585623194
 10
77.23525117426757
 20
-125.7225585623194
 10
77.41095104401532
 20
-125.7225585623194
 10
77.57373180569337
 20
-125.6391872515763
 10
77.57373180569337
 20
-125.4779567828666
 10
77.57373180569337
 20
-125.372536861018
 10
77.51447616334708
 20
-125.2188856023758
 10
77.22905000239413
 20
-125.2188856023758
 10
77.00477428630437
 20
-125.2188856023758
 10
76.90745033884606
 20
-125.3410142373279
 10
76.90745033884606
 20
-125.4595255220205
 97
        0
 97
        0
 75
     2
 76
     1
 98
        0
  0
ENDBLK
  5
64
330
61
100
AcDbEntity
  8
0
100
AcDbBlockEnd
  0
BLOCK
  5
6C
330
6A
100
AcDbEntity
  8
0
100
AcDbBlockBegin
  2
block 4
 70
     0
 10
0.0
 20
0.0
 30
0.0
  3
block 4
  1

  0
SPLINE
  5
6E
330
6A
100
AcDbEntity
  8
_U+30EC_U+30A4_U+30E4_U+30FC 1
 62
     7
420
 16777215
370
     9
100
AcDbSpline
210
0.0
220
0.0
230
1.0
 70
    11
 71
     3
 72
    17
 73
    13
 74
     0
 42
0.0000000001
 43
0.0000000001
 12
1.0
 22
0.0
 32
0.0
 13
1.0
 23
0.0
 33
0.0
 40
0.0
 40
0.0
 40
0.0
 40
0.0
 40
1.0
 40
1.0
 40
1.0
 40
2.0
 40
2.0
 40
2.0
 40
3.0
 40
3.0
 40
3.0
 40
4.0
 40
4.0
 40
4.0
 40
4.0
 10
78.1235541180132
 20
-112.9929230273073
 30
0.0
 10
78.1235541180132
 20
-113.0122199717468
 30
0.0
 10
78.10771439619508
 20
-113.0280596939653
 30
0.0
 10
78.08841942492236
 20
-113.0280596939653
 30
0.0
 10
78.0688030082989
 20
-113.0280596939653
 30
0.0
 10
78.05292800870392
 20
-113.0122199717468
 30
0.0
 10
78.05292800870392
 20
-112.9929230273073
 30
0.0
 10
78.05292800870392
 20
-112.9736260828678
 30
0.0
 10
78.0688030082989
 20
-112.9577863606496
 30
0.0
 10
78.08841942492236
 20
-112.9577863606496
 30
0.0
 10
78.10771439619508
 20
-112.9577863606496
 30
0.0
 10
78.1235541180132
 20
-112.9736260828678
 30
0.0
 10
78.1235541180132
 20
-112.9929230273073
 30
0.0
  0
ENDBLK
  5
6D
330
6A
100
AcDbEntity
  8
0
100
AcDbBlockEnd
  0
BLOCK
  5
7F
330
7D
100
AcDbEntity
  8
0
100
AcDbBlockBegin
  2
block 5
 70
     0
 10
0.0
 20
0.0
 30
0.0
  3
block 5
  1

  0
SPLINE
  5
81
330
7D
100
AcDbEntity
  8
_U+30EC_U+30A4_U+30E4_U+30FC 1
370
     0
100
AcDbSpline
210
0.0
220
0.0
230
1.0
 70
    11
 71
     3
 72
    44
 73
    40
 74
     0
 42
0.0000000001
 43
0.0000000001
 12
1.0
 22
0.0
 32
0.0
 13
1.0
 23
0.0
 33
0.0
 40
0.0
 40
0.0
 40
0.0
 40
0.0
 40
1.0
 40
1.0
 40
1.0
 40
2.0
 40
2.0
 40
2.0
 40
3.0
 40
3.0
 40
3.0
 40
4.0
 40
4.0
 40
4.0
 40
5.0
 40
5.0
 40
5.0
 40
6.0
 40
6.0
 40
6.0
 40
7.0
 40
7.0
 40
7.0
 40
8.0
 40
8.0
 40
8.0
 40
9.0
 40
9.0
 40
9.0
 40
10.0
 40
10.0
 40
10.0
 40
11.0
 40
11.0
 40
11.0
 40
12.0
 40
12.0
 40
12.0
 40
13.0
 40
13.0
 40
13.0
 40
13.0
 10
94.65537649543339
 20
-142.0326741181377
 30
0.0
 10
94.46451820555055
 20
-142.1911485104592
 30
0.0
 10
94.38321395209864
 20
-142.265218063392
 30
0.0
 10
94.34049476808154
 20
-142.4092230546755
 30
0.0
 10
94.34049476808154
 20
-142.4092230546755
 30
0.0
 10
95.02193465506396
 20
-142.4092230546755
 30
0.0
 10
95.02193465506396
 20
-142.4092230546755
 30
0.0
 10
95.02193465506396
 20
-142.4092230546755
 30
0.0
 10
95.02193465506396
 20
-142.6145507455964
 30
0.0
 10
95.02193465506396
 20
-142.6145507455964
 30
0.0
 10
95.02193465506396
 20
-142.6145507455964
 30
0.0
 10
94.12207571431671
 20
-142.6145507455964
 30
0.0
 10
94.12207571431671
 20
-142.6145507455964
 30
0.0
 10
94.1496364781987
 20
-142.2569498342274
 30
0.0
 10
94.20716957280239
 20
-142.1787461667123
 30
0.0
 10
94.5440999112598
 20
-141.8804008976896
 30
0.0
 10
94.76837562734957
 20
-141.6816188881907
 30
0.0
 10
94.82556421240473
 20
-141.6137505071313
 30
0.0
 10
94.82556421240473
 20
-141.4762911972698
 30
0.0
 10
94.82556421240473
 20
-141.3577799125772
 30
0.0
 10
94.76251896502465
 20
-141.2265217745892
 30
0.0
 10
94.59060870031068
 20
-141.2265217745892
 30
0.0
 10
94.36254337918714
 20
-141.2265217745892
 30
0.0
 10
94.35530867866812
 20
-141.457343172101
 30
0.0
 10
94.35151907363435
 20
-141.5734428899539
 30
0.0
 10
94.35151907363435
 20
-141.5734428899539
 30
0.0
 10
94.1551486309751
 20
-141.5734428899539
 30
0.0
 10
94.1551486309751
 20
-141.5734428899539
 30
0.0
 10
94.16272784104265
 20
-141.4466633760967
 30
0.0
 10
94.17202959885283
 20
-141.334697772826
 30
0.0
 10
94.24230954675193
 20
-141.2161864881335
 30
0.0
 10
94.3384277107904
 20
-141.0553005289723
 30
0.0
 10
94.50172523679124
 20
-141.0215385932168
 30
0.0
 10
94.60335555360611
 20
-141.0215385932168
 30
0.0
 10
94.8458902757677
 20
-141.0215385932168
 30
0.0
 10
95.02744680784036
 20
-141.2055066921292
 30
0.0
 10
95.02744680784036
 20
-141.478358254561
 30
0.0
 10
95.02744680784036
 20
-141.706768085233
 30
0.0
 10
94.92547198147697
 20
-141.8063313447568
 30
0.0
 10
94.65537649543339
 20
-142.0326741181377
 30
0.0
  0
HATCH
  5
82
330
7D
100
AcDbEntity
  8
_U+30EC_U+30A4_U+30E4_U+30FC 1
 62
     7
420
 16777215
100
AcDbHatch
 10
0.0
 20
0.0
 30
0.0
210
0.0
220
0.0
230
1.0
  2
SOLID
 70
     1
 71
     0
 91
        1
 92
        1
 93
        1
 72
     4
 94
        3
 73
     0
 74
     1
 95
       44
 96
       40
 40
0.0
 40
0.0
 40
0.0
 40
0.0
 40
1.0
 40
1.0
 40
1.0
 40
2.0
 40
2.0
 40
2.0
 40
3.0
 40
3.0
 40
3.0
 40
4.0
 40
4.0
 40
4.0
 40
5.0
 40
5.0
 40
5.0
 40
6.0
 40
6.0
 40
6.0
 40
7.0
 40
7.0
 40
7.0
 40
8.0
 40
8.0
 40
8.0
 40
9.0
 40
9.0
 40
9.0
 40
10.0
 40
10.0
 40
10.0
 40
11.0
 40
11.0
 40
11.0
 40
12.0
 40
12.0
 40
12.0
 40
13.0
 40
13.0
 40
13.0
 40
13.0
 10
94.65537649543339
 20
-142.0326741181377
 10
94.46451820555055
 20
-142.1911485104592
 10
94.38321395209864
 20
-142.265218063392
 10
94.34049476808154
 20
-142.4092230546755
 10
94.34049476808154
 20
-142.4092230546755
 10
95.02193465506396
 20
-142.4092230546755
 10
95.02193465506396
 20
-142.4092230546755
 10
95.02193465506396
 20
-142.4092230546755
 10
95.02193465506396
 20
-142.6145507455964
 10
95.02193465506396
 20
-142.6145507455964
 10
95.02193465506396
 20
-142.6145507455964
 10
94.12207571431671
 20
-142.6145507455964
 10
94.12207571431671
 20
-142.6145507455964
 10
94.1496364781987
 20
-142.2569498342274
 10
94.20716957280239
 20
-142.1787461667123
 10
94.5440999112598
 20
-141.8804008976896
 10
94.76837562734957
 20
-141.6816188881907
 10
94.82556421240473
 20
-141.6137505071313
 10
94.82556421240473
 20
-141.4762911972698
 10
94.82556421240473
 20
-141.3577799125772
 10
94.76251896502465
 20
-141.2265217745892
 10
94.59060870031068
 20
-141.2265217745892
 10
94.36254337918714
 20
-141.2265217745892
 10
94.35530867866812
 20
-141.457343172101
 10
94.35151907363435
 20
-141.5734428899539
 10
94.35151907363435
 20
-141.5734428899539
 10
94.1551486309751
 20
-141.5734428899539
 10
94.1551486309751
 20
-141.5734428899539
 10
94.16272784104265
 20
-141.4466633760967
 10
94.17202959885283
 20
-141.334697772826
 10
94.24230954675193
 20
-141.2161864881335
 10
94.3384277107904
 20
-141.0553005289723
 10
94.50172523679124
 20
-141.0215385932168
 10
94.60335555360611
 20
-141.0215385932168
 10
94.8458902757677
 20
-141.0215385932168
 10
95.02744680784036
 20
-141.2055066921292
 10
95.02744680784036
 20
-141.478358254561
 10
95.02744680784036
 20
-141.706768085233
 10
94.92547198147697
 20
-141.8063313447568
 10
94.65537649543339
 20
-142.0326741181377
 97
        0
 97
        0
 75
     2
 76
     1
 98
        0
  0
SPLINE
  5
83
330
7D
100
AcDbEntity
  8
_U+30EC_U+30A4_U+30E4_U+30FC 1
370
     0
100
AcDbSpline
210
0.0
220
0.0
230
1.0
 70
    11
 71
     3
 72
    32
 73
    28
 74
     0
 42
0.0000000001
 43
0.0000000001
 12
1.0
 22
0.0
 32
0.0
 13
1.0
 23
0.0
 33
0.0
 40
0.0
 40
0.0
 40
0.0
 40
0.0
 40
1.0
 40
1.0
 40
1.0
 40
2.0
 40
2.0
 40
2.0
 40
3.0
 40
3.0
 40
3.0
 40
4.0
 40
4.0
 40
4.0
 40
5.0
 40
5.0
 40
5.0
 40
6.0
 40
6.0
 40
6.0
 40
7.0
 40
7.0
 40
7.0
 40
8.0
 40
8.0
 40
8.0
 40
9.0
 40
9.0
 40
9.0
 40
9.0
 10
95.60828990665348
 20
-142.6651936492295
 30
0.0
 10
95.1562933789887
 20
-142.6651936492295
 30
0.0
 10
95.14905867846969
 20
-142.1108777856528
 30
0.0
 10
95.14905867846969
 20
-141.8972818655674
 30
0.0
 10
95.14905867846969
 20
-141.6668049776041
 30
0.0
 10
95.16559513679888
 20
-141.0194715359257
 30
0.0
 10
95.6417073328604
 20
-141.0194715359257
 30
0.0
 10
95.79363604375993
 20
-141.0194715359257
 30
0.0
 10
96.00826549249099
 20
-141.0890624647277
 30
0.0
 10
96.04168291869792
 20
-141.4211696695058
 30
0.0
 10
96.04168291869792
 20
-141.4211696695058
 30
0.0
 10
95.85461423384885
 20
-141.4211696695058
 30
0.0
 10
95.85461423384885
 20
-141.4211696695058
 30
0.0
 10
95.84531247603867
 20
-141.3639810844507
 30
0.0
 10
95.81740720260815
 20
-141.2161864881335
 30
0.0
 10
95.63964027556926
 20
-141.2161864881335
 30
0.0
 10
95.38435870011224
 20
-141.2161864881335
 30
0.0
 10
95.3492187261627
 20
-141.5438150687807
 30
0.0
 10
95.33784991106137
 20
-141.7491427597016
 30
0.0
 10
95.4194986740618
 20
-141.6709390921864
 30
0.0
 10
95.4787543164081
 20
-141.6116834498401
 30
0.0
 10
95.63791772782663
 20
-141.6116834498401
 30
0.0
 10
95.79535859150255
 20
-141.6116834498401
 30
0.0
 10
96.06028643431827
 20
-141.7195149385284
 30
0.0
 10
96.06028643431827
 20
-142.1256916962394
 30
0.0
 10
96.06028643431827
 20
-142.4450520477221
 30
0.0
 10
95.88596460276463
 20
-142.6651936492295
 30
0.0
 10
95.60828990665348
 20
-142.6651936492295
 30
0.0
  0
SPLINE
  5
84
330
7D
100
AcDbEntity
  8
_U+30EC_U+30A4_U+30E4_U+30FC 1
370
     0
100
AcDbSpline
210
0.0
220
0.0
230
1.0
 70
    11
 71
     3
 72
    17
 73
    13
 74
     0
 42
0.0000000001
 43
0.0000000001
 12
1.0
 22
0.0
 32
0.0
 13
1.0
 23
0.0
 33
0.0
 40
0.0
 40
0.0
 40
0.0
 40
0.0
 40
1.0
 40
1.0
 40
1.0
 40
2.0
 40
2.0
 40
2.0
 40
3.0
 40
3.0
 40
3.0
 40
4.0
 40
4.0
 40
4.0
 40
4.0
 10
95.62310381724006
 20
-141.8063313447568
 30
0.0
 10
95.3933159483739
 20
-141.8063313447568
 30
0.0
 10
95.3602430317155
 20
-142.0178602075511
 30
0.0
 10
95.3602430317155
 20
-142.1343044349526
 30
0.0
 10
95.3602430317155
 20
-142.3096597951518
 30
0.0
 10
95.44361434245855
 20
-142.4726128116041
 30
0.0
 10
95.60450030161971
 20
-142.4726128116041
 30
0.0
 10
95.71026473301688
 20
-142.4726128116041
 30
0.0
 10
95.86391599165903
 20
-142.4133571692578
 30
0.0
 10
95.86391599165903
 20
-142.1277587535306
 30
0.0
 10
95.86391599165903
 20
-141.9034830374408
 30
0.0
 10
95.74161510193265
 20
-141.8063313447568
 30
0.0
 10
95.62310381724006
 20
-141.8063313447568
 30
0.0
  0
HATCH
  5
85
330
7D
100
AcDbEntity
  8
_U+30EC_U+30A4_U+30E4_U+30FC 1
 62
     7
420
 16777215
100
AcDbHatch
 10
0.0
 20
0.0
 30
0.0
210
0.0
220
0.0
230
1.0
  2
SOLID
 70
     1
 71
     0
 91
        2
 92
        1
 93
        1
 72
     4
 94
        3
 73
     0
 74
     1
 95
       32
 96
       28
 40
0.0
 40
0.0
 40
0.0
 40
0.0
 40
1.0
 40
1.0
 40
1.0
 40
2.0
 40
2.0
 40
2.0
 40
3.0
 40
3.0
 40
3.0
 40
4.0
 40
4.0
 40
4.0
 40
5.0
 40
5.0
 40
5.0
 40
6.0
 40
6.0
 40
6.0
 40
7.0
 40
7.0
 40
7.0
 40
8.0
 40
8.0
 40
8.0
 40
9.0
 40
9.0
 40
9.0
 40
9.0
 10
95.60828990665348
 20
-142.6651936492295
 10
95.1562933789887
 20
-142.6651936492295
 10
95.14905867846969
 20
-142.1108777856528
 10
95.14905867846969
 20
-141.8972818655674
 10
95.14905867846969
 20
-141.6668049776041
 10
95.16559513679888
 20
-141.0194715359257
 10
95.6417073328604
 20
-141.0194715359257
 10
95.79363604375993
 20
-141.0194715359257
 10
96.00826549249099
 20
-141.0890624647277
 10
96.04168291869792
 20
-141.4211696695058
 10
96.04168291869792
 20
-141.4211696695058
 10
95.85461423384885
 20
-141.4211696695058
 10
95.85461423384885
 20
-141.4211696695058
 10
95.84531247603867
 20
-141.3639810844507
 10
95.81740720260815
 20
-141.2161864881335
 10
95.63964027556926
 20
-141.2161864881335
 10
95.38435870011224
 20
-141.2161864881335
 10
95.3492187261627
 20
-141.5438150687807
 10
95.33784991106137
 20
-141.7491427597016
 10
95.4194986740618
 20
-141.6709390921864
 10
95.4787543164081
 20
-141.6116834498401
 10
95.63791772782663
 20
-141.6116834498401
 10
95.79535859150255
 20
-141.6116834498401
 10
96.06028643431827
 20
-141.7195149385284
 10
96.06028643431827
 20
-142.1256916962394
 10
96.06028643431827
 20
-142.4450520477221
 10
95.88596460276463
 20
-142.6651936492295
 10
95.60828990665348
 20
-142.6651936492295
 97
        0
 97
        0
 92
        1
 93
        1
 72
     4
 94
        3
 73
     0
 74
     1
 95
       17
 96
       13
 40
0.0
 40
0.0
 40
0.0
 40
0.0
 40
1.0
 40
1.0
 40
1.0
 40
2.0
 40
2.0
 40
2.0
 40
3.0
 40
3.0
 40
3.0
 40
4.0
 40
4.0
 40
4.0
 40
4.0
 10
95.62310381724006
 20
-141.8063313447568
 10
95.3933159483739
 20
-141.8063313447568
 10
95.3602430317155
 20
-142.0178602075511
 10
95.3602430317155
 20
-142.1343044349526
 10
95.3602430317155
 20
-142.3096597951518
 10
95.44361434245855
 20
-142.4726128116041
 10
95.60450030161971
 20
-142.4726128116041
 10
95.71026473301688
 20
-142.4726128116041
 10
95.86391599165903
 20
-142.4133571692578
 10
95.86391599165903
 20
-142.1277587535306
 10
95.86391599165903
 20
-141.9034830374408
 10
95.74161510193265
 20
-141.8063313447568
 10
95.62310381724006
 20
-141.8063313447568
 97
        0
 97
        0
 75
     2
 76
     1
 98
        0
  0
ENDBLK
  5
80
330
7D
100
AcDbEntity
  8
0
100
AcDbBlockEnd
  0
BLOCK
  5
88
330
86
100
AcDbEntity
  8
0
100
AcDbBlockBegin
  2
block 6
 70
     0
 10
0.0
 20
0.0
 30
0.0
  3
block 6
  1

  0
SPLINE
  5
8A
330
86
100
AcDbEntity
  8
_U+30EC_U+30A4_U+30E4_U+30FC 1
 62
     7
420
 16777215
370
     9
100
AcDbSpline
210
0.0
220
0.0
230
1.0
 70
    11
 71
     3
 72
    17
 73
    13
 74
     0
 42
0.0000000001
 43
0.0000000001
 12
1.0
 22
0.0
 32
0.0
 13
1.0
 23
0.0
 33
0.0
 40
0.0
 40
0.0
 40
0.0
 40
0.0
 40
1.0
 40
1.0
 40
1.0
 40
2.0
 40
2.0
 40
2.0
 40
3.0
 40
3.0
 40
3.0
 40
4.0
 40
4.0
 40
4.0
 40
4.0
 10
108.124657519288
 20
-142.9873244086976
 30
0.0
 10
108.124657519288
 20
-143.0065860753593
 30
0.0
 10
108.1088177974698
 20
-143.0224610753554
 30
0.0
 10
108.0895208535177
 20
-143.0224610753554
 30
0.0
 10
108.0702239095656
 20
-143.0224610753554
 30
0.0
 10
108.0543841877474
 20
-143.0065860753593
 30
0.0
 10
108.0543841877474
 20
-142.9873244086976
 30
0.0
 10
108.0543841877474
 20
-142.9680274642578
 30
0.0
 10
108.0702239095656
 20
-142.9521877420399
 30
0.0
 10
108.0895208535177
 20
-142.9521877420399
 30
0.0
 10
108.1088177974698
 20
-142.9521877420399
 30
0.0
 10
108.124657519288
 20
-142.9680274642578
 30
0.0
 10
108.124657519288
 20
-142.9873244086976
 30
0.0
  0
ENDBLK
  5
89
330
86
100
AcDbEntity
  8
0
100
AcDbBlockEnd
  0
BLOCK
  5
9B
330
99
100
AcDbEntity
  8
0
100
AcDbBlockBegin
  2
block 7
 70
     0
 10
0.0
 20
0.0
 30
0.0
  3
block 7
  1

  0
POLYLINE
  5
9D
330
99
100
AcDbEntity
  8
_U+30EC_U+30A4_U+30E4_U+30FC 1
 62
     7
420
 16777215
370
    25
100
AcDb2dPolyline
 66
     1
 10
0.0
 20
0.0
 30
0.0
  0
VERTEX
  5
9E
330
9D
100
AcDbEntity
  8
_U+30EC_U+30A4_U+30E4_U+30FC 1
 62
     7
420
 16777215
370
    25
100
AcDbVertex
100
AcDb2dVertex
 10
97.98540111129526
 20
-127.9342966346831
 30
0.0
  0
VERTEX
  5
9F
330
9D
100
AcDbEntity
  8
_U+30EC_U+30A4_U+30E4_U+30FC 1
 62
     7
420
 16777215
370
    25
100
AcDbVertex
100
AcDb2dVertex
 10
106.8172631081979
 20
-119.1024696924466
 30
0.0
  0
SEQEND
  5
A0
330
9D
100
AcDbEntity
  8
_U+30EC_U+30A4_U+30E4_U+30FC 1
 62
     7
420
 16777215
370
    25
  0
POLYLINE
  5
A1
330
99
100
AcDbEntity
  8
_U+30EC_U+30A4_U+30E4_U+30FC 1
 62
     7
420
 16777215
370
    25
100
AcDb2dPolyline
 66
     1
 10
0.0
 20
0.0
 30
0.0
  0
VERTEX
  5
A2
330
A1
100
AcDbEntity
  8
_U+30EC_U+30A4_U+30E4_U+30FC 1
 62
     7
420
 16777215
370
    25
100
AcDbVertex
100
AcDb2dVertex
 10
90.9141824028082
 20
-120.8636069142284
 30
0.0
  0
VERTEX
  5
A3
330
A1
100
AcDbEntity
  8
_U+30EC_U+30A4_U+30E4_U+30FC 1
 62
     7
420
 16777215
370
    25
100
AcDbVertex
100
AcDb2dVertex
 10
99.74583273304958
 20
-112.0317446942144
 30
0.0
  0
SEQEND
  5
A4
330
A1
100
AcDbEntity
  8
_U+30EC_U+30A4_U+30E4_U+30FC 1
 62
     7
420
 16777215
370
    25
  0
POLYLINE
  5
A5
330
99
100
AcDbEntity
  8
_U+30EC_U+30A4_U+30E4_U+30FC 1
 62
     7
420
 16777215
370
    25
100
AcDb2dPolyline
 66
     1
 10
0.0
 20
0.0
 30
0.0
  0
VERTEX
  5
A6
330
A5
100
AcDbEntity
  8
_U+30EC_U+30A4_U+30E4_U+30FC 1
 62
     7
420
 16777215
370
    25
100
AcDbVertex
100
AcDb2dVertex
 10
93.20843734427687
 20
-125.6398652463679
 30
0.0
  0
VERTEX
  5
A7
330
A5
100
AcDbEntity
  8
_U+30EC_U+30A4_U+30E4_U+30FC 1
 62
     7
420
 16777215
370
    25
100
AcDbVertex
100
AcDb2dVertex
 10
96.19671199026186
 20
-122.652296080448
 30
0.0
  0
SEQEND
  5
A8
330
A5
100
AcDbEntity
  8
_U+30EC_U+30A4_U+30E4_U+30FC 1
 62
     7
420
 16777215
370
    25
  0
POLYLINE
  5
A9
330
99
100
AcDbEntity
  8
_U+30EC_U+30A4_U+30E4_U+30FC 1
 62
     7
420
 16777215
370
    25
100
AcDb2dPolyline
 66
     1
 10
0.0
 20
0.0
 30
0.0
  0
VERTEX
  5
AA
330
A9
100
AcDbEntity
  8
_U+30EC_U+30A4_U+30E4_U+30FC 1
 62
     7
420
 16777215
370
    25
100
AcDbVertex
100
AcDb2dVertex
 10
95.25962840305775
 20
-127.1247069126633
 30
0.0
  0
VERTEX
  5
AB
330
A9
100
AcDbEntity
  8
_U+30EC_U+30A4_U+30E4_U+30FC 1
 62
     7
420
 16777215
370
    25
100
AcDbVertex
100
AcDb2dVertex
 10
106.0069678510925
 20
-116.3774024709058
 30
0.0
  0
SEQEND
  5
AC
330
A9
100
AcDbEntity
  8
_U+30EC_U+30A4_U+30E4_U+30FC 1
 62
     7
420
 16777215
370
    25
  0
POLYLINE
  5
AD
330
99
100
AcDbEntity
  8
_U+30EC_U+30A4_U+30E4_U+30FC 1
 62
     7
420
 16777215
370
    25
100
AcDb2dPolyline
 66
     1
 10
0.0
 20
0.0
 30
0.0
  0
VERTEX
  5
AE
330
AD
100
AcDbEntity
  8
_U+30EC_U+30A4_U+30E4_U+30FC 1
 62
     7
420
 16777215
370
    25
100
AcDbVertex
100
AcDb2dVertex
 10
96.52056198199976
 20
-127.6318249680921
 30
0.0
  0
VERTEX
  5
AF
330
AD
100
AcDbEntity
  8
_U+30EC_U+30A4_U+30E4_U+30FC 1
 62
     7
420
 16777215
370
    25
100
AcDbVertex
100
AcDb2dVertex
 10
106.5140858937104
 20
-117.6375952483684
 30
0.0
  0
SEQEND
  5
B0
330
AD
100
AcDbEntity
  8
_U+30EC_U+30A4_U+30E4_U+30FC 1
 62
     7
420
 16777215
370
    25
  0
POLYLINE
  5
B1
330
99
100
AcDbEntity
  8
_U+30EC_U+30A4_U+30E4_U+30FC 1
 62
     7
420
 16777215
370
    25
100
AcDb2dPolyline
 66
     1
 10
0.0
 20
0.0
 30
0.0
  0
VERTEX
  5
B2
330
B1
100
AcDbEntity
  8
_U+30EC_U+30A4_U+30E4_U+30FC 1
 62
     7
420
 16777215
370
    25
100
AcDbVertex
100
AcDb2dVertex
 10
97.22336585295862
 20
-127.8123413569359
 30
0.0
  0
VERTEX
  5
B3
330
B1
100
AcDbEntity
  8
_U+30EC_U+30A4_U+30E4_U+30FC 1
 62
     7
420
 16777215
370
    25
100
AcDbVertex
100
AcDb2dVertex
 10
106.6953078335315
 20
-118.3403991370815
 30
0.0
  0
SEQEND
  5
B4
330
B1
100
AcDbEntity
  8
_U+30EC_U+30A4_U+30E4_U+30FC 1
 62
     7
420
 16777215
370
    25
  0
POLYLINE
  5
B5
330
99
100
AcDbEntity
  8
_U+30EC_U+30A4_U+30E4_U+30FC 1
 62
     7
420
 16777215
370
    25
100
AcDb2dPolyline
 66
     1
 10
0.0
 20
0.0
 30
0.0
  0
VERTEX
  5
B6
330
B5
100
AcDbEntity
  8
_U+30EC_U+30A4_U+30E4_U+30FC 1
 62
     7
420
 16777215
370
    25
100
AcDbVertex
100
AcDb2dVertex
 10
95.8680666426998
 20
-127.4003321903721
 30
0.0
  0
VERTEX
  5
B7
330
B5
100
AcDbEntity
  8
_U+30EC_U+30A4_U+30E4_U+30FC 1
 62
     7
420
 16777215
370
    25
100
AcDbVertex
100
AcDb2dVertex
 10
106.2825578440616
 20
-116.9850974707539
 30
0.0
  0
SEQEND
  5
B8
330
B5
100
AcDbEntity
  8
_U+30EC_U+30A4_U+30E4_U+30FC 1
 62
     7
420
 16777215
370
    25
  0
POLYLINE
  5
B9
330
99
100
AcDbEntity
  8
_U+30EC_U+30A4_U+30E4_U+30FC 1
 62
     7
420
 16777215
370
    25
100
AcDb2dPolyline
 66
     1
 10
0.0
 20
0.0
 30
0.0
  0
VERTEX
  5
BA
330
B9
100
AcDbEntity
  8
_U+30EC_U+30A4_U+30E4_U+30FC 1
 62
     7
420
 16777215
370
    25
100
AcDbVertex
100
AcDb2dVertex
 10
94.16203330979256
 20
-126.4542880239419
 30
0.0
  0
VERTEX
  5
BB
330
B9
100
AcDbEntity
  8
_U+30EC_U+30A4_U+30E4_U+30FC 1
 62
     7
420
 16777215
370
    25
100
AcDbVertex
100
AcDb2dVertex
 10
105.3365489793074
 20
-115.2797696934022
 30
0.0
  0
SEQEND
  5
BC
330
B9
100
AcDbEntity
  8
_U+30EC_U+30A4_U+30E4_U+30FC 1
 62
     7
420
 16777215
370
    25
  0
POLYLINE
  5
BD
330
99
100
AcDbEntity
  8
_U+30EC_U+30A4_U+30E4_U+30FC 1
 62
     7
420
 16777215
370
    25
100
AcDb2dPolyline
 66
     1
 10
0.0
 20
0.0
 30
0.0
  0
VERTEX
  5
BE
330
BD
100
AcDbEntity
  8
_U+30EC_U+30A4_U+30E4_U+30FC 1
 62
     7
420
 16777215
370
    25
100
AcDbVertex
100
AcDb2dVertex
 10
93.66800094366354
 20
-126.064327468484
 30
0.0
  0
VERTEX
  5
BF
330
BD
100
AcDbEntity
  8
_U+30EC_U+30A4_U+30E4_U+30FC 1
 62
     7
420
 16777215
370
    25
100
AcDbVertex
100
AcDb2dVertex
 10
104.9472587114613
 20
-114.7857749713037
 30
0.0
  0
SEQEND
  5
C0
330
BD
100
AcDbEntity
  8
_U+30EC_U+30A4_U+30E4_U+30FC 1
 62
     7
420
 16777215
370
    25
  0
POLYLINE
  5
C1
330
99
100
AcDbEntity
  8
_U+30EC_U+30A4_U+30E4_U+30FC 1
 62
     7
420
 16777215
370
    25
100
AcDb2dPolyline
 66
     1
 10
0.0
 20
0.0
 30
0.0
  0
VERTEX
  5
C2
330
C1
100
AcDbEntity
  8
_U+30EC_U+30A4_U+30E4_U+30FC 1
 62
     7
420
 16777215
370
    25
100
AcDbVertex
100
AcDb2dVertex
 10
94.69190553188247
 20
-126.8084416349647
 30
0.0
  0
VERTEX
  5
C3
330
C1
100
AcDbEntity
  8
_U+30EC_U+30A4_U+30E4_U+30FC 1
 62
     7
420
 16777215
370
    25
100
AcDbVertex
100
AcDb2dVertex
 10
105.6907025813833
 20
-115.8096419154921
 30
0.0
  0
SEQEND
  5
C4
330
C1
100
AcDbEntity
  8
_U+30EC_U+30A4_U+30E4_U+30FC 1
 62
     7
420
 16777215
370
    25
  0
POLYLINE
  5
C5
330
99
100
AcDbEntity
  8
_U+30EC_U+30A4_U+30E4_U+30FC 1
 62
     7
420
 16777215
370
    25
100
AcDb2dPolyline
 66
     1
 10
0.0
 20
0.0
 30
0.0
  0
VERTEX
  5
C6
330
C5
100
AcDbEntity
  8
_U+30EC_U+30A4_U+30E4_U+30FC 1
 62
     7
420
 16777215
370
    25
100
AcDbVertex
100
AcDb2dVertex
 10
91.72430127102923
 20
-123.5886741357696
 30
0.0
  0
VERTEX
  5
C7
330
C5
100
AcDbEntity
  8
_U+30EC_U+30A4_U+30E4_U+30FC 1
 62
     7
420
 16777215
370
    25
100
AcDbVertex
100
AcDb2dVertex
 10
92.58141013805145
 20
-122.7315299693173
 30
0.0
  0
SEQEND
  5
C8
330
C5
100
AcDbEntity
  8
_U+30EC_U+30A4_U+30E4_U+30FC 1
 62
     7
420
 16777215
370
    25
  0
POLYLINE
  5
C9
330
99
100
AcDbEntity
  8
_U+30EC_U+30A4_U+30E4_U+30FC 1
 62
     7
420
 16777215
370
    25
100
AcDb2dPolyline
 66
     1
 10
0.0
 20
0.0
 30
0.0
  0
VERTEX
  5
CA
330
C9
100
AcDbEntity
  8
_U+30EC_U+30A4_U+30E4_U+30FC 1
 62
     7
420
 16777215
370
    25
100
AcDbVertex
100
AcDb2dVertex
 10
91.21732433951884
 20
-122.3284460805291
 30
0.0
  0
VERTEX
  5
CB
330
C9
100
AcDbEntity
  8
_U+30EC_U+30A4_U+30E4_U+30FC 1
 62
     7
420
 16777215
370
    25
100
AcDbVertex
100
AcDb2dVertex
 10
101.210707140122
 20
-112.3342163608054
 30
0.0
  0
SEQEND
  5
CC
330
C9
100
AcDbEntity
  8
_U+30EC_U+30A4_U+30E4_U+30FC 1
 62
     7
420
 16777215
370
    25
  0
POLYLINE
  5
CD
330
99
100
AcDbEntity
  8
_U+30EC_U+30A4_U+30E4_U+30FC 1
 62
     7
420
 16777215
370
    25
100
AcDb2dPolyline
 66
     1
 10
0.0
 20
0.0
 30
0.0
  0
VERTEX
  5
CE
330
CD
100
AcDbEntity
  8
_U+30EC_U+30A4_U+30E4_U+30FC 1
 62
     7
420
 16777215
370
    25
100
AcDbVertex
100
AcDb2dVertex
 10
91.03613767747464
 20
-121.6256421918157
 30
0.0
  0
VERTEX
  5
CF
330
CD
100
AcDbEntity
  8
_U+30EC_U+30A4_U+30E4_U+30FC 1
 62
     7
420
 16777215
370
    25
100
AcDbVertex
100
AcDb2dVertex
 10
100.5079032691631
 20
-112.1536999719616
 30
0.0
  0
SEQEND
  5
D0
330
CD
100
AcDbEntity
  8
_U+30EC_U+30A4_U+30E4_U+30FC 1
 62
     7
420
 16777215
370
    25
  0
POLYLINE
  5
D1
330
99
100
AcDbEntity
  8
_U+30EC_U+30A4_U+30E4_U+30FC 1
 62
     7
420
 16777215
370
    25
100
AcDb2dPolyline
 66
     1
 10
0.0
 20
0.0
 30
0.0
  0
VERTEX
  5
D2
330
D1
100
AcDbEntity
  8
_U+30EC_U+30A4_U+30E4_U+30FC 1
 62
     7
420
 16777215
370
    25
100
AcDbVertex
100
AcDb2dVertex
 10
91.44867600028324
 20
-122.9809438581436
 30
0.0
  0
VERTEX
  5
D3
330
D1
100
AcDbEntity
  8
_U+30EC_U+30A4_U+30E4_U+30FC 1
 62
     7
420
 16777215
370
    25
100
AcDbVertex
100
AcDb2dVertex
 10
101.8632049012531
 20
-112.5657444163029
 30
0.0
  0
SEQEND
  5
D4
330
D1
100
AcDbEntity
  8
_U+30EC_U+30A4_U+30E4_U+30FC 1
 62
     7
420
 16777215
370
    25
  0
POLYLINE
  5
D5
330
99
100
AcDbEntity
  8
_U+30EC_U+30A4_U+30E4_U+30FC 1
 62
     7
420
 16777215
370
    25
100
AcDb2dPolyline
 66
     1
 10
0.0
 20
0.0
 30
0.0
  0
VERTEX
  5
D6
330
D5
100
AcDbEntity
  8
_U+30EC_U+30A4_U+30E4_U+30FC 1
 62
     7
420
 16777215
370
    25
100
AcDbVertex
100
AcDb2dVertex
 10
92.39401458727676
 20
-124.686271635495
 30
0.0
  0
VERTEX
  5
D7
330
D5
100
AcDbEntity
  8
_U+30EC_U+30A4_U+30E4_U+30FC 1
 62
     7
420
 16777215
370
    25
100
AcDbVertex
100
AcDb2dVertex
 10
93.32831123010753
 20
-123.7526452468396
 30
0.0
  0
SEQEND
  5
D8
330
D5
100
AcDbEntity
  8
_U+30EC_U+30A4_U+30E4_U+30FC 1
 62
     7
420
 16777215
370
    25
  0
POLYLINE
  5
D9
330
99
100
AcDbEntity
  8
_U+30EC_U+30A4_U+30E4_U+30FC 1
 62
     7
420
 16777215
370
    25
100
AcDb2dPolyline
 66
     1
 10
0.0
 20
0.0
 30
0.0
  0
VERTEX
  5
DA
330
D9
100
AcDbEntity
  8
_U+30EC_U+30A4_U+30E4_U+30FC 1
 62
     7
420
 16777215
370
    25
100
AcDbVertex
100
AcDb2dVertex
 10
92.04053126296154
 20
-124.1564346911833
 30
0.0
  0
VERTEX
  5
DB
330
D9
100
AcDbEntity
  8
_U+30EC_U+30A4_U+30E4_U+30FC 1
 62
     7
420
 16777215
370
    25
100
AcDbVertex
100
AcDb2dVertex
 10
92.73370430083277
 20
-123.4632616358007
 30
0.0
  0
SEQEND
  5
DC
330
D9
100
AcDbEntity
  8
_U+30EC_U+30A4_U+30E4_U+30FC 1
 62
     7
420
 16777215
370
    25
  0
POLYLINE
  5
DD
330
99
100
AcDbEntity
  8
_U+30EC_U+30A4_U+30E4_U+30FC 1
 62
     7
420
 16777215
370
    25
100
AcDb2dPolyline
 66
     1
 10
0.0
 20
0.0
 30
0.0
  0
VERTEX
  5
DE
330
DD
100
AcDbEntity
  8
_U+30EC_U+30A4_U+30E4_U+30FC 1
 62
     7
420
 16777215
370
    25
100
AcDbVertex
100
AcDb2dVertex
 10
92.78401041066047
 20
-125.1810071909268
 30
0.0
  0
VERTEX
  5
DF
330
DD
100
AcDbEntity
  8
_U+30EC_U+30A4_U+30E4_U+30FC 1
 62
     7
420
 16777215
370
    25
100
AcDbVertex
100
AcDb2dVertex
 10
95.82326386493308
 20
-122.141720802798
 30
0.0
  0
SEQEND
  5
E0
330
DD
100
AcDbEntity
  8
_U+30EC_U+30A4_U+30E4_U+30FC 1
 62
     7
420
 16777215
370
    25
  0
POLYLINE
  5
E1
330
99
100
AcDbEntity
  8
_U+30EC_U+30A4_U+30E4_U+30FC 1
 62
     7
420
 16777215
370
    25
100
AcDb2dPolyline
 66
     1
 10
0.0
 20
0.0
 30
0.0
  0
VERTEX
  5
E2
330
E1
100
AcDbEntity
  8
_U+30EC_U+30A4_U+30E4_U+30FC 1
 62
     7
420
 16777215
370
    25
100
AcDbVertex
100
AcDb2dVertex
 10
93.12920345740942
 20
-122.1837719138986
 30
0.0
  0
VERTEX
  5
E3
330
E1
100
AcDbEntity
  8
_U+30EC_U+30A4_U+30E4_U+30FC 1
 62
     7
420
 16777215
370
    25
100
AcDbVertex
100
AcDb2dVertex
 10
96.82370391871041
 20
-118.4892360814888
 30
0.0
  0
SEQEND
  5
E4
330
E1
100
AcDbEntity
  8
_U+30EC_U+30A4_U+30E4_U+30FC 1
 62
     7
420
 16777215
370
    25
  0
POLYLINE
  5
E5
330
99
100
AcDbEntity
  8
_U+30EC_U+30A4_U+30E4_U+30FC 1
 62
     7
420
 16777215
370
    25
100
AcDb2dPolyline
 66
     1
 10
0.0
 20
0.0
 30
0.0
  0
VERTEX
  5
E6
330
E5
100
AcDbEntity
  8
_U+30EC_U+30A4_U+30E4_U+30FC 1
 62
     7
420
 16777215
370
    25
100
AcDbVertex
100
AcDb2dVertex
 10
93.8602295498705
 20
-122.3367363583046
 30
0.0
  0
VERTEX
  5
E7
330
E5
100
AcDbEntity
  8
_U+30EC_U+30A4_U+30E4_U+30FC 1
 62
     7
420
 16777215
370
    25
100
AcDbVertex
100
AcDb2dVertex
 10
96.9766683592524
 20
-119.2202974701949
 30
0.0
  0
SEQEND
  5
E8
330
E5
100
AcDbEntity
  8
_U+30EC_U+30A4_U+30E4_U+30FC 1
 62
     7
420
 16777215
370
    25
  0
POLYLINE
  5
E9
330
99
100
AcDbEntity
  8
_U+30EC_U+30A4_U+30E4_U+30FC 1
 62
     7
420
 16777215
370
    25
100
AcDb2dPolyline
 66
     1
 10
0.0
 20
0.0
 30
0.0
  0
VERTEX
  5
EA
330
E9
100
AcDbEntity
  8
_U+30EC_U+30A4_U+30E4_U+30FC 1
 62
     7
420
 16777215
370
    25
100
AcDbVertex
100
AcDb2dVertex
 10
94.1496484313757
 20
-122.9313433026006
 30
0.0
  0
VERTEX
  5
EB
330
E9
100
AcDbEntity
  8
_U+30EC_U+30A4_U+30E4_U+30FC 1
 62
     7
420
 16777215
370
    25
100
AcDbVertex
100
AcDb2dVertex
 10
97.57060501076649
 20
-119.5096810812337
 30
0.0
  0
SEQEND
  5
EC
330
E9
100
AcDbEntity
  8
_U+30EC_U+30A4_U+30E4_U+30FC 1
 62
     7
420
 16777215
370
    25
  0
POLYLINE
  5
ED
330
99
100
AcDbEntity
  8
_U+30EC_U+30A4_U+30E4_U+30FC 1
 62
     7
420
 16777215
370
    25
100
AcDb2dPolyline
 66
     1
 10
0.0
 20
0.0
 30
0.0
  0
VERTEX
  5
EE
330
ED
100
AcDbEntity
  8
_U+30EC_U+30A4_U+30E4_U+30FC 1
 62
     7
420
 16777215
370
    25
100
AcDbVertex
100
AcDb2dVertex
 10
96.781688086449
 20
-121.1832941363709
 30
0.0
  0
VERTEX
  5
EF
330
ED
100
AcDbEntity
  8
_U+30EC_U+30A4_U+30E4_U+30FC 1
 62
     7
420
 16777215
370
    25
100
AcDbVertex
100
AcDb2dVertex
 10
100.0655552248928
 20
-117.8987566371921
 30
0.0
  0
SEQEND
  5
F0
330
ED
100
AcDbEntity
  8
_U+30EC_U+30A4_U+30E4_U+30FC 1
 62
     7
420
 16777215
370
    25
  0
POLYLINE
  5
F1
330
99
100
AcDbEntity
  8
_U+30EC_U+30A4_U+30E4_U+30FC 1
 62
     7
420
 16777215
370
    25
100
AcDb2dPolyline
 66
     1
 10
0.0
 20
0.0
 30
0.0
  0
VERTEX
  5
F2
330
F1
100
AcDbEntity
  8
_U+30EC_U+30A4_U+30E4_U+30FC 1
 62
     7
420
 16777215
370
    25
100
AcDbVertex
100
AcDb2dVertex
 10
97.2922633512009
 20
-121.5567446918332
 30
0.0
  0
VERTEX
  5
F3
330
F1
100
AcDbEntity
  8
_U+30EC_U+30A4_U+30E4_U+30FC 1
 62
     7
420
 16777215
370
    25
100
AcDbVertex
100
AcDb2dVertex
 10
100.4390083082238
 20
-118.4092966370644
 30
0.0
  0
SEQEND
  5
F4
330
F1
100
AcDbEntity
  8
_U+30EC_U+30A4_U+30E4_U+30FC 1
 62
     7
420
 16777215
370
    25
  0
POLYLINE
  5
F5
330
99
100
AcDbEntity
  8
_U+30EC_U+30A4_U+30E4_U+30FC 1
 62
     7
420
 16777215
370
    25
100
AcDb2dPolyline
 66
     1
 10
0.0
 20
0.0
 30
0.0
  0
VERTEX
  5
F6
330
F5
100
AcDbEntity
  8
_U+30EC_U+30A4_U+30E4_U+30FC 1
 62
     7
420
 16777215
370
    25
100
AcDbVertex
100
AcDb2dVertex
 10
101.0239818671079
 20
-116.940329970765
 30
0.0
  0
VERTEX
  5
F7
330
F5
100
AcDbEntity
  8
_U+30EC_U+30A4_U+30E4_U+30FC 1
 62
     7
420
 16777215
370
    25
100
AcDbVertex
100
AcDb2dVertex
 10
104.0632329006813
 20
-113.9017491381913
 30
0.0
  0
SEQEND
  5
F8
330
F5
100
AcDbEntity
  8
_U+30EC_U+30A4_U+30E4_U+30FC 1
 62
     7
420
 16777215
370
    25
  0
POLYLINE
  5
F9
330
99
100
AcDbEntity
  8
_U+30EC_U+30A4_U+30E4_U+30FC 1
 62
     7
420
 16777215
370
    25
100
AcDb2dPolyline
 66
     1
 10
0.0
 20
0.0
 30
0.0
  0
VERTEX
  5
FA
330
F9
100
AcDbEntity
  8
_U+30EC_U+30A4_U+30E4_U+30FC 1
 62
     7
420
 16777215
370
    25
100
AcDbVertex
100
AcDb2dVertex
 10
101.5345571318599
 20
-117.313780526227
 30
0.0
  0
VERTEX
  5
FB
330
F9
100
AcDbEntity
  8
_U+30EC_U+30A4_U+30E4_U+30FC 1
 62
     7
420
 16777215
370
    25
100
AcDbVertex
100
AcDb2dVertex
 10
104.5221262223073
 20
-114.3261760825296
 30
0.0
  0
SEQEND
  5
FC
330
F9
100
AcDbEntity
  8
_U+30EC_U+30A4_U+30E4_U+30FC 1
 62
     7
420
 16777215
370
    25
  0
POLYLINE
  5
FD
330
99
100
AcDbEntity
  8
_U+30EC_U+30A4_U+30E4_U+30FC 1
 62
     7
420
 16777215
370
    25
100
AcDb2dPolyline
 66
     1
 10
0.0
 20
0.0
 30
0.0
  0
VERTEX
  5
FE
330
FD
100
AcDbEntity
  8
_U+30EC_U+30A4_U+30E4_U+30FC 1
 62
     7
420
 16777215
370
    25
100
AcDbVertex
100
AcDb2dVertex
 10
98.39261248979533
 20
-118.6883791369947
 30
0.0
  0
VERTEX
  5
FF
330
FD
100
AcDbEntity
  8
_U+30EC_U+30A4_U+30E4_U+30FC 1
 62
     7
420
 16777215
370
    25
100
AcDbVertex
100
AcDb2dVertex
 10
101.813604346963
 20
-115.2673871934053
 30
0.0
  0
SEQEND
  5
100
330
FD
100
AcDbEntity
  8
_U+30EC_U+30A4_U+30E4_U+30FC 1
 62
     7
420
 16777215
370
    25
  0
POLYLINE
  5
101
330
99
100
AcDbEntity
  8
_U+30EC_U+30A4_U+30E4_U+30FC 1
 62
     7
420
 16777215
370
    25
100
AcDb2dPolyline
 66
     1
 10
0.0
 20
0.0
 30
0.0
  0
VERTEX
  5
102
330
101
100
AcDbEntity
  8
_U+30EC_U+30A4_U+30E4_U+30FC 1
 62
     7
420
 16777215
370
    25
100
AcDbVertex
100
AcDb2dVertex
 10
98.10322888606701
 20
-118.0937369149209
 30
0.0
  0
VERTEX
  5
103
330
101
100
AcDbEntity
  8
_U+30EC_U+30A4_U+30E4_U+30FC 1
 62
     7
420
 16777215
370
    25
100
AcDbVertex
100
AcDb2dVertex
 10
101.2189621399114
 20
-114.9780035823667
 30
0.0
  0
SEQEND
  5
104
330
101
100
AcDbEntity
  8
_U+30EC_U+30A4_U+30E4_U+30FC 1
 62
     7
420
 16777215
370
    25
  0
POLYLINE
  5
105
330
99
100
AcDbEntity
  8
_U+30EC_U+30A4_U+30E4_U+30FC 1
 62
     7
420
 16777215
370
    25
100
AcDb2dPolyline
 66
     1
 10
0.0
 20
0.0
 30
0.0
  0
VERTEX
  5
106
330
105
100
AcDbEntity
  8
_U+30EC_U+30A4_U+30E4_U+30FC 1
 62
     7
420
 16777215
370
    25
100
AcDbVertex
100
AcDb2dVertex
 10
97.37149723806837
 20
-117.9414780260701
 30
0.0
  0
VERTEX
  5
107
330
105
100
AcDbEntity
  8
_U+30EC_U+30A4_U+30E4_U+30FC 1
 62
     7
420
 16777215
370
    25
100
AcDbVertex
100
AcDb2dVertex
 10
101.0667032549069
 20
-114.246271915883
 30
0.0
  0
SEQEND
  5
108
330
105
100
AcDbEntity
  8
_U+30EC_U+30A4_U+30E4_U+30FC 1
 62
     7
420
 16777215
370
    25
  0
POLYLINE
  5
109
330
99
100
AcDbEntity
  8
_U+30EC_U+30A4_U+30E4_U+30FC 1
 62
     7
420
 16777215
370
    25
100
AcDb2dPolyline
 66
     1
 10
0.0
 20
0.0
 30
0.0
  0
VERTEX
  5
10A
330
109
100
AcDbEntity
  8
_U+30EC_U+30A4_U+30E4_U+30FC 1
 62
     7
420
 16777215
370
    25
100
AcDbVertex
100
AcDb2dVertex
 10
101.614463863485
 20
-113.6984785826864
 30
0.0
  0
VERTEX
  5
10B
330
109
100
AcDbEntity
  8
_U+30EC_U+30A4_U+30E4_U+30FC 1
 62
     7
420
 16777215
370
    25
100
AcDbVertex
100
AcDb2dVertex
 10
102.4716054412871
 20
-112.8420399717894
 30
0.0
  0
SEQEND
  5
10C
330
109
100
AcDbEntity
  8
_U+30EC_U+30A4_U+30E4_U+30FC 1
 62
     7
420
 16777215
370
    25
  0
POLYLINE
  5
10D
330
99
100
AcDbEntity
  8
_U+30EC_U+30A4_U+30E4_U+30FC 1
 62
     7
420
 16777215
370
    25
100
AcDb2dPolyline
 66
     1
 10
0.0
 20
0.0
 30
0.0
  0
VERTEX
  5
10E
330
10D
100
AcDbEntity
  8
_U+30EC_U+30A4_U+30E4_U+30FC 1
 62
     7
420
 16777215
370
    25
100
AcDbVertex
100
AcDb2dVertex
 10
102.345522666726
 20
-113.8514430270928
 30
0.0
  0
VERTEX
  5
10F
330
10D
100
AcDbEntity
  8
_U+30EC_U+30A4_U+30E4_U+30FC 1
 62
     7
420
 16777215
370
    25
100
AcDbVertex
100
AcDb2dVertex
 10
103.0386604268203
 20
-113.1583052494884
 30
0.0
  0
SEQEND
  5
110
330
10D
100
AcDbEntity
  8
_U+30EC_U+30A4_U+30E4_U+30FC 1
 62
     7
420
 16777215
370
    25
  0
POLYLINE
  5
111
330
99
100
AcDbEntity
  8
_U+30EC_U+30A4_U+30E4_U+30FC 1
 62
     7
420
 16777215
370
    25
100
AcDb2dPolyline
 66
     1
 10
0.0
 20
0.0
 30
0.0
  0
VERTEX
  5
112
330
111
100
AcDbEntity
  8
_U+30EC_U+30A4_U+30E4_U+30FC 1
 62
     7
420
 16777215
370
    25
100
AcDbVertex
100
AcDb2dVertex
 10
102.6349062704543
 20
-114.4460852491662
 30
0.0
  0
VERTEX
  5
113
330
111
100
AcDbEntity
  8
_U+30EC_U+30A4_U+30E4_U+30FC 1
 62
     7
420
 16777215
370
    25
100
AcDbVertex
100
AcDb2dVertex
 10
103.5692055296634
 20
-113.5117533049553
 30
0.0
  0
SEQEND
  5
114
330
111
100
AcDbEntity
  8
_U+30EC_U+30A4_U+30E4_U+30FC 1
 62
     7
420
 16777215
370
    25
  0
SPLINE
  5
115
330
99
100
AcDbEntity
  8
_U+30EC_U+30A4_U+30E4_U+30FC 1
 62
     7
420
 16777215
370
    25
100
AcDbSpline
210
0.0
220
0.0
230
1.0
 70
    11
 71
     3
 72
    17
 73
    13
 74
     0
 42
0.0000000001
 43
0.0000000001
 12
1.0
 22
0.0
 32
0.0
 13
1.0
 23
0.0
 33
0.0
 40
0.0
 40
0.0
 40
0.0
 40
0.0
 40
1.0
 40
1.0
 40
1.0
 40
2.0
 40
2.0
 40
2.0
 40
3.0
 40
3.0
 40
3.0
 40
4.0
 40
4.0
 40
4.0
 40
4.0
 10
106.8654878291898
 20
-119.9830383033377
 30
0.0
 10
106.8654878291898
 20
-115.5650258044421
 30
0.0
 10
103.2839468094514
 20
-111.9828144164487
 30
0.0
 10
98.86526664195021
 20
-111.9828144164487
 30
0.0
 10
94.4472870348934
 20
-111.9828144164487
 30
0.0
 10
90.86595768181628
 20
-115.5650258044421
 30
0.0
 10
90.86595768181628
 20
-119.9830383033377
 30
0.0
 10
90.86595768181628
 20
-124.4010155244554
 30
0.0
 10
94.4472870348934
 20
-127.9832269124485
 30
0.0
 10
98.86526664195021
 20
-127.9832269124485
 30
0.0
 10
103.2839468094514
 20
-127.9832269124485
 30
0.0
 10
106.8654878291898
 20
-124.4010155244554
 30
0.0
 10
106.8654878291898
 20
-119.9830383033377
 30
0.0
  0
SPLINE
  5
116
330
99
100
AcDbEntity
  8
_U+30EC_U+30A4_U+30E4_U+30FC 1
 62
     7
420
 16777215
370
    25
100
AcDbSpline
210
0.0
220
0.0
230
1.0
 70
    11
 71
     3
 72
    17
 73
    13
 74
     0
 42
0.0000000001
 43
0.0000000001
 12
1.0
 22
0.0
 32
0.0
 13
1.0
 23
0.0
 33
0.0
 40
0.0
 40
0.0
 40
0.0
 40
0.0
 40
1.0
 40
1.0
 40
1.0
 40
2.0
 40
2.0
 40
2.0
 40
3.0
 40
3.0
 40
3.0
 40
4.0
 40
4.0
 40
4.0
 40
4.0
 10
97.40250640394393
 20
-121.9632858028426
 30
0.0
 10
97.40250640394393
 20
-121.5209377473974
 30
0.0
 10
97.044895579734
 20
-121.1633269141537
 30
0.0
 10
96.60254997584963
 20
-121.1633269141537
 30
0.0
 10
96.16087219818213
 20
-121.1633269141537
 30
0.0
 10
95.80258866698345
 20
-121.5209377473974
 30
0.0
 10
95.80258866698345
 20
-121.9632858028426
 30
0.0
 10
95.80258866698345
 20
-122.4049283027319
 30
0.0
 10
96.16087219818213
 20
-122.7632094137537
 30
0.0
 10
96.60254997584963
 20
-122.7632094137537
 30
0.0
 10
97.044895579734
 20
-122.7632094137537
 30
0.0
 10
97.40250640394393
 20
-122.4049283027319
 30
0.0
 10
97.40250640394393
 20
-121.9632858028426
 30
0.0
  0
SPLINE
  5
117
330
99
100
AcDbEntity
  8
_U+30EC_U+30A4_U+30E4_U+30FC 1
 62
     7
420
 16777215
370
    25
100
AcDbSpline
210
0.0
220
0.0
230
1.0
 70
    11
 71
     3
 72
    17
 73
    13
 74
     0
 42
0.0000000001
 43
0.0000000001
 12
1.0
 22
0.0
 32
0.0
 13
1.0
 23
0.0
 33
0.0
 40
0.0
 40
0.0
 40
0.0
 40
0.0
 40
1.0
 40
1.0
 40
1.0
 40
2.0
 40
2.0
 40
2.0
 40
3.0
 40
3.0
 40
3.0
 40
4.0
 40
4.0
 40
4.0
 40
4.0
 10
101.6454704623636
 20
-117.7202863594589
 30
0.0
 10
101.6454704623636
 20
-117.2786438595693
 30
0.0
 10
101.287189360393
 20
-116.92032747077
 30
0.0
 10
100.8455115938833
 20
-116.92032747077
 30
0.0
 10
100.4038691051506
 20
-116.92032747077
 30
0.0
 10
100.04558800318
 20
-117.2786438595693
 30
0.0
 10
100.04558800318
 20
-117.7202863594589
 30
0.0
 10
100.04558800318
 20
-118.1619641371261
 30
0.0
 10
100.4038691051506
 20
-118.5202452481479
 30
0.0
 10
100.8455115938833
 20
-118.5202452481479
 30
0.0
 10
101.287189360393
 20
-118.5202452481479
 30
0.0
 10
101.6454704623636
 20
-118.1619641371261
 30
0.0
 10
101.6454704623636
 20
-117.7202863594589
 30
0.0
  0
SPLINE
  5
118
330
99
100
AcDbEntity
  8
_U+30EC_U+30A4_U+30E4_U+30FC 1
 62
     7
420
 16777215
370
    25
100
AcDbSpline
210
0.0
220
0.0
230
1.0
 70
    11
 71
     3
 72
    17
 73
    13
 74
     0
 42
0.0000000001
 43
0.0000000001
 12
1.0
 22
0.0
 32
0.0
 13
1.0
 23
0.0
 33
0.0
 40
0.0
 40
0.0
 40
0.0
 40
0.0
 40
1.0
 40
1.0
 40
1.0
 40
2.0
 40
2.0
 40
2.0
 40
3.0
 40
3.0
 40
3.0
 40
4.0
 40
4.0
 40
4.0
 40
4.0
 10
94.15031870913637
 20
-122.9526863581506
 30
0.0
 10
94.15031870913637
 20
-122.5110438582613
 30
0.0
 10
93.79203760716577
 20
-122.1527627472395
 30
0.0
 10
93.35035984065614
 20
-122.1527627472395
 30
0.0
 10
92.90801179638582
 20
-122.1527627472395
 30
0.0
 10
92.55043624995277
 20
-122.5110438582613
 30
0.0
 10
92.55043624995277
 20
-122.9526863581506
 30
0.0
 10
92.55043624995277
 20
-123.3950696913733
 30
0.0
 10
92.90801179638582
 20
-123.7526452468396
 30
0.0
 10
93.35035984065614
 20
-123.7526452468396
 30
0.0
 10
93.79203760716577
 20
-123.7526452468396
 30
0.0
 10
94.15031870913637
 20
-123.3950696913733
 30
0.0
 10
94.15031870913637
 20
-122.9526863581506
 30
0.0
  0
SPLINE
  5
119
330
99
100
AcDbEntity
  8
_U+30EC_U+30A4_U+30E4_U+30FC 1
 62
     7
420
 16777215
370
    25
100
AcDbSpline
210
0.0
220
0.0
230
1.0
 70
    11
 71
     3
 72
    17
 73
    13
 74
     0
 42
0.0000000001
 43
0.0000000001
 12
1.0
 22
0.0
 32
0.0
 13
1.0
 23
0.0
 33
0.0
 40
0.0
 40
0.0
 40
0.0
 40
0.0
 40
1.0
 40
1.0
 40
1.0
 40
2.0
 40
2.0
 40
2.0
 40
3.0
 40
3.0
 40
3.0
 40
4.0
 40
4.0
 40
4.0
 40
4.0
 10
98.39261248979533
 20
-118.7104277481003
 30
0.0
 10
98.39261248979533
 20
-118.2687499704328
 30
0.0
 10
98.03433138782474
 20
-117.9104688594114
 30
0.0
 10
97.5926536213151
 20
-117.9104688594114
 30
0.0
 10
97.15101113258233
 20
-117.9104688594114
 30
0.0
 10
96.7926971980239
 20
-118.2687499704328
 30
0.0
 10
96.7926971980239
 20
-118.7104277481003
 30
0.0
 10
96.7926971980239
 20
-119.1520702479897
 30
0.0
 10
97.15101113258233
 20
-119.5103513590114
 30
0.0
 10
97.5926536213151
 20
-119.5103513590114
 30
0.0
 10
98.03433138782474
 20
-119.5103513590114
 30
0.0
 10
98.39261248979533
 20
-119.1520702479897
 30
0.0
 10
98.39261248979533
 20
-118.7104277481003
 30
0.0
  0
SPLINE
  5
11A
330
99
100
AcDbEntity
  8
_U+30EC_U+30A4_U+30E4_U+30FC 1
 62
     7
420
 16777215
370
    25
100
AcDbSpline
210
0.0
220
0.0
230
1.0
 70
    11
 71
     3
 72
    17
 73
    13
 74
     0
 42
0.0000000001
 43
0.0000000001
 12
1.0
 22
0.0
 32
0.0
 13
1.0
 23
0.0
 33
0.0
 40
0.0
 40
0.0
 40
0.0
 40
0.0
 40
1.0
 40
1.0
 40
1.0
 40
2.0
 40
2.0
 40
2.0
 40
3.0
 40
3.0
 40
3.0
 40
4.0
 40
4.0
 40
4.0
 40
4.0
 10
102.635576548215
 20
-114.4674283047163
 30
0.0
 10
102.635576548215
 20
-114.025785804827
 30
0.0
 10
102.2772954462444
 20
-113.6674694160277
 30
0.0
 10
101.8356555300965
 20
-113.6674694160277
 30
0.0
 10
101.3933049132413
 20
-113.6674694160277
 30
0.0
 10
101.0356940890314
 20
-114.025785804827
 30
0.0
 10
101.0356940890314
 20
-114.4674283047163
 30
0.0
 10
101.0356940890314
 20
-114.9097763601615
 30
0.0
 10
101.3933049132413
 20
-115.2673871934053
 30
0.0
 10
101.8356555300965
 20
-115.2673871934053
 30
0.0
 10
102.2772954462444
 20
-115.2673871934053
 30
0.0
 10
102.635576548215
 20
-114.9097763601615
 30
0.0
 10
102.635576548215
 20
-114.4674283047163
 30
0.0
  0
ENDBLK
  5
9C
330
99
100
AcDbEntity
  8
0
100
AcDbBlockEnd
  0
BLOCK
  5
11D
330
11B
100
AcDbEntity
  8
0
100
AcDbBlockBegin
  2
block 8
 70
     0
 10
0.0
 20
0.0
 30
0.0
  3
block 8
  1

  0
SPLINE
  5
11F
330
11B
100
AcDbEntity
  8
_U+30EC_U+30A4_U+30E4_U+30FC 1
370
     0
100
AcDbSpline
210
0.0
220
0.0
230
1.0
 70
    11
 71
     3
 72
   242
 73
   238
 74
     0
 42
0.0000000001
 43
0.0000000001
 12
1.0
 22
0.0
 32
0.0
 13
1.0
 23
0.0
 33
0.0
 40
0.0
 40
0.0
 40
0.0
 40
0.0
 40
1.0
 40
1.0
 40
1.0
 40
2.0
 40
2.0
 40
2.0
 40
3.0
 40
3.0
 40
3.0
 40
4.0
 40
4.0
 40
4.0
 40
5.0
 40
5.0
 40
5.0
 40
6.0
 40
6.0
 40
6.0
 40
7.0
 40
7.0
 40
7.0
 40
8.0
 40
8.0
 40
8.0
 40
9.0
 40
9.0
 40
9.0
 40
10.0
 40
10.0
 40
10.0
 40
11.0
 40
11.0
 40
11.0
 40
12.0
 40
12.0
 40
12.0
 40
13.0
 40
13.0
 40
13.0
 40
14.0
 40
14.0
 40
14.0
 40
15.0
 40
15.0
 40
15.0
 40
16.0
 40
16.0
 40
16.0
 40
17.0
 40
17.0
 40
17.0
 40
18.0
 40
18.0
 40
18.0
 40
19.0
 40
19.0
 40
19.0
 40
20.0
 40
20.0
 40
20.0
 40
21.0
 40
21.0
 40
21.0
 40
22.0
 40
22.0
 40
22.0
 40
23.0
 40
23.0
 40
23.0
 40
24.0
 40
24.0
 40
24.0
 40
25.0
 40
25.0
 40
25.0
 40
26.0
 40
26.0
 40
26.0
 40
27.0
 40
27.0
 40
27.0
 40
28.0
 40
28.0
 40
28.0
 40
29.0
 40
29.0
 40
29.0
 40
30.0
 40
30.0
 40
30.0
 40
31.0
 40
31.0
 40
31.0
 40
32.0
 40
32.0
 40
32.0
 40
33.0
 40
33.0
 40
33.0
 40
34.0
 40
34.0
 40
34.0
 40
35.0
 40
35.0
 40
35.0
 40
36.0
 40
36.0
 40
36.0
 40
37.0
 40
37.0
 40
37.0
 40
38.0
 40
38.0
 40
38.0
 40
39.0
 40
39.0
 40
39.0
 40
40.0
 40
40.0
 40
40.0
 40
41.0
 40
41.0
 40
41.0
 40
42.0
 40
42.0
 40
42.0
 40
43.0
 40
43.0
 40
43.0
 40
44.0
 40
44.0
 40
44.0
 40
45.0
 40
45.0
 40
45.0
 40
46.0
 40
46.0
 40
46.0
 40
47.0
 40
47.0
 40
47.0
 40
48.0
 40
48.0
 40
48.0
 40
49.0
 40
49.0
 40
49.0
 40
50.0
 40
50.0
 40
50.0
 40
51.0
 40
51.0
 40
51.0
 40
52.0
 40
52.0
 40
52.0
 40
53.0
 40
53.0
 40
53.0
 40
54.0
 40
54.0
 40
54.0
 40
55.0
 40
55.0
 40
55.0
 40
56.0
 40
56.0
 40
56.0
 40
57.0
 40
57.0
 40
57.0
 40
58.0
 40
58.0
 40
58.0
 40
59.0
 40
59.0
 40
59.0
 40
60.0
 40
60.0
 40
60.0
 40
61.0
 40
61.0
 40
61.0
 40
62.0
 40
62.0
 40
62.0
 40
63.0
 40
63.0
 40
63.0
 40
64.0
 40
64.0
 40
64.0
 40
65.0
 40
65.0
 40
65.0
 40
66.0
 40
66.0
 40
66.0
 40
67.0
 40
67.0
 40
67.0
 40
68.0
 40
68.0
 40
68.0
 40
69.0
 40
69.0
 40
69.0
 40
70.0
 40
70.0
 40
70.0
 40
71.0
 40
71.0
 40
71.0
 40
72.0
 40
72.0
 40
72.0
 40
73.0
 40
73.0
 40
73.0
 40
74.0
 40
74.0
 40
74.0
 40
75.0
 40
75.0
 40
75.0
 40
76.0
 40
76.0
 40
76.0
 40
77.0
 40
77.0
 40
77.0
 40
78.0
 40
78.0
 40
78.0
 40
79.0
 40
79.0
 40
79.0
 40
79.0
 10
89.48291013387927
 20
-130.4595648545379
 30
0.0
 10
89.48291013387927
 20
-130.4595648545379
 30
0.0
 10
89.26070147508067
 20
-130.4595648545379
 30
0.0
 10
89.26070147508067
 20
-130.4595648545379
 30
0.0
 10
89.26070147508067
 20
-130.4595648545379
 30
0.0
 10
89.01816675291907
 20
-130.4595648545379
 30
0.0
 10
89.01816675291907
 20
-130.4595648545379
 30
0.0
 10
89.01816675291907
 20
-130.4595648545379
 30
0.0
 10
89.12927108231838
 20
-130.5019395290065
 30
0.0
 10
89.12927108231838
 20
-130.5019395290065
 30
0.0
 10
89.13857284012856
 20
-130.5060736435888
 30
0.0
 10
89.14959714568135
 20
-130.5126193250107
 30
0.0
 10
89.14959714568135
 20
-130.5253661783062
 30
0.0
 10
89.14959714568135
 20
-130.5463812607662
 30
0.0
 10
89.12186412702509
 20
-130.5525824326396
 30
0.0
 10
89.103432866179
 20
-130.5570610567705
 30
0.0
 10
89.09413110836883
 20
-130.5801431965216
 30
0.0
 10
89.0681206374552
 20
-130.6459445202899
 30
0.0
 10
89.051584179126
 20
-130.6903862520496
 30
0.0
 10
89.051584179126
 20
-130.6903862520496
 30
0.0
 10
89.28860674851119
 20
-130.6903862520496
 30
0.0
 10
89.28860674851119
 20
-130.6903862520496
 30
0.0
 10
89.36818845422046
 20
-130.6903862520496
 30
0.0
 10
89.54044322848294
 20
-130.6859076279188
 30
0.0
 10
89.66446666595195
 20
-130.6776393987542
 30
0.0
 10
89.66446666595195
 20
-130.6776393987542
 30
0.0
 10
89.66446666595195
 20
-130.8554063257931
 30
0.0
 10
89.66446666595195
 20
-130.8554063257931
 30
0.0
 10
89.59229191553595
 20
-130.8509277016623
 30
0.0
 10
89.57368839991561
 20
-130.8509277016623
 30
0.0
 10
89.4162475362397
 20
-130.84679358708
 30
0.0
 10
89.38851451758343
 20
-131.0011338648192
 30
0.0
 10
89.3495849386001
 20
-131.081749099174
 30
0.0
 10
89.31082761439104
 20
-131.1513400279761
 30
0.0
 10
89.4162475362397
 20
-131.2105956703224
 30
0.0
 10
89.50892060479292
 20
-131.2784640513818
 30
0.0
 10
89.59969887082924
 20
-131.3608018334793
 30
0.0
 10
89.59969887082924
 20
-131.3608018334793
 30
0.0
 10
89.49600149672322
 20
-131.5278889645139
 30
0.0
 10
89.49600149672322
 20
-131.5278889645139
 30
0.0
 10
89.475503178586
 20
-131.508940939345
 30
0.0
 10
89.46447887303319
 20
-131.5003282006319
 30
0.0
 10
89.36629365170357
 20
-131.4159233612432
 30
0.0
 10
89.32374672246074
 20
-131.377682801357
 30
0.0
 10
89.27189803540773
 20
-131.3418538083104
 30
0.0
 10
89.20144583273436
 20
-131.2974120765506
 30
0.0
 10
89.01627195040219
 20
-131.4834472327541
 30
0.0
 10
88.83678247562067
 20
-131.5068738820538
 30
0.0
 10
88.58305119313202
 20
-131.536501703227
 30
0.0
 10
88.58305119313202
 20
-131.536501703227
 30
0.0
 10
88.49227292709568
 20
-131.3566677188969
 30
0.0
 10
88.49227292709568
 20
-131.3566677188969
 30
0.0
 10
88.77011987798109
 20
-131.3525336043147
 30
0.0
 10
88.92377113662323
 20
-131.3270398977238
 30
0.0
 10
89.0570963319024
 20
-131.2171413517443
 30
0.0
 10
88.95339895779638
 20
-131.1661539385626
 30
0.0
 10
88.87553979982972
 20
-131.1385931746806
 30
0.0
 10
88.84418943091396
 20
-131.1261908309337
 30
0.0
 10
88.82748071781049
 20
-131.1534070852672
 30
0.0
 10
88.8145616097408
 20
-131.1726996199846
 30
0.0
 10
88.79044594134406
 20
-131.20646155574
 30
0.0
 10
88.79044594134406
 20
-131.20646155574
 30
0.0
 10
88.61819116708156
 20
-131.1237792640941
 30
0.0
 10
88.61819116708156
 20
-131.1237792640941
 30
0.0
 10
88.69036591749754
 20
-131.0435085392877
 30
0.0
 10
88.74410940706746
 20
-130.9484239038948
 30
0.0
 10
88.79406329160358
 20
-130.84679358708
 30
0.0
 10
88.62749292489174
 20
-130.8509277016623
 30
0.0
 10
88.6088894092714
 20
-130.8509277016623
 30
0.0
 10
88.5367146588554
 20
-130.8554063257931
 30
0.0
 10
88.5367146588554
 20
-130.8554063257931
 30
0.0
 10
88.5367146588554
 20
-130.6776393987542
 30
0.0
 10
88.5367146588554
 20
-130.6776393987542
 30
0.0
 10
88.65901554858178
 20
-130.6838405706277
 30
0.0
 10
88.84229462839707
 20
-130.68797468521
 30
0.0
 10
88.86451549427693
 20
-130.68797468521
 30
0.0
 10
88.87932940486351
 20
-130.6542127494545
 30
0.0
 10
88.92738848688273
 20
-130.5336344074708
 30
0.0
 10
88.9440971999862
 20
-130.4595648545379
 30
0.0
 10
88.92738848688273
 20
-130.4595648545379
 30
0.0
 10
88.7718424257237
 20
-130.4661105359599
 30
0.0
 10
88.60148245397811
 20
-130.4788573892553
 30
0.0
 10
88.60148245397811
 20
-130.4788573892553
 30
0.0
 10
88.60148245397811
 20
-130.6118380749859
 30
0.0
 10
88.60148245397811
 20
-130.6118380749859
 30
0.0
 10
88.55893552473528
 20
-130.6373317815768
 30
0.0
 10
88.50708683768227
 20
-130.6690266600411
 30
0.0
 10
88.39047035550655
 20
-130.7348279838094
 30
0.0
 10
88.39047035550655
 20
-130.7348279838094
 30
0.0
 10
88.39047035550655
 20
-130.8805555228354
 30
0.0
 10
88.39047035550655
 20
-130.8805555228354
 30
0.0
 10
88.39047035550655
 20
-130.8805555228354
 30
0.0
 10
88.39047035550655
 20
-131.3480549801838
 30
0.0
 10
88.39047035550655
 20
-131.3480549801838
 30
0.0
 10
88.39047035550655
 20
-131.4751790035895
 30
0.0
 10
88.35894773181651
 20
-131.5344346459358
 30
0.0
 10
88.11090085687853
 20
-131.5258219072227
 30
0.0
 10
88.11090085687853
 20
-131.5258219072227
 30
0.0
 10
88.02012259084219
 20
-131.3184271590107
 30
0.0
 10
88.02012259084219
 20
-131.3184271590107
 30
0.0
 10
88.07558862815472
 20
-131.3311740123061
 30
0.0
 10
88.11830781217182
 20
-131.3353081268884
 30
0.0
 10
88.15344778612136
 20
-131.3353081268884
 30
0.0
 10
88.22011038376095
 20
-131.3353081268884
 30
0.0
 10
88.22941214157112
 20
-131.3122259871372
 30
0.0
 10
88.22941214157112
 20
-131.2467691729175
 30
0.0
 10
88.22941214157112
 20
-131.2467691729175
 30
0.0
 10
88.22941214157112
 20
-130.8171657659068
 30
0.0
 10
88.22941214157112
 20
-130.8171657659068
 30
0.0
 10
88.14414602831118
 20
-130.8574733830843
 30
0.0
 10
88.12933211772462
 20
-130.8636745549577
 30
0.0
 10
88.08867999099867
 20
-130.8826225801266
 30
0.0
 10
88.0848903859649
 20
-130.9039821721351
 30
0.0
 10
88.08127303570538
 20
-130.9336099933083
 30
0.0
 10
88.06456432260192
 20
-130.9336099933083
 30
0.0
 10
88.05715736730863
 20
-130.9336099933083
 30
0.0
 10
88.04785560949846
 20
-130.929475878726
 30
0.0
 10
88.04234345672205
 20
-130.9060492294263
 30
0.0
 10
88.04234345672205
 20
-130.9060492294263
 30
0.0
 10
87.99600692244545
 20
-130.7134683918008
 30
0.0
 10
87.99600692244545
 20
-130.7134683918008
 30
0.0
 10
88.12381996494821
 20
-130.6669596027499
 30
0.0
 10
88.18118080477763
 20
-130.6438774629987
 30
0.0
 10
88.22941214157112
 20
-130.6225178709902
 30
0.0
 10
88.22941214157112
 20
-130.6225178709902
 30
0.0
 10
88.22941214157112
 20
-130.2101399414058
 30
0.0
 10
88.22941214157112
 20
-130.2101399414058
 30
0.0
 10
88.22941214157112
 20
-130.2101399414058
 30
0.0
 10
88.18307560729451
 20
-130.2101399414058
 30
0.0
 10
88.18307560729451
 20
-130.2101399414058
 30
0.0
 10
88.18307560729451
 20
-130.2101399414058
 30
0.0
 10
88.11451820713805
 20
-130.2101399414058
 30
0.0
 10
88.11451820713805
 20
-130.2101399414058
 30
0.0
 10
88.05526256479175
 20
-130.2101399414058
 30
0.0
 10
88.04785560949846
 20
-130.2101399414058
 30
0.0
 10
88.01633298580842
 20
-130.2163411132792
 30
0.0
 10
88.01633298580842
 20
-130.2163411132792
 30
0.0
 10
88.01633298580842
 20
-130.0216932183626
 30
0.0
 10
88.01633298580842
 20
-130.0216932183626
 30
0.0
 10
88.04044865420516
 20
-130.0282388997846
 30
0.0
 10
88.04785560949846
 20
-130.0282388997846
 30
0.0
 10
88.10900605436164
 20
-130.0282388997846
 30
0.0
 10
88.10900605436164
 20
-130.0282388997846
 30
0.0
 10
88.22562253653734
 20
-130.0282388997846
 30
0.0
 10
88.22562253653734
 20
-130.0282388997846
 30
0.0
 10
88.22562253653734
 20
-129.958303461434
 30
0.0
 10
88.22562253653734
 20
-129.875621169788
 30
0.0
 10
88.22372773402046
 20
-129.8714870552057
 30
0.0
 10
88.21632077872718
 20
-129.6916530708757
 30
0.0
 10
88.21632077872718
 20
-129.6727050457068
 30
0.0
 10
88.21459823098455
 20
-129.626196256656
 30
0.0
 10
88.21459823098455
 20
-129.626196256656
 30
0.0
 10
88.40338946357625
 20
-129.6344644858206
 30
0.0
 10
88.40338946357625
 20
-129.6344644858206
 30
0.0
 10
88.41269122138641
 20
-129.6344644858206
 30
0.0
 10
88.4311224822325
 20
-129.6368760526602
 30
0.0
 10
88.4311224822325
 20
-129.653757020538
 30
0.0
 10
88.4311224822325
 20
-129.6727050457068
 30
0.0
 10
88.41820337416281
 20
-129.6833848417111
 30
0.0
 10
88.39598250828296
 20
-129.70233286688
 30
0.0
 10
88.39598250828296
 20
-129.7529757705132
 30
0.0
 10
88.39047035550655
 20
-129.9813856011852
 30
0.0
 10
88.39236515802344
 20
-130.0282388997846
 30
0.0
 10
88.50519203516538
 20
-130.0282388997846
 30
0.0
 10
88.51638859549243
 20
-130.0282388997846
 30
0.0
 10
88.60148245397811
 20
-130.0196261610715
 30
0.0
 10
88.60148245397811
 20
-130.0196261610715
 30
0.0
 10
88.60148245397811
 20
-130.2142740559881
 30
0.0
 10
88.60148245397811
 20
-130.2142740559881
 30
0.0
 10
88.56823728254544
 20
-130.212206998697
 30
0.0
 10
88.50898164019915
 20
-130.2080728841146
 30
0.0
 10
88.39047035550655
 20
-130.2101399414058
 30
0.0
 10
88.39047035550655
 20
-130.2101399414058
 30
0.0
 10
88.39047035550655
 20
-130.5484483180573
 30
0.0
 10
88.39047035550655
 20
-130.5484483180573
 30
0.0
 10
88.43852943752579
 20
-130.5253661783062
 30
0.0
 10
88.49606253212946
 20
-130.4978054144242
 30
0.0
 10
88.5386094613723
 20
-130.4743787651245
 30
0.0
 10
88.5386094613723
 20
-130.4743787651245
 30
0.0
 10
88.5386094613723
 20
-130.2966118380856
 30
0.0
 10
88.5386094613723
 20
-130.2966118380856
 30
0.0
 10
88.63851723044453
 20
-130.309358691381
 30
0.0
 10
88.74221460455057
 20
-130.309358691381
 30
0.0
 10
88.84418943091396
 20
-130.309358691381
 30
0.0
 10
88.82369111277671
 20
-130.2142740559881
 30
0.0
 10
88.79974769915424
 20
-130.1315917643421
 30
0.0
 10
88.74410940706746
 20
-129.9986110786115
 30
0.0
 10
88.70517982808413
 20
-130.0006781359026
 30
0.0
 10
88.63300507766814
 20
-130.0048122504849
 30
0.0
 10
88.59975990623548
 20
-130.0068793077761
 30
0.0
 10
88.59975990623548
 20
-130.0068793077761
 30
0.0
 10
88.59975990623548
 20
-129.827045323446
 30
0.0
 10
88.59975990623548
 20
-129.827045323446
 30
0.0
 10
88.7089694331179
 20
-129.8356580621592
 30
0.0
 10
88.86072588924316
 20
-129.8397921767414
 30
0.0
 10
88.93307289443341
 20
-129.8397921767414
 30
0.0
 10
88.93307289443341
 20
-129.8397921767414
 30
0.0
 10
89.00524764484939
 20
-129.8397921767414
 30
0.0
 10
89.00524764484939
 20
-129.8397921767414
 30
0.0
 10
89.00524764484939
 20
-129.6768391602891
 30
0.0
 10
89.00524764484939
 20
-129.6665038738334
 30
0.0
 10
89.0033528423325
 20
-129.6113823460694
 30
0.0
 10
89.0033528423325
 20
-129.6113823460694
 30
0.0
 10
89.19972328499173
 20
-129.6368760526602
 30
0.0
 10
89.19972328499173
 20
-129.6368760526602
 30
0.0
 10
89.20334063525125
 20
-129.6368760526602
 30
0.0
 10
89.22194415087161
 20
-129.6389431099514
 30
0.0
 10
89.22194415087161
 20
-129.6558240778291
 30
0.0
 10
89.22194415087161
 20
-129.6706379884157
 30
0.0
 10
89.21264239306143
 20
-129.6789062175803
 30
0.0
 10
89.18852672466468
 20
-129.6937201281669
 30
0.0
 10
89.18301457188828
 20
-129.7595214519351
 30
0.0
 10
89.18111976937139
 20
-129.7805365343951
 30
0.0
 10
89.18111976937139
 20
-129.8397921767414
 30
0.0
 10
89.18111976937139
 20
-129.8397921767414
 30
0.0
 10
89.26449108011444
 20
-129.8397921767414
 30
0.0
 10
89.26449108011444
 20
-129.8397921767414
 30
0.0
 10
89.33666583053042
 20
-129.8397921767414
 30
0.0
 10
89.48859454142993
 20
-129.8356580621592
 30
0.0
 10
89.59780406831236
 20
-129.827045323446
 30
0.0
 10
89.59780406831236
 20
-129.827045323446
 30
0.0
 10
89.59780406831236
 20
-130.0068793077761
 30
0.0
 10
89.59780406831236
 20
-130.0068793077761
 30
0.0
 10
89.57179359739872
 20
-130.0048122504849
 30
0.0
 10
89.4680962232927
 20
-130.0006781359026
 30
0.0
 10
89.43295624934315
 20
-129.9986110786115
 30
0.0
 10
89.42003714127347
 20
-130.0492539822446
 30
0.0
 10
89.39040932010032
 20
-130.1612195855153
 30
0.0
 10
89.3330484802709
 20
-130.3010904622164
 30
0.0
 10
89.37008325673735
 20
-130.3010904622164
 30
0.0
 10
89.61261797889894
 20
-130.281797927499
 30
0.0
 10
89.66636146846884
 20
-130.2797308702079
 30
0.0
 10
89.66636146846884
 20
-130.2797308702079
 30
0.0
 10
89.66636146846884
 20
-130.4640434786687
 30
0.0
 10
89.66636146846884
 20
-130.4640434786687
 30
0.0
 10
89.64035099755519
 20
-130.4640434786687
 30
0.0
 10
89.62553708696862
 20
-130.4595648545379
 30
0.0
 10
89.48291013387927
 20
-130.4595648545379
 30
0.0
  0
SPLINE
  5
120
330
11B
100
AcDbEntity
  8
_U+30EC_U+30A4_U+30E4_U+30FC 1
370
     0
100
AcDbSpline
210
0.0
220
0.0
230
1.0
 70
    11
 71
     3
 72
    20
 73
    16
 74
     0
 42
0.0000000001
 43
0.0000000001
 12
1.0
 22
0.0
 32
0.0
 13
1.0
 23
0.0
 33
0.0
 40
0.0
 40
0.0
 40
0.0
 40
0.0
 40
1.0
 40
1.0
 40
1.0
 40
2.0
 40
2.0
 40
2.0
 40
3.0
 40
3.0
 40
3.0
 40
4.0
 40
4.0
 40
4.0
 40
5.0
 40
5.0
 40
5.0
 40
5.0
 10
88.93307289443341
 20
-129.9941324544806
 30
0.0
 10
88.93307289443341
 20
-129.9941324544806
 30
0.0
 10
88.90516762100287
 20
-129.9941324544806
 30
0.0
 10
88.90516762100287
 20
-129.9941324544806
 30
0.0
 10
88.94599200250309
 20
-130.0936957140044
 30
0.0
 10
88.97372502115935
 20
-130.1739664388107
 30
0.0
 10
89.0033528423325
 20
-130.3010904622164
 30
0.0
 10
89.0033528423325
 20
-130.3010904622164
 30
0.0
 10
89.18490937440517
 20
-130.3010904622164
 30
0.0
 10
89.18490937440517
 20
-130.3010904622164
 30
0.0
 10
89.21264239306143
 20
-130.2080728841146
 30
0.0
 10
89.2329684564244
 20
-130.1233235351775
 30
0.0
 10
89.25329451978737
 20
-129.9941324544806
 30
0.0
 10
89.25329451978737
 20
-129.9941324544806
 30
0.0
 10
88.93307289443341
 20
-129.9941324544806
 30
0.0
 10
88.93307289443341
 20
-129.9941324544806
 30
0.0
  0
SPLINE
  5
121
330
11B
100
AcDbEntity
  8
_U+30EC_U+30A4_U+30E4_U+30FC 1
370
     0
100
AcDbSpline
210
0.0
220
0.0
230
1.0
 70
    11
 71
     3
 72
    17
 73
    13
 74
     0
 42
0.0000000001
 43
0.0000000001
 12
1.0
 22
0.0
 32
0.0
 13
1.0
 23
0.0
 33
0.0
 40
0.0
 40
0.0
 40
0.0
 40
0.0
 40
1.0
 40
1.0
 40
1.0
 40
2.0
 40
2.0
 40
2.0
 40
3.0
 40
3.0
 40
3.0
 40
4.0
 40
4.0
 40
4.0
 40
4.0
 10
88.98853893174592
 20
-130.8447265297888
 30
0.0
 10
88.97372502115935
 20
-130.874354350962
 30
0.0
 10
88.92928328939963
 20
-130.9673719290637
 30
0.0
 10
88.91998153158946
 20
-130.9863199542326
 30
0.0
 10
89.08672415307555
 20
-131.0455755965789
 30
0.0
 10
89.10515541392164
 20
-131.0521212780009
 30
0.0
 10
89.16820066130171
 20
-131.0793375323343
 30
0.0
 10
89.21625974332093
 20
-130.9928656356546
 30
0.0
 10
89.23675806145818
 20
-130.9187960827217
 30
0.0
 10
89.24967716952786
 20
-130.8447265297888
 30
0.0
 10
89.24967716952786
 20
-130.8447265297888
 30
0.0
 10
88.98853893174592
 20
-130.8447265297888
 30
0.0
 10
88.98853893174592
 20
-130.8447265297888
 30
0.0
  0
HATCH
  5
122
330
11B
100
AcDbEntity
  8
_U+30EC_U+30A4_U+30E4_U+30FC 1
 62
     7
420
 16777215
100
AcDbHatch
 10
0.0
 20
0.0
 30
0.0
210
0.0
220
0.0
230
1.0
  2
SOLID
 70
     1
 71
     0
 91
        3
 92
        1
 93
        1
 72
     4
 94
        3
 73
     0
 74
     1
 95
      242
 96
      238
 40
0.0
 40
0.0
 40
0.0
 40
0.0
 40
1.0
 40
1.0
 40
1.0
 40
2.0
 40
2.0
 40
2.0
 40
3.0
 40
3.0
 40
3.0
 40
4.0
 40
4.0
 40
4.0
 40
5.0
 40
5.0
 40
5.0
 40
6.0
 40
6.0
 40
6.0
 40
7.0
 40
7.0
 40
7.0
 40
8.0
 40
8.0
 40
8.0
 40
9.0
 40
9.0
 40
9.0
 40
10.0
 40
10.0
 40
10.0
 40
11.0
 40
11.0
 40
11.0
 40
12.0
 40
12.0
 40
12.0
 40
13.0
 40
13.0
 40
13.0
 40
14.0
 40
14.0
 40
14.0
 40
15.0
 40
15.0
 40
15.0
 40
16.0
 40
16.0
 40
16.0
 40
17.0
 40
17.0
 40
17.0
 40
18.0
 40
18.0
 40
18.0
 40
19.0
 40
19.0
 40
19.0
 40
20.0
 40
20.0
 40
20.0
 40
21.0
 40
21.0
 40
21.0
 40
22.0
 40
22.0
 40
22.0
 40
23.0
 40
23.0
 40
23.0
 40
24.0
 40
24.0
 40
24.0
 40
25.0
 40
25.0
 40
25.0
 40
26.0
 40
26.0
 40
26.0
 40
27.0
 40
27.0
 40
27.0
 40
28.0
 40
28.0
 40
28.0
 40
29.0
 40
29.0
 40
29.0
 40
30.0
 40
30.0
 40
30.0
 40
31.0
 40
31.0
 40
31.0
 40
32.0
 40
32.0
 40
32.0
 40
33.0
 40
33.0
 40
33.0
 40
34.0
 40
34.0
 40
34.0
 40
35.0
 40
35.0
 40
35.0
 40
36.0
 40
36.0
 40
36.0
 40
37.0
 40
37.0
 40
37.0
 40
38.0
 40
38.0
 40
38.0
 40
39.0
 40
39.0
 40
39.0
 40
40.0
 40
40.0
 40
40.0
 40
41.0
 40
41.0
 40
41.0
 40
42.0
 40
42.0
 40
42.0
 40
43.0
 40
43.0
 40
43.0
 40
44.0
 40
44.0
 40
44.0
 40
45.0
 40
45.0
 40
45.0
 40
46.0
 40
46.0
 40
46.0
 40
47.0
 40
47.0
 40
47.0
 40
48.0
 40
48.0
 40
48.0
 40
49.0
 40
49.0
 40
49.0
 40
50.0
 40
50.0
 40
50.0
 40
51.0
 40
51.0
 40
51.0
 40
52.0
 40
52.0
 40
52.0
 40
53.0
 40
53.0
 40
53.0
 40
54.0
 40
54.0
 40
54.0
 40
55.0
 40
55.0
 40
55.0
 40
56.0
 40
56.0
 40
56.0
 40
57.0
 40
57.0
 40
57.0
 40
58.0
 40
58.0
 40
58.0
 40
59.0
 40
59.0
 40
59.0
 40
60.0
 40
60.0
 40
60.0
 40
61.0
 40
61.0
 40
61.0
 40
62.0
 40
62.0
 40
62.0
 40
63.0
 40
63.0
 40
63.0
 40
64.0
 40
64.0
 40
64.0
 40
65.0
 40
65.0
 40
65.0
 40
66.0
 40
66.0
 40
66.0
 40
67.0
 40
67.0
 40
67.0
 40
68.0
 40
68.0
 40
68.0
 40
69.0
 40
69.0
 40
69.0
 40
70.0
 40
70.0
 40
70.0
 40
71.0
 40
71.0
 40
71.0
 40
72.0
 40
72.0
 40
72.0
 40
73.0
 40
73.0
 40
73.0
 40
74.0
 40
74.0
 40
74.0
 40
75.0
 40
75.0
 40
75.0
 40
76.0
 40
76.0
 40
76.0
 40
77.0
 40
77.0
 40
77.0
 40
78.0
 40
78.0
 40
78.0
 40
79.0
 40
79.0
 40
79.0
 40
79.0
 10
89.48291013387927
 20
-130.4595648545379
 10
89.48291013387927
 20
-130.4595648545379
 10
89.26070147508067
 20
-130.4595648545379
 10
89.26070147508067
 20
-130.4595648545379
 10
89.26070147508067
 20
-130.4595648545379
 10
89.01816675291907
 20
-130.4595648545379
 10
89.01816675291907
 20
-130.4595648545379
 10
89.01816675291907
 20
-130.4595648545379
 10
89.12927108231838
 20
-130.5019395290065
 10
89.12927108231838
 20
-130.5019395290065
 10
89.13857284012856
 20
-130.5060736435888
 10
89.14959714568135
 20
-130.5126193250107
 10
89.14959714568135
 20
-130.5253661783062
 10
89.14959714568135
 20
-130.5463812607662
 10
89.12186412702509
 20
-130.5525824326396
 10
89.103432866179
 20
-130.5570610567705
 10
89.09413110836883
 20
-130.5801431965216
 10
89.0681206374552
 20
-130.6459445202899
 10
89.051584179126
 20
-130.6903862520496
 10
89.051584179126
 20
-130.6903862520496
 10
89.28860674851119
 20
-130.6903862520496
 10
89.28860674851119
 20
-130.6903862520496
 10
89.36818845422046
 20
-130.6903862520496
 10
89.54044322848294
 20
-130.6859076279188
 10
89.66446666595195
 20
-130.6776393987542
 10
89.66446666595195
 20
-130.6776393987542
 10
89.66446666595195
 20
-130.8554063257931
 10
89.66446666595195
 20
-130.8554063257931
 10
89.59229191553595
 20
-130.8509277016623
 10
89.57368839991561
 20
-130.8509277016623
 10
89.4162475362397
 20
-130.84679358708
 10
89.38851451758343
 20
-131.0011338648192
 10
89.3495849386001
 20
-131.081749099174
 10
89.31082761439104
 20
-131.1513400279761
 10
89.4162475362397
 20
-131.2105956703224
 10
89.50892060479292
 20
-131.2784640513818
 10
89.59969887082924
 20
-131.3608018334793
 10
89.59969887082924
 20
-131.3608018334793
 10
89.49600149672322
 20
-131.5278889645139
 10
89.49600149672322
 20
-131.5278889645139
 10
89.475503178586
 20
-131.508940939345
 10
89.46447887303319
 20
-131.5003282006319
 10
89.36629365170357
 20
-131.4159233612432
 10
89.32374672246074
 20
-131.377682801357
 10
89.27189803540773
 20
-131.3418538083104
 10
89.20144583273436
 20
-131.2974120765506
 10
89.01627195040219
 20
-131.4834472327541
 10
88.83678247562067
 20
-131.5068738820538
 10
88.58305119313202
 20
-131.536501703227
 10
88.58305119313202
 20
-131.536501703227
 10
88.49227292709568
 20
-131.3566677188969
 10
88.49227292709568
 20
-131.3566677188969
 10
88.77011987798109
 20
-131.3525336043147
 10
88.92377113662323
 20
-131.3270398977238
 10
89.0570963319024
 20
-131.2171413517443
 10
88.95339895779638
 20
-131.1661539385626
 10
88.87553979982972
 20
-131.1385931746806
 10
88.84418943091396
 20
-131.1261908309337
 10
88.82748071781049
 20
-131.1534070852672
 10
88.8145616097408
 20
-131.1726996199846
 10
88.79044594134406
 20
-131.20646155574
 10
88.79044594134406
 20
-131.20646155574
 10
88.61819116708156
 20
-131.1237792640941
 10
88.61819116708156
 20
-131.1237792640941
 10
88.69036591749754
 20
-131.0435085392877
 10
88.74410940706746
 20
-130.9484239038948
 10
88.79406329160358
 20
-130.84679358708
 10
88.62749292489174
 20
-130.8509277016623
 10
88.6088894092714
 20
-130.8509277016623
 10
88.5367146588554
 20
-130.8554063257931
 10
88.5367146588554
 20
-130.8554063257931
 10
88.5367146588554
 20
-130.6776393987542
 10
88.5367146588554
 20
-130.6776393987542
 10
88.65901554858178
 20
-130.6838405706277
 10
88.84229462839707
 20
-130.68797468521
 10
88.86451549427693
 20
-130.68797468521
 10
88.87932940486351
 20
-130.6542127494545
 10
88.92738848688273
 20
-130.5336344074708
 10
88.9440971999862
 20
-130.4595648545379
 10
88.92738848688273
 20
-130.4595648545379
 10
88.7718424257237
 20
-130.4661105359599
 10
88.60148245397811
 20
-130.4788573892553
 10
88.60148245397811
 20
-130.4788573892553
 10
88.60148245397811
 20
-130.6118380749859
 10
88.60148245397811
 20
-130.6118380749859
 10
88.55893552473528
 20
-130.6373317815768
 10
88.50708683768227
 20
-130.6690266600411
 10
88.39047035550655
 20
-130.7348279838094
 10
88.39047035550655
 20
-130.7348279838094
 10
88.39047035550655
 20
-130.8805555228354
 10
88.39047035550655
 20
-130.8805555228354
 10
88.39047035550655
 20
-130.8805555228354
 10
88.39047035550655
 20
-131.3480549801838
 10
88.39047035550655
 20
-131.3480549801838
 10
88.39047035550655
 20
-131.4751790035895
 10
88.35894773181651
 20
-131.5344346459358
 10
88.11090085687853
 20
-131.5258219072227
 10
88.11090085687853
 20
-131.5258219072227
 10
88.02012259084219
 20
-131.3184271590107
 10
88.02012259084219
 20
-131.3184271590107
 10
88.07558862815472
 20
-131.3311740123061
 10
88.11830781217182
 20
-131.3353081268884
 10
88.15344778612136
 20
-131.3353081268884
 10
88.22011038376095
 20
-131.3353081268884
 10
88.22941214157112
 20
-131.3122259871372
 10
88.22941214157112
 20
-131.2467691729175
 10
88.22941214157112
 20
-131.2467691729175
 10
88.22941214157112
 20
-130.8171657659068
 10
88.22941214157112
 20
-130.8171657659068
 10
88.14414602831118
 20
-130.8574733830843
 10
88.12933211772462
 20
-130.8636745549577
 10
88.08867999099867
 20
-130.8826225801266
 10
88.0848903859649
 20
-130.9039821721351
 10
88.08127303570538
 20
-130.9336099933083
 10
88.06456432260192
 20
-130.9336099933083
 10
88.05715736730863
 20
-130.9336099933083
 10
88.04785560949846
 20
-130.929475878726
 10
88.04234345672205
 20
-130.9060492294263
 10
88.04234345672205
 20
-130.9060492294263
 10
87.99600692244545
 20
-130.7134683918008
 10
87.99600692244545
 20
-130.7134683918008
 10
88.12381996494821
 20
-130.6669596027499
 10
88.18118080477763
 20
-130.6438774629987
 10
88.22941214157112
 20
-130.6225178709902
 10
88.22941214157112
 20
-130.6225178709902
 10
88.22941214157112
 20
-130.2101399414058
 10
88.22941214157112
 20
-130.2101399414058
 10
88.22941214157112
 20
-130.2101399414058
 10
88.18307560729451
 20
-130.2101399414058
 10
88.18307560729451
 20
-130.2101399414058
 10
88.18307560729451
 20
-130.2101399414058
 10
88.11451820713805
 20
-130.2101399414058
 10
88.11451820713805
 20
-130.2101399414058
 10
88.05526256479175
 20
-130.2101399414058
 10
88.04785560949846
 20
-130.2101399414058
 10
88.01633298580842
 20
-130.2163411132792
 10
88.01633298580842
 20
-130.2163411132792
 10
88.01633298580842
 20
-130.0216932183626
 10
88.01633298580842
 20
-130.0216932183626
 10
88.04044865420516
 20
-130.0282388997846
 10
88.04785560949846
 20
-130.0282388997846
 10
88.10900605436164
 20
-130.0282388997846
 10
88.10900605436164
 20
-130.0282388997846
 10
88.22562253653734
 20
-130.0282388997846
 10
88.22562253653734
 20
-130.0282388997846
 10
88.22562253653734
 20
-129.958303461434
 10
88.22562253653734
 20
-129.875621169788
 10
88.22372773402046
 20
-129.8714870552057
 10
88.21632077872718
 20
-129.6916530708757
 10
88.21632077872718
 20
-129.6727050457068
 10
88.21459823098455
 20
-129.626196256656
 10
88.21459823098455
 20
-129.626196256656
 10
88.40338946357625
 20
-129.6344644858206
 10
88.40338946357625
 20
-129.6344644858206
 10
88.41269122138641
 20
-129.6344644858206
 10
88.4311224822325
 20
-129.6368760526602
 10
88.4311224822325
 20
-129.653757020538
 10
88.4311224822325
 20
-129.6727050457068
 10
88.41820337416281
 20
-129.6833848417111
 10
88.39598250828296
 20
-129.70233286688
 10
88.39598250828296
 20
-129.7529757705132
 10
88.39047035550655
 20
-129.9813856011852
 10
88.39236515802344
 20
-130.0282388997846
 10
88.50519203516538
 20
-130.0282388997846
 10
88.51638859549243
 20
-130.0282388997846
 10
88.60148245397811
 20
-130.0196261610715
 10
88.60148245397811
 20
-130.0196261610715
 10
88.60148245397811
 20
-130.2142740559881
 10
88.60148245397811
 20
-130.2142740559881
 10
88.56823728254544
 20
-130.212206998697
 10
88.50898164019915
 20
-130.2080728841146
 10
88.39047035550655
 20
-130.2101399414058
 10
88.39047035550655
 20
-130.2101399414058
 10
88.39047035550655
 20
-130.5484483180573
 10
88.39047035550655
 20
-130.5484483180573
 10
88.43852943752579
 20
-130.5253661783062
 10
88.49606253212946
 20
-130.4978054144242
 10
88.5386094613723
 20
-130.4743787651245
 10
88.5386094613723
 20
-130.4743787651245
 10
88.5386094613723
 20
-130.2966118380856
 10
88.5386094613723
 20
-130.2966118380856
 10
88.63851723044453
 20
-130.309358691381
 10
88.74221460455057
 20
-130.309358691381
 10
88.84418943091396
 20
-130.309358691381
 10
88.82369111277671
 20
-130.2142740559881
 10
88.79974769915424
 20
-130.1315917643421
 10
88.74410940706746
 20
-129.9986110786115
 10
88.70517982808413
 20
-130.0006781359026
 10
88.63300507766814
 20
-130.0048122504849
 10
88.59975990623548
 20
-130.0068793077761
 10
88.59975990623548
 20
-130.0068793077761
 10
88.59975990623548
 20
-129.827045323446
 10
88.59975990623548
 20
-129.827045323446
 10
88.7089694331179
 20
-129.8356580621592
 10
88.86072588924316
 20
-129.8397921767414
 10
88.93307289443341
 20
-129.8397921767414
 10
88.93307289443341
 20
-129.8397921767414
 10
89.00524764484939
 20
-129.8397921767414
 10
89.00524764484939
 20
-129.8397921767414
 10
89.00524764484939
 20
-129.6768391602891
 10
89.00524764484939
 20
-129.6665038738334
 10
89.0033528423325
 20
-129.6113823460694
 10
89.0033528423325
 20
-129.6113823460694
 10
89.19972328499173
 20
-129.6368760526602
 10
89.19972328499173
 20
-129.6368760526602
 10
89.20334063525125
 20
-129.6368760526602
 10
89.22194415087161
 20
-129.6389431099514
 10
89.22194415087161
 20
-129.6558240778291
 10
89.22194415087161
 20
-129.6706379884157
 10
89.21264239306143
 20
-129.6789062175803
 10
89.18852672466468
 20
-129.6937201281669
 10
89.18301457188828
 20
-129.7595214519351
 10
89.18111976937139
 20
-129.7805365343951
 10
89.18111976937139
 20
-129.8397921767414
 10
89.18111976937139
 20
-129.8397921767414
 10
89.26449108011444
 20
-129.8397921767414
 10
89.26449108011444
 20
-129.8397921767414
 10
89.33666583053042
 20
-129.8397921767414
 10
89.48859454142993
 20
-129.8356580621592
 10
89.59780406831236
 20
-129.827045323446
 10
89.59780406831236
 20
-129.827045323446
 10
89.59780406831236
 20
-130.0068793077761
 10
89.59780406831236
 20
-130.0068793077761
 10
89.57179359739872
 20
-130.0048122504849
 10
89.4680962232927
 20
-130.0006781359026
 10
89.43295624934315
 20
-129.9986110786115
 10
89.42003714127347
 20
-130.0492539822446
 10
89.39040932010032
 20
-130.1612195855153
 10
89.3330484802709
 20
-130.3010904622164
 10
89.37008325673735
 20
-130.3010904622164
 10
89.61261797889894
 20
-130.281797927499
 10
89.66636146846884
 20
-130.2797308702079
 10
89.66636146846884
 20
-130.2797308702079
 10
89.66636146846884
 20
-130.4640434786687
 10
89.66636146846884
 20
-130.4640434786687
 10
89.64035099755519
 20
-130.4640434786687
 10
89.62553708696862
 20
-130.4595648545379
 10
89.48291013387927
 20
-130.4595648545379
 97
        0
 97
        0
 92
        1
 93
        1
 72
     4
 94
        3
 73
     0
 74
     1
 95
       20
 96
       16
 40
0.0
 40
0.0
 40
0.0
 40
0.0
 40
1.0
 40
1.0
 40
1.0
 40
2.0
 40
2.0
 40
2.0
 40
3.0
 40
3.0
 40
3.0
 40
4.0
 40
4.0
 40
4.0
 40
5.0
 40
5.0
 40
5.0
 40
5.0
 10
88.93307289443341
 20
-129.9941324544806
 10
88.93307289443341
 20
-129.9941324544806
 10
88.90516762100287
 20
-129.9941324544806
 10
88.90516762100287
 20
-129.9941324544806
 10
88.94599200250309
 20
-130.0936957140044
 10
88.97372502115935
 20
-130.1739664388107
 10
89.0033528423325
 20
-130.3010904622164
 10
89.0033528423325
 20
-130.3010904622164
 10
89.18490937440517
 20
-130.3010904622164
 10
89.18490937440517
 20
-130.3010904622164
 10
89.21264239306143
 20
-130.2080728841146
 10
89.2329684564244
 20
-130.1233235351775
 10
89.25329451978737
 20
-129.9941324544806
 10
89.25329451978737
 20
-129.9941324544806
 10
88.93307289443341
 20
-129.9941324544806
 10
88.93307289443341
 20
-129.9941324544806
 97
        0
 97
        0
 92
        1
 93
        1
 72
     4
 94
        3
 73
     0
 74
     1
 95
       17
 96
       13
 40
0.0
 40
0.0
 40
0.0
 40
0.0
 40
1.0
 40
1.0
 40
1.0
 40
2.0
 40
2.0
 40
2.0
 40
3.0
 40
3.0
 40
3.0
 40
4.0
 40
4.0
 40
4.0
 40
4.0
 10
88.98853893174592
 20
-130.8447265297888
 10
88.97372502115935
 20
-130.874354350962
 10
88.92928328939963
 20
-130.9673719290637
 10
88.91998153158946
 20
-130.9863199542326
 10
89.08672415307555
 20
-131.0455755965789
 10
89.10515541392164
 20
-131.0521212780009
 10
89.16820066130171
 20
-131.0793375323343
 10
89.21625974332093
 20
-130.9928656356546
 10
89.23675806145818
 20
-130.9187960827217
 10
89.24967716952786
 20
-130.8447265297888
 10
89.24967716952786
 20
-130.8447265297888
 10
88.98853893174592
 20
-130.8447265297888
 10
88.98853893174592
 20
-130.8447265297888
 97
        0
 97
        0
 75
     2
 76
     1
 98
        0
  0
SPLINE
  5
123
330
11B
100
AcDbEntity
  8
_U+30EC_U+30A4_U+30E4_U+30FC 1
370
     0
100
AcDbSpline
210
0.0
220
0.0
230
1.0
 70
    11
 71
     3
 72
   203
 73
   199
 74
     0
 42
0.0000000001
 43
0.0000000001
 12
1.0
 22
0.0
 32
0.0
 13
1.0
 23
0.0
 33
0.0
 40
0.0
 40
0.0
 40
0.0
 40
0.0
 40
1.0
 40
1.0
 40
1.0
 40
2.0
 40
2.0
 40
2.0
 40
3.0
 40
3.0
 40
3.0
 40
4.0
 40
4.0
 40
4.0
 40
5.0
 40
5.0
 40
5.0
 40
6.0
 40
6.0
 40
6.0
 40
7.0
 40
7.0
 40
7.0
 40
8.0
 40
8.0
 40
8.0
 40
9.0
 40
9.0
 40
9.0
 40
10.0
 40
10.0
 40
10.0
 40
11.0
 40
11.0
 40
11.0
 40
12.0
 40
12.0
 40
12.0
 40
13.0
 40
13.0
 40
13.0
 40
14.0
 40
14.0
 40
14.0
 40
15.0
 40
15.0
 40
15.0
 40
16.0
 40
16.0
 40
16.0
 40
17.0
 40
17.0
 40
17.0
 40
18.0
 40
18.0
 40
18.0
 40
19.0
 40
19.0
 40
19.0
 40
20.0
 40
20.0
 40
20.0
 40
21.0
 40
21.0
 40
21.0
 40
22.0
 40
22.0
 40
22.0
 40
23.0
 40
23.0
 40
23.0
 40
24.0
 40
24.0
 40
24.0
 40
25.0
 40
25.0
 40
25.0
 40
26.0
 40
26.0
 40
26.0
 40
27.0
 40
27.0
 40
27.0
 40
28.0
 40
28.0
 40
28.0
 40
29.0
 40
29.0
 40
29.0
 40
30.0
 40
30.0
 40
30.0
 40
31.0
 40
31.0
 40
31.0
 40
32.0
 40
32.0
 40
32.0
 40
33.0
 40
33.0
 40
33.0
 40
34.0
 40
34.0
 40
34.0
 40
35.0
 40
35.0
 40
35.0
 40
36.0
 40
36.0
 40
36.0
 40
37.0
 40
37.0
 40
37.0
 40
38.0
 40
38.0
 40
38.0
 40
39.0
 40
39.0
 40
39.0
 40
40.0
 40
40.0
 40
40.0
 40
41.0
 40
41.0
 40
41.0
 40
42.0
 40
42.0
 40
42.0
 40
43.0
 40
43.0
 40
43.0
 40
44.0
 40
44.0
 40
44.0
 40
45.0
 40
45.0
 40
45.0
 40
46.0
 40
46.0
 40
46.0
 40
47.0
 40
47.0
 40
47.0
 40
48.0
 40
48.0
 40
48.0
 40
49.0
 40
49.0
 40
49.0
 40
50.0
 40
50.0
 40
50.0
 40
51.0
 40
51.0
 40
51.0
 40
52.0
 40
52.0
 40
52.0
 40
53.0
 40
53.0
 40
53.0
 40
54.0
 40
54.0
 40
54.0
 40
55.0
 40
55.0
 40
55.0
 40
56.0
 40
56.0
 40
56.0
 40
57.0
 40
57.0
 40
57.0
 40
58.0
 40
58.0
 40
58.0
 40
59.0
 40
59.0
 40
59.0
 40
60.0
 40
60.0
 40
60.0
 40
61.0
 40
61.0
 40
61.0
 40
62.0
 40
62.0
 40
62.0
 40
63.0
 40
63.0
 40
63.0
 40
64.0
 40
64.0
 40
64.0
 40
65.0
 40
65.0
 40
65.0
 40
66.0
 40
66.0
 40
66.0
 40
66.0
 10
90.96481795685949
 20
-130.5274332355973
 30
0.0
 10
90.96481795685949
 20
-130.5274332355973
 30
0.0
 10
90.47595890750254
 20
-130.5274332355973
 30
0.0
 10
90.47595890750254
 20
-130.5274332355973
 30
0.0
 10
90.46665714969237
 20
-130.571874967357
 30
0.0
 10
90.45925019439908
 20
-130.6035698458213
 30
0.0
 10
90.44822588884628
 20
-130.6414658961591
 30
0.0
 10
90.47027449995188
 20
-130.6414658961591
 30
0.0
 10
90.48336586279584
 20
-130.6438774629987
 30
0.0
 10
90.48887801557223
 20
-130.6438774629987
 30
0.0
 10
90.48887801557223
 20
-130.6438774629987
 30
0.0
 10
90.65372583454143
 20
-130.6438774629987
 30
0.0
 10
90.65372583454143
 20
-130.6438774629987
 30
0.0
 10
90.65372583454143
 20
-130.6438774629987
 30
0.0
 10
90.98152666996296
 20
-130.6438774629987
 30
0.0
 10
90.98152666996296
 20
-130.6438774629987
 30
0.0
 10
91.02596840172268
 20
-130.6438774629987
 30
0.0
 10
91.27401527666066
 20
-130.6311306097033
 30
0.0
 10
91.30174829531693
 20
-130.6311306097033
 30
0.0
 10
91.29985349280004
 20
-130.6586913735853
 30
0.0
 10
91.29813094505741
 20
-130.6776393987542
 30
0.0
 10
91.29813094505741
 20
-130.7072672199274
 30
0.0
 10
91.29623614254052
 20
-130.7389620983917
 30
0.0
 10
91.29623614254052
 20
-130.874354350962
 30
0.0
 10
91.29623614254052
 20
-130.901915114844
 30
0.0
 10
91.29623614254052
 20
-130.901915114844
 30
0.0
 10
91.29623614254052
 20
-131.1472059133937
 30
0.0
 10
91.29623614254052
 20
-131.1472059133937
 30
0.0
 10
91.29623614254052
 20
-131.1916476451535
 30
0.0
 10
91.29985349280004
 20
-131.3883625973612
 30
0.0
 10
91.30364309783381
 20
-131.5406358178093
 30
0.0
 10
91.30364309783381
 20
-131.5406358178093
 30
0.0
 10
91.10555010743195
 20
-131.5406358178093
 30
0.0
 10
91.10555010743195
 20
-131.5406358178093
 30
0.0
 10
91.10555010743195
 20
-131.5406358178093
 30
0.0
 10
91.10727265517457
 20
-131.5068738820538
 30
0.0
 10
91.10727265517457
 20
-131.5068738820538
 30
0.0
 10
91.10727265517457
 20
-131.5068738820538
 30
0.0
 10
90.492667620606
 20
-131.5068738820538
 30
0.0
 10
90.492667620606
 20
-131.5068738820538
 30
0.0
 10
90.492667620606
 20
-131.5068738820538
 30
0.0
 10
90.49439016834863
 20
-131.5406358178093
 30
0.0
 10
90.49439016834863
 20
-131.5406358178093
 30
0.0
 10
90.49439016834863
 20
-131.5406358178093
 30
0.0
 10
90.30370413324005
 20
-131.5406358178093
 30
0.0
 10
90.30370413324005
 20
-131.5406358178093
 30
0.0
 10
90.30732148349956
 20
-131.4855142900453
 30
0.0
 10
90.30732148349956
 20
-131.4731119462984
 30
0.0
 10
90.31300589105022
 20
-131.3587347761881
 30
0.0
 10
90.31490069356711
 20
-131.3311740123061
 30
0.0
 10
90.31662324130974
 20
-131.1978488170269
 30
0.0
 10
90.31662324130974
 20
-131.1789007918581
 30
0.0
 10
90.31662324130974
 20
-131.1789007918581
 30
0.0
 10
90.31662324130974
 20
-130.9759846677769
 30
0.0
 10
90.31662324130974
 20
-130.9759846677769
 30
0.0
 10
90.19449460635764
 20
-131.2254095809089
 30
0.0
 10
90.04635550049188
 20
-131.3566677188969
 30
0.0
 10
89.95368243193867
 20
-131.4221245331167
 30
0.0
 10
89.95368243193867
 20
-131.4221245331167
 30
0.0
 10
89.80192597581342
 20
-131.2825981659641
 30
0.0
 10
89.80192597581342
 20
-131.2825981659641
 30
0.0
 10
89.87961287900579
 20
-131.2319552623309
 30
0.0
 10
90.00553111899168
 20
-131.1451388561026
 30
0.0
 10
90.12593720620116
 20
-130.950490961186
 30
0.0
 10
90.20551891191043
 20
-130.8233669377803
 30
0.0
 10
90.26287975173985
 20
-130.6797064560454
 30
0.0
 10
90.29250757291298
 20
-130.5274332355973
 30
0.0
 10
90.0926920347685
 20
-130.5295002928885
 30
0.0
 10
89.93525117109257
 20
-130.5357014647619
 30
0.0
 10
89.85187986034954
 20
-130.5377685220531
 30
0.0
 10
89.85187986034954
 20
-130.5377685220531
 30
0.0
 10
89.85187986034954
 20
-130.3603461045627
 30
0.0
 10
89.85187986034954
 20
-130.3603461045627
 30
0.0
 10
90.02413463461203
 20
-130.3665472764361
 30
0.0
 10
90.27218150955001
 20
-130.3706813910185
 30
0.0
 10
90.40378415708656
 20
-130.3706813910185
 30
0.0
 10
90.40378415708656
 20
-130.3706813910185
 30
0.0
 10
90.59068058716136
 20
-130.3706813910185
 30
0.0
 10
90.59068058716136
 20
-130.3706813910185
 30
0.0
 10
90.59068058716136
 20
-130.3706813910185
 30
0.0
 10
90.59068058716136
 20
-130.2628499023301
 30
0.0
 10
90.59068058716136
 20
-130.2628499023301
 30
0.0
 10
90.59068058716136
 20
-130.2628499023301
 30
0.0
 10
90.46303979943285
 20
-130.2628499023301
 30
0.0
 10
90.46303979943285
 20
-130.2628499023301
 30
0.0
 10
90.31490069356711
 20
-130.2628499023301
 30
0.0
 10
90.16676158770137
 20
-130.2669840169124
 30
0.0
 10
90.02034502957825
 20
-130.2735296983344
 30
0.0
 10
90.02034502957825
 20
-130.2735296983344
 30
0.0
 10
90.02034502957825
 20
-130.1023084527175
 30
0.0
 10
90.02034502957825
 20
-130.1023084527175
 30
0.0
 10
90.15556502737431
 20
-130.1126437391732
 30
0.0
 10
90.31851804382663
 20
-130.1126437391732
 30
0.0
 10
90.46303979943285
 20
-130.1126437391732
 30
0.0
 10
90.46303979943285
 20
-130.1126437391732
 30
0.0
 10
90.59068058716136
 20
-130.1126437391732
 30
0.0
 10
90.59068058716136
 20
-130.1126437391732
 30
0.0
 10
90.59068058716136
 20
-130.1126437391732
 30
0.0
 10
90.59068058716136
 20
-129.9941324544806
 30
0.0
 10
90.59068058716136
 20
-129.9941324544806
 30
0.0
 10
90.59068058716136
 20
-129.9941324544806
 30
0.0
 10
90.47595890750254
 20
-129.9941324544806
 30
0.0
 10
90.47595890750254
 20
-129.9941324544806
 30
0.0
 10
90.43513452600233
 20
-129.9941324544806
 30
0.0
 10
90.25736759896344
 20
-130.0027451931938
 30
0.0
 10
90.220332822497
 20
-130.0027451931938
 30
0.0
 10
90.04256589545811
 20
-130.0068793077761
 30
0.0
 10
89.97590329781853
 20
-130.0089463650672
 30
0.0
 10
89.90734589766205
 20
-130.0110134223584
 30
0.0
 10
89.90734589766205
 20
-130.0110134223584
 30
0.0
 10
89.90734589766205
 20
-129.827045323446
 30
0.0
 10
89.90734589766205
 20
-129.827045323446
 30
0.0
 10
90.00742592150857
 20
-129.8356580621592
 30
0.0
 10
90.04635550049188
 20
-129.8356580621592
 30
0.0
 10
90.38139103643243
 20
-129.8439262913238
 30
0.0
 10
90.3259249991199
 20
-129.7488416559308
 30
0.0
 10
90.30180933072316
 20
-129.7212808920488
 30
0.0
 10
90.27045896180739
 20
-129.6854518990023
 30
0.0
 10
90.27045896180739
 20
-129.6854518990023
 30
0.0
 10
90.42411022044953
 20
-129.6027696073563
 30
0.0
 10
90.42411022044953
 20
-129.6027696073563
 30
0.0
 10
90.45925019439908
 20
-129.6389431099514
 30
0.0
 10
90.4981797733824
 20
-129.6813177844199
 30
0.0
 10
90.5629475685051
 20
-129.7912163303994
 30
0.0
 10
90.5629475685051
 20
-129.7912163303994
 30
0.0
 10
90.46303979943285
 20
-129.8463378581634
 30
0.0
 10
90.46303979943285
 20
-129.8463378581634
 30
0.0
 10
90.46303979943285
 20
-129.8463378581634
 30
0.0
 10
90.47216930246877
 20
-129.8463378581634
 30
0.0
 10
90.47216930246877
 20
-129.8463378581634
 30
0.0
 10
90.47216930246877
 20
-129.8463378581634
 30
0.0
 10
90.92950572813568
 20
-129.8463378581634
 30
0.0
 10
90.92950572813568
 20
-129.8463378581634
 30
0.0
 10
90.92950572813568
 20
-129.8463378581634
 30
0.0
 10
90.8463066721669
 20
-129.8018961264037
 30
0.0
 10
90.8463066721669
 20
-129.8018961264037
 30
0.0
 10
90.87025008578938
 20
-129.7636555665174
 30
0.0
 10
90.92037622509977
 20
-129.6833848417111
 30
0.0
 10
90.93329533316945
 20
-129.6093152887782
 30
0.0
 10
90.93329533316945
 20
-129.6093152887782
 30
0.0
 10
91.12036401801852
 20
-129.6727050457068
 30
0.0
 10
91.12036401801852
 20
-129.6727050457068
 30
0.0
 10
91.12777097331181
 20
-129.674772102998
 30
0.0
 10
91.1462022341579
 20
-129.6854518990023
 30
0.0
 10
91.1462022341579
 20
-129.7064669814623
 30
0.0
 10
91.1462022341579
 20
-129.7447075413486
 30
0.0
 10
91.08884139432848
 20
-129.7447075413486
 30
0.0
 10
91.07213268122503
 20
-129.7447075413486
 30
0.0
 10
91.06283092341485
 20
-129.7636555665174
 30
0.0
 10
91.04250486005188
 20
-129.8039631836949
 30
0.0
 10
91.0166666439125
 20
-129.8439262913238
 30
0.0
 10
91.36668834521389
 20
-129.8377251194503
 30
0.0
 10
91.39252656135326
 20
-129.8356580621592
 30
0.0
 10
91.45901690421859
 20
-129.8291123807372
 30
0.0
 10
91.45901690421859
 20
-129.8291123807372
 30
0.0
 10
91.45901690421859
 20
-130.0110134223584
 30
0.0
 10
91.45901690421859
 20
-130.0110134223584
 30
0.0
 10
91.44248044588939
 20
-130.0110134223584
 30
0.0
 10
91.42043183478378
 20
-130.0089463650672
 30
0.0
 10
91.22767874238406
 20
-130.0006781359026
 30
0.0
 10
91.18323701062434
 20
-129.9986110786115
 30
0.0
 10
90.99065617299887
 20
-129.9941324544806
 30
0.0
 10
90.95189884878981
 20
-129.9941324544806
 30
0.0
 10
90.95189884878981
 20
-129.9941324544806
 30
0.0
 10
90.76293536142386
 20
-129.9941324544806
 30
0.0
 10
90.76293536142386
 20
-129.9941324544806
 30
0.0
 10
90.76293536142386
 20
-129.9941324544806
 30
0.0
 10
90.76293536142386
 20
-130.1126437391732
 30
0.0
 10
90.76293536142386
 20
-130.1126437391732
 30
0.0
 10
90.76293536142386
 20
-130.1126437391732
 30
0.0
 10
90.91469181754911
 20
-130.1126437391732
 30
0.0
 10
90.91469181754911
 20
-130.1126437391732
 30
0.0
 10
91.05731877063845
 20
-130.1126437391732
 30
0.0
 10
91.22406139212454
 20
-130.1126437391732
 30
0.0
 10
91.36100393766323
 20
-130.1023084527175
 30
0.0
 10
91.36100393766323
 20
-130.1023084527175
 30
0.0
 10
91.36100393766323
 20
-130.2735296983344
 30
0.0
 10
91.36100393766323
 20
-130.2735296983344
 30
0.0
 10
91.17772485784793
 20
-130.2649169596213
 30
0.0
 10
91.00547008358544
 20
-130.2628499023301
 30
0.0
 10
90.91469181754911
 20
-130.2628499023301
 30
0.0
 10
90.91469181754911
 20
-130.2628499023301
 30
0.0
 10
90.76293536142386
 20
-130.2628499023301
 30
0.0
 10
90.76293536142386
 20
-130.2628499023301
 30
0.0
 10
90.76293536142386
 20
-130.2628499023301
 30
0.0
 10
90.76293536142386
 20
-130.3706813910185
 30
0.0
 10
90.76293536142386
 20
-130.3706813910185
 30
0.0
 10
90.76293536142386
 20
-130.3706813910185
 30
0.0
 10
90.96481795685949
 20
-130.3706813910185
 30
0.0
 10
90.96481795685949
 20
-130.3706813910185
 30
0.0
 10
91.0814344390352
 20
-130.3706813910185
 30
0.0
 10
91.33327091900696
 20
-130.3665472764361
 30
0.0
 10
91.51654999882226
 20
-130.3603461045627
 30
0.0
 10
91.51654999882226
 20
-130.3603461045627
 30
0.0
 10
91.51654999882226
 20
-130.5377685220531
 30
0.0
 10
91.51654999882226
 20
-130.5377685220531
 30
0.0
 10
91.34808482959353
 20
-130.5315673501796
 30
0.0
 10
91.07402748374192
 20
-130.5274332355973
 30
0.0
 10
90.96481795685949
 20
-130.5274332355973
 30
0.0
  0
POLYLINE
  5
124
330
11B
100
AcDbEntity
  8
_U+30EC_U+30A4_U+30E4_U+30FC 1
370
     0
100
AcDb2dPolyline
 66
     1
 10
0.0
 20
0.0
 30
0.0
  0
VERTEX
  5
125
330
124
100
AcDbEntity
  8
_U+30EC_U+30A4_U+30E4_U+30FC 1
370
     0
100
AcDbVertex
100
AcDb2dVertex
 10
91.10916745769146
 20
-130.7834038301514
 30
0.0
  0
VERTEX
  5
126
330
124
100
AcDbEntity
  8
_U+30EC_U+30A4_U+30E4_U+30FC 1
370
     0
100
AcDbVertex
100
AcDb2dVertex
 10
90.49077281808911
 20
-130.7834038301514
 30
0.0
  0
VERTEX
  5
127
330
124
100
AcDbEntity
  8
_U+30EC_U+30A4_U+30E4_U+30FC 1
370
     0
100
AcDbVertex
100
AcDb2dVertex
 10
90.49077281808911
 20
-130.8912353188397
 30
0.0
  0
VERTEX
  5
128
330
124
100
AcDbEntity
  8
_U+30EC_U+30A4_U+30E4_U+30FC 1
370
     0
100
AcDbVertex
100
AcDb2dVertex
 10
91.10916745769146
 20
-130.8912353188397
 30
0.0
  0
VERTEX
  5
129
330
124
100
AcDbEntity
  8
_U+30EC_U+30A4_U+30E4_U+30FC 1
370
     0
100
AcDbVertex
100
AcDb2dVertex
 10
91.10916745769146
 20
-130.7834038301514
 30
0.0
  0
SEQEND
  5
12A
330
124
100
AcDbEntity
  8
_U+30EC_U+30A4_U+30E4_U+30FC 1
370
     0
  0
POLYLINE
  5
12B
330
11B
100
AcDbEntity
  8
_U+30EC_U+30A4_U+30E4_U+30FC 1
370
     0
100
AcDb2dPolyline
 66
     1
 10
0.0
 20
0.0
 30
0.0
  0
VERTEX
  5
12C
330
12B
100
AcDbEntity
  8
_U+30EC_U+30A4_U+30E4_U+30FC 1
370
     0
100
AcDbVertex
100
AcDb2dVertex
 10
91.10916745769146
 20
-131.0159477754057
 30
0.0
  0
VERTEX
  5
12D
330
12B
100
AcDbEntity
  8
_U+30EC_U+30A4_U+30E4_U+30FC 1
370
     0
100
AcDbVertex
100
AcDb2dVertex
 10
90.49077281808911
 20
-131.0159477754057
 30
0.0
  0
VERTEX
  5
12E
330
12B
100
AcDbEntity
  8
_U+30EC_U+30A4_U+30E4_U+30FC 1
370
     0
100
AcDbVertex
100
AcDb2dVertex
 10
90.49077281808911
 20
-131.130324945516
 30
0.0
  0
VERTEX
  5
12F
330
12B
100
AcDbEntity
  8
_U+30EC_U+30A4_U+30E4_U+30FC 1
370
     0
100
AcDbVertex
100
AcDb2dVertex
 10
91.10916745769146
 20
-131.130324945516
 30
0.0
  0
VERTEX
  5
130
330
12B
100
AcDbEntity
  8
_U+30EC_U+30A4_U+30E4_U+30FC 1
370
     0
100
AcDbVertex
100
AcDb2dVertex
 10
91.10916745769146
 20
-131.0159477754057
 30
0.0
  0
SEQEND
  5
131
330
12B
100
AcDbEntity
  8
_U+30EC_U+30A4_U+30E4_U+30FC 1
370
     0
  0
POLYLINE
  5
132
330
11B
100
AcDbEntity
  8
_U+30EC_U+30A4_U+30E4_U+30FC 1
370
     0
100
AcDb2dPolyline
 66
     1
 10
0.0
 20
0.0
 30
0.0
  0
VERTEX
  5
133
330
132
100
AcDbEntity
  8
_U+30EC_U+30A4_U+30E4_U+30FC 1
370
     0
100
AcDbVertex
100
AcDb2dVertex
 10
91.10916745769146
 20
-131.2591715166644
 30
0.0
  0
VERTEX
  5
134
330
132
100
AcDbEntity
  8
_U+30EC_U+30A4_U+30E4_U+30FC 1
370
     0
100
AcDbVertex
100
AcDb2dVertex
 10
90.49077281808911
 20
-131.2591715166644
 30
0.0
  0
VERTEX
  5
135
330
132
100
AcDbEntity
  8
_U+30EC_U+30A4_U+30E4_U+30FC 1
370
     0
100
AcDbVertex
100
AcDb2dVertex
 10
90.49077281808911
 20
-131.3735486867747
 30
0.0
  0
VERTEX
  5
136
330
132
100
AcDbEntity
  8
_U+30EC_U+30A4_U+30E4_U+30FC 1
370
     0
100
AcDbVertex
100
AcDb2dVertex
 10
91.10916745769146
 20
-131.3735486867747
 30
0.0
  0
VERTEX
  5
137
330
132
100
AcDbEntity
  8
_U+30EC_U+30A4_U+30E4_U+30FC 1
370
     0
100
AcDbVertex
100
AcDb2dVertex
 10
91.10916745769146
 20
-131.2591715166644
 30
0.0
  0
SEQEND
  5
138
330
132
100
AcDbEntity
  8
_U+30EC_U+30A4_U+30E4_U+30FC 1
370
     0
  0
HATCH
  5
139
330
11B
100
AcDbEntity
  8
_U+30EC_U+30A4_U+30E4_U+30FC 1
 62
     7
420
 16777215
100
AcDbHatch
 10
0.0
 20
0.0
 30
0.0
210
0.0
220
0.0
230
1.0
  2
SOLID
 70
     1
 71
     0
 91
        4
 92
        1
 93
        1
 72
     4
 94
        3
 73
     0
 74
     1
 95
      203
 96
      199
 40
0.0
 40
0.0
 40
0.0
 40
0.0
 40
1.0
 40
1.0
 40
1.0
 40
2.0
 40
2.0
 40
2.0
 40
3.0
 40
3.0
 40
3.0
 40
4.0
 40
4.0
 40
4.0
 40
5.0
 40
5.0
 40
5.0
 40
6.0
 40
6.0
 40
6.0
 40
7.0
 40
7.0
 40
7.0
 40
8.0
 40
8.0
 40
8.0
 40
9.0
 40
9.0
 40
9.0
 40
10.0
 40
10.0
 40
10.0
 40
11.0
 40
11.0
 40
11.0
 40
12.0
 40
12.0
 40
12.0
 40
13.0
 40
13.0
 40
13.0
 40
14.0
 40
14.0
 40
14.0
 40
15.0
 40
15.0
 40
15.0
 40
16.0
 40
16.0
 40
16.0
 40
17.0
 40
17.0
 40
17.0
 40
18.0
 40
18.0
 40
18.0
 40
19.0
 40
19.0
 40
19.0
 40
20.0
 40
20.0
 40
20.0
 40
21.0
 40
21.0
 40
21.0
 40
22.0
 40
22.0
 40
22.0
 40
23.0
 40
23.0
 40
23.0
 40
24.0
 40
24.0
 40
24.0
 40
25.0
 40
25.0
 40
25.0
 40
26.0
 40
26.0
 40
26.0
 40
27.0
 40
27.0
 40
27.0
 40
28.0
 40
28.0
 40
28.0
 40
29.0
 40
29.0
 40
29.0
 40
30.0
 40
30.0
 40
30.0
 40
31.0
 40
31.0
 40
31.0
 40
32.0
 40
32.0
 40
32.0
 40
33.0
 40
33.0
 40
33.0
 40
34.0
 40
34.0
 40
34.0
 40
35.0
 40
35.0
 40
35.0
 40
36.0
 40
36.0
 40
36.0
 40
37.0
 40
37.0
 40
37.0
 40
38.0
 40
38.0
 40
38.0
 40
39.0
 40
39.0
 40
39.0
 40
40.0
 40
40.0
 40
40.0
 40
41.0
 40
41.0
 40
41.0
 40
42.0
 40
42.0
 40
42.0
 40
43.0
 40
43.0
 40
43.0
 40
44.0
 40
44.0
 40
44.0
 40
45.0
 40
45.0
 40
45.0
 40
46.0
 40
46.0
 40
46.0
 40
47.0
 40
47.0
 40
47.0
 40
48.0
 40
48.0
 40
48.0
 40
49.0
 40
49.0
 40
49.0
 40
50.0
 40
50.0
 40
50.0
 40
51.0
 40
51.0
 40
51.0
 40
52.0
 40
52.0
 40
52.0
 40
53.0
 40
53.0
 40
53.0
 40
54.0
 40
54.0
 40
54.0
 40
55.0
 40
55.0
 40
55.0
 40
56.0
 40
56.0
 40
56.0
 40
57.0
 40
57.0
 40
57.0
 40
58.0
 40
58.0
 40
58.0
 40
59.0
 40
59.0
 40
59.0
 40
60.0
 40
60.0
 40
60.0
 40
61.0
 40
61.0
 40
61.0
 40
62.0
 40
62.0
 40
62.0
 40
63.0
 40
63.0
 40
63.0
 40
64.0
 40
64.0
 40
64.0
 40
65.0
 40
65.0
 40
65.0
 40
66.0
 40
66.0
 40
66.0
 40
66.0
 10
90.96481795685949
 20
-130.5274332355973
 10
90.96481795685949
 20
-130.5274332355973
 10
90.47595890750254
 20
-130.5274332355973
 10
90.47595890750254
 20
-130.5274332355973
 10
90.46665714969237
 20
-130.571874967357
 10
90.45925019439908
 20
-130.6035698458213
 10
90.44822588884628
 20
-130.6414658961591
 10
90.47027449995188
 20
-130.6414658961591
 10
90.48336586279584
 20
-130.6438774629987
 10
90.48887801557223
 20
-130.6438774629987
 10
90.48887801557223
 20
-130.6438774629987
 10
90.65372583454143
 20
-130.6438774629987
 10
90.65372583454143
 20
-130.6438774629987
 10
90.65372583454143
 20
-130.6438774629987
 10
90.98152666996296
 20
-130.6438774629987
 10
90.98152666996296
 20
-130.6438774629987
 10
91.02596840172268
 20
-130.6438774629987
 10
91.27401527666066
 20
-130.6311306097033
 10
91.30174829531693
 20
-130.6311306097033
 10
91.29985349280004
 20
-130.6586913735853
 10
91.29813094505741
 20
-130.6776393987542
 10
91.29813094505741
 20
-130.7072672199274
 10
91.29623614254052
 20
-130.7389620983917
 10
91.29623614254052
 20
-130.874354350962
 10
91.29623614254052
 20
-130.901915114844
 10
91.29623614254052
 20
-130.901915114844
 10
91.29623614254052
 20
-131.1472059133937
 10
91.29623614254052
 20
-131.1472059133937
 10
91.29623614254052
 20
-131.1916476451535
 10
91.29985349280004
 20
-131.3883625973612
 10
91.30364309783381
 20
-131.5406358178093
 10
91.30364309783381
 20
-131.5406358178093
 10
91.10555010743195
 20
-131.5406358178093
 10
91.10555010743195
 20
-131.5406358178093
 10
91.10555010743195
 20
-131.5406358178093
 10
91.10727265517457
 20
-131.5068738820538
 10
91.10727265517457
 20
-131.5068738820538
 10
91.10727265517457
 20
-131.5068738820538
 10
90.492667620606
 20
-131.5068738820538
 10
90.492667620606
 20
-131.5068738820538
 10
90.492667620606
 20
-131.5068738820538
 10
90.49439016834863
 20
-131.5406358178093
 10
90.49439016834863
 20
-131.5406358178093
 10
90.49439016834863
 20
-131.5406358178093
 10
90.30370413324005
 20
-131.5406358178093
 10
90.30370413324005
 20
-131.5406358178093
 10
90.30732148349956
 20
-131.4855142900453
 10
90.30732148349956
 20
-131.4731119462984
 10
90.31300589105022
 20
-131.3587347761881
 10
90.31490069356711
 20
-131.3311740123061
 10
90.31662324130974
 20
-131.1978488170269
 10
90.31662324130974
 20
-131.1789007918581
 10
90.31662324130974
 20
-131.1789007918581
 10
90.31662324130974
 20
-130.9759846677769
 10
90.31662324130974
 20
-130.9759846677769
 10
90.19449460635764
 20
-131.2254095809089
 10
90.04635550049188
 20
-131.3566677188969
 10
89.95368243193867
 20
-131.4221245331167
 10
89.95368243193867
 20
-131.4221245331167
 10
89.80192597581342
 20
-131.2825981659641
 10
89.80192597581342
 20
-131.2825981659641
 10
89.87961287900579
 20
-131.2319552623309
 10
90.00553111899168
 20
-131.1451388561026
 10
90.12593720620116
 20
-130.950490961186
 10
90.20551891191043
 20
-130.8233669377803
 10
90.26287975173985
 20
-130.6797064560454
 10
90.29250757291298
 20
-130.5274332355973
 10
90.0926920347685
 20
-130.5295002928885
 10
89.93525117109257
 20
-130.5357014647619
 10
89.85187986034954
 20
-130.5377685220531
 10
89.85187986034954
 20
-130.5377685220531
 10
89.85187986034954
 20
-130.3603461045627
 10
89.85187986034954
 20
-130.3603461045627
 10
90.02413463461203
 20
-130.3665472764361
 10
90.27218150955001
 20
-130.3706813910185
 10
90.40378415708656
 20
-130.3706813910185
 10
90.40378415708656
 20
-130.3706813910185
 10
90.59068058716136
 20
-130.3706813910185
 10
90.59068058716136
 20
-130.3706813910185
 10
90.59068058716136
 20
-130.3706813910185
 10
90.59068058716136
 20
-130.2628499023301
 10
90.59068058716136
 20
-130.2628499023301
 10
90.59068058716136
 20
-130.2628499023301
 10
90.46303979943285
 20
-130.2628499023301
 10
90.46303979943285
 20
-130.2628499023301
 10
90.31490069356711
 20
-130.2628499023301
 10
90.16676158770137
 20
-130.2669840169124
 10
90.02034502957825
 20
-130.2735296983344
 10
90.02034502957825
 20
-130.2735296983344
 10
90.02034502957825
 20
-130.1023084527175
 10
90.02034502957825
 20
-130.1023084527175
 10
90.15556502737431
 20
-130.1126437391732
 10
90.31851804382663
 20
-130.1126437391732
 10
90.46303979943285
 20
-130.1126437391732
 10
90.46303979943285
 20
-130.1126437391732
 10
90.59068058716136
 20
-130.1126437391732
 10
90.59068058716136
 20
-130.1126437391732
 10
90.59068058716136
 20
-130.1126437391732
 10
90.59068058716136
 20
-129.9941324544806
 10
90.59068058716136
 20
-129.9941324544806
 10
90.59068058716136
 20
-129.9941324544806
 10
90.47595890750254
 20
-129.9941324544806
 10
90.47595890750254
 20
-129.9941324544806
 10
90.43513452600233
 20
-129.9941324544806
 10
90.25736759896344
 20
-130.0027451931938
 10
90.220332822497
 20
-130.0027451931938
 10
90.04256589545811
 20
-130.0068793077761
 10
89.97590329781853
 20
-130.0089463650672
 10
89.90734589766205
 20
-130.0110134223584
 10
89.90734589766205
 20
-130.0110134223584
 10
89.90734589766205
 20
-129.827045323446
 10
89.90734589766205
 20
-129.827045323446
 10
90.00742592150857
 20
-129.8356580621592
 10
90.04635550049188
 20
-129.8356580621592
 10
90.38139103643243
 20
-129.8439262913238
 10
90.3259249991199
 20
-129.7488416559308
 10
90.30180933072316
 20
-129.7212808920488
 10
90.27045896180739
 20
-129.6854518990023
 10
90.27045896180739
 20
-129.6854518990023
 10
90.42411022044953
 20
-129.6027696073563
 10
90.42411022044953
 20
-129.6027696073563
 10
90.45925019439908
 20
-129.6389431099514
 10
90.4981797733824
 20
-129.6813177844199
 10
90.5629475685051
 20
-129.7912163303994
 10
90.5629475685051
 20
-129.7912163303994
 10
90.46303979943285
 20
-129.8463378581634
 10
90.46303979943285
 20
-129.8463378581634
 10
90.46303979943285
 20
-129.8463378581634
 10
90.47216930246877
 20
-129.8463378581634
 10
90.47216930246877
 20
-129.8463378581634
 10
90.47216930246877
 20
-129.8463378581634
 10
90.92950572813568
 20
-129.8463378581634
 10
90.92950572813568
 20
-129.8463378581634
 10
90.92950572813568
 20
-129.8463378581634
 10
90.8463066721669
 20
-129.8018961264037
 10
90.8463066721669
 20
-129.8018961264037
 10
90.87025008578938
 20
-129.7636555665174
 10
90.92037622509977
 20
-129.6833848417111
 10
90.93329533316945
 20
-129.6093152887782
 10
90.93329533316945
 20
-129.6093152887782
 10
91.12036401801852
 20
-129.6727050457068
 10
91.12036401801852
 20
-129.6727050457068
 10
91.12777097331181
 20
-129.674772102998
 10
91.1462022341579
 20
-129.6854518990023
 10
91.1462022341579
 20
-129.7064669814623
 10
91.1462022341579
 20
-129.7447075413486
 10
91.08884139432848
 20
-129.7447075413486
 10
91.07213268122503
 20
-129.7447075413486
 10
91.06283092341485
 20
-129.7636555665174
 10
91.04250486005188
 20
-129.8039631836949
 10
91.0166666439125
 20
-129.8439262913238
 10
91.36668834521389
 20
-129.8377251194503
 10
91.39252656135326
 20
-129.8356580621592
 10
91.45901690421859
 20
-129.8291123807372
 10
91.45901690421859
 20
-129.8291123807372
 10
91.45901690421859
 20
-130.0110134223584
 10
91.45901690421859
 20
-130.0110134223584
 10
91.44248044588939
 20
-130.0110134223584
 10
91.42043183478378
 20
-130.0089463650672
 10
91.22767874238406
 20
-130.0006781359026
 10
91.18323701062434
 20
-129.9986110786115
 10
90.99065617299887
 20
-129.9941324544806
 10
90.95189884878981
 20
-129.9941324544806
 10
90.95189884878981
 20
-129.9941324544806
 10
90.76293536142386
 20
-129.9941324544806
 10
90.76293536142386
 20
-129.9941324544806
 10
90.76293536142386
 20
-129.9941324544806
 10
90.76293536142386
 20
-130.1126437391732
 10
90.76293536142386
 20
-130.1126437391732
 10
90.76293536142386
 20
-130.1126437391732
 10
90.91469181754911
 20
-130.1126437391732
 10
90.91469181754911
 20
-130.1126437391732
 10
91.05731877063845
 20
-130.1126437391732
 10
91.22406139212454
 20
-130.1126437391732
 10
91.36100393766323
 20
-130.1023084527175
 10
91.36100393766323
 20
-130.1023084527175
 10
91.36100393766323
 20
-130.2735296983344
 10
91.36100393766323
 20
-130.2735296983344
 10
91.17772485784793
 20
-130.2649169596213
 10
91.00547008358544
 20
-130.2628499023301
 10
90.91469181754911
 20
-130.2628499023301
 10
90.91469181754911
 20
-130.2628499023301
 10
90.76293536142386
 20
-130.2628499023301
 10
90.76293536142386
 20
-130.2628499023301
 10
90.76293536142386
 20
-130.2628499023301
 10
90.76293536142386
 20
-130.3706813910185
 10
90.76293536142386
 20
-130.3706813910185
 10
90.76293536142386
 20
-130.3706813910185
 10
90.96481795685949
 20
-130.3706813910185
 10
90.96481795685949
 20
-130.3706813910185
 10
91.0814344390352
 20
-130.3706813910185
 10
91.33327091900696
 20
-130.3665472764361
 10
91.51654999882226
 20
-130.3603461045627
 10
91.51654999882226
 20
-130.3603461045627
 10
91.51654999882226
 20
-130.5377685220531
 10
91.51654999882226
 20
-130.5377685220531
 10
91.34808482959353
 20
-130.5315673501796
 10
91.07402748374192
 20
-130.5274332355973
 10
90.96481795685949
 20
-130.5274332355973
 97
        0
 97
        0
 92
        1
 93
        4
 72
     1
 10
91.10916745769146
 20
-130.7834038301514
 11
90.49077281808911
 21
-130.7834038301514
 72
     1
 10
90.49077281808911
 20
-130.7834038301514
 11
90.49077281808911
 21
-130.8912353188397
 72
     1
 10
90.49077281808911
 20
-130.8912353188397
 11
91.10916745769146
 21
-130.8912353188397
 72
     1
 10
91.10916745769146
 20
-130.8912353188397
 11
91.10916745769146
 21
-130.7834038301514
 97
        0
 92
        1
 93
        4
 72
     1
 10
91.10916745769146
 20
-131.0159477754057
 11
90.49077281808911
 21
-131.0159477754057
 72
     1
 10
90.49077281808911
 20
-131.0159477754057
 11
90.49077281808911
 21
-131.130324945516
 72
     1
 10
90.49077281808911
 20
-131.130324945516
 11
91.10916745769146
 21
-131.130324945516
 72
     1
 10
91.10916745769146
 20
-131.130324945516
 11
91.10916745769146
 21
-131.0159477754057
 97
        0
 92
        1
 93
        4
 72
     1
 10
91.10916745769146
 20
-131.2591715166644
 11
90.49077281808911
 21
-131.2591715166644
 72
     1
 10
90.49077281808911
 20
-131.2591715166644
 11
90.49077281808911
 21
-131.3735486867747
 72
     1
 10
90.49077281808911
 20
-131.3735486867747
 11
91.10916745769146
 21
-131.3735486867747
 72
     1
 10
91.10916745769146
 20
-131.3735486867747
 11
91.10916745769146
 21
-131.2591715166644
 97
        0
 75
     2
 76
     1
 98
        0
  0
SPLINE
  5
13A
330
11B
100
AcDbEntity
  8
_U+30EC_U+30A4_U+30E4_U+30FC 1
370
     0
100
AcDbSpline
210
0.0
220
0.0
230
1.0
 70
    11
 71
     3
 72
    47
 73
    43
 74
     0
 42
0.0000000001
 43
0.0000000001
 12
1.0
 22
0.0
 32
0.0
 13
1.0
 23
0.0
 33
0.0
 40
0.0
 40
0.0
 40
0.0
 40
0.0
 40
1.0
 40
1.0
 40
1.0
 40
2.0
 40
2.0
 40
2.0
 40
3.0
 40
3.0
 40
3.0
 40
4.0
 40
4.0
 40
4.0
 40
5.0
 40
5.0
 40
5.0
 40
6.0
 40
6.0
 40
6.0
 40
7.0
 40
7.0
 40
7.0
 40
8.0
 40
8.0
 40
8.0
 40
9.0
 40
9.0
 40
9.0
 40
10.0
 40
10.0
 40
10.0
 40
11.0
 40
11.0
 40
11.0
 40
12.0
 40
12.0
 40
12.0
 40
13.0
 40
13.0
 40
13.0
 40
14.0
 40
14.0
 40
14.0
 40
14.0
 10
92.69649520252032
 20
-130.5040065862976
 30
0.0
 10
92.69649520252032
 20
-130.5040065862976
 30
0.0
 10
92.60761173900087
 20
-130.5040065862976
 30
0.0
 10
92.60761173900087
 20
-130.5040065862976
 30
0.0
 10
92.60761173900087
 20
-130.5908229925259
 30
0.0
 10
92.58900822338053
 20
-130.9801187823591
 30
0.0
 10
92.41675344911803
 20
-131.2002603838666
 30
0.0
 10
92.28342825383886
 20
-131.3694145721924
 30
0.0
 10
92.10221623131473
 20
-131.4390055009944
 30
0.0
 10
92.02814667838186
 20
-131.4665662648764
 30
0.0
 10
92.02814667838186
 20
-131.4665662648764
 30
0.0
 10
91.85761445186199
 20
-131.2994791338418
 30
0.0
 10
91.85761445186199
 20
-131.2994791338418
 30
0.0
 10
91.94270831034765
 20
-131.2867322805464
 30
0.0
 10
92.0963595689898
 20
-131.2636501407952
 30
0.0
 10
92.26137964273327
 20
-131.075203417752
 30
0.0
 10
92.32614743785597
 20
-131.0032009221103
 30
0.0
 10
92.41675344911803
 20
-130.8636745549577
 30
0.0
 10
92.41675344911803
 20
-130.5040065862976
 30
0.0
 10
92.41675344911803
 20
-130.5040065862976
 30
0.0
 10
92.2148708536824
 20
-130.5040065862976
 30
0.0
 10
92.2148708536824
 20
-130.5040065862976
 30
0.0
 10
92.05191783723008
 20
-130.5040065862976
 30
0.0
 10
91.88896482077776
 20
-130.5084852104284
 30
0.0
 10
91.72601180432545
 20
-130.5229546114665
 30
0.0
 10
91.72601180432545
 20
-130.5229546114665
 30
0.0
 10
91.72601180432545
 20
-130.3031575195076
 30
0.0
 10
91.72601180432545
 20
-130.3031575195076
 30
0.0
 10
91.89103187806892
 20
-130.3179714300941
 30
0.0
 10
92.14080130074953
 20
-130.3221055446764
 30
0.0
 10
92.2148708536824
 20
-130.3221055446764
 30
0.0
 10
92.2148708536824
 20
-130.3221055446764
 30
0.0
 10
92.69649520252032
 20
-130.3221055446764
 30
0.0
 10
92.69649520252032
 20
-130.3221055446764
 30
0.0
 10
92.71303166084952
 20
-130.3221055446764
 30
0.0
 10
92.99105086650918
 20
-130.3221055446764
 30
0.0
 10
93.19086640465368
 20
-130.3031575195076
 30
0.0
 10
93.19086640465368
 20
-130.3031575195076
 30
0.0
 10
93.19086640465368
 20
-130.5229546114665
 30
0.0
 10
93.19086640465368
 20
-130.5229546114665
 30
0.0
 10
93.02619084045874
 20
-130.5084852104284
 30
0.0
 10
92.86117076671526
 20
-130.5040065862976
 30
0.0
 10
92.69649520252032
 20
-130.5040065862976
 30
0.0
  0
SPLINE
  5
13B
330
11B
100
AcDbEntity
  8
_U+30EC_U+30A4_U+30E4_U+30FC 1
370
     0
100
AcDbSpline
210
0.0
220
0.0
230
1.0
 70
    11
 71
     3
 72
    29
 73
    25
 74
     0
 42
0.0000000001
 43
0.0000000001
 12
1.0
 22
0.0
 32
0.0
 13
1.0
 23
0.0
 33
0.0
 40
0.0
 40
0.0
 40
0.0
 40
0.0
 40
1.0
 40
1.0
 40
1.0
 40
2.0
 40
2.0
 40
2.0
 40
3.0
 40
3.0
 40
3.0
 40
4.0
 40
4.0
 40
4.0
 40
5.0
 40
5.0
 40
5.0
 40
6.0
 40
6.0
 40
6.0
 40
7.0
 40
7.0
 40
7.0
 40
8.0
 40
8.0
 40
8.0
 40
8.0
 10
92.60761173900087
 20
-129.9751844293118
 30
0.0
 10
92.60761173900087
 20
-129.9751844293118
 30
0.0
 10
92.29824216442545
 20
-129.9751844293118
 30
0.0
 10
92.29824216442545
 20
-129.9751844293118
 30
0.0
 10
92.20005694309582
 20
-129.9751844293118
 30
0.0
 10
92.07810056291798
 20
-129.9813856011852
 30
0.0
 10
91.98370494662214
 20
-129.9941324544806
 30
0.0
 10
91.98370494662214
 20
-129.9941324544806
 30
0.0
 10
91.98370494662214
 20
-129.7595214519351
 30
0.0
 10
91.98370494662214
 20
-129.7595214519351
 30
0.0
 10
92.08740232072816
 20
-129.7743353625217
 30
0.0
 10
92.24828827988932
 20
-129.778469477104
 30
0.0
 10
92.29824216442545
 20
-129.778469477104
 30
0.0
 10
92.29824216442545
 20
-129.778469477104
 30
0.0
 10
92.60761173900087
 20
-129.778469477104
 30
0.0
 10
92.60761173900087
 20
-129.778469477104
 30
0.0
 10
92.62414819733007
 20
-129.778469477104
 30
0.0
 10
92.80191512436897
 20
-129.778469477104
 30
0.0
 10
92.92593856183797
 20
-129.7595214519351
 30
0.0
 10
92.92593856183797
 20
-129.7595214519351
 30
0.0
 10
92.92593856183797
 20
-129.9941324544806
 30
0.0
 10
92.92593856183797
 20
-129.9941324544806
 30
0.0
 10
92.78916827107355
 20
-129.9751844293118
 30
0.0
 10
92.62242564958746
 20
-129.9751844293118
 30
0.0
 10
92.60761173900087
 20
-129.9751844293118
 30
0.0
  0
HATCH
  5
13C
330
11B
100
AcDbEntity
  8
_U+30EC_U+30A4_U+30E4_U+30FC 1
 62
     7
420
 16777215
100
AcDbHatch
 10
0.0
 20
0.0
 30
0.0
210
0.0
220
0.0
230
1.0
  2
SOLID
 70
     1
 71
     0
 91
        2
 92
        1
 93
        1
 72
     4
 94
        3
 73
     0
 74
     1
 95
       47
 96
       43
 40
0.0
 40
0.0
 40
0.0
 40
0.0
 40
1.0
 40
1.0
 40
1.0
 40
2.0
 40
2.0
 40
2.0
 40
3.0
 40
3.0
 40
3.0
 40
4.0
 40
4.0
 40
4.0
 40
5.0
 40
5.0
 40
5.0
 40
6.0
 40
6.0
 40
6.0
 40
7.0
 40
7.0
 40
7.0
 40
8.0
 40
8.0
 40
8.0
 40
9.0
 40
9.0
 40
9.0
 40
10.0
 40
10.0
 40
10.0
 40
11.0
 40
11.0
 40
11.0
 40
12.0
 40
12.0
 40
12.0
 40
13.0
 40
13.0
 40
13.0
 40
14.0
 40
14.0
 40
14.0
 40
14.0
 10
92.69649520252032
 20
-130.5040065862976
 10
92.69649520252032
 20
-130.5040065862976
 10
92.60761173900087
 20
-130.5040065862976
 10
92.60761173900087
 20
-130.5040065862976
 10
92.60761173900087
 20
-130.5908229925259
 10
92.58900822338053
 20
-130.9801187823591
 10
92.41675344911803
 20
-131.2002603838666
 10
92.28342825383886
 20
-131.3694145721924
 10
92.10221623131473
 20
-131.4390055009944
 10
92.02814667838186
 20
-131.4665662648764
 10
92.02814667838186
 20
-131.4665662648764
 10
91.85761445186199
 20
-131.2994791338418
 10
91.85761445186199
 20
-131.2994791338418
 10
91.94270831034765
 20
-131.2867322805464
 10
92.0963595689898
 20
-131.2636501407952
 10
92.26137964273327
 20
-131.075203417752
 10
92.32614743785597
 20
-131.0032009221103
 10
92.41675344911803
 20
-130.8636745549577
 10
92.41675344911803
 20
-130.5040065862976
 10
92.41675344911803
 20
-130.5040065862976
 10
92.2148708536824
 20
-130.5040065862976
 10
92.2148708536824
 20
-130.5040065862976
 10
92.05191783723008
 20
-130.5040065862976
 10
91.88896482077776
 20
-130.5084852104284
 10
91.72601180432545
 20
-130.5229546114665
 10
91.72601180432545
 20
-130.5229546114665
 10
91.72601180432545
 20
-130.3031575195076
 10
91.72601180432545
 20
-130.3031575195076
 10
91.89103187806892
 20
-130.3179714300941
 10
92.14080130074953
 20
-130.3221055446764
 10
92.2148708536824
 20
-130.3221055446764
 10
92.2148708536824
 20
-130.3221055446764
 10
92.69649520252032
 20
-130.3221055446764
 10
92.69649520252032
 20
-130.3221055446764
 10
92.71303166084952
 20
-130.3221055446764
 10
92.99105086650918
 20
-130.3221055446764
 10
93.19086640465368
 20
-130.3031575195076
 10
93.19086640465368
 20
-130.3031575195076
 10
93.19086640465368
 20
-130.5229546114665
 10
93.19086640465368
 20
-130.5229546114665
 10
93.02619084045874
 20
-130.5084852104284
 10
92.86117076671526
 20
-130.5040065862976
 10
92.69649520252032
 20
-130.5040065862976
 97
        0
 97
        0
 92
        1
 93
        1
 72
     4
 94
        3
 73
     0
 74
     1
 95
       29
 96
       25
 40
0.0
 40
0.0
 40
0.0
 40
0.0
 40
1.0
 40
1.0
 40
1.0
 40
2.0
 40
2.0
 40
2.0
 40
3.0
 40
3.0
 40
3.0
 40
4.0
 40
4.0
 40
4.0
 40
5.0
 40
5.0
 40
5.0
 40
6.0
 40
6.0
 40
6.0
 40
7.0
 40
7.0
 40
7.0
 40
8.0
 40
8.0
 40
8.0
 40
8.0
 10
92.60761173900087
 20
-129.9751844293118
 10
92.60761173900087
 20
-129.9751844293118
 10
92.29824216442545
 20
-129.9751844293118
 10
92.29824216442545
 20
-129.9751844293118
 10
92.20005694309582
 20
-129.9751844293118
 10
92.07810056291798
 20
-129.9813856011852
 10
91.98370494662214
 20
-129.9941324544806
 10
91.98370494662214
 20
-129.9941324544806
 10
91.98370494662214
 20
-129.7595214519351
 10
91.98370494662214
 20
-129.7595214519351
 10
92.08740232072816
 20
-129.7743353625217
 10
92.24828827988932
 20
-129.778469477104
 10
92.29824216442545
 20
-129.778469477104
 10
92.29824216442545
 20
-129.778469477104
 10
92.60761173900087
 20
-129.778469477104
 10
92.60761173900087
 20
-129.778469477104
 10
92.62414819733007
 20
-129.778469477104
 10
92.80191512436897
 20
-129.778469477104
 10
92.92593856183797
 20
-129.7595214519351
 10
92.92593856183797
 20
-129.7595214519351
 10
92.92593856183797
 20
-129.9941324544806
 10
92.92593856183797
 20
-129.9941324544806
 10
92.78916827107355
 20
-129.9751844293118
 10
92.62242564958746
 20
-129.9751844293118
 10
92.60761173900087
 20
-129.9751844293118
 97
        0
 97
        0
 75
     2
 76
     1
 98
        0
  0
SPLINE
  5
13D
330
11B
100
AcDbEntity
  8
_U+30EC_U+30A4_U+30E4_U+30FC 1
370
     0
100
AcDbSpline
210
0.0
220
0.0
230
1.0
 70
    11
 71
     3
 72
    29
 73
    25
 74
     0
 42
0.0000000001
 43
0.0000000001
 12
1.0
 22
0.0
 32
0.0
 13
1.0
 23
0.0
 33
0.0
 40
0.0
 40
0.0
 40
0.0
 40
0.0
 40
1.0
 40
1.0
 40
1.0
 40
2.0
 40
2.0
 40
2.0
 40
3.0
 40
3.0
 40
3.0
 40
4.0
 40
4.0
 40
4.0
 40
5.0
 40
5.0
 40
5.0
 40
6.0
 40
6.0
 40
6.0
 40
7.0
 40
7.0
 40
7.0
 40
8.0
 40
8.0
 40
8.0
 40
8.0
 10
94.31327851374807
 20
-130.6669596027499
 30
0.0
 10
94.31327851374807
 20
-130.6669596027499
 30
0.0
 10
93.88918725951382
 20
-130.6669596027499
 30
0.0
 10
93.88918725951382
 20
-130.6669596027499
 30
0.0
 10
93.86507159111707
 20
-130.6669596027499
 30
0.0
 10
93.58739689500594
 20
-130.6669596027499
 30
0.0
 10
93.40205075789949
 20
-130.6924533093408
 30
0.0
 10
93.40205075789949
 20
-130.6924533093408
 30
0.0
 10
93.40205075789949
 20
-130.461631911829
 30
0.0
 10
93.40205075789949
 20
-130.461631911829
 30
0.0
 10
93.54088810595506
 20
-130.4850585611287
 30
0.0
 10
93.70763072744116
 20
-130.4871256184199
 30
0.0
 10
93.88918725951382
 20
-130.4871256184199
 30
0.0
 10
93.88918725951382
 20
-130.4871256184199
 30
0.0
 10
94.31327851374807
 20
-130.4871256184199
 30
0.0
 10
94.31327851374807
 20
-130.4871256184199
 30
0.0
 10
94.4762315302004
 20
-130.4871256184199
 30
0.0
 10
94.63918454665271
 20
-130.4850585611287
 30
0.0
 10
94.80007050581388
 20
-130.461631911829
 30
0.0
 10
94.80007050581388
 20
-130.461631911829
 30
0.0
 10
94.80007050581388
 20
-130.6924533093408
 30
0.0
 10
94.80007050581388
 20
-130.6924533093408
 30
0.0
 10
94.63918454665271
 20
-130.6690266600411
 30
0.0
 10
94.4224880406305
 20
-130.6669596027499
 30
0.0
 10
94.31327851374807
 20
-130.6669596027499
 30
0.0
  0
HATCH
  5
13E
330
11B
100
AcDbEntity
  8
_U+30EC_U+30A4_U+30E4_U+30FC 1
 62
     7
420
 16777215
100
AcDbHatch
 10
0.0
 20
0.0
 30
0.0
210
0.0
220
0.0
230
1.0
  2
SOLID
 70
     1
 71
     0
 91
        1
 92
        1
 93
        1
 72
     4
 94
        3
 73
     0
 74
     1
 95
       29
 96
       25
 40
0.0
 40
0.0
 40
0.0
 40
0.0
 40
1.0
 40
1.0
 40
1.0
 40
2.0
 40
2.0
 40
2.0
 40
3.0
 40
3.0
 40
3.0
 40
4.0
 40
4.0
 40
4.0
 40
5.0
 40
5.0
 40
5.0
 40
6.0
 40
6.0
 40
6.0
 40
7.0
 40
7.0
 40
7.0
 40
8.0
 40
8.0
 40
8.0
 40
8.0
 10
94.31327851374807
 20
-130.6669596027499
 10
94.31327851374807
 20
-130.6669596027499
 10
93.88918725951382
 20
-130.6669596027499
 10
93.88918725951382
 20
-130.6669596027499
 10
93.86507159111707
 20
-130.6669596027499
 10
93.58739689500594
 20
-130.6669596027499
 10
93.40205075789949
 20
-130.6924533093408
 10
93.40205075789949
 20
-130.6924533093408
 10
93.40205075789949
 20
-130.461631911829
 10
93.40205075789949
 20
-130.461631911829
 10
93.54088810595506
 20
-130.4850585611287
 10
93.70763072744116
 20
-130.4871256184199
 10
93.88918725951382
 20
-130.4871256184199
 10
93.88918725951382
 20
-130.4871256184199
 10
94.31327851374807
 20
-130.4871256184199
 10
94.31327851374807
 20
-130.4871256184199
 10
94.4762315302004
 20
-130.4871256184199
 10
94.63918454665271
 20
-130.4850585611287
 10
94.80007050581388
 20
-130.461631911829
 10
94.80007050581388
 20
-130.461631911829
 10
94.80007050581388
 20
-130.6924533093408
 10
94.80007050581388
 20
-130.6924533093408
 10
94.63918454665271
 20
-130.6690266600411
 10
94.4224880406305
 20
-130.6669596027499
 10
94.31327851374807
 20
-130.6669596027499
 97
        0
 97
        0
 75
     2
 76
     1
 98
        0
  0
SPLINE
  5
13F
330
11B
100
AcDbEntity
  8
_U+30EC_U+30A4_U+30E4_U+30FC 1
370
     0
100
AcDbSpline
210
0.0
220
0.0
230
1.0
 70
    11
 71
     3
 72
    47
 73
    43
 74
     0
 42
0.0000000001
 43
0.0000000001
 12
1.0
 22
0.0
 32
0.0
 13
1.0
 23
0.0
 33
0.0
 40
0.0
 40
0.0
 40
0.0
 40
0.0
 40
1.0
 40
1.0
 40
1.0
 40
2.0
 40
2.0
 40
2.0
 40
3.0
 40
3.0
 40
3.0
 40
4.0
 40
4.0
 40
4.0
 40
5.0
 40
5.0
 40
5.0
 40
6.0
 40
6.0
 40
6.0
 40
7.0
 40
7.0
 40
7.0
 40
8.0
 40
8.0
 40
8.0
 40
9.0
 40
9.0
 40
9.0
 40
10.0
 40
10.0
 40
10.0
 40
11.0
 40
11.0
 40
11.0
 40
12.0
 40
12.0
 40
12.0
 40
13.0
 40
13.0
 40
13.0
 40
14.0
 40
14.0
 40
14.0
 40
14.0
 10
96.25769040562308
 20
-130.0726806315443
 30
0.0
 10
96.19636770598564
 20
-130.3517333658496
 30
0.0
 10
96.12987736312031
 20
-130.6562798067457
 30
0.0
 10
95.85564776249443
 20
-130.9883870115237
 30
0.0
 10
95.64825301428239
 20
-131.2381564342043
 30
0.0
 10
95.43362356555131
 20
-131.3377196937281
 30
0.0
 10
95.3409504969981
 20
-131.3797498586481
 30
0.0
 10
95.3409504969981
 20
-131.3797498586481
 30
0.0
 10
95.17076278002676
 20
-131.1978488170269
 30
0.0
 10
95.17076278002676
 20
-131.1978488170269
 30
0.0
 10
95.33371579647907
 20
-131.1513400279761
 30
0.0
 10
95.65032007157353
 20
-131.0583224498743
 30
0.0
 10
95.90939125206432
 20
-130.5632622286439
 30
0.0
 10
96.05029565741104
 20
-130.2966118380856
 30
0.0
 10
96.06131996296384
 20
-130.1233235351775
 30
0.0
 10
96.06855466348287
 20
-130.0323730143669
 30
0.0
 10
96.06855466348287
 20
-130.0323730143669
 30
0.0
 10
95.62620440317679
 20
-130.0323730143669
 30
0.0
 10
95.62620440317679
 20
-130.0323730143669
 30
0.0
 10
95.52250702907077
 20
-130.0323730143669
 30
0.0
 10
95.15388181214904
 20
-130.0513210395358
 30
0.0
 10
95.02055661686987
 20
-130.0620008355401
 30
0.0
 10
95.02055661686987
 20
-130.0620008355401
 30
0.0
 10
95.02055661686987
 20
-129.8525390300369
 30
0.0
 10
95.02055661686987
 20
-129.8525390300369
 30
0.0
 10
95.14458005433886
 20
-129.8652858833323
 30
0.0
 10
95.38711477650045
 20
-129.8694199979146
 30
0.0
 10
95.48908960286384
 20
-129.8694199979146
 30
0.0
 10
95.48908960286384
 20
-129.8694199979146
 30
0.0
 10
95.8001817251819
 20
-129.8694199979146
 30
0.0
 10
95.8001817251819
 20
-129.8694199979146
 30
0.0
 10
95.82429739357865
 20
-129.8694199979146
 30
0.0
 10
95.96485728937685
 20
-129.8673529406234
 30
0.0
 10
96.06131996296384
 20
-129.8525390300369
 30
0.0
 10
96.11127384749996
 20
-129.8463378581634
 30
0.0
 10
96.12608775808654
 20
-129.827045323446
 30
0.0
 10
96.14641382144951
 20
-129.8039631836949
 30
0.0
 10
96.14641382144951
 20
-129.8039631836949
 30
0.0
 10
96.31143389519298
 20
-129.9541693468517
 30
0.0
 10
96.31143389519298
 20
-129.9541693468517
 30
0.0
 10
96.29834253234903
 20
-129.9837971680249
 30
0.0
 10
96.28904077453886
 20
-130.0027451931938
 30
0.0
 10
96.25769040562308
 20
-130.0726806315443
 30
0.0
  0
HATCH
  5
140
330
11B
100
AcDbEntity
  8
_U+30EC_U+30A4_U+30E4_U+30FC 1
 62
     7
420
 16777215
100
AcDbHatch
 10
0.0
 20
0.0
 30
0.0
210
0.0
220
0.0
230
1.0
  2
SOLID
 70
     1
 71
     0
 91
        1
 92
        1
 93
        1
 72
     4
 94
        3
 73
     0
 74
     1
 95
       47
 96
       43
 40
0.0
 40
0.0
 40
0.0
 40
0.0
 40
1.0
 40
1.0
 40
1.0
 40
2.0
 40
2.0
 40
2.0
 40
3.0
 40
3.0
 40
3.0
 40
4.0
 40
4.0
 40
4.0
 40
5.0
 40
5.0
 40
5.0
 40
6.0
 40
6.0
 40
6.0
 40
7.0
 40
7.0
 40
7.0
 40
8.0
 40
8.0
 40
8.0
 40
9.0
 40
9.0
 40
9.0
 40
10.0
 40
10.0
 40
10.0
 40
11.0
 40
11.0
 40
11.0
 40
12.0
 40
12.0
 40
12.0
 40
13.0
 40
13.0
 40
13.0
 40
14.0
 40
14.0
 40
14.0
 40
14.0
 10
96.25769040562308
 20
-130.0726806315443
 10
96.19636770598564
 20
-130.3517333658496
 10
96.12987736312031
 20
-130.6562798067457
 10
95.85564776249443
 20
-130.9883870115237
 10
95.64825301428239
 20
-131.2381564342043
 10
95.43362356555131
 20
-131.3377196937281
 10
95.3409504969981
 20
-131.3797498586481
 10
95.3409504969981
 20
-131.3797498586481
 10
95.17076278002676
 20
-131.1978488170269
 10
95.17076278002676
 20
-131.1978488170269
 10
95.33371579647907
 20
-131.1513400279761
 10
95.65032007157353
 20
-131.0583224498743
 10
95.90939125206432
 20
-130.5632622286439
 10
96.05029565741104
 20
-130.2966118380856
 10
96.06131996296384
 20
-130.1233235351775
 10
96.06855466348287
 20
-130.0323730143669
 10
96.06855466348287
 20
-130.0323730143669
 10
95.62620440317679
 20
-130.0323730143669
 10
95.62620440317679
 20
-130.0323730143669
 10
95.52250702907077
 20
-130.0323730143669
 10
95.15388181214904
 20
-130.0513210395358
 10
95.02055661686987
 20
-130.0620008355401
 10
95.02055661686987
 20
-130.0620008355401
 10
95.02055661686987
 20
-129.8525390300369
 10
95.02055661686987
 20
-129.8525390300369
 10
95.14458005433886
 20
-129.8652858833323
 10
95.38711477650045
 20
-129.8694199979146
 10
95.48908960286384
 20
-129.8694199979146
 10
95.48908960286384
 20
-129.8694199979146
 10
95.8001817251819
 20
-129.8694199979146
 10
95.8001817251819
 20
-129.8694199979146
 10
95.82429739357865
 20
-129.8694199979146
 10
95.96485728937685
 20
-129.8673529406234
 10
96.06131996296384
 20
-129.8525390300369
 10
96.11127384749996
 20
-129.8463378581634
 10
96.12608775808654
 20
-129.827045323446
 10
96.14641382144951
 20
-129.8039631836949
 10
96.14641382144951
 20
-129.8039631836949
 10
96.31143389519298
 20
-129.9541693468517
 10
96.31143389519298
 20
-129.9541693468517
 10
96.29834253234903
 20
-129.9837971680249
 10
96.28904077453886
 20
-130.0027451931938
 10
96.25769040562308
 20
-130.0726806315443
 97
        0
 97
        0
 75
     2
 76
     1
 98
        0
  0
SPLINE
  5
141
330
11B
100
AcDbEntity
  8
_U+30EC_U+30A4_U+30E4_U+30FC 1
370
     0
100
AcDbSpline
210
0.0
220
0.0
230
1.0
 70
    11
 71
     3
 72
    17
 73
    13
 74
     0
 42
0.0000000001
 43
0.0000000001
 12
1.0
 22
0.0
 32
0.0
 13
1.0
 23
0.0
 33
0.0
 40
0.0
 40
0.0
 40
0.0
 40
0.0
 40
1.0
 40
1.0
 40
1.0
 40
2.0
 40
2.0
 40
2.0
 40
3.0
 40
3.0
 40
3.0
 40
4.0
 40
4.0
 40
4.0
 40
4.0
 10
96.87608504522542
 20
-129.854606087328
 30
0.0
 10
96.87608504522542
 20
-129.9689832574383
 30
0.0
 10
96.79478079177353
 20
-130.0640678928312
 30
0.0
 10
96.69280596541013
 20
-130.0640678928312
 30
0.0
 10
96.59289819633788
 20
-130.0640678928312
 30
0.0
 10
96.50952688559485
 20
-129.9689832574383
 30
0.0
 10
96.50952688559485
 20
-129.854606087328
 30
0.0
 10
96.50952688559485
 20
-129.7381618599266
 30
0.0
 10
96.59289819633788
 20
-129.6451442818248
 30
0.0
 10
96.69280596541013
 20
-129.6451442818248
 30
0.0
 10
96.79271373448238
 20
-129.6451442818248
 30
0.0
 10
96.87608504522542
 20
-129.7381618599266
 30
0.0
 10
96.87608504522542
 20
-129.854606087328
 30
0.0
  0
SPLINE
  5
142
330
11B
100
AcDbEntity
  8
_U+30EC_U+30A4_U+30E4_U+30FC 1
370
     0
100
AcDbSpline
210
0.0
220
0.0
230
1.0
 70
    11
 71
     3
 72
    17
 73
    13
 74
     0
 42
0.0000000001
 43
0.0000000001
 12
1.0
 22
0.0
 32
0.0
 13
1.0
 23
0.0
 33
0.0
 40
0.0
 40
0.0
 40
0.0
 40
0.0
 40
1.0
 40
1.0
 40
1.0
 40
2.0
 40
2.0
 40
2.0
 40
3.0
 40
3.0
 40
3.0
 40
4.0
 40
4.0
 40
4.0
 40
4.0
 10
96.60013289685692
 20
-129.854606087328
 30
0.0
 10
96.60013289685692
 20
-129.9138617296743
 30
0.0
 10
96.64112953313139
 20
-129.9603705187252
 30
0.0
 10
96.69280596541013
 20
-129.9603705187252
 30
0.0
 10
96.74482690723741
 20
-129.9603705187252
 30
0.0
 10
96.78720158170599
 20
-129.9138617296743
 30
0.0
 10
96.78720158170599
 20
-129.854606087328
 30
0.0
 10
96.78720158170599
 20
-129.7953504449817
 30
0.0
 10
96.74482690723741
 20
-129.7467745986397
 30
0.0
 10
96.69280596541013
 20
-129.7467745986397
 30
0.0
 10
96.64112953313139
 20
-129.7467745986397
 30
0.0
 10
96.60013289685692
 20
-129.7953504449817
 30
0.0
 10
96.60013289685692
 20
-129.854606087328
 30
0.0
  0
HATCH
  5
143
330
11B
100
AcDbEntity
  8
_U+30EC_U+30A4_U+30E4_U+30FC 1
 62
     7
420
 16777215
100
AcDbHatch
 10
0.0
 20
0.0
 30
0.0
210
0.0
220
0.0
230
1.0
  2
SOLID
 70
     1
 71
     0
 91
        2
 92
        1
 93
        1
 72
     4
 94
        3
 73
     0
 74
     1
 95
       17
 96
       13
 40
0.0
 40
0.0
 40
0.0
 40
0.0
 40
1.0
 40
1.0
 40
1.0
 40
2.0
 40
2.0
 40
2.0
 40
3.0
 40
3.0
 40
3.0
 40
4.0
 40
4.0
 40
4.0
 40
4.0
 10
96.87608504522542
 20
-129.854606087328
 10
96.87608504522542
 20
-129.9689832574383
 10
96.79478079177353
 20
-130.0640678928312
 10
96.69280596541013
 20
-130.0640678928312
 10
96.59289819633788
 20
-130.0640678928312
 10
96.50952688559485
 20
-129.9689832574383
 10
96.50952688559485
 20
-129.854606087328
 10
96.50952688559485
 20
-129.7381618599266
 10
96.59289819633788
 20
-129.6451442818248
 10
96.69280596541013
 20
-129.6451442818248
 10
96.79271373448238
 20
-129.6451442818248
 10
96.87608504522542
 20
-129.7381618599266
 10
96.87608504522542
 20
-129.854606087328
 97
        0
 97
        0
 92
        1
 93
        1
 72
     4
 94
        3
 73
     0
 74
     1
 95
       17
 96
       13
 40
0.0
 40
0.0
 40
0.0
 40
0.0
 40
1.0
 40
1.0
 40
1.0
 40
2.0
 40
2.0
 40
2.0
 40
3.0
 40
3.0
 40
3.0
 40
4.0
 40
4.0
 40
4.0
 40
4.0
 10
96.60013289685692
 20
-129.854606087328
 10
96.60013289685692
 20
-129.9138617296743
 10
96.64112953313139
 20
-129.9603705187252
 10
96.69280596541013
 20
-129.9603705187252
 10
96.74482690723741
 20
-129.9603705187252
 10
96.78720158170599
 20
-129.9138617296743
 10
96.78720158170599
 20
-129.854606087328
 10
96.78720158170599
 20
-129.7953504449817
 10
96.74482690723741
 20
-129.7467745986397
 10
96.69280596541013
 20
-129.7467745986397
 10
96.64112953313139
 20
-129.7467745986397
 10
96.60013289685692
 20
-129.7953504449817
 10
96.60013289685692
 20
-129.854606087328
 97
        0
 97
        0
 75
     2
 76
     1
 98
        0
  0
ENDBLK
  5
11E
330
11B
100
AcDbEntity
  8
0
100
AcDbBlockEnd
  0
ENDSEC
  0
SECTION
  2
ENTITIES
  0
INSERT
  5
42
330
1F
100
AcDbEntity
  8
_U+30EC_U+30A4_U+30E4_U+30FC 1
100
AcDbBlockReference
  2
block 2
 10
0.0
 20
0.0
 30
0.0
  0
SPLINE
  5
53
330
1F
100
AcDbEntity
  8
_U+30EC_U+30A4_U+30E4_U+30FC 1
 62
     7
420
 16777215
370
     9
100
AcDbSpline
210
0.0
220
0.0
230
1.0
 70
    11
 71
     3
 72
    17
 73
    13
 74
     0
 42
0.0000000001
 43
0.0000000001
 12
1.0
 22
0.0
 32
0.0
 13
1.0
 23
0.0
 33
0.0
 40
0.0
 40
0.0
 40
0.0
 40
0.0
 40
1.0
 40
1.0
 40
1.0
 40
2.0
 40
2.0
 40
2.0
 40
3.0
 40
3.0
 40
3.0
 40
4.0
 40
4.0
 40
4.0
 40
4.0
 10
78.18832411636077
 20
-138.993068576363
 30
0.0
 10
78.18832411636077
 20
-138.9372591319325
 30
0.0
 10
78.1435566175029
 20
-138.8924563541658
 30
0.0
 10
78.08841942492236
 20
-138.8924563541658
 30
0.0
 10
78.0329607869911
 20
-138.8924563541658
 30
0.0
 10
77.98815801035633
 20
-138.9372591319325
 30
0.0
 10
77.98815801035633
 20
-138.993068576363
 30
0.0
 10
77.98815801035633
 20
-139.0481724652379
 30
0.0
 10
78.0329607869911
 20
-139.0929752430046
 30
0.0
 10
78.08841942492236
 20
-139.0929752430046
 30
0.0
 10
78.1435566175029
 20
-139.0929752430046
 30
0.0
 10
78.18832411636077
 20
-139.0481724652379
 30
0.0
 10
78.18832411636077
 20
-138.993068576363
 30
0.0
  0
SPLINE
  5
54
330
1F
100
AcDbEntity
  8
_U+30EC_U+30A4_U+30E4_U+30FC 1
 62
     7
420
 16777215
370
     9
100
AcDbSpline
210
0.0
220
0.0
230
1.0
 70
    11
 71
     3
 72
    17
 73
    13
 74
     0
 42
0.0000000001
 43
0.0000000001
 12
1.0
 22
0.0
 32
0.0
 13
1.0
 23
0.0
 33
0.0
 40
0.0
 40
0.0
 40
0.0
 40
0.0
 40
1.0
 40
1.0
 40
1.0
 40
2.0
 40
2.0
 40
2.0
 40
3.0
 40
3.0
 40
3.0
 40
4.0
 40
4.0
 40
4.0
 40
4.0
 10
78.18832411636077
 20
-112.9929230273073
 30
0.0
 10
78.18832411636077
 20
-112.9378191384324
 30
0.0
 10
78.1435566175029
 20
-112.8930163606656
 30
0.0
 10
78.08841942492236
 20
-112.8930163606656
 30
0.0
 10
78.0329607869911
 20
-112.8930163606656
 30
0.0
 10
77.98815801035633
 20
-112.9378191384324
 30
0.0
 10
77.98815801035633
 20
-112.9929230273073
 30
0.0
 10
77.98815801035633
 20
-113.0480621939604
 30
0.0
 10
78.0329607869911
 20
-113.0928296939489
 30
0.0
 10
78.08841942492236
 20
-113.0928296939489
 30
0.0
 10
78.1435566175029
 20
-113.0928296939489
 30
0.0
 10
78.18832411636077
 20
-113.0480621939604
 30
0.0
 10
78.18832411636077
 20
-112.9929230273073
 30
0.0
  0
POLYLINE
  5
55
330
1F
100
AcDbEntity
  8
_U+30EC_U+30A4_U+30E4_U+30FC 1
 62
     7
420
 16777215
370
     9
100
AcDb2dPolyline
 66
     1
 10
0.0
 20
0.0
 30
0.0
  0
VERTEX
  5
56
330
55
100
AcDbEntity
  8
_U+30EC_U+30A4_U+30E4_U+30FC 1
 62
     7
420
 16777215
370
     9
100
AcDbVertex
100
AcDb2dVertex
 10
78.08841942492236
 20
-138.993068576363
 30
0.0
  0
VERTEX
  5
57
330
55
100
AcDbEntity
  8
_U+30EC_U+30A4_U+30E4_U+30FC 1
 62
     7
420
 16777215
370
     9
100
AcDbVertex
100
AcDb2dVertex
 10
78.08841942492236
 20
-112.9929230273073
 30
0.0
  0
SEQEND
  5
58
330
55
100
AcDbEntity
  8
_U+30EC_U+30A4_U+30E4_U+30FC 1
 62
     7
420
 16777215
370
     9
  0
POLYLINE
  5
59
330
1F
100
AcDbEntity
  8
_U+30EC_U+30A4_U+30E4_U+30FC 1
 62
     7
420
 16777215
370
     9
100
AcDb2dPolyline
 66
     1
 10
0.0
 20
0.0
 30
0.0
  0
VERTEX
  5
5A
330
59
100
AcDbEntity
  8
_U+30EC_U+30A4_U+30E4_U+30FC 1
 62
     7
420
 16777215
370
     9
100
AcDbVertex
100
AcDb2dVertex
 10
80.14962739965709
 20
-138.993068576363
 30
0.0
  0
VERTEX
  5
5B
330
59
100
AcDbEntity
  8
_U+30EC_U+30A4_U+30E4_U+30FC 1
 62
     7
420
 16777215
370
     9
100
AcDbVertex
100
AcDb2dVertex
 10
77.08797497776635
 20
-138.993068576363
 30
0.0
  0
SEQEND
  5
5C
330
59
100
AcDbEntity
  8
_U+30EC_U+30A4_U+30E4_U+30FC 1
 62
     7
420
 16777215
370
     9
  0
POLYLINE
  5
5D
330
1F
100
AcDbEntity
  8
_U+30EC_U+30A4_U+30E4_U+30FC 1
 62
     7
420
 16777215
370
     9
100
AcDb2dPolyline
 66
     1
 10
0.0
 20
0.0
 30
0.0
  0
VERTEX
  5
5E
330
5D
100
AcDbEntity
  8
_U+30EC_U+30A4_U+30E4_U+30FC 1
 62
     7
420
 16777215
370
     9
100
AcDbVertex
100
AcDb2dVertex
 10
79.94808546035442
 20
-112.9929230273073
 30
0.0
  0
VERTEX
  5
5F
330
5D
100
AcDbEntity
  8
_U+30EC_U+30A4_U+30E4_U+30FC 1
 62
     7
420
 16777215
370
     9
100
AcDbVertex
100
AcDb2dVertex
 10
77.08797497776635
 20
-112.9929230273073
 30
0.0
  0
SEQEND
  5
60
330
5D
100
AcDbEntity
  8
_U+30EC_U+30A4_U+30E4_U+30FC 1
 62
     7
420
 16777215
370
     9
  0
INSERT
  5
62
330
1F
100
AcDbEntity
  8
_U+30EC_U+30A4_U+30E4_U+30FC 1
100
AcDbBlockReference
  2
block 3
 10
0.0
 20
0.0
 30
0.0
  0
INSERT
  5
6B
330
1F
100
AcDbEntity
  8
_U+30EC_U+30A4_U+30E4_U+30FC 1
100
AcDbBlockReference
  2
block 4
 10
0.0
 20
0.0
 30
0.0
  0
SPLINE
  5
6F
330
1F
100
AcDbEntity
  8
_U+30EC_U+30A4_U+30E4_U+30FC 1
 62
     7
420
 16777215
370
     9
100
AcDbSpline
210
0.0
220
0.0
230
1.0
 70
    11
 71
     3
 72
    17
 73
    13
 74
     0
 42
0.0000000001
 43
0.0000000001
 12
1.0
 22
0.0
 32
0.0
 13
1.0
 23
0.0
 33
0.0
 40
0.0
 40
0.0
 40
0.0
 40
0.0
 40
1.0
 40
1.0
 40
1.0
 40
2.0
 40
2.0
 40
2.0
 40
3.0
 40
3.0
 40
3.0
 40
4.0
 40
4.0
 40
4.0
 40
4.0
 10
108.1894275176355
 20
-142.9873244086976
 30
0.0
 10
108.1894275176355
 20
-142.9321852420446
 30
0.0
 10
108.1446600187776
 20
-142.887417742056
 30
0.0
 10
108.0895208535177
 20
-142.887417742056
 30
0.0
 10
108.0344169660346
 20
-142.887417742056
 30
0.0
 10
107.9896141893999
 20
-142.9321852420446
 30
0.0
 10
107.9896141893999
 20
-142.9873244086976
 30
0.0
 10
107.9896141893999
 20
-143.0424282975726
 30
0.0
 10
108.0344169660346
 20
-143.0872310753393
 30
0.0
 10
108.0895208535177
 20
-143.0872310753393
 30
0.0
 10
108.1446600187776
 20
-143.0872310753393
 30
0.0
 10
108.1894275176355
 20
-143.0424282975726
 30
0.0
 10
108.1894275176355
 20
-142.9873244086976
 30
0.0
  0
SPLINE
  5
70
330
1F
100
AcDbEntity
  8
_U+30EC_U+30A4_U+30E4_U+30FC 1
 62
     7
420
 16777215
370
     9
100
AcDbSpline
210
0.0
220
0.0
230
1.0
 70
    11
 71
     3
 72
    17
 73
    13
 74
     0
 42
0.0000000001
 43
0.0000000001
 12
1.0
 22
0.0
 32
0.0
 13
1.0
 23
0.0
 33
0.0
 40
0.0
 40
0.0
 40
0.0
 40
0.0
 40
1.0
 40
1.0
 40
1.0
 40
2.0
 40
2.0
 40
2.0
 40
3.0
 40
3.0
 40
3.0
 40
4.0
 40
4.0
 40
4.0
 40
4.0
 10
82.18946109056377
 20
-142.9873244086976
 30
0.0
 10
82.18946109056377
 20
-142.9321852420446
 30
0.0
 10
82.14469151542544
 20
-142.887417742056
 30
0.0
 10
82.08955235016549
 20
-142.887417742056
 30
0.0
 10
82.03444846268242
 20
-142.887417742056
 30
0.0
 10
81.98964568604765
 20
-142.9321852420446
 30
0.0
 10
81.98964568604765
 20
-142.9873244086976
 30
0.0
 10
81.98964568604765
 20
-143.0424282975726
 30
0.0
 10
82.03444846268242
 20
-143.0872310753393
 30
0.0
 10
82.08955235016549
 20
-143.0872310753393
 30
0.0
 10
82.14469151542544
 20
-143.0872310753393
 30
0.0
 10
82.18946109056377
 20
-143.0424282975726
 30
0.0
 10
82.18946109056377
 20
-142.9873244086976
 30
0.0
  0
POLYLINE
  5
71
330
1F
100
AcDbEntity
  8
_U+30EC_U+30A4_U+30E4_U+30FC 1
 62
     7
420
 16777215
370
     9
100
AcDb2dPolyline
 66
     1
 10
0.0
 20
0.0
 30
0.0
  0
VERTEX
  5
72
330
71
100
AcDbEntity
  8
_U+30EC_U+30A4_U+30E4_U+30FC 1
 62
     7
420
 16777215
370
     9
100
AcDbVertex
100
AcDb2dVertex
 10
82.08955235016549
 20
-142.9873244086976
 30
0.0
  0
VERTEX
  5
73
330
71
100
AcDbEntity
  8
_U+30EC_U+30A4_U+30E4_U+30FC 1
 62
     7
420
 16777215
370
     9
100
AcDbVertex
100
AcDb2dVertex
 10
108.0895208535177
 20
-142.9873244086976
 30
0.0
  0
SEQEND
  5
74
330
71
100
AcDbEntity
  8
_U+30EC_U+30A4_U+30E4_U+30FC 1
 62
     7
420
 16777215
370
     9
  0
POLYLINE
  5
75
330
1F
100
AcDbEntity
  8
_U+30EC_U+30A4_U+30E4_U+30FC 1
 62
     7
420
 16777215
370
     9
100
AcDb2dPolyline
 66
     1
 10
0.0
 20
0.0
 30
0.0
  0
VERTEX
  5
76
330
75
100
AcDbEntity
  8
_U+30EC_U+30A4_U+30E4_U+30FC 1
 62
     7
420
 16777215
370
     9
100
AcDbVertex
100
AcDb2dVertex
 10
82.08955235016549
 20
-140.9326407981002
 30
0.0
  0
VERTEX
  5
77
330
75
100
AcDbEntity
  8
_U+30EC_U+30A4_U+30E4_U+30FC 1
 62
     7
420
 16777215
370
     9
100
AcDbVertex
100
AcDb2dVertex
 10
82.08955235016549
 20
-143.987061352892
 30
0.0
  0
SEQEND
  5
78
330
75
100
AcDbEntity
  8
_U+30EC_U+30A4_U+30E4_U+30FC 1
 62
     7
420
 16777215
370
     9
  0
POLYLINE
  5
79
330
1F
100
AcDbEntity
  8
_U+30EC_U+30A4_U+30E4_U+30FC 1
 62
     7
420
 16777215
370
     9
100
AcDb2dPolyline
 66
     1
 10
0.0
 20
0.0
 30
0.0
  0
VERTEX
  5
7A
330
79
100
AcDbEntity
  8
_U+30EC_U+30A4_U+30E4_U+30FC 1
 62
     7
420
 16777215
370
     9
100
AcDbVertex
100
AcDb2dVertex
 10
108.0895208535177
 20
-141.1276563536068
 30
0.0
  0
VERTEX
  5
7B
330
79
100
AcDbEntity
  8
_U+30EC_U+30A4_U+30E4_U+30FC 1
 62
     7
420
 16777215
370
     9
100
AcDbVertex
100
AcDb2dVertex
 10
108.0895208535177
 20
-143.987061352892
 30
0.0
  0
SEQEND
  5
7C
330
79
100
AcDbEntity
  8
_U+30EC_U+30A4_U+30E4_U+30FC 1
 62
     7
420
 16777215
370
     9
  0
INSERT
  5
7E
330
1F
100
AcDbEntity
  8
_U+30EC_U+30A4_U+30E4_U+30FC 1
100
AcDbBlockReference
  2
block 5
 10
0.0
 20
0.0
 30
0.0
  0
INSERT
  5
87
330
1F
100
AcDbEntity
  8
_U+30EC_U+30A4_U+30E4_U+30FC 1
100
AcDbBlockReference
  2
block 6
 10
0.0
 20
0.0
 30
0.0
  0
POLYLINE
  5
8B
330
1F
100
AcDbEntity
  8
_U+30EC_U+30A4_U+30E4_U+30FC 1
 62
     7
420
 16777215
370
     9
100
AcDb2dPolyline
 66
     1
 10
0.0
 20
0.0
 30
0.0
  0
VERTEX
  5
8C
330
8B
100
AcDbEntity
  8
_U+30EC_U+30A4_U+30E4_U+30FC 1
 62
     7
420
 16777215
370
     9
100
AcDbVertex
100
AcDb2dVertex
 10
81.42654181152474
 20
-118.8013738591885
 30
0.0
  0
VERTEX
  5
8D
330
8B
100
AcDbEntity
  8
_U+30EC_U+30A4_U+30E4_U+30FC 1
 62
     7
420
 16777215
370
     9
100
AcDbVertex
100
AcDb2dVertex
 10
90.7634404622095
 20
-129.0980752455032
 30
0.0
  0
SEQEND
  5
8E
330
8B
100
AcDbEntity
  8
_U+30EC_U+30A4_U+30E4_U+30FC 1
 62
     7
420
 16777215
370
     9
  0
POLYLINE
  5
8F
330
1F
100
AcDbEntity
  8
_U+30EC_U+30A4_U+30E4_U+30FC 1
 62
     7
420
 16777215
370
     9
100
AcDb2dPolyline
 66
     1
 10
0.0
 20
0.0
 30
0.0
  0
VERTEX
  5
90
330
8F
100
AcDbEntity
  8
_U+30EC_U+30A4_U+30E4_U+30FC 1
 62
     7
420
 16777215
370
     9
100
AcDbVertex
100
AcDb2dVertex
 10
81.73024819266543
 20
-119.525520803452
 30
0.0
  0
VERTEX
  5
91
330
8F
100
AcDbEntity
  8
_U+30EC_U+30A4_U+30E4_U+30FC 1
 62
     7
420
 16777215
370
     9
100
AcDbVertex
100
AcDb2dVertex
 10
81.27220153768451
 20
-118.6359916370077
 30
0.0
  0
VERTEX
  5
92
330
8F
100
AcDbEntity
  8
_U+30EC_U+30A4_U+30E4_U+30FC 1
 62
     7
420
 16777215
370
     9
100
AcDbVertex
100
AcDb2dVertex
 10
82.11332957178111
 20
-119.1772233035391
 30
0.0
  0
SEQEND
  5
93
330
8F
100
AcDbEntity
  8
_U+30EC_U+30A4_U+30E4_U+30FC 1
 62
     7
420
 16777215
370
     9
  0
POLYLINE
  5
94
330
1F
100
AcDbEntity
  8
_U+30EC_U+30A4_U+30E4_U+30FC 1
  6
AI-Linetype-1
 62
   154
420
    23468
370
    25
100
AcDb2dPolyline
 66
     1
 10
0.0
 20
0.0
 30
0.0
  0
VERTEX
  5
95
330
94
100
AcDbEntity
  8
_U+30EC_U+30A4_U+30E4_U+30FC 1
  6
AI-Linetype-1
 62
   154
420
    23468
370
    25
100
AcDbVertex
100
AcDb2dVertex
 10
81.05965293199597
 20
-112.9929230273073
 30
0.0
  0
VERTEX
  5
96
330
94
100
AcDbEntity
  8
_U+30EC_U+30A4_U+30E4_U+30FC 1
  6
AI-Linetype-1
 62
   154
420
    23468
370
    25
100
AcDbVertex
100
AcDb2dVertex
 10
81.05965293199597
 20
-120.9428408030977
 30
0.0
  0
SEQEND
  5
98
330
94
100
AcDbEntity
  8
_U+30EC_U+30A4_U+30E4_U+30FC 1
  6
AI-Linetype-1
 62
   154
420
    23468
370
    25
  0
INSERT
  5
9A
330
1F
100
AcDbEntity
  8
_U+30EC_U+30A4_U+30E4_U+30FC 1
100
AcDbBlockReference
  2
block 7
 10
0.0
 20
0.0
 30
0.0
  0
INSERT
  5
11C
330
1F
100
AcDbEntity
  8
_U+30EC_U+30A4_U+30E4_U+30FC 1
100
AcDbBlockReference
  2
block 8
 10
0.0
 20
0.0
 30
0.0
  0
POLYLINE
  5
144
330
1F
100
AcDbEntity
  8
_U+30EC_U+30A4_U+30E4_U+30FC 1
 62
     7
420
 16777215
370
     9
100
AcDb2dPolyline
 66
     1
 10
0.0
 20
0.0
 30
0.0
  0
VERTEX
  5
145
330
144
100
AcDbEntity
  8
_U+30EC_U+30A4_U+30E4_U+30FC 1
 62
     7
420
 16777215
370
     9
100
AcDbVertex
100
AcDb2dVertex
 10
103.0007720944536
 20
-139.6566082984193
 30
0.0
  0
VERTEX
  5
146
330
144
100
AcDbEntity
  8
_U+30EC_U+30A4_U+30E4_U+30FC 1
 62
     7
420
 16777215
370
     9
100
AcDbVertex
100
AcDb2dVertex
 10
94.24920231772475
 20
-131.8982488559143
 30
0.0
  0
SEQEND
  5
147
330
144
100
AcDbEntity
  8
_U+30EC_U+30A4_U+30E4_U+30FC 1
 62
     7
420
 16777215
370
     9
  0
POLYLINE
  5
148
330
1F
100
AcDbEntity
  8
_U+30EC_U+30A4_U+30E4_U+30FC 1
 62
     7
420
 16777215
370
     9
100
AcDb2dPolyline
 66
     1
 10
0.0
 20
0.0
 30
0.0
  0
VERTEX
  5
149
330
148
100
AcDbEntity
  8
_U+30EC_U+30A4_U+30E4_U+30FC 1
 62
     7
420
 16777215
370
     9
100
AcDbVertex
100
AcDb2dVertex
 10
102.2383840583482
 20
-139.347927742941
 30
0.0
  0
VERTEX
  5
14A
330
148
100
AcDbEntity
  8
_U+30EC_U+30A4_U+30E4_U+30FC 1
 62
     7
420
 16777215
370
     9
100
AcDbVertex
100
AcDb2dVertex
 10
103.1430499742142
 20
-139.7737305206124
 30
0.0
  0
VERTEX
  5
14B
330
148
100
AcDbEntity
  8
_U+30EC_U+30A4_U+30E4_U+30FC 1
 62
     7
420
 16777215
370
     9
100
AcDbVertex
100
AcDb2dVertex
 10
102.5725351609344
 20
-138.9520757985953
 30
0.0
  0
SEQEND
  5
14C
330
148
100
AcDbEntity
  8
_U+30EC_U+30A4_U+30E4_U+30FC 1
 62
     7
420
 16777215
370
     9
  0
POLYLINE
  5
14D
330
1F
100
AcDbEntity
  8
_U+30EC_U+30A4_U+30E4_U+30FC 1
  6
AI-Linetype-2
 62
   154
420
    23468
370
    25
100
AcDb2dPolyline
 66
     1
 10
0.0
 20
0.0
 30
0.0
  0
VERTEX
  5
14E
330
14D
100
AcDbEntity
  8
_U+30EC_U+30A4_U+30E4_U+30FC 1
  6
AI-Linetype-2
 62
   154
420
    23468
370
    25
100
AcDbVertex
100
AcDb2dVertex
 10
100.0896852242772
 20
-139.9580216316774
 30
0.0
  0
VERTEX
  5
14F
330
14D
100
AcDbEntity
  8
_U+30EC_U+30A4_U+30E4_U+30FC 1
  6
AI-Linetype-2
 62
   154
420
    23468
370
    25
100
AcDbVertex
100
AcDb2dVertex
 10
108.0895208535177
 20
-139.9580216316774
 30
0.0
  0
SEQEND
  5
151
330
14D
100
AcDbEntity
  8
_U+30EC_U+30A4_U+30E4_U+30FC 1
  6
AI-Linetype-2
 62
   154
420
    23468
370
    25
  0
ENDSEC
  0
SECTION
  2
OBJECTS
  0
DICTIONARY
  5
C
330
0
100
AcDbDictionary
281
     1
  3
ACAD_GROUP
350
D
  3
ACAD_LAYOUT
350
1A
  3
ACAD_MATERIAL
350
3B
  3
ACAD_MLEADERSTYLE
350
153
  3
ACAD_MLINESTYLE
350
17
  3
ACAD_PLOTSETTINGS
350
19
  3
ACAD_PLOTSTYLENAME
350
E
  3
ACAD_TABLESTYLE
350
152
  3
ACAD_VISUALSTYLE
350
2A
  0
SUN
  5
3F
330
29
100
AcDbSun
 90
        1
290
     0
 63
     7
421
 16777215
 40
1.0
291
     1
 91
  2455826
 92
 54000000
292
     0
 70
     2
 71
   256
280
     1
  0
DICTIONARY
  5
D
102
{ACAD_REACTORS
330
C
102
}
330
C
100
AcDbDictionary
281
     1
  0
DICTIONARY
  5
1A
102
{ACAD_REACTORS
330
C
102
}
330
C
100
AcDbDictionary
281
     1
  3
Layout1
350
1E
  3
Layout2
350
26
  3
Model
350
22
  0
DICTIONARY
  5
3B
102
{ACAD_REACTORS
330
C
102
}
330
C
100
AcDbDictionary
281
     1
  3
ByBlock
350
3D
  3
ByLayer
350
3C
  3
Global
350
3E
  0
DICTIONARY
  5
153
102
{ACAD_REACTORS
330
C
102
}
330
C
100
AcDbDictionary
281
     1
  0
DICTIONARY
  5
17
102
{ACAD_REACTORS
330
C
102
}
330
C
100
AcDbDictionary
281
     1
  3
Standard
350
18
  0
DICTIONARY
  5
19
102
{ACAD_REACTORS
330
C
102
}
330
C
100
AcDbDictionary
281
     1
  0
ACDBDICTIONARYWDFLT
  5
E
102
{ACAD_REACTORS
330
C
102
}
330
C
100
AcDbDictionary
281
     1
  3
Normal
350
F
100
AcDbDictionaryWithDefault
340
F
  0
DICTIONARY
  5
152
102
{ACAD_REACTORS
330
C
102
}
330
C
100
AcDbDictionary
281
     1
  0
DICTIONARY
  5
2A
102
{ACAD_REACTORS
330
C
102
}
330
C
100
AcDbDictionary
281
     1
  3
2dWireframe
350
2F
  3
3D Hidden
350
31
  3
3dWireframe
350
30
  3
Basic
350
32
  3
Brighten
350
36
  3
ColorChange
350
3A
  3
Conceptual
350
34
  3
Dim
350
35
  3
Facepattern
350
39
  3
Flat
350
2B
  3
FlatWithEdges
350
2C
  3
Gouraud
350
2D
  3
GouraudWithEdges
350
2E
  3
Linepattern
350
38
  3
Realistic
350
33
  3
Thicken
350
37
  0
LAYOUT
  5
1E
102
{ACAD_REACTORS
330
1A
102
}
330
1A
100
AcDbPlotSettings
  1

  2
none_device
  4

  6

 40
0.0
 41
0.0
 42
0.0
 43
0.0
 44
0.0
 45
0.0
 46
0.0
 47
0.0
 48
0.0
 49
0.0
140
0.0
141
0.0
142
1.0
143
1.0
 70
   688
 72
     0
 73
     0
 74
     5
  7

 75
    16
 76
     0
 77
     2
 78
   300
147
1.0
148
0.0
149
0.0
100
AcDbLayout
  1
Layout1
 70
     1
 71
     1
 10
0.0
 20
0.0
 11
12.0
 21
9.0
 12
0.0
 22
0.0
 32
0.0
 14
1.000000000000000E+20
 24
1.000000000000000E+20
 34
1.000000000000000E+20
 15
-1.000000000000000E+20
 25
-1.000000000000000E+20
 35
-1.000000000000000E+20
146
0.0
 13
0.0
 23
0.0
 33
0.0
 16
1.0
 26
0.0
 36
0.0
 17
0.0
 27
1.0
 37
0.0
 76
     0
330
1B
  0
LAYOUT
  5
26
102
{ACAD_REACTORS
330
1A
102
}
330
1A
100
AcDbPlotSettings
  1

  2
none_device
  4

  6

 40
0.0
 41
0.0
 42
0.0
 43
0.0
 44
0.0
 45
0.0
 46
0.0
 47
0.0
 48
0.0
 49
0.0
140
0.0
141
0.0
142
1.0
143
1.0
 70
   688
 72
     0
 73
     0
 74
     5
  7

 75
    16
 76
     0
 77
     2
 78
   300
147
1.0
148
0.0
149
0.0
100
AcDbLayout
  1
Layout2
 70
     1
 71
     2
 10
0.0
 20
0.0
 11
0.0
 21
0.0
 12
0.0
 22
0.0
 32
0.0
 14
0.0
 24
0.0
 34
0.0
 15
0.0
 25
0.0
 35
0.0
146
0.0
 13
0.0
 23
0.0
 33
0.0
 16
1.0
 26
0.0
 36
0.0
 17
0.0
 27
1.0
 37
0.0
 76
     0
330
23
  0
LAYOUT
  5
22
102
{ACAD_REACTORS
330
1A
102
}
330
1A
100
AcDbPlotSettings
  1

  2
none_device
  4

  6

 40
0.0
 41
0.0
 42
0.0
 43
0.0
 44
0.0
 45
0.0
 46
0.0
 47
0.0
 48
0.0
 49
0.0
140
0.0
141
0.0
142
1.0
143
1.0
 70
  1712
 72
     0
 73
     0
 74
     0
  7

 75
     0
 76
     0
 77
     2
 78
   300
147
1.0
148
0.0
149
0.0
100
AcDbLayout
  1
Model
 70
     1
 71
     0
 10
0.0
 20
0.0
 11
12.0
 21
9.0
 12
0.0
 22
0.0
 32
0.0
 14
1.000000000000000E+20
 24
1.000000000000000E+20
 34
1.000000000000000E+20
 15
-1.000000000000000E+20
 25
-1.000000000000000E+20
 35
-1.000000000000000E+20
146
0.0
 13
0.0
 23
0.0
 33
0.0
 16
1.0
 26
0.0
 36
0.0
 17
0.0
 27
1.0
 37
0.0
 76
     0
330
1F
331
29
  0
MATERIAL
  5
3D
102
{ACAD_REACTORS
330
3B
102
}
330
3B
100
AcDbMaterial
  1
ByBlock
 72
     1
 94
      127
  0
MATERIAL
  5
3C
102
{ACAD_REACTORS
330
3B
102
}
330
3B
100
AcDbMaterial
  1
ByLayer
 72
     1
 94
      127
  0
MATERIAL
  5
3E
102
{ACAD_REACTORS
330
3B
102
}
330
3B
100
AcDbMaterial
  1
Global
 72
     1
 94
      127
  0
MLINESTYLE
  5
18
102
{ACAD_REACTORS
330
17
102
}
330
17
100
AcDbMlineStyle
  2
Standard
 70
     0
  3

 62
   256
 51
90.0
 52
90.0
 71
     2
 49
0.5
 62
   256
  6
BYLAYER
 49
-0.5
 62
   256
  6
BYLAYER
  0
ACDBPLACEHOLDER
  5
F
102
{ACAD_REACTORS
330
E
102
}
330
E
  0
VISUALSTYLE
  5
2F
102
{ACAD_REACTORS
330
2A
102
}
330
2A
100
AcDbVisualStyle
  2
2dWireframe
 70
     4
177
     2
291
     0
 71
     0
176
     1
 72
     2
176
     1
 73
     0
176
     1
 90
        0
176
     1
 40
-0.6
176
     1
 41
-30.0
176
     1
 62
     5
 63
     7
421
 16777215
176
     1
 74
     1
176
     1
 91
        4
176
     1
 64
     7
176
     1
 65
   257
176
     1
 75
     1
176
     1
175
     1
176
     1
 42
1.0
176
     1
 92
        0
176
     1
 66
   257
176
     1
 43
1.0
176
     1
 76
     1
176
     1
 77
     6
176
     1
 78
     2
176
     1
 67
     7
176
     1
 79
     5
176
     1
170
     0
176
     1
171
     0
176
     1
290
     0
176
     1
 93
        1
176
     1
 44
0.0
176
     1
173
     0
176
     1
  0
VISUALSTYLE
  5
31
102
{ACAD_REACTORS
330
2A
102
}
330
2A
100
AcDbVisualStyle
  2
3D Hidden
 70
     6
177
     2
291
     0
 71
     1
176
     1
 72
     2
176
     1
 73
     2
176
     1
 90
        0
176
     1
 40
-0.6
176
     1
 41
-30.0
176
     1
 62
     5
 63
     7
421
 16777215
176
     1
 74
     2
176
     1
 91
        2
176
     1
 64
     7
176
     1
 65
   257
176
     1
 75
     2
176
     1
175
     1
176
     1
 42
40.0
176
     1
 92
        0
176
     1
 66
   257
176
     1
 43
1.0
176
     1
 76
     1
176
     1
 77
     6
176
     1
 78
     2
176
     1
 67
     7
176
     1
 79
     3
176
     1
170
     0
176
     1
171
     0
176
     1
290
     0
176
     1
 93
        1
176
     1
 44
0.0
176
     1
173
     0
176
     1
  0
VISUALSTYLE
  5
30
102
{ACAD_REACTORS
330
2A
102
}
330
2A
100
AcDbVisualStyle
  2
3dWireframe
 70
     5
177
     2
291
     0
 71
     0
176
     1
 72
     2
176
     1
 73
     0
176
     1
 90
        0
176
     1
 40
-0.6
176
     1
 41
-30.0
176
     1
 62
     5
 63
     7
421
 16777215
176
     1
 74
     1
176
     1
 91
        4
176
     1
 64
     7
176
     1
 65
   257
176
     1
 75
     1
176
     1
175
     1
176
     1
 42
1.0
176
     1
 92
        0
176
     1
 66
   257
176
     1
 43
1.0
176
     1
 76
     1
176
     1
 77
     6
176
     1
 78
     2
176
     1
 67
     7
176
     1
 79
     5
176
     1
170
     0
176
     1
171
     0
176
     1
290
     0
176
     1
 93
        1
176
     1
 44
0.0
176
     1
173
     0
176
     1
  0
VISUALSTYLE
  5
32
102
{ACAD_REACTORS
330
2A
102
}
330
2A
100
AcDbVisualStyle
  2
Basic
 70
     7
177
     2
291
     1
 71
     1
176
     1
 72
     0
176
     1
 73
     1
176
     1
 90
        0
176
     1
 40
-0.6
176
     1
 41
-30.0
176
     1
 62
     5
 63
     7
421
 16777215
176
     1
 74
     0
176
     1
 91
        4
176
     1
 64
     7
176
     1
 65
   257
176
     1
 75
     1
176
     1
175
     1
176
     1
 42
1.0
176
     1
 92
        8
176
     1
 66
     7
176
     1
 43
1.0
176
     1
 76
     1
176
     1
 77
     6
176
     1
 78
     2
176
     1
 67
     7
176
     1
 79
     5
176
     1
170
     0
176
     1
171
     0
176
     1
290
     0
176
     1
 93
        1
176
     1
 44
0.0
176
     1
173
     0
176
     1
  0
VISUALSTYLE
  5
36
102
{ACAD_REACTORS
330
2A
102
}
330
2A
100
AcDbVisualStyle
  2
Brighten
 70
    12
177
     2
291
     1
 71
     2
176
     1
 72
     2
176
     1
 73
     0
176
     1
 90
        0
176
     1
 40
-0.6
176
     1
 41
-30.0
176
     1
 62
     5
 63
     7
421
 16777215
176
     1
 74
     1
176
     1
 91
        4
176
     1
 64
     7
176
     1
 65
   257
176
     1
 75
     1
176
     1
175
     1
176
     1
 42
1.0
176
     1
 92
        8
176
     1
 66
     7
176
     1
 43
1.0
176
     1
 76
     1
176
     1
 77
     6
176
     1
 78
     2
176
     1
 67
     7
176
     1
 79
     5
176
     1
170
     0
176
     1
171
     0
176
     1
290
     0
176
     1
 93
        1
176
     1
 44
50.0
176
     1
173
     0
176
     1
  0
VISUALSTYLE
  5
3A
102
{ACAD_REACTORS
330
2A
102
}
330
2A
100
AcDbVisualStyle
  2
ColorChange
 70
    16
177
     2
291
     1
 71
     2
176
     1
 72
     2
176
     1
 73
     3
176
     1
 90
        0
176
     1
 40
-0.6
176
     1
 41
-30.0
176
     1
 62
     5
 63
     8
421
  8421504
176
     1
 74
     1
176
     1
 91
        4
176
     1
 64
     7
176
     1
 65
   257
176
     1
 75
     1
176
     1
175
     1
176
     1
 42
1.0
176
     1
 92
        8
176
     1
 66
     8
424
  8421504
176
     1
 43
1.0
176
     1
 76
     1
176
     1
 77
     6
176
     1
 78
     2
176
     1
 67
     7
176
     1
 79
     5
176
     1
170
     0
176
     1
171
     0
176
     1
290
     0
176
     1
 93
        1
176
     1
 44
0.0
176
     1
173
     0
176
     1
  0
VISUALSTYLE
  5
34
102
{ACAD_REACTORS
330
2A
102
}
330
2A
100
AcDbVisualStyle
  2
Conceptual
 70
     9
177
     2
291
     0
 71
     3
176
     1
 72
     2
176
     1
 73
     0
176
     1
 90
        0
176
     1
 40
-0.6
176
     1
 41
-30.0
176
     1
 62
     5
 63
     7
421
 16777215
176
     1
 74
     2
176
     1
 91
        2
176
     1
 64
     7
176
     1
 65
   257
176
     1
 75
     1
176
     1
175
     1
176
     1
 42
40.0
176
     1
 92
        8
176
     1
 66
     7
176
     1
 43
1.0
176
     1
 76
     1
176
     1
 77
     6
176
     1
 78
     2
176
     1
 67
     7
176
     1
 79
     3
176
     1
170
     0
176
     1
171
     0
176
     1
290
     0
176
     1
 93
        1
176
     1
 44
0.0
176
     1
173
     0
176
     1
  0
VISUALSTYLE
  5
35
102
{ACAD_REACTORS
330
2A
102
}
330
2A
100
AcDbVisualStyle
  2
Dim
 70
    11
177
     2
291
     1
 71
     2
176
     1
 72
     2
176
     1
 73
     0
176
     1
 90
        0
176
     1
 40
-0.6
176
     1
 41
-30.0
176
     1
 62
     5
 63
     7
421
 16777215
176
     1
 74
     1
176
     1
 91
        4
176
     1
 64
     7
176
     1
 65
   257
176
     1
 75
     1
176
     1
175
     1
176
     1
 42
1.0
176
     1
 92
        8
176
     1
 66
     7
176
     1
 43
1.0
176
     1
 76
     1
176
     1
 77
     6
176
     1
 78
     2
176
     1
 67
     7
176
     1
 79
     5
176
     1
170
     0
176
     1
171
     0
176
     1
290
     0
176
     1
 93
        1
176
     1
 44
-50.0
176
     1
173
     0
176
     1
  0
VISUALSTYLE
  5
39
102
{ACAD_REACTORS
330
2A
102
}
330
2A
100
AcDbVisualStyle
  2
Facepattern
 70
    15
177
     2
291
     1
 71
     2
176
     1
 72
     2
176
     1
 73
     0
176
     1
 90
        0
176
     1
 40
-0.6
176
     1
 41
-30.0
176
     1
 62
     5
 63
     7
421
 16777215
176
     1
 74
     1
176
     1
 91
        4
176
     1
 64
     7
176
     1
 65
   257
176
     1
 75
     1
176
     1
175
     1
176
     1
 42
1.0
176
     1
 92
        8
176
     1
 66
     7
176
     1
 43
1.0
176
     1
 76
     1
176
     1
 77
     6
176
     1
 78
     2
176
     1
 67
     7
176
     1
 79
     5
176
     1
170
     0
176
     1
171
     0
176
     1
290
     0
176
     1
 93
        1
176
     1
 44
0.0
176
     1
173
     0
176
     1
  0
VISUALSTYLE
  5
2B
102
{ACAD_REACTORS
330
2A
102
}
330
2A
100
AcDbVisualStyle
  2
Flat
 70
     0
177
     2
291
     1
 71
     2
176
     1
 72
     1
176
     1
 73
     1
176
     1
 90
        2
176
     1
 40
-0.6
176
     1
 41
30.0
176
     1
 62
     5
 63
     7
421
 16777215
176
     1
 74
     0
176
     1
 91
        4
176
     1
 64
     7
176
     1
 65
   257
176
     1
 75
     1
176
     1
175
     1
176
     1
 42
1.0
176
     1
 92
        8
176
     1
 66
     7
176
     1
 43
1.0
176
     1
 76
     1
176
     1
 77
     6
176
     1
 78
     2
176
     1
 67
     7
176
     1
 79
     5
176
     1
170
     0
176
     1
171
     0
176
     1
290
     0
176
     1
 93
       13
176
     1
 44
0.0
176
     1
173
     0
176
     1
  0
VISUALSTYLE
  5
2C
102
{ACAD_REACTORS
330
2A
102
}
330
2A
100
AcDbVisualStyle
  2
FlatWithEdges
 70
     1
177
     2
291
     1
 71
     2
176
     1
 72
     1
176
     1
 73
     1
176
     1
 90
        2
176
     1
 40
-0.6
176
     1
 41
30.0
176
     1
 62
     5
 63
     7
421
 16777215
176
     1
 74
     1
176
     1
 91
        4
176
     1
 64
     7
176
     1
 65
   257
176
     1
 75
     1
176
     1
175
     1
176
     1
 42
1.0
176
     1
 92
        0
176
     1
 66
   257
176
     1
 43
1.0
176
     1
 76
     1
176
     1
 77
     6
176
     1
 78
     2
176
     1
 67
     7
176
     1
 79
     5
176
     1
170
     0
176
     1
171
     0
176
     1
290
     0
176
     1
 93
       13
176
     1
 44
0.0
176
     1
173
     0
176
     1
  0
VISUALSTYLE
  5
2D
102
{ACAD_REACTORS
330
2A
102
}
330
2A
100
AcDbVisualStyle
  2
Gouraud
 70
     2
177
     2
291
     1
 71
     2
176
     1
 72
     2
176
     1
 73
     1
176
     1
 90
        2
176
     1
 40
-0.6
176
     1
 41
30.0
176
     1
 62
     5
 63
     7
421
 16777215
176
     1
 74
     0
176
     1
 91
        4
176
     1
 64
     7
176
     1
 65
   257
176
     1
 75
     1
176
     1
175
     1
176
     1
 42
1.0
176
     1
 92
        0
176
     1
 66
     7
176
     1
 43
1.0
176
     1
 76
     1
176
     1
 77
     6
176
     1
 78
     2
176
     1
 67
     7
176
     1
 79
     5
176
     1
170
     0
176
     1
171
     0
176
     1
290
     0
176
     1
 93
       13
176
     1
 44
0.0
176
     1
173
     0
176
     1
  0
VISUALSTYLE
  5
2E
102
{ACAD_REACTORS
330
2A
102
}
330
2A
100
AcDbVisualStyle
  2
GouraudWithEdges
 70
     3
177
     2
291
     1
 71
     2
176
     1
 72
     2
176
     1
 73
     1
176
     1
 90
        2
176
     1
 40
-0.6
176
     1
 41
30.0
176
     1
 62
     5
 63
     7
421
 16777215
176
     1
 74
     1
176
     1
 91
        4
176
     1
 64
     7
176
     1
 65
   257
176
     1
 75
     1
176
     1
175
     1
176
     1
 42
1.0
176
     1
 92
        0
176
     1
 66
   257
176
     1
 43
1.0
176
     1
 76
     1
176
     1
 77
     6
176
     1
 78
     2
176
     1
 67
     7
176
     1
 79
     5
176
     1
170
     0
176
     1
171
     0
176
     1
290
     0
176
     1
 93
       13
176
     1
 44
0.0
176
     1
173
     0
176
     1
  0
VISUALSTYLE
  5
38
102
{ACAD_REACTORS
330
2A
102
}
330
2A
100
AcDbVisualStyle
  2
Linepattern
 70
    14
177
     2
291
     1
 71
     2
176
     1
 72
     2
176
     1
 73
     0
176
     1
 90
        0
176
     1
 40
-0.6
176
     1
 41
-30.0
176
     1
 62
     5
 63
     7
421
 16777215
176
     1
 74
     1
176
     1
 91
        4
176
     1
 64
     7
176
     1
 65
   257
176
     1
 75
     7
176
     1
175
     7
176
     1
 42
1.0
176
     1
 92
        8
176
     1
 66
     7
176
     1
 43
1.0
176
     1
 76
     1
176
     1
 77
     6
176
     1
 78
     2
176
     1
 67
     7
176
     1
 79
     5
176
     1
170
     0
176
     1
171
     0
176
     1
290
     0
176
     1
 93
        1
176
     1
 44
0.0
176
     1
173
     0
176
     1
  0
VISUALSTYLE
  5
33
102
{ACAD_REACTORS
330
2A
102
}
330
2A
100
AcDbVisualStyle
  2
Realistic
 70
     8
177
     2
291
     0
 71
     2
176
     1
 72
     2
176
     1
 73
     0
176
     1
 90
        0
176
     1
 40
-0.6
176
     1
 41
-30.0
176
     1
 62
     5
 63
     7
421
 16777215
176
     1
 74
     1
176
     1
 91
        0
176
     1
 64
     7
176
     1
 65
   257
176
     1
 75
     1
176
     1
175
     1
176
     1
 42
1.0
176
     1
 92
        8
176
     1
 66
     8
424
  7895160
176
     1
 43
1.0
176
     1
 76
     1
176
     1
 77
     6
176
     1
 78
     2
176
     1
 67
     7
176
     1
 79
     5
176
     1
170
     0
176
     1
171
     0
176
     1
290
     0
176
     1
 93
       13
176
     1
 44
0.0
176
     1
173
     0
176
     1
  0
VISUALSTYLE
  5
37
102
{ACAD_REACTORS
330
2A
102
}
330
2A
100
AcDbVisualStyle
  2
Thicken
 70
    13
177
     2
291
     1
 71
     2
176
     1
 72
     2
176
     1
 73
     0
176
     1
 90
        0
176
     1
 40
-0.6
176
     1
 41
-30.0
176
     1
 62
     5
 63
     7
421
 16777215
176
     1
 74
     1
176
     1
 91
        4
176
     1
 64
     7
176
     1
 65
   257
176
     1
 75
     1
176
     1
175
     1
176
     1
 42
1.0
176
     1
 92
       12
176
     1
 66
     7
176
     1
 43
1.0
176
     1
 76
     1
176
     1
 77
     6
176
     1
 78
     2
176
     1
 67
     7
176
     1
 79
     5
176
     1
170
     0
176
     1
171
     0
176
     1
290
     0
176
     1
 93
        1
176
     1
 44
0.0
176
     1
173
     0
176
     1
  0
ENDSEC
  0
EOF
