  0
SECTION
  2
HEADER
  9
$ACADVER
  1
AC1024
  9
$ACADMAINTVER
 70
   226
  9
$DWGCODEPAGE
  3
ANSI_932
  9
$INSBASE
 10
0.0
 20
0.0
 30
0.0
  9
$EXTMIN
 10
1.000000000000000E+20
 20
1.000000000000000E+20
 30
1.000000000000000E+20
  9
$EXTMAX
 10
-1.000000000000000E+20
 20
-1.000000000000000E+20
 30
-1.000000000000000E+20
  9
$LIMMIN
 10
0.0
 20
0.0
  9
$LIMMAX
 10
12.0
 20
9.0
  9
$ORTHOMODE
 70
     0
  9
$REGENMODE
 70
     1
  9
$FILLMODE
 70
     1
  9
$QTEXTMODE
 70
     0
  9
$MIRRTEXT
 70
     0
  9
$LTSCALE
 40
1.0
  9
$ATTMODE
 70
     1
  9
$TEXTSIZE
 40
0.2
  9
$TRACEWID
 40
0.05
  9
$TEXTSTYLE
  7
Standard
  9
$CLAYER
  8
0
  9
$CELTYPE
  6
ByLayer
  9
$CECOLOR
 62
   256
  9
$CELTSCALE
 40
1.0
  9
$DISPSILH
 70
     0
  9
$DIMSCALE
 40
1.0
  9
$DIMASZ
 40
0.18
  9
$DIMEXO
 40
0.0625
  9
$DIMDLI
 40
0.38
  9
$DIMRND
 40
0.0
  9
$DIMDLE
 40
0.0
  9
$DIMEXE
 40
0.18
  9
$DIMTP
 40
0.0
  9
$DIMTM
 40
0.0
  9
$DIMTXT
 40
0.18
  9
$DIMCEN
 40
0.09
  9
$DIMTSZ
 40
0.0
  9
$DIMTOL
 70
     0
  9
$DIMLIM
 70
     0
  9
$DIMTIH
 70
     1
  9
$DIMTOH
 70
     1
  9
$DIMSE1
 70
     0
  9
$DIMSE2
 70
     0
  9
$DIMTAD
 70
     0
  9
$DIMZIN
 70
     0
  9
$DIMBLK
  1

  9
$DIMASO
 70
     1
  9
$DIMSHO
 70
     1
  9
$DIMPOST
  1

  9
$DIMAPOST
  1

  9
$DIMALT
 70
     0
  9
$DIMALTD
 70
     2
  9
$DIMALTF
 40
25.4
  9
$DIMLFAC
 40
1.0
  9
$DIMTOFL
 70
     0
  9
$DIMTVP
 40
0.0
  9
$DIMTIX
 70
     0
  9
$DIMSOXD
 70
     0
  9
$DIMSAH
 70
     0
  9
$DIMBLK1
  1

  9
$DIMBLK2
  1

  9
$DIMSTYLE
  2
Standard
  9
$DIMCLRD
 70
     0
  9
$DIMCLRE
 70
     0
  9
$DIMCLRT
 70
     0
  9
$DIMTFAC
 40
1.0
  9
$DIMGAP
 40
0.09
  9
$DIMJUST
 70
     0
  9
$DIMSD1
 70
     0
  9
$DIMSD2
 70
     0
  9
$DIMTOLJ
 70
     1
  9
$DIMTZIN
 70
     0
  9
$DIMALTZ
 70
     0
  9
$DIMALTTZ
 70
     0
  9
$DIMUPT
 70
     0
  9
$DIMDEC
 70
     4
  9
$DIMTDEC
 70
     4
  9
$DIMALTU
 70
     2
  9
$DIMALTTD
 70
     2
  9
$DIMTXSTY
  7
Standard
  9
$DIMAUNIT
 70
     0
  9
$DIMADEC
 70
     0
  9
$DIMALTRND
 40
0.0
  9
$DIMAZIN
 70
     0
  9
$DIMDSEP
 70
    46
  9
$DIMATFIT
 70
     3
  9
$DIMFRAC
 70
     0
  9
$DIMLDRBLK
  1

  9
$DIMLUNIT
 70
     2
  9
$DIMLWD
 70
    -2
  9
$DIMLWE
 70
    -2
  9
$DIMTMOVE
 70
     0
  9
$DIMFXL
 40
1.0
  9
$DIMFXLON
 70
     0
  9
$DIMJOGANG
 40
0.7853981633974483
  9
$DIMTFILL
 70
     0
  9
$DIMTFILLCLR
 70
     0
  9
$DIMARCSYM
 70
     0
  9
$DIMLTYPE
  6

  9
$DIMLTEX1
  6

  9
$DIMLTEX2
  6

  9
$DIMTXTDIRECTION
 70
     0
  9
$LUNITS
 70
     2
  9
$LUPREC
 70
     4
  9
$SKETCHINC
 40
0.1
  9
$FILLETRAD
 40
0.0
  9
$AUNITS
 70
     0
  9
$AUPREC
 70
     0
  9
$MENU
  1
.
  9
$ELEVATION
 40
0.0
  9
$PELEVATION
 40
0.0
  9
$THICKNESS
 40
0.0
  9
$LIMCHECK
 70
     0
  9
$CHAMFERA
 40
0.0
  9
$CHAMFERB
 40
0.0
  9
$CHAMFERC
 40
0.0
  9
$CHAMFERD
 40
0.0
  9
$SKPOLY
 70
     0
  9
$TDCREATE
 40
2459569.488657407
  9
$TDUCREATE
 40
2459569.113657408
  9
$TDUPDATE
 40
2459569.488657407
  9
$TDUUPDATE
 40
2459569.113657408
  9
$TDINDWG
 40
0.0000000000
  9
$TDUSRTIMER
 40
0.0000000000
  9
$USRTIMER
 70
     1
  9
$ANGBASE
 50
0.0
  9
$ANGDIR
 70
     0
  9
$PDMODE
 70
     0
  9
$PDSIZE
 40
0.0
  9
$PLINEWID
 40
0.0
  9
$SPLFRAME
 70
     0
  9
$SPLINETYPE
 70
     6
  9
$SPLINESEGS
 70
     8
  9
$HANDSEED
  5
151
  9
$SURFTAB1
 70
     6
  9
$SURFTAB2
 70
     6
  9
$SURFTYPE
 70
     6
  9
$SURFU
 70
     6
  9
$SURFV
 70
     6
  9
$UCSBASE
  2

  9
$UCSNAME
  2

  9
$UCSORG
 10
0.0
 20
0.0
 30
0.0
  9
$UCSXDIR
 10
1.0
 20
0.0
 30
0.0
  9
$UCSYDIR
 10
0.0
 20
1.0
 30
0.0
  9
$UCSORTHOREF
  2

  9
$UCSORTHOVIEW
 70
     0
  9
$UCSORGTOP
 10
0.0
 20
0.0
 30
0.0
  9
$UCSORGBOTTOM
 10
0.0
 20
0.0
 30
0.0
  9
$UCSORGLEFT
 10
0.0
 20
0.0
 30
0.0
  9
$UCSORGRIGHT
 10
0.0
 20
0.0
 30
0.0
  9
$UCSORGFRONT
 10
0.0
 20
0.0
 30
0.0
  9
$UCSORGBACK
 10
0.0
 20
0.0
 30
0.0
  9
$PUCSBASE
  2

  9
$PUCSNAME
  2

  9
$PUCSORG
 10
0.0
 20
0.0
 30
0.0
  9
$PUCSXDIR
 10
1.0
 20
0.0
 30
0.0
  9
$PUCSYDIR
 10
0.0
 20
1.0
 30
0.0
  9
$PUCSORTHOREF
  2

  9
$PUCSORTHOVIEW
 70
     0
  9
$PUCSORGTOP
 10
0.0
 20
0.0
 30
0.0
  9
$PUCSORGBOTTOM
 10
0.0
 20
0.0
 30
0.0
  9
$PUCSORGLEFT
 10
0.0
 20
0.0
 30
0.0
  9
$PUCSORGRIGHT
 10
0.0
 20
0.0
 30
0.0
  9
$PUCSORGFRONT
 10
0.0
 20
0.0
 30
0.0
  9
$PUCSORGBACK
 10
0.0
 20
0.0
 30
0.0
  9
$USERI1
 70
     0
  9
$USERI2
 70
     0
  9
$USERI3
 70
     0
  9
$USERI4
 70
     0
  9
$USERI5
 70
     0
  9
$USERR1
 40
0.0
  9
$USERR2
 40
0.0
  9
$USERR3
 40
0.0
  9
$USERR4
 40
0.0
  9
$USERR5
 40
0.0
  9
$WORLDVIEW
 70
     1
  9
$SHADEDGE
 70
     3
  9
$SHADEDIF
 70
    70
  9
$TILEMODE
 70
     1
  9
$MAXACTVP
 70
    64
  9
$PINSBASE
 10
0.0
 20
0.0
 30
0.0
  9
$PLIMCHECK
 70
     0
  9
$PEXTMIN
 10
1.000000000000000E+20
 20
1.000000000000000E+20
 30
1.000000000000000E+20
  9
$PEXTMAX
 10
-1.000000000000000E+20
 20
-1.000000000000000E+20
 30
-1.000000000000000E+20
  9
$PLIMMIN
 10
0.0
 20
0.0
  9
$PLIMMAX
 10
12.0
 20
9.0
  9
$UNITMODE
 70
     0
  9
$VISRETAIN
 70
     1
  9
$PLINEGEN
 70
     0
  9
$PSLTSCALE
 70
     1
  9
$TREEDEPTH
 70
  3020
  9
$CMLSTYLE
  2
Standard
  9
$CMLJUST
 70
     0
  9
$CMLSCALE
 40
1.0
  9
$PROXYGRAPHICS
 70
     1
  9
$MEASUREMENT
 70
     0
  9
$CELWEIGHT
370
    -1
  9
$ENDCAPS
280
     0
  9
$JOINSTYLE
280
     0
  9
$LWDISPLAY
290
     1
  9
$INSUNITS
 70
     4
  9
$HYPERLINKBASE
  1

  9
$STYLESHEET
  1

  9
$XEDIT
290
     1
  9
$CEPSNTYPE
380
     0
  9
$PSTYLEMODE
290
     1
  9
$FINGERPRINTGUID
  2
{6A11A956-3D1B-124C-B077-AABB922F4598}
  9
$VERSIONGUID
  2
{ECBCB977-55ED-834E-8539-C38CFB473D04}
  9
$EXTNAMES
290
     1
  9
$PSVPSCALE
 40
0.0
  9
$OLESTARTUP
290
     0
  9
$SORTENTS
280
   127
  9
$INDEXCTL
280
     0
  9
$HIDETEXT
280
     1
  9
$XCLIPFRAME
280
     2
  9
$HALOGAP
280
     0
  9
$OBSCOLOR
 70
   257
  9
$OBSLTYPE
280
     0
  9
$INTERSECTIONDISPLAY
280
     0
  9
$INTERSECTIONCOLOR
 70
   257
  9
$DIMASSOC
280
     2
  9
$PROJECTNAME
  1

  9
$CAMERADISPLAY
290
     0
  9
$LENSLENGTH
 40
50.0
  9
$CAMERAHEIGHT
 40
0.0
  9
$STEPSPERSEC
 40
2.0
  9
$STEPSIZE
 40
6.0
  9
$3DDWFPREC
 40
2.0
  9
$PSOLWIDTH
 40
0.25
  9
$PSOLHEIGHT
 40
4.0
  9
$LOFTANG1
 40
1.570796326794896
  9
$LOFTANG2
 40
1.570796326794896
  9
$LOFTMAG1
 40
0.0
  9
$LOFTMAG2
 40
0.0
  9
$LOFTPARAM
 70
     7
  9
$LOFTNORMALS
280
     1
  9
$LATITUDE
 40
37.795
  9
$LONGITUDE
 40
-122.394
  9
$NORTHDIRECTION
 40
0.0
  9
$TIMEZONE
 70
 -8000
  9
$LIGHTGLYPHDISPLAY
280
     1
  9
$TILEMODELIGHTSYNCH
280
     1
  9
$CMATERIAL
347
11
  9
$SOLIDHIST
280
     0
  9
$SHOWHIST
280
     1
  9
$DWFFRAME
280
     2
  9
$DGNFRAME
280
     0
  9
$REALWORLDSCALE
290
     1
  9
$INTERFERECOLOR
 62
     1
  9
$INTERFEREOBJVS
345
33
  9
$INTERFEREVPVS
346
30
  9
$CSHADOW
280
     0
  9
$SHADOWPLANELOCATION
 40
0.0
  0
ENDSEC
  0
SECTION
  2
CLASSES
  0
CLASS
  1
ACDBDICTIONARYWDFLT
  2
AcDbDictionaryWithDefault
  3
ObjectDBX Classes
 90
        0
 91
        1
280
     0
281
     0
  0
CLASS
  1
MATERIAL
  2
AcDbMaterial
  3
ObjectDBX Classes
 90
     1153
 91
        3
280
     0
281
     0
  0
CLASS
  1
VISUALSTYLE
  2
AcDbVisualStyle
  3
ObjectDBX Classes
 90
     4095
 91
       24
280
     0
281
     0
  0
CLASS
  1
SCALE
  2
AcDbScale
  3
ObjectDBX Classes
 90
     1153
 91
       17
280
     0
281
     0
  0
CLASS
  1
TABLESTYLE
  2
AcDbTableStyle
  3
ObjectDBX Classes
 90
     4095
 91
        1
280
     0
281
     0
  0
CLASS
  1
MLEADERSTYLE
  2
AcDbMLeaderStyle
  3
ACDB_MLEADERSTYLE_CLASS
 90
     4095
 91
        1
280
     0
281
     0
  0
CLASS
  1
ACDBSECTIONVIEWSTYLE
  2
AcDbSectionViewStyle
  3
ObjectDBX Classes
 90
     1025
 91
        1
280
     0
281
     0
  0
CLASS
  1
ACDBDETAILVIEWSTYLE
  2
AcDbDetailViewStyle
  3
ObjectDBX Classes
 90
     1025
 91
        1
280
     0
281
     0
  0
CLASS
  1
DICTIONARYVAR
  2
AcDbDictionaryVar
  3
ObjectDBX Classes
 90
        0
 91
        5
280
     0
281
     0
  0
CLASS
  1
CELLSTYLEMAP
  2
AcDbCellStyleMap
  3
ObjectDBX Classes
 90
     1152
 91
        1
280
     0
281
     0
  0
ENDSEC
  0
SECTION
  2
TABLES
  0
TABLE
  2
VPORT
  5
8
330
0
100
AcDbSymbolTable
 70
     1
  0
VPORT
  5
57
330
8
100
AcDbSymbolTableRecord
100
AcDbViewportTableRecord
  2
*Active
 70
     0
 10
0.0
 20
0.0
 11
1.0
 21
1.0
 12
0.0
 22
0.0
 13
0.0
 23
0.0
 14
1.0
 24
1.0
 15
0.0
 25
0.0
 16
0.0
 26
0.0
 36
1.0
 17
104.9999999737534
 27
-148.4999999628701
 37
0.0
 40
302.939999924255
 41
0.7070707070707534
 42
50.0
 43
0.0
 44
0.0
 50
0.0
 51
0.0
 71
     0
 72
   100
 73
     1
 74
     0
 75
     1
 76
     0
 77
     0
 78
     0
281
     0
 65
     1
110
0.0
120
0.0
130
0.0
111
1.0
121
0.0
131
0.0
112
0.0
122
1.0
132
0.0
 79
     0
146
0.0
 60
     3
 61
     5
292
     1
282
     1
141
0.0
142
0.0
 63
   250
421
  3355443
  0
ENDTAB
  0
TABLE
  2
LTYPE
  5
5
330
0
100
AcDbSymbolTable
 70
     1
  0
LTYPE
  5
5B
330
5
100
AcDbSymbolTableRecord
100
AcDbLinetypeTableRecord
  2
ByBlock
 70
     0
  3

 72
    65
 73
     0
 40
0.0
  0
LTYPE
  5
5C
330
5
100
AcDbSymbolTableRecord
100
AcDbLinetypeTableRecord
  2
ByLayer
 70
     0
  3

 72
    65
 73
     0
 40
0.0
  0
LTYPE
  5
5D
330
5
100
AcDbSymbolTableRecord
100
AcDbLinetypeTableRecord
  2
Continuous
 70
     0
  3
Solid line
 72
    65
 73
     0
 40
0.0
  0
ENDTAB
  0
TABLE
  2
LAYER
  5
2
330
0
100
AcDbSymbolTable
 70
     2
  0
LAYER
  5
54
330
2
100
AcDbSymbolTableRecord
100
AcDbLayerTableRecord
  2
0
 70
     0
 62
     7
  6
Continuous
370
    -3
390
F
347
21
  0
LAYER
  5
78
330
2
100
AcDbSymbolTableRecord
100
AcDbLayerTableRecord
  2
レイヤー 1
 70
     0
 62
     7
  6
Continuous
370
     0
390
F
347
21
  0
ENDTAB
  0
TABLE
  2
STYLE
  5
3
330
0
100
AcDbSymbolTable
 70
     2
  0
STYLE
  5
55
330
3
100
AcDbSymbolTableRecord
100
AcDbTextStyleTableRecord
  2
Standard
 70
     0
 40
0.0
 41
1.0
 50
0.0
 71
     0
 42
0.2
  3
txt
  4

  0
STYLE
  5
5A
330
3
100
AcDbSymbolTableRecord
100
AcDbTextStyleTableRecord
  2
Annotative
 70
     0
 40
0.0
 41
1.0
 50
0.0
 71
     0
 42
0.2
  3
txt
  4

1001
AcadAnnotative
1000
AnnotativeData
1002
{
1070
     1
1070
     1
1002
}
  0
ENDTAB
  0
TABLE
  2
VIEW
  5
6
330
0
100
AcDbSymbolTable
 70
     0
  0
ENDTAB
  0
TABLE
  2
UCS
  5
7
330
0
100
AcDbSymbolTable
 70
     0
  0
ENDTAB
  0
TABLE
  2
APPID
  5
9
330
0
100
AcDbSymbolTable
 70
     2
  0
APPID
  5
56
330
9
100
AcDbSymbolTableRecord
100
AcDbRegAppTableRecord
  2
ACAD
 70
     0
  0
APPID
  5
5E
330
9
100
AcDbSymbolTableRecord
100
AcDbRegAppTableRecord
  2
AcadAnnotative
 70
     0
  0
ENDTAB
  0
TABLE
  2
DIMSTYLE
  5
A
330
0
100
AcDbSymbolTable
 70
     2
100
AcDbDimStyleTable
 71
     0
  0
DIMSTYLE
105
58
330
A
100
AcDbSymbolTableRecord
100
AcDbDimStyleTableRecord
  2
Standard
 70
     0
340
55
  0
DIMSTYLE
105
59
330
A
100
AcDbSymbolTableRecord
100
AcDbDimStyleTableRecord
  2
Annotative
 70
     0
340
55
1001
AcadAnnotative
1000
AnnotativeData
1002
{
1070
     1
1070
     1
1002
}
  0
ENDTAB
  0
TABLE
  2
BLOCK_RECORD
  5
1
330
0
100
AcDbSymbolTable
 70
    16
  0
BLOCK_RECORD
  5
70
330
1
100
AcDbSymbolTableRecord
100
AcDbBlockTableRecord
  2
*Model_Space
340
73
 70
     0
280
     1
281
     0
  0
BLOCK_RECORD
  5
6C
330
1
100
AcDbSymbolTableRecord
100
AcDbBlockTableRecord
  2
*Paper_Space
340
6F
 70
     0
280
     1
281
     0
  0
BLOCK_RECORD
  5
74
330
1
100
AcDbSymbolTableRecord
100
AcDbBlockTableRecord
  2
*Paper_Space0
340
77
 70
     0
280
     1
281
     0
  0
BLOCK_RECORD
  5
7B
330
1
100
AcDbSymbolTableRecord
100
AcDbBlockTableRecord
  2
Block_0
340
0
102
{BLKREFS
331
7C
102
}
 70
     0
280
     1
281
     0
  0
BLOCK_RECORD
  5
8A
330
1
100
AcDbSymbolTableRecord
100
AcDbBlockTableRecord
  2
Block_1
340
0
102
{BLKREFS
331
8B
102
}
 70
     0
280
     1
281
     0
  0
BLOCK_RECORD
  5
A4
330
1
100
AcDbSymbolTableRecord
100
AcDbBlockTableRecord
  2
Block_2
340
0
102
{BLKREFS
331
A5
102
}
 70
     0
280
     1
281
     0
  0
BLOCK_RECORD
  5
B4
330
1
100
AcDbSymbolTableRecord
100
AcDbBlockTableRecord
  2
Block_3
340
0
102
{BLKREFS
331
B5
102
}
 70
     0
280
     1
281
     0
  0
BLOCK_RECORD
  5
B8
330
1
100
AcDbSymbolTableRecord
100
AcDbBlockTableRecord
  2
Block_4
340
0
102
{BLKREFS
331
B9
102
}
 70
     0
280
     1
281
     0
  0
BLOCK_RECORD
  5
C5
330
1
100
AcDbSymbolTableRecord
100
AcDbBlockTableRecord
  2
Block_5
340
0
102
{BLKREFS
331
C6
102
}
 70
     0
280
     1
281
     0
  0
BLOCK_RECORD
  5
C9
330
1
100
AcDbSymbolTableRecord
100
AcDbBlockTableRecord
  2
Block_6
340
0
102
{BLKREFS
331
CA
102
}
 70
     0
280
     1
281
     0
  0
BLOCK_RECORD
  5
D1
330
1
100
AcDbSymbolTableRecord
100
AcDbBlockTableRecord
  2
Block_7
340
0
102
{BLKREFS
331
D2
102
}
 70
     0
280
     1
281
     0
  0
BLOCK_RECORD
  5
D5
330
1
100
AcDbSymbolTableRecord
100
AcDbBlockTableRecord
  2
Block_8
340
0
102
{BLKREFS
331
D6
102
}
 70
     0
280
     1
281
     0
  0
BLOCK_RECORD
  5
DD
330
1
100
AcDbSymbolTableRecord
100
AcDbBlockTableRecord
  2
Block_9
340
0
102
{BLKREFS
331
DE
102
}
 70
     0
280
     1
281
     0
  0
BLOCK_RECORD
  5
E1
330
1
100
AcDbSymbolTableRecord
100
AcDbBlockTableRecord
  2
Block_10
340
0
102
{BLKREFS
331
E2
102
}
 70
     0
280
     1
281
     0
  0
BLOCK_RECORD
  5
EB
330
1
100
AcDbSymbolTableRecord
100
AcDbBlockTableRecord
  2
Block_11
340
0
102
{BLKREFS
331
EC
102
}
 70
     0
280
     1
281
     0
  0
BLOCK_RECORD
  5
EF
330
1
100
AcDbSymbolTableRecord
100
AcDbBlockTableRecord
  2
Block_12
340
0
102
{BLKREFS
331
F0
102
}
 70
     0
280
     1
281
     0
  0
BLOCK_RECORD
  5
F8
330
1
100
AcDbSymbolTableRecord
100
AcDbBlockTableRecord
  2
Block_13
340
0
102
{BLKREFS
331
F9
102
}
 70
     0
280
     1
281
     0
  0
BLOCK_RECORD
  5
FC
330
1
100
AcDbSymbolTableRecord
100
AcDbBlockTableRecord
  2
Block_14
340
0
102
{BLKREFS
331
FD
102
}
 70
     0
280
     1
281
     0
  0
ENDTAB
  0
ENDSEC
  0
SECTION
  2
BLOCKS
  0
BLOCK
  5
71
330
70
100
AcDbEntity
  8
0
100
AcDbBlockBegin
  2
*Model_Space
 70
     0
 10
0.0
 20
0.0
 30
0.0
  3
*Model_Space
  1

  0
ENDBLK
  5
72
330
70
100
AcDbEntity
  8
0
100
AcDbBlockEnd
  0
BLOCK
  5
6D
330
6C
100
AcDbEntity
 67
     1
  8
0
100
AcDbBlockBegin
  2
*Paper_Space
 70
     0
 10
0.0
 20
0.0
 30
0.0
  3
*Paper_Space
  1

  0
ENDBLK
  5
6E
330
6C
100
AcDbEntity
 67
     1
  8
0
100
AcDbBlockEnd
  0
BLOCK
  5
75
330
74
100
AcDbEntity
 67
     1
  8
0
100
AcDbBlockBegin
  2
*Paper_Space0
 70
     0
 10
0.0
 20
0.0
 30
0.0
  3
*Paper_Space0
  1

  0
ENDBLK
  5
76
330
74
100
AcDbEntity
 67
     1
  8
0
100
AcDbBlockEnd
  0
BLOCK
  5
7D
330
7B
100
AcDbEntity
  8
0
100
AcDbBlockBegin
  2
Block_0
 70
     0
 10
0.0
 20
0.0
 30
0.0
  3
Block_0
  1

  0
LINE
  5
7F
330
7B
100
AcDbEntity
  8
レイヤー 1
 62
   250
420
  2299925
370
     9
100
AcDbLine
 10
126.3743860712538
 20
-146.4316503820008
 30
0.0
 11
130.3431359700026
 21
-146.4316503820008
 31
0.0
  0
LINE
  5
80
330
7B
100
AcDbEntity
  8
レイヤー 1
 62
   250
420
  2299925
370
     9
100
AcDbLine
 10
128.7997332316003
 20
-146.4309448264453
 30
0.0
 11
128.7997332316003
 21
-154.6809353799381
 31
0.0
  0
LINE
  5
81
330
7B
100
AcDbEntity
  8
レイヤー 1
 62
   250
420
  2299925
370
     9
100
AcDbLine
 10
126.2861916290594
 20
-164.8818575996104
 30
0.0
 11
130.3872331910998
 21
-164.8818575996104
 31
0.0
  0
LINE
  5
82
330
7B
100
AcDbEntity
  8
レイヤー 1
 62
   250
420
  2299925
370
     9
100
AcDbLine
 10
128.7721812878588
 20
-164.8818575996104
 30
0.0
 11
128.7721812878588
 21
-156.6318670461174
 31
0.0
  0
LINE
  5
83
330
7B
100
AcDbEntity
  8
レイヤー 1
 62
   250
420
  2299925
370
     9
100
AcDbLine
 10
126.5280560673334
 20
-165.6897187105199
 30
0.0
 11
129.1738893331659
 21
-167.5418020433902
 31
0.0
  0
SPLINE
  5
84
330
7B
100
AcDbEntity
  8
レイヤー 1
100
AcDbSpline
210
0.0
220
0.0
230
1.0
 70
     9
 71
     3
 72
    17
 73
    13
 74
     0
 42
0.0000000001
 43
0.0000000001
 40
0.0
 40
0.0
 40
0.0
 40
0.0
 40
1.0
 40
1.0
 40
1.0
 40
2.0
 40
2.0
 40
2.0
 40
3.0
 40
3.0
 40
3.0
 40
4.0
 40
4.0
 40
4.0
 40
4.0
 10
128.415981574724
 20
-166.8827425991102
 30
0.0
 10
128.415981574724
 20
-167.0143639879665
 30
0.0
 10
128.3091604663381
 20
-167.1211498212732
 30
0.0
 10
128.177574358584
 20
-167.1211498212732
 30
0.0
 10
128.0459542238669
 20
-167.1211498212732
 30
0.0
 10
127.9391671424441
 20
-167.0143639879665
 30
0.0
 10
127.9391671424441
 20
-166.8827425991102
 30
0.0
 10
127.9391671424441
 20
-166.7518267658095
 30
0.0
 10
128.0459542238669
 20
-166.6450409325029
 30
0.0
 10
128.177574358584
 20
-166.6450409325029
 30
0.0
 10
128.3091604663381
 20
-166.6450409325029
 30
0.0
 10
128.415981574724
 20
-166.7518267658095
 30
0.0
 10
128.415981574724
 20
-166.8827425991102
 30
0.0
  0
HATCH
  5
85
330
7B
100
AcDbEntity
  8
レイヤー 1
 62
   250
420
  2299925
440
 33554687
100
AcDbHatch
 10
0.0
 20
0.0
 30
0.0
210
0.0
220
0.0
230
1.0
  2
SOLID
 70
     1
 71
     1
 91
        1
 92
        1
 93
        1
 72
     4
 94
        3
 73
     0
 74
     0
 95
       17
 96
       13
 40
0.0
 40
0.0
 40
0.0
 40
0.0
 40
1.0
 40
1.0
 40
1.0
 40
2.0
 40
2.0
 40
2.0
 40
3.0
 40
3.0
 40
3.0
 40
4.0
 40
4.0
 40
4.0
 40
4.0
 10
128.415981574724
 20
-166.8827425991102
 10
128.415981574724
 20
-167.0143639879665
 10
128.3091604663381
 20
-167.1211498212732
 10
128.177574358584
 20
-167.1211498212732
 10
128.0459542238669
 20
-167.1211498212732
 10
127.9391671424441
 20
-167.0143639879665
 10
127.9391671424441
 20
-166.8827425991102
 10
127.9391671424441
 20
-166.7518267658095
 10
128.0459542238669
 20
-166.6450409325029
 10
128.177574358584
 20
-166.6450409325029
 10
128.3091604663381
 20
-166.6450409325029
 10
128.415981574724
 20
-166.7518267658095
 10
128.415981574724
 20
-166.8827425991102
 97
        0
 97
        1
330
84
 75
     2
 76
     1
 98
        1
 10
0.0
 20
0.0
450
        0
451
        0
460
0.0
461
0.0
452
        0
462
0.0
453
        0
470

  0
SPLINE
  5
86
330
7B
100
AcDbEntity
  8
レイヤー 1
100
AcDbSpline
210
0.0
220
0.0
230
1.0
 70
     9
 71
     3
 72
    17
 73
    13
 74
     0
 42
0.0000000001
 43
0.0000000001
 40
0.0
 40
0.0
 40
0.0
 40
0.0
 40
1.0
 40
1.0
 40
1.0
 40
2.0
 40
2.0
 40
2.0
 40
3.0
 40
3.0
 40
3.0
 40
4.0
 40
4.0
 40
4.0
 40
4.0
 10
129.0098829484612
 20
-164.8701453773919
 30
0.0
 10
129.0098829484612
 20
-165.0017314884699
 30
0.0
 10
128.9030971178522
 20
-165.1085173217766
 30
0.0
 10
128.7715110100981
 20
-165.1085173217766
 30
0.0
 10
128.6398896245671
 20
-165.1085173217766
 30
0.0
 10
128.5337740717188
 20
-165.0017314884699
 30
0.0
 10
128.5337740717188
 20
-164.8701453773919
 30
0.0
 10
128.5337740717188
 20
-164.7385239885356
 30
0.0
 10
128.6398896245671
 20
-164.6317381552289
 30
0.0
 10
128.7715110100981
 20
-164.6317381552289
 30
0.0
 10
128.9030971178522
 20
-164.6317381552289
 30
0.0
 10
129.0098829484612
 20
-164.7385239885356
 30
0.0
 10
129.0098829484612
 20
-164.8701453773919
 30
0.0
  0
HATCH
  5
87
330
7B
100
AcDbEntity
  8
レイヤー 1
 62
   250
420
  2299925
440
 33554687
100
AcDbHatch
 10
0.0
 20
0.0
 30
0.0
210
0.0
220
0.0
230
1.0
  2
SOLID
 70
     1
 71
     1
 91
        1
 92
        1
 93
        1
 72
     4
 94
        3
 73
     0
 74
     0
 95
       17
 96
       13
 40
0.0
 40
0.0
 40
0.0
 40
0.0
 40
1.0
 40
1.0
 40
1.0
 40
2.0
 40
2.0
 40
2.0
 40
3.0
 40
3.0
 40
3.0
 40
4.0
 40
4.0
 40
4.0
 40
4.0
 10
129.0098829484612
 20
-164.8701453773919
 10
129.0098829484612
 20
-165.0017314884699
 10
128.9030971178522
 20
-165.1085173217766
 10
128.7715110100981
 20
-165.1085173217766
 10
128.6398896245671
 20
-165.1085173217766
 10
128.5337740717188
 20
-165.0017314884699
 10
128.5337740717188
 20
-164.8701453773919
 10
128.5337740717188
 20
-164.7385239885356
 10
128.6398896245671
 20
-164.6317381552289
 10
128.7715110100981
 20
-164.6317381552289
 10
128.9030971178522
 20
-164.6317381552289
 10
129.0098829484612
 20
-164.7385239885356
 10
129.0098829484612
 20
-164.8701453773919
 97
        0
 97
        1
330
86
 75
     2
 76
     1
 98
        1
 10
0.0
 20
0.0
450
        0
451
        0
460
0.0
461
0.0
452
        0
462
0.0
453
        0
470

  0
SPLINE
  5
88
330
7B
100
AcDbEntity
  8
レイヤー 1
100
AcDbSpline
210
0.0
220
0.0
230
1.0
 70
     9
 71
     3
 72
    17
 73
    13
 74
     0
 42
0.0000000001
 43
0.0000000001
 40
0.0
 40
0.0
 40
0.0
 40
0.0
 40
1.0
 40
1.0
 40
1.0
 40
2.0
 40
2.0
 40
2.0
 40
3.0
 40
3.0
 40
3.0
 40
4.0
 40
4.0
 40
4.0
 40
4.0
 10
129.0264282258168
 20
-146.4192326042261
 30
0.0
 10
129.0264282258168
 20
-146.5508539930823
 30
0.0
 10
128.9196423952078
 20
-146.657639826389
 30
0.0
 10
128.7880210096769
 20
-146.657639826389
 30
0.0
 10
128.6564349019228
 20
-146.657639826389
 30
0.0
 10
128.5503193490745
 20
-146.5508539930823
 30
0.0
 10
128.5503193490745
 20
-146.4192326042261
 30
0.0
 10
128.5503193490745
 20
-146.287646493148
 30
0.0
 10
128.6564349019228
 20
-146.1808253820638
 30
0.0
 10
128.7880210096769
 20
-146.1808253820638
 30
0.0
 10
128.9196423952078
 20
-146.1808253820638
 30
0.0
 10
129.0264282258168
 20
-146.287646493148
 30
0.0
 10
129.0264282258168
 20
-146.4192326042261
 30
0.0
  0
HATCH
  5
89
330
7B
100
AcDbEntity
  8
レイヤー 1
 62
   250
420
  2299925
440
 33554687
100
AcDbHatch
 10
0.0
 20
0.0
 30
0.0
210
0.0
220
0.0
230
1.0
  2
SOLID
 70
     1
 71
     1
 91
        1
 92
        1
 93
        1
 72
     4
 94
        3
 73
     0
 74
     0
 95
       17
 96
       13
 40
0.0
 40
0.0
 40
0.0
 40
0.0
 40
1.0
 40
1.0
 40
1.0
 40
2.0
 40
2.0
 40
2.0
 40
3.0
 40
3.0
 40
3.0
 40
4.0
 40
4.0
 40
4.0
 40
4.0
 10
129.0264282258168
 20
-146.4192326042261
 10
129.0264282258168
 20
-146.5508539930823
 10
128.9196423952078
 20
-146.657639826389
 10
128.7880210096769
 20
-146.657639826389
 10
128.6564349019228
 20
-146.657639826389
 10
128.5503193490745
 20
-146.5508539930823
 10
128.5503193490745
 20
-146.4192326042261
 10
128.5503193490745
 20
-146.287646493148
 10
128.6564349019228
 20
-146.1808253820638
 10
128.7880210096769
 20
-146.1808253820638
 10
128.9196423952078
 20
-146.1808253820638
 10
129.0264282258168
 20
-146.287646493148
 10
129.0264282258168
 20
-146.4192326042261
 97
        0
 97
        1
330
88
 75
     2
 76
     1
 98
        1
 10
0.0
 20
0.0
450
        0
451
        0
460
0.0
461
0.0
452
        0
462
0.0
453
        0
470

  0
INSERT
  5
8B
330
7B
100
AcDbEntity
  8
レイヤー 1
100
AcDbBlockReference
  2
Block_1
 10
0.0
 20
0.0
 30
0.0
  0
INSERT
  5
EC
330
7B
100
AcDbEntity
  8
レイヤー 1
100
AcDbBlockReference
  2
Block_11
 10
0.0
 20
0.0
 30
0.0
  0
ENDBLK
  5
7E
330
7B
100
AcDbEntity
  8
0
100
AcDbBlockEnd
  0
BLOCK
  5
8C
330
8A
100
AcDbEntity
  8
0
100
AcDbBlockBegin
  2
Block_1
 70
     0
 10
0.0
 20
0.0
 30
0.0
  3
Block_1
  1

  0
LWPOLYLINE
  5
8E
330
8A
100
AcDbEntity
  8
レイヤー 1
 62
   250
420
  2299925
370
     9
100
AcDbPolyline
 90
        8
 70
     0
 43
0.0
 10
87.6417156228574
 20
-122.8051701101296
 10
125.1551861023582
 20
-146.4412812153317
 10
125.1548333245894
 20
-163.9558159331753
 10
110.4914850615893
 20
-170.1879881538399
 10
107.316485062383
 20
-170.129427042743
 10
102.4950711746997
 20
-166.7484048213664
 10
103.6705267299615
 20
-165.2780270439557
 10
118.7455668214368
 20
-159.9574326008419
  0
LWPOLYLINE
  5
8F
330
8A
100
AcDbEntity
  8
レイヤー 1
 62
   250
420
  2299925
370
     9
100
AcDbPolyline
 90
        6
 70
     0
 43
0.0
 10
102.4950711746997
 20
-166.7484048213664
 10
102.4950711746997
 20
-166.9737239879766
 10
107.316485062383
 20
-170.3795464871245
 10
110.4914850615893
 20
-170.4129545426723
 10
125.2133944342065
 20
-164.4053959330636
 10
125.2133944342065
 20
-164.8522242662849
  0
LINE
  5
90
330
8A
100
AcDbEntity
  8
レイヤー 1
 62
   250
420
  2299925
370
     9
100
AcDbLine
 10
111.8877795056842
 20
-156.4148381572827
 30
0.0
 11
117.973195174475
 21
-160.2368326007712
 31
0.0
  0
LINE
  5
91
330
8A
100
AcDbEntity
  8
レイヤー 1
 62
   250
420
  2299925
370
     9
100
AcDbLine
 10
86.88500728971341
 20
-140.5246687168112
 30
0.0
 11
92.97007117708096
 21
-144.4052242713966
 31
0.0
  0
LINE
  5
92
330
8A
100
AcDbEntity
  8
レイヤー 1
 62
   250
420
  2299925
370
     9
100
AcDbLine
 10
99.77586006426854
 20
-148.6978242703234
 30
0.0
 11
105.0527100629492
 21
-152.0636770472598
 31
0.0
  0
LWPOLYLINE
  5
93
330
8A
100
AcDbEntity
  8
レイヤー 1
 62
   250
420
  2299925
370
     9
100
AcDbPolyline
 90
        8
 70
     1
 43
0.0
 10
93.88147256574191
 20
-144.052446493707
 10
79.47631765267671
 20
-149.138796492435
 10
78.52099366680429
 20
-150.2556909366006
 10
78.52116582236
 20
-150.4803045476553
 10
82.65132117966066
 20
-153.2587823247385
 10
85.8704184010781
 20
-153.4351712135833
 10
100.1873753419432
 20
-148.5744931592436
 10
100.1873753419432
 20
-148.1245603815778
  0
LINE
  5
94
330
8A
100
AcDbEntity
  8
レイヤー 1
 62
   250
420
  2299925
370
     9
100
AcDbLine
 10
118.8048334865914
 20
-159.9574326008419
 30
0.0
 11
125.1548333245894
 21
-163.9558159331753
 31
0.0
  0
LWPOLYLINE
  5
95
330
8A
100
AcDbEntity
  8
レイヤー 1
 62
   250
420
  2299925
370
     9
100
AcDbPolyline
 90
        5
 70
     0
 43
0.0
 10
124.8375449993508
 20
-164.6021048219034
 10
125.2133944342065
 20
-164.8522242662849
 10
125.6051188686573
 20
-164.6028103774576
 10
125.6051188686573
 20
-146.147064548739
 10
87.6417156228574
 20
-122.5109534435369
  0
LINE
  5
96
330
8A
100
AcDbEntity
  8
レイヤー 1
 62
   250
420
  2299925
370
     9
100
AcDbLine
 10
107.316485062383
 20
-170.129427042743
 30
0.0
 11
107.316485062383
 21
-170.3795464871245
 31
0.0
  0
LINE
  5
97
330
8A
100
AcDbEntity
  8
レイヤー 1
 62
   250
420
  2299925
370
     9
100
AcDbLine
 10
110.4914850615893
 20
-170.1879881538399
 30
0.0
 11
110.4914850615893
 21
-170.4129545426723
 31
0.0
  0
LWPOLYLINE
  5
98
330
8A
100
AcDbEntity
  8
レイヤー 1
 62
   250
420
  2299925
370
     9
100
AcDbPolyline
 90
        4
 70
     0
 43
0.0
 10
100.1873753419432
 20
-148.1245603815778
 10
85.8704184010781
 20
-153.2102048247509
 10
82.65132117966066
 20
-153.0338159359061
 10
78.57973257790097
 20
-150.2708603810405
  0
LINE
  5
99
330
8A
100
AcDbEntity
  8
レイヤー 1
 62
   250
420
  2299925
370
     9
100
AcDbLine
 10
82.65132117966066
 20
-153.0338159359061
 30
0.0
 11
82.65132117966066
 21
-153.2587823247385
 31
0.0
  0
LINE
  5
9A
330
8A
100
AcDbEntity
  8
レイヤー 1
 62
   250
420
  2299925
370
     9
100
AcDbLine
 10
85.8704184010781
 20
-153.2102048247509
 30
0.0
 11
85.8704184010781
 21
-153.4351712135833
 31
0.0
  0
LWPOLYLINE
  5
9B
330
8A
100
AcDbEntity
  8
レイヤー 1
 62
   250
420
  2299925
370
     9
100
AcDbPolyline
 90
        8
 70
     1
 43
0.0
 10
106.0815864515813
 20
-151.8435437139815
 10
112.313935061134
 20
-155.8271103796515
 10
112.313935061134
 20
-156.2777134350949
 10
97.55618228704555
 20
-161.3065253782821
 10
94.2488906212057
 20
-161.3065253782821
 10
90.04501423336767
 20
-158.4185101012264
 10
90.04501423336767
 20
-158.1931909346162
 10
91.29437673305544
 20
-156.9291881571549
  0
LWPOLYLINE
  5
9C
330
8A
100
AcDbEntity
  8
レイヤー 1
 62
   250
420
  2299925
370
     9
100
AcDbPolyline
 90
        4
 70
     0
 43
0.0
 10
112.313935061134
 20
-155.8271103796515
 10
97.55618228704555
 20
-161.0815589894497
 10
94.2488906212057
 20
-161.0815589894497
 10
90.04501423336767
 20
-158.1931909346162
  0
LINE
  5
9D
330
8A
100
AcDbEntity
  8
レイヤー 1
 62
   250
420
  2299925
370
     9
100
AcDbLine
 10
97.55618228704555
 20
-161.0815589894497
 30
0.0
 11
97.55618228704555
 21
-161.3065253782821
 31
0.0
  0
LINE
  5
9E
330
8A
100
AcDbEntity
  8
レイヤー 1
 62
   250
420
  2299925
370
     9
100
AcDbLine
 10
94.2488906212057
 20
-161.0815589894497
 30
0.0
 11
94.2488906212057
 21
-161.3065253782821
 31
0.0
  0
LINE
  5
9F
330
8A
100
AcDbEntity
  8
レイヤー 1
 62
   250
420
  2299925
370
     9
100
AcDbLine
 10
110.6992358948709
 20
-172.476210653268
 30
0.0
 11
113.4022545053061
 21
-174.3207092639171
 31
0.0
  0
LINE
  5
A0
330
8A
100
AcDbEntity
  8
レイヤー 1
 62
   250
420
  2299925
370
     9
100
AcDbLine
 10
112.4283056166607
 20
-173.6685642640809
 30
0.0
 11
118.6346534909331
 21
-170.959336764758
 31
0.0
  0
LINE
  5
A1
330
8A
100
AcDbEntity
  8
レイヤー 1
 62
   250
420
  2299925
370
     9
100
AcDbLine
 10
121.4568756411544
 20
-169.8348575983725
 30
0.0
 11
128.1889338027387
 21
-166.8951603768857
 31
0.0
  0
SPLINE
  5
A2
330
8A
100
AcDbEntity
  8
レイヤー 1
100
AcDbSpline
210
0.0
220
0.0
230
1.0
 70
     9
 71
     3
 72
    17
 73
    13
 74
     0
 42
0.0000000001
 43
0.0000000001
 40
0.0
 40
0.0
 40
0.0
 40
0.0
 40
1.0
 40
1.0
 40
1.0
 40
2.0
 40
2.0
 40
2.0
 40
3.0
 40
3.0
 40
3.0
 40
4.0
 40
4.0
 40
4.0
 40
4.0
 10
112.6553533943815
 20
-173.6564992640833
 30
0.0
 10
112.6553533943815
 20
-173.7881206529396
 30
0.0
 10
112.5485322832979
 20
-173.8949064862462
 30
0.0
 10
112.4169461722186
 20
-173.8949064862462
 30
0.0
 10
112.2853247833636
 20
-173.8949064862462
 30
0.0
 10
112.1785389500569
 20
-173.7881206529396
 30
0.0
 10
112.1785389500569
 20
-173.6564992640833
 30
0.0
 10
112.1785389500569
 20
-173.5255834307826
 30
0.0
 10
112.2853247833636
 20
-173.4187975974759
 30
0.0
 10
112.4169461722186
 20
-173.4187975974759
 30
0.0
 10
112.5485322832979
 20
-173.4187975974759
 30
0.0
 10
112.6553533943815
 20
-173.5255834307826
 30
0.0
 10
112.6553533943815
 20
-173.6564992640833
 30
0.0
  0
HATCH
  5
A3
330
8A
100
AcDbEntity
  8
レイヤー 1
 62
   250
420
  2299925
440
 33554687
100
AcDbHatch
 10
0.0
 20
0.0
 30
0.0
210
0.0
220
0.0
230
1.0
  2
SOLID
 70
     1
 71
     1
 91
        1
 92
        1
 93
        1
 72
     4
 94
        3
 73
     0
 74
     0
 95
       17
 96
       13
 40
0.0
 40
0.0
 40
0.0
 40
0.0
 40
1.0
 40
1.0
 40
1.0
 40
2.0
 40
2.0
 40
2.0
 40
3.0
 40
3.0
 40
3.0
 40
4.0
 40
4.0
 40
4.0
 40
4.0
 10
112.6553533943815
 20
-173.6564992640833
 10
112.6553533943815
 20
-173.7881206529396
 10
112.5485322832979
 20
-173.8949064862462
 10
112.4169461722186
 20
-173.8949064862462
 10
112.2853247833636
 20
-173.8949064862462
 10
112.1785389500569
 20
-173.7881206529396
 10
112.1785389500569
 20
-173.6564992640833
 10
112.1785389500569
 20
-173.5255834307826
 10
112.2853247833636
 20
-173.4187975974759
 10
112.4169461722186
 20
-173.4187975974759
 10
112.5485322832979
 20
-173.4187975974759
 10
112.6553533943815
 20
-173.5255834307826
 10
112.6553533943815
 20
-173.6564992640833
 97
        0
 97
        1
330
A2
 75
     2
 76
     1
 98
        1
 10
0.0
 20
0.0
450
        0
451
        0
460
0.0
461
0.0
452
        0
462
0.0
453
        0
470

  0
INSERT
  5
A5
330
8A
100
AcDbEntity
  8
レイヤー 1
100
AcDbBlockReference
  2
Block_2
 10
0.0
 20
0.0
 30
0.0
  0
INSERT
  5
DE
330
8A
100
AcDbEntity
  8
レイヤー 1
100
AcDbBlockReference
  2
Block_9
 10
0.0
 20
0.0
 30
0.0
  0
ENDBLK
  5
8D
330
8A
100
AcDbEntity
  8
0
100
AcDbBlockEnd
  0
BLOCK
  5
A6
330
A4
100
AcDbEntity
  8
0
100
AcDbBlockBegin
  2
Block_2
 70
     0
 10
0.0
 20
0.0
 30
0.0
  3
Block_2
  1

  0
LINE
  5
A8
330
A4
100
AcDbEntity
  8
レイヤー 1
 62
   250
420
  2299925
370
     9
100
AcDbLine
 10
91.14434034420378
 20
-163.2027059333636
 30
0.0
 11
94.18704867677645
 21
-162.2766642669285
 31
0.0
  0
LINE
  5
A9
330
A4
100
AcDbEntity
  8
レイヤー 1
 62
   250
420
  2299925
370
     9
100
AcDbLine
 10
91.84989589958295
 20
-162.9822198223076
 30
0.0
 11
93.70197923245326
 21
-164.2610392664324
 31
0.0
  0
LINE
  5
AA
330
A4
100
AcDbEntity
  8
レイヤー 1
 62
   250
420
  2299925
370
     9
100
AcDbLine
 10
96.70059034281472
 20
-166.3777059325699
 30
0.0
 11
100.6252431196113
 21
-169.1117337096642
 31
0.0
  0
LINE
  5
AB
330
A4
100
AcDbEntity
  8
レイヤー 1
 62
   250
420
  2299925
370
     9
100
AcDbLine
 10
97.1856597871379
 20
-167.6565253766946
 30
0.0
 11
100.1842708974993
 21
-166.6863864880483
 31
0.0
  0
LINE
  5
AC
330
A4
100
AcDbEntity
  8
レイヤー 1
 62
   250
420
  2299925
370
     9
100
AcDbLine
 10
104.5056222853082
 20
-172.8159003754048
 30
0.0
 11
107.3719417290364
 21
-171.53708093128
 31
0.0
  0
LINE
  5
AD
330
A4
100
AcDbEntity
  8
レイヤー 1
 62
   250
420
  2299925
370
     9
100
AcDbLine
 10
103.5354833966618
 20
-171.2284003758016
 30
0.0
 11
105.3875667295321
 21
-172.4631225977152
 31
0.0
  0
SPLINE
  5
AE
330
A4
100
AcDbEntity
  8
レイヤー 1
100
AcDbSpline
210
0.0
220
0.0
230
1.0
 70
     9
 71
     3
 72
    17
 73
    13
 74
     0
 42
0.0000000001
 43
0.0000000001
 40
0.0
 40
0.0
 40
0.0
 40
0.0
 40
1.0
 40
1.0
 40
1.0
 40
2.0
 40
2.0
 40
2.0
 40
3.0
 40
3.0
 40
3.0
 40
4.0
 40
4.0
 40
4.0
 40
4.0
 10
92.06177423286355
 20
-162.9994353778591
 30
0.0
 10
92.06177423286355
 20
-163.1310567667153
 30
0.0
 10
91.95530589955676
 20
-163.237842600022
 30
0.0
 10
91.8237197884787
 20
-163.237842600022
 30
0.0
 10
91.69209839962279
 20
-163.237842600022
 30
0.0
 10
91.58531256631576
 20
-163.1310567667153
 30
0.0
 10
91.58531256631576
 20
-162.9994353778591
 30
0.0
 10
91.58531256631576
 20
-162.8685195445584
 30
0.0
 10
91.69209839962279
 20
-162.7617337112517
 30
0.0
 10
91.8237197884787
 20
-162.7617337112517
 30
0.0
 10
91.95530589955676
 20
-162.7617337112517
 30
0.0
 10
92.06177423286355
 20
-162.8685195445584
 30
0.0
 10
92.06177423286355
 20
-162.9994353778591
 30
0.0
  0
HATCH
  5
AF
330
A4
100
AcDbEntity
  8
レイヤー 1
 62
   250
420
  2299925
440
 33554687
100
AcDbHatch
 10
0.0
 20
0.0
 30
0.0
210
0.0
220
0.0
230
1.0
  2
SOLID
 70
     1
 71
     1
 91
        1
 92
        1
 93
        1
 72
     4
 94
        3
 73
     0
 74
     0
 95
       17
 96
       13
 40
0.0
 40
0.0
 40
0.0
 40
0.0
 40
1.0
 40
1.0
 40
1.0
 40
2.0
 40
2.0
 40
2.0
 40
3.0
 40
3.0
 40
3.0
 40
4.0
 40
4.0
 40
4.0
 40
4.0
 10
92.06177423286355
 20
-162.9994353778591
 10
92.06177423286355
 20
-163.1310567667153
 10
91.95530589955676
 20
-163.237842600022
 10
91.8237197884787
 20
-163.237842600022
 10
91.69209839962279
 20
-163.237842600022
 10
91.58531256631576
 20
-163.1310567667153
 10
91.58531256631576
 20
-162.9994353778591
 10
91.58531256631576
 20
-162.8685195445584
 10
91.69209839962279
 20
-162.7617337112517
 10
91.8237197884787
 20
-162.7617337112517
 10
91.95530589955676
 20
-162.7617337112517
 10
92.06177423286355
 20
-162.8685195445584
 10
92.06177423286355
 20
-162.9994353778591
 97
        0
 97
        1
330
AE
 75
     2
 76
     1
 98
        1
 10
0.0
 20
0.0
450
        0
451
        0
460
0.0
461
0.0
452
        0
462
0.0
453
        0
470

  0
SPLINE
  5
B0
330
A4
100
AcDbEntity
  8
レイヤー 1
100
AcDbSpline
210
0.0
220
0.0
230
1.0
 70
     9
 71
     3
 72
    17
 73
    13
 74
     0
 42
0.0000000001
 43
0.0000000001
 40
0.0
 40
0.0
 40
0.0
 40
0.0
 40
1.0
 40
1.0
 40
1.0
 40
2.0
 40
2.0
 40
2.0
 40
3.0
 40
3.0
 40
3.0
 40
4.0
 40
4.0
 40
4.0
 40
4.0
 10
98.27948256464246
 20
-167.3650603767677
 30
0.0
 10
98.27948256464246
 20
-167.4966817656239
 30
0.0
 10
98.17301423133567
 20
-167.6034675989306
 30
0.0
 10
98.0414281202576
 20
-167.6034675989306
 30
0.0
 10
97.90980673140168
 20
-167.6034675989306
 30
0.0
 10
97.80302089809467
 20
-167.4966817656239
 30
0.0
 10
97.80302089809467
 20
-167.3650603767677
 30
0.0
 10
97.80302089809467
 20
-167.234144543467
 30
0.0
 10
97.90980673140168
 20
-167.1273587101603
 30
0.0
 10
98.0414281202576
 20
-167.1273587101603
 30
0.0
 10
98.17301423133567
 20
-167.1273587101603
 30
0.0
 10
98.27948256464246
 20
-167.234144543467
 30
0.0
 10
98.27948256464246
 20
-167.3650603767677
 30
0.0
  0
HATCH
  5
B1
330
A4
100
AcDbEntity
  8
レイヤー 1
 62
   250
420
  2299925
440
 33554687
100
AcDbHatch
 10
0.0
 20
0.0
 30
0.0
210
0.0
220
0.0
230
1.0
  2
SOLID
 70
     1
 71
     1
 91
        1
 92
        1
 93
        1
 72
     4
 94
        3
 73
     0
 74
     0
 95
       17
 96
       13
 40
0.0
 40
0.0
 40
0.0
 40
0.0
 40
1.0
 40
1.0
 40
1.0
 40
2.0
 40
2.0
 40
2.0
 40
3.0
 40
3.0
 40
3.0
 40
4.0
 40
4.0
 40
4.0
 40
4.0
 10
98.27948256464246
 20
-167.3650603767677
 10
98.27948256464246
 20
-167.4966817656239
 10
98.17301423133567
 20
-167.6034675989306
 10
98.0414281202576
 20
-167.6034675989306
 10
97.90980673140168
 20
-167.6034675989306
 10
97.80302089809467
 20
-167.4966817656239
 10
97.80302089809467
 20
-167.3650603767677
 10
97.80302089809467
 20
-167.234144543467
 10
97.90980673140168
 20
-167.1273587101603
 10
98.0414281202576
 20
-167.1273587101603
 10
98.17301423133567
 20
-167.1273587101603
 10
98.27948256464246
 20
-167.234144543467
 10
98.27948256464246
 20
-167.3650603767677
 97
        0
 97
        1
330
B0
 75
     2
 76
     1
 98
        1
 10
0.0
 20
0.0
450
        0
451
        0
460
0.0
461
0.0
452
        0
462
0.0
453
        0
470

  0
SPLINE
  5
B2
330
A4
100
AcDbEntity
  8
レイヤー 1
100
AcDbSpline
210
0.0
220
0.0
230
1.0
 70
     9
 71
     3
 72
    17
 73
    13
 74
     0
 42
0.0000000001
 43
0.0000000001
 40
0.0
 40
0.0
 40
0.0
 40
0.0
 40
1.0
 40
1.0
 40
1.0
 40
2.0
 40
2.0
 40
2.0
 40
3.0
 40
3.0
 40
3.0
 40
4.0
 40
4.0
 40
4.0
 40
4.0
 10
105.5997978405899
 20
-172.3921437088442
 30
0.0
 10
105.5997978405899
 20
-172.5237650977005
 30
0.0
 10
105.4929767295063
 20
-172.6305509310072
 30
0.0
 10
105.3613906184275
 20
-172.6305509310072
 30
0.0
 10
105.229769229572
 20
-172.6305509310072
 30
0.0
 10
105.122983396265
 20
-172.5237650977005
 30
0.0
 10
105.122983396265
 20
-172.3921437088442
 30
0.0
 10
105.122983396265
 20
-172.2612278755435
 30
0.0
 10
105.229769229572
 20
-172.1544420422368
 30
0.0
 10
105.3613906184275
 20
-172.1544420422368
 30
0.0
 10
105.4929767295063
 20
-172.1544420422368
 30
0.0
 10
105.5997978405899
 20
-172.2612278755435
 30
0.0
 10
105.5997978405899
 20
-172.3921437088442
 30
0.0
  0
HATCH
  5
B3
330
A4
100
AcDbEntity
  8
レイヤー 1
 62
   250
420
  2299925
440
 33554687
100
AcDbHatch
 10
0.0
 20
0.0
 30
0.0
210
0.0
220
0.0
230
1.0
  2
SOLID
 70
     1
 71
     1
 91
        1
 92
        1
 93
        1
 72
     4
 94
        3
 73
     0
 74
     0
 95
       17
 96
       13
 40
0.0
 40
0.0
 40
0.0
 40
0.0
 40
1.0
 40
1.0
 40
1.0
 40
2.0
 40
2.0
 40
2.0
 40
3.0
 40
3.0
 40
3.0
 40
4.0
 40
4.0
 40
4.0
 40
4.0
 10
105.5997978405899
 20
-172.3921437088442
 10
105.5997978405899
 20
-172.5237650977005
 10
105.4929767295063
 20
-172.6305509310072
 10
105.3613906184275
 20
-172.6305509310072
 10
105.229769229572
 20
-172.6305509310072
 10
105.122983396265
 20
-172.5237650977005
 10
105.122983396265
 20
-172.3921437088442
 10
105.122983396265
 20
-172.2612278755435
 10
105.229769229572
 20
-172.1544420422368
 10
105.3613906184275
 20
-172.1544420422368
 10
105.4929767295063
 20
-172.1544420422368
 10
105.5997978405899
 20
-172.2612278755435
 10
105.5997978405899
 20
-172.3921437088442
 97
        0
 97
        1
330
B2
 75
     2
 76
     1
 98
        1
 10
0.0
 20
0.0
450
        0
451
        0
460
0.0
461
0.0
452
        0
462
0.0
453
        0
470

  0
INSERT
  5
B5
330
A4
100
AcDbEntity
  8
レイヤー 1
100
AcDbBlockReference
  2
Block_3
 10
0.0
 20
0.0
 30
0.0
  0
LINE
  5
C0
330
A4
100
AcDbEntity
  8
レイヤー 1
 62
   250
420
  2299925
370
     9
100
AcDbLine
 10
84.95298451241865
 20
-158.8195126011259
 30
0.0
 11
87.99569284499131
 21
-157.8934709346907
 31
0.0
  0
LINE
  5
C1
330
A4
100
AcDbEntity
  8
レイヤー 1
 62
   250
420
  2299925
370
     9
100
AcDbLine
 10
85.65854006779781
 20
-158.5990264900699
 30
0.0
 11
87.51062340066814
 21
-159.8778459341946
 31
0.0
  0
LINE
  5
C2
330
A4
100
AcDbEntity
  8
レイヤー 1
 62
   250
420
  2299925
370
     9
100
AcDbLine
 10
90.50923451102958
 20
-161.9945126003321
 30
0.0
 11
91.84989589958295
 21
-162.9822198223076
 31
0.0
  0
SPLINE
  5
C3
330
A4
100
AcDbEntity
  8
レイヤー 1
100
AcDbSpline
210
0.0
220
0.0
230
1.0
 70
     9
 71
     3
 72
    17
 73
    13
 74
     0
 42
0.0000000001
 43
0.0000000001
 40
0.0
 40
0.0
 40
0.0
 40
0.0
 40
1.0
 40
1.0
 40
1.0
 40
2.0
 40
2.0
 40
2.0
 40
3.0
 40
3.0
 40
3.0
 40
4.0
 40
4.0
 40
4.0
 40
4.0
 10
85.8704184010781
 20
-158.6162420456213
 30
0.0
 10
85.8704184010781
 20
-158.7478634344775
 30
0.0
 10
85.76395006777131
 20
-158.8546492677842
 30
0.0
 10
85.63236395669324
 20
-158.8546492677842
 30
0.0
 10
85.50074256783734
 20
-158.8546492677842
 30
0.0
 10
85.39395673453062
 20
-158.7478634344775
 30
0.0
 10
85.39395673453062
 20
-158.6162420456213
 30
0.0
 10
85.39395673453062
 20
-158.4853262123206
 30
0.0
 10
85.50074256783734
 20
-158.3785403790139
 30
0.0
 10
85.63236395669324
 20
-158.3785403790139
 30
0.0
 10
85.76395006777131
 20
-158.3785403790139
 30
0.0
 10
85.8704184010781
 20
-158.4853262123206
 30
0.0
 10
85.8704184010781
 20
-158.6162420456213
 30
0.0
  0
HATCH
  5
C4
330
A4
100
AcDbEntity
  8
レイヤー 1
 62
   250
420
  2299925
440
 33554687
100
AcDbHatch
 10
0.0
 20
0.0
 30
0.0
210
0.0
220
0.0
230
1.0
  2
SOLID
 70
     1
 71
     1
 91
        1
 92
        1
 93
        1
 72
     4
 94
        3
 73
     0
 74
     0
 95
       17
 96
       13
 40
0.0
 40
0.0
 40
0.0
 40
0.0
 40
1.0
 40
1.0
 40
1.0
 40
2.0
 40
2.0
 40
2.0
 40
3.0
 40
3.0
 40
3.0
 40
4.0
 40
4.0
 40
4.0
 40
4.0
 10
85.8704184010781
 20
-158.6162420456213
 10
85.8704184010781
 20
-158.7478634344775
 10
85.76395006777131
 20
-158.8546492677842
 10
85.63236395669324
 20
-158.8546492677842
 10
85.50074256783734
 20
-158.8546492677842
 10
85.39395673453062
 20
-158.7478634344775
 10
85.39395673453062
 20
-158.6162420456213
 10
85.39395673453062
 20
-158.4853262123206
 10
85.50074256783734
 20
-158.3785403790139
 10
85.63236395669324
 20
-158.3785403790139
 10
85.76395006777131
 20
-158.3785403790139
 10
85.8704184010781
 20
-158.4853262123206
 10
85.8704184010781
 20
-158.6162420456213
 97
        0
 97
        1
330
C3
 75
     2
 76
     1
 98
        1
 10
0.0
 20
0.0
450
        0
451
        0
460
0.0
461
0.0
452
        0
462
0.0
453
        0
470

  0
INSERT
  5
C6
330
A4
100
AcDbEntity
  8
レイヤー 1
100
AcDbBlockReference
  2
Block_5
 10
0.0
 20
0.0
 30
0.0
  0
INSERT
  5
D2
330
A4
100
AcDbEntity
  8
レイヤー 1
100
AcDbBlockReference
  2
Block_7
 10
0.0
 20
0.0
 30
0.0
  0
ENDBLK
  5
A7
330
A4
100
AcDbEntity
  8
0
100
AcDbBlockEnd
  0
BLOCK
  5
B6
330
B4
100
AcDbEntity
  8
0
100
AcDbBlockBegin
  2
Block_3
 70
     0
 10
0.0
 20
0.0
 30
0.0
  3
Block_3
  1

  0
INSERT
  5
B9
330
B4
100
AcDbEntity
  8
レイヤー 1
100
AcDbBlockReference
  2
Block_4
 10
0.0
 20
0.0
 30
0.0
  0
ENDBLK
  5
B7
330
B4
100
AcDbEntity
  8
0
100
AcDbBlockEnd
  0
BLOCK
  5
BA
330
B8
100
AcDbEntity
  8
0
100
AcDbBlockBegin
  2
Block_4
 70
     0
 10
0.0
 20
0.0
 30
0.0
  3
Block_4
  1

  0
SPLINE
  5
BC
330
B8
100
AcDbEntity
  8
レイヤー 1
100
AcDbSpline
210
0.0
220
0.0
230
1.0
 70
    11
 71
     3
 72
    26
 73
    22
 74
     0
 42
0.0000000001
 43
0.0000000001
 40
0.0
 40
0.0
 40
0.0
 40
0.0
 40
1.0
 40
1.0
 40
1.0
 40
2.0
 40
2.0
 40
2.0
 40
3.0
 40
3.0
 40
3.0
 40
4.0
 40
4.0
 40
4.0
 40
5.0
 40
5.0
 40
5.0
 40
6.0
 40
6.0
 40
6.0
 40
7.0
 40
7.0
 40
7.0
 40
7.0
 10
94.550128828359
 20
-166.0722059046625
 30
0.0
 10
94.550128828359
 20
-166.0722059046625
 30
0.0
 10
94.550128828359
 20
-164.9680528016399
 30
0.0
 10
94.550128828359
 20
-164.9680528016399
 30
0.0
 10
94.550128828359
 20
-164.9680528016399
 30
0.0
 10
94.22008868087207
 20
-164.9680528016399
 30
0.0
 10
94.22008868087207
 20
-164.9680528016399
 30
0.0
 10
94.22008868087207
 20
-164.9680528016399
 30
0.0
 10
94.22008868087207
 20
-164.8199136957742
 30
0.0
 10
94.22008868087207
 20
-164.8199136957742
 30
0.0
 10
94.55219588565014
 20
-164.8050997851876
 30
0.0
 10
94.59870467470102
 20
-164.6421467687353
 30
0.0
 10
94.62833249587417
 20
-164.527769598625
 30
0.0
 10
94.62833249587417
 20
-164.527769598625
 30
0.0
 10
94.77440454444877
 20
-164.527769598625
 30
0.0
 10
94.77440454444877
 20
-164.527769598625
 30
0.0
 10
94.77440454444877
 20
-164.527769598625
 30
0.0
 10
94.77440454444877
 20
-166.0722059046625
 30
0.0
 10
94.77440454444877
 20
-166.0722059046625
 30
0.0
 10
94.77440454444877
 20
-166.0722059046625
 30
0.0
 10
94.550128828359
 20
-166.0722059046625
 30
0.0
 10
94.550128828359
 20
-166.0722059046625
 30
0.0
  0
HATCH
  5
BD
330
B8
100
AcDbEntity
  8
レイヤー 1
 62
   250
420
  2299925
440
 33554687
100
AcDbHatch
 10
0.0
 20
0.0
 30
0.0
210
0.0
220
0.0
230
1.0
  2
SOLID
 70
     1
 71
     1
 91
        1
 92
        1
 93
        1
 72
     4
 94
        3
 73
     0
 74
     0
 95
       26
 96
       22
 40
0.0
 40
0.0
 40
0.0
 40
0.0
 40
1.0
 40
1.0
 40
1.0
 40
2.0
 40
2.0
 40
2.0
 40
3.0
 40
3.0
 40
3.0
 40
4.0
 40
4.0
 40
4.0
 40
5.0
 40
5.0
 40
5.0
 40
6.0
 40
6.0
 40
6.0
 40
7.0
 40
7.0
 40
7.0
 40
7.0
 10
94.550128828359
 20
-166.0722059046625
 10
94.550128828359
 20
-166.0722059046625
 10
94.550128828359
 20
-164.9680528016399
 10
94.550128828359
 20
-164.9680528016399
 10
94.550128828359
 20
-164.9680528016399
 10
94.22008868087207
 20
-164.9680528016399
 10
94.22008868087207
 20
-164.9680528016399
 10
94.22008868087207
 20
-164.9680528016399
 10
94.22008868087207
 20
-164.8199136957742
 10
94.22008868087207
 20
-164.8199136957742
 10
94.55219588565014
 20
-164.8050997851876
 10
94.59870467470102
 20
-164.6421467687353
 10
94.62833249587417
 20
-164.527769598625
 10
94.62833249587417
 20
-164.527769598625
 10
94.77440454444877
 20
-164.527769598625
 10
94.77440454444877
 20
-164.527769598625
 10
94.77440454444877
 20
-164.527769598625
 10
94.77440454444877
 20
-166.0722059046625
 10
94.77440454444877
 20
-166.0722059046625
 10
94.77440454444877
 20
-166.0722059046625
 10
94.550128828359
 20
-166.0722059046625
 10
94.550128828359
 20
-166.0722059046625
 97
        0
 97
        1
330
BC
 75
     2
 76
     1
 98
        1
 10
0.0
 20
0.0
450
        0
451
        0
460
0.0
461
0.0
452
        0
462
0.0
453
        0
470

  0
SPLINE
  5
BE
330
B8
100
AcDbEntity
  8
レイヤー 1
100
AcDbSpline
210
0.0
220
0.0
230
1.0
 70
     9
 71
     3
 72
    53
 73
    49
 74
     0
 42
0.0000000001
 43
0.0000000001
 40
0.0
 40
0.0
 40
0.0
 40
0.0
 40
1.0
 40
1.0
 40
1.0
 40
2.0
 40
2.0
 40
2.0
 40
3.0
 40
3.0
 40
3.0
 40
4.0
 40
4.0
 40
4.0
 40
5.0
 40
5.0
 40
5.0
 40
6.0
 40
6.0
 40
6.0
 40
7.0
 40
7.0
 40
7.0
 40
8.0
 40
8.0
 40
8.0
 40
9.0
 40
9.0
 40
9.0
 40
10.0
 40
10.0
 40
10.0
 40
11.0
 40
11.0
 40
11.0
 40
12.0
 40
12.0
 40
12.0
 40
13.0
 40
13.0
 40
13.0
 40
14.0
 40
14.0
 40
14.0
 40
15.0
 40
15.0
 40
15.0
 40
16.0
 40
16.0
 40
16.0
 40
16.0
 10
95.75660126729349
 20
-166.1228488082957
 30
0.0
 10
95.67822534500406
 20
-166.1228488082957
 30
0.0
 10
95.57676728296344
 20
-166.1059678404179
 30
0.0
 10
95.47513696614858
 20
-166.0425780834893
 30
0.0
 10
95.30167640846626
 20
-165.9326795375099
 30
0.0
 10
95.28066132600622
 20
-165.8014213995218
 30
0.0
 10
95.26154104606309
 20
-165.6935899108335
 30
0.0
 10
95.26154104606309
 20
-165.6935899108335
 30
0.0
 10
95.48357745008743
 20
-165.6935899108335
 30
0.0
 10
95.48357745008743
 20
-165.6935899108335
 30
0.0
 10
95.53869897785144
 20
-165.8923719203324
 30
0.0
 10
95.66565074648289
 20
-165.9219997415056
 30
0.0
 10
95.75866832458464
 20
-165.9219997415056
 30
0.0
 10
95.89836694651152
 20
-165.9219997415056
 30
0.0
 10
96.05064016695957
 20
-165.8224364819819
 30
0.0
 10
96.05064016695957
 20
-165.5898925367275
 30
0.0
 10
96.05064016695957
 20
-165.3339219421735
 30
0.0
 10
95.87080618262952
 20
-165.2639865038229
 30
0.0
 10
95.75022784064577
 20
-165.2639865038229
 30
0.0
 10
95.71853296218149
 20
-165.2639865038229
 30
0.0
 10
95.57676728296344
 20
-165.2639865038229
 30
0.0
 10
95.48788381944401
 20
-165.3931775845198
 30
0.0
 10
95.48788381944401
 20
-165.3931775845198
 30
0.0
 10
95.31235620447054
 20
-165.3742295593509
 30
0.0
 10
95.31235620447054
 20
-165.3742295593509
 30
0.0
 10
95.31235620447054
 20
-165.3742295593509
 30
0.0
 10
95.43293454645427
 20
-164.527769598625
 30
0.0
 10
95.43293454645427
 20
-164.527769598625
 30
0.0
 10
95.43293454645427
 20
-164.527769598625
 30
0.0
 10
96.21135387134648
 20
-164.527769598625
 30
0.0
 10
96.21135387134648
 20
-164.527769598625
 30
0.0
 10
96.21135387134648
 20
-164.527769598625
 30
0.0
 10
96.21135387134648
 20
-164.7224174935416
 30
0.0
 10
96.21135387134648
 20
-164.7224174935416
 30
0.0
 10
96.21135387134648
 20
-164.7224174935416
 30
0.0
 10
95.59571530813233
 20
-164.7224174935416
 30
0.0
 10
95.59571530813233
 20
-164.7224174935416
 30
0.0
 10
95.59571530813233
 20
-164.7224174935416
 30
0.0
 10
95.53025849391259
 20
-165.1454752191303
 30
0.0
 10
95.53025849391259
 20
-165.1454752191303
 30
0.0
 10
95.59158119355002
 20
-165.1117132833748
 30
0.0
 10
95.67409123042176
 20
-165.0714056661974
 30
0.0
 10
95.79260251511435
 20
-165.0714056661974
 30
0.0
 10
96.04633379760301
 20
-165.0714056661974
 30
0.0
 10
96.28335636698819
 20
-165.2577853319494
 30
0.0
 10
96.28335636698819
 20
-165.5709445115586
 30
0.0
 10
96.28335636698819
 20
-165.8882378057502
 30
0.0
 10
96.05908065089842
 20
-166.1228488082957
 30
0.0
 10
95.75660126729349
 20
-166.1228488082957
 30
0.0
  0
HATCH
  5
BF
330
B8
100
AcDbEntity
  8
レイヤー 1
 62
   250
420
  2299925
440
 33554687
100
AcDbHatch
 10
0.0
 20
0.0
 30
0.0
210
0.0
220
0.0
230
1.0
  2
SOLID
 70
     1
 71
     1
 91
        1
 92
        1
 93
        1
 72
     4
 94
        3
 73
     0
 74
     0
 95
       53
 96
       49
 40
0.0
 40
0.0
 40
0.0
 40
0.0
 40
1.0
 40
1.0
 40
1.0
 40
2.0
 40
2.0
 40
2.0
 40
3.0
 40
3.0
 40
3.0
 40
4.0
 40
4.0
 40
4.0
 40
5.0
 40
5.0
 40
5.0
 40
6.0
 40
6.0
 40
6.0
 40
7.0
 40
7.0
 40
7.0
 40
8.0
 40
8.0
 40
8.0
 40
9.0
 40
9.0
 40
9.0
 40
10.0
 40
10.0
 40
10.0
 40
11.0
 40
11.0
 40
11.0
 40
12.0
 40
12.0
 40
12.0
 40
13.0
 40
13.0
 40
13.0
 40
14.0
 40
14.0
 40
14.0
 40
15.0
 40
15.0
 40
15.0
 40
16.0
 40
16.0
 40
16.0
 40
16.0
 10
95.75660126729349
 20
-166.1228488082957
 10
95.67822534500406
 20
-166.1228488082957
 10
95.57676728296344
 20
-166.1059678404179
 10
95.47513696614858
 20
-166.0425780834893
 10
95.30167640846626
 20
-165.9326795375099
 10
95.28066132600622
 20
-165.8014213995218
 10
95.26154104606309
 20
-165.6935899108335
 10
95.26154104606309
 20
-165.6935899108335
 10
95.48357745008743
 20
-165.6935899108335
 10
95.48357745008743
 20
-165.6935899108335
 10
95.53869897785144
 20
-165.8923719203324
 10
95.66565074648289
 20
-165.9219997415056
 10
95.75866832458464
 20
-165.9219997415056
 10
95.89836694651152
 20
-165.9219997415056
 10
96.05064016695957
 20
-165.8224364819819
 10
96.05064016695957
 20
-165.5898925367275
 10
96.05064016695957
 20
-165.3339219421735
 10
95.87080618262952
 20
-165.2639865038229
 10
95.75022784064577
 20
-165.2639865038229
 10
95.71853296218149
 20
-165.2639865038229
 10
95.57676728296344
 20
-165.2639865038229
 10
95.48788381944401
 20
-165.3931775845198
 10
95.48788381944401
 20
-165.3931775845198
 10
95.31235620447054
 20
-165.3742295593509
 10
95.31235620447054
 20
-165.3742295593509
 10
95.31235620447054
 20
-165.3742295593509
 10
95.43293454645427
 20
-164.527769598625
 10
95.43293454645427
 20
-164.527769598625
 10
95.43293454645427
 20
-164.527769598625
 10
96.21135387134648
 20
-164.527769598625
 10
96.21135387134648
 20
-164.527769598625
 10
96.21135387134648
 20
-164.527769598625
 10
96.21135387134648
 20
-164.7224174935416
 10
96.21135387134648
 20
-164.7224174935416
 10
96.21135387134648
 20
-164.7224174935416
 10
95.59571530813233
 20
-164.7224174935416
 10
95.59571530813233
 20
-164.7224174935416
 10
95.59571530813233
 20
-164.7224174935416
 10
95.53025849391259
 20
-165.1454752191303
 10
95.53025849391259
 20
-165.1454752191303
 10
95.59158119355002
 20
-165.1117132833748
 10
95.67409123042176
 20
-165.0714056661974
 10
95.79260251511435
 20
-165.0714056661974
 10
96.04633379760301
 20
-165.0714056661974
 10
96.28335636698819
 20
-165.2577853319494
 10
96.28335636698819
 20
-165.5709445115586
 10
96.28335636698819
 20
-165.8882378057502
 10
96.05908065089842
 20
-166.1228488082957
 10
95.75660126729349
 20
-166.1228488082957
 97
        0
 97
        1
330
BE
 75
     2
 76
     1
 98
        1
 10
0.0
 20
0.0
450
        0
451
        0
460
0.0
461
0.0
452
        0
462
0.0
453
        0
470

  0
ENDBLK
  5
BB
330
B8
100
AcDbEntity
  8
0
100
AcDbBlockEnd
  0
BLOCK
  5
C7
330
C5
100
AcDbEntity
  8
0
100
AcDbBlockBegin
  2
Block_5
 70
     0
 10
0.0
 20
0.0
 30
0.0
  3
Block_5
  1

  0
INSERT
  5
CA
330
C5
100
AcDbEntity
  8
レイヤー 1
100
AcDbBlockReference
  2
Block_6
 10
0.0
 20
0.0
 30
0.0
  0
ENDBLK
  5
C8
330
C5
100
AcDbEntity
  8
0
100
AcDbBlockEnd
  0
BLOCK
  5
CB
330
C9
100
AcDbEntity
  8
0
100
AcDbBlockBegin
  2
Block_6
 70
     0
 10
0.0
 20
0.0
 30
0.0
  3
Block_6
  1

  0
SPLINE
  5
CD
330
C9
100
AcDbEntity
  8
レイヤー 1
100
AcDbSpline
210
0.0
220
0.0
230
1.0
 70
    11
 71
     3
 72
    26
 73
    22
 74
     0
 42
0.0000000001
 43
0.0000000001
 40
0.0
 40
0.0
 40
0.0
 40
0.0
 40
1.0
 40
1.0
 40
1.0
 40
2.0
 40
2.0
 40
2.0
 40
3.0
 40
3.0
 40
3.0
 40
4.0
 40
4.0
 40
4.0
 40
5.0
 40
5.0
 40
5.0
 40
6.0
 40
6.0
 40
6.0
 40
7.0
 40
7.0
 40
7.0
 40
7.0
 10
88.35877547704226
 20
-161.6886664092306
 30
0.0
 10
88.35877547704226
 20
-161.6886664092306
 30
0.0
 10
88.35877547704226
 20
-160.584513306208
 30
0.0
 10
88.35877547704226
 20
-160.584513306208
 30
0.0
 10
88.35877547704226
 20
-160.584513306208
 30
0.0
 10
88.02873532955532
 20
-160.584513306208
 30
0.0
 10
88.02873532955532
 20
-160.584513306208
 30
0.0
 10
88.02873532955532
 20
-160.584513306208
 30
0.0
 10
88.02873532955532
 20
-160.4363742003423
 30
0.0
 10
88.02873532955532
 20
-160.4363742003423
 30
0.0
 10
88.36084253433339
 20
-160.4215602897557
 30
0.0
 10
88.40735132338428
 20
-160.2586072733034
 30
0.0
 10
88.43697914455743
 20
-160.1442301031931
 30
0.0
 10
88.43697914455743
 20
-160.1442301031931
 30
0.0
 10
88.58305119313202
 20
-160.1442301031931
 30
0.0
 10
88.58305119313202
 20
-160.1442301031931
 30
0.0
 10
88.58305119313202
 20
-160.1442301031931
 30
0.0
 10
88.58305119313202
 20
-161.6886664092306
 30
0.0
 10
88.58305119313202
 20
-161.6886664092306
 30
0.0
 10
88.58305119313202
 20
-161.6886664092306
 30
0.0
 10
88.35877547704226
 20
-161.6886664092306
 30
0.0
 10
88.35877547704226
 20
-161.6886664092306
 30
0.0
  0
HATCH
  5
CE
330
C9
100
AcDbEntity
  8
レイヤー 1
 62
   250
420
  2299925
440
 33554687
100
AcDbHatch
 10
0.0
 20
0.0
 30
0.0
210
0.0
220
0.0
230
1.0
  2
SOLID
 70
     1
 71
     1
 91
        1
 92
        1
 93
        1
 72
     4
 94
        3
 73
     0
 74
     0
 95
       26
 96
       22
 40
0.0
 40
0.0
 40
0.0
 40
0.0
 40
1.0
 40
1.0
 40
1.0
 40
2.0
 40
2.0
 40
2.0
 40
3.0
 40
3.0
 40
3.0
 40
4.0
 40
4.0
 40
4.0
 40
5.0
 40
5.0
 40
5.0
 40
6.0
 40
6.0
 40
6.0
 40
7.0
 40
7.0
 40
7.0
 40
7.0
 10
88.35877547704226
 20
-161.6886664092306
 10
88.35877547704226
 20
-161.6886664092306
 10
88.35877547704226
 20
-160.584513306208
 10
88.35877547704226
 20
-160.584513306208
 10
88.35877547704226
 20
-160.584513306208
 10
88.02873532955532
 20
-160.584513306208
 10
88.02873532955532
 20
-160.584513306208
 10
88.02873532955532
 20
-160.584513306208
 10
88.02873532955532
 20
-160.4363742003423
 10
88.02873532955532
 20
-160.4363742003423
 10
88.36084253433339
 20
-160.4215602897557
 10
88.40735132338428
 20
-160.2586072733034
 10
88.43697914455743
 20
-160.1442301031931
 10
88.43697914455743
 20
-160.1442301031931
 10
88.58305119313202
 20
-160.1442301031931
 10
88.58305119313202
 20
-160.1442301031931
 10
88.58305119313202
 20
-160.1442301031931
 10
88.58305119313202
 20
-161.6886664092306
 10
88.58305119313202
 20
-161.6886664092306
 10
88.58305119313202
 20
-161.6886664092306
 10
88.35877547704226
 20
-161.6886664092306
 10
88.35877547704226
 20
-161.6886664092306
 97
        0
 97
        1
330
CD
 75
     2
 76
     1
 98
        1
 10
0.0
 20
0.0
450
        0
451
        0
460
0.0
461
0.0
452
        0
462
0.0
453
        0
470

  0
SPLINE
  5
CF
330
C9
100
AcDbEntity
  8
レイヤー 1
100
AcDbSpline
210
0.0
220
0.0
230
1.0
 70
     9
 71
     3
 72
    53
 73
    49
 74
     0
 42
0.0000000001
 43
0.0000000001
 40
0.0
 40
0.0
 40
0.0
 40
0.0
 40
1.0
 40
1.0
 40
1.0
 40
2.0
 40
2.0
 40
2.0
 40
3.0
 40
3.0
 40
3.0
 40
4.0
 40
4.0
 40
4.0
 40
5.0
 40
5.0
 40
5.0
 40
6.0
 40
6.0
 40
6.0
 40
7.0
 40
7.0
 40
7.0
 40
8.0
 40
8.0
 40
8.0
 40
9.0
 40
9.0
 40
9.0
 40
10.0
 40
10.0
 40
10.0
 40
11.0
 40
11.0
 40
11.0
 40
12.0
 40
12.0
 40
12.0
 40
13.0
 40
13.0
 40
13.0
 40
14.0
 40
14.0
 40
14.0
 40
15.0
 40
15.0
 40
15.0
 40
16.0
 40
16.0
 40
16.0
 40
16.0
 10
89.56524791597674
 20
-161.7393093128637
 30
0.0
 10
89.48687199368732
 20
-161.7393093128637
 30
0.0
 10
89.38541393164671
 20
-161.722428344986
 30
0.0
 10
89.28378361483183
 20
-161.6590385880574
 30
0.0
 10
89.1103230571495
 20
-161.549140042078
 30
0.0
 10
89.08913571991522
 20
-161.41788190409
 30
0.0
 10
89.07018769474635
 20
-161.3100504154016
 30
0.0
 10
89.07018769474635
 20
-161.3100504154016
 30
0.0
 10
89.29239635354496
 20
-161.3100504154016
 30
0.0
 10
89.29239635354496
 20
-161.3100504154016
 30
0.0
 10
89.34734562653469
 20
-161.5088324249006
 30
0.0
 10
89.47429739516614
 20
-161.5384602460737
 30
0.0
 10
89.5673149732679
 20
-161.5384602460737
 30
0.0
 10
89.70701359519479
 20
-161.5384602460737
 30
0.0
 10
89.85928681564281
 20
-161.43889698655
 30
0.0
 10
89.85928681564281
 20
-161.2063530412956
 30
0.0
 10
89.85928681564281
 20
-160.9503824467416
 30
0.0
 10
89.67945283131276
 20
-160.880447008391
 30
0.0
 10
89.55887448932903
 20
-160.880447008391
 30
0.0
 10
89.52717961086474
 20
-160.880447008391
 30
0.0
 10
89.38541393164671
 20
-160.880447008391
 30
0.0
 10
89.29653046812726
 20
-161.0096380890879
 30
0.0
 10
89.29653046812726
 20
-161.0096380890879
 30
0.0
 10
89.12100285315379
 20
-160.990690063919
 30
0.0
 10
89.12100285315379
 20
-160.990690063919
 30
0.0
 10
89.12100285315379
 20
-160.990690063919
 30
0.0
 10
89.24158119513753
 20
-160.1442301031931
 30
0.0
 10
89.24158119513753
 20
-160.1442301031931
 30
0.0
 10
89.24158119513753
 20
-160.1442301031931
 30
0.0
 10
90.02000052002973
 20
-160.1442301031931
 30
0.0
 10
90.02000052002973
 20
-160.1442301031931
 30
0.0
 10
90.02000052002973
 20
-160.1442301031931
 30
0.0
 10
90.02000052002973
 20
-160.3388779981097
 30
0.0
 10
90.02000052002973
 20
-160.3388779981097
 30
0.0
 10
90.02000052002973
 20
-160.3388779981097
 30
0.0
 10
89.40436195681558
 20
-160.3388779981097
 30
0.0
 10
89.40436195681558
 20
-160.3388779981097
 30
0.0
 10
89.40436195681558
 20
-160.3388779981097
 30
0.0
 10
89.33890514259584
 20
-160.7619357236984
 30
0.0
 10
89.33890514259584
 20
-160.7619357236984
 30
0.0
 10
89.40022784223328
 20
-160.7281737879429
 30
0.0
 10
89.48273787910501
 20
-160.6878661707655
 30
0.0
 10
89.6012491637976
 20
-160.6878661707655
 30
0.0
 10
89.85498044628625
 20
-160.6878661707655
 30
0.0
 10
90.09200301567146
 20
-160.8742458365175
 30
0.0
 10
90.09200301567146
 20
-161.1874050161268
 30
0.0
 10
90.09200301567146
 20
-161.5046983103183
 30
0.0
 10
89.86772729958168
 20
-161.7393093128637
 30
0.0
 10
89.56524791597674
 20
-161.7393093128637
 30
0.0
  0
HATCH
  5
D0
330
C9
100
AcDbEntity
  8
レイヤー 1
 62
   250
420
  2299925
440
 33554687
100
AcDbHatch
 10
0.0
 20
0.0
 30
0.0
210
0.0
220
0.0
230
1.0
  2
SOLID
 70
     1
 71
     1
 91
        1
 92
        1
 93
        1
 72
     4
 94
        3
 73
     0
 74
     0
 95
       53
 96
       49
 40
0.0
 40
0.0
 40
0.0
 40
0.0
 40
1.0
 40
1.0
 40
1.0
 40
2.0
 40
2.0
 40
2.0
 40
3.0
 40
3.0
 40
3.0
 40
4.0
 40
4.0
 40
4.0
 40
5.0
 40
5.0
 40
5.0
 40
6.0
 40
6.0
 40
6.0
 40
7.0
 40
7.0
 40
7.0
 40
8.0
 40
8.0
 40
8.0
 40
9.0
 40
9.0
 40
9.0
 40
10.0
 40
10.0
 40
10.0
 40
11.0
 40
11.0
 40
11.0
 40
12.0
 40
12.0
 40
12.0
 40
13.0
 40
13.0
 40
13.0
 40
14.0
 40
14.0
 40
14.0
 40
15.0
 40
15.0
 40
15.0
 40
16.0
 40
16.0
 40
16.0
 40
16.0
 10
89.56524791597674
 20
-161.7393093128637
 10
89.48687199368732
 20
-161.7393093128637
 10
89.38541393164671
 20
-161.722428344986
 10
89.28378361483183
 20
-161.6590385880574
 10
89.1103230571495
 20
-161.549140042078
 10
89.08913571991522
 20
-161.41788190409
 10
89.07018769474635
 20
-161.3100504154016
 10
89.07018769474635
 20
-161.3100504154016
 10
89.29239635354496
 20
-161.3100504154016
 10
89.29239635354496
 20
-161.3100504154016
 10
89.34734562653469
 20
-161.5088324249006
 10
89.47429739516614
 20
-161.5384602460737
 10
89.5673149732679
 20
-161.5384602460737
 10
89.70701359519479
 20
-161.5384602460737
 10
89.85928681564281
 20
-161.43889698655
 10
89.85928681564281
 20
-161.2063530412956
 10
89.85928681564281
 20
-160.9503824467416
 10
89.67945283131276
 20
-160.880447008391
 10
89.55887448932903
 20
-160.880447008391
 10
89.52717961086474
 20
-160.880447008391
 10
89.38541393164671
 20
-160.880447008391
 10
89.29653046812726
 20
-161.0096380890879
 10
89.29653046812726
 20
-161.0096380890879
 10
89.12100285315379
 20
-160.990690063919
 10
89.12100285315379
 20
-160.990690063919
 10
89.12100285315379
 20
-160.990690063919
 10
89.24158119513753
 20
-160.1442301031931
 10
89.24158119513753
 20
-160.1442301031931
 10
89.24158119513753
 20
-160.1442301031931
 10
90.02000052002973
 20
-160.1442301031931
 10
90.02000052002973
 20
-160.1442301031931
 10
90.02000052002973
 20
-160.1442301031931
 10
90.02000052002973
 20
-160.3388779981097
 10
90.02000052002973
 20
-160.3388779981097
 10
90.02000052002973
 20
-160.3388779981097
 10
89.40436195681558
 20
-160.3388779981097
 10
89.40436195681558
 20
-160.3388779981097
 10
89.40436195681558
 20
-160.3388779981097
 10
89.33890514259584
 20
-160.7619357236984
 10
89.33890514259584
 20
-160.7619357236984
 10
89.40022784223328
 20
-160.7281737879429
 10
89.48273787910501
 20
-160.6878661707655
 10
89.6012491637976
 20
-160.6878661707655
 10
89.85498044628625
 20
-160.6878661707655
 10
90.09200301567146
 20
-160.8742458365175
 10
90.09200301567146
 20
-161.1874050161268
 10
90.09200301567146
 20
-161.5046983103183
 10
89.86772729958168
 20
-161.7393093128637
 10
89.56524791597674
 20
-161.7393093128637
 97
        0
 97
        1
330
CF
 75
     2
 76
     1
 98
        1
 10
0.0
 20
0.0
450
        0
451
        0
460
0.0
461
0.0
452
        0
462
0.0
453
        0
470

  0
ENDBLK
  5
CC
330
C9
100
AcDbEntity
  8
0
100
AcDbBlockEnd
  0
BLOCK
  5
D3
330
D1
100
AcDbEntity
  8
0
100
AcDbBlockBegin
  2
Block_7
 70
     0
 10
0.0
 20
0.0
 30
0.0
  3
Block_7
  1

  0
INSERT
  5
D6
330
D1
100
AcDbEntity
  8
レイヤー 1
100
AcDbBlockReference
  2
Block_8
 10
0.0
 20
0.0
 30
0.0
  0
ENDBLK
  5
D4
330
D1
100
AcDbEntity
  8
0
100
AcDbBlockEnd
  0
BLOCK
  5
D7
330
D5
100
AcDbEntity
  8
0
100
AcDbBlockBegin
  2
Block_8
 70
     0
 10
0.0
 20
0.0
 30
0.0
  3
Block_8
  1

  0
SPLINE
  5
D9
330
D5
100
AcDbEntity
  8
レイヤー 1
100
AcDbSpline
210
0.0
220
0.0
230
1.0
 70
    11
 71
     3
 72
    26
 73
    22
 74
     0
 42
0.0000000001
 43
0.0000000001
 40
0.0
 40
0.0
 40
0.0
 40
0.0
 40
1.0
 40
1.0
 40
1.0
 40
2.0
 40
2.0
 40
2.0
 40
3.0
 40
3.0
 40
3.0
 40
4.0
 40
4.0
 40
4.0
 40
5.0
 40
5.0
 40
5.0
 40
6.0
 40
6.0
 40
6.0
 40
7.0
 40
7.0
 40
7.0
 40
7.0
 10
101.1647121600387
 20
-171.0992892367391
 30
0.0
 10
101.1647121600387
 20
-171.0992892367391
 30
0.0
 10
101.1647121600387
 20
-169.9951361337165
 30
0.0
 10
101.1647121600387
 20
-169.9951361337165
 30
0.0
 10
101.1647121600387
 20
-169.9951361337165
 30
0.0
 10
100.8346720125517
 20
-169.9951361337165
 30
0.0
 10
100.8346720125517
 20
-169.9951361337165
 30
0.0
 10
100.8346720125517
 20
-169.9951361337165
 30
0.0
 10
100.8346720125517
 20
-169.8469970278507
 30
0.0
 10
100.8346720125517
 20
-169.8469970278507
 30
0.0
 10
101.1667792173298
 20
-169.8321831172641
 30
0.0
 10
101.2132880063807
 20
-169.6692301008118
 30
0.0
 10
101.2429158275538
 20
-169.5548529307016
 30
0.0
 10
101.2429158275538
 20
-169.5548529307016
 30
0.0
 10
101.3889878761284
 20
-169.5548529307016
 30
0.0
 10
101.3889878761284
 20
-169.5548529307016
 30
0.0
 10
101.3889878761284
 20
-169.5548529307016
 30
0.0
 10
101.3889878761284
 20
-171.0992892367391
 30
0.0
 10
101.3889878761284
 20
-171.0992892367391
 30
0.0
 10
101.3889878761284
 20
-171.0992892367391
 30
0.0
 10
101.1647121600387
 20
-171.0992892367391
 30
0.0
 10
101.1647121600387
 20
-171.0992892367391
 30
0.0
  0
HATCH
  5
DA
330
D5
100
AcDbEntity
  8
レイヤー 1
 62
   250
420
  2299925
440
 33554687
100
AcDbHatch
 10
0.0
 20
0.0
 30
0.0
210
0.0
220
0.0
230
1.0
  2
SOLID
 70
     1
 71
     1
 91
        1
 92
        1
 93
        1
 72
     4
 94
        3
 73
     0
 74
     0
 95
       26
 96
       22
 40
0.0
 40
0.0
 40
0.0
 40
0.0
 40
1.0
 40
1.0
 40
1.0
 40
2.0
 40
2.0
 40
2.0
 40
3.0
 40
3.0
 40
3.0
 40
4.0
 40
4.0
 40
4.0
 40
5.0
 40
5.0
 40
5.0
 40
6.0
 40
6.0
 40
6.0
 40
7.0
 40
7.0
 40
7.0
 40
7.0
 10
101.1647121600387
 20
-171.0992892367391
 10
101.1647121600387
 20
-171.0992892367391
 10
101.1647121600387
 20
-169.9951361337165
 10
101.1647121600387
 20
-169.9951361337165
 10
101.1647121600387
 20
-169.9951361337165
 10
100.8346720125517
 20
-169.9951361337165
 10
100.8346720125517
 20
-169.9951361337165
 10
100.8346720125517
 20
-169.9951361337165
 10
100.8346720125517
 20
-169.8469970278507
 10
100.8346720125517
 20
-169.8469970278507
 10
101.1667792173298
 20
-169.8321831172641
 10
101.2132880063807
 20
-169.6692301008118
 10
101.2429158275538
 20
-169.5548529307016
 10
101.2429158275538
 20
-169.5548529307016
 10
101.3889878761284
 20
-169.5548529307016
 10
101.3889878761284
 20
-169.5548529307016
 10
101.3889878761284
 20
-169.5548529307016
 10
101.3889878761284
 20
-171.0992892367391
 10
101.3889878761284
 20
-171.0992892367391
 10
101.3889878761284
 20
-171.0992892367391
 10
101.1647121600387
 20
-171.0992892367391
 10
101.1647121600387
 20
-171.0992892367391
 97
        0
 97
        1
330
D9
 75
     2
 76
     1
 98
        1
 10
0.0
 20
0.0
450
        0
451
        0
460
0.0
461
0.0
452
        0
462
0.0
453
        0
470

  0
SPLINE
  5
DB
330
D5
100
AcDbEntity
  8
レイヤー 1
100
AcDbSpline
210
0.0
220
0.0
230
1.0
 70
     9
 71
     3
 72
    53
 73
    49
 74
     0
 42
0.0000000001
 43
0.0000000001
 40
0.0
 40
0.0
 40
0.0
 40
0.0
 40
1.0
 40
1.0
 40
1.0
 40
2.0
 40
2.0
 40
2.0
 40
3.0
 40
3.0
 40
3.0
 40
4.0
 40
4.0
 40
4.0
 40
5.0
 40
5.0
 40
5.0
 40
6.0
 40
6.0
 40
6.0
 40
7.0
 40
7.0
 40
7.0
 40
8.0
 40
8.0
 40
8.0
 40
9.0
 40
9.0
 40
9.0
 40
10.0
 40
10.0
 40
10.0
 40
11.0
 40
11.0
 40
11.0
 40
12.0
 40
12.0
 40
12.0
 40
13.0
 40
13.0
 40
13.0
 40
14.0
 40
14.0
 40
14.0
 40
15.0
 40
15.0
 40
15.0
 40
16.0
 40
16.0
 40
16.0
 40
16.0
 10
102.3711845989732
 20
-171.1499321403722
 30
0.0
 10
102.2928086766837
 20
-171.1499321403722
 30
0.0
 10
102.1913506146431
 20
-171.1330511724945
 30
0.0
 10
102.0897202978282
 20
-171.0696614155659
 30
0.0
 10
101.9162597401459
 20
-170.9597628695864
 30
0.0
 10
101.8952446576859
 20
-170.8285047315984
 30
0.0
 10
101.8761243777428
 20
-170.7206732429101
 30
0.0
 10
101.8761243777428
 20
-170.7206732429101
 30
0.0
 10
102.0981607817671
 20
-170.7206732429101
 30
0.0
 10
102.0981607817671
 20
-170.7206732429101
 30
0.0
 10
102.1532823095311
 20
-170.919455252409
 30
0.0
 10
102.2802340781626
 20
-170.9490830735822
 30
0.0
 10
102.3732516562643
 20
-170.9490830735822
 30
0.0
 10
102.5129502781912
 20
-170.9490830735822
 30
0.0
 10
102.6652234986392
 20
-170.8495198140584
 30
0.0
 10
102.6652234986392
 20
-170.6169758688041
 30
0.0
 10
102.6652234986392
 20
-170.36100527425
 30
0.0
 10
102.4853895143092
 20
-170.2910698358994
 30
0.0
 10
102.3648111723254
 20
-170.2910698358994
 30
0.0
 10
102.3331162938611
 20
-170.2910698358994
 30
0.0
 10
102.1913506146431
 20
-170.2910698358994
 30
0.0
 10
102.1024671511237
 20
-170.4202609165963
 30
0.0
 10
102.1024671511237
 20
-170.4202609165963
 30
0.0
 10
101.9269395361502
 20
-170.4013128914274
 30
0.0
 10
101.9269395361502
 20
-170.4013128914274
 30
0.0
 10
101.9269395361502
 20
-170.4013128914274
 30
0.0
 10
102.0475178781339
 20
-169.5548529307016
 30
0.0
 10
102.0475178781339
 20
-169.5548529307016
 30
0.0
 10
102.0475178781339
 20
-169.5548529307016
 30
0.0
 10
102.8259372030261
 20
-169.5548529307016
 30
0.0
 10
102.8259372030261
 20
-169.5548529307016
 30
0.0
 10
102.8259372030261
 20
-169.5548529307016
 30
0.0
 10
102.8259372030261
 20
-169.7495008256182
 30
0.0
 10
102.8259372030261
 20
-169.7495008256182
 30
0.0
 10
102.8259372030261
 20
-169.7495008256182
 30
0.0
 10
102.210298639812
 20
-169.7495008256182
 30
0.0
 10
102.210298639812
 20
-169.7495008256182
 30
0.0
 10
102.210298639812
 20
-169.7495008256182
 30
0.0
 10
102.1448418255922
 20
-170.1725585512068
 30
0.0
 10
102.1448418255922
 20
-170.1725585512068
 30
0.0
 10
102.2061645252297
 20
-170.1387966154514
 30
0.0
 10
102.2886745621014
 20
-170.098488998274
 30
0.0
 10
102.407185846794
 20
-170.098488998274
 30
0.0
 10
102.6609171292827
 20
-170.098488998274
 30
0.0
 10
102.8979396986679
 20
-170.284868664026
 30
0.0
 10
102.8979396986679
 20
-170.5980278436352
 30
0.0
 10
102.8979396986679
 20
-170.9153211378267
 30
0.0
 10
102.6736639825781
 20
-171.1499321403722
 30
0.0
 10
102.3711845989732
 20
-171.1499321403722
 30
0.0
  0
HATCH
  5
DC
330
D5
100
AcDbEntity
  8
レイヤー 1
 62
   250
420
  2299925
440
 33554687
100
AcDbHatch
 10
0.0
 20
0.0
 30
0.0
210
0.0
220
0.0
230
1.0
  2
SOLID
 70
     1
 71
     1
 91
        1
 92
        1
 93
        1
 72
     4
 94
        3
 73
     0
 74
     0
 95
       53
 96
       49
 40
0.0
 40
0.0
 40
0.0
 40
0.0
 40
1.0
 40
1.0
 40
1.0
 40
2.0
 40
2.0
 40
2.0
 40
3.0
 40
3.0
 40
3.0
 40
4.0
 40
4.0
 40
4.0
 40
5.0
 40
5.0
 40
5.0
 40
6.0
 40
6.0
 40
6.0
 40
7.0
 40
7.0
 40
7.0
 40
8.0
 40
8.0
 40
8.0
 40
9.0
 40
9.0
 40
9.0
 40
10.0
 40
10.0
 40
10.0
 40
11.0
 40
11.0
 40
11.0
 40
12.0
 40
12.0
 40
12.0
 40
13.0
 40
13.0
 40
13.0
 40
14.0
 40
14.0
 40
14.0
 40
15.0
 40
15.0
 40
15.0
 40
16.0
 40
16.0
 40
16.0
 40
16.0
 10
102.3711845989732
 20
-171.1499321403722
 10
102.2928086766837
 20
-171.1499321403722
 10
102.1913506146431
 20
-171.1330511724945
 10
102.0897202978282
 20
-171.0696614155659
 10
101.9162597401459
 20
-170.9597628695864
 10
101.8952446576859
 20
-170.8285047315984
 10
101.8761243777428
 20
-170.7206732429101
 10
101.8761243777428
 20
-170.7206732429101
 10
102.0981607817671
 20
-170.7206732429101
 10
102.0981607817671
 20
-170.7206732429101
 10
102.1532823095311
 20
-170.919455252409
 10
102.2802340781626
 20
-170.9490830735822
 10
102.3732516562643
 20
-170.9490830735822
 10
102.5129502781912
 20
-170.9490830735822
 10
102.6652234986392
 20
-170.8495198140584
 10
102.6652234986392
 20
-170.6169758688041
 10
102.6652234986392
 20
-170.36100527425
 10
102.4853895143092
 20
-170.2910698358994
 10
102.3648111723254
 20
-170.2910698358994
 10
102.3331162938611
 20
-170.2910698358994
 10
102.1913506146431
 20
-170.2910698358994
 10
102.1024671511237
 20
-170.4202609165963
 10
102.1024671511237
 20
-170.4202609165963
 10
101.9269395361502
 20
-170.4013128914274
 10
101.9269395361502
 20
-170.4013128914274
 10
101.9269395361502
 20
-170.4013128914274
 10
102.0475178781339
 20
-169.5548529307016
 10
102.0475178781339
 20
-169.5548529307016
 10
102.0475178781339
 20
-169.5548529307016
 10
102.8259372030261
 20
-169.5548529307016
 10
102.8259372030261
 20
-169.5548529307016
 10
102.8259372030261
 20
-169.5548529307016
 10
102.8259372030261
 20
-169.7495008256182
 10
102.8259372030261
 20
-169.7495008256182
 10
102.8259372030261
 20
-169.7495008256182
 10
102.210298639812
 20
-169.7495008256182
 10
102.210298639812
 20
-169.7495008256182
 10
102.210298639812
 20
-169.7495008256182
 10
102.1448418255922
 20
-170.1725585512068
 10
102.1448418255922
 20
-170.1725585512068
 10
102.2061645252297
 20
-170.1387966154514
 10
102.2886745621014
 20
-170.098488998274
 10
102.407185846794
 20
-170.098488998274
 10
102.6609171292827
 20
-170.098488998274
 10
102.8979396986679
 20
-170.284868664026
 10
102.8979396986679
 20
-170.5980278436352
 10
102.8979396986679
 20
-170.9153211378267
 10
102.6736639825781
 20
-171.1499321403722
 10
102.3711845989732
 20
-171.1499321403722
 97
        0
 97
        1
330
DB
 75
     2
 76
     1
 98
        1
 10
0.0
 20
0.0
450
        0
451
        0
460
0.0
461
0.0
452
        0
462
0.0
453
        0
470

  0
ENDBLK
  5
D8
330
D5
100
AcDbEntity
  8
0
100
AcDbBlockEnd
  0
BLOCK
  5
DF
330
DD
100
AcDbEntity
  8
0
100
AcDbBlockBegin
  2
Block_9
 70
     0
 10
0.0
 20
0.0
 30
0.0
  3
Block_9
  1

  0
INSERT
  5
E2
330
DD
100
AcDbEntity
  8
レイヤー 1
100
AcDbBlockReference
  2
Block_10
 10
0.0
 20
0.0
 30
0.0
  0
ENDBLK
  5
E0
330
DD
100
AcDbEntity
  8
0
100
AcDbBlockEnd
  0
BLOCK
  5
E3
330
E1
100
AcDbEntity
  8
0
100
AcDbBlockBegin
  2
Block_10
 70
     0
 10
0.0
 20
0.0
 30
0.0
  3
Block_10
  1

  0
SPLINE
  5
E5
330
E1
100
AcDbEntity
  8
レイヤー 1
100
AcDbSpline
210
0.0
220
0.0
230
1.0
 70
    11
 71
     3
 72
    14
 73
    10
 74
     0
 42
0.0000000001
 43
0.0000000001
 40
0.0
 40
0.0
 40
0.0
 40
0.0
 40
1.0
 40
1.0
 40
1.0
 40
2.0
 40
2.0
 40
2.0
 40
3.0
 40
3.0
 40
3.0
 40
3.0
 10
119.6684922660898
 20
-169.981700261324
 30
0.0
 10
119.6684922660898
 20
-169.981700261324
 30
0.0
 10
119.2113280951971
 20
-170.6376464417156
 30
0.0
 10
119.2113280951971
 20
-170.6376464417156
 30
0.0
 10
119.2113280951971
 20
-170.6376464417156
 30
0.0
 10
119.6684922660898
 20
-170.6376464417156
 30
0.0
 10
119.6684922660898
 20
-170.6376464417156
 30
0.0
 10
119.6684922660898
 20
-170.6376464417156
 30
0.0
 10
119.6684922660898
 20
-169.981700261324
 30
0.0
 10
119.6684922660898
 20
-169.981700261324
 30
0.0
  0
SPLINE
  5
E6
330
E1
100
AcDbEntity
  8
レイヤー 1
100
AcDbSpline
210
0.0
220
0.0
230
1.0
 70
    11
 71
     3
 72
    38
 73
    34
 74
     0
 42
0.0000000001
 43
0.0000000001
 40
0.0
 40
0.0
 40
0.0
 40
0.0
 40
1.0
 40
1.0
 40
1.0
 40
2.0
 40
2.0
 40
2.0
 40
3.0
 40
3.0
 40
3.0
 40
4.0
 40
4.0
 40
4.0
 40
5.0
 40
5.0
 40
5.0
 40
6.0
 40
6.0
 40
6.0
 40
7.0
 40
7.0
 40
7.0
 40
8.0
 40
8.0
 40
8.0
 40
9.0
 40
9.0
 40
9.0
 40
10.0
 40
10.0
 40
10.0
 40
11.0
 40
11.0
 40
11.0
 40
11.0
 10
119.8862223007576
 20
-170.8364284512145
 30
0.0
 10
119.8862223007576
 20
-170.8364284512145
 30
0.0
 10
119.8862223007576
 20
-171.1833495665792
 30
0.0
 10
119.8862223007576
 20
-171.1833495665792
 30
0.0
 10
119.8862223007576
 20
-171.1833495665792
 30
0.0
 10
119.6684922660898
 20
-171.1833495665792
 30
0.0
 10
119.6684922660898
 20
-171.1833495665792
 30
0.0
 10
119.6684922660898
 20
-171.1833495665792
 30
0.0
 10
119.6684922660898
 20
-170.8364284512145
 30
0.0
 10
119.6684922660898
 20
-170.8364284512145
 30
0.0
 10
119.6684922660898
 20
-170.8364284512145
 30
0.0
 10
119.0125460856982
 20
-170.8364284512145
 30
0.0
 10
119.0125460856982
 20
-170.8364284512145
 30
0.0
 10
119.0125460856982
 20
-170.8364284512145
 30
0.0
 10
119.0125460856982
 20
-170.6121527351247
 30
0.0
 10
119.0125460856982
 20
-170.6121527351247
 30
0.0
 10
119.0125460856982
 20
-170.6121527351247
 30
0.0
 10
119.691574405841
 20
-169.6389132605417
 30
0.0
 10
119.691574405841
 20
-169.6389132605417
 30
0.0
 10
119.691574405841
 20
-169.6389132605417
 30
0.0
 10
119.8862223007576
 20
-169.6389132605417
 30
0.0
 10
119.8862223007576
 20
-169.6389132605417
 30
0.0
 10
119.8862223007576
 20
-169.6389132605417
 30
0.0
 10
119.8862223007576
 20
-170.6376464417156
 30
0.0
 10
119.8862223007576
 20
-170.6376464417156
 30
0.0
 10
119.8862223007576
 20
-170.6376464417156
 30
0.0
 10
120.0936170489696
 20
-170.6376464417156
 30
0.0
 10
120.0936170489696
 20
-170.6376464417156
 30
0.0
 10
120.0936170489696
 20
-170.6376464417156
 30
0.0
 10
120.0936170489696
 20
-170.8364284512145
 30
0.0
 10
120.0936170489696
 20
-170.8364284512145
 30
0.0
 10
120.0936170489696
 20
-170.8364284512145
 30
0.0
 10
119.8862223007576
 20
-170.8364284512145
 30
0.0
 10
119.8862223007576
 20
-170.8364284512145
 30
0.0
  0
HATCH
  5
E7
330
E1
100
AcDbEntity
  8
レイヤー 1
 62
   250
420
  2299925
440
 33554687
100
AcDbHatch
 10
0.0
 20
0.0
 30
0.0
210
0.0
220
0.0
230
1.0
  2
SOLID
 70
     1
 71
     1
 91
        2
 92
        1
 93
        1
 72
     4
 94
        3
 73
     0
 74
     0
 95
       14
 96
       10
 40
0.0
 40
0.0
 40
0.0
 40
0.0
 40
1.0
 40
1.0
 40
1.0
 40
2.0
 40
2.0
 40
2.0
 40
3.0
 40
3.0
 40
3.0
 40
3.0
 10
119.6684922660898
 20
-169.981700261324
 10
119.6684922660898
 20
-169.981700261324
 10
119.2113280951971
 20
-170.6376464417156
 10
119.2113280951971
 20
-170.6376464417156
 10
119.2113280951971
 20
-170.6376464417156
 10
119.6684922660898
 20
-170.6376464417156
 10
119.6684922660898
 20
-170.6376464417156
 10
119.6684922660898
 20
-170.6376464417156
 10
119.6684922660898
 20
-169.981700261324
 10
119.6684922660898
 20
-169.981700261324
 97
        0
 97
        1
330
E5
 92
        1
 93
        1
 72
     4
 94
        3
 73
     0
 74
     0
 95
       38
 96
       34
 40
0.0
 40
0.0
 40
0.0
 40
0.0
 40
1.0
 40
1.0
 40
1.0
 40
2.0
 40
2.0
 40
2.0
 40
3.0
 40
3.0
 40
3.0
 40
4.0
 40
4.0
 40
4.0
 40
5.0
 40
5.0
 40
5.0
 40
6.0
 40
6.0
 40
6.0
 40
7.0
 40
7.0
 40
7.0
 40
8.0
 40
8.0
 40
8.0
 40
9.0
 40
9.0
 40
9.0
 40
10.0
 40
10.0
 40
10.0
 40
11.0
 40
11.0
 40
11.0
 40
11.0
 10
119.8862223007576
 20
-170.8364284512145
 10
119.8862223007576
 20
-170.8364284512145
 10
119.8862223007576
 20
-171.1833495665792
 10
119.8862223007576
 20
-171.1833495665792
 10
119.8862223007576
 20
-171.1833495665792
 10
119.6684922660898
 20
-171.1833495665792
 10
119.6684922660898
 20
-171.1833495665792
 10
119.6684922660898
 20
-171.1833495665792
 10
119.6684922660898
 20
-170.8364284512145
 10
119.6684922660898
 20
-170.8364284512145
 10
119.6684922660898
 20
-170.8364284512145
 10
119.0125460856982
 20
-170.8364284512145
 10
119.0125460856982
 20
-170.8364284512145
 10
119.0125460856982
 20
-170.8364284512145
 10
119.0125460856982
 20
-170.6121527351247
 10
119.0125460856982
 20
-170.6121527351247
 10
119.0125460856982
 20
-170.6121527351247
 10
119.691574405841
 20
-169.6389132605417
 10
119.691574405841
 20
-169.6389132605417
 10
119.691574405841
 20
-169.6389132605417
 10
119.8862223007576
 20
-169.6389132605417
 10
119.8862223007576
 20
-169.6389132605417
 10
119.8862223007576
 20
-169.6389132605417
 10
119.8862223007576
 20
-170.6376464417156
 10
119.8862223007576
 20
-170.6376464417156
 10
119.8862223007576
 20
-170.6376464417156
 10
120.0936170489696
 20
-170.6376464417156
 10
120.0936170489696
 20
-170.6376464417156
 10
120.0936170489696
 20
-170.6376464417156
 10
120.0936170489696
 20
-170.8364284512145
 10
120.0936170489696
 20
-170.8364284512145
 10
120.0936170489696
 20
-170.8364284512145
 10
119.8862223007576
 20
-170.8364284512145
 10
119.8862223007576
 20
-170.8364284512145
 97
        0
 97
        1
330
E6
 75
     2
 76
     1
 98
        1
 10
0.0
 20
0.0
450
        0
451
        0
460
0.0
461
0.0
452
        0
462
0.0
453
        0
470

  0
SPLINE
  5
E8
330
E1
100
AcDbEntity
  8
レイヤー 1
100
AcDbSpline
210
0.0
220
0.0
230
1.0
 70
     9
 71
     3
 72
    17
 73
    13
 74
     0
 42
0.0000000001
 43
0.0000000001
 40
0.0
 40
0.0
 40
0.0
 40
0.0
 40
1.0
 40
1.0
 40
1.0
 40
2.0
 40
2.0
 40
2.0
 40
3.0
 40
3.0
 40
3.0
 40
4.0
 40
4.0
 40
4.0
 40
4.0
 10
120.7309597137409
 20
-169.7829182518251
 30
0.0
 10
120.4815348006088
 20
-169.7829182518251
 30
0.0
 10
120.4346815020094
 20
-170.0664496102612
 30
0.0
 10
120.4346815020094
 20
-170.4113036683347
 30
0.0
 10
120.4346815020094
 20
-170.7306640198173
 30
0.0
 10
120.4708550046045
 20
-171.0393445752957
 30
0.0
 10
120.7309597137409
 20
-171.0393445752957
 30
0.0
 10
120.9786620791303
 20
-171.0393445752957
 30
0.0
 10
121.0272379254723
 20
-170.7582247836993
 30
0.0
 10
121.0272379254723
 20
-170.4113036683347
 30
0.0
 10
121.0272379254723
 20
-170.0915988073035
 30
0.0
 10
120.9889973655861
 20
-169.7829182518251
 30
0.0
 10
120.7309597137409
 20
-169.7829182518251
 30
0.0
  0
SPLINE
  5
E9
330
E1
100
AcDbEntity
  8
レイヤー 1
100
AcDbSpline
210
0.0
220
0.0
230
1.0
 70
     9
 71
     3
 72
    29
 73
    25
 74
     0
 42
0.0000000001
 43
0.0000000001
 40
0.0
 40
0.0
 40
0.0
 40
0.0
 40
1.0
 40
1.0
 40
1.0
 40
2.0
 40
2.0
 40
2.0
 40
3.0
 40
3.0
 40
3.0
 40
4.0
 40
4.0
 40
4.0
 40
5.0
 40
5.0
 40
5.0
 40
6.0
 40
6.0
 40
6.0
 40
7.0
 40
7.0
 40
7.0
 40
8.0
 40
8.0
 40
8.0
 40
8.0
 10
121.1288682422872
 20
-171.0055826395403
 30
0.0
 10
121.0206922440504
 20
-171.2150444450434
 30
0.0
 10
120.8474039411423
 20
-171.2339924702123
 30
0.0
 10
120.7309597137409
 20
-171.2339924702123
 30
0.0
 10
120.5700737545797
 20
-171.2339924702123
 30
0.0
 10
120.4284803301359
 20
-171.1874836811615
 30
0.0
 10
120.333395694743
 20
-171.0055826395403
 30
0.0
 10
120.229698320637
 20
-170.8109347446236
 30
0.0
 10
120.2107502954681
 20
-170.574256684787
 30
0.0
 10
120.2107502954681
 20
-170.4113036683347
 30
0.0
 10
120.2107502954681
 20
-170.2672986770512
 30
0.0
 10
120.2276312633459
 20
-170.0154621970795
 30
0.0
 10
120.333395694743
 20
-169.8166801875806
 30
0.0
 10
120.4412271834313
 20
-169.6137640634993
 30
0.0
 10
120.6021131425925
 20
-169.5903374141996
 30
0.0
 10
120.7309597137409
 20
-169.5903374141996
 30
0.0
 10
120.8897786156109
 20
-169.5903374141996
 30
0.0
 10
121.0334390973458
 20
-169.6347791459593
 30
0.0
 10
121.1288682422872
 20
-169.8166801875806
 30
0.0
 10
121.2280869922624
 20
-170.009261025206
 30
0.0
 10
121.2515136415621
 20
-170.2376708558781
 30
0.0
 10
121.2515136415621
 20
-170.4113036683347
 30
0.0
 10
121.2515136415621
 20
-170.5825249139516
 30
0.0
 10
121.2301540495535
 20
-170.8130018019148
 30
0.0
 10
121.1288682422872
 20
-171.0055826395403
 30
0.0
  0
HATCH
  5
EA
330
E1
100
AcDbEntity
  8
レイヤー 1
 62
   250
420
  2299925
440
 33554687
100
AcDbHatch
 10
0.0
 20
0.0
 30
0.0
210
0.0
220
0.0
230
1.0
  2
SOLID
 70
     1
 71
     1
 91
        2
 92
        1
 93
        1
 72
     4
 94
        3
 73
     0
 74
     0
 95
       17
 96
       13
 40
0.0
 40
0.0
 40
0.0
 40
0.0
 40
1.0
 40
1.0
 40
1.0
 40
2.0
 40
2.0
 40
2.0
 40
3.0
 40
3.0
 40
3.0
 40
4.0
 40
4.0
 40
4.0
 40
4.0
 10
120.7309597137409
 20
-169.7829182518251
 10
120.4815348006088
 20
-169.7829182518251
 10
120.4346815020094
 20
-170.0664496102612
 10
120.4346815020094
 20
-170.4113036683347
 10
120.4346815020094
 20
-170.7306640198173
 10
120.4708550046045
 20
-171.0393445752957
 10
120.7309597137409
 20
-171.0393445752957
 10
120.9786620791303
 20
-171.0393445752957
 10
121.0272379254723
 20
-170.7582247836993
 10
121.0272379254723
 20
-170.4113036683347
 10
121.0272379254723
 20
-170.0915988073035
 10
120.9889973655861
 20
-169.7829182518251
 10
120.7309597137409
 20
-169.7829182518251
 97
        0
 97
        1
330
E8
 92
        1
 93
        1
 72
     4
 94
        3
 73
     0
 74
     0
 95
       29
 96
       25
 40
0.0
 40
0.0
 40
0.0
 40
0.0
 40
1.0
 40
1.0
 40
1.0
 40
2.0
 40
2.0
 40
2.0
 40
3.0
 40
3.0
 40
3.0
 40
4.0
 40
4.0
 40
4.0
 40
5.0
 40
5.0
 40
5.0
 40
6.0
 40
6.0
 40
6.0
 40
7.0
 40
7.0
 40
7.0
 40
8.0
 40
8.0
 40
8.0
 40
8.0
 10
121.1288682422872
 20
-171.0055826395403
 10
121.0206922440504
 20
-171.2150444450434
 10
120.8474039411423
 20
-171.2339924702123
 10
120.7309597137409
 20
-171.2339924702123
 10
120.5700737545797
 20
-171.2339924702123
 10
120.4284803301359
 20
-171.1874836811615
 10
120.333395694743
 20
-171.0055826395403
 10
120.229698320637
 20
-170.8109347446236
 10
120.2107502954681
 20
-170.574256684787
 10
120.2107502954681
 20
-170.4113036683347
 10
120.2107502954681
 20
-170.2672986770512
 10
120.2276312633459
 20
-170.0154621970795
 10
120.333395694743
 20
-169.8166801875806
 10
120.4412271834313
 20
-169.6137640634993
 10
120.6021131425925
 20
-169.5903374141996
 10
120.7309597137409
 20
-169.5903374141996
 10
120.8897786156109
 20
-169.5903374141996
 10
121.0334390973458
 20
-169.6347791459593
 10
121.1288682422872
 20
-169.8166801875806
 10
121.2280869922624
 20
-170.009261025206
 10
121.2515136415621
 20
-170.2376708558781
 10
121.2515136415621
 20
-170.4113036683347
 10
121.2515136415621
 20
-170.5825249139516
 10
121.2301540495535
 20
-170.8130018019148
 10
121.1288682422872
 20
-171.0055826395403
 97
        0
 97
        1
330
E9
 75
     2
 76
     1
 98
        1
 10
0.0
 20
0.0
450
        0
451
        0
460
0.0
461
0.0
452
        0
462
0.0
453
        0
470

  0
ENDBLK
  5
E4
330
E1
100
AcDbEntity
  8
0
100
AcDbBlockEnd
  0
BLOCK
  5
ED
330
EB
100
AcDbEntity
  8
0
100
AcDbBlockBegin
  2
Block_11
 70
     0
 10
0.0
 20
0.0
 30
0.0
  3
Block_11
  1

  0
INSERT
  5
F0
330
EB
100
AcDbEntity
  8
レイヤー 1
100
AcDbBlockReference
  2
Block_12
 10
0.0
 20
0.0
 30
0.0
  0
ENDBLK
  5
EE
330
EB
100
AcDbEntity
  8
0
100
AcDbBlockEnd
  0
BLOCK
  5
F1
330
EF
100
AcDbEntity
  8
0
100
AcDbBlockBegin
  2
Block_12
 70
     0
 10
0.0
 20
0.0
 30
0.0
  3
Block_12
  1

  0
SPLINE
  5
F3
330
EF
100
AcDbEntity
  8
レイヤー 1
100
AcDbSpline
210
0.0
220
0.0
230
1.0
 70
    11
 71
     3
 72
    14
 73
    10
 74
     0
 42
0.0000000001
 43
0.0000000001
 40
0.0
 40
0.0
 40
0.0
 40
0.0
 40
1.0
 40
1.0
 40
1.0
 40
2.0
 40
2.0
 40
2.0
 40
3.0
 40
3.0
 40
3.0
 40
3.0
 10
128.2674505972734
 20
-155.2160210115432
 30
0.0
 10
128.2674505972734
 20
-155.2160210115432
 30
0.0
 10
127.8102864263807
 20
-155.8719671919348
 30
0.0
 10
127.8102864263807
 20
-155.8719671919348
 30
0.0
 10
127.8102864263807
 20
-155.8719671919348
 30
0.0
 10
128.2674505972734
 20
-155.8719671919348
 30
0.0
 10
128.2674505972734
 20
-155.8719671919348
 30
0.0
 10
128.2674505972734
 20
-155.8719671919348
 30
0.0
 10
128.2674505972734
 20
-155.2160210115432
 30
0.0
 10
128.2674505972734
 20
-155.2160210115432
 30
0.0
  0
SPLINE
  5
F4
330
EF
100
AcDbEntity
  8
レイヤー 1
100
AcDbSpline
210
0.0
220
0.0
230
1.0
 70
    11
 71
     3
 72
    38
 73
    34
 74
     0
 42
0.0000000001
 43
0.0000000001
 40
0.0
 40
0.0
 40
0.0
 40
0.0
 40
1.0
 40
1.0
 40
1.0
 40
2.0
 40
2.0
 40
2.0
 40
3.0
 40
3.0
 40
3.0
 40
4.0
 40
4.0
 40
4.0
 40
5.0
 40
5.0
 40
5.0
 40
6.0
 40
6.0
 40
6.0
 40
7.0
 40
7.0
 40
7.0
 40
8.0
 40
8.0
 40
8.0
 40
9.0
 40
9.0
 40
9.0
 40
10.0
 40
10.0
 40
10.0
 40
11.0
 40
11.0
 40
11.0
 40
11.0
 10
128.4851806319412
 20
-156.0707492014337
 30
0.0
 10
128.4851806319412
 20
-156.0707492014337
 30
0.0
 10
128.4851806319412
 20
-156.4176703167983
 30
0.0
 10
128.4851806319412
 20
-156.4176703167983
 30
0.0
 10
128.4851806319412
 20
-156.4176703167983
 30
0.0
 10
128.2674505972734
 20
-156.4176703167983
 30
0.0
 10
128.2674505972734
 20
-156.4176703167983
 30
0.0
 10
128.2674505972734
 20
-156.4176703167983
 30
0.0
 10
128.2674505972734
 20
-156.0707492014337
 30
0.0
 10
128.2674505972734
 20
-156.0707492014337
 30
0.0
 10
128.2674505972734
 20
-156.0707492014337
 30
0.0
 10
127.6115044168818
 20
-156.0707492014337
 30
0.0
 10
127.6115044168818
 20
-156.0707492014337
 30
0.0
 10
127.6115044168818
 20
-156.0707492014337
 30
0.0
 10
127.6115044168818
 20
-155.8464734853439
 30
0.0
 10
127.6115044168818
 20
-155.8464734853439
 30
0.0
 10
127.6115044168818
 20
-155.8464734853439
 30
0.0
 10
128.2905327370246
 20
-154.8732340107608
 30
0.0
 10
128.2905327370246
 20
-154.8732340107608
 30
0.0
 10
128.2905327370246
 20
-154.8732340107608
 30
0.0
 10
128.4851806319412
 20
-154.8732340107608
 30
0.0
 10
128.4851806319412
 20
-154.8732340107608
 30
0.0
 10
128.4851806319412
 20
-154.8732340107608
 30
0.0
 10
128.4851806319412
 20
-155.8719671919348
 30
0.0
 10
128.4851806319412
 20
-155.8719671919348
 30
0.0
 10
128.4851806319412
 20
-155.8719671919348
 30
0.0
 10
128.6925753801532
 20
-155.8719671919348
 30
0.0
 10
128.6925753801532
 20
-155.8719671919348
 30
0.0
 10
128.6925753801532
 20
-155.8719671919348
 30
0.0
 10
128.6925753801532
 20
-156.0707492014337
 30
0.0
 10
128.6925753801532
 20
-156.0707492014337
 30
0.0
 10
128.6925753801532
 20
-156.0707492014337
 30
0.0
 10
128.4851806319412
 20
-156.0707492014337
 30
0.0
 10
128.4851806319412
 20
-156.0707492014337
 30
0.0
  0
HATCH
  5
F5
330
EF
100
AcDbEntity
  8
レイヤー 1
 62
   250
420
  2299925
440
 33554687
100
AcDbHatch
 10
0.0
 20
0.0
 30
0.0
210
0.0
220
0.0
230
1.0
  2
SOLID
 70
     1
 71
     1
 91
        2
 92
        1
 93
        1
 72
     4
 94
        3
 73
     0
 74
     0
 95
       14
 96
       10
 40
0.0
 40
0.0
 40
0.0
 40
0.0
 40
1.0
 40
1.0
 40
1.0
 40
2.0
 40
2.0
 40
2.0
 40
3.0
 40
3.0
 40
3.0
 40
3.0
 10
128.2674505972734
 20
-155.2160210115432
 10
128.2674505972734
 20
-155.2160210115432
 10
127.8102864263807
 20
-155.8719671919348
 10
127.8102864263807
 20
-155.8719671919348
 10
127.8102864263807
 20
-155.8719671919348
 10
128.2674505972734
 20
-155.8719671919348
 10
128.2674505972734
 20
-155.8719671919348
 10
128.2674505972734
 20
-155.8719671919348
 10
128.2674505972734
 20
-155.2160210115432
 10
128.2674505972734
 20
-155.2160210115432
 97
        0
 97
        1
330
F3
 92
        1
 93
        1
 72
     4
 94
        3
 73
     0
 74
     0
 95
       38
 96
       34
 40
0.0
 40
0.0
 40
0.0
 40
0.0
 40
1.0
 40
1.0
 40
1.0
 40
2.0
 40
2.0
 40
2.0
 40
3.0
 40
3.0
 40
3.0
 40
4.0
 40
4.0
 40
4.0
 40
5.0
 40
5.0
 40
5.0
 40
6.0
 40
6.0
 40
6.0
 40
7.0
 40
7.0
 40
7.0
 40
8.0
 40
8.0
 40
8.0
 40
9.0
 40
9.0
 40
9.0
 40
10.0
 40
10.0
 40
10.0
 40
11.0
 40
11.0
 40
11.0
 40
11.0
 10
128.4851806319412
 20
-156.0707492014337
 10
128.4851806319412
 20
-156.0707492014337
 10
128.4851806319412
 20
-156.4176703167983
 10
128.4851806319412
 20
-156.4176703167983
 10
128.4851806319412
 20
-156.4176703167983
 10
128.2674505972734
 20
-156.4176703167983
 10
128.2674505972734
 20
-156.4176703167983
 10
128.2674505972734
 20
-156.4176703167983
 10
128.2674505972734
 20
-156.0707492014337
 10
128.2674505972734
 20
-156.0707492014337
 10
128.2674505972734
 20
-156.0707492014337
 10
127.6115044168818
 20
-156.0707492014337
 10
127.6115044168818
 20
-156.0707492014337
 10
127.6115044168818
 20
-156.0707492014337
 10
127.6115044168818
 20
-155.8464734853439
 10
127.6115044168818
 20
-155.8464734853439
 10
127.6115044168818
 20
-155.8464734853439
 10
128.2905327370246
 20
-154.8732340107608
 10
128.2905327370246
 20
-154.8732340107608
 10
128.2905327370246
 20
-154.8732340107608
 10
128.4851806319412
 20
-154.8732340107608
 10
128.4851806319412
 20
-154.8732340107608
 10
128.4851806319412
 20
-154.8732340107608
 10
128.4851806319412
 20
-155.8719671919348
 10
128.4851806319412
 20
-155.8719671919348
 10
128.4851806319412
 20
-155.8719671919348
 10
128.6925753801532
 20
-155.8719671919348
 10
128.6925753801532
 20
-155.8719671919348
 10
128.6925753801532
 20
-155.8719671919348
 10
128.6925753801532
 20
-156.0707492014337
 10
128.6925753801532
 20
-156.0707492014337
 10
128.6925753801532
 20
-156.0707492014337
 10
128.4851806319412
 20
-156.0707492014337
 10
128.4851806319412
 20
-156.0707492014337
 97
        0
 97
        1
330
F4
 75
     2
 76
     1
 98
        1
 10
0.0
 20
0.0
450
        0
451
        0
460
0.0
461
0.0
452
        0
462
0.0
453
        0
470

  0
SPLINE
  5
F6
330
EF
100
AcDbEntity
  8
レイヤー 1
100
AcDbSpline
210
0.0
220
0.0
230
1.0
 70
    11
 71
     3
 72
    26
 73
    22
 74
     0
 42
0.0000000001
 43
0.0000000001
 40
0.0
 40
0.0
 40
0.0
 40
0.0
 40
1.0
 40
1.0
 40
1.0
 40
2.0
 40
2.0
 40
2.0
 40
3.0
 40
3.0
 40
3.0
 40
4.0
 40
4.0
 40
4.0
 40
5.0
 40
5.0
 40
5.0
 40
6.0
 40
6.0
 40
6.0
 40
7.0
 40
7.0
 40
7.0
 40
7.0
 10
129.2813421985824
 20
-156.4176703167983
 30
0.0
 10
129.2813421985824
 20
-156.4176703167983
 30
0.0
 10
129.2813421985824
 20
-155.3135172137757
 30
0.0
 10
129.2813421985824
 20
-155.3135172137757
 30
0.0
 10
129.2813421985824
 20
-155.3135172137757
 30
0.0
 10
128.9513020510955
 20
-155.3135172137757
 30
0.0
 10
128.9513020510955
 20
-155.3135172137757
 30
0.0
 10
128.9513020510955
 20
-155.3135172137757
 30
0.0
 10
128.9513020510955
 20
-155.16537810791
 30
0.0
 10
128.9513020510955
 20
-155.16537810791
 30
0.0
 10
129.2834092558736
 20
-155.1505641973235
 30
0.0
 10
129.3299180449245
 20
-154.9876111808711
 30
0.0
 10
129.3595458660976
 20
-154.8732340107608
 30
0.0
 10
129.3595458660976
 20
-154.8732340107608
 30
0.0
 10
129.5056179146722
 20
-154.8732340107608
 30
0.0
 10
129.5056179146722
 20
-154.8732340107608
 30
0.0
 10
129.5056179146722
 20
-154.8732340107608
 30
0.0
 10
129.5056179146722
 20
-156.4176703167983
 30
0.0
 10
129.5056179146722
 20
-156.4176703167983
 30
0.0
 10
129.5056179146722
 20
-156.4176703167983
 30
0.0
 10
129.2813421985824
 20
-156.4176703167983
 30
0.0
 10
129.2813421985824
 20
-156.4176703167983
 30
0.0
  0
HATCH
  5
F7
330
EF
100
AcDbEntity
  8
レイヤー 1
 62
   250
420
  2299925
440
 33554687
100
AcDbHatch
 10
0.0
 20
0.0
 30
0.0
210
0.0
220
0.0
230
1.0
  2
SOLID
 70
     1
 71
     1
 91
        1
 92
        1
 93
        1
 72
     4
 94
        3
 73
     0
 74
     0
 95
       26
 96
       22
 40
0.0
 40
0.0
 40
0.0
 40
0.0
 40
1.0
 40
1.0
 40
1.0
 40
2.0
 40
2.0
 40
2.0
 40
3.0
 40
3.0
 40
3.0
 40
4.0
 40
4.0
 40
4.0
 40
5.0
 40
5.0
 40
5.0
 40
6.0
 40
6.0
 40
6.0
 40
7.0
 40
7.0
 40
7.0
 40
7.0
 10
129.2813421985824
 20
-156.4176703167983
 10
129.2813421985824
 20
-156.4176703167983
 10
129.2813421985824
 20
-155.3135172137757
 10
129.2813421985824
 20
-155.3135172137757
 10
129.2813421985824
 20
-155.3135172137757
 10
128.9513020510955
 20
-155.3135172137757
 10
128.9513020510955
 20
-155.3135172137757
 10
128.9513020510955
 20
-155.3135172137757
 10
128.9513020510955
 20
-155.16537810791
 10
128.9513020510955
 20
-155.16537810791
 10
129.2834092558736
 20
-155.1505641973235
 10
129.3299180449245
 20
-154.9876111808711
 10
129.3595458660976
 20
-154.8732340107608
 10
129.3595458660976
 20
-154.8732340107608
 10
129.5056179146722
 20
-154.8732340107608
 10
129.5056179146722
 20
-154.8732340107608
 10
129.5056179146722
 20
-154.8732340107608
 10
129.5056179146722
 20
-156.4176703167983
 10
129.5056179146722
 20
-156.4176703167983
 10
129.5056179146722
 20
-156.4176703167983
 10
129.2813421985824
 20
-156.4176703167983
 10
129.2813421985824
 20
-156.4176703167983
 97
        0
 97
        1
330
F6
 75
     2
 76
     1
 98
        1
 10
0.0
 20
0.0
450
        0
451
        0
460
0.0
461
0.0
452
        0
462
0.0
453
        0
470

  0
ENDBLK
  5
F2
330
EF
100
AcDbEntity
  8
0
100
AcDbBlockEnd
  0
BLOCK
  5
FA
330
F8
100
AcDbEntity
  8
0
100
AcDbBlockBegin
  2
Block_13
 70
     0
 10
0.0
 20
0.0
 30
0.0
  3
Block_13
  1

  0
INSERT
  5
FD
330
F8
100
AcDbEntity
  8
レイヤー 1
100
AcDbBlockReference
  2
Block_14
 10
0.0
 20
0.0
 30
0.0
  0
ENDBLK
  5
FB
330
F8
100
AcDbEntity
  8
0
100
AcDbBlockEnd
  0
BLOCK
  5
FE
330
FC
100
AcDbEntity
  8
0
100
AcDbBlockBegin
  2
Block_14
 70
     0
 10
0.0
 20
0.0
 30
0.0
  3
Block_14
  1

  0
SPLINE
  5
100
330
FC
100
AcDbEntity
  8
レイヤー 1
100
AcDbSpline
210
0.0
220
0.0
230
1.0
 70
     9
 71
     3
 72
    17
 73
    13
 74
     0
 42
0.0000000001
 43
0.0000000001
 40
0.0
 40
0.0
 40
0.0
 40
0.0
 40
1.0
 40
1.0
 40
1.0
 40
2.0
 40
2.0
 40
2.0
 40
3.0
 40
3.0
 40
3.0
 40
4.0
 40
4.0
 40
4.0
 40
4.0
 10
103.3897270791873
 20
-141.9334553681624
 30
0.0
 10
103.3728461113095
 20
-141.9630831893356
 30
0.0
 10
103.3222032076764
 20
-142.0561007674373
 30
0.0
 10
103.3115234116721
 20
-142.0753933021547
 30
0.0
 10
103.5020371920064
 20
-142.134648944501
 30
0.0
 10
103.5230522744664
 20
-142.1408501163745
 30
0.0
 10
103.5950547701082
 20
-142.1684108802565
 30
0.0
 10
103.6501762978722
 20
-142.0815944740282
 30
0.0
 10
103.6732584376233
 20
-142.0075249210953
 30
0.0
 10
103.6880723482099
 20
-141.9334553681624
 30
0.0
 10
103.6880723482099
 20
-141.9334553681624
 30
0.0
 10
103.3897270791873
 20
-141.9334553681624
 30
0.0
 10
103.3897270791873
 20
-141.9334553681624
 30
0.0
  0
SPLINE
  5
101
330
FC
100
AcDbEntity
  8
レイヤー 1
100
AcDbSpline
210
0.0
220
0.0
230
1.0
 70
    11
 71
     3
 72
    20
 73
    16
 74
     0
 42
0.0000000001
 43
0.0000000001
 40
0.0
 40
0.0
 40
0.0
 40
0.0
 40
1.0
 40
1.0
 40
1.0
 40
2.0
 40
2.0
 40
2.0
 40
3.0
 40
3.0
 40
3.0
 40
4.0
 40
4.0
 40
4.0
 40
5.0
 40
5.0
 40
5.0
 40
5.0
 10
103.3263373222587
 20
-141.0832058024028
 30
0.0
 10
103.3263373222587
 20
-141.0832058024028
 30
0.0
 10
103.2946424437944
 20
-141.0832058024028
 30
0.0
 10
103.2946424437944
 20
-141.0832058024028
 30
0.0
 10
103.3411512328453
 20
-141.182424552378
 30
0.0
 10
103.3728461113095
 20
-141.2630397867328
 30
0.0
 10
103.406608047065
 20
-141.38981930059
 30
0.0
 10
103.406608047065
 20
-141.38981930059
 30
0.0
 10
103.614002795277
 20
-141.38981930059
 30
0.0
 10
103.614002795277
 20
-141.38981930059
 30
0.0
 10
103.6456976737413
 20
-141.2968017224883
 30
0.0
 10
103.669124323041
 20
-141.2120523735511
 30
0.0
 10
103.6922064627922
 20
-141.0832058024028
 30
0.0
 10
103.6922064627922
 20
-141.0832058024028
 30
0.0
 10
103.3263373222587
 20
-141.0832058024028
 30
0.0
 10
103.3263373222587
 20
-141.0832058024028
 30
0.0
  0
SPLINE
  5
102
330
FC
100
AcDbEntity
  8
レイヤー 1
100
AcDbSpline
210
0.0
220
0.0
230
1.0
 70
     9
 71
     3
 72
   242
 73
   238
 74
     0
 42
0.0000000001
 43
0.0000000001
 40
0.0
 40
0.0
 40
0.0
 40
0.0
 40
1.0
 40
1.0
 40
1.0
 40
2.0
 40
2.0
 40
2.0
 40
3.0
 40
3.0
 40
3.0
 40
4.0
 40
4.0
 40
4.0
 40
5.0
 40
5.0
 40
5.0
 40
6.0
 40
6.0
 40
6.0
 40
7.0
 40
7.0
 40
7.0
 40
8.0
 40
8.0
 40
8.0
 40
9.0
 40
9.0
 40
9.0
 40
10.0
 40
10.0
 40
10.0
 40
11.0
 40
11.0
 40
11.0
 40
12.0
 40
12.0
 40
12.0
 40
13.0
 40
13.0
 40
13.0
 40
14.0
 40
14.0
 40
14.0
 40
15.0
 40
15.0
 40
15.0
 40
16.0
 40
16.0
 40
16.0
 40
17.0
 40
17.0
 40
17.0
 40
18.0
 40
18.0
 40
18.0
 40
19.0
 40
19.0
 40
19.0
 40
20.0
 40
20.0
 40
20.0
 40
21.0
 40
21.0
 40
21.0
 40
22.0
 40
22.0
 40
22.0
 40
23.0
 40
23.0
 40
23.0
 40
24.0
 40
24.0
 40
24.0
 40
25.0
 40
25.0
 40
25.0
 40
26.0
 40
26.0
 40
26.0
 40
27.0
 40
27.0
 40
27.0
 40
28.0
 40
28.0
 40
28.0
 40
29.0
 40
29.0
 40
29.0
 40
30.0
 40
30.0
 40
30.0
 40
31.0
 40
31.0
 40
31.0
 40
32.0
 40
32.0
 40
32.0
 40
33.0
 40
33.0
 40
33.0
 40
34.0
 40
34.0
 40
34.0
 40
35.0
 40
35.0
 40
35.0
 40
36.0
 40
36.0
 40
36.0
 40
37.0
 40
37.0
 40
37.0
 40
38.0
 40
38.0
 40
38.0
 40
39.0
 40
39.0
 40
39.0
 40
40.0
 40
40.0
 40
40.0
 40
41.0
 40
41.0
 40
41.0
 40
42.0
 40
42.0
 40
42.0
 40
43.0
 40
43.0
 40
43.0
 40
44.0
 40
44.0
 40
44.0
 40
45.0
 40
45.0
 40
45.0
 40
46.0
 40
46.0
 40
46.0
 40
47.0
 40
47.0
 40
47.0
 40
48.0
 40
48.0
 40
48.0
 40
49.0
 40
49.0
 40
49.0
 40
50.0
 40
50.0
 40
50.0
 40
51.0
 40
51.0
 40
51.0
 40
52.0
 40
52.0
 40
52.0
 40
53.0
 40
53.0
 40
53.0
 40
54.0
 40
54.0
 40
54.0
 40
55.0
 40
55.0
 40
55.0
 40
56.0
 40
56.0
 40
56.0
 40
57.0
 40
57.0
 40
57.0
 40
58.0
 40
58.0
 40
58.0
 40
59.0
 40
59.0
 40
59.0
 40
60.0
 40
60.0
 40
60.0
 40
61.0
 40
61.0
 40
61.0
 40
62.0
 40
62.0
 40
62.0
 40
63.0
 40
63.0
 40
63.0
 40
64.0
 40
64.0
 40
64.0
 40
65.0
 40
65.0
 40
65.0
 40
66.0
 40
66.0
 40
66.0
 40
67.0
 40
67.0
 40
67.0
 40
68.0
 40
68.0
 40
68.0
 40
69.0
 40
69.0
 40
69.0
 40
70.0
 40
70.0
 40
70.0
 40
71.0
 40
71.0
 40
71.0
 40
72.0
 40
72.0
 40
72.0
 40
73.0
 40
73.0
 40
73.0
 40
74.0
 40
74.0
 40
74.0
 40
75.0
 40
75.0
 40
75.0
 40
76.0
 40
76.0
 40
76.0
 40
77.0
 40
77.0
 40
77.0
 40
78.0
 40
78.0
 40
78.0
 40
79.0
 40
79.0
 40
79.0
 40
79.0
 10
103.9547227387682
 20
-141.54863820246
 30
0.0
 10
103.9547227387682
 20
-141.54863820246
 30
0.0
 10
103.7008192015053
 20
-141.54863820246
 30
0.0
 10
103.7008192015053
 20
-141.54863820246
 30
0.0
 10
103.7008192015053
 20
-141.54863820246
 30
0.0
 10
103.4238335244912
 20
-141.54863820246
 30
0.0
 10
103.4238335244912
 20
-141.54863820246
 30
0.0
 10
103.4238335244912
 20
-141.54863820246
 30
0.0
 10
103.5506130383484
 20
-141.5910128769286
 30
0.0
 10
103.5506130383484
 20
-141.5910128769286
 30
0.0
 10
103.5612928343527
 20
-141.5951469915109
 30
0.0
 10
103.5740396876482
 20
-141.6013481633844
 30
0.0
 10
103.5740396876482
 20
-141.6140950166798
 30
0.0
 10
103.5740396876482
 20
-141.6351100991398
 30
0.0
 10
103.5420002996353
 20
-141.6416557805618
 30
0.0
 10
103.5209852171753
 20
-141.6457898951441
 30
0.0
 10
103.510305421171
 20
-141.6692165444438
 30
0.0
 10
103.4806775999979
 20
-141.7346733586635
 30
0.0
 10
103.461729574829
 20
-141.7791150904233
 30
0.0
 10
103.461729574829
 20
-141.7791150904233
 30
0.0
 10
103.7325140799696
 20
-141.7791150904233
 30
0.0
 10
103.7325140799696
 20
-141.7791150904233
 30
0.0
 10
103.8234646007802
 20
-141.7791150904233
 30
0.0
 10
104.020179552988
 20
-141.774980975841
 30
0.0
 10
104.1621174869803
 20
-141.7663682371278
 30
0.0
 10
104.1621174869803
 20
-141.7663682371278
 30
0.0
 10
104.1621174869803
 20
-141.9441351641667
 30
0.0
 10
104.1621174869803
 20
-141.9441351641667
 30
0.0
 10
104.0794351953343
 20
-141.9400010495844
 30
0.0
 10
104.0584201128743
 20
-141.9400010495844
 30
0.0
 10
103.8785861285442
 20
-141.9355224254536
 30
0.0
 10
103.8468912500799
 20
-142.0902072127413
 30
0.0
 10
103.8024495183202
 20
-142.1704779375476
 30
0.0
 10
103.7580077865605
 20
-142.2404133758982
 30
0.0
 10
103.8785861285442
 20
-142.2996690182445
 30
0.0
 10
103.9843505599414
 20
-142.3671928897554
 30
0.0
 10
104.0880479340474
 20
-142.4498751814014
 30
0.0
 10
104.0880479340474
 20
-142.4498751814014
 30
0.0
 10
103.9695366493548
 20
-142.616962312436
 30
0.0
 10
103.9695366493548
 20
-142.616962312436
 30
0.0
 10
103.9461100000551
 20
-142.5976697777186
 30
0.0
 10
103.9333631467597
 20
-142.589401548554
 30
0.0
 10
103.8213975434891
 20
-142.5046521996168
 30
0.0
 10
103.772821697147
 20
-142.4667561492791
 30
0.0
 10
103.7135660548007
 20
-142.430582646684
 30
0.0
 10
103.6329508204459
 20
-142.3861409149243
 30
0.0
 10
103.4214219576516
 20
-142.5725205806763
 30
0.0
 10
103.2164387762792
 20
-142.5956027204275
 30
0.0
 10
102.9263617364212
 20
-142.6252305416006
 30
0.0
 10
102.9263617364212
 20
-142.6252305416006
 30
0.0
 10
102.8230088718637
 20
-142.4453965572706
 30
0.0
 10
102.8230088718637
 20
-142.4453965572706
 30
0.0
 10
103.1403021660552
 20
-142.4412624426883
 30
0.0
 10
103.3156575262544
 20
-142.4157687360974
 30
0.0
 10
103.4679307467024
 20
-142.305870190118
 30
0.0
 10
103.3497639715584
 20
-142.2552272864848
 30
0.0
 10
103.2608805080389
 20
-142.2276665226028
 30
0.0
 10
103.2247070054438
 20
-142.2149196693074
 30
0.0
 10
103.2057589802749
 20
-142.2424804331894
 30
0.0
 10
103.1909450696884
 20
-142.2614284583582
 30
0.0
 10
103.1633843058064
 20
-142.2951903941137
 30
0.0
 10
103.1633843058064
 20
-142.2951903941137
 30
0.0
 10
102.9666693535986
 20
-142.2128526120162
 30
0.0
 10
102.9666693535986
 20
-142.2128526120162
 30
0.0
 10
103.0493516452446
 20
-142.1325818872099
 30
0.0
 10
103.110674344882
 20
-142.0371527422685
 30
0.0
 10
103.1675184203886
 20
-141.9355224254536
 30
0.0
 10
102.9773491496029
 20
-141.9400010495844
 30
0.0
 10
102.9559895575943
 20
-141.9400010495844
 30
0.0
 10
102.8736517754968
 20
-141.9441351641667
 30
0.0
 10
102.8736517754968
 20
-141.9441351641667
 30
0.0
 10
102.8736517754968
 20
-141.7663682371278
 30
0.0
 10
102.8736517754968
 20
-141.7663682371278
 30
0.0
 10
103.0131781426495
 20
-141.7729139185498
 30
0.0
 10
103.2226399481527
 20
-141.7770480331321
 30
0.0
 10
103.2481336547435
 20
-141.7770480331321
 30
0.0
 10
103.2650146226212
 20
-141.7432860973766
 30
0.0
 10
103.3201361503852
 20
-141.6227077553929
 30
0.0
 10
103.3390841755541
 20
-141.54863820246
 30
0.0
 10
103.3201361503852
 20
-141.54863820246
 30
0.0
 10
103.1423692233463
 20
-141.5548393743335
 30
0.0
 10
102.9477213284297
 20
-141.5675862276289
 30
0.0
 10
102.9477213284297
 20
-141.5675862276289
 30
0.0
 10
102.9477213284297
 20
-141.7009114229081
 30
0.0
 10
102.9477213284297
 20
-141.7009114229081
 30
0.0
 10
102.8991454820877
 20
-141.7260606199504
 30
0.0
 10
102.8398898397414
 20
-141.7581000079632
 30
0.0
 10
102.7065646444622
 20
-141.823556822183
 30
0.0
 10
102.7065646444622
 20
-141.823556822183
 30
0.0
 10
102.7065646444622
 20
-141.9696288707576
 30
0.0
 10
102.7065646444622
 20
-141.9696288707576
 30
0.0
 10
102.7065646444622
 20
-141.9696288707576
 30
0.0
 10
102.7065646444622
 20
-142.437128328106
 30
0.0
 10
102.7065646444622
 20
-142.437128328106
 30
0.0
 10
102.7065646444622
 20
-142.5639078419631
 30
0.0
 10
102.6703911418671
 20
-142.6231634843095
 30
0.0
 10
102.3872042929796
 20
-142.6148952551448
 30
0.0
 10
102.3872042929796
 20
-142.6148952551448
 30
0.0
 10
102.2835069188736
 20
-142.4075005069328
 30
0.0
 10
102.2835069188736
 20
-142.4075005069328
 30
0.0
 10
102.3468966758021
 20
-142.4202473602282
 30
0.0
 10
102.3954725221442
 20
-142.4243814748106
 30
0.0
 10
102.4357801393216
 20
-142.4243814748106
 30
0.0
 10
102.5119167495456
 20
-142.4243814748106
 30
0.0
 10
102.5225965455499
 20
-142.4009548255108
 30
0.0
 10
102.5225965455499
 20
-142.3354980112911
 30
0.0
 10
102.5225965455499
 20
-142.3354980112911
 30
0.0
 10
102.5225965455499
 20
-141.9058946042805
 30
0.0
 10
102.5225965455499
 20
-141.9058946042805
 30
0.0
 10
102.4251003433173
 20
-141.9462022214579
 30
0.0
 10
102.4082193754396
 20
-141.9527479028799
 30
0.0
 10
102.3617105863887
 20
-141.9716959280487
 30
0.0
 10
102.3575764718064
 20
-141.9927110105087
 30
0.0
 10
102.3530978476756
 20
-142.0223388316819
 30
0.0
 10
102.3341498225067
 20
-142.0223388316819
 30
0.0
 10
102.3258815933421
 20
-142.0223388316819
 30
0.0
 10
102.3152017973379
 20
-142.0182047170996
 30
0.0
 10
102.3086561159159
 20
-141.9947780677999
 30
0.0
 10
102.3086561159159
 20
-141.9947780677999
 30
0.0
 10
102.2559461549916
 20
-141.8025417397229
 30
0.0
 10
102.2559461549916
 20
-141.8025417397229
 30
0.0
 10
102.4020182035662
 20
-141.7556884411236
 30
0.0
 10
102.4674750177859
 20
-141.7326063013724
 30
0.0
 10
102.5225965455499
 20
-141.7115912189124
 30
0.0
 10
102.5225965455499
 20
-141.7115912189124
 30
0.0
 10
102.5225965455499
 20
-141.2988687797794
 30
0.0
 10
102.5225965455499
 20
-141.2988687797794
 30
0.0
 10
102.5225965455499
 20
-141.2988687797794
 30
0.0
 10
102.469542075077
 20
-141.2988687797794
 30
0.0
 10
102.469542075077
 20
-141.2988687797794
 30
0.0
 10
102.469542075077
 20
-141.2988687797794
 30
0.0
 10
102.3913384075619
 20
-141.2988687797794
 30
0.0
 10
102.3913384075619
 20
-141.2988687797794
 30
0.0
 10
102.3234700265025
 20
-141.2988687797794
 30
0.0
 10
102.3152017973379
 20
-141.2988687797794
 30
0.0
 10
102.2790282947427
 20
-141.3054144612014
 30
0.0
 10
102.2790282947427
 20
-141.3054144612014
 30
0.0
 10
102.2790282947427
 20
-141.1107665662848
 30
0.0
 10
102.2790282947427
 20
-141.1107665662848
 30
0.0
 10
102.3065890586247
 20
-141.1169677381582
 30
0.0
 10
102.3152017973379
 20
-141.1169677381582
 30
0.0
 10
102.3847927261399
 20
-141.1169677381582
 30
0.0
 10
102.3847927261399
 20
-141.1169677381582
 30
0.0
 10
102.5181179214191
 20
-141.1169677381582
 30
0.0
 10
102.5181179214191
 20
-141.1169677381582
 30
0.0
 10
102.5181179214191
 20
-141.0470322998077
 30
0.0
 10
102.5181179214191
 20
-140.9646945177102
 30
0.0
 10
102.5160508641279
 20
-140.9605604031279
 30
0.0
 10
102.5077826349633
 20
-140.7807264187979
 30
0.0
 10
102.5077826349633
 20
-140.7614338840804
 30
0.0
 10
102.5053710681236
 20
-140.7149250950296
 30
0.0
 10
102.5053710681236
 20
-140.7149250950296
 30
0.0
 10
102.7213785550488
 20
-140.7235378337427
 30
0.0
 10
102.7213785550488
 20
-140.7235378337427
 30
0.0
 10
102.7320583510531
 20
-140.7235378337427
 30
0.0
 10
102.7530734335131
 20
-140.7256048910339
 30
0.0
 10
102.7530734335131
 20
-140.7424858589116
 30
0.0
 10
102.7530734335131
 20
-140.7614338840804
 30
0.0
 10
102.7382595229265
 20
-140.7721136800847
 30
0.0
 10
102.7127658163357
 20
-140.7910617052536
 30
0.0
 10
102.7127658163357
 20
-140.8420491184353
 30
0.0
 10
102.7065646444622
 20
-141.0704589491074
 30
0.0
 10
102.7086317017534
 20
-141.1169677381582
 30
0.0
 10
102.8378227824503
 20
-141.1169677381582
 30
0.0
 10
102.8502251261971
 20
-141.1169677381582
 30
0.0
 10
102.9477213284297
 20
-141.1083549994451
 30
0.0
 10
102.9477213284297
 20
-141.1083549994451
 30
0.0
 10
102.9477213284297
 20
-141.3030028943617
 30
0.0
 10
102.9477213284297
 20
-141.3030028943617
 30
0.0
 10
102.9094807685434
 20
-141.3009358370706
 30
0.0
 10
102.8419568970325
 20
-141.2968017224883
 30
0.0
 10
102.7065646444622
 20
-141.2988687797794
 30
0.0
 10
102.7065646444622
 20
-141.2988687797794
 30
0.0
 10
102.7065646444622
 20
-141.6375216659795
 30
0.0
 10
102.7065646444622
 20
-141.6375216659795
 30
0.0
 10
102.7616861722262
 20
-141.6140950166798
 30
0.0
 10
102.827142986446
 20
-141.5865342527978
 30
0.0
 10
102.875718832788
 20
-141.5634521130466
 30
0.0
 10
102.875718832788
 20
-141.5634521130466
 30
0.0
 10
102.875718832788
 20
-141.3856851860077
 30
0.0
 10
102.875718832788
 20
-141.3856851860077
 30
0.0
 10
102.9900960028983
 20
-141.3984320393032
 30
0.0
 10
103.1086072875909
 20
-141.3984320393032
 30
0.0
 10
103.2247070054438
 20
-141.3984320393032
 30
0.0
 10
103.2016248656926
 20
-141.3030028943617
 30
0.0
 10
103.1740641018106
 20
-141.2206651122643
 30
0.0
 10
103.110674344882
 20
-141.0873399169851
 30
0.0
 10
103.0662326131223
 20
-141.0894069742762
 30
0.0
 10
102.9835503214763
 20
-141.0935410888585
 30
0.0
 10
102.9456542711386
 20
-141.0959526556982
 30
0.0
 10
102.9456542711386
 20
-141.0959526556982
 30
0.0
 10
102.9456542711386
 20
-140.9161186713682
 30
0.0
 10
102.9456542711386
 20
-140.9161186713682
 30
0.0
 10
103.0703667277046
 20
-140.9243869005328
 30
0.0
 10
103.2439995401612
 20
-140.9285210151151
 30
0.0
 10
103.3263373222587
 20
-140.9285210151151
 30
0.0
 10
103.3263373222587
 20
-140.9285210151151
 30
0.0
 10
103.4090196139047
 20
-140.9285210151151
 30
0.0
 10
103.4090196139047
 20
-140.9285210151151
 30
0.0
 10
103.4090196139047
 20
-140.7659125082113
 30
0.0
 10
103.4090196139047
 20
-140.755232712207
 30
0.0
 10
103.406608047065
 20
-140.700111184443
 30
0.0
 10
103.406608047065
 20
-140.700111184443
 30
0.0
 10
103.6308837631548
 20
-140.7256048910339
 30
0.0
 10
103.6308837631548
 20
-140.7256048910339
 30
0.0
 10
103.6353623872856
 20
-140.7256048910339
 30
0.0
 10
103.6563774697456
 20
-140.727671948325
 30
0.0
 10
103.6563774697456
 20
-140.7445529162027
 30
0.0
 10
103.6563774697456
 20
-140.7593668267893
 30
0.0
 10
103.6456976737413
 20
-140.7679795655024
 30
0.0
 10
103.6181369098593
 20
-140.782793476089
 30
0.0
 10
103.6119357379859
 20
-140.8482502903088
 30
0.0
 10
103.6098686806947
 20
-140.8696098823173
 30
0.0
 10
103.6098686806947
 20
-140.9285210151151
 30
0.0
 10
103.6098686806947
 20
-140.9285210151151
 30
0.0
 10
103.7049533160876
 20
-140.9285210151151
 30
0.0
 10
103.7049533160876
 20
-140.9285210151151
 30
0.0
 10
103.7876356077336
 20
-140.9285210151151
 30
0.0
 10
103.9609239106417
 20
-140.9243869005328
 30
0.0
 10
104.0859808767563
 20
-140.9161186713682
 30
0.0
 10
104.0859808767563
 20
-140.9161186713682
 30
0.0
 10
104.0859808767563
 20
-141.0959526556982
 30
0.0
 10
104.0859808767563
 20
-141.0959526556982
 30
0.0
 10
104.0563530555831
 20
-141.0935410888585
 30
0.0
 10
103.9378417708905
 20
-141.0894069742762
 30
0.0
 10
103.8975341537131
 20
-141.0873399169851
 30
0.0
 10
103.8827202431265
 20
-141.1379828206182
 30
0.0
 10
103.8489583073711
 20
-141.2502929334374
 30
0.0
 10
103.7831569836028
 20
-141.38981930059
 30
0.0
 10
103.8255316580714
 20
-141.38981930059
 30
0.0
 10
104.102861844634
 20
-141.3708712754211
 30
0.0
 10
104.1641845442714
 20
-141.36880421813
 30
0.0
 10
104.1641845442714
 20
-141.36880421813
 30
0.0
 10
104.1641845442714
 20
-141.5527723170423
 30
0.0
 10
104.1641845442714
 20
-141.5527723170423
 30
0.0
 10
104.1345567230983
 20
-141.5527723170423
 30
0.0
 10
104.1176757552206
 20
-141.54863820246
 30
0.0
 10
103.9547227387682
 20
-141.54863820246
 30
0.0
  0
HATCH
  5
103
330
FC
100
AcDbEntity
  8
レイヤー 1
 62
   250
420
  2299925
440
 33554687
100
AcDbHatch
 10
0.0
 20
0.0
 30
0.0
210
0.0
220
0.0
230
1.0
  2
SOLID
 70
     1
 71
     1
 91
        3
 92
        1
 93
        1
 72
     4
 94
        3
 73
     0
 74
     0
 95
       17
 96
       13
 40
0.0
 40
0.0
 40
0.0
 40
0.0
 40
1.0
 40
1.0
 40
1.0
 40
2.0
 40
2.0
 40
2.0
 40
3.0
 40
3.0
 40
3.0
 40
4.0
 40
4.0
 40
4.0
 40
4.0
 10
103.3897270791873
 20
-141.9334553681624
 10
103.3728461113095
 20
-141.9630831893356
 10
103.3222032076764
 20
-142.0561007674373
 10
103.3115234116721
 20
-142.0753933021547
 10
103.5020371920064
 20
-142.134648944501
 10
103.5230522744664
 20
-142.1408501163745
 10
103.5950547701082
 20
-142.1684108802565
 10
103.6501762978722
 20
-142.0815944740282
 10
103.6732584376233
 20
-142.0075249210953
 10
103.6880723482099
 20
-141.9334553681624
 10
103.6880723482099
 20
-141.9334553681624
 10
103.3897270791873
 20
-141.9334553681624
 10
103.3897270791873
 20
-141.9334553681624
 97
        0
 97
        1
330
100
 92
        1
 93
        1
 72
     4
 94
        3
 73
     0
 74
     0
 95
       20
 96
       16
 40
0.0
 40
0.0
 40
0.0
 40
0.0
 40
1.0
 40
1.0
 40
1.0
 40
2.0
 40
2.0
 40
2.0
 40
3.0
 40
3.0
 40
3.0
 40
4.0
 40
4.0
 40
4.0
 40
5.0
 40
5.0
 40
5.0
 40
5.0
 10
103.3263373222587
 20
-141.0832058024028
 10
103.3263373222587
 20
-141.0832058024028
 10
103.2946424437944
 20
-141.0832058024028
 10
103.2946424437944
 20
-141.0832058024028
 10
103.3411512328453
 20
-141.182424552378
 10
103.3728461113095
 20
-141.2630397867328
 10
103.406608047065
 20
-141.38981930059
 10
103.406608047065
 20
-141.38981930059
 10
103.614002795277
 20
-141.38981930059
 10
103.614002795277
 20
-141.38981930059
 10
103.6456976737413
 20
-141.2968017224883
 10
103.669124323041
 20
-141.2120523735511
 10
103.6922064627922
 20
-141.0832058024028
 10
103.6922064627922
 20
-141.0832058024028
 10
103.3263373222587
 20
-141.0832058024028
 10
103.3263373222587
 20
-141.0832058024028
 97
        0
 97
        1
330
101
 92
        1
 93
        1
 72
     4
 94
        3
 73
     0
 74
     0
 95
      242
 96
      238
 40
0.0
 40
0.0
 40
0.0
 40
0.0
 40
1.0
 40
1.0
 40
1.0
 40
2.0
 40
2.0
 40
2.0
 40
3.0
 40
3.0
 40
3.0
 40
4.0
 40
4.0
 40
4.0
 40
5.0
 40
5.0
 40
5.0
 40
6.0
 40
6.0
 40
6.0
 40
7.0
 40
7.0
 40
7.0
 40
8.0
 40
8.0
 40
8.0
 40
9.0
 40
9.0
 40
9.0
 40
10.0
 40
10.0
 40
10.0
 40
11.0
 40
11.0
 40
11.0
 40
12.0
 40
12.0
 40
12.0
 40
13.0
 40
13.0
 40
13.0
 40
14.0
 40
14.0
 40
14.0
 40
15.0
 40
15.0
 40
15.0
 40
16.0
 40
16.0
 40
16.0
 40
17.0
 40
17.0
 40
17.0
 40
18.0
 40
18.0
 40
18.0
 40
19.0
 40
19.0
 40
19.0
 40
20.0
 40
20.0
 40
20.0
 40
21.0
 40
21.0
 40
21.0
 40
22.0
 40
22.0
 40
22.0
 40
23.0
 40
23.0
 40
23.0
 40
24.0
 40
24.0
 40
24.0
 40
25.0
 40
25.0
 40
25.0
 40
26.0
 40
26.0
 40
26.0
 40
27.0
 40
27.0
 40
27.0
 40
28.0
 40
28.0
 40
28.0
 40
29.0
 40
29.0
 40
29.0
 40
30.0
 40
30.0
 40
30.0
 40
31.0
 40
31.0
 40
31.0
 40
32.0
 40
32.0
 40
32.0
 40
33.0
 40
33.0
 40
33.0
 40
34.0
 40
34.0
 40
34.0
 40
35.0
 40
35.0
 40
35.0
 40
36.0
 40
36.0
 40
36.0
 40
37.0
 40
37.0
 40
37.0
 40
38.0
 40
38.0
 40
38.0
 40
39.0
 40
39.0
 40
39.0
 40
40.0
 40
40.0
 40
40.0
 40
41.0
 40
41.0
 40
41.0
 40
42.0
 40
42.0
 40
42.0
 40
43.0
 40
43.0
 40
43.0
 40
44.0
 40
44.0
 40
44.0
 40
45.0
 40
45.0
 40
45.0
 40
46.0
 40
46.0
 40
46.0
 40
47.0
 40
47.0
 40
47.0
 40
48.0
 40
48.0
 40
48.0
 40
49.0
 40
49.0
 40
49.0
 40
50.0
 40
50.0
 40
50.0
 40
51.0
 40
51.0
 40
51.0
 40
52.0
 40
52.0
 40
52.0
 40
53.0
 40
53.0
 40
53.0
 40
54.0
 40
54.0
 40
54.0
 40
55.0
 40
55.0
 40
55.0
 40
56.0
 40
56.0
 40
56.0
 40
57.0
 40
57.0
 40
57.0
 40
58.0
 40
58.0
 40
58.0
 40
59.0
 40
59.0
 40
59.0
 40
60.0
 40
60.0
 40
60.0
 40
61.0
 40
61.0
 40
61.0
 40
62.0
 40
62.0
 40
62.0
 40
63.0
 40
63.0
 40
63.0
 40
64.0
 40
64.0
 40
64.0
 40
65.0
 40
65.0
 40
65.0
 40
66.0
 40
66.0
 40
66.0
 40
67.0
 40
67.0
 40
67.0
 40
68.0
 40
68.0
 40
68.0
 40
69.0
 40
69.0
 40
69.0
 40
70.0
 40
70.0
 40
70.0
 40
71.0
 40
71.0
 40
71.0
 40
72.0
 40
72.0
 40
72.0
 40
73.0
 40
73.0
 40
73.0
 40
74.0
 40
74.0
 40
74.0
 40
75.0
 40
75.0
 40
75.0
 40
76.0
 40
76.0
 40
76.0
 40
77.0
 40
77.0
 40
77.0
 40
78.0
 40
78.0
 40
78.0
 40
79.0
 40
79.0
 40
79.0
 40
79.0
 10
103.9547227387682
 20
-141.54863820246
 10
103.9547227387682
 20
-141.54863820246
 10
103.7008192015053
 20
-141.54863820246
 10
103.7008192015053
 20
-141.54863820246
 10
103.7008192015053
 20
-141.54863820246
 10
103.4238335244912
 20
-141.54863820246
 10
103.4238335244912
 20
-141.54863820246
 10
103.4238335244912
 20
-141.54863820246
 10
103.5506130383484
 20
-141.5910128769286
 10
103.5506130383484
 20
-141.5910128769286
 10
103.5612928343527
 20
-141.5951469915109
 10
103.5740396876482
 20
-141.6013481633844
 10
103.5740396876482
 20
-141.6140950166798
 10
103.5740396876482
 20
-141.6351100991398
 10
103.5420002996353
 20
-141.6416557805618
 10
103.5209852171753
 20
-141.6457898951441
 10
103.510305421171
 20
-141.6692165444438
 10
103.4806775999979
 20
-141.7346733586635
 10
103.461729574829
 20
-141.7791150904233
 10
103.461729574829
 20
-141.7791150904233
 10
103.7325140799696
 20
-141.7791150904233
 10
103.7325140799696
 20
-141.7791150904233
 10
103.8234646007802
 20
-141.7791150904233
 10
104.020179552988
 20
-141.774980975841
 10
104.1621174869803
 20
-141.7663682371278
 10
104.1621174869803
 20
-141.7663682371278
 10
104.1621174869803
 20
-141.9441351641667
 10
104.1621174869803
 20
-141.9441351641667
 10
104.0794351953343
 20
-141.9400010495844
 10
104.0584201128743
 20
-141.9400010495844
 10
103.8785861285442
 20
-141.9355224254536
 10
103.8468912500799
 20
-142.0902072127413
 10
103.8024495183202
 20
-142.1704779375476
 10
103.7580077865605
 20
-142.2404133758982
 10
103.8785861285442
 20
-142.2996690182445
 10
103.9843505599414
 20
-142.3671928897554
 10
104.0880479340474
 20
-142.4498751814014
 10
104.0880479340474
 20
-142.4498751814014
 10
103.9695366493548
 20
-142.616962312436
 10
103.9695366493548
 20
-142.616962312436
 10
103.9461100000551
 20
-142.5976697777186
 10
103.9333631467597
 20
-142.589401548554
 10
103.8213975434891
 20
-142.5046521996168
 10
103.772821697147
 20
-142.4667561492791
 10
103.7135660548007
 20
-142.430582646684
 10
103.6329508204459
 20
-142.3861409149243
 10
103.4214219576516
 20
-142.5725205806763
 10
103.2164387762792
 20
-142.5956027204275
 10
102.9263617364212
 20
-142.6252305416006
 10
102.9263617364212
 20
-142.6252305416006
 10
102.8230088718637
 20
-142.4453965572706
 10
102.8230088718637
 20
-142.4453965572706
 10
103.1403021660552
 20
-142.4412624426883
 10
103.3156575262544
 20
-142.4157687360974
 10
103.4679307467024
 20
-142.305870190118
 10
103.3497639715584
 20
-142.2552272864848
 10
103.2608805080389
 20
-142.2276665226028
 10
103.2247070054438
 20
-142.2149196693074
 10
103.2057589802749
 20
-142.2424804331894
 10
103.1909450696884
 20
-142.2614284583582
 10
103.1633843058064
 20
-142.2951903941137
 10
103.1633843058064
 20
-142.2951903941137
 10
102.9666693535986
 20
-142.2128526120162
 10
102.9666693535986
 20
-142.2128526120162
 10
103.0493516452446
 20
-142.1325818872099
 10
103.110674344882
 20
-142.0371527422685
 10
103.1675184203886
 20
-141.9355224254536
 10
102.9773491496029
 20
-141.9400010495844
 10
102.9559895575943
 20
-141.9400010495844
 10
102.8736517754968
 20
-141.9441351641667
 10
102.8736517754968
 20
-141.9441351641667
 10
102.8736517754968
 20
-141.7663682371278
 10
102.8736517754968
 20
-141.7663682371278
 10
103.0131781426495
 20
-141.7729139185498
 10
103.2226399481527
 20
-141.7770480331321
 10
103.2481336547435
 20
-141.7770480331321
 10
103.2650146226212
 20
-141.7432860973766
 10
103.3201361503852
 20
-141.6227077553929
 10
103.3390841755541
 20
-141.54863820246
 10
103.3201361503852
 20
-141.54863820246
 10
103.1423692233463
 20
-141.5548393743335
 10
102.9477213284297
 20
-141.5675862276289
 10
102.9477213284297
 20
-141.5675862276289
 10
102.9477213284297
 20
-141.7009114229081
 10
102.9477213284297
 20
-141.7009114229081
 10
102.8991454820877
 20
-141.7260606199504
 10
102.8398898397414
 20
-141.7581000079632
 10
102.7065646444622
 20
-141.823556822183
 10
102.7065646444622
 20
-141.823556822183
 10
102.7065646444622
 20
-141.9696288707576
 10
102.7065646444622
 20
-141.9696288707576
 10
102.7065646444622
 20
-141.9696288707576
 10
102.7065646444622
 20
-142.437128328106
 10
102.7065646444622
 20
-142.437128328106
 10
102.7065646444622
 20
-142.5639078419631
 10
102.6703911418671
 20
-142.6231634843095
 10
102.3872042929796
 20
-142.6148952551448
 10
102.3872042929796
 20
-142.6148952551448
 10
102.2835069188736
 20
-142.4075005069328
 10
102.2835069188736
 20
-142.4075005069328
 10
102.3468966758021
 20
-142.4202473602282
 10
102.3954725221442
 20
-142.4243814748106
 10
102.4357801393216
 20
-142.4243814748106
 10
102.5119167495456
 20
-142.4243814748106
 10
102.5225965455499
 20
-142.4009548255108
 10
102.5225965455499
 20
-142.3354980112911
 10
102.5225965455499
 20
-142.3354980112911
 10
102.5225965455499
 20
-141.9058946042805
 10
102.5225965455499
 20
-141.9058946042805
 10
102.4251003433173
 20
-141.9462022214579
 10
102.4082193754396
 20
-141.9527479028799
 10
102.3617105863887
 20
-141.9716959280487
 10
102.3575764718064
 20
-141.9927110105087
 10
102.3530978476756
 20
-142.0223388316819
 10
102.3341498225067
 20
-142.0223388316819
 10
102.3258815933421
 20
-142.0223388316819
 10
102.3152017973379
 20
-142.0182047170996
 10
102.3086561159159
 20
-141.9947780677999
 10
102.3086561159159
 20
-141.9947780677999
 10
102.2559461549916
 20
-141.8025417397229
 10
102.2559461549916
 20
-141.8025417397229
 10
102.4020182035662
 20
-141.7556884411236
 10
102.4674750177859
 20
-141.7326063013724
 10
102.5225965455499
 20
-141.7115912189124
 10
102.5225965455499
 20
-141.7115912189124
 10
102.5225965455499
 20
-141.2988687797794
 10
102.5225965455499
 20
-141.2988687797794
 10
102.5225965455499
 20
-141.2988687797794
 10
102.469542075077
 20
-141.2988687797794
 10
102.469542075077
 20
-141.2988687797794
 10
102.469542075077
 20
-141.2988687797794
 10
102.3913384075619
 20
-141.2988687797794
 10
102.3913384075619
 20
-141.2988687797794
 10
102.3234700265025
 20
-141.2988687797794
 10
102.3152017973379
 20
-141.2988687797794
 10
102.2790282947427
 20
-141.3054144612014
 10
102.2790282947427
 20
-141.3054144612014
 10
102.2790282947427
 20
-141.1107665662848
 10
102.2790282947427
 20
-141.1107665662848
 10
102.3065890586247
 20
-141.1169677381582
 10
102.3152017973379
 20
-141.1169677381582
 10
102.3847927261399
 20
-141.1169677381582
 10
102.3847927261399
 20
-141.1169677381582
 10
102.5181179214191
 20
-141.1169677381582
 10
102.5181179214191
 20
-141.1169677381582
 10
102.5181179214191
 20
-141.0470322998077
 10
102.5181179214191
 20
-140.9646945177102
 10
102.5160508641279
 20
-140.9605604031279
 10
102.5077826349633
 20
-140.7807264187979
 10
102.5077826349633
 20
-140.7614338840804
 10
102.5053710681236
 20
-140.7149250950296
 10
102.5053710681236
 20
-140.7149250950296
 10
102.7213785550488
 20
-140.7235378337427
 10
102.7213785550488
 20
-140.7235378337427
 10
102.7320583510531
 20
-140.7235378337427
 10
102.7530734335131
 20
-140.7256048910339
 10
102.7530734335131
 20
-140.7424858589116
 10
102.7530734335131
 20
-140.7614338840804
 10
102.7382595229265
 20
-140.7721136800847
 10
102.7127658163357
 20
-140.7910617052536
 10
102.7127658163357
 20
-140.8420491184353
 10
102.7065646444622
 20
-141.0704589491074
 10
102.7086317017534
 20
-141.1169677381582
 10
102.8378227824503
 20
-141.1169677381582
 10
102.8502251261971
 20
-141.1169677381582
 10
102.9477213284297
 20
-141.1083549994451
 10
102.9477213284297
 20
-141.1083549994451
 10
102.9477213284297
 20
-141.3030028943617
 10
102.9477213284297
 20
-141.3030028943617
 10
102.9094807685434
 20
-141.3009358370706
 10
102.8419568970325
 20
-141.2968017224883
 10
102.7065646444622
 20
-141.2988687797794
 10
102.7065646444622
 20
-141.2988687797794
 10
102.7065646444622
 20
-141.6375216659795
 10
102.7065646444622
 20
-141.6375216659795
 10
102.7616861722262
 20
-141.6140950166798
 10
102.827142986446
 20
-141.5865342527978
 10
102.875718832788
 20
-141.5634521130466
 10
102.875718832788
 20
-141.5634521130466
 10
102.875718832788
 20
-141.3856851860077
 10
102.875718832788
 20
-141.3856851860077
 10
102.9900960028983
 20
-141.3984320393032
 10
103.1086072875909
 20
-141.3984320393032
 10
103.2247070054438
 20
-141.3984320393032
 10
103.2016248656926
 20
-141.3030028943617
 10
103.1740641018106
 20
-141.2206651122643
 10
103.110674344882
 20
-141.0873399169851
 10
103.0662326131223
 20
-141.0894069742762
 10
102.9835503214763
 20
-141.0935410888585
 10
102.9456542711386
 20
-141.0959526556982
 10
102.9456542711386
 20
-141.0959526556982
 10
102.9456542711386
 20
-140.9161186713682
 10
102.9456542711386
 20
-140.9161186713682
 10
103.0703667277046
 20
-140.9243869005328
 10
103.2439995401612
 20
-140.9285210151151
 10
103.3263373222587
 20
-140.9285210151151
 10
103.3263373222587
 20
-140.9285210151151
 10
103.4090196139047
 20
-140.9285210151151
 10
103.4090196139047
 20
-140.9285210151151
 10
103.4090196139047
 20
-140.7659125082113
 10
103.4090196139047
 20
-140.755232712207
 10
103.406608047065
 20
-140.700111184443
 10
103.406608047065
 20
-140.700111184443
 10
103.6308837631548
 20
-140.7256048910339
 10
103.6308837631548
 20
-140.7256048910339
 10
103.6353623872856
 20
-140.7256048910339
 10
103.6563774697456
 20
-140.727671948325
 10
103.6563774697456
 20
-140.7445529162027
 10
103.6563774697456
 20
-140.7593668267893
 10
103.6456976737413
 20
-140.7679795655024
 10
103.6181369098593
 20
-140.782793476089
 10
103.6119357379859
 20
-140.8482502903088
 10
103.6098686806947
 20
-140.8696098823173
 10
103.6098686806947
 20
-140.9285210151151
 10
103.6098686806947
 20
-140.9285210151151
 10
103.7049533160876
 20
-140.9285210151151
 10
103.7049533160876
 20
-140.9285210151151
 10
103.7876356077336
 20
-140.9285210151151
 10
103.9609239106417
 20
-140.9243869005328
 10
104.0859808767563
 20
-140.9161186713682
 10
104.0859808767563
 20
-140.9161186713682
 10
104.0859808767563
 20
-141.0959526556982
 10
104.0859808767563
 20
-141.0959526556982
 10
104.0563530555831
 20
-141.0935410888585
 10
103.9378417708905
 20
-141.0894069742762
 10
103.8975341537131
 20
-141.0873399169851
 10
103.8827202431265
 20
-141.1379828206182
 10
103.8489583073711
 20
-141.2502929334374
 10
103.7831569836028
 20
-141.38981930059
 10
103.8255316580714
 20
-141.38981930059
 10
104.102861844634
 20
-141.3708712754211
 10
104.1641845442714
 20
-141.36880421813
 10
104.1641845442714
 20
-141.36880421813
 10
104.1641845442714
 20
-141.5527723170423
 10
104.1641845442714
 20
-141.5527723170423
 10
104.1345567230983
 20
-141.5527723170423
 10
104.1176757552206
 20
-141.54863820246
 10
103.9547227387682
 20
-141.54863820246
 97
        0
 97
        1
330
102
 75
     2
 76
     1
 98
        1
 10
0.0
 20
0.0
450
        0
451
        0
460
0.0
461
0.0
452
        0
462
0.0
453
        0
470

  0
SPLINE
  5
104
330
FC
100
AcDbEntity
  8
レイヤー 1
100
AcDbSpline
210
0.0
220
0.0
230
1.0
 70
    11
 71
     3
 72
    17
 73
    13
 74
     0
 42
0.0000000001
 43
0.0000000001
 40
0.0
 40
0.0
 40
0.0
 40
0.0
 40
1.0
 40
1.0
 40
1.0
 40
2.0
 40
2.0
 40
2.0
 40
3.0
 40
3.0
 40
3.0
 40
4.0
 40
4.0
 40
4.0
 40
4.0
 10
105.8112846957694
 20
-142.3482448645865
 30
0.0
 10
105.8112846957694
 20
-142.3482448645865
 30
0.0
 10
105.1046956117446
 20
-142.3482448645865
 30
0.0
 10
105.1046956117446
 20
-142.3482448645865
 30
0.0
 10
105.1046956117446
 20
-142.3482448645865
 30
0.0
 10
105.1046956117446
 20
-142.4622775251483
 30
0.0
 10
105.1046956117446
 20
-142.4622775251483
 30
0.0
 10
105.1046956117446
 20
-142.4622775251483
 30
0.0
 10
105.8112846957694
 20
-142.4622775251483
 30
0.0
 10
105.8112846957694
 20
-142.4622775251483
 30
0.0
 10
105.8112846957694
 20
-142.4622775251483
 30
0.0
 10
105.8112846957694
 20
-142.3482448645865
 30
0.0
 10
105.8112846957694
 20
-142.3482448645865
 30
0.0
  0
SPLINE
  5
105
330
FC
100
AcDbEntity
  8
レイヤー 1
100
AcDbSpline
210
0.0
220
0.0
230
1.0
 70
    11
 71
     3
 72
    17
 73
    13
 74
     0
 42
0.0000000001
 43
0.0000000001
 40
0.0
 40
0.0
 40
0.0
 40
0.0
 40
1.0
 40
1.0
 40
1.0
 40
2.0
 40
2.0
 40
2.0
 40
3.0
 40
3.0
 40
3.0
 40
4.0
 40
4.0
 40
4.0
 40
4.0
 10
105.8112846957694
 20
-142.1050211233279
 30
0.0
 10
105.8112846957694
 20
-142.1050211233279
 30
0.0
 10
105.1046956117446
 20
-142.1050211233279
 30
0.0
 10
105.1046956117446
 20
-142.1050211233279
 30
0.0
 10
105.1046956117446
 20
-142.1050211233279
 30
0.0
 10
105.1046956117446
 20
-142.2190537838897
 30
0.0
 10
105.1046956117446
 20
-142.2190537838897
 30
0.0
 10
105.1046956117446
 20
-142.2190537838897
 30
0.0
 10
105.8112846957694
 20
-142.2190537838897
 30
0.0
 10
105.8112846957694
 20
-142.2190537838897
 30
0.0
 10
105.8112846957694
 20
-142.2190537838897
 30
0.0
 10
105.8112846957694
 20
-142.1050211233279
 30
0.0
 10
105.8112846957694
 20
-142.1050211233279
 30
0.0
  0
SPLINE
  5
106
330
FC
100
AcDbEntity
  8
レイヤー 1
100
AcDbSpline
210
0.0
220
0.0
230
1.0
 70
    11
 71
     3
 72
    17
 73
    13
 74
     0
 42
0.0000000001
 43
0.0000000001
 40
0.0
 40
0.0
 40
0.0
 40
0.0
 40
1.0
 40
1.0
 40
1.0
 40
2.0
 40
2.0
 40
2.0
 40
3.0
 40
3.0
 40
3.0
 40
4.0
 40
4.0
 40
4.0
 40
4.0
 10
105.8112846957694
 20
-141.872132668525
 30
0.0
 10
105.8112846957694
 20
-141.872132668525
 30
0.0
 10
105.1046956117446
 20
-141.872132668525
 30
0.0
 10
105.1046956117446
 20
-141.872132668525
 30
0.0
 10
105.1046956117446
 20
-141.872132668525
 30
0.0
 10
105.1046956117446
 20
-141.9799641572133
 30
0.0
 10
105.1046956117446
 20
-141.9799641572133
 30
0.0
 10
105.1046956117446
 20
-141.9799641572133
 30
0.0
 10
105.8112846957694
 20
-141.9799641572133
 30
0.0
 10
105.8112846957694
 20
-141.9799641572133
 30
0.0
 10
105.8112846957694
 20
-141.9799641572133
 30
0.0
 10
105.8112846957694
 20
-141.872132668525
 30
0.0
 10
105.8112846957694
 20
-141.872132668525
 30
0.0
  0
SPLINE
  5
107
330
FC
100
AcDbEntity
  8
レイヤー 1
100
AcDbSpline
210
0.0
220
0.0
230
1.0
 70
     9
 71
     3
 72
   203
 73
   199
 74
     0
 42
0.0000000001
 43
0.0000000001
 40
0.0
 40
0.0
 40
0.0
 40
0.0
 40
1.0
 40
1.0
 40
1.0
 40
2.0
 40
2.0
 40
2.0
 40
3.0
 40
3.0
 40
3.0
 40
4.0
 40
4.0
 40
4.0
 40
5.0
 40
5.0
 40
5.0
 40
6.0
 40
6.0
 40
6.0
 40
7.0
 40
7.0
 40
7.0
 40
8.0
 40
8.0
 40
8.0
 40
9.0
 40
9.0
 40
9.0
 40
10.0
 40
10.0
 40
10.0
 40
11.0
 40
11.0
 40
11.0
 40
12.0
 40
12.0
 40
12.0
 40
13.0
 40
13.0
 40
13.0
 40
14.0
 40
14.0
 40
14.0
 40
15.0
 40
15.0
 40
15.0
 40
16.0
 40
16.0
 40
16.0
 40
17.0
 40
17.0
 40
17.0
 40
18.0
 40
18.0
 40
18.0
 40
19.0
 40
19.0
 40
19.0
 40
20.0
 40
20.0
 40
20.0
 40
21.0
 40
21.0
 40
21.0
 40
22.0
 40
22.0
 40
22.0
 40
23.0
 40
23.0
 40
23.0
 40
24.0
 40
24.0
 40
24.0
 40
25.0
 40
25.0
 40
25.0
 40
26.0
 40
26.0
 40
26.0
 40
27.0
 40
27.0
 40
27.0
 40
28.0
 40
28.0
 40
28.0
 40
29.0
 40
29.0
 40
29.0
 40
30.0
 40
30.0
 40
30.0
 40
31.0
 40
31.0
 40
31.0
 40
32.0
 40
32.0
 40
32.0
 40
33.0
 40
33.0
 40
33.0
 40
34.0
 40
34.0
 40
34.0
 40
35.0
 40
35.0
 40
35.0
 40
36.0
 40
36.0
 40
36.0
 40
37.0
 40
37.0
 40
37.0
 40
38.0
 40
38.0
 40
38.0
 40
39.0
 40
39.0
 40
39.0
 40
40.0
 40
40.0
 40
40.0
 40
41.0
 40
41.0
 40
41.0
 40
42.0
 40
42.0
 40
42.0
 40
43.0
 40
43.0
 40
43.0
 40
44.0
 40
44.0
 40
44.0
 40
45.0
 40
45.0
 40
45.0
 40
46.0
 40
46.0
 40
46.0
 40
47.0
 40
47.0
 40
47.0
 40
48.0
 40
48.0
 40
48.0
 40
49.0
 40
49.0
 40
49.0
 40
50.0
 40
50.0
 40
50.0
 40
51.0
 40
51.0
 40
51.0
 40
52.0
 40
52.0
 40
52.0
 40
53.0
 40
53.0
 40
53.0
 40
54.0
 40
54.0
 40
54.0
 40
55.0
 40
55.0
 40
55.0
 40
56.0
 40
56.0
 40
56.0
 40
57.0
 40
57.0
 40
57.0
 40
58.0
 40
58.0
 40
58.0
 40
59.0
 40
59.0
 40
59.0
 40
60.0
 40
60.0
 40
60.0
 40
61.0
 40
61.0
 40
61.0
 40
62.0
 40
62.0
 40
62.0
 40
63.0
 40
63.0
 40
63.0
 40
64.0
 40
64.0
 40
64.0
 40
65.0
 40
65.0
 40
65.0
 40
66.0
 40
66.0
 40
66.0
 40
66.0
 10
105.6462646220259
 20
-141.6161620739709
 30
0.0
 10
105.6462646220259
 20
-141.6161620739709
 30
0.0
 10
105.0874701343184
 20
-141.6161620739709
 30
0.0
 10
105.0874701343184
 20
-141.6161620739709
 30
0.0
 10
105.0771348478626
 20
-141.6606038057307
 30
0.0
 10
105.0685221091495
 20
-141.6922986841949
 30
0.0
 10
105.0557752558541
 20
-141.7305392440812
 30
0.0
 10
105.0812689624449
 20
-141.7305392440812
 30
0.0
 10
105.0960828730315
 20
-141.7326063013724
 30
0.0
 10
105.102284044905
 20
-141.7326063013724
 30
0.0
 10
105.102284044905
 20
-141.7326063013724
 30
0.0
 10
105.2907307679481
 20
-141.7326063013724
 30
0.0
 10
105.2907307679481
 20
-141.7326063013724
 30
0.0
 10
105.2907307679481
 20
-141.7326063013724
 30
0.0
 10
105.6652126471948
 20
-141.7326063013724
 30
0.0
 10
105.6652126471948
 20
-141.7326063013724
 30
0.0
 10
105.715855550828
 20
-141.7326063013724
 30
0.0
 10
105.999386909264
 20
-141.719859448077
 30
0.0
 10
106.0310817877283
 20
-141.719859448077
 30
0.0
 10
106.0290147304372
 20
-141.747420211959
 30
0.0
 10
106.026947673146
 20
-141.7663682371278
 30
0.0
 10
106.026947673146
 20
-141.795996058301
 30
0.0
 10
106.0248806158549
 20
-141.8276909367653
 30
0.0
 10
106.0248806158549
 20
-141.9630831893356
 30
0.0
 10
106.0248806158549
 20
-141.9906439532176
 30
0.0
 10
106.0248806158549
 20
-141.9906439532176
 30
0.0
 10
106.0248806158549
 20
-142.2359347517674
 30
0.0
 10
106.0248806158549
 20
-142.2359347517674
 30
0.0
 10
106.0248806158549
 20
-142.2803764835271
 30
0.0
 10
106.0290147304372
 20
-142.4770914357349
 30
0.0
 10
106.0331488450195
 20
-142.6297091657314
 30
0.0
 10
106.0331488450195
 20
-142.6297091657314
 30
0.0
 10
105.8068060716385
 20
-142.6297091657314
 30
0.0
 10
105.8068060716385
 20
-142.6297091657314
 30
0.0
 10
105.8068060716385
 20
-142.6297091657314
 30
0.0
 10
105.8088731289297
 20
-142.5956027204275
 30
0.0
 10
105.8088731289297
 20
-142.5956027204275
 30
0.0
 10
105.8088731289297
 20
-142.5956027204275
 30
0.0
 10
105.1067626690358
 20
-142.5956027204275
 30
0.0
 10
105.1067626690358
 20
-142.5956027204275
 30
0.0
 10
105.1067626690358
 20
-142.5956027204275
 30
0.0
 10
105.1088297263269
 20
-142.6297091657314
 30
0.0
 10
105.1088297263269
 20
-142.6297091657314
 30
0.0
 10
105.1088297263269
 20
-142.6297091657314
 30
0.0
 10
104.8907551821106
 20
-142.6297091657314
 30
0.0
 10
104.8907551821106
 20
-142.6297091657314
 30
0.0
 10
104.8952338062415
 20
-142.5745876379675
 30
0.0
 10
104.8952338062415
 20
-142.561840784672
 30
0.0
 10
104.9014349781149
 20
-142.4474636145617
 30
0.0
 10
104.9035020354061
 20
-142.4202473602282
 30
0.0
 10
104.9055690926972
 20
-142.2869221649491
 30
0.0
 10
104.9055690926972
 20
-142.2676296302317
 30
0.0
 10
104.9055690926972
 20
-142.2676296302317
 30
0.0
 10
104.9055690926972
 20
-142.0647135061505
 30
0.0
 10
104.9055690926972
 20
-142.0647135061505
 30
0.0
 10
104.7660427255446
 20
-142.3144829288311
 30
0.0
 10
104.5968885372188
 20
-142.4453965572706
 30
0.0
 10
104.4911241058216
 20
-142.5111978810388
 30
0.0
 10
104.4911241058216
 20
-142.5111978810388
 30
0.0
 10
104.317491293365
 20
-142.3713270043377
 30
0.0
 10
104.317491293365
 20
-142.3713270043377
 30
0.0
 10
104.4063747568845
 20
-142.3206841007045
 30
0.0
 10
104.5503797481679
 20
-142.2338676944762
 30
0.0
 10
104.6878390580294
 20
-142.0392197995596
 30
0.0
 10
104.77878957884
 20
-141.9124402857024
 30
0.0
 10
104.8442463930598
 20
-141.768435294419
 30
0.0
 10
104.8783528383637
 20
-141.6161620739709
 30
0.0
 10
104.6495984981431
 20
-141.6182291312621
 30
0.0
 10
104.4697645138131
 20
-141.624774812684
 30
0.0
 10
104.3746798784202
 20
-141.6268418699752
 30
0.0
 10
104.3746798784202
 20
-141.6268418699752
 30
0.0
 10
104.3746798784202
 20
-141.4490749429363
 30
0.0
 10
104.3746798784202
 20
-141.4490749429363
 30
0.0
 10
104.571394830628
 20
-141.4552761148098
 30
0.0
 10
104.854926189064
 20
-141.4597547389406
 30
0.0
 10
105.0051323522209
 20
-141.4597547389406
 30
0.0
 10
105.0051323522209
 20
-141.4597547389406
 30
0.0
 10
105.2187282723064
 20
-141.4597547389406
 30
0.0
 10
105.2187282723064
 20
-141.4597547389406
 30
0.0
 10
105.2187282723064
 20
-141.4597547389406
 30
0.0
 10
105.2187282723064
 20
-141.3519232502523
 30
0.0
 10
105.2187282723064
 20
-141.3519232502523
 30
0.0
 10
105.2187282723064
 20
-141.3519232502523
 30
0.0
 10
105.0726562237318
 20
-141.3519232502523
 30
0.0
 10
105.0726562237318
 20
-141.3519232502523
 30
0.0
 10
104.9035020354061
 20
-141.3519232502523
 30
0.0
 10
104.7343478470803
 20
-141.3560573648346
 30
0.0
 10
104.5672607160457
 20
-141.362258536708
 30
0.0
 10
104.5672607160457
 20
-141.362258536708
 30
0.0
 10
104.5672607160457
 20
-141.1910372910911
 30
0.0
 10
104.5672607160457
 20
-141.1910372910911
 30
0.0
 10
104.7216009937848
 20
-141.2017170870954
 30
0.0
 10
104.9076361499883
 20
-141.2017170870954
 30
0.0
 10
105.0726562237318
 20
-141.2017170870954
 30
0.0
 10
105.0726562237318
 20
-141.2017170870954
 30
0.0
 10
105.2187282723064
 20
-141.2017170870954
 30
0.0
 10
105.2187282723064
 20
-141.2017170870954
 30
0.0
 10
105.2187282723064
 20
-141.2017170870954
 30
0.0
 10
105.2187282723064
 20
-141.0832058024028
 30
0.0
 10
105.2187282723064
 20
-141.0832058024028
 30
0.0
 10
105.2187282723064
 20
-141.0832058024028
 30
0.0
 10
105.0874701343184
 20
-141.0832058024028
 30
0.0
 10
105.0874701343184
 20
-141.0832058024028
 30
0.0
 10
105.0409613452675
 20
-141.0832058024028
 30
0.0
 10
104.8380452211863
 20
-141.0914740315674
 30
0.0
 10
104.7956705467177
 20
-141.0914740315674
 30
0.0
 10
104.5927544226365
 20
-141.0959526556982
 30
0.0
 10
104.516273302864
 20
-141.0980197129894
 30
0.0
 10
104.4380696353488
 20
-141.1000867702805
 30
0.0
 10
104.4380696353488
 20
-141.1000867702805
 30
0.0
 10
104.4380696353488
 20
-140.9161186713682
 30
0.0
 10
104.4380696353488
 20
-140.9161186713682
 30
0.0
 10
104.5524468054591
 20
-140.9243869005328
 30
0.0
 10
104.5968885372188
 20
-140.9243869005328
 30
0.0
 10
104.9796386456301
 20
-140.9329996392459
 30
0.0
 10
104.9162488887015
 20
-140.8375704943045
 30
0.0
 10
104.8886881248195
 20
-140.810354239971
 30
0.0
 10
104.8528591317729
 20
-140.7741807373759
 30
0.0
 10
104.8528591317729
 20
-140.7741807373759
 30
0.0
 10
105.0282144919721
 20
-140.6918429552784
 30
0.0
 10
105.0282144919721
 20
-140.6918429552784
 30
0.0
 10
105.0685221091495
 20
-140.727671948325
 30
0.0
 10
105.1129638409092
 20
-140.7700466227936
 30
0.0
 10
105.1870333938421
 20
-140.879945168773
 30
0.0
 10
105.1870333938421
 20
-140.879945168773
 30
0.0
 10
105.0726562237318
 20
-140.935066696537
 30
0.0
 10
105.0726562237318
 20
-140.935066696537
 30
0.0
 10
105.0726562237318
 20
-140.935066696537
 30
0.0
 10
105.0833360197361
 20
-140.935066696537
 30
0.0
 10
105.0833360197361
 20
-140.935066696537
 30
0.0
 10
105.0833360197361
 20
-140.935066696537
 30
0.0
 10
105.6059570048485
 20
-140.935066696537
 30
0.0
 10
105.6059570048485
 20
-140.935066696537
 30
0.0
 10
105.6059570048485
 20
-140.935066696537
 30
0.0
 10
105.5108723694556
 20
-140.8906249647773
 30
0.0
 10
105.5108723694556
 20
-140.8906249647773
 30
0.0
 10
105.5380886237891
 20
-140.852384404891
 30
0.0
 10
105.5952772088442
 20
-140.7721136800847
 30
0.0
 10
105.6100911194308
 20
-140.6980441271519
 30
0.0
 10
105.6100911194308
 20
-140.6980441271519
 30
0.0
 10
105.8236870395163
 20
-140.7614338840804
 30
0.0
 10
105.8236870395163
 20
-140.7614338840804
 30
0.0
 10
105.8322997782294
 20
-140.7638454509201
 30
0.0
 10
105.8533148606894
 20
-140.7741807373759
 30
0.0
 10
105.8533148606894
 20
-140.7955403293844
 30
0.0
 10
105.8533148606894
 20
-140.8334363797222
 30
0.0
 10
105.7878580464697
 20
-140.8334363797222
 30
0.0
 10
105.7689100213008
 20
-140.8334363797222
 30
0.0
 10
105.7582302252965
 20
-140.852384404891
 30
0.0
 10
105.7348035759968
 20
-140.8926920220685
 30
0.0
 10
105.7051757548237
 20
-140.9329996392459
 30
0.0
 10
106.1051513406612
 20
-140.9264539578239
 30
0.0
 10
106.1347791618343
 20
-140.9243869005328
 30
0.0
 10
106.2109157720584
 20
-140.9181857286593
 30
0.0
 10
106.2109157720584
 20
-140.9181857286593
 30
0.0
 10
106.2109157720584
 20
-141.1000867702805
 30
0.0
 10
106.2109157720584
 20
-141.1000867702805
 30
0.0
 10
106.1919677468895
 20
-141.1000867702805
 30
0.0
 10
106.1664740402986
 20
-141.0980197129894
 30
0.0
 10
105.9466769483397
 20
-141.0894069742762
 30
0.0
 10
105.895689535158
 20
-141.0873399169851
 30
0.0
 10
105.6758924431991
 20
-141.0832058024028
 30
0.0
 10
105.6314507114394
 20
-141.0832058024028
 30
0.0
 10
105.6314507114394
 20
-141.0832058024028
 30
0.0
 10
105.4154432245142
 20
-141.0832058024028
 30
0.0
 10
105.4154432245142
 20
-141.0832058024028
 30
0.0
 10
105.4154432245142
 20
-141.0832058024028
 30
0.0
 10
105.4154432245142
 20
-141.2017170870954
 30
0.0
 10
105.4154432245142
 20
-141.2017170870954
 30
0.0
 10
105.4154432245142
 20
-141.2017170870954
 30
0.0
 10
105.5890760369708
 20
-141.2017170870954
 30
0.0
 10
105.5890760369708
 20
-141.2017170870954
 30
0.0
 10
105.7520290534231
 20
-141.2017170870954
 30
0.0
 10
105.9421983242089
 20
-141.2017170870954
 30
0.0
 10
106.0989501687877
 20
-141.1910372910911
 30
0.0
 10
106.0989501687877
 20
-141.1910372910911
 30
0.0
 10
106.0989501687877
 20
-141.362258536708
 30
0.0
 10
106.0989501687877
 20
-141.362258536708
 30
0.0
 10
105.8894883632846
 20
-141.3539903075434
 30
0.0
 10
105.6927734110768
 20
-141.3519232502523
 30
0.0
 10
105.5890760369708
 20
-141.3519232502523
 30
0.0
 10
105.5890760369708
 20
-141.3519232502523
 30
0.0
 10
105.4154432245142
 20
-141.3519232502523
 30
0.0
 10
105.4154432245142
 20
-141.3519232502523
 30
0.0
 10
105.4154432245142
 20
-141.3519232502523
 30
0.0
 10
105.4154432245142
 20
-141.4597547389406
 30
0.0
 10
105.4154432245142
 20
-141.4597547389406
 30
0.0
 10
105.4154432245142
 20
-141.4597547389406
 30
0.0
 10
105.6462646220259
 20
-141.4597547389406
 30
0.0
 10
105.6462646220259
 20
-141.4597547389406
 30
0.0
 10
105.7792453077565
 20
-141.4597547389406
 30
0.0
 10
106.0672552903235
 20
-141.4552761148098
 30
0.0
 10
106.2763725862781
 20
-141.4490749429363
 30
0.0
 10
106.2763725862781
 20
-141.4490749429363
 30
0.0
 10
106.2763725862781
 20
-141.6268418699752
 30
0.0
 10
106.2763725862781
 20
-141.6268418699752
 30
0.0
 10
106.0841362582012
 20
-141.6202961885532
 30
0.0
 10
105.7709770785919
 20
-141.6161620739709
 30
0.0
 10
105.6462646220259
 20
-141.6161620739709
 30
0.0
  0
HATCH
  5
108
330
FC
100
AcDbEntity
  8
レイヤー 1
 62
   250
420
  2299925
440
 33554687
100
AcDbHatch
 10
0.0
 20
0.0
 30
0.0
210
0.0
220
0.0
230
1.0
  2
SOLID
 70
     1
 71
     1
 91
        4
 92
        1
 93
        1
 72
     4
 94
        3
 73
     0
 74
     0
 95
       17
 96
       13
 40
0.0
 40
0.0
 40
0.0
 40
0.0
 40
1.0
 40
1.0
 40
1.0
 40
2.0
 40
2.0
 40
2.0
 40
3.0
 40
3.0
 40
3.0
 40
4.0
 40
4.0
 40
4.0
 40
4.0
 10
105.8112846957694
 20
-142.3482448645865
 10
105.8112846957694
 20
-142.3482448645865
 10
105.1046956117446
 20
-142.3482448645865
 10
105.1046956117446
 20
-142.3482448645865
 10
105.1046956117446
 20
-142.3482448645865
 10
105.1046956117446
 20
-142.4622775251483
 10
105.1046956117446
 20
-142.4622775251483
 10
105.1046956117446
 20
-142.4622775251483
 10
105.8112846957694
 20
-142.4622775251483
 10
105.8112846957694
 20
-142.4622775251483
 10
105.8112846957694
 20
-142.4622775251483
 10
105.8112846957694
 20
-142.3482448645865
 10
105.8112846957694
 20
-142.3482448645865
 97
        0
 97
        1
330
104
 92
        1
 93
        1
 72
     4
 94
        3
 73
     0
 74
     0
 95
       17
 96
       13
 40
0.0
 40
0.0
 40
0.0
 40
0.0
 40
1.0
 40
1.0
 40
1.0
 40
2.0
 40
2.0
 40
2.0
 40
3.0
 40
3.0
 40
3.0
 40
4.0
 40
4.0
 40
4.0
 40
4.0
 10
105.8112846957694
 20
-142.1050211233279
 10
105.8112846957694
 20
-142.1050211233279
 10
105.1046956117446
 20
-142.1050211233279
 10
105.1046956117446
 20
-142.1050211233279
 10
105.1046956117446
 20
-142.1050211233279
 10
105.1046956117446
 20
-142.2190537838897
 10
105.1046956117446
 20
-142.2190537838897
 10
105.1046956117446
 20
-142.2190537838897
 10
105.8112846957694
 20
-142.2190537838897
 10
105.8112846957694
 20
-142.2190537838897
 10
105.8112846957694
 20
-142.2190537838897
 10
105.8112846957694
 20
-142.1050211233279
 10
105.8112846957694
 20
-142.1050211233279
 97
        0
 97
        1
330
105
 92
        1
 93
        1
 72
     4
 94
        3
 73
     0
 74
     0
 95
       17
 96
       13
 40
0.0
 40
0.0
 40
0.0
 40
0.0
 40
1.0
 40
1.0
 40
1.0
 40
2.0
 40
2.0
 40
2.0
 40
3.0
 40
3.0
 40
3.0
 40
4.0
 40
4.0
 40
4.0
 40
4.0
 10
105.8112846957694
 20
-141.872132668525
 10
105.8112846957694
 20
-141.872132668525
 10
105.1046956117446
 20
-141.872132668525
 10
105.1046956117446
 20
-141.872132668525
 10
105.1046956117446
 20
-141.872132668525
 10
105.1046956117446
 20
-141.9799641572133
 10
105.1046956117446
 20
-141.9799641572133
 10
105.1046956117446
 20
-141.9799641572133
 10
105.8112846957694
 20
-141.9799641572133
 10
105.8112846957694
 20
-141.9799641572133
 10
105.8112846957694
 20
-141.9799641572133
 10
105.8112846957694
 20
-141.872132668525
 10
105.8112846957694
 20
-141.872132668525
 97
        0
 97
        1
330
106
 92
        1
 93
        1
 72
     4
 94
        3
 73
     0
 74
     0
 95
      203
 96
      199
 40
0.0
 40
0.0
 40
0.0
 40
0.0
 40
1.0
 40
1.0
 40
1.0
 40
2.0
 40
2.0
 40
2.0
 40
3.0
 40
3.0
 40
3.0
 40
4.0
 40
4.0
 40
4.0
 40
5.0
 40
5.0
 40
5.0
 40
6.0
 40
6.0
 40
6.0
 40
7.0
 40
7.0
 40
7.0
 40
8.0
 40
8.0
 40
8.0
 40
9.0
 40
9.0
 40
9.0
 40
10.0
 40
10.0
 40
10.0
 40
11.0
 40
11.0
 40
11.0
 40
12.0
 40
12.0
 40
12.0
 40
13.0
 40
13.0
 40
13.0
 40
14.0
 40
14.0
 40
14.0
 40
15.0
 40
15.0
 40
15.0
 40
16.0
 40
16.0
 40
16.0
 40
17.0
 40
17.0
 40
17.0
 40
18.0
 40
18.0
 40
18.0
 40
19.0
 40
19.0
 40
19.0
 40
20.0
 40
20.0
 40
20.0
 40
21.0
 40
21.0
 40
21.0
 40
22.0
 40
22.0
 40
22.0
 40
23.0
 40
23.0
 40
23.0
 40
24.0
 40
24.0
 40
24.0
 40
25.0
 40
25.0
 40
25.0
 40
26.0
 40
26.0
 40
26.0
 40
27.0
 40
27.0
 40
27.0
 40
28.0
 40
28.0
 40
28.0
 40
29.0
 40
29.0
 40
29.0
 40
30.0
 40
30.0
 40
30.0
 40
31.0
 40
31.0
 40
31.0
 40
32.0
 40
32.0
 40
32.0
 40
33.0
 40
33.0
 40
33.0
 40
34.0
 40
34.0
 40
34.0
 40
35.0
 40
35.0
 40
35.0
 40
36.0
 40
36.0
 40
36.0
 40
37.0
 40
37.0
 40
37.0
 40
38.0
 40
38.0
 40
38.0
 40
39.0
 40
39.0
 40
39.0
 40
40.0
 40
40.0
 40
40.0
 40
41.0
 40
41.0
 40
41.0
 40
42.0
 40
42.0
 40
42.0
 40
43.0
 40
43.0
 40
43.0
 40
44.0
 40
44.0
 40
44.0
 40
45.0
 40
45.0
 40
45.0
 40
46.0
 40
46.0
 40
46.0
 40
47.0
 40
47.0
 40
47.0
 40
48.0
 40
48.0
 40
48.0
 40
49.0
 40
49.0
 40
49.0
 40
50.0
 40
50.0
 40
50.0
 40
51.0
 40
51.0
 40
51.0
 40
52.0
 40
52.0
 40
52.0
 40
53.0
 40
53.0
 40
53.0
 40
54.0
 40
54.0
 40
54.0
 40
55.0
 40
55.0
 40
55.0
 40
56.0
 40
56.0
 40
56.0
 40
57.0
 40
57.0
 40
57.0
 40
58.0
 40
58.0
 40
58.0
 40
59.0
 40
59.0
 40
59.0
 40
60.0
 40
60.0
 40
60.0
 40
61.0
 40
61.0
 40
61.0
 40
62.0
 40
62.0
 40
62.0
 40
63.0
 40
63.0
 40
63.0
 40
64.0
 40
64.0
 40
64.0
 40
65.0
 40
65.0
 40
65.0
 40
66.0
 40
66.0
 40
66.0
 40
66.0
 10
105.6462646220259
 20
-141.6161620739709
 10
105.6462646220259
 20
-141.6161620739709
 10
105.0874701343184
 20
-141.6161620739709
 10
105.0874701343184
 20
-141.6161620739709
 10
105.0771348478626
 20
-141.6606038057307
 10
105.0685221091495
 20
-141.6922986841949
 10
105.0557752558541
 20
-141.7305392440812
 10
105.0812689624449
 20
-141.7305392440812
 10
105.0960828730315
 20
-141.7326063013724
 10
105.102284044905
 20
-141.7326063013724
 10
105.102284044905
 20
-141.7326063013724
 10
105.2907307679481
 20
-141.7326063013724
 10
105.2907307679481
 20
-141.7326063013724
 10
105.2907307679481
 20
-141.7326063013724
 10
105.6652126471948
 20
-141.7326063013724
 10
105.6652126471948
 20
-141.7326063013724
 10
105.715855550828
 20
-141.7326063013724
 10
105.999386909264
 20
-141.719859448077
 10
106.0310817877283
 20
-141.719859448077
 10
106.0290147304372
 20
-141.747420211959
 10
106.026947673146
 20
-141.7663682371278
 10
106.026947673146
 20
-141.795996058301
 10
106.0248806158549
 20
-141.8276909367653
 10
106.0248806158549
 20
-141.9630831893356
 10
106.0248806158549
 20
-141.9906439532176
 10
106.0248806158549
 20
-141.9906439532176
 10
106.0248806158549
 20
-142.2359347517674
 10
106.0248806158549
 20
-142.2359347517674
 10
106.0248806158549
 20
-142.2803764835271
 10
106.0290147304372
 20
-142.4770914357349
 10
106.0331488450195
 20
-142.6297091657314
 10
106.0331488450195
 20
-142.6297091657314
 10
105.8068060716385
 20
-142.6297091657314
 10
105.8068060716385
 20
-142.6297091657314
 10
105.8068060716385
 20
-142.6297091657314
 10
105.8088731289297
 20
-142.5956027204275
 10
105.8088731289297
 20
-142.5956027204275
 10
105.8088731289297
 20
-142.5956027204275
 10
105.1067626690358
 20
-142.5956027204275
 10
105.1067626690358
 20
-142.5956027204275
 10
105.1067626690358
 20
-142.5956027204275
 10
105.1088297263269
 20
-142.6297091657314
 10
105.1088297263269
 20
-142.6297091657314
 10
105.1088297263269
 20
-142.6297091657314
 10
104.8907551821106
 20
-142.6297091657314
 10
104.8907551821106
 20
-142.6297091657314
 10
104.8952338062415
 20
-142.5745876379675
 10
104.8952338062415
 20
-142.561840784672
 10
104.9014349781149
 20
-142.4474636145617
 10
104.9035020354061
 20
-142.4202473602282
 10
104.9055690926972
 20
-142.2869221649491
 10
104.9055690926972
 20
-142.2676296302317
 10
104.9055690926972
 20
-142.2676296302317
 10
104.9055690926972
 20
-142.0647135061505
 10
104.9055690926972
 20
-142.0647135061505
 10
104.7660427255446
 20
-142.3144829288311
 10
104.5968885372188
 20
-142.4453965572706
 10
104.4911241058216
 20
-142.5111978810388
 10
104.4911241058216
 20
-142.5111978810388
 10
104.317491293365
 20
-142.3713270043377
 10
104.317491293365
 20
-142.3713270043377
 10
104.4063747568845
 20
-142.3206841007045
 10
104.5503797481679
 20
-142.2338676944762
 10
104.6878390580294
 20
-142.0392197995596
 10
104.77878957884
 20
-141.9124402857024
 10
104.8442463930598
 20
-141.768435294419
 10
104.8783528383637
 20
-141.6161620739709
 10
104.6495984981431
 20
-141.6182291312621
 10
104.4697645138131
 20
-141.624774812684
 10
104.3746798784202
 20
-141.6268418699752
 10
104.3746798784202
 20
-141.6268418699752
 10
104.3746798784202
 20
-141.4490749429363
 10
104.3746798784202
 20
-141.4490749429363
 10
104.571394830628
 20
-141.4552761148098
 10
104.854926189064
 20
-141.4597547389406
 10
105.0051323522209
 20
-141.4597547389406
 10
105.0051323522209
 20
-141.4597547389406
 10
105.2187282723064
 20
-141.4597547389406
 10
105.2187282723064
 20
-141.4597547389406
 10
105.2187282723064
 20
-141.4597547389406
 10
105.2187282723064
 20
-141.3519232502523
 10
105.2187282723064
 20
-141.3519232502523
 10
105.2187282723064
 20
-141.3519232502523
 10
105.0726562237318
 20
-141.3519232502523
 10
105.0726562237318
 20
-141.3519232502523
 10
104.9035020354061
 20
-141.3519232502523
 10
104.7343478470803
 20
-141.3560573648346
 10
104.5672607160457
 20
-141.362258536708
 10
104.5672607160457
 20
-141.362258536708
 10
104.5672607160457
 20
-141.1910372910911
 10
104.5672607160457
 20
-141.1910372910911
 10
104.7216009937848
 20
-141.2017170870954
 10
104.9076361499883
 20
-141.2017170870954
 10
105.0726562237318
 20
-141.2017170870954
 10
105.0726562237318
 20
-141.2017170870954
 10
105.2187282723064
 20
-141.2017170870954
 10
105.2187282723064
 20
-141.2017170870954
 10
105.2187282723064
 20
-141.2017170870954
 10
105.2187282723064
 20
-141.0832058024028
 10
105.2187282723064
 20
-141.0832058024028
 10
105.2187282723064
 20
-141.0832058024028
 10
105.0874701343184
 20
-141.0832058024028
 10
105.0874701343184
 20
-141.0832058024028
 10
105.0409613452675
 20
-141.0832058024028
 10
104.8380452211863
 20
-141.0914740315674
 10
104.7956705467177
 20
-141.0914740315674
 10
104.5927544226365
 20
-141.0959526556982
 10
104.516273302864
 20
-141.0980197129894
 10
104.4380696353488
 20
-141.1000867702805
 10
104.4380696353488
 20
-141.1000867702805
 10
104.4380696353488
 20
-140.9161186713682
 10
104.4380696353488
 20
-140.9161186713682
 10
104.5524468054591
 20
-140.9243869005328
 10
104.5968885372188
 20
-140.9243869005328
 10
104.9796386456301
 20
-140.9329996392459
 10
104.9162488887015
 20
-140.8375704943045
 10
104.8886881248195
 20
-140.810354239971
 10
104.8528591317729
 20
-140.7741807373759
 10
104.8528591317729
 20
-140.7741807373759
 10
105.0282144919721
 20
-140.6918429552784
 10
105.0282144919721
 20
-140.6918429552784
 10
105.0685221091495
 20
-140.727671948325
 10
105.1129638409092
 20
-140.7700466227936
 10
105.1870333938421
 20
-140.879945168773
 10
105.1870333938421
 20
-140.879945168773
 10
105.0726562237318
 20
-140.935066696537
 10
105.0726562237318
 20
-140.935066696537
 10
105.0726562237318
 20
-140.935066696537
 10
105.0833360197361
 20
-140.935066696537
 10
105.0833360197361
 20
-140.935066696537
 10
105.0833360197361
 20
-140.935066696537
 10
105.6059570048485
 20
-140.935066696537
 10
105.6059570048485
 20
-140.935066696537
 10
105.6059570048485
 20
-140.935066696537
 10
105.5108723694556
 20
-140.8906249647773
 10
105.5108723694556
 20
-140.8906249647773
 10
105.5380886237891
 20
-140.852384404891
 10
105.5952772088442
 20
-140.7721136800847
 10
105.6100911194308
 20
-140.6980441271519
 10
105.6100911194308
 20
-140.6980441271519
 10
105.8236870395163
 20
-140.7614338840804
 10
105.8236870395163
 20
-140.7614338840804
 10
105.8322997782294
 20
-140.7638454509201
 10
105.8533148606894
 20
-140.7741807373759
 10
105.8533148606894
 20
-140.7955403293844
 10
105.8533148606894
 20
-140.8334363797222
 10
105.7878580464697
 20
-140.8334363797222
 10
105.7689100213008
 20
-140.8334363797222
 10
105.7582302252965
 20
-140.852384404891
 10
105.7348035759968
 20
-140.8926920220685
 10
105.7051757548237
 20
-140.9329996392459
 10
106.1051513406612
 20
-140.9264539578239
 10
106.1347791618343
 20
-140.9243869005328
 10
106.2109157720584
 20
-140.9181857286593
 10
106.2109157720584
 20
-140.9181857286593
 10
106.2109157720584
 20
-141.1000867702805
 10
106.2109157720584
 20
-141.1000867702805
 10
106.1919677468895
 20
-141.1000867702805
 10
106.1664740402986
 20
-141.0980197129894
 10
105.9466769483397
 20
-141.0894069742762
 10
105.895689535158
 20
-141.0873399169851
 10
105.6758924431991
 20
-141.0832058024028
 10
105.6314507114394
 20
-141.0832058024028
 10
105.6314507114394
 20
-141.0832058024028
 10
105.4154432245142
 20
-141.0832058024028
 10
105.4154432245142
 20
-141.0832058024028
 10
105.4154432245142
 20
-141.0832058024028
 10
105.4154432245142
 20
-141.2017170870954
 10
105.4154432245142
 20
-141.2017170870954
 10
105.4154432245142
 20
-141.2017170870954
 10
105.5890760369708
 20
-141.2017170870954
 10
105.5890760369708
 20
-141.2017170870954
 10
105.7520290534231
 20
-141.2017170870954
 10
105.9421983242089
 20
-141.2017170870954
 10
106.0989501687877
 20
-141.1910372910911
 10
106.0989501687877
 20
-141.1910372910911
 10
106.0989501687877
 20
-141.362258536708
 10
106.0989501687877
 20
-141.362258536708
 10
105.8894883632846
 20
-141.3539903075434
 10
105.6927734110768
 20
-141.3519232502523
 10
105.5890760369708
 20
-141.3519232502523
 10
105.5890760369708
 20
-141.3519232502523
 10
105.4154432245142
 20
-141.3519232502523
 10
105.4154432245142
 20
-141.3519232502523
 10
105.4154432245142
 20
-141.3519232502523
 10
105.4154432245142
 20
-141.4597547389406
 10
105.4154432245142
 20
-141.4597547389406
 10
105.4154432245142
 20
-141.4597547389406
 10
105.6462646220259
 20
-141.4597547389406
 10
105.6462646220259
 20
-141.4597547389406
 10
105.7792453077565
 20
-141.4597547389406
 10
106.0672552903235
 20
-141.4552761148098
 10
106.2763725862781
 20
-141.4490749429363
 10
106.2763725862781
 20
-141.4490749429363
 10
106.2763725862781
 20
-141.6268418699752
 10
106.2763725862781
 20
-141.6268418699752
 10
106.0841362582012
 20
-141.6202961885532
 10
105.7709770785919
 20
-141.6161620739709
 10
105.6462646220259
 20
-141.6161620739709
 97
        0
 97
        1
330
107
 75
     2
 76
     1
 98
        1
 10
0.0
 20
0.0
450
        0
451
        0
460
0.0
461
0.0
452
        0
462
0.0
453
        0
470

  0
SPLINE
  5
109
330
FC
100
AcDbEntity
  8
レイヤー 1
100
AcDbSpline
210
0.0
220
0.0
230
1.0
 70
     9
 71
     3
 72
    29
 73
    25
 74
     0
 42
0.0000000001
 43
0.0000000001
 40
0.0
 40
0.0
 40
0.0
 40
0.0
 40
1.0
 40
1.0
 40
1.0
 40
2.0
 40
2.0
 40
2.0
 40
3.0
 40
3.0
 40
3.0
 40
4.0
 40
4.0
 40
4.0
 40
5.0
 40
5.0
 40
5.0
 40
6.0
 40
6.0
 40
6.0
 40
7.0
 40
7.0
 40
7.0
 40
8.0
 40
8.0
 40
8.0
 40
8.0
 10
107.5214300946474
 20
-141.0639132676854
 30
0.0
 10
107.5214300946474
 20
-141.0639132676854
 30
0.0
 10
107.1679632978608
 20
-141.0639132676854
 30
0.0
 10
107.1679632978608
 20
-141.0639132676854
 30
0.0
 10
107.0559976945901
 20
-141.0639132676854
 30
0.0
 10
106.9164713274375
 20
-141.0704589491074
 30
0.0
 10
106.8086398387492
 20
-141.0832058024028
 30
0.0
 10
106.8086398387492
 20
-141.0832058024028
 30
0.0
 10
106.8086398387492
 20
-140.8482502903088
 30
0.0
 10
106.8086398387492
 20
-140.8482502903088
 30
0.0
 10
106.9268066138933
 20
-140.8630642008953
 30
0.0
 10
107.1111192223542
 20
-140.8671983154776
 30
0.0
 10
107.1679632978608
 20
-140.8671983154776
 30
0.0
 10
107.1679632978608
 20
-140.8671983154776
 30
0.0
 10
107.5214300946474
 20
-140.8671983154776
 30
0.0
 10
107.5214300946474
 20
-140.8671983154776
 30
0.0
 10
107.5403781198163
 20
-140.8671983154776
 30
0.0
 10
107.743638753446
 20
-140.8671983154776
 30
0.0
 10
107.8852321778898
 20
-140.8482502903088
 30
0.0
 10
107.8852321778898
 20
-140.8482502903088
 30
0.0
 10
107.8852321778898
 20
-141.0832058024028
 30
0.0
 10
107.8852321778898
 20
-141.0832058024028
 30
0.0
 10
107.7288248428594
 20
-141.0639132676854
 30
0.0
 10
107.5383110625251
 20
-141.0639132676854
 30
0.0
 10
107.5214300946474
 20
-141.0639132676854
 30
0.0
  0
SPLINE
  5
10A
330
FC
100
AcDbEntity
  8
レイヤー 1
100
AcDbSpline
210
0.0
220
0.0
230
1.0
 70
     9
 71
     3
 72
    47
 73
    43
 74
     0
 42
0.0000000001
 43
0.0000000001
 40
0.0
 40
0.0
 40
0.0
 40
0.0
 40
1.0
 40
1.0
 40
1.0
 40
2.0
 40
2.0
 40
2.0
 40
3.0
 40
3.0
 40
3.0
 40
4.0
 40
4.0
 40
4.0
 40
5.0
 40
5.0
 40
5.0
 40
6.0
 40
6.0
 40
6.0
 40
7.0
 40
7.0
 40
7.0
 40
8.0
 40
8.0
 40
8.0
 40
9.0
 40
9.0
 40
9.0
 40
10.0
 40
10.0
 40
10.0
 40
11.0
 40
11.0
 40
11.0
 40
12.0
 40
12.0
 40
12.0
 40
13.0
 40
13.0
 40
13.0
 40
14.0
 40
14.0
 40
14.0
 40
14.0
 10
107.6230604114623
 20
-141.5930799342198
 30
0.0
 10
107.6230604114623
 20
-141.5930799342198
 30
0.0
 10
107.5214300946474
 20
-141.5930799342198
 30
0.0
 10
107.5214300946474
 20
-141.5930799342198
 30
0.0
 10
107.5214300946474
 20
-141.6795518308995
 30
0.0
 10
107.5004150121874
 20
-142.0688476207327
 30
0.0
 10
107.3037000599796
 20
-142.2889892222402
 30
0.0
 10
107.151082329983
 20
-142.458143410566
 30
0.0
 10
106.9440320913195
 20
-142.5280788489166
 30
0.0
 10
106.8592827423824
 20
-142.5556396127985
 30
0.0
 10
106.8592827423824
 20
-142.5556396127985
 30
0.0
 10
106.6646348474658
 20
-142.388552481764
 30
0.0
 10
106.6646348474658
 20
-142.388552481764
 30
0.0
 10
106.7621310496983
 20
-142.3758056284685
 30
0.0
 10
106.9374864098975
 20
-142.3523789791688
 30
0.0
 10
107.1259331329407
 20
-142.1642767656742
 30
0.0
 10
107.2000026858736
 20
-142.0922742700325
 30
0.0
 10
107.3037000599796
 20
-141.9527479028799
 30
0.0
 10
107.3037000599796
 20
-141.5930799342198
 30
0.0
 10
107.3037000599796
 20
-141.5930799342198
 30
0.0
 10
107.0728786624679
 20
-141.5930799342198
 30
0.0
 10
107.0728786624679
 20
-141.5930799342198
 30
0.0
 10
106.8868435062644
 20
-141.5930799342198
 30
0.0
 10
106.7004638405124
 20
-141.5972140488021
 30
0.0
 10
106.5144286843089
 20
-141.6120279593886
 30
0.0
 10
106.5144286843089
 20
-141.6120279593886
 30
0.0
 10
106.5144286843089
 20
-141.3918863578812
 30
0.0
 10
106.5144286843089
 20
-141.3918863578812
 30
0.0
 10
106.702875407352
 20
-141.4067002684677
 30
0.0
 10
106.9884738230792
 20
-141.4111788925986
 30
0.0
 10
107.0728786624679
 20
-141.4111788925986
 30
0.0
 10
107.0728786624679
 20
-141.4111788925986
 30
0.0
 10
107.6230604114623
 20
-141.4111788925986
 30
0.0
 10
107.6230604114623
 20
-141.4111788925986
 30
0.0
 10
107.6420084366311
 20
-141.4111788925986
 30
0.0
 10
107.9593017308226
 20
-141.4111788925986
 30
0.0
 10
108.1877115614947
 20
-141.3918863578812
 30
0.0
 10
108.1877115614947
 20
-141.3918863578812
 30
0.0
 10
108.1877115614947
 20
-141.6120279593886
 30
0.0
 10
108.1877115614947
 20
-141.6120279593886
 30
0.0
 10
107.9996093480001
 20
-141.5972140488021
 30
0.0
 10
107.8111626249569
 20
-141.5930799342198
 30
0.0
 10
107.6230604114623
 20
-141.5930799342198
 30
0.0
  0
HATCH
  5
10B
330
FC
100
AcDbEntity
  8
レイヤー 1
 62
   250
420
  2299925
440
 33554687
100
AcDbHatch
 10
0.0
 20
0.0
 30
0.0
210
0.0
220
0.0
230
1.0
  2
SOLID
 70
     1
 71
     1
 91
        2
 92
        1
 93
        1
 72
     4
 94
        3
 73
     0
 74
     0
 95
       29
 96
       25
 40
0.0
 40
0.0
 40
0.0
 40
0.0
 40
1.0
 40
1.0
 40
1.0
 40
2.0
 40
2.0
 40
2.0
 40
3.0
 40
3.0
 40
3.0
 40
4.0
 40
4.0
 40
4.0
 40
5.0
 40
5.0
 40
5.0
 40
6.0
 40
6.0
 40
6.0
 40
7.0
 40
7.0
 40
7.0
 40
8.0
 40
8.0
 40
8.0
 40
8.0
 10
107.5214300946474
 20
-141.0639132676854
 10
107.5214300946474
 20
-141.0639132676854
 10
107.1679632978608
 20
-141.0639132676854
 10
107.1679632978608
 20
-141.0639132676854
 10
107.0559976945901
 20
-141.0639132676854
 10
106.9164713274375
 20
-141.0704589491074
 10
106.8086398387492
 20
-141.0832058024028
 10
106.8086398387492
 20
-141.0832058024028
 10
106.8086398387492
 20
-140.8482502903088
 10
106.8086398387492
 20
-140.8482502903088
 10
106.9268066138933
 20
-140.8630642008953
 10
107.1111192223542
 20
-140.8671983154776
 10
107.1679632978608
 20
-140.8671983154776
 10
107.1679632978608
 20
-140.8671983154776
 10
107.5214300946474
 20
-140.8671983154776
 10
107.5214300946474
 20
-140.8671983154776
 10
107.5403781198163
 20
-140.8671983154776
 10
107.743638753446
 20
-140.8671983154776
 10
107.8852321778898
 20
-140.8482502903088
 10
107.8852321778898
 20
-140.8482502903088
 10
107.8852321778898
 20
-141.0832058024028
 10
107.8852321778898
 20
-141.0832058024028
 10
107.7288248428594
 20
-141.0639132676854
 10
107.5383110625251
 20
-141.0639132676854
 10
107.5214300946474
 20
-141.0639132676854
 97
        0
 97
        1
330
109
 92
        1
 93
        1
 72
     4
 94
        3
 73
     0
 74
     0
 95
       47
 96
       43
 40
0.0
 40
0.0
 40
0.0
 40
0.0
 40
1.0
 40
1.0
 40
1.0
 40
2.0
 40
2.0
 40
2.0
 40
3.0
 40
3.0
 40
3.0
 40
4.0
 40
4.0
 40
4.0
 40
5.0
 40
5.0
 40
5.0
 40
6.0
 40
6.0
 40
6.0
 40
7.0
 40
7.0
 40
7.0
 40
8.0
 40
8.0
 40
8.0
 40
9.0
 40
9.0
 40
9.0
 40
10.0
 40
10.0
 40
10.0
 40
11.0
 40
11.0
 40
11.0
 40
12.0
 40
12.0
 40
12.0
 40
13.0
 40
13.0
 40
13.0
 40
14.0
 40
14.0
 40
14.0
 40
14.0
 10
107.6230604114623
 20
-141.5930799342198
 10
107.6230604114623
 20
-141.5930799342198
 10
107.5214300946474
 20
-141.5930799342198
 10
107.5214300946474
 20
-141.5930799342198
 10
107.5214300946474
 20
-141.6795518308995
 10
107.5004150121874
 20
-142.0688476207327
 10
107.3037000599796
 20
-142.2889892222402
 10
107.151082329983
 20
-142.458143410566
 10
106.9440320913195
 20
-142.5280788489166
 10
106.8592827423824
 20
-142.5556396127985
 10
106.8592827423824
 20
-142.5556396127985
 10
106.6646348474658
 20
-142.388552481764
 10
106.6646348474658
 20
-142.388552481764
 10
106.7621310496983
 20
-142.3758056284685
 10
106.9374864098975
 20
-142.3523789791688
 10
107.1259331329407
 20
-142.1642767656742
 10
107.2000026858736
 20
-142.0922742700325
 10
107.3037000599796
 20
-141.9527479028799
 10
107.3037000599796
 20
-141.5930799342198
 10
107.3037000599796
 20
-141.5930799342198
 10
107.0728786624679
 20
-141.5930799342198
 10
107.0728786624679
 20
-141.5930799342198
 10
106.8868435062644
 20
-141.5930799342198
 10
106.7004638405124
 20
-141.5972140488021
 10
106.5144286843089
 20
-141.6120279593886
 10
106.5144286843089
 20
-141.6120279593886
 10
106.5144286843089
 20
-141.3918863578812
 10
106.5144286843089
 20
-141.3918863578812
 10
106.702875407352
 20
-141.4067002684677
 10
106.9884738230792
 20
-141.4111788925986
 10
107.0728786624679
 20
-141.4111788925986
 10
107.0728786624679
 20
-141.4111788925986
 10
107.6230604114623
 20
-141.4111788925986
 10
107.6230604114623
 20
-141.4111788925986
 10
107.6420084366311
 20
-141.4111788925986
 10
107.9593017308226
 20
-141.4111788925986
 10
108.1877115614947
 20
-141.3918863578812
 10
108.1877115614947
 20
-141.3918863578812
 10
108.1877115614947
 20
-141.6120279593886
 10
108.1877115614947
 20
-141.6120279593886
 10
107.9996093480001
 20
-141.5972140488021
 10
107.8111626249569
 20
-141.5930799342198
 10
107.6230604114623
 20
-141.5930799342198
 97
        0
 97
        1
330
10A
 75
     2
 76
     1
 98
        1
 10
0.0
 20
0.0
450
        0
451
        0
460
0.0
461
0.0
452
        0
462
0.0
453
        0
470

  0
SPLINE
  5
10C
330
FC
100
AcDbEntity
  8
レイヤー 1
100
AcDbSpline
210
0.0
220
0.0
230
1.0
 70
     9
 71
     3
 72
    29
 73
    25
 74
     0
 42
0.0000000001
 43
0.0000000001
 40
0.0
 40
0.0
 40
0.0
 40
0.0
 40
1.0
 40
1.0
 40
1.0
 40
2.0
 40
2.0
 40
2.0
 40
3.0
 40
3.0
 40
3.0
 40
4.0
 40
4.0
 40
4.0
 40
5.0
 40
5.0
 40
5.0
 40
6.0
 40
6.0
 40
6.0
 40
7.0
 40
7.0
 40
7.0
 40
8.0
 40
8.0
 40
8.0
 40
8.0
 10
109.4689425724591
 20
-141.7556884411236
 30
0.0
 10
109.4689425724591
 20
-141.7556884411236
 30
0.0
 10
108.984562147233
 20
-141.7556884411236
 30
0.0
 10
108.984562147233
 20
-141.7556884411236
 30
0.0
 10
108.957001383351
 20
-141.7556884411236
 30
0.0
 10
108.6397080891595
 20
-141.7556884411236
 30
0.0
 10
108.4281792263652
 20
-141.7811821477144
 30
0.0
 10
108.4281792263652
 20
-141.7811821477144
 30
0.0
 10
108.4281792263652
 20
-141.5507052597512
 30
0.0
 10
108.4281792263652
 20
-141.5507052597512
 30
0.0
 10
108.5866536186866
 20
-141.5737873995023
 30
0.0
 10
108.777167399021
 20
-141.5761989663421
 30
0.0
 10
108.984562147233
 20
-141.5761989663421
 30
0.0
 10
108.984562147233
 20
-141.5761989663421
 30
0.0
 10
109.4689425724591
 20
-141.5761989663421
 30
0.0
 10
109.4689425724591
 20
-141.5761989663421
 30
0.0
 10
109.6549777286626
 20
-141.5761989663421
 30
0.0
 10
109.8413573944146
 20
-141.5737873995023
 30
0.0
 10
110.025325493327
 20
-141.5507052597512
 30
0.0
 10
110.025325493327
 20
-141.5507052597512
 30
0.0
 10
110.025325493327
 20
-141.7811821477144
 30
0.0
 10
110.025325493327
 20
-141.7811821477144
 30
0.0
 10
109.8413573944146
 20
-141.7581000079632
 30
0.0
 10
109.5936550290252
 20
-141.7556884411236
 30
0.0
 10
109.4689425724591
 20
-141.7556884411236
 30
0.0
  0
HATCH
  5
10D
330
FC
100
AcDbEntity
  8
レイヤー 1
 62
   250
420
  2299925
440
 33554687
100
AcDbHatch
 10
0.0
 20
0.0
 30
0.0
210
0.0
220
0.0
230
1.0
  2
SOLID
 70
     1
 71
     1
 91
        1
 92
        1
 93
        1
 72
     4
 94
        3
 73
     0
 74
     0
 95
       29
 96
       25
 40
0.0
 40
0.0
 40
0.0
 40
0.0
 40
1.0
 40
1.0
 40
1.0
 40
2.0
 40
2.0
 40
2.0
 40
3.0
 40
3.0
 40
3.0
 40
4.0
 40
4.0
 40
4.0
 40
5.0
 40
5.0
 40
5.0
 40
6.0
 40
6.0
 40
6.0
 40
7.0
 40
7.0
 40
7.0
 40
8.0
 40
8.0
 40
8.0
 40
8.0
 10
109.4689425724591
 20
-141.7556884411236
 10
109.4689425724591
 20
-141.7556884411236
 10
108.984562147233
 20
-141.7556884411236
 10
108.984562147233
 20
-141.7556884411236
 10
108.957001383351
 20
-141.7556884411236
 10
108.6397080891595
 20
-141.7556884411236
 10
108.4281792263652
 20
-141.7811821477144
 10
108.4281792263652
 20
-141.7811821477144
 10
108.4281792263652
 20
-141.5507052597512
 10
108.4281792263652
 20
-141.5507052597512
 10
108.5866536186866
 20
-141.5737873995023
 10
108.777167399021
 20
-141.5761989663421
 10
108.984562147233
 20
-141.5761989663421
 10
108.984562147233
 20
-141.5761989663421
 10
109.4689425724591
 20
-141.5761989663421
 10
109.4689425724591
 20
-141.5761989663421
 10
109.6549777286626
 20
-141.5761989663421
 10
109.8413573944146
 20
-141.5737873995023
 10
110.025325493327
 20
-141.5507052597512
 10
110.025325493327
 20
-141.5507052597512
 10
110.025325493327
 20
-141.7811821477144
 10
110.025325493327
 20
-141.7811821477144
 10
109.8413573944146
 20
-141.7581000079632
 10
109.5936550290252
 20
-141.7556884411236
 10
109.4689425724591
 20
-141.7556884411236
 97
        0
 97
        1
330
10C
 75
     2
 76
     1
 98
        1
 10
0.0
 20
0.0
450
        0
451
        0
460
0.0
461
0.0
452
        0
462
0.0
453
        0
470

  0
SPLINE
  5
10E
330
FC
100
AcDbEntity
  8
レイヤー 1
100
AcDbSpline
210
0.0
220
0.0
230
1.0
 70
     9
 71
     3
 72
    17
 73
    13
 74
     0
 42
0.0000000001
 43
0.0000000001
 40
0.0
 40
0.0
 40
0.0
 40
0.0
 40
1.0
 40
1.0
 40
1.0
 40
2.0
 40
2.0
 40
2.0
 40
3.0
 40
3.0
 40
3.0
 40
4.0
 40
4.0
 40
4.0
 40
4.0
 10
111.887744112653
 20
-140.7889946479625
 30
0.0
 10
111.8329670944376
 20
-140.7889946479625
 30
0.0
 10
111.7885253626778
 20
-140.8334363797222
 30
0.0
 10
111.7885253626778
 20
-140.8885579074862
 30
0.0
 10
111.7885253626778
 20
-140.9457464925413
 30
0.0
 10
111.8329670944376
 20
-140.9943223388833
 30
0.0
 10
111.8918782272353
 20
-140.9943223388833
 30
0.0
 10
111.9511338695816
 20
-140.9943223388833
 30
0.0
 10
111.9914414867591
 20
-140.9433349257016
 30
0.0
 10
111.9914414867591
 20
-140.8906249647773
 30
0.0
 10
111.9914414867591
 20
-140.8334363797222
 30
0.0
 10
111.9449326977082
 20
-140.7889946479625
 30
0.0
 10
111.887744112653
 20
-140.7889946479625
 30
0.0
  0
SPLINE
  5
10F
330
FC
100
AcDbEntity
  8
レイヤー 1
100
AcDbSpline
210
0.0
220
0.0
230
1.0
 70
     9
 71
     3
 72
    17
 73
    13
 74
     0
 42
0.0000000001
 43
0.0000000001
 40
0.0
 40
0.0
 40
0.0
 40
0.0
 40
1.0
 40
1.0
 40
1.0
 40
2.0
 40
2.0
 40
2.0
 40
3.0
 40
3.0
 40
3.0
 40
4.0
 40
4.0
 40
4.0
 40
4.0
 10
111.8898111699442
 20
-141.1190347954494
 30
0.0
 10
111.763031656087
 20
-141.1190347954494
 30
0.0
 10
111.6614013392721
 20
-141.0174044786345
 30
0.0
 10
111.6614013392721
 20
-140.8906249647773
 30
0.0
 10
111.6614013392721
 20
-140.7638454509201
 30
0.0
 10
111.763031656087
 20
-140.6601480768141
 30
0.0
 10
111.8898111699442
 20
-140.6601480768141
 30
0.0
 10
112.0169351933499
 20
-140.6601480768141
 30
0.0
 10
112.1206325674559
 20
-140.7638454509201
 30
0.0
 10
112.1206325674559
 20
-140.8906249647773
 30
0.0
 10
112.1206325674559
 20
-141.0174044786345
 30
0.0
 10
112.0169351933499
 20
-141.1190347954494
 30
0.0
 10
111.8898111699442
 20
-141.1190347954494
 30
0.0
  0
SPLINE
  5
110
330
FC
100
AcDbEntity
  8
レイヤー 1
100
AcDbSpline
210
0.0
220
0.0
230
1.0
 70
     9
 71
     3
 72
    44
 73
    40
 74
     0
 42
0.0000000001
 43
0.0000000001
 40
0.0
 40
0.0
 40
0.0
 40
0.0
 40
1.0
 40
1.0
 40
1.0
 40
2.0
 40
2.0
 40
2.0
 40
3.0
 40
3.0
 40
3.0
 40
4.0
 40
4.0
 40
4.0
 40
5.0
 40
5.0
 40
5.0
 40
6.0
 40
6.0
 40
6.0
 40
7.0
 40
7.0
 40
7.0
 40
8.0
 40
8.0
 40
8.0
 40
9.0
 40
9.0
 40
9.0
 40
10.0
 40
10.0
 40
10.0
 40
11.0
 40
11.0
 40
11.0
 40
12.0
 40
12.0
 40
12.0
 40
13.0
 40
13.0
 40
13.0
 40
13.0
 10
111.680349364441
 20
-141.3178168049483
 30
0.0
 10
111.5683837611704
 20
-141.6860975123215
 30
0.0
 10
111.5177408575372
 20
-141.844571904643
 30
0.0
 10
111.3210259053295
 20
-142.0943413273236
 30
0.0
 10
111.1367132968686
 20
-142.3248182152868
 30
0.0
 10
110.9000352370319
 20
-142.5111978810388
 30
0.0
 10
110.6206379931782
 20
-142.6042154591406
 30
0.0
 10
110.6206379931782
 20
-142.6042154591406
 30
0.0
 10
110.4280571555527
 20
-142.4243814748106
 30
0.0
 10
110.4280571555527
 20
-142.4243814748106
 30
0.0
 10
111.0691894253577
 20
-142.2721082543625
 30
0.0
 10
111.3992295728446
 20
-141.7157253334947
 30
0.0
 10
111.4626193297732
 20
-141.2757866400283
 30
0.0
 10
111.4626193297732
 20
-141.2757866400283
 30
0.0
 10
110.6967746034022
 20
-141.2757866400283
 30
0.0
 10
110.6967746034022
 20
-141.2757866400283
 30
0.0
 10
110.6037570253004
 20
-141.2757866400283
 30
0.0
 10
110.4197889263881
 20
-141.2799207546106
 30
0.0
 10
110.2630370818092
 20
-141.2988687797794
 30
0.0
 10
110.2630370818092
 20
-141.2988687797794
 30
0.0
 10
110.2630370818092
 20
-141.078727178272
 30
0.0
 10
110.2630370818092
 20
-141.078727178272
 30
0.0
 10
110.3498534880375
 20
-141.1000867702805
 30
0.0
 10
110.6016899680093
 20
-141.1000867702805
 30
0.0
 10
110.7009087179845
 20
-141.1000867702805
 30
0.0
 10
110.7009087179845
 20
-141.1000867702805
 30
0.0
 10
111.1325791822863
 20
-141.1000867702805
 30
0.0
 10
111.1325791822863
 20
-141.1000867702805
 30
0.0
 10
111.1749538567549
 20
-141.1000867702805
 30
0.0
 10
111.4095648593004
 20
-141.0980197129894
 30
0.0
 10
111.4478054191866
 20
-141.0914740315674
 30
0.0
 10
111.4901800936552
 20
-141.0852728596939
 30
0.0
 10
111.4922471509464
 20
-141.0832058024028
 30
0.0
 10
111.5535698505838
 20
-141.0428981852254
 30
0.0
 10
111.5535698505838
 20
-141.0428981852254
 30
0.0
 10
111.7416720640785
 20
-141.1972384629645
 30
0.0
 10
111.7416720640785
 20
-141.1972384629645
 30
0.0
 10
111.7123887524538
 20
-141.2268662841377
 30
0.0
 10
111.6975748418673
 20
-141.258561162602
 30
0.0
 10
111.680349364441
 20
-141.3178168049483
 30
0.0
  0
HATCH
  5
111
330
FC
100
AcDbEntity
  8
レイヤー 1
 62
   250
420
  2299925
440
 33554687
100
AcDbHatch
 10
0.0
 20
0.0
 30
0.0
210
0.0
220
0.0
230
1.0
  2
SOLID
 70
     1
 71
     1
 91
        3
 92
        1
 93
        1
 72
     4
 94
        3
 73
     0
 74
     0
 95
       17
 96
       13
 40
0.0
 40
0.0
 40
0.0
 40
0.0
 40
1.0
 40
1.0
 40
1.0
 40
2.0
 40
2.0
 40
2.0
 40
3.0
 40
3.0
 40
3.0
 40
4.0
 40
4.0
 40
4.0
 40
4.0
 10
111.887744112653
 20
-140.7889946479625
 10
111.8329670944376
 20
-140.7889946479625
 10
111.7885253626778
 20
-140.8334363797222
 10
111.7885253626778
 20
-140.8885579074862
 10
111.7885253626778
 20
-140.9457464925413
 10
111.8329670944376
 20
-140.9943223388833
 10
111.8918782272353
 20
-140.9943223388833
 10
111.9511338695816
 20
-140.9943223388833
 10
111.9914414867591
 20
-140.9433349257016
 10
111.9914414867591
 20
-140.8906249647773
 10
111.9914414867591
 20
-140.8334363797222
 10
111.9449326977082
 20
-140.7889946479625
 10
111.887744112653
 20
-140.7889946479625
 97
        0
 97
        1
330
10E
 92
        1
 93
        1
 72
     4
 94
        3
 73
     0
 74
     0
 95
       17
 96
       13
 40
0.0
 40
0.0
 40
0.0
 40
0.0
 40
1.0
 40
1.0
 40
1.0
 40
2.0
 40
2.0
 40
2.0
 40
3.0
 40
3.0
 40
3.0
 40
4.0
 40
4.0
 40
4.0
 40
4.0
 10
111.8898111699442
 20
-141.1190347954494
 10
111.763031656087
 20
-141.1190347954494
 10
111.6614013392721
 20
-141.0174044786345
 10
111.6614013392721
 20
-140.8906249647773
 10
111.6614013392721
 20
-140.7638454509201
 10
111.763031656087
 20
-140.6601480768141
 10
111.8898111699442
 20
-140.6601480768141
 10
112.0169351933499
 20
-140.6601480768141
 10
112.1206325674559
 20
-140.7638454509201
 10
112.1206325674559
 20
-140.8906249647773
 10
112.1206325674559
 20
-141.0174044786345
 10
112.0169351933499
 20
-141.1190347954494
 10
111.8898111699442
 20
-141.1190347954494
 97
        0
 97
        1
330
10F
 92
        1
 93
        1
 72
     4
 94
        3
 73
     0
 74
     0
 95
       44
 96
       40
 40
0.0
 40
0.0
 40
0.0
 40
0.0
 40
1.0
 40
1.0
 40
1.0
 40
2.0
 40
2.0
 40
2.0
 40
3.0
 40
3.0
 40
3.0
 40
4.0
 40
4.0
 40
4.0
 40
5.0
 40
5.0
 40
5.0
 40
6.0
 40
6.0
 40
6.0
 40
7.0
 40
7.0
 40
7.0
 40
8.0
 40
8.0
 40
8.0
 40
9.0
 40
9.0
 40
9.0
 40
10.0
 40
10.0
 40
10.0
 40
11.0
 40
11.0
 40
11.0
 40
12.0
 40
12.0
 40
12.0
 40
13.0
 40
13.0
 40
13.0
 40
13.0
 10
111.680349364441
 20
-141.3178168049483
 10
111.5683837611704
 20
-141.6860975123215
 10
111.5177408575372
 20
-141.844571904643
 10
111.3210259053295
 20
-142.0943413273236
 10
111.1367132968686
 20
-142.3248182152868
 10
110.9000352370319
 20
-142.5111978810388
 10
110.6206379931782
 20
-142.6042154591406
 10
110.6206379931782
 20
-142.6042154591406
 10
110.4280571555527
 20
-142.4243814748106
 10
110.4280571555527
 20
-142.4243814748106
 10
111.0691894253577
 20
-142.2721082543625
 10
111.3992295728446
 20
-141.7157253334947
 10
111.4626193297732
 20
-141.2757866400283
 10
111.4626193297732
 20
-141.2757866400283
 10
110.6967746034022
 20
-141.2757866400283
 10
110.6967746034022
 20
-141.2757866400283
 10
110.6037570253004
 20
-141.2757866400283
 10
110.4197889263881
 20
-141.2799207546106
 10
110.2630370818092
 20
-141.2988687797794
 10
110.2630370818092
 20
-141.2988687797794
 10
110.2630370818092
 20
-141.078727178272
 10
110.2630370818092
 20
-141.078727178272
 10
110.3498534880375
 20
-141.1000867702805
 10
110.6016899680093
 20
-141.1000867702805
 10
110.7009087179845
 20
-141.1000867702805
 10
110.7009087179845
 20
-141.1000867702805
 10
111.1325791822863
 20
-141.1000867702805
 10
111.1325791822863
 20
-141.1000867702805
 10
111.1749538567549
 20
-141.1000867702805
 10
111.4095648593004
 20
-141.0980197129894
 10
111.4478054191866
 20
-141.0914740315674
 10
111.4901800936552
 20
-141.0852728596939
 10
111.4922471509464
 20
-141.0832058024028
 10
111.5535698505838
 20
-141.0428981852254
 10
111.5535698505838
 20
-141.0428981852254
 10
111.7416720640785
 20
-141.1972384629645
 10
111.7416720640785
 20
-141.1972384629645
 10
111.7123887524538
 20
-141.2268662841377
 10
111.6975748418673
 20
-141.258561162602
 10
111.680349364441
 20
-141.3178168049483
 97
        0
 97
        1
330
110
 75
     2
 76
     1
 98
        1
 10
0.0
 20
0.0
450
        0
451
        0
460
0.0
461
0.0
452
        0
462
0.0
453
        0
470

  0
ENDBLK
  5
FF
330
FC
100
AcDbEntity
  8
0
100
AcDbBlockEnd
  0
ENDSEC
  0
SECTION
  2
ENTITIES
  0
LWPOLYLINE
  5
79
330
70
100
AcDbEntity
  8
レイヤー 1
100
AcDbPolyline
 90
        4
 70
     1
 43
0.0
 10
87.6417156228574
 20
-135.4962015526335
 10
125.1551861023582
 20
-159.1323126578359
 10
125.1551861023582
 20
-146.4412812153317
 10
87.6417156228574
 20
-122.8051701101296
  0
HATCH
  5
7A
330
70
100
AcDbEntity
  8
レイヤー 1
 62
   254
420
 12306406
440
 33554687
100
AcDbHatch
 10
0.0
 20
0.0
 30
0.0
210
0.0
220
0.0
230
1.0
  2
SOLID
 70
     1
 71
     1
 91
        1
 92
        1
 93
        4
 72
     1
 10
87.6417156228574
 20
-135.4962015526335
 11
125.1551861023582
 21
-159.1323126578359
 72
     1
 10
125.1551861023582
 20
-159.1323126578359
 11
125.1551861023582
 21
-146.4412812153317
 72
     1
 10
125.1551861023582
 20
-146.4412812153317
 11
87.6417156228574
 21
-122.8051701101296
 72
     1
 10
87.6417156228574
 20
-122.8051701101296
 11
87.6417156228574
 21
-135.4962015526335
 97
        1
330
79
 75
     2
 76
     1
 98
        1
 10
0.0
 20
0.0
450
        0
451
        0
460
0.0
461
0.0
452
        0
462
0.0
453
        0
470

  0
INSERT
  5
7C
330
70
100
AcDbEntity
  8
レイヤー 1
100
AcDbBlockReference
  2
Block_0
 10
0.0
 20
0.0
 30
0.0
  0
INSERT
  5
F9
330
70
100
AcDbEntity
  8
レイヤー 1
100
AcDbBlockReference
  2
Block_13
 10
0.0
 20
0.0
 30
0.0
  0
ENDSEC
  0
SECTION
  2
OBJECTS
  0
DICTIONARY
  5
C
330
0
100
AcDbDictionary
281
     1
  3
ACAD_COLOR
350
63
  3
ACAD_DETAILVIEWSTYLE
350
6A
  3
ACAD_GROUP
350
D
  3
ACAD_LAYOUT
350
62
  3
ACAD_MATERIAL
350
10
  3
ACAD_MLEADERSTYLE
350
66
  3
ACAD_MLINESTYLE
350
5F
  3
ACAD_PLOTSETTINGS
350
61
  3
ACAD_PLOTSTYLENAME
350
E
  3
ACAD_SCALELIST
350
42
  3
ACAD_SECTIONVIEWSTYLE
350
68
  3
ACAD_TABLESTYLE
350
64
  3
ACAD_VISUALSTYLE
350
29
  3
ACDB_RECOMPOSE_DATA
350
11A
  3
AcDbVariableDictionary
350
112
  0
DICTIONARY
  5
63
102
{ACAD_REACTORS
330
C
102
}
330
C
100
AcDbDictionary
281
     1
  0
DICTIONARY
  5
6A
102
{ACAD_REACTORS
330
C
102
}
330
C
100
AcDbDictionary
281
     1
  3
Imperial24
350
6B
  0
DICTIONARY
  5
D
102
{ACAD_REACTORS
330
C
102
}
330
C
100
AcDbDictionary
281
     1
  0
DICTIONARY
  5
62
102
{ACAD_REACTORS
330
C
102
}
330
C
100
AcDbDictionary
281
     1
  3
Layout1
350
6F
  3
Layout2
350
77
  3
Model
350
73
  0
DICTIONARY
  5
10
102
{ACAD_REACTORS
330
C
102
}
330
C
100
AcDbDictionary
281
     1
  3
ByBlock
350
19
  3
ByLayer
350
11
  3
Global
350
21
  0
DICTIONARY
  5
66
102
{ACAD_REACTORS
330
C
102
}
330
C
100
AcDbDictionary
281
     1
  3
Standard
350
67
  0
DICTIONARY
  5
5F
102
{ACAD_REACTORS
330
C
102
}
330
C
100
AcDbDictionary
281
     1
  3
Standard
350
60
  0
DICTIONARY
  5
61
102
{ACAD_REACTORS
330
C
102
}
330
C
100
AcDbDictionary
281
     1
  0
ACDBDICTIONARYWDFLT
  5
E
102
{ACAD_REACTORS
330
C
102
}
330
C
100
AcDbDictionary
281
     1
  3
Normal
350
F
100
AcDbDictionaryWithDefault
340
F
  0
DICTIONARY
  5
42
102
{ACAD_REACTORS
330
C
102
}
330
C
100
AcDbDictionary
281
     1
  3
A0
350
43
  3
A1
350
44
  3
A2
350
45
  3
A3
350
46
  3
A4
350
47
  3
A5
350
48
  3
A6
350
49
  3
A7
350
4A
  3
A8
350
4B
  3
A9
350
4C
  3
B0
350
4D
  3
B1
350
4E
  3
B2
350
4F
  3
B3
350
50
  3
B4
350
51
  3
B5
350
52
  3
B6
350
53
  0
DICTIONARY
  5
68
102
{ACAD_REACTORS
330
C
102
}
330
C
100
AcDbDictionary
281
     1
  3
Imperial24
350
69
  0
DICTIONARY
  5
64
102
{ACAD_REACTORS
330
C
102
}
330
C
100
AcDbDictionary
281
     1
  3
Standard
350
65
  0
DICTIONARY
  5
29
102
{ACAD_REACTORS
330
C
102
}
330
C
100
AcDbDictionary
281
     1
  3
2dWireframe
350
2F
  3
Basic
350
2E
  3
Brighten
350
35
  3
ColorChange
350
39
  3
Conceptual
350
32
  3
Dim
350
34
  3
EdgeColorOff
350
41
  3
Facepattern
350
38
  3
Flat
350
2A
  3
FlatWithEdges
350
2B
  3
Gouraud
350
2C
  3
GouraudWithEdges
350
2D
  3
Hidden
350
31
  3
JitterOff
350
3F
  3
Linepattern
350
37
  3
OverhangOff
350
40
  3
Realistic
350
33
  3
Shaded
350
3E
  3
Shaded with edges
350
3D
  3
Shades of Gray
350
3A
  3
Sketchy
350
3B
  3
Thicken
350
36
  3
Wireframe
350
30
  3
X-Ray
350
3C
  0
XRECORD
  5
11A
102
{ACAD_REACTORS
330
C
102
}
330
C
100
AcDbXrecord
280
     1
 90
        1
330
65
  0
DICTIONARY
  5
112
102
{ACAD_REACTORS
330
C
102
}
330
C
100
AcDbDictionary
281
     1
  3
CANNOSCALE
350
117
  3
CMLEADERSTYLE
350
114
  3
CTABLESTYLE
350
113
  3
CVIEWDETAILSTYLE
350
115
  3
CVIEWSECTIONSTYLE
350
116
  0
ACDBDETAILVIEWSTYLE
  5
6B
102
{ACAD_XDICTIONARY
360
14F
102
}
102
{ACAD_REACTORS
330
6A
102
}
330
6A
100
AcDbModelDocViewStyle
 70
     0
  3
Imperial24
290
     0
100
AcDbDetailViewStyle
 70
     0
 71
     0
 90
        3
 71
     1
340
55
 62
   256
 40
0.24
340
0
 62
   256
 40
0.24
300

 40
0.36
280
     3
 71
     2
340
5D
 90
       25
 62
   256
 71
     3
340
55
 62
   256
 40
0.24
 90
        1
 40
0.75
 90
        1
300
%<\AcVar ViewType \f "%tc1">% %<\AcVar ViewDetailId>%\PSCALE %<\AcVar ViewScale \f "%sn">%
 71
     4
340
5D
 90
       25
 62
   256
340
5D
 90
       25
 62
   256
280
     0
  0
LAYOUT
  5
6F
102
{ACAD_REACTORS
330
62
102
}
330
62
100
AcDbPlotSettings
  1

  2

  4

  6

 40
0.0
 41
0.0
 42
0.0
 43
0.0
 44
0.0
 45
0.0
 46
0.0
 47
0.0
 48
0.0
 49
0.0
140
0.0
141
0.0
142
1.0
143
1.0
 70
   688
 72
     0
 73
     0
 74
     5
  7

 75
    16
147
1.0
 76
     0
 77
     2
 78
   300
148
0.0
149
0.0
100
AcDbLayout
  1
Layout1
 70
     1
 71
     1
 10
0.0
 20
0.0
 11
12.0
 21
9.0
 12
0.0
 22
0.0
 32
0.0
 14
0.0
 24
0.0
 34
0.0
 15
0.0
 25
0.0
 35
0.0
146
0.0
 13
0.0
 23
0.0
 33
0.0
 16
1.0
 26
0.0
 36
0.0
 17
0.0
 27
1.0
 37
0.0
 76
     0
330
6C
  0
LAYOUT
  5
77
102
{ACAD_REACTORS
330
62
102
}
330
62
100
AcDbPlotSettings
  1

  2

  4

  6

 40
0.0
 41
0.0
 42
0.0
 43
0.0
 44
0.0
 45
0.0
 46
0.0
 47
0.0
 48
0.0
 49
0.0
140
0.0
141
0.0
142
1.0
143
1.0
 70
   688
 72
     0
 73
     0
 74
     5
  7

 75
    16
147
1.0
 76
     0
 77
     2
 78
   300
148
0.0
149
0.0
100
AcDbLayout
  1
Layout2
 70
     1
 71
     2
 10
0.0
 20
0.0
 11
12.0
 21
9.0
 12
0.0
 22
0.0
 32
0.0
 14
0.0
 24
0.0
 34
0.0
 15
0.0
 25
0.0
 35
0.0
146
0.0
 13
0.0
 23
0.0
 33
0.0
 16
1.0
 26
0.0
 36
0.0
 17
0.0
 27
1.0
 37
0.0
 76
     0
330
74
  0
LAYOUT
  5
73
102
{ACAD_REACTORS
330
62
102
}
330
62
100
AcDbPlotSettings
  1

  2

  4

  6

 40
0.0
 41
0.0
 42
0.0
 43
0.0
 44
0.0
 45
0.0
 46
0.0
 47
0.0
 48
0.0
 49
0.0
140
0.0
141
0.0
142
1.0
143
1.0
 70
  1712
 72
     0
 73
     0
 74
     0
  7

 75
     0
147
1.0
 76
     0
 77
     2
 78
   300
148
0.0
149
0.0
100
AcDbLayout
  1
Model
 70
     1
 71
     0
 10
0.0
 20
0.0
 11
12.0
 21
9.0
 12
0.0
 22
0.0
 32
0.0
 14
0.0
 24
0.0
 34
0.0
 15
0.0
 25
0.0
 35
0.0
146
0.0
 13
0.0
 23
0.0
 33
0.0
 16
1.0
 26
0.0
 36
0.0
 17
0.0
 27
1.0
 37
0.0
 76
     0
330
70
  0
MATERIAL
  5
19
102
{ACAD_XDICTIONARY
360
1A
102
}
102
{ACAD_REACTORS
330
10
102
}
330
10
100
AcDbMaterial
  1
ByBlock
 72
     0
 43
0.0208333333333333
 43
0.0
 43
0.0
 43
0.0
 43
0.0
 43
0.0208333333333333
 43
0.0
 43
0.0
 43
0.0
 43
0.0
 43
1.0
 43
0.0
 43
0.0
 43
0.0
 43
0.0
 43
1.0
 77
     0
 47
0.0208333333333333
 47
0.0
 47
0.0
 47
0.0
 47
0.0
 47
0.0208333333333333
 47
0.0
 47
0.0
 47
0.0
 47
0.0
 47
1.0
 47
0.0
 47
0.0
 47
0.0
 47
0.0
 47
1.0
171
     0
 49
0.0208333333333333
 49
0.0
 49
0.0
 49
0.0
 49
0.0
 49
0.0208333333333333
 49
0.0
 49
0.0
 49
0.0
 49
0.0
 49
1.0
 49
0.0
 49
0.0
 49
0.0
 49
0.0
 49
1.0
175
     0
142
0.0208333333333333
142
0.0
142
0.0
142
0.0
142
0.0
142
0.0208333333333333
142
0.0
142
0.0
142
0.0
142
0.0
142
1.0
142
0.0
142
0.0
142
0.0
142
0.0
142
1.0
179
     0
144
0.0208333333333333
144
0.0
144
0.0
144
0.0
144
0.0
144
0.0208333333333333
144
0.0
144
0.0
144
0.0
144
0.0
144
1.0
144
0.0
144
0.0
144
0.0
144
0.0
144
1.0
147
0.0208333333333333
147
0.0
147
0.0
147
0.0
147
0.0
147
0.0208333333333333
147
0.0
147
0.0
147
0.0
147
0.0
147
1.0
147
0.0
147
0.0
147
0.0
147
0.0
147
1.0
  0
MATERIAL
  5
11
102
{ACAD_XDICTIONARY
360
12
102
}
102
{ACAD_REACTORS
330
10
102
}
330
10
100
AcDbMaterial
  1
ByLayer
 72
     0
 43
0.0208333333333333
 43
0.0
 43
0.0
 43
0.0
 43
0.0
 43
0.0208333333333333
 43
0.0
 43
0.0
 43
0.0
 43
0.0
 43
1.0
 43
0.0
 43
0.0
 43
0.0
 43
0.0
 43
1.0
 77
     0
 47
0.0208333333333333
 47
0.0
 47
0.0
 47
0.0
 47
0.0
 47
0.0208333333333333
 47
0.0
 47
0.0
 47
0.0
 47
0.0
 47
1.0
 47
0.0
 47
0.0
 47
0.0
 47
0.0
 47
1.0
171
     0
 49
0.0208333333333333
 49
0.0
 49
0.0
 49
0.0
 49
0.0
 49
0.0208333333333333
 49
0.0
 49
0.0
 49
0.0
 49
0.0
 49
1.0
 49
0.0
 49
0.0
 49
0.0
 49
0.0
 49
1.0
175
     0
142
0.0208333333333333
142
0.0
142
0.0
142
0.0
142
0.0
142
0.0208333333333333
142
0.0
142
0.0
142
0.0
142
0.0
142
1.0
142
0.0
142
0.0
142
0.0
142
0.0
142
1.0
179
     0
144
0.0208333333333333
144
0.0
144
0.0
144
0.0
144
0.0
144
0.0208333333333333
144
0.0
144
0.0
144
0.0
144
0.0
144
1.0
144
0.0
144
0.0
144
0.0
144
0.0
144
1.0
147
0.0208333333333333
147
0.0
147
0.0
147
0.0
147
0.0
147
0.0208333333333333
147
0.0
147
0.0
147
0.0
147
0.0
147
1.0
147
0.0
147
0.0
147
0.0
147
0.0
147
1.0
  0
MATERIAL
  5
21
102
{ACAD_XDICTIONARY
360
22
102
}
102
{ACAD_REACTORS
330
10
102
}
330
10
100
AcDbMaterial
  1
Global
 72
     0
 43
0.0208333333333333
 43
0.0
 43
0.0
 43
0.0
 43
0.0
 43
0.0208333333333333
 43
0.0
 43
0.0
 43
0.0
 43
0.0
 43
1.0
 43
0.0
 43
0.0
 43
0.0
 43
0.0
 43
1.0
 77
     0
 47
0.0208333333333333
 47
0.0
 47
0.0
 47
0.0
 47
0.0
 47
0.0208333333333333
 47
0.0
 47
0.0
 47
0.0
 47
0.0
 47
1.0
 47
0.0
 47
0.0
 47
0.0
 47
0.0
 47
1.0
171
     0
 49
0.0208333333333333
 49
0.0
 49
0.0
 49
0.0
 49
0.0
 49
0.0208333333333333
 49
0.0
 49
0.0
 49
0.0
 49
0.0
 49
1.0
 49
0.0
 49
0.0
 49
0.0
 49
0.0
 49
1.0
175
     0
142
0.0208333333333333
142
0.0
142
0.0
142
0.0
142
0.0
142
0.0208333333333333
142
0.0
142
0.0
142
0.0
142
0.0
142
1.0
142
0.0
142
0.0
142
0.0
142
0.0
142
1.0
179
     0
144
0.0208333333333333
144
0.0
144
0.0
144
0.0
144
0.0
144
0.0208333333333333
144
0.0
144
0.0
144
0.0
144
0.0
144
1.0
144
0.0
144
0.0
144
0.0
144
0.0
144
1.0
147
0.0208333333333333
147
0.0
147
0.0
147
0.0
147
0.0
147
0.0208333333333333
147
0.0
147
0.0
147
0.0
147
0.0
147
1.0
147
0.0
147
0.0
147
0.0
147
0.0
147
1.0
  0
MLEADERSTYLE
  5
67
102
{ACAD_XDICTIONARY
360
14B
102
}
102
{ACAD_REACTORS
330
66
102
}
330
66
100
AcDbMLeaderStyle
179
     2
170
     2
171
     1
172
     0
 90
        2
 40
0.0
 41
0.0
173
     1
 91
-1056964608
340
5B
 92
       -2
290
     1
 42
0.09
291
     1
 43
0.36
  3
Standard
 44
0.18
300

342
55
174
     1
178
     6
175
     1
176
     0
 93
-1056964608
 45
0.18
292
     0
297
     0
 46
0.18
 94
-1056964608
 47
1.0
 49
1.0
140
1.0
293
     1
141
0.0
294
     1
177
     0
142
1.0
295
     0
296
     0
143
0.125
271
     0
272
     9
273
     9
  0
MLINESTYLE
  5
60
102
{ACAD_REACTORS
330
5F
102
}
330
5F
100
AcDbMlineStyle
  2
STANDARD
 70
     0
  3

 62
   256
 51
90.0
 52
90.0
 71
     2
 49
0.5
 62
   256
  6
BYLAYER
 49
-0.5
 62
   256
  6
BYLAYER
  0
ACDBPLACEHOLDER
  5
F
102
{ACAD_REACTORS
330
E
102
}
330
E
  0
SCALE
  5
43
102
{ACAD_REACTORS
330
42
102
}
330
42
100
AcDbScale
 70
     0
300
1:1
140
1.0
141
1.0
290
     1
  0
SCALE
  5
44
102
{ACAD_REACTORS
330
42
102
}
330
42
100
AcDbScale
 70
     0
300
1/128" = 1'-0"
140
0.0078125
141
12.0
290
     0
  0
SCALE
  5
45
102
{ACAD_REACTORS
330
42
102
}
330
42
100
AcDbScale
 70
     0
300
1/64" = 1'-0"
140
0.015625
141
12.0
290
     0
  0
SCALE
  5
46
102
{ACAD_REACTORS
330
42
102
}
330
42
100
AcDbScale
 70
     0
300
1/32" = 1'-0"
140
0.03125
141
12.0
290
     0
  0
SCALE
  5
47
102
{ACAD_REACTORS
330
42
102
}
330
42
100
AcDbScale
 70
     0
300
1/16" = 1'-0"
140
0.0625
141
12.0
290
     0
  0
SCALE
  5
48
102
{ACAD_REACTORS
330
42
102
}
330
42
100
AcDbScale
 70
     0
300
3/32" = 1'-0"
140
0.09375
141
12.0
290
     0
  0
SCALE
  5
49
102
{ACAD_REACTORS
330
42
102
}
330
42
100
AcDbScale
 70
     0
300
1/8" = 1'-0"
140
0.125
141
12.0
290
     0
  0
SCALE
  5
4A
102
{ACAD_REACTORS
330
42
102
}
330
42
100
AcDbScale
 70
     0
300
3/16" = 1'-0"
140
0.1875
141
12.0
290
     0
  0
SCALE
  5
4B
102
{ACAD_REACTORS
330
42
102
}
330
42
100
AcDbScale
 70
     0
300
1/4" = 1'-0"
140
0.25
141
12.0
290
     0
  0
SCALE
  5
4C
102
{ACAD_REACTORS
330
42
102
}
330
42
100
AcDbScale
 70
     0
300
3/8" = 1'-0"
140
0.375
141
12.0
290
     0
  0
SCALE
  5
4D
102
{ACAD_REACTORS
330
42
102
}
330
42
100
AcDbScale
 70
     0
300
1/2" = 1'-0"
140
0.5
141
12.0
290
     0
  0
SCALE
  5
4E
102
{ACAD_REACTORS
330
42
102
}
330
42
100
AcDbScale
 70
     0
300
3/4" = 1'-0"
140
0.75
141
12.0
290
     0
  0
SCALE
  5
4F
102
{ACAD_REACTORS
330
42
102
}
330
42
100
AcDbScale
 70
     0
300
1" = 1'-0"
140
1.0
141
12.0
290
     0
  0
SCALE
  5
50
102
{ACAD_REACTORS
330
42
102
}
330
42
100
AcDbScale
 70
     0
300
1-1/2" = 1'-0"
140
1.5
141
12.0
290
     0
  0
SCALE
  5
51
102
{ACAD_REACTORS
330
42
102
}
330
42
100
AcDbScale
 70
     0
300
3" = 1'-0"
140
3.0
141
12.0
290
     0
  0
SCALE
  5
52
102
{ACAD_REACTORS
330
42
102
}
330
42
100
AcDbScale
 70
     0
300
6" = 1'-0"
140
6.0
141
12.0
290
     0
  0
SCALE
  5
53
102
{ACAD_REACTORS
330
42
102
}
330
42
100
AcDbScale
 70
     0
300
1'-0" = 1'-0"
140
12.0
141
12.0
290
     0
  0
ACDBSECTIONVIEWSTYLE
  5
69
102
{ACAD_XDICTIONARY
360
14D
102
}
102
{ACAD_REACTORS
330
68
102
}
330
68
100
AcDbModelDocViewStyle
 70
     0
  3
Imperial24
290
     0
100
AcDbSectionViewStyle
 70
     0
 71
     0
 90
       78
 71
     1
340
55
 62
   256
 40
0.24
340
0
340
0
 62
   256
 40
0.24
300
I, O, Q, S, X, Z
 40
0.48
 90
        3
 40
0.18
 90
        1
 71
     2
340
5D
 90
       25
 62
   256
340
5D
 90
       50
 62
   256
 40
0.24
 40
0.0
 40
0.24
 71
     3
340
55
 62
   256
 40
0.24
 90
        1
 40
0.75
 90
        1
300
%<\AcVar ViewType \f "%tc1">% %<\AcVar ViewSectionStartId>%-%<\AcVar ViewSectionEndId>%\PSCALE %<\AcVar ViewScale \f "%sn">%
 71
     4
 62
   256
 62
   257
300
ANSI31
 40
1.0
 90
        0
290
     0
290
     0
 90
        6
 40
0.0
 40
1.570796326794896
 40
0.2617993877991494
 40
1.308996938995747
 40
-0.2617993877991494
 40
1.832595714594046
  0
TABLESTYLE
  5
65
102
{ACAD_XDICTIONARY
360
118
102
}
102
{ACAD_REACTORS
330
64
102
}
330
64
100
AcDbTableStyle
280
     0
  3
Standard
 70
     0
 71
     0
 40
0.06
 41
0.06
280
     0
281
     0
  7
Standard
140
0.18
170
     2
 62
     0
 63
     7
283
     0
 90
      512
 91
        0
  1

274
    -2
284
     1
 64
     0
275
    -2
285
     1
 65
     0
276
    -2
286
     1
 66
     0
277
    -2
287
     1
 67
     0
278
    -2
288
     1
 68
     0
279
    -2
289
     1
 69
     0
  7
Standard
140
0.25
170
     5
 62
     0
 63
     7
283
     0
 90
      512
 91
        0
  1

274
    -2
284
     1
 64
     0
275
    -2
285
     1
 65
     0
276
    -2
286
     1
 66
     0
277
    -2
287
     1
 67
     0
278
    -2
288
     1
 68
     0
279
    -2
289
     1
 69
     0
  7
Standard
140
0.18
170
     5
 62
     0
 63
     7
283
     0
 90
      512
 91
        0
  1

274
    -2
284
     1
 64
     0
275
    -2
285
     1
 65
     0
276
    -2
286
     1
 66
     0
277
    -2
287
     1
 67
     0
278
    -2
288
     1
 68
     0
279
    -2
289
     1
 69
     0
  0
VISUALSTYLE
  5
2F
102
{ACAD_XDICTIONARY
360
125
102
}
102
{ACAD_REACTORS
330
29
102
}
330
29
100
AcDbVisualStyle
  2
2dWireframe
 70
     4
177
     2
291
     0
 71
     0
176
     1
 72
     2
176
     1
 73
     0
176
     1
 90
        0
176
     1
 40
0.6
176
     1
 41
30.0
176
     1
 63
     7
421
 16777215
176
     1
 74
     1
176
     1
 91
        4
176
     1
 64
     7
176
     1
 65
   257
176
     1
 75
     1
176
     1
175
     1
176
     1
 42
1.0
176
     1
 92
        0
176
     1
 66
   257
176
     1
 43
1.0
176
     1
 76
     1
176
     1
 77
     6
176
     1
 78
     2
176
     1
 67
     7
176
     1
 79
     5
176
     1
170
     0
176
     1
171
     0
176
     1
290
     0
176
     1
 93
        1
176
     1
 44
0.0
176
     1
173
     0
176
     1
1001
ACAD
1000
AcDbSavedByObjectVersion
1070
     0
  0
VISUALSTYLE
  5
2E
102
{ACAD_XDICTIONARY
360
123
102
}
102
{ACAD_REACTORS
330
29
102
}
330
29
100
AcDbVisualStyle
  2
Basic
 70
     7
177
     2
291
     1
 71
     1
176
     1
 72
     0
176
     1
 73
     1
176
     1
 90
        0
176
     1
 40
0.6
176
     1
 41
30.0
176
     1
 63
     7
421
 16777215
176
     1
 74
     0
176
     1
 91
        4
176
     1
 64
     7
176
     1
 65
   257
176
     1
 75
     1
176
     1
175
     1
176
     1
 42
1.0
176
     1
 92
        8
176
     1
 66
     7
176
     1
 43
1.0
176
     1
 76
     1
176
     1
 77
     6
176
     1
 78
     2
176
     1
 67
     7
176
     1
 79
     5
176
     1
170
     0
176
     1
171
     0
176
     1
290
     0
176
     1
 93
        1
176
     1
 44
0.0
176
     1
173
     0
176
     1
1001
ACAD
1000
AcDbSavedByObjectVersion
1070
     0
  0
VISUALSTYLE
  5
35
102
{ACAD_XDICTIONARY
360
131
102
}
102
{ACAD_REACTORS
330
29
102
}
330
29
100
AcDbVisualStyle
  2
Brighten
 70
    12
177
     2
291
     1
 71
     2
176
     1
 72
     2
176
     1
 73
     0
176
     1
 90
        0
176
     1
 40
0.6
176
     1
 41
30.0
176
     1
 63
     7
421
 16777215
176
     1
 74
     1
176
     1
 91
        4
176
     1
 64
     7
176
     1
 65
   257
176
     1
 75
     1
176
     1
175
     1
176
     1
 42
1.0
176
     1
 92
        8
176
     1
 66
     7
176
     1
 43
1.0
176
     1
 76
     1
176
     1
 77
     6
176
     1
 78
     2
176
     1
 67
     7
176
     1
 79
     5
176
     1
170
     0
176
     1
171
     0
176
     1
290
     0
176
     1
 93
        1
176
     1
 44
50.0
176
     1
173
     0
176
     1
1001
ACAD
1000
AcDbSavedByObjectVersion
1070
     0
  0
VISUALSTYLE
  5
39
102
{ACAD_XDICTIONARY
360
139
102
}
102
{ACAD_REACTORS
330
29
102
}
330
29
100
AcDbVisualStyle
  2
ColorChange
 70
    16
177
     2
291
     1
 71
     2
176
     1
 72
     2
176
     1
 73
     3
176
     1
 90
        0
176
     1
 40
0.6
176
     1
 41
30.0
176
     1
 63
     8
421
  8421504
176
     1
 74
     1
176
     1
 91
        4
176
     1
 64
     7
176
     1
 65
   257
176
     1
 75
     1
176
     1
175
     1
176
     1
 42
1.0
176
     1
 92
        8
176
     1
 66
     8
424
  8421504
176
     1
 43
1.0
176
     1
 76
     1
176
     1
 77
     6
176
     1
 78
     2
176
     1
 67
     7
176
     1
 79
     5
176
     1
170
     0
176
     1
171
     0
176
     1
290
     0
176
     1
 93
        1
176
     1
 44
0.0
176
     1
173
     0
176
     1
1001
ACAD
1000
AcDbSavedByObjectVersion
1070
     0
  0
VISUALSTYLE
  5
32
102
{ACAD_XDICTIONARY
360
12B
102
}
102
{ACAD_REACTORS
330
29
102
}
330
29
100
AcDbVisualStyle
  2
Conceptual
 70
     9
177
     2
291
     0
 71
     3
176
     1
 72
     2
176
     1
 73
     0
176
     1
 90
        0
176
     1
 40
0.6
176
     1
 41
30.0
176
     1
 63
     7
421
 16777215
176
     1
 74
     2
176
     1
 91
        2
176
     1
 64
     7
176
     1
 65
   257
176
     1
 75
     1
176
     1
175
     1
176
     1
 42
179.0
176
     1
 92
        8
176
     1
 66
     7
176
     1
 43
1.0
176
     1
 76
     1
176
     1
 77
     6
176
     1
 78
     2
176
     1
 67
     7
176
     1
 79
     3
176
     1
170
     0
176
     1
171
     0
176
     1
290
     0
176
     1
 93
        1
176
     1
 44
0.0
176
     1
173
     0
176
     1
1001
ACAD
1000
AcDbSavedByObjectVersion
1070
     0
  0
VISUALSTYLE
  5
34
102
{ACAD_XDICTIONARY
360
12F
102
}
102
{ACAD_REACTORS
330
29
102
}
330
29
100
AcDbVisualStyle
  2
Dim
 70
    11
177
     2
291
     1
 71
     2
176
     1
 72
     2
176
     1
 73
     0
176
     1
 90
        0
176
     1
 40
0.6
176
     1
 41
30.0
176
     1
 63
     7
421
 16777215
176
     1
 74
     1
176
     1
 91
        4
176
     1
 64
     7
176
     1
 65
   257
176
     1
 75
     1
176
     1
175
     1
176
     1
 42
1.0
176
     1
 92
        8
176
     1
 66
     7
176
     1
 43
1.0
176
     1
 76
     1
176
     1
 77
     6
176
     1
 78
     2
176
     1
 67
     7
176
     1
 79
     5
176
     1
170
     0
176
     1
171
     0
176
     1
290
     0
176
     1
 93
        1
176
     1
 44
-50.0
176
     1
173
     0
176
     1
1001
ACAD
1000
AcDbSavedByObjectVersion
1070
     0
  0
VISUALSTYLE
  5
41
102
{ACAD_XDICTIONARY
360
149
102
}
102
{ACAD_REACTORS
330
29
102
}
330
29
100
AcDbVisualStyle
  2
EdgeColorOff
 70
    22
177
     2
291
     1
 71
     2
176
     0
 72
     2
176
     0
 73
     0
176
     0
 90
        0
176
     0
 40
0.6
176
     0
 41
30.0
176
     0
 63
     7
421
 16777215
176
     0
 74
     1
176
     0
 91
        4
176
     0
 64
     7
176
     0
 65
   257
176
     0
 75
     1
176
     0
175
     1
176
     0
 42
1.0
176
     0
 92
        8
176
     2
 66
     7
176
     0
 43
1.0
176
     0
 76
     1
176
     0
 77
     6
176
     0
 78
     2
176
     0
 67
     7
176
     0
 79
     5
176
     0
170
     0
176
     0
171
     0
176
     0
290
     0
176
     0
 93
        1
176
     0
 44
0.0
176
     0
173
     0
176
     0
1001
ACAD
1000
AcDbSavedByObjectVersion
1070
     0
  0
VISUALSTYLE
  5
38
102
{ACAD_XDICTIONARY
360
137
102
}
102
{ACAD_REACTORS
330
29
102
}
330
29
100
AcDbVisualStyle
  2
Facepattern
 70
    15
177
     2
291
     1
 71
     2
176
     1
 72
     2
176
     1
 73
     0
176
     1
 90
        0
176
     1
 40
0.6
176
     1
 41
30.0
176
     1
 63
     7
421
 16777215
176
     1
 74
     1
176
     1
 91
        4
176
     1
 64
     7
176
     1
 65
   257
176
     1
 75
     1
176
     1
175
     1
176
     1
 42
1.0
176
     1
 92
        8
176
     1
 66
     7
176
     1
 43
1.0
176
     1
 76
     1
176
     1
 77
     6
176
     1
 78
     2
176
     1
 67
     7
176
     1
 79
     5
176
     1
170
     0
176
     1
171
     0
176
     1
290
     0
176
     1
 93
        1
176
     1
 44
0.0
176
     1
173
     0
176
     1
1001
ACAD
1000
AcDbSavedByObjectVersion
1070
     0
  0
VISUALSTYLE
  5
2A
102
{ACAD_XDICTIONARY
360
11B
102
}
102
{ACAD_REACTORS
330
29
102
}
330
29
100
AcDbVisualStyle
  2
Flat
 70
     0
177
     2
291
     1
 71
     2
176
     1
 72
     1
176
     1
 73
     1
176
     1
 90
        2
176
     1
 40
0.6
176
     1
 41
30.0
176
     1
 63
     7
421
 16777215
176
     1
 74
     0
176
     1
 91
        0
176
     1
 64
     7
176
     1
 65
   257
176
     1
 75
     1
176
     1
175
     1
176
     1
 42
1.0
176
     1
 92
        8
176
     1
 66
     7
176
     1
 43
1.0
176
     1
 76
     1
176
     1
 77
     6
176
     1
 78
     2
176
     1
 67
     7
176
     1
 79
     5
176
     1
170
     0
176
     1
171
     0
176
     1
290
     0
176
     1
 93
       13
176
     1
 44
0.0
176
     1
173
     0
176
     1
1001
ACAD
1000
AcDbSavedByObjectVersion
1070
     0
  0
VISUALSTYLE
  5
2B
102
{ACAD_XDICTIONARY
360
11D
102
}
102
{ACAD_REACTORS
330
29
102
}
330
29
100
AcDbVisualStyle
  2
FlatWithEdges
 70
     1
177
     2
291
     1
 71
     2
176
     1
 72
     1
176
     1
 73
     1
176
     1
 90
        2
176
     1
 40
0.6
176
     1
 41
30.0
176
     1
 63
     7
421
 16777215
176
     1
 74
     1
176
     1
 91
        0
176
     1
 64
     7
176
     1
 65
   257
176
     1
 75
     1
176
     1
175
     1
176
     1
 42
1.0
176
     1
 92
        0
176
     1
 66
   257
176
     1
 43
1.0
176
     1
 76
     1
176
     1
 77
     6
176
     1
 78
     2
176
     1
 67
     7
176
     1
 79
     5
176
     1
170
     0
176
     1
171
     0
176
     1
290
     0
176
     1
 93
       13
176
     1
 44
0.0
176
     1
173
     0
176
     1
1001
ACAD
1000
AcDbSavedByObjectVersion
1070
     0
  0
VISUALSTYLE
  5
2C
102
{ACAD_XDICTIONARY
360
11F
102
}
102
{ACAD_REACTORS
330
29
102
}
330
29
100
AcDbVisualStyle
  2
Gouraud
 70
     2
177
     2
291
     1
 71
     2
176
     1
 72
     2
176
     1
 73
     1
176
     1
 90
        2
176
     1
 40
0.6
176
     1
 41
30.0
176
     1
 63
     7
421
 16777215
176
     1
 74
     0
176
     1
 91
        0
176
     1
 64
     7
176
     1
 65
   257
176
     1
 75
     1
176
     1
175
     1
176
     1
 42
1.0
176
     1
 92
        0
176
     1
 66
     7
176
     1
 43
1.0
176
     1
 76
     1
176
     1
 77
     6
176
     1
 78
     2
176
     1
 67
     7
176
     1
 79
     5
176
     1
170
     0
176
     1
171
     0
176
     1
290
     0
176
     1
 93
       13
176
     1
 44
0.0
176
     1
173
     0
176
     1
1001
ACAD
1000
AcDbSavedByObjectVersion
1070
     0
  0
VISUALSTYLE
  5
2D
102
{ACAD_XDICTIONARY
360
121
102
}
102
{ACAD_REACTORS
330
29
102
}
330
29
100
AcDbVisualStyle
  2
GouraudWithEdges
 70
     3
177
     2
291
     1
 71
     2
176
     1
 72
     2
176
     1
 73
     1
176
     1
 90
        2
176
     1
 40
0.6
176
     1
 41
30.0
176
     1
 63
     7
421
 16777215
176
     1
 74
     1
176
     1
 91
        0
176
     1
 64
     7
176
     1
 65
   257
176
     1
 75
     1
176
     1
175
     1
176
     1
 42
1.0
176
     1
 92
        0
176
     1
 66
   257
176
     1
 43
1.0
176
     1
 76
     1
176
     1
 77
     6
176
     1
 78
     2
176
     1
 67
     7
176
     1
 79
     5
176
     1
170
     0
176
     1
171
     0
176
     1
290
     0
176
     1
 93
       13
176
     1
 44
0.0
176
     1
173
     0
176
     1
1001
ACAD
1000
AcDbSavedByObjectVersion
1070
     0
  0
VISUALSTYLE
  5
31
102
{ACAD_XDICTIONARY
360
129
102
}
102
{ACAD_REACTORS
330
29
102
}
330
29
100
AcDbVisualStyle
  2
Hidden
 70
     6
177
     2
291
     0
 71
     1
176
     1
 72
     2
176
     1
 73
     2
176
     1
 90
        0
176
     1
 40
0.6
176
     1
 41
30.0
176
     1
 63
     7
421
 16777215
176
     1
 74
     2
176
     1
 91
        2
176
     1
 64
     7
176
     1
 65
   257
176
     1
 75
     2
176
     1
175
     1
176
     1
 42
40.0
176
     1
 92
        0
176
     1
 66
   257
176
     1
 43
1.0
176
     1
 76
     1
176
     1
 77
     6
176
     1
 78
     2
176
     1
 67
     7
176
     1
 79
     3
176
     1
170
     0
176
     1
171
     0
176
     1
290
     0
176
     1
 93
        1
176
     1
 44
0.0
176
     1
173
     0
176
     1
1001
ACAD
1000
AcDbSavedByObjectVersion
1070
     0
  0
VISUALSTYLE
  5
3F
102
{ACAD_XDICTIONARY
360
145
102
}
102
{ACAD_REACTORS
330
29
102
}
330
29
100
AcDbVisualStyle
  2
JitterOff
 70
    20
177
     2
291
     1
 71
     2
176
     0
 72
     2
176
     0
 73
     0
176
     0
 90
        0
176
     0
 40
0.6
176
     0
 41
30.0
176
     0
 63
     7
421
 16777215
176
     0
 74
     1
176
     0
 91
        4
176
     0
 64
     7
176
     0
 65
   257
176
     0
 75
     1
176
     0
175
     1
176
     0
 42
1.0
176
     0
 92
       10
176
     2
 66
     7
176
     0
 43
1.0
176
     0
 76
     1
176
     0
 77
     6
176
     0
 78
     2
176
     0
 67
     7
176
     0
 79
     5
176
     0
170
     0
176
     0
171
     0
176
     0
290
     0
176
     0
 93
        1
176
     0
 44
0.0
176
     0
173
     0
176
     0
1001
ACAD
1000
AcDbSavedByObjectVersion
1070
     0
  0
VISUALSTYLE
  5
37
102
{ACAD_XDICTIONARY
360
135
102
}
102
{ACAD_REACTORS
330
29
102
}
330
29
100
AcDbVisualStyle
  2
Linepattern
 70
    14
177
     2
291
     1
 71
     2
176
     1
 72
     2
176
     1
 73
     0
176
     1
 90
        0
176
     1
 40
0.6
176
     1
 41
30.0
176
     1
 63
     7
421
 16777215
176
     1
 74
     1
176
     1
 91
        4
176
     1
 64
     7
176
     1
 65
   257
176
     1
 75
     7
176
     1
175
     7
176
     1
 42
1.0
176
     1
 92
        8
176
     1
 66
     7
176
     1
 43
1.0
176
     1
 76
     1
176
     1
 77
     6
176
     1
 78
     2
176
     1
 67
     7
176
     1
 79
     5
176
     1
170
     0
176
     1
171
     0
176
     1
290
     0
176
     1
 93
        1
176
     1
 44
0.0
176
     1
173
     0
176
     1
1001
ACAD
1000
AcDbSavedByObjectVersion
1070
     0
  0
VISUALSTYLE
  5
40
102
{ACAD_XDICTIONARY
360
147
102
}
102
{ACAD_REACTORS
330
29
102
}
330
29
100
AcDbVisualStyle
  2
OverhangOff
 70
    21
177
     2
291
     1
 71
     2
176
     0
 72
     2
176
     0
 73
     0
176
     0
 90
        0
176
     0
 40
0.6
176
     0
 41
30.0
176
     0
 63
     7
421
 16777215
176
     0
 74
     1
176
     0
 91
        4
176
     0
 64
     7
176
     0
 65
   257
176
     0
 75
     1
176
     0
175
     1
176
     0
 42
1.0
176
     0
 92
        9
176
     2
 66
     7
176
     0
 43
1.0
176
     0
 76
     1
176
     0
 77
     6
176
     0
 78
     2
176
     0
 67
     7
176
     0
 79
     5
176
     0
170
     0
176
     0
171
     0
176
     0
290
     0
176
     0
 93
        1
176
     0
 44
0.0
176
     0
173
     0
176
     0
1001
ACAD
1000
AcDbSavedByObjectVersion
1070
     0
  0
VISUALSTYLE
  5
33
102
{ACAD_XDICTIONARY
360
12D
102
}
102
{ACAD_REACTORS
330
29
102
}
330
29
100
AcDbVisualStyle
  2
Realistic
 70
     8
177
     2
291
     0
 71
     2
176
     1
 72
     3
176
     1
 73
     0
176
     1
 90
        2
176
     1
 40
0.6
176
     1
 41
30.0
176
     1
 63
     7
421
 16777215
176
     1
 74
     0
176
     1
 91
        0
176
     1
 64
     7
176
     1
 65
   257
176
     1
 75
     1
176
     1
175
     1
176
     1
 42
1.0
176
     1
 92
        8
176
     1
 66
   257
176
     1
 43
1.0
176
     1
 76
     1
176
     1
 77
     6
176
     1
 78
     2
176
     1
 67
     7
176
     1
 79
     3
176
     1
170
     0
176
     1
171
     0
176
     1
290
     0
176
     1
 93
       13
176
     1
 44
0.0
176
     1
173
     0
176
     1
1001
ACAD
1000
AcDbSavedByObjectVersion
1070
     0
  0
VISUALSTYLE
  5
3E
102
{ACAD_XDICTIONARY
360
143
102
}
102
{ACAD_REACTORS
330
29
102
}
330
29
100
AcDbVisualStyle
  2
Shaded
 70
    27
177
     2
291
     0
 71
     2
176
     1
 72
     2
176
     1
 73
     1
176
     1
 90
        2
176
     1
 40
0.6
176
     1
 41
30.0
176
     1
 63
     7
421
 16777215
176
     1
 74
     0
176
     1
 91
        4
176
     1
 64
     7
176
     1
 65
   257
176
     1
 75
     1
176
     1
175
     1
176
     1
 42
1.0
176
     1
 92
        8
176
     1
 66
   257
176
     1
 43
1.0
176
     1
 76
     1
176
     1
 77
     6
176
     1
 78
     2
176
     1
 67
     8
425
  7895160
176
     1
 79
     3
176
     1
170
     0
176
     1
171
     0
176
     1
290
     0
176
     1
 93
        5
176
     1
 44
0.0
176
     1
173
     0
176
     1
1001
ACAD
1000
AcDbSavedByObjectVersion
1070
     0
  0
VISUALSTYLE
  5
3D
102
{ACAD_XDICTIONARY
360
141
102
}
102
{ACAD_REACTORS
330
29
102
}
330
29
100
AcDbVisualStyle
  2
Shaded with edges
 70
    26
177
     2
291
     0
 71
     2
176
     1
 72
     2
176
     1
 73
     1
176
     1
 90
        2
176
     1
 40
0.6
176
     1
 41
30.0
176
     1
 63
     7
421
 16777215
176
     1
 74
     1
176
     1
 91
        2
176
     1
 64
     7
176
     1
 65
   257
176
     1
 75
     2
176
     1
175
     1
176
     1
 42
1.0
176
     1
 92
        8
176
     1
 66
   257
176
     1
 43
1.0
176
     1
 76
     1
176
     1
 77
     6
176
     1
 78
     2
176
     1
 67
     7
176
     1
 79
     3
176
     1
170
     0
176
     1
171
     0
176
     1
290
     0
176
     1
 93
        5
176
     1
 44
0.0
176
     1
173
     0
176
     1
1001
ACAD
1000
AcDbSavedByObjectVersion
1070
     0
  0
VISUALSTYLE
  5
3A
102
{ACAD_XDICTIONARY
360
13B
102
}
102
{ACAD_REACTORS
330
29
102
}
330
29
100
AcDbVisualStyle
  2
Shades of Gray
 70
    23
177
     2
291
     0
 71
     2
176
     1
 72
     2
176
     1
 73
     3
176
     1
 90
        0
176
     1
 40
0.6
176
     1
 41
30.0
176
     1
 63
     7
421
 16777215
176
     1
 74
     2
176
     1
 91
        2
176
     1
 64
     7
176
     1
 65
     7
176
     1
 75
     1
176
     1
175
     1
176
     1
 42
40.0
176
     1
 92
        8
176
     1
 66
     7
176
     1
 43
1.0
176
     1
 76
     1
176
     1
 77
     6
176
     1
 78
     2
176
     1
 67
     7
176
     1
 79
     3
176
     1
170
     0
176
     1
171
     0
176
     1
290
     0
176
     1
 93
        1
176
     1
 44
0.0
176
     1
173
     0
176
     1
1001
ACAD
1000
AcDbSavedByObjectVersion
1070
     0
  0
VISUALSTYLE
  5
3B
102
{ACAD_XDICTIONARY
360
13D
102
}
102
{ACAD_REACTORS
330
29
102
}
330
29
100
AcDbVisualStyle
  2
Sketchy
 70
    24
177
     2
291
     0
 71
     1
176
     1
 72
     2
176
     1
 73
     2
176
     1
 90
        0
176
     1
 40
0.6
176
     1
 41
30.0
176
     1
 63
     7
421
 16777215
176
     1
 74
     2
176
     1
 91
        2
176
     1
 64
     7
176
     1
 65
     7
176
     1
 75
     1
176
     1
175
     1
176
     1
 42
40.0
176
     1
 92
       11
176
     1
 66
     7
176
     1
 43
1.0
176
     1
 76
     1
176
     1
 77
     6
176
     1
 78
     2
176
     1
 67
     7
176
     1
 79
     6
176
     1
170
     0
176
     1
171
     0
176
     1
290
     0
176
     1
 93
        1
176
     1
 44
0.0
176
     1
173
     0
176
     1
1001
ACAD
1000
AcDbSavedByObjectVersion
1070
     0
  0
VISUALSTYLE
  5
36
102
{ACAD_XDICTIONARY
360
133
102
}
102
{ACAD_REACTORS
330
29
102
}
330
29
100
AcDbVisualStyle
  2
Thicken
 70
    13
177
     2
291
     1
 71
     2
176
     1
 72
     2
176
     1
 73
     0
176
     1
 90
        0
176
     1
 40
0.6
176
     1
 41
30.0
176
     1
 63
     7
421
 16777215
176
     1
 74
     1
176
     1
 91
        4
176
     1
 64
     7
176
     1
 65
   257
176
     1
 75
     1
176
     1
175
     1
176
     1
 42
1.0
176
     1
 92
       12
176
     1
 66
     7
176
     1
 43
1.0
176
     1
 76
     1
176
     1
 77
     6
176
     1
 78
     2
176
     1
 67
     7
176
     1
 79
     5
176
     1
170
     0
176
     1
171
     0
176
     1
290
     0
176
     1
 93
        1
176
     1
 44
0.0
176
     1
173
     0
176
     1
1001
ACAD
1000
AcDbSavedByObjectVersion
1070
     0
  0
VISUALSTYLE
  5
30
102
{ACAD_XDICTIONARY
360
127
102
}
102
{ACAD_REACTORS
330
29
102
}
330
29
100
AcDbVisualStyle
  2
Wireframe
 70
     5
177
     2
291
     0
 71
     0
176
     1
 72
     2
176
     1
 73
     0
176
     1
 90
        0
176
     1
 40
0.6
176
     1
 41
30.0
176
     1
 63
     7
421
 16777215
176
     1
 74
     1
176
     1
 91
        4
176
     1
 64
     7
176
     1
 65
   257
176
     1
 75
     1
176
     1
175
     1
176
     1
 42
1.0
176
     1
 92
        0
176
     1
 66
   257
176
     1
 43
1.0
176
     1
 76
     1
176
     1
 77
     6
176
     1
 78
     2
176
     1
 67
     7
176
     1
 79
     3
176
     1
170
     0
176
     1
171
     0
176
     1
290
     0
176
     1
 93
        1
176
     1
 44
0.0
176
     1
173
     0
176
     1
1001
ACAD
1000
AcDbSavedByObjectVersion
1070
     0
  0
VISUALSTYLE
  5
3C
102
{ACAD_XDICTIONARY
360
13F
102
}
102
{ACAD_REACTORS
330
29
102
}
330
29
100
AcDbVisualStyle
  2
X-Ray
 70
    25
177
     2
291
     0
 71
     2
176
     1
 72
     2
176
     1
 73
     1
176
     1
 90
        1
176
     1
 40
0.5
176
     1
 41
30.0
176
     1
 63
     7
421
 16777215
176
     1
 74
     1
176
     1
 91
        0
176
     1
 64
     7
176
     1
 65
   257
176
     1
 75
     1
176
     1
175
     1
176
     1
 42
1.0
176
     1
 92
        8
176
     1
 66
     7
176
     1
 43
1.0
176
     1
 76
     1
176
     1
 77
     6
176
     1
 78
     2
176
     1
 67
     7
176
     1
 79
     3
176
     1
170
     0
176
     1
171
     0
176
     1
290
     0
176
     1
 93
       13
176
     1
 44
0.0
176
     1
173
     0
176
     1
1001
ACAD
1000
AcDbSavedByObjectVersion
1070
     0
  0
DICTIONARYVAR
  5
117
102
{ACAD_REACTORS
330
112
102
}
330
112
100
DictionaryVariables
280
     0
  1
1:1
  0
DICTIONARYVAR
  5
114
102
{ACAD_REACTORS
330
112
102
}
330
112
100
DictionaryVariables
280
     0
  1
STANDARD
  0
DICTIONARYVAR
  5
113
102
{ACAD_REACTORS
330
112
102
}
330
112
100
DictionaryVariables
280
     0
  1
STANDARD
  0
DICTIONARYVAR
  5
115
102
{ACAD_REACTORS
330
112
102
}
330
112
100
DictionaryVariables
280
     0
  1
Imperial24
  0
DICTIONARYVAR
  5
116
102
{ACAD_REACTORS
330
112
102
}
330
112
100
DictionaryVariables
280
     0
  1
Imperial24
  0
DICTIONARY
  5
14F
330
6B
100
AcDbDictionary
280
     1
281
     1
  3
ACAD_XREC_ROUNDTRIP
360
150
  0
DICTIONARY
  5
1A
330
19
100
AcDbDictionary
280
     1
281
     1
  3
BUMPTILE
360
1C
  3
DIFFUSETILE
360
1B
  3
OPACITYTILE
360
1F
  3
REFLECTIONTILE
360
1E
  3
REFRACTIONTILE
360
20
  3
SPECULARTILE
360
1D
  0
DICTIONARY
  5
12
330
11
100
AcDbDictionary
280
     1
281
     1
  3
BUMPTILE
360
14
  3
DIFFUSETILE
360
13
  3
OPACITYTILE
360
17
  3
REFLECTIONTILE
360
16
  3
REFRACTIONTILE
360
18
  3
SPECULARTILE
360
15
  0
DICTIONARY
  5
22
330
21
100
AcDbDictionary
280
     1
281
     1
  3
BUMPTILE
360
24
  3
DIFFUSETILE
360
23
  3
OPACITYTILE
360
27
  3
REFLECTIONTILE
360
26
  3
REFRACTIONTILE
360
28
  3
SPECULARTILE
360
25
  0
DICTIONARY
  5
14B
330
67
100
AcDbDictionary
280
     1
281
     1
  3
ACAD_XREC_ROUNDTRIP
360
14C
  0
DICTIONARY
  5
14D
330
69
100
AcDbDictionary
280
     1
281
     1
  3
ACAD_XREC_ROUNDTRIP
360
14E
  0
DICTIONARY
  5
118
330
65
100
AcDbDictionary
280
     1
281
     1
  3
ACAD_ROUNDTRIP_2008_TABLESTYLE_CELLSTYLEMAP
360
119
  0
DICTIONARY
  5
125
330
2F
100
AcDbDictionary
280
     1
281
     1
  3
ACAD_XREC_ROUNDTRIP
360
126
  0
DICTIONARY
  5
123
330
2E
100
AcDbDictionary
280
     1
281
     1
  3
ACAD_XREC_ROUNDTRIP
360
124
  0
DICTIONARY
  5
131
330
35
100
AcDbDictionary
280
     1
281
     1
  3
ACAD_XREC_ROUNDTRIP
360
132
  0
DICTIONARY
  5
139
330
39
100
AcDbDictionary
280
     1
281
     1
  3
ACAD_XREC_ROUNDTRIP
360
13A
  0
DICTIONARY
  5
12B
330
32
100
AcDbDictionary
280
     1
281
     1
  3
ACAD_XREC_ROUNDTRIP
360
12C
  0
DICTIONARY
  5
12F
330
34
100
AcDbDictionary
280
     1
281
     1
  3
ACAD_XREC_ROUNDTRIP
360
130
  0
DICTIONARY
  5
149
330
41
100
AcDbDictionary
280
     1
281
     1
  3
ACAD_XREC_ROUNDTRIP
360
14A
  0
DICTIONARY
  5
137
330
38
100
AcDbDictionary
280
     1
281
     1
  3
ACAD_XREC_ROUNDTRIP
360
138
  0
DICTIONARY
  5
11B
330
2A
100
AcDbDictionary
280
     1
281
     1
  3
ACAD_XREC_ROUNDTRIP
360
11C
  0
DICTIONARY
  5
11D
330
2B
100
AcDbDictionary
280
     1
281
     1
  3
ACAD_XREC_ROUNDTRIP
360
11E
  0
DICTIONARY
  5
11F
330
2C
100
AcDbDictionary
280
     1
281
     1
  3
ACAD_XREC_ROUNDTRIP
360
120
  0
DICTIONARY
  5
121
330
2D
100
AcDbDictionary
280
     1
281
     1
  3
ACAD_XREC_ROUNDTRIP
360
122
  0
DICTIONARY
  5
129
330
31
100
AcDbDictionary
280
     1
281
     1
  3
ACAD_XREC_ROUNDTRIP
360
12A
  0
DICTIONARY
  5
145
330
3F
100
AcDbDictionary
280
     1
281
     1
  3
ACAD_XREC_ROUNDTRIP
360
146
  0
DICTIONARY
  5
135
330
37
100
AcDbDictionary
280
     1
281
     1
  3
ACAD_XREC_ROUNDTRIP
360
136
  0
DICTIONARY
  5
147
330
40
100
AcDbDictionary
280
     1
281
     1
  3
ACAD_XREC_ROUNDTRIP
360
148
  0
DICTIONARY
  5
12D
330
33
100
AcDbDictionary
280
     1
281
     1
  3
ACAD_XREC_ROUNDTRIP
360
12E
  0
DICTIONARY
  5
143
330
3E
100
AcDbDictionary
280
     1
281
     1
  3
ACAD_XREC_ROUNDTRIP
360
144
  0
DICTIONARY
  5
141
330
3D
100
AcDbDictionary
280
     1
281
     1
  3
ACAD_XREC_ROUNDTRIP
360
142
  0
DICTIONARY
  5
13B
330
3A
100
AcDbDictionary
280
     1
281
     1
  3
ACAD_XREC_ROUNDTRIP
360
13C
  0
DICTIONARY
  5
13D
330
3B
100
AcDbDictionary
280
     1
281
     1
  3
ACAD_XREC_ROUNDTRIP
360
13E
  0
DICTIONARY
  5
133
330
36
100
AcDbDictionary
280
     1
281
     1
  3
ACAD_XREC_ROUNDTRIP
360
134
  0
DICTIONARY
  5
127
330
30
100
AcDbDictionary
280
     1
281
     1
  3
ACAD_XREC_ROUNDTRIP
360
128
  0
DICTIONARY
  5
13F
330
3C
100
AcDbDictionary
280
     1
281
     1
  3
ACAD_XREC_ROUNDTRIP
360
140
  0
XRECORD
  5
150
102
{ACAD_REACTORS
330
14F
102
}
330
14F
100
AcDbXrecord
280
     1
102
DISPLAYNAME
  1
Imperial24
102
FLAGS
 90
        0
  0
XRECORD
  5
1C
102
{ACAD_REACTORS
330
1A
102
}
330
1A
100
AcDbXrecord
280
     1
270
     1
271
     1
  0
XRECORD
  5
1B
102
{ACAD_REACTORS
330
1A
102
}
330
1A
100
AcDbXrecord
280
     1
270
     1
271
     1
  0
XRECORD
  5
1F
102
{ACAD_REACTORS
330
1A
102
}
330
1A
100
AcDbXrecord
280
     1
270
     1
271
     1
  0
XRECORD
  5
1E
102
{ACAD_REACTORS
330
1A
102
}
330
1A
100
AcDbXrecord
280
     1
270
     1
271
     1
  0
XRECORD
  5
20
102
{ACAD_REACTORS
330
1A
102
}
330
1A
100
AcDbXrecord
280
     1
270
     1
271
     1
  0
XRECORD
  5
1D
102
{ACAD_REACTORS
330
1A
102
}
330
1A
100
AcDbXrecord
280
     1
270
     1
271
     1
  0
XRECORD
  5
14
102
{ACAD_REACTORS
330
12
102
}
330
12
100
AcDbXrecord
280
     1
270
     1
271
     1
  0
XRECORD
  5
13
102
{ACAD_REACTORS
330
12
102
}
330
12
100
AcDbXrecord
280
     1
270
     1
271
     1
  0
XRECORD
  5
17
102
{ACAD_REACTORS
330
12
102
}
330
12
100
AcDbXrecord
280
     1
270
     1
271
     1
  0
XRECORD
  5
16
102
{ACAD_REACTORS
330
12
102
}
330
12
100
AcDbXrecord
280
     1
270
     1
271
     1
  0
XRECORD
  5
18
102
{ACAD_REACTORS
330
12
102
}
330
12
100
AcDbXrecord
280
     1
270
     1
271
     1
  0
XRECORD
  5
15
102
{ACAD_REACTORS
330
12
102
}
330
12
100
AcDbXrecord
280
     1
270
     1
271
     1
  0
XRECORD
  5
24
102
{ACAD_REACTORS
330
22
102
}
330
22
100
AcDbXrecord
280
     1
270
     1
271
     1
  0
XRECORD
  5
23
102
{ACAD_REACTORS
330
22
102
}
330
22
100
AcDbXrecord
280
     1
270
     1
271
     1
  0
XRECORD
  5
27
102
{ACAD_REACTORS
330
22
102
}
330
22
100
AcDbXrecord
280
     1
270
     1
271
     1
  0
XRECORD
  5
26
102
{ACAD_REACTORS
330
22
102
}
330
22
100
AcDbXrecord
280
     1
270
     1
271
     1
  0
XRECORD
  5
28
102
{ACAD_REACTORS
330
22
102
}
330
22
100
AcDbXrecord
280
     1
270
     1
271
     1
  0
XRECORD
  5
25
102
{ACAD_REACTORS
330
22
102
}
330
22
100
AcDbXrecord
280
     1
270
     1
271
     1
  0
XRECORD
  5
14C
102
{ACAD_REACTORS
330
14B
102
}
330
14B
100
AcDbXrecord
280
     1
102
ACAD_ROUNDTRIP_2012_MLEADER_STYLE
298
     1
  0
XRECORD
  5
14E
102
{ACAD_REACTORS
330
14D
102
}
330
14D
100
AcDbXrecord
280
     1
102
DISPLAYNAME
  1
Imperial24
102
FLAGS
 90
        0
  0
CELLSTYLEMAP
  5
119
102
{ACAD_REACTORS
330
118
102
}
330
118
100
AcDbCellStyleMap
 90
        3
300
CELLSTYLE
  1
TABLEFORMAT_BEGIN
 90
        5
170
     1
 91
        0
 92
    32768
 62
   257
 93
        1
300
CONTENTFORMAT
  1
CONTENTFORMAT_BEGIN
 90
        0
 91
        0
 92
      512
 93
        0
300

 40
0.0
140
1.0
 94
        5
 62
     0
340
55
144
0.25
309
CONTENTFORMAT_END
171
     0
 94
        0
309
TABLEFORMAT_END
  1
CELLSTYLE_BEGIN
 90
        1
 91
        1
300
_TITLE
309
CELLSTYLE_END
300
CELLSTYLE
  1
TABLEFORMAT_BEGIN
 90
        5
170
     1
 91
        0
 92
        0
 62
   257
 93
        1
300
CONTENTFORMAT
  1
CONTENTFORMAT_BEGIN
 90
        0
 91
        0
 92
      512
 93
        0
300

 40
0.0
140
1.0
 94
        5
 62
     0
340
55
144
0.18
309
CONTENTFORMAT_END
171
     0
 94
        0
309
TABLEFORMAT_END
  1
CELLSTYLE_BEGIN
 90
        2
 91
        1
300
_HEADER
309
CELLSTYLE_END
300
CELLSTYLE
  1
TABLEFORMAT_BEGIN
 90
        5
170
     1
 91
        0
 92
        0
 62
   257
 93
        1
300
CONTENTFORMAT
  1
CONTENTFORMAT_BEGIN
 90
        0
 91
        0
 92
      512
 93
        0
300

 40
0.0
140
1.0
 94
        2
 62
     0
340
55
144
0.18
309
CONTENTFORMAT_END
171
     0
 94
        0
309
TABLEFORMAT_END
  1
CELLSTYLE_BEGIN
 90
        3
 91
        2
300
_DATA
309
CELLSTYLE_END
  0
XRECORD
  5
126
102
{ACAD_REACTORS
330
125
102
}
330
125
100
AcDbXrecord
280
     1
102
RTVSPost2010Prop28
280
     1
102
RTVSPost2010PropOp28
 70
     1
102
RTVSPost2010Prop29
280
     1
102
RTVSPost2010PropOp29
 70
     1
102
RTVSPost2010Prop30
280
     0
102
RTVSPost2010PropOp30
 70
     1
102
RTVSPost2010Prop31
280
     0
102
RTVSPost2010PropOp31
 70
     1
102
RTVSPost2010Prop32
280
     0
102
RTVSPost2010PropOp32
 70
     1
102
RTVSPost2010Prop33
280
     0
102
RTVSPost2010PropOp33
 70
     1
102
RTVSPost2010Prop34
280
     0
102
RTVSPost2010PropOp34
 70
     1
102
RTVSPost2010Prop35
280
     0
102
RTVSPost2010PropOp35
 70
     1
102
RTVSPost2010Prop36
280
     0
102
RTVSPost2010PropOp36
 70
     1
102
RTVSPost2010Prop37
 90
       50
102
RTVSPost2010PropOp37
 70
     1
102
RTVSPost2010Prop38
140
0.0
102
RTVSPost2010PropOp38
 70
     1
102
RTVSPost2010Prop39
140
1.0
102
RTVSPost2010PropOp39
 70
     1
102
RTVSPost2010Prop40
 90
        0
102
RTVSPost2010PropOp40
 70
     1
102
RTVSPost2010Prop41ColorIndex
 90
       18
102
RTVSPost2010Prop41ColorRGB
 90
        0
102
RTVSPost2010PropOp41
 70
     1
102
RTVSPost2010Prop42
 90
       50
102
RTVSPost2010PropOp42
 70
     1
102
RTVSPost2010Prop43
 90
        3
102
RTVSPost2010PropOp43
 70
     1
102
RTVSPost2010Prop44ColorIndex
 90
        5
102
RTVSPost2010Prop44ColorRGB
 90
      255
102
RTVSPost2010PropOp44
 70
     1
102
RTVSPost2010Prop45
280
     0
102
RTVSPost2010PropOp45
 70
     1
102
RTVSPost2010Prop46
 90
       50
102
RTVSPost2010PropOp46
 70
     1
102
RTVSPost2010Prop47
 90
       50
102
RTVSPost2010PropOp47
 70
     1
102
RTVSPost2010Prop48
 90
       50
102
RTVSPost2010PropOp48
 70
     1
102
RTVSPost2010Prop49
280
     0
102
RTVSPost2010PropOp49
 70
     1
102
RTVSPost2010Prop50
 90
       50
102
RTVSPost2010PropOp50
 70
     1
102
RTVSPost2010Prop51ColorIndex
 90
      256
102
RTVSPost2010Prop51ColorRGB
 90
-16777216
102
RTVSPost2010PropOp51
 70
     0
102
RTVSPost2010Prop52
140
1.0
102
RTVSPost2010PropOp52
 70
     0
102
RTVSPost2010Prop53
 90
        2
102
RTVSPost2010PropOp53
 70
     1
102
RTVSPost2010Prop54
  1
strokes_ogs.tif
102
RTVSPost2010PropOp54
 70
     1
102
RTVSPost2010Prop55
280
     0
102
RTVSPost2010PropOp55
 70
     1
102
RTVSPost2010Prop56
140
1.0
102
RTVSPost2010PropOp56
 70
     1
102
RTVSPost2010Prop57
140
1.0
102
RTVSPost2010PropOp57
 70
     1
  0
XRECORD
  5
124
102
{ACAD_REACTORS
330
123
102
}
330
123
100
AcDbXrecord
280
     1
102
RTVSPost2010Prop28
280
     0
102
RTVSPost2010PropOp28
 70
     1
102
RTVSPost2010Prop29
280
     1
102
RTVSPost2010PropOp29
 70
     1
102
RTVSPost2010Prop30
280
     1
102
RTVSPost2010PropOp30
 70
     1
102
RTVSPost2010Prop31
280
     0
102
RTVSPost2010PropOp31
 70
     1
102
RTVSPost2010Prop32
280
     0
102
RTVSPost2010PropOp32
 70
     1
102
RTVSPost2010Prop33
280
     0
102
RTVSPost2010PropOp33
 70
     1
102
RTVSPost2010Prop34
280
     0
102
RTVSPost2010PropOp34
 70
     1
102
RTVSPost2010Prop35
280
     0
102
RTVSPost2010PropOp35
 70
     1
102
RTVSPost2010Prop36
280
     0
102
RTVSPost2010PropOp36
 70
     1
102
RTVSPost2010Prop37
 90
       50
102
RTVSPost2010PropOp37
 70
     1
102
RTVSPost2010Prop38
140
0.0
102
RTVSPost2010PropOp38
 70
     1
102
RTVSPost2010Prop39
140
1.0
102
RTVSPost2010PropOp39
 70
     1
102
RTVSPost2010Prop40
 90
        0
102
RTVSPost2010PropOp40
 70
     1
102
RTVSPost2010Prop41ColorIndex
 90
       18
102
RTVSPost2010Prop41ColorRGB
 90
        0
102
RTVSPost2010PropOp41
 70
     1
102
RTVSPost2010Prop42
 90
       50
102
RTVSPost2010PropOp42
 70
     1
102
RTVSPost2010Prop43
 90
        3
102
RTVSPost2010PropOp43
 70
     1
102
RTVSPost2010Prop44ColorIndex
 90
        5
102
RTVSPost2010Prop44ColorRGB
 90
      255
102
RTVSPost2010PropOp44
 70
     1
102
RTVSPost2010Prop45
280
     0
102
RTVSPost2010PropOp45
 70
     1
102
RTVSPost2010Prop46
 90
       50
102
RTVSPost2010PropOp46
 70
     1
102
RTVSPost2010Prop47
 90
       50
102
RTVSPost2010PropOp47
 70
     1
102
RTVSPost2010Prop48
 90
       50
102
RTVSPost2010PropOp48
 70
     1
102
RTVSPost2010Prop49
280
     0
102
RTVSPost2010PropOp49
 70
     1
102
RTVSPost2010Prop50
 90
       50
102
RTVSPost2010PropOp50
 70
     1
102
RTVSPost2010Prop51ColorIndex
 90
      256
102
RTVSPost2010Prop51ColorRGB
 90
-16777216
102
RTVSPost2010PropOp51
 70
     0
102
RTVSPost2010Prop52
140
1.0
102
RTVSPost2010PropOp52
 70
     0
102
RTVSPost2010Prop53
 90
        2
102
RTVSPost2010PropOp53
 70
     1
102
RTVSPost2010Prop54
  1
strokes_ogs.tif
102
RTVSPost2010PropOp54
 70
     1
102
RTVSPost2010Prop55
280
     0
102
RTVSPost2010PropOp55
 70
     1
102
RTVSPost2010Prop56
140
1.0
102
RTVSPost2010PropOp56
 70
     1
102
RTVSPost2010Prop57
140
1.0
102
RTVSPost2010PropOp57
 70
     1
  0
XRECORD
  5
132
102
{ACAD_REACTORS
330
131
102
}
330
131
100
AcDbXrecord
280
     1
102
RTVSPost2010Prop28
280
     0
102
RTVSPost2010PropOp28
 70
     1
102
RTVSPost2010Prop29
280
     1
102
RTVSPost2010PropOp29
 70
     1
102
RTVSPost2010Prop30
280
     1
102
RTVSPost2010PropOp30
 70
     1
102
RTVSPost2010Prop31
280
     0
102
RTVSPost2010PropOp31
 70
     1
102
RTVSPost2010Prop32
280
     0
102
RTVSPost2010PropOp32
 70
     1
102
RTVSPost2010Prop33
280
     0
102
RTVSPost2010PropOp33
 70
     1
102
RTVSPost2010Prop34
280
     0
102
RTVSPost2010PropOp34
 70
     1
102
RTVSPost2010Prop35
280
     0
102
RTVSPost2010PropOp35
 70
     1
102
RTVSPost2010Prop36
280
     0
102
RTVSPost2010PropOp36
 70
     1
102
RTVSPost2010Prop37
 90
       50
102
RTVSPost2010PropOp37
 70
     1
102
RTVSPost2010Prop38
140
0.0
102
RTVSPost2010PropOp38
 70
     1
102
RTVSPost2010Prop39
140
1.0
102
RTVSPost2010PropOp39
 70
     1
102
RTVSPost2010Prop40
 90
        0
102
RTVSPost2010PropOp40
 70
     1
102
RTVSPost2010Prop41ColorIndex
 90
       18
102
RTVSPost2010Prop41ColorRGB
 90
        0
102
RTVSPost2010PropOp41
 70
     1
102
RTVSPost2010Prop42
 90
       50
102
RTVSPost2010PropOp42
 70
     1
102
RTVSPost2010Prop43
 90
        3
102
RTVSPost2010PropOp43
 70
     1
102
RTVSPost2010Prop44ColorIndex
 90
        5
102
RTVSPost2010Prop44ColorRGB
 90
      255
102
RTVSPost2010PropOp44
 70
     1
102
RTVSPost2010Prop45
280
     0
102
RTVSPost2010PropOp45
 70
     1
102
RTVSPost2010Prop46
 90
       50
102
RTVSPost2010PropOp46
 70
     1
102
RTVSPost2010Prop47
 90
       50
102
RTVSPost2010PropOp47
 70
     1
102
RTVSPost2010Prop48
 90
       50
102
RTVSPost2010PropOp48
 70
     1
102
RTVSPost2010Prop49
280
     0
102
RTVSPost2010PropOp49
 70
     1
102
RTVSPost2010Prop50
 90
       50
102
RTVSPost2010PropOp50
 70
     1
102
RTVSPost2010Prop51ColorIndex
 90
      256
102
RTVSPost2010Prop51ColorRGB
 90
-16777216
102
RTVSPost2010PropOp51
 70
     0
102
RTVSPost2010Prop52
140
1.0
102
RTVSPost2010PropOp52
 70
     0
102
RTVSPost2010Prop53
 90
        2
102
RTVSPost2010PropOp53
 70
     1
102
RTVSPost2010Prop54
  1
strokes_ogs.tif
102
RTVSPost2010PropOp54
 70
     1
102
RTVSPost2010Prop55
280
     0
102
RTVSPost2010PropOp55
 70
     1
102
RTVSPost2010Prop56
140
1.0
102
RTVSPost2010PropOp56
 70
     1
102
RTVSPost2010Prop57
140
1.0
102
RTVSPost2010PropOp57
 70
     1
  0
XRECORD
  5
13A
102
{ACAD_REACTORS
330
139
102
}
330
139
100
AcDbXrecord
280
     1
102
RTVSPost2010Prop28
280
     0
102
RTVSPost2010PropOp28
 70
     1
102
RTVSPost2010Prop29
280
     1
102
RTVSPost2010PropOp29
 70
     1
102
RTVSPost2010Prop30
280
     1
102
RTVSPost2010PropOp30
 70
     1
102
RTVSPost2010Prop31
280
     0
102
RTVSPost2010PropOp31
 70
     1
102
RTVSPost2010Prop32
280
     0
102
RTVSPost2010PropOp32
 70
     1
102
RTVSPost2010Prop33
280
     0
102
RTVSPost2010PropOp33
 70
     1
102
RTVSPost2010Prop34
280
     0
102
RTVSPost2010PropOp34
 70
     1
102
RTVSPost2010Prop35
280
     0
102
RTVSPost2010PropOp35
 70
     1
102
RTVSPost2010Prop36
280
     0
102
RTVSPost2010PropOp36
 70
     1
102
RTVSPost2010Prop37
 90
       50
102
RTVSPost2010PropOp37
 70
     1
102
RTVSPost2010Prop38
140
0.0
102
RTVSPost2010PropOp38
 70
     1
102
RTVSPost2010Prop39
140
1.0
102
RTVSPost2010PropOp39
 70
     1
102
RTVSPost2010Prop40
 90
        0
102
RTVSPost2010PropOp40
 70
     1
102
RTVSPost2010Prop41ColorIndex
 90
       18
102
RTVSPost2010Prop41ColorRGB
 90
        0
102
RTVSPost2010PropOp41
 70
     1
102
RTVSPost2010Prop42
 90
       50
102
RTVSPost2010PropOp42
 70
     1
102
RTVSPost2010Prop43
 90
        3
102
RTVSPost2010PropOp43
 70
     1
102
RTVSPost2010Prop44ColorIndex
 90
        5
102
RTVSPost2010Prop44ColorRGB
 90
      255
102
RTVSPost2010PropOp44
 70
     1
102
RTVSPost2010Prop45
280
     0
102
RTVSPost2010PropOp45
 70
     1
102
RTVSPost2010Prop46
 90
       50
102
RTVSPost2010PropOp46
 70
     1
102
RTVSPost2010Prop47
 90
       50
102
RTVSPost2010PropOp47
 70
     1
102
RTVSPost2010Prop48
 90
       50
102
RTVSPost2010PropOp48
 70
     1
102
RTVSPost2010Prop49
280
     0
102
RTVSPost2010PropOp49
 70
     1
102
RTVSPost2010Prop50
 90
       50
102
RTVSPost2010PropOp50
 70
     1
102
RTVSPost2010Prop51ColorIndex
 90
      256
102
RTVSPost2010Prop51ColorRGB
 90
-16777216
102
RTVSPost2010PropOp51
 70
     0
102
RTVSPost2010Prop52
140
1.0
102
RTVSPost2010PropOp52
 70
     0
102
RTVSPost2010Prop53
 90
        2
102
RTVSPost2010PropOp53
 70
     1
102
RTVSPost2010Prop54
  1
strokes_ogs.tif
102
RTVSPost2010PropOp54
 70
     1
102
RTVSPost2010Prop55
280
     0
102
RTVSPost2010PropOp55
 70
     1
102
RTVSPost2010Prop56
140
1.0
102
RTVSPost2010PropOp56
 70
     1
102
RTVSPost2010Prop57
140
1.0
102
RTVSPost2010PropOp57
 70
     1
  0
XRECORD
  5
12C
102
{ACAD_REACTORS
330
12B
102
}
330
12B
100
AcDbXrecord
280
     1
102
RTVSPost2010Prop28
280
     0
102
RTVSPost2010PropOp28
 70
     1
102
RTVSPost2010Prop29
280
     1
102
RTVSPost2010PropOp29
 70
     1
102
RTVSPost2010Prop30
280
     1
102
RTVSPost2010PropOp30
 70
     1
102
RTVSPost2010Prop31
280
     0
102
RTVSPost2010PropOp31
 70
     1
102
RTVSPost2010Prop32
280
     0
102
RTVSPost2010PropOp32
 70
     1
102
RTVSPost2010Prop33
280
     0
102
RTVSPost2010PropOp33
 70
     1
102
RTVSPost2010Prop34
280
     0
102
RTVSPost2010PropOp34
 70
     1
102
RTVSPost2010Prop35
280
     0
102
RTVSPost2010PropOp35
 70
     1
102
RTVSPost2010Prop36
280
     0
102
RTVSPost2010PropOp36
 70
     1
102
RTVSPost2010Prop37
 90
       50
102
RTVSPost2010PropOp37
 70
     1
102
RTVSPost2010Prop38
140
0.0
102
RTVSPost2010PropOp38
 70
     1
102
RTVSPost2010Prop39
140
1.0
102
RTVSPost2010PropOp39
 70
     1
102
RTVSPost2010Prop40
 90
        0
102
RTVSPost2010PropOp40
 70
     1
102
RTVSPost2010Prop41ColorIndex
 90
       18
102
RTVSPost2010Prop41ColorRGB
 90
        0
102
RTVSPost2010PropOp41
 70
     1
102
RTVSPost2010Prop42
 90
       50
102
RTVSPost2010PropOp42
 70
     1
102
RTVSPost2010Prop43
 90
        3
102
RTVSPost2010PropOp43
 70
     1
102
RTVSPost2010Prop44ColorIndex
 90
        5
102
RTVSPost2010Prop44ColorRGB
 90
      255
102
RTVSPost2010PropOp44
 70
     1
102
RTVSPost2010Prop45
280
     0
102
RTVSPost2010PropOp45
 70
     1
102
RTVSPost2010Prop46
 90
       50
102
RTVSPost2010PropOp46
 70
     1
102
RTVSPost2010Prop47
 90
       50
102
RTVSPost2010PropOp47
 70
     1
102
RTVSPost2010Prop48
 90
       50
102
RTVSPost2010PropOp48
 70
     1
102
RTVSPost2010Prop49
280
     0
102
RTVSPost2010PropOp49
 70
     1
102
RTVSPost2010Prop50
 90
       50
102
RTVSPost2010PropOp50
 70
     1
102
RTVSPost2010Prop51ColorIndex
 90
      256
102
RTVSPost2010Prop51ColorRGB
 90
-16777216
102
RTVSPost2010PropOp51
 70
     0
102
RTVSPost2010Prop52
140
1.0
102
RTVSPost2010PropOp52
 70
     0
102
RTVSPost2010Prop53
 90
        2
102
RTVSPost2010PropOp53
 70
     1
102
RTVSPost2010Prop54
  1
strokes_ogs.tif
102
RTVSPost2010PropOp54
 70
     1
102
RTVSPost2010Prop55
280
     0
102
RTVSPost2010PropOp55
 70
     1
102
RTVSPost2010Prop56
140
1.0
102
RTVSPost2010PropOp56
 70
     1
102
RTVSPost2010Prop57
140
1.0
102
RTVSPost2010PropOp57
 70
     1
  0
XRECORD
  5
130
102
{ACAD_REACTORS
330
12F
102
}
330
12F
100
AcDbXrecord
280
     1
102
RTVSPost2010Prop28
280
     0
102
RTVSPost2010PropOp28
 70
     1
102
RTVSPost2010Prop29
280
     1
102
RTVSPost2010PropOp29
 70
     1
102
RTVSPost2010Prop30
280
     1
102
RTVSPost2010PropOp30
 70
     1
102
RTVSPost2010Prop31
280
     0
102
RTVSPost2010PropOp31
 70
     1
102
RTVSPost2010Prop32
280
     0
102
RTVSPost2010PropOp32
 70
     1
102
RTVSPost2010Prop33
280
     0
102
RTVSPost2010PropOp33
 70
     1
102
RTVSPost2010Prop34
280
     0
102
RTVSPost2010PropOp34
 70
     1
102
RTVSPost2010Prop35
280
     0
102
RTVSPost2010PropOp35
 70
     1
102
RTVSPost2010Prop36
280
     0
102
RTVSPost2010PropOp36
 70
     1
102
RTVSPost2010Prop37
 90
       50
102
RTVSPost2010PropOp37
 70
     1
102
RTVSPost2010Prop38
140
0.0
102
RTVSPost2010PropOp38
 70
     1
102
RTVSPost2010Prop39
140
1.0
102
RTVSPost2010PropOp39
 70
     1
102
RTVSPost2010Prop40
 90
        0
102
RTVSPost2010PropOp40
 70
     1
102
RTVSPost2010Prop41ColorIndex
 90
       18
102
RTVSPost2010Prop41ColorRGB
 90
        0
102
RTVSPost2010PropOp41
 70
     1
102
RTVSPost2010Prop42
 90
       50
102
RTVSPost2010PropOp42
 70
     1
102
RTVSPost2010Prop43
 90
        3
102
RTVSPost2010PropOp43
 70
     1
102
RTVSPost2010Prop44ColorIndex
 90
        5
102
RTVSPost2010Prop44ColorRGB
 90
      255
102
RTVSPost2010PropOp44
 70
     1
102
RTVSPost2010Prop45
280
     0
102
RTVSPost2010PropOp45
 70
     1
102
RTVSPost2010Prop46
 90
       50
102
RTVSPost2010PropOp46
 70
     1
102
RTVSPost2010Prop47
 90
       50
102
RTVSPost2010PropOp47
 70
     1
102
RTVSPost2010Prop48
 90
       50
102
RTVSPost2010PropOp48
 70
     1
102
RTVSPost2010Prop49
280
     0
102
RTVSPost2010PropOp49
 70
     1
102
RTVSPost2010Prop50
 90
       50
102
RTVSPost2010PropOp50
 70
     1
102
RTVSPost2010Prop51ColorIndex
 90
      256
102
RTVSPost2010Prop51ColorRGB
 90
-16777216
102
RTVSPost2010PropOp51
 70
     0
102
RTVSPost2010Prop52
140
1.0
102
RTVSPost2010PropOp52
 70
     0
102
RTVSPost2010Prop53
 90
        2
102
RTVSPost2010PropOp53
 70
     1
102
RTVSPost2010Prop54
  1
strokes_ogs.tif
102
RTVSPost2010PropOp54
 70
     1
102
RTVSPost2010Prop55
280
     0
102
RTVSPost2010PropOp55
 70
     1
102
RTVSPost2010Prop56
140
1.0
102
RTVSPost2010PropOp56
 70
     1
102
RTVSPost2010Prop57
140
1.0
102
RTVSPost2010PropOp57
 70
     1
  0
XRECORD
  5
14A
102
{ACAD_REACTORS
330
149
102
}
330
149
100
AcDbXrecord
280
     1
102
RTVSPost2010Prop28
280
     0
102
RTVSPost2010PropOp28
 70
     0
102
RTVSPost2010Prop29
280
     1
102
RTVSPost2010PropOp29
 70
     0
102
RTVSPost2010Prop30
280
     1
102
RTVSPost2010PropOp30
 70
     0
102
RTVSPost2010Prop31
280
     0
102
RTVSPost2010PropOp31
 70
     0
102
RTVSPost2010Prop32
280
     0
102
RTVSPost2010PropOp32
 70
     0
102
RTVSPost2010Prop33
280
     0
102
RTVSPost2010PropOp33
 70
     0
102
RTVSPost2010Prop34
280
     0
102
RTVSPost2010PropOp34
 70
     0
102
RTVSPost2010Prop35
280
     0
102
RTVSPost2010PropOp35
 70
     0
102
RTVSPost2010Prop36
280
     0
102
RTVSPost2010PropOp36
 70
     0
102
RTVSPost2010Prop37
 90
       50
102
RTVSPost2010PropOp37
 70
     0
102
RTVSPost2010Prop38
140
0.0
102
RTVSPost2010PropOp38
 70
     0
102
RTVSPost2010Prop39
140
1.0
102
RTVSPost2010PropOp39
 70
     0
102
RTVSPost2010Prop40
 90
        0
102
RTVSPost2010PropOp40
 70
     0
102
RTVSPost2010Prop41ColorIndex
 90
       18
102
RTVSPost2010Prop41ColorRGB
 90
        0
102
RTVSPost2010PropOp41
 70
     0
102
RTVSPost2010Prop42
 90
       50
102
RTVSPost2010PropOp42
 70
     0
102
RTVSPost2010Prop43
 90
        3
102
RTVSPost2010PropOp43
 70
     0
102
RTVSPost2010Prop44ColorIndex
 90
        5
102
RTVSPost2010Prop44ColorRGB
 90
      255
102
RTVSPost2010PropOp44
 70
     0
102
RTVSPost2010Prop45
280
     0
102
RTVSPost2010PropOp45
 70
     0
102
RTVSPost2010Prop46
 90
       50
102
RTVSPost2010PropOp46
 70
     0
102
RTVSPost2010Prop47
 90
       50
102
RTVSPost2010PropOp47
 70
     0
102
RTVSPost2010Prop48
 90
       50
102
RTVSPost2010PropOp48
 70
     0
102
RTVSPost2010Prop49
280
     0
102
RTVSPost2010PropOp49
 70
     0
102
RTVSPost2010Prop50
 90
       50
102
RTVSPost2010PropOp50
 70
     0
102
RTVSPost2010Prop51ColorIndex
 90
      256
102
RTVSPost2010Prop51ColorRGB
 90
-16777216
102
RTVSPost2010PropOp51
 70
     0
102
RTVSPost2010Prop52
140
1.0
102
RTVSPost2010PropOp52
 70
     0
102
RTVSPost2010Prop53
 90
        2
102
RTVSPost2010PropOp53
 70
     0
102
RTVSPost2010Prop54
  1
strokes_ogs.tif
102
RTVSPost2010PropOp54
 70
     0
102
RTVSPost2010Prop55
280
     0
102
RTVSPost2010PropOp55
 70
     0
102
RTVSPost2010Prop56
140
1.0
102
RTVSPost2010PropOp56
 70
     0
102
RTVSPost2010Prop57
140
1.0
102
RTVSPost2010PropOp57
 70
     0
  0
XRECORD
  5
138
102
{ACAD_REACTORS
330
137
102
}
330
137
100
AcDbXrecord
280
     1
102
RTVSPost2010Prop28
280
     0
102
RTVSPost2010PropOp28
 70
     1
102
RTVSPost2010Prop29
280
     1
102
RTVSPost2010PropOp29
 70
     1
102
RTVSPost2010Prop30
280
     1
102
RTVSPost2010PropOp30
 70
     1
102
RTVSPost2010Prop31
280
     0
102
RTVSPost2010PropOp31
 70
     1
102
RTVSPost2010Prop32
280
     0
102
RTVSPost2010PropOp32
 70
     1
102
RTVSPost2010Prop33
280
     0
102
RTVSPost2010PropOp33
 70
     1
102
RTVSPost2010Prop34
280
     0
102
RTVSPost2010PropOp34
 70
     1
102
RTVSPost2010Prop35
280
     0
102
RTVSPost2010PropOp35
 70
     1
102
RTVSPost2010Prop36
280
     0
102
RTVSPost2010PropOp36
 70
     1
102
RTVSPost2010Prop37
 90
       50
102
RTVSPost2010PropOp37
 70
     1
102
RTVSPost2010Prop38
140
0.0
102
RTVSPost2010PropOp38
 70
     1
102
RTVSPost2010Prop39
140
1.0
102
RTVSPost2010PropOp39
 70
     1
102
RTVSPost2010Prop40
 90
        0
102
RTVSPost2010PropOp40
 70
     1
102
RTVSPost2010Prop41ColorIndex
 90
       18
102
RTVSPost2010Prop41ColorRGB
 90
        0
102
RTVSPost2010PropOp41
 70
     1
102
RTVSPost2010Prop42
 90
       50
102
RTVSPost2010PropOp42
 70
     1
102
RTVSPost2010Prop43
 90
        3
102
RTVSPost2010PropOp43
 70
     1
102
RTVSPost2010Prop44ColorIndex
 90
        5
102
RTVSPost2010Prop44ColorRGB
 90
      255
102
RTVSPost2010PropOp44
 70
     1
102
RTVSPost2010Prop45
280
     0
102
RTVSPost2010PropOp45
 70
     1
102
RTVSPost2010Prop46
 90
       50
102
RTVSPost2010PropOp46
 70
     1
102
RTVSPost2010Prop47
 90
       50
102
RTVSPost2010PropOp47
 70
     1
102
RTVSPost2010Prop48
 90
       50
102
RTVSPost2010PropOp48
 70
     1
102
RTVSPost2010Prop49
280
     0
102
RTVSPost2010PropOp49
 70
     1
102
RTVSPost2010Prop50
 90
       50
102
RTVSPost2010PropOp50
 70
     1
102
RTVSPost2010Prop51ColorIndex
 90
      256
102
RTVSPost2010Prop51ColorRGB
 90
-16777216
102
RTVSPost2010PropOp51
 70
     0
102
RTVSPost2010Prop52
140
1.0
102
RTVSPost2010PropOp52
 70
     0
102
RTVSPost2010Prop53
 90
        2
102
RTVSPost2010PropOp53
 70
     1
102
RTVSPost2010Prop54
  1
strokes_ogs.tif
102
RTVSPost2010PropOp54
 70
     1
102
RTVSPost2010Prop55
280
     0
102
RTVSPost2010PropOp55
 70
     1
102
RTVSPost2010Prop56
140
1.0
102
RTVSPost2010PropOp56
 70
     1
102
RTVSPost2010Prop57
140
1.0
102
RTVSPost2010PropOp57
 70
     1
  0
XRECORD
  5
11C
102
{ACAD_REACTORS
330
11B
102
}
330
11B
100
AcDbXrecord
280
     1
102
RTVSPost2010Prop28
280
     0
102
RTVSPost2010PropOp28
 70
     1
102
RTVSPost2010Prop29
280
     1
102
RTVSPost2010PropOp29
 70
     1
102
RTVSPost2010Prop30
280
     1
102
RTVSPost2010PropOp30
 70
     1
102
RTVSPost2010Prop31
280
     0
102
RTVSPost2010PropOp31
 70
     1
102
RTVSPost2010Prop32
280
     0
102
RTVSPost2010PropOp32
 70
     1
102
RTVSPost2010Prop33
280
     0
102
RTVSPost2010PropOp33
 70
     1
102
RTVSPost2010Prop34
280
     0
102
RTVSPost2010PropOp34
 70
     1
102
RTVSPost2010Prop35
280
     0
102
RTVSPost2010PropOp35
 70
     1
102
RTVSPost2010Prop36
280
     0
102
RTVSPost2010PropOp36
 70
     1
102
RTVSPost2010Prop37
 90
       50
102
RTVSPost2010PropOp37
 70
     1
102
RTVSPost2010Prop38
140
0.0
102
RTVSPost2010PropOp38
 70
     1
102
RTVSPost2010Prop39
140
1.0
102
RTVSPost2010PropOp39
 70
     1
102
RTVSPost2010Prop40
 90
        0
102
RTVSPost2010PropOp40
 70
     1
102
RTVSPost2010Prop41ColorIndex
 90
       18
102
RTVSPost2010Prop41ColorRGB
 90
        0
102
RTVSPost2010PropOp41
 70
     1
102
RTVSPost2010Prop42
 90
       50
102
RTVSPost2010PropOp42
 70
     1
102
RTVSPost2010Prop43
 90
        3
102
RTVSPost2010PropOp43
 70
     1
102
RTVSPost2010Prop44ColorIndex
 90
        5
102
RTVSPost2010Prop44ColorRGB
 90
      255
102
RTVSPost2010PropOp44
 70
     1
102
RTVSPost2010Prop45
280
     0
102
RTVSPost2010PropOp45
 70
     1
102
RTVSPost2010Prop46
 90
       50
102
RTVSPost2010PropOp46
 70
     1
102
RTVSPost2010Prop47
 90
       50
102
RTVSPost2010PropOp47
 70
     1
102
RTVSPost2010Prop48
 90
       50
102
RTVSPost2010PropOp48
 70
     1
102
RTVSPost2010Prop49
280
     0
102
RTVSPost2010PropOp49
 70
     1
102
RTVSPost2010Prop50
 90
       50
102
RTVSPost2010PropOp50
 70
     1
102
RTVSPost2010Prop51ColorIndex
 90
      256
102
RTVSPost2010Prop51ColorRGB
 90
-16777216
102
RTVSPost2010PropOp51
 70
     0
102
RTVSPost2010Prop52
140
1.0
102
RTVSPost2010PropOp52
 70
     0
102
RTVSPost2010Prop53
 90
        2
102
RTVSPost2010PropOp53
 70
     1
102
RTVSPost2010Prop54
  1
strokes_ogs.tif
102
RTVSPost2010PropOp54
 70
     1
102
RTVSPost2010Prop55
280
     0
102
RTVSPost2010PropOp55
 70
     1
102
RTVSPost2010Prop56
140
1.0
102
RTVSPost2010PropOp56
 70
     1
102
RTVSPost2010Prop57
140
1.0
102
RTVSPost2010PropOp57
 70
     1
  0
XRECORD
  5
11E
102
{ACAD_REACTORS
330
11D
102
}
330
11D
100
AcDbXrecord
280
     1
102
RTVSPost2010Prop28
280
     0
102
RTVSPost2010PropOp28
 70
     1
102
RTVSPost2010Prop29
280
     1
102
RTVSPost2010PropOp29
 70
     1
102
RTVSPost2010Prop30
280
     1
102
RTVSPost2010PropOp30
 70
     1
102
RTVSPost2010Prop31
280
     0
102
RTVSPost2010PropOp31
 70
     1
102
RTVSPost2010Prop32
280
     0
102
RTVSPost2010PropOp32
 70
     1
102
RTVSPost2010Prop33
280
     0
102
RTVSPost2010PropOp33
 70
     1
102
RTVSPost2010Prop34
280
     0
102
RTVSPost2010PropOp34
 70
     1
102
RTVSPost2010Prop35
280
     0
102
RTVSPost2010PropOp35
 70
     1
102
RTVSPost2010Prop36
280
     0
102
RTVSPost2010PropOp36
 70
     1
102
RTVSPost2010Prop37
 90
       50
102
RTVSPost2010PropOp37
 70
     1
102
RTVSPost2010Prop38
140
0.0
102
RTVSPost2010PropOp38
 70
     1
102
RTVSPost2010Prop39
140
1.0
102
RTVSPost2010PropOp39
 70
     1
102
RTVSPost2010Prop40
 90
        0
102
RTVSPost2010PropOp40
 70
     1
102
RTVSPost2010Prop41ColorIndex
 90
       18
102
RTVSPost2010Prop41ColorRGB
 90
        0
102
RTVSPost2010PropOp41
 70
     1
102
RTVSPost2010Prop42
 90
       50
102
RTVSPost2010PropOp42
 70
     1
102
RTVSPost2010Prop43
 90
        3
102
RTVSPost2010PropOp43
 70
     1
102
RTVSPost2010Prop44ColorIndex
 90
        5
102
RTVSPost2010Prop44ColorRGB
 90
      255
102
RTVSPost2010PropOp44
 70
     1
102
RTVSPost2010Prop45
280
     0
102
RTVSPost2010PropOp45
 70
     1
102
RTVSPost2010Prop46
 90
       50
102
RTVSPost2010PropOp46
 70
     1
102
RTVSPost2010Prop47
 90
       50
102
RTVSPost2010PropOp47
 70
     1
102
RTVSPost2010Prop48
 90
       50
102
RTVSPost2010PropOp48
 70
     1
102
RTVSPost2010Prop49
280
     0
102
RTVSPost2010PropOp49
 70
     1
102
RTVSPost2010Prop50
 90
       50
102
RTVSPost2010PropOp50
 70
     1
102
RTVSPost2010Prop51ColorIndex
 90
      256
102
RTVSPost2010Prop51ColorRGB
 90
-16777216
102
RTVSPost2010PropOp51
 70
     0
102
RTVSPost2010Prop52
140
1.0
102
RTVSPost2010PropOp52
 70
     0
102
RTVSPost2010Prop53
 90
        2
102
RTVSPost2010PropOp53
 70
     1
102
RTVSPost2010Prop54
  1
strokes_ogs.tif
102
RTVSPost2010PropOp54
 70
     1
102
RTVSPost2010Prop55
280
     0
102
RTVSPost2010PropOp55
 70
     1
102
RTVSPost2010Prop56
140
1.0
102
RTVSPost2010PropOp56
 70
     1
102
RTVSPost2010Prop57
140
1.0
102
RTVSPost2010PropOp57
 70
     1
  0
XRECORD
  5
120
102
{ACAD_REACTORS
330
11F
102
}
330
11F
100
AcDbXrecord
280
     1
102
RTVSPost2010Prop28
280
     0
102
RTVSPost2010PropOp28
 70
     1
102
RTVSPost2010Prop29
280
     1
102
RTVSPost2010PropOp29
 70
     1
102
RTVSPost2010Prop30
280
     1
102
RTVSPost2010PropOp30
 70
     1
102
RTVSPost2010Prop31
280
     0
102
RTVSPost2010PropOp31
 70
     1
102
RTVSPost2010Prop32
280
     0
102
RTVSPost2010PropOp32
 70
     1
102
RTVSPost2010Prop33
280
     0
102
RTVSPost2010PropOp33
 70
     1
102
RTVSPost2010Prop34
280
     0
102
RTVSPost2010PropOp34
 70
     1
102
RTVSPost2010Prop35
280
     0
102
RTVSPost2010PropOp35
 70
     1
102
RTVSPost2010Prop36
280
     0
102
RTVSPost2010PropOp36
 70
     1
102
RTVSPost2010Prop37
 90
       50
102
RTVSPost2010PropOp37
 70
     1
102
RTVSPost2010Prop38
140
0.0
102
RTVSPost2010PropOp38
 70
     1
102
RTVSPost2010Prop39
140
1.0
102
RTVSPost2010PropOp39
 70
     1
102
RTVSPost2010Prop40
 90
        0
102
RTVSPost2010PropOp40
 70
     1
102
RTVSPost2010Prop41ColorIndex
 90
       18
102
RTVSPost2010Prop41ColorRGB
 90
        0
102
RTVSPost2010PropOp41
 70
     1
102
RTVSPost2010Prop42
 90
       50
102
RTVSPost2010PropOp42
 70
     1
102
RTVSPost2010Prop43
 90
        3
102
RTVSPost2010PropOp43
 70
     1
102
RTVSPost2010Prop44ColorIndex
 90
        5
102
RTVSPost2010Prop44ColorRGB
 90
      255
102
RTVSPost2010PropOp44
 70
     1
102
RTVSPost2010Prop45
280
     0
102
RTVSPost2010PropOp45
 70
     1
102
RTVSPost2010Prop46
 90
       50
102
RTVSPost2010PropOp46
 70
     1
102
RTVSPost2010Prop47
 90
       50
102
RTVSPost2010PropOp47
 70
     1
102
RTVSPost2010Prop48
 90
       50
102
RTVSPost2010PropOp48
 70
     1
102
RTVSPost2010Prop49
280
     0
102
RTVSPost2010PropOp49
 70
     1
102
RTVSPost2010Prop50
 90
       50
102
RTVSPost2010PropOp50
 70
     1
102
RTVSPost2010Prop51ColorIndex
 90
      256
102
RTVSPost2010Prop51ColorRGB
 90
-16777216
102
RTVSPost2010PropOp51
 70
     0
102
RTVSPost2010Prop52
140
1.0
102
RTVSPost2010PropOp52
 70
     0
102
RTVSPost2010Prop53
 90
        2
102
RTVSPost2010PropOp53
 70
     1
102
RTVSPost2010Prop54
  1
strokes_ogs.tif
102
RTVSPost2010PropOp54
 70
     1
102
RTVSPost2010Prop55
280
     0
102
RTVSPost2010PropOp55
 70
     1
102
RTVSPost2010Prop56
140
1.0
102
RTVSPost2010PropOp56
 70
     1
102
RTVSPost2010Prop57
140
1.0
102
RTVSPost2010PropOp57
 70
     1
  0
XRECORD
  5
122
102
{ACAD_REACTORS
330
121
102
}
330
121
100
AcDbXrecord
280
     1
102
RTVSPost2010Prop28
280
     0
102
RTVSPost2010PropOp28
 70
     1
102
RTVSPost2010Prop29
280
     1
102
RTVSPost2010PropOp29
 70
     1
102
RTVSPost2010Prop30
280
     1
102
RTVSPost2010PropOp30
 70
     1
102
RTVSPost2010Prop31
280
     0
102
RTVSPost2010PropOp31
 70
     1
102
RTVSPost2010Prop32
280
     0
102
RTVSPost2010PropOp32
 70
     1
102
RTVSPost2010Prop33
280
     0
102
RTVSPost2010PropOp33
 70
     1
102
RTVSPost2010Prop34
280
     0
102
RTVSPost2010PropOp34
 70
     1
102
RTVSPost2010Prop35
280
     0
102
RTVSPost2010PropOp35
 70
     1
102
RTVSPost2010Prop36
280
     0
102
RTVSPost2010PropOp36
 70
     1
102
RTVSPost2010Prop37
 90
       50
102
RTVSPost2010PropOp37
 70
     1
102
RTVSPost2010Prop38
140
0.0
102
RTVSPost2010PropOp38
 70
     1
102
RTVSPost2010Prop39
140
1.0
102
RTVSPost2010PropOp39
 70
     1
102
RTVSPost2010Prop40
 90
        0
102
RTVSPost2010PropOp40
 70
     1
102
RTVSPost2010Prop41ColorIndex
 90
       18
102
RTVSPost2010Prop41ColorRGB
 90
        0
102
RTVSPost2010PropOp41
 70
     1
102
RTVSPost2010Prop42
 90
       50
102
RTVSPost2010PropOp42
 70
     1
102
RTVSPost2010Prop43
 90
        3
102
RTVSPost2010PropOp43
 70
     1
102
RTVSPost2010Prop44ColorIndex
 90
        5
102
RTVSPost2010Prop44ColorRGB
 90
      255
102
RTVSPost2010PropOp44
 70
     1
102
RTVSPost2010Prop45
280
     0
102
RTVSPost2010PropOp45
 70
     1
102
RTVSPost2010Prop46
 90
       50
102
RTVSPost2010PropOp46
 70
     1
102
RTVSPost2010Prop47
 90
       50
102
RTVSPost2010PropOp47
 70
     1
102
RTVSPost2010Prop48
 90
       50
102
RTVSPost2010PropOp48
 70
     1
102
RTVSPost2010Prop49
280
     0
102
RTVSPost2010PropOp49
 70
     1
102
RTVSPost2010Prop50
 90
       50
102
RTVSPost2010PropOp50
 70
     1
102
RTVSPost2010Prop51ColorIndex
 90
      256
102
RTVSPost2010Prop51ColorRGB
 90
-16777216
102
RTVSPost2010PropOp51
 70
     0
102
RTVSPost2010Prop52
140
1.0
102
RTVSPost2010PropOp52
 70
     0
102
RTVSPost2010Prop53
 90
        2
102
RTVSPost2010PropOp53
 70
     1
102
RTVSPost2010Prop54
  1
strokes_ogs.tif
102
RTVSPost2010PropOp54
 70
     1
102
RTVSPost2010Prop55
280
     0
102
RTVSPost2010PropOp55
 70
     1
102
RTVSPost2010Prop56
140
1.0
102
RTVSPost2010PropOp56
 70
     1
102
RTVSPost2010Prop57
140
1.0
102
RTVSPost2010PropOp57
 70
     1
  0
XRECORD
  5
12A
102
{ACAD_REACTORS
330
129
102
}
330
129
100
AcDbXrecord
280
     1
102
RTVSPost2010Prop28
280
     0
102
RTVSPost2010PropOp28
 70
     1
102
RTVSPost2010Prop29
280
     1
102
RTVSPost2010PropOp29
 70
     1
102
RTVSPost2010Prop30
280
     1
102
RTVSPost2010PropOp30
 70
     1
102
RTVSPost2010Prop31
280
     0
102
RTVSPost2010PropOp31
 70
     1
102
RTVSPost2010Prop32
280
     0
102
RTVSPost2010PropOp32
 70
     1
102
RTVSPost2010Prop33
280
     0
102
RTVSPost2010PropOp33
 70
     1
102
RTVSPost2010Prop34
280
     0
102
RTVSPost2010PropOp34
 70
     1
102
RTVSPost2010Prop35
280
     0
102
RTVSPost2010PropOp35
 70
     1
102
RTVSPost2010Prop36
280
     0
102
RTVSPost2010PropOp36
 70
     1
102
RTVSPost2010Prop37
 90
       50
102
RTVSPost2010PropOp37
 70
     1
102
RTVSPost2010Prop38
140
0.0
102
RTVSPost2010PropOp38
 70
     1
102
RTVSPost2010Prop39
140
1.0
102
RTVSPost2010PropOp39
 70
     1
102
RTVSPost2010Prop40
 90
        0
102
RTVSPost2010PropOp40
 70
     1
102
RTVSPost2010Prop41ColorIndex
 90
       18
102
RTVSPost2010Prop41ColorRGB
 90
        0
102
RTVSPost2010PropOp41
 70
     1
102
RTVSPost2010Prop42
 90
       50
102
RTVSPost2010PropOp42
 70
     1
102
RTVSPost2010Prop43
 90
        3
102
RTVSPost2010PropOp43
 70
     1
102
RTVSPost2010Prop44ColorIndex
 90
        5
102
RTVSPost2010Prop44ColorRGB
 90
      255
102
RTVSPost2010PropOp44
 70
     1
102
RTVSPost2010Prop45
280
     0
102
RTVSPost2010PropOp45
 70
     1
102
RTVSPost2010Prop46
 90
       50
102
RTVSPost2010PropOp46
 70
     1
102
RTVSPost2010Prop47
 90
       50
102
RTVSPost2010PropOp47
 70
     1
102
RTVSPost2010Prop48
 90
       50
102
RTVSPost2010PropOp48
 70
     1
102
RTVSPost2010Prop49
280
     0
102
RTVSPost2010PropOp49
 70
     1
102
RTVSPost2010Prop50
 90
       50
102
RTVSPost2010PropOp50
 70
     1
102
RTVSPost2010Prop51ColorIndex
 90
      256
102
RTVSPost2010Prop51ColorRGB
 90
-16777216
102
RTVSPost2010PropOp51
 70
     0
102
RTVSPost2010Prop52
140
1.0
102
RTVSPost2010PropOp52
 70
     0
102
RTVSPost2010Prop53
 90
        2
102
RTVSPost2010PropOp53
 70
     1
102
RTVSPost2010Prop54
  1
strokes_ogs.tif
102
RTVSPost2010PropOp54
 70
     1
102
RTVSPost2010Prop55
280
     0
102
RTVSPost2010PropOp55
 70
     1
102
RTVSPost2010Prop56
140
1.0
102
RTVSPost2010PropOp56
 70
     1
102
RTVSPost2010Prop57
140
1.0
102
RTVSPost2010PropOp57
 70
     1
  0
XRECORD
  5
146
102
{ACAD_REACTORS
330
145
102
}
330
145
100
AcDbXrecord
280
     1
102
RTVSPost2010Prop28
280
     0
102
RTVSPost2010PropOp28
 70
     0
102
RTVSPost2010Prop29
280
     1
102
RTVSPost2010PropOp29
 70
     0
102
RTVSPost2010Prop30
280
     1
102
RTVSPost2010PropOp30
 70
     0
102
RTVSPost2010Prop31
280
     0
102
RTVSPost2010PropOp31
 70
     0
102
RTVSPost2010Prop32
280
     0
102
RTVSPost2010PropOp32
 70
     0
102
RTVSPost2010Prop33
280
     0
102
RTVSPost2010PropOp33
 70
     0
102
RTVSPost2010Prop34
280
     0
102
RTVSPost2010PropOp34
 70
     0
102
RTVSPost2010Prop35
280
     0
102
RTVSPost2010PropOp35
 70
     0
102
RTVSPost2010Prop36
280
     0
102
RTVSPost2010PropOp36
 70
     0
102
RTVSPost2010Prop37
 90
       50
102
RTVSPost2010PropOp37
 70
     0
102
RTVSPost2010Prop38
140
0.0
102
RTVSPost2010PropOp38
 70
     0
102
RTVSPost2010Prop39
140
1.0
102
RTVSPost2010PropOp39
 70
     0
102
RTVSPost2010Prop40
 90
        0
102
RTVSPost2010PropOp40
 70
     0
102
RTVSPost2010Prop41ColorIndex
 90
       18
102
RTVSPost2010Prop41ColorRGB
 90
        0
102
RTVSPost2010PropOp41
 70
     0
102
RTVSPost2010Prop42
 90
       50
102
RTVSPost2010PropOp42
 70
     0
102
RTVSPost2010Prop43
 90
        3
102
RTVSPost2010PropOp43
 70
     0
102
RTVSPost2010Prop44ColorIndex
 90
        5
102
RTVSPost2010Prop44ColorRGB
 90
      255
102
RTVSPost2010PropOp44
 70
     0
102
RTVSPost2010Prop45
280
     0
102
RTVSPost2010PropOp45
 70
     0
102
RTVSPost2010Prop46
 90
       50
102
RTVSPost2010PropOp46
 70
     0
102
RTVSPost2010Prop47
 90
       50
102
RTVSPost2010PropOp47
 70
     0
102
RTVSPost2010Prop48
 90
       50
102
RTVSPost2010PropOp48
 70
     0
102
RTVSPost2010Prop49
280
     0
102
RTVSPost2010PropOp49
 70
     0
102
RTVSPost2010Prop50
 90
       50
102
RTVSPost2010PropOp50
 70
     0
102
RTVSPost2010Prop51ColorIndex
 90
      256
102
RTVSPost2010Prop51ColorRGB
 90
-16777216
102
RTVSPost2010PropOp51
 70
     0
102
RTVSPost2010Prop52
140
1.0
102
RTVSPost2010PropOp52
 70
     0
102
RTVSPost2010Prop53
 90
        2
102
RTVSPost2010PropOp53
 70
     0
102
RTVSPost2010Prop54
  1
strokes_ogs.tif
102
RTVSPost2010PropOp54
 70
     0
102
RTVSPost2010Prop55
280
     0
102
RTVSPost2010PropOp55
 70
     0
102
RTVSPost2010Prop56
140
1.0
102
RTVSPost2010PropOp56
 70
     0
102
RTVSPost2010Prop57
140
1.0
102
RTVSPost2010PropOp57
 70
     0
  0
XRECORD
  5
136
102
{ACAD_REACTORS
330
135
102
}
330
135
100
AcDbXrecord
280
     1
102
RTVSPost2010Prop28
280
     0
102
RTVSPost2010PropOp28
 70
     1
102
RTVSPost2010Prop29
280
     1
102
RTVSPost2010PropOp29
 70
     1
102
RTVSPost2010Prop30
280
     1
102
RTVSPost2010PropOp30
 70
     1
102
RTVSPost2010Prop31
280
     0
102
RTVSPost2010PropOp31
 70
     1
102
RTVSPost2010Prop32
280
     0
102
RTVSPost2010PropOp32
 70
     1
102
RTVSPost2010Prop33
280
     0
102
RTVSPost2010PropOp33
 70
     1
102
RTVSPost2010Prop34
280
     0
102
RTVSPost2010PropOp34
 70
     1
102
RTVSPost2010Prop35
280
     0
102
RTVSPost2010PropOp35
 70
     1
102
RTVSPost2010Prop36
280
     0
102
RTVSPost2010PropOp36
 70
     1
102
RTVSPost2010Prop37
 90
       50
102
RTVSPost2010PropOp37
 70
     1
102
RTVSPost2010Prop38
140
0.0
102
RTVSPost2010PropOp38
 70
     1
102
RTVSPost2010Prop39
140
1.0
102
RTVSPost2010PropOp39
 70
     1
102
RTVSPost2010Prop40
 90
        0
102
RTVSPost2010PropOp40
 70
     1
102
RTVSPost2010Prop41ColorIndex
 90
       18
102
RTVSPost2010Prop41ColorRGB
 90
        0
102
RTVSPost2010PropOp41
 70
     1
102
RTVSPost2010Prop42
 90
       50
102
RTVSPost2010PropOp42
 70
     1
102
RTVSPost2010Prop43
 90
        3
102
RTVSPost2010PropOp43
 70
     1
102
RTVSPost2010Prop44ColorIndex
 90
        5
102
RTVSPost2010Prop44ColorRGB
 90
      255
102
RTVSPost2010PropOp44
 70
     1
102
RTVSPost2010Prop45
280
     0
102
RTVSPost2010PropOp45
 70
     1
102
RTVSPost2010Prop46
 90
       50
102
RTVSPost2010PropOp46
 70
     1
102
RTVSPost2010Prop47
 90
       50
102
RTVSPost2010PropOp47
 70
     1
102
RTVSPost2010Prop48
 90
       50
102
RTVSPost2010PropOp48
 70
     1
102
RTVSPost2010Prop49
280
     0
102
RTVSPost2010PropOp49
 70
     1
102
RTVSPost2010Prop50
 90
       50
102
RTVSPost2010PropOp50
 70
     1
102
RTVSPost2010Prop51ColorIndex
 90
      256
102
RTVSPost2010Prop51ColorRGB
 90
-16777216
102
RTVSPost2010PropOp51
 70
     0
102
RTVSPost2010Prop52
140
1.0
102
RTVSPost2010PropOp52
 70
     0
102
RTVSPost2010Prop53
 90
        2
102
RTVSPost2010PropOp53
 70
     1
102
RTVSPost2010Prop54
  1
strokes_ogs.tif
102
RTVSPost2010PropOp54
 70
     1
102
RTVSPost2010Prop55
280
     0
102
RTVSPost2010PropOp55
 70
     1
102
RTVSPost2010Prop56
140
1.0
102
RTVSPost2010PropOp56
 70
     1
102
RTVSPost2010Prop57
140
1.0
102
RTVSPost2010PropOp57
 70
     1
  0
XRECORD
  5
148
102
{ACAD_REACTORS
330
147
102
}
330
147
100
AcDbXrecord
280
     1
102
RTVSPost2010Prop28
280
     0
102
RTVSPost2010PropOp28
 70
     0
102
RTVSPost2010Prop29
280
     1
102
RTVSPost2010PropOp29
 70
     0
102
RTVSPost2010Prop30
280
     1
102
RTVSPost2010PropOp30
 70
     0
102
RTVSPost2010Prop31
280
     0
102
RTVSPost2010PropOp31
 70
     0
102
RTVSPost2010Prop32
280
     0
102
RTVSPost2010PropOp32
 70
     0
102
RTVSPost2010Prop33
280
     0
102
RTVSPost2010PropOp33
 70
     0
102
RTVSPost2010Prop34
280
     0
102
RTVSPost2010PropOp34
 70
     0
102
RTVSPost2010Prop35
280
     0
102
RTVSPost2010PropOp35
 70
     0
102
RTVSPost2010Prop36
280
     0
102
RTVSPost2010PropOp36
 70
     0
102
RTVSPost2010Prop37
 90
       50
102
RTVSPost2010PropOp37
 70
     0
102
RTVSPost2010Prop38
140
0.0
102
RTVSPost2010PropOp38
 70
     0
102
RTVSPost2010Prop39
140
1.0
102
RTVSPost2010PropOp39
 70
     0
102
RTVSPost2010Prop40
 90
        0
102
RTVSPost2010PropOp40
 70
     0
102
RTVSPost2010Prop41ColorIndex
 90
       18
102
RTVSPost2010Prop41ColorRGB
 90
        0
102
RTVSPost2010PropOp41
 70
     0
102
RTVSPost2010Prop42
 90
       50
102
RTVSPost2010PropOp42
 70
     0
102
RTVSPost2010Prop43
 90
        3
102
RTVSPost2010PropOp43
 70
     0
102
RTVSPost2010Prop44ColorIndex
 90
        5
102
RTVSPost2010Prop44ColorRGB
 90
      255
102
RTVSPost2010PropOp44
 70
     0
102
RTVSPost2010Prop45
280
     0
102
RTVSPost2010PropOp45
 70
     0
102
RTVSPost2010Prop46
 90
       50
102
RTVSPost2010PropOp46
 70
     0
102
RTVSPost2010Prop47
 90
       50
102
RTVSPost2010PropOp47
 70
     0
102
RTVSPost2010Prop48
 90
       50
102
RTVSPost2010PropOp48
 70
     0
102
RTVSPost2010Prop49
280
     0
102
RTVSPost2010PropOp49
 70
     0
102
RTVSPost2010Prop50
 90
       50
102
RTVSPost2010PropOp50
 70
     0
102
RTVSPost2010Prop51ColorIndex
 90
      256
102
RTVSPost2010Prop51ColorRGB
 90
-16777216
102
RTVSPost2010PropOp51
 70
     0
102
RTVSPost2010Prop52
140
1.0
102
RTVSPost2010PropOp52
 70
     0
102
RTVSPost2010Prop53
 90
        2
102
RTVSPost2010PropOp53
 70
     0
102
RTVSPost2010Prop54
  1
strokes_ogs.tif
102
RTVSPost2010PropOp54
 70
     0
102
RTVSPost2010Prop55
280
     0
102
RTVSPost2010PropOp55
 70
     0
102
RTVSPost2010Prop56
140
1.0
102
RTVSPost2010PropOp56
 70
     0
102
RTVSPost2010Prop57
140
1.0
102
RTVSPost2010PropOp57
 70
     0
  0
XRECORD
  5
12E
102
{ACAD_REACTORS
330
12D
102
}
330
12D
100
AcDbXrecord
280
     1
102
RTVSPost2010Prop28
280
     0
102
RTVSPost2010PropOp28
 70
     1
102
RTVSPost2010Prop29
280
     1
102
RTVSPost2010PropOp29
 70
     1
102
RTVSPost2010Prop30
280
     1
102
RTVSPost2010PropOp30
 70
     1
102
RTVSPost2010Prop31
280
     0
102
RTVSPost2010PropOp31
 70
     1
102
RTVSPost2010Prop32
280
     0
102
RTVSPost2010PropOp32
 70
     1
102
RTVSPost2010Prop33
280
     0
102
RTVSPost2010PropOp33
 70
     1
102
RTVSPost2010Prop34
280
     0
102
RTVSPost2010PropOp34
 70
     1
102
RTVSPost2010Prop35
280
     0
102
RTVSPost2010PropOp35
 70
     1
102
RTVSPost2010Prop36
280
     0
102
RTVSPost2010PropOp36
 70
     1
102
RTVSPost2010Prop37
 90
       50
102
RTVSPost2010PropOp37
 70
     1
102
RTVSPost2010Prop38
140
0.0
102
RTVSPost2010PropOp38
 70
     1
102
RTVSPost2010Prop39
140
1.0
102
RTVSPost2010PropOp39
 70
     1
102
RTVSPost2010Prop40
 90
        0
102
RTVSPost2010PropOp40
 70
     1
102
RTVSPost2010Prop41ColorIndex
 90
       18
102
RTVSPost2010Prop41ColorRGB
 90
        0
102
RTVSPost2010PropOp41
 70
     1
102
RTVSPost2010Prop42
 90
       50
102
RTVSPost2010PropOp42
 70
     1
102
RTVSPost2010Prop43
 90
        3
102
RTVSPost2010PropOp43
 70
     1
102
RTVSPost2010Prop44ColorIndex
 90
        5
102
RTVSPost2010Prop44ColorRGB
 90
      255
102
RTVSPost2010PropOp44
 70
     1
102
RTVSPost2010Prop45
280
     0
102
RTVSPost2010PropOp45
 70
     1
102
RTVSPost2010Prop46
 90
       50
102
RTVSPost2010PropOp46
 70
     1
102
RTVSPost2010Prop47
 90
       50
102
RTVSPost2010PropOp47
 70
     1
102
RTVSPost2010Prop48
 90
       50
102
RTVSPost2010PropOp48
 70
     1
102
RTVSPost2010Prop49
280
     0
102
RTVSPost2010PropOp49
 70
     1
102
RTVSPost2010Prop50
 90
       50
102
RTVSPost2010PropOp50
 70
     1
102
RTVSPost2010Prop51ColorIndex
 90
      256
102
RTVSPost2010Prop51ColorRGB
 90
-16777216
102
RTVSPost2010PropOp51
 70
     0
102
RTVSPost2010Prop52
140
1.0
102
RTVSPost2010PropOp52
 70
     0
102
RTVSPost2010Prop53
 90
        2
102
RTVSPost2010PropOp53
 70
     1
102
RTVSPost2010Prop54
  1
strokes_ogs.tif
102
RTVSPost2010PropOp54
 70
     1
102
RTVSPost2010Prop55
280
     0
102
RTVSPost2010PropOp55
 70
     1
102
RTVSPost2010Prop56
140
1.0
102
RTVSPost2010PropOp56
 70
     1
102
RTVSPost2010Prop57
140
1.0
102
RTVSPost2010PropOp57
 70
     1
  0
XRECORD
  5
144
102
{ACAD_REACTORS
330
143
102
}
330
143
100
AcDbXrecord
280
     1
102
RTVSPost2010Prop28
280
     0
102
RTVSPost2010PropOp28
 70
     1
102
RTVSPost2010Prop29
280
     1
102
RTVSPost2010PropOp29
 70
     1
102
RTVSPost2010Prop30
280
     1
102
RTVSPost2010PropOp30
 70
     1
102
RTVSPost2010Prop31
280
     0
102
RTVSPost2010PropOp31
 70
     1
102
RTVSPost2010Prop32
280
     0
102
RTVSPost2010PropOp32
 70
     1
102
RTVSPost2010Prop33
280
     0
102
RTVSPost2010PropOp33
 70
     1
102
RTVSPost2010Prop34
280
     0
102
RTVSPost2010PropOp34
 70
     1
102
RTVSPost2010Prop35
280
     0
102
RTVSPost2010PropOp35
 70
     1
102
RTVSPost2010Prop36
280
     0
102
RTVSPost2010PropOp36
 70
     1
102
RTVSPost2010Prop37
 90
       50
102
RTVSPost2010PropOp37
 70
     1
102
RTVSPost2010Prop38
140
0.0
102
RTVSPost2010PropOp38
 70
     1
102
RTVSPost2010Prop39
140
1.0
102
RTVSPost2010PropOp39
 70
     1
102
RTVSPost2010Prop40
 90
        0
102
RTVSPost2010PropOp40
 70
     1
102
RTVSPost2010Prop41ColorIndex
 90
       18
102
RTVSPost2010Prop41ColorRGB
 90
        0
102
RTVSPost2010PropOp41
 70
     1
102
RTVSPost2010Prop42
 90
       50
102
RTVSPost2010PropOp42
 70
     1
102
RTVSPost2010Prop43
 90
        3
102
RTVSPost2010PropOp43
 70
     1
102
RTVSPost2010Prop44ColorIndex
 90
        5
102
RTVSPost2010Prop44ColorRGB
 90
      255
102
RTVSPost2010PropOp44
 70
     1
102
RTVSPost2010Prop45
280
     0
102
RTVSPost2010PropOp45
 70
     1
102
RTVSPost2010Prop46
 90
       50
102
RTVSPost2010PropOp46
 70
     1
102
RTVSPost2010Prop47
 90
       50
102
RTVSPost2010PropOp47
 70
     1
102
RTVSPost2010Prop48
 90
       50
102
RTVSPost2010PropOp48
 70
     1
102
RTVSPost2010Prop49
280
     0
102
RTVSPost2010PropOp49
 70
     1
102
RTVSPost2010Prop50
 90
       50
102
RTVSPost2010PropOp50
 70
     1
102
RTVSPost2010Prop51ColorIndex
 90
      256
102
RTVSPost2010Prop51ColorRGB
 90
-16777216
102
RTVSPost2010PropOp51
 70
     0
102
RTVSPost2010Prop52
140
1.0
102
RTVSPost2010PropOp52
 70
     0
102
RTVSPost2010Prop53
 90
        2
102
RTVSPost2010PropOp53
 70
     1
102
RTVSPost2010Prop54
  1
strokes_ogs.tif
102
RTVSPost2010PropOp54
 70
     1
102
RTVSPost2010Prop55
280
     0
102
RTVSPost2010PropOp55
 70
     1
102
RTVSPost2010Prop56
140
1.0
102
RTVSPost2010PropOp56
 70
     1
102
RTVSPost2010Prop57
140
1.0
102
RTVSPost2010PropOp57
 70
     1
  0
XRECORD
  5
142
102
{ACAD_REACTORS
330
141
102
}
330
141
100
AcDbXrecord
280
     1
102
RTVSPost2010Prop28
280
     0
102
RTVSPost2010PropOp28
 70
     1
102
RTVSPost2010Prop29
280
     1
102
RTVSPost2010PropOp29
 70
     1
102
RTVSPost2010Prop30
280
     1
102
RTVSPost2010PropOp30
 70
     1
102
RTVSPost2010Prop31
280
     0
102
RTVSPost2010PropOp31
 70
     1
102
RTVSPost2010Prop32
280
     0
102
RTVSPost2010PropOp32
 70
     1
102
RTVSPost2010Prop33
280
     0
102
RTVSPost2010PropOp33
 70
     1
102
RTVSPost2010Prop34
280
     0
102
RTVSPost2010PropOp34
 70
     1
102
RTVSPost2010Prop35
280
     0
102
RTVSPost2010PropOp35
 70
     1
102
RTVSPost2010Prop36
280
     0
102
RTVSPost2010PropOp36
 70
     1
102
RTVSPost2010Prop37
 90
       50
102
RTVSPost2010PropOp37
 70
     1
102
RTVSPost2010Prop38
140
0.0
102
RTVSPost2010PropOp38
 70
     1
102
RTVSPost2010Prop39
140
1.0
102
RTVSPost2010PropOp39
 70
     1
102
RTVSPost2010Prop40
 90
        0
102
RTVSPost2010PropOp40
 70
     1
102
RTVSPost2010Prop41ColorIndex
 90
       18
102
RTVSPost2010Prop41ColorRGB
 90
        0
102
RTVSPost2010PropOp41
 70
     1
102
RTVSPost2010Prop42
 90
       50
102
RTVSPost2010PropOp42
 70
     1
102
RTVSPost2010Prop43
 90
        3
102
RTVSPost2010PropOp43
 70
     1
102
RTVSPost2010Prop44ColorIndex
 90
        5
102
RTVSPost2010Prop44ColorRGB
 90
      255
102
RTVSPost2010PropOp44
 70
     1
102
RTVSPost2010Prop45
280
     0
102
RTVSPost2010PropOp45
 70
     1
102
RTVSPost2010Prop46
 90
       50
102
RTVSPost2010PropOp46
 70
     1
102
RTVSPost2010Prop47
 90
       50
102
RTVSPost2010PropOp47
 70
     1
102
RTVSPost2010Prop48
 90
       50
102
RTVSPost2010PropOp48
 70
     1
102
RTVSPost2010Prop49
280
     0
102
RTVSPost2010PropOp49
 70
     1
102
RTVSPost2010Prop50
 90
       50
102
RTVSPost2010PropOp50
 70
     1
102
RTVSPost2010Prop51ColorIndex
 90
      256
102
RTVSPost2010Prop51ColorRGB
 90
-16777216
102
RTVSPost2010PropOp51
 70
     0
102
RTVSPost2010Prop52
140
1.0
102
RTVSPost2010PropOp52
 70
     0
102
RTVSPost2010Prop53
 90
        2
102
RTVSPost2010PropOp53
 70
     1
102
RTVSPost2010Prop54
  1
strokes_ogs.tif
102
RTVSPost2010PropOp54
 70
     1
102
RTVSPost2010Prop55
280
     0
102
RTVSPost2010PropOp55
 70
     1
102
RTVSPost2010Prop56
140
1.0
102
RTVSPost2010PropOp56
 70
     1
102
RTVSPost2010Prop57
140
1.0
102
RTVSPost2010PropOp57
 70
     1
  0
XRECORD
  5
13C
102
{ACAD_REACTORS
330
13B
102
}
330
13B
100
AcDbXrecord
280
     1
102
RTVSPost2010Prop28
280
     0
102
RTVSPost2010PropOp28
 70
     1
102
RTVSPost2010Prop29
280
     1
102
RTVSPost2010PropOp29
 70
     1
102
RTVSPost2010Prop30
280
     1
102
RTVSPost2010PropOp30
 70
     1
102
RTVSPost2010Prop31
280
     0
102
RTVSPost2010PropOp31
 70
     1
102
RTVSPost2010Prop32
280
     0
102
RTVSPost2010PropOp32
 70
     1
102
RTVSPost2010Prop33
280
     0
102
RTVSPost2010PropOp33
 70
     1
102
RTVSPost2010Prop34
280
     0
102
RTVSPost2010PropOp34
 70
     1
102
RTVSPost2010Prop35
280
     0
102
RTVSPost2010PropOp35
 70
     1
102
RTVSPost2010Prop36
280
     0
102
RTVSPost2010PropOp36
 70
     1
102
RTVSPost2010Prop37
 90
       50
102
RTVSPost2010PropOp37
 70
     1
102
RTVSPost2010Prop38
140
0.0
102
RTVSPost2010PropOp38
 70
     1
102
RTVSPost2010Prop39
140
1.0
102
RTVSPost2010PropOp39
 70
     1
102
RTVSPost2010Prop40
 90
        0
102
RTVSPost2010PropOp40
 70
     1
102
RTVSPost2010Prop41ColorIndex
 90
       18
102
RTVSPost2010Prop41ColorRGB
 90
        0
102
RTVSPost2010PropOp41
 70
     1
102
RTVSPost2010Prop42
 90
       50
102
RTVSPost2010PropOp42
 70
     1
102
RTVSPost2010Prop43
 90
        3
102
RTVSPost2010PropOp43
 70
     1
102
RTVSPost2010Prop44ColorIndex
 90
        5
102
RTVSPost2010Prop44ColorRGB
 90
      255
102
RTVSPost2010PropOp44
 70
     1
102
RTVSPost2010Prop45
280
     0
102
RTVSPost2010PropOp45
 70
     1
102
RTVSPost2010Prop46
 90
       50
102
RTVSPost2010PropOp46
 70
     1
102
RTVSPost2010Prop47
 90
       50
102
RTVSPost2010PropOp47
 70
     1
102
RTVSPost2010Prop48
 90
       50
102
RTVSPost2010PropOp48
 70
     1
102
RTVSPost2010Prop49
280
     0
102
RTVSPost2010PropOp49
 70
     1
102
RTVSPost2010Prop50
 90
       50
102
RTVSPost2010PropOp50
 70
     1
102
RTVSPost2010Prop51ColorIndex
 90
      256
102
RTVSPost2010Prop51ColorRGB
 90
-16777216
102
RTVSPost2010PropOp51
 70
     0
102
RTVSPost2010Prop52
140
1.0
102
RTVSPost2010PropOp52
 70
     0
102
RTVSPost2010Prop53
 90
        2
102
RTVSPost2010PropOp53
 70
     1
102
RTVSPost2010Prop54
  1
strokes_ogs.tif
102
RTVSPost2010PropOp54
 70
     1
102
RTVSPost2010Prop55
280
     0
102
RTVSPost2010PropOp55
 70
     1
102
RTVSPost2010Prop56
140
1.0
102
RTVSPost2010PropOp56
 70
     1
102
RTVSPost2010Prop57
140
1.0
102
RTVSPost2010PropOp57
 70
     1
  0
XRECORD
  5
13E
102
{ACAD_REACTORS
330
13D
102
}
330
13D
100
AcDbXrecord
280
     1
102
RTVSPost2010Prop28
280
     0
102
RTVSPost2010PropOp28
 70
     1
102
RTVSPost2010Prop29
280
     1
102
RTVSPost2010PropOp29
 70
     1
102
RTVSPost2010Prop30
280
     1
102
RTVSPost2010PropOp30
 70
     1
102
RTVSPost2010Prop31
280
     0
102
RTVSPost2010PropOp31
 70
     1
102
RTVSPost2010Prop32
280
     0
102
RTVSPost2010PropOp32
 70
     1
102
RTVSPost2010Prop33
280
     0
102
RTVSPost2010PropOp33
 70
     1
102
RTVSPost2010Prop34
280
     0
102
RTVSPost2010PropOp34
 70
     1
102
RTVSPost2010Prop35
280
     0
102
RTVSPost2010PropOp35
 70
     1
102
RTVSPost2010Prop36
280
     0
102
RTVSPost2010PropOp36
 70
     1
102
RTVSPost2010Prop37
 90
       50
102
RTVSPost2010PropOp37
 70
     1
102
RTVSPost2010Prop38
140
0.0
102
RTVSPost2010PropOp38
 70
     1
102
RTVSPost2010Prop39
140
1.0
102
RTVSPost2010PropOp39
 70
     1
102
RTVSPost2010Prop40
 90
        0
102
RTVSPost2010PropOp40
 70
     1
102
RTVSPost2010Prop41ColorIndex
 90
       18
102
RTVSPost2010Prop41ColorRGB
 90
        0
102
RTVSPost2010PropOp41
 70
     1
102
RTVSPost2010Prop42
 90
       50
102
RTVSPost2010PropOp42
 70
     1
102
RTVSPost2010Prop43
 90
        3
102
RTVSPost2010PropOp43
 70
     1
102
RTVSPost2010Prop44ColorIndex
 90
        5
102
RTVSPost2010Prop44ColorRGB
 90
      255
102
RTVSPost2010PropOp44
 70
     1
102
RTVSPost2010Prop45
280
     0
102
RTVSPost2010PropOp45
 70
     1
102
RTVSPost2010Prop46
 90
       50
102
RTVSPost2010PropOp46
 70
     1
102
RTVSPost2010Prop47
 90
       50
102
RTVSPost2010PropOp47
 70
     1
102
RTVSPost2010Prop48
 90
       50
102
RTVSPost2010PropOp48
 70
     1
102
RTVSPost2010Prop49
280
     0
102
RTVSPost2010PropOp49
 70
     1
102
RTVSPost2010Prop50
 90
       50
102
RTVSPost2010PropOp50
 70
     1
102
RTVSPost2010Prop51ColorIndex
 90
      256
102
RTVSPost2010Prop51ColorRGB
 90
-16777216
102
RTVSPost2010PropOp51
 70
     0
102
RTVSPost2010Prop52
140
1.0
102
RTVSPost2010PropOp52
 70
     0
102
RTVSPost2010Prop53
 90
        2
102
RTVSPost2010PropOp53
 70
     1
102
RTVSPost2010Prop54
  1
strokes_ogs.tif
102
RTVSPost2010PropOp54
 70
     1
102
RTVSPost2010Prop55
280
     0
102
RTVSPost2010PropOp55
 70
     1
102
RTVSPost2010Prop56
140
1.0
102
RTVSPost2010PropOp56
 70
     1
102
RTVSPost2010Prop57
140
1.0
102
RTVSPost2010PropOp57
 70
     1
  0
XRECORD
  5
134
102
{ACAD_REACTORS
330
133
102
}
330
133
100
AcDbXrecord
280
     1
102
RTVSPost2010Prop28
280
     0
102
RTVSPost2010PropOp28
 70
     1
102
RTVSPost2010Prop29
280
     1
102
RTVSPost2010PropOp29
 70
     1
102
RTVSPost2010Prop30
280
     1
102
RTVSPost2010PropOp30
 70
     1
102
RTVSPost2010Prop31
280
     0
102
RTVSPost2010PropOp31
 70
     1
102
RTVSPost2010Prop32
280
     0
102
RTVSPost2010PropOp32
 70
     1
102
RTVSPost2010Prop33
280
     0
102
RTVSPost2010PropOp33
 70
     1
102
RTVSPost2010Prop34
280
     0
102
RTVSPost2010PropOp34
 70
     1
102
RTVSPost2010Prop35
280
     0
102
RTVSPost2010PropOp35
 70
     1
102
RTVSPost2010Prop36
280
     0
102
RTVSPost2010PropOp36
 70
     1
102
RTVSPost2010Prop37
 90
       50
102
RTVSPost2010PropOp37
 70
     1
102
RTVSPost2010Prop38
140
0.0
102
RTVSPost2010PropOp38
 70
     1
102
RTVSPost2010Prop39
140
1.0
102
RTVSPost2010PropOp39
 70
     1
102
RTVSPost2010Prop40
 90
        0
102
RTVSPost2010PropOp40
 70
     1
102
RTVSPost2010Prop41ColorIndex
 90
       18
102
RTVSPost2010Prop41ColorRGB
 90
        0
102
RTVSPost2010PropOp41
 70
     1
102
RTVSPost2010Prop42
 90
       50
102
RTVSPost2010PropOp42
 70
     1
102
RTVSPost2010Prop43
 90
        3
102
RTVSPost2010PropOp43
 70
     1
102
RTVSPost2010Prop44ColorIndex
 90
        5
102
RTVSPost2010Prop44ColorRGB
 90
      255
102
RTVSPost2010PropOp44
 70
     1
102
RTVSPost2010Prop45
280
     0
102
RTVSPost2010PropOp45
 70
     1
102
RTVSPost2010Prop46
 90
       50
102
RTVSPost2010PropOp46
 70
     1
102
RTVSPost2010Prop47
 90
       50
102
RTVSPost2010PropOp47
 70
     1
102
RTVSPost2010Prop48
 90
       50
102
RTVSPost2010PropOp48
 70
     1
102
RTVSPost2010Prop49
280
     0
102
RTVSPost2010PropOp49
 70
     1
102
RTVSPost2010Prop50
 90
       50
102
RTVSPost2010PropOp50
 70
     1
102
RTVSPost2010Prop51ColorIndex
 90
      256
102
RTVSPost2010Prop51ColorRGB
 90
-16777216
102
RTVSPost2010PropOp51
 70
     0
102
RTVSPost2010Prop52
140
1.0
102
RTVSPost2010PropOp52
 70
     0
102
RTVSPost2010Prop53
 90
        2
102
RTVSPost2010PropOp53
 70
     1
102
RTVSPost2010Prop54
  1
strokes_ogs.tif
102
RTVSPost2010PropOp54
 70
     1
102
RTVSPost2010Prop55
280
     0
102
RTVSPost2010PropOp55
 70
     1
102
RTVSPost2010Prop56
140
1.0
102
RTVSPost2010PropOp56
 70
     1
102
RTVSPost2010Prop57
140
1.0
102
RTVSPost2010PropOp57
 70
     1
  0
XRECORD
  5
128
102
{ACAD_REACTORS
330
127
102
}
330
127
100
AcDbXrecord
280
     1
102
RTVSPost2010Prop28
280
     0
102
RTVSPost2010PropOp28
 70
     1
102
RTVSPost2010Prop29
280
     1
102
RTVSPost2010PropOp29
 70
     1
102
RTVSPost2010Prop30
280
     1
102
RTVSPost2010PropOp30
 70
     1
102
RTVSPost2010Prop31
280
     0
102
RTVSPost2010PropOp31
 70
     1
102
RTVSPost2010Prop32
280
     0
102
RTVSPost2010PropOp32
 70
     1
102
RTVSPost2010Prop33
280
     0
102
RTVSPost2010PropOp33
 70
     1
102
RTVSPost2010Prop34
280
     0
102
RTVSPost2010PropOp34
 70
     1
102
RTVSPost2010Prop35
280
     0
102
RTVSPost2010PropOp35
 70
     1
102
RTVSPost2010Prop36
280
     0
102
RTVSPost2010PropOp36
 70
     1
102
RTVSPost2010Prop37
 90
       50
102
RTVSPost2010PropOp37
 70
     1
102
RTVSPost2010Prop38
140
0.0
102
RTVSPost2010PropOp38
 70
     1
102
RTVSPost2010Prop39
140
1.0
102
RTVSPost2010PropOp39
 70
     1
102
RTVSPost2010Prop40
 90
        0
102
RTVSPost2010PropOp40
 70
     1
102
RTVSPost2010Prop41ColorIndex
 90
       18
102
RTVSPost2010Prop41ColorRGB
 90
        0
102
RTVSPost2010PropOp41
 70
     1
102
RTVSPost2010Prop42
 90
       50
102
RTVSPost2010PropOp42
 70
     1
102
RTVSPost2010Prop43
 90
        3
102
RTVSPost2010PropOp43
 70
     1
102
RTVSPost2010Prop44ColorIndex
 90
        5
102
RTVSPost2010Prop44ColorRGB
 90
      255
102
RTVSPost2010PropOp44
 70
     1
102
RTVSPost2010Prop45
280
     0
102
RTVSPost2010PropOp45
 70
     1
102
RTVSPost2010Prop46
 90
       50
102
RTVSPost2010PropOp46
 70
     1
102
RTVSPost2010Prop47
 90
       50
102
RTVSPost2010PropOp47
 70
     1
102
RTVSPost2010Prop48
 90
       50
102
RTVSPost2010PropOp48
 70
     1
102
RTVSPost2010Prop49
280
     0
102
RTVSPost2010PropOp49
 70
     1
102
RTVSPost2010Prop50
 90
       50
102
RTVSPost2010PropOp50
 70
     1
102
RTVSPost2010Prop51ColorIndex
 90
      256
102
RTVSPost2010Prop51ColorRGB
 90
-16777216
102
RTVSPost2010PropOp51
 70
     0
102
RTVSPost2010Prop52
140
1.0
102
RTVSPost2010PropOp52
 70
     0
102
RTVSPost2010Prop53
 90
        2
102
RTVSPost2010PropOp53
 70
     1
102
RTVSPost2010Prop54
  1
strokes_ogs.tif
102
RTVSPost2010PropOp54
 70
     1
102
RTVSPost2010Prop55
280
     0
102
RTVSPost2010PropOp55
 70
     1
102
RTVSPost2010Prop56
140
1.0
102
RTVSPost2010PropOp56
 70
     1
102
RTVSPost2010Prop57
140
1.0
102
RTVSPost2010PropOp57
 70
     1
  0
XRECORD
  5
140
102
{ACAD_REACTORS
330
13F
102
}
330
13F
100
AcDbXrecord
280
     1
102
RTVSPost2010Prop28
280
     0
102
RTVSPost2010PropOp28
 70
     1
102
RTVSPost2010Prop29
280
     1
102
RTVSPost2010PropOp29
 70
     1
102
RTVSPost2010Prop30
280
     1
102
RTVSPost2010PropOp30
 70
     1
102
RTVSPost2010Prop31
280
     0
102
RTVSPost2010PropOp31
 70
     1
102
RTVSPost2010Prop32
280
     0
102
RTVSPost2010PropOp32
 70
     1
102
RTVSPost2010Prop33
280
     0
102
RTVSPost2010PropOp33
 70
     1
102
RTVSPost2010Prop34
280
     0
102
RTVSPost2010PropOp34
 70
     1
102
RTVSPost2010Prop35
280
     0
102
RTVSPost2010PropOp35
 70
     1
102
RTVSPost2010Prop36
280
     0
102
RTVSPost2010PropOp36
 70
     1
102
RTVSPost2010Prop37
 90
       50
102
RTVSPost2010PropOp37
 70
     1
102
RTVSPost2010Prop38
140
0.0
102
RTVSPost2010PropOp38
 70
     1
102
RTVSPost2010Prop39
140
1.0
102
RTVSPost2010PropOp39
 70
     1
102
RTVSPost2010Prop40
 90
        0
102
RTVSPost2010PropOp40
 70
     1
102
RTVSPost2010Prop41ColorIndex
 90
       18
102
RTVSPost2010Prop41ColorRGB
 90
        0
102
RTVSPost2010PropOp41
 70
     1
102
RTVSPost2010Prop42
 90
       50
102
RTVSPost2010PropOp42
 70
     1
102
RTVSPost2010Prop43
 90
        3
102
RTVSPost2010PropOp43
 70
     1
102
RTVSPost2010Prop44ColorIndex
 90
        5
102
RTVSPost2010Prop44ColorRGB
 90
      255
102
RTVSPost2010PropOp44
 70
     1
102
RTVSPost2010Prop45
280
     0
102
RTVSPost2010PropOp45
 70
     1
102
RTVSPost2010Prop46
 90
       50
102
RTVSPost2010PropOp46
 70
     1
102
RTVSPost2010Prop47
 90
       50
102
RTVSPost2010PropOp47
 70
     1
102
RTVSPost2010Prop48
 90
       50
102
RTVSPost2010PropOp48
 70
     1
102
RTVSPost2010Prop49
280
     0
102
RTVSPost2010PropOp49
 70
     1
102
RTVSPost2010Prop50
 90
       50
102
RTVSPost2010PropOp50
 70
     1
102
RTVSPost2010Prop51ColorIndex
 90
      256
102
RTVSPost2010Prop51ColorRGB
 90
-16777216
102
RTVSPost2010PropOp51
 70
     0
102
RTVSPost2010Prop52
140
1.0
102
RTVSPost2010PropOp52
 70
     0
102
RTVSPost2010Prop53
 90
        2
102
RTVSPost2010PropOp53
 70
     1
102
RTVSPost2010Prop54
  1
strokes_ogs.tif
102
RTVSPost2010PropOp54
 70
     1
102
RTVSPost2010Prop55
280
     0
102
RTVSPost2010PropOp55
 70
     1
102
RTVSPost2010Prop56
140
1.0
102
RTVSPost2010PropOp56
 70
     1
102
RTVSPost2010Prop57
140
1.0
102
RTVSPost2010PropOp57
 70
     1
  0
ENDSEC
  0
EOF
