  0
SECTION
  2
HEADER
  9
$ACADVER
  1
AC1024
  9
$ACADMAINTVER
 70
     6
  9
$DWGCODEPAGE
  3
UNDEFINED
  9
$INSBASE
 10
0.0
 20
0.0
 30
0.0
  9
$EXTMIN
 10
1.000000000000000E+20
 20
1.000000000000000E+20
 30
1.000000000000000E+20
  9
$EXTMAX
 10
-1.000000000000000E+20
 20
-1.000000000000000E+20
 30
-1.000000000000000E+20
  9
$LIMMIN
 10
0.0
 20
0.0
  9
$LIMMAX
 10
12.0
 20
9.0
  9
$ORTHOMODE
 70
     0
  9
$REGENMODE
 70
     1
  9
$FILLMODE
 70
     1
  9
$QTEXTMODE
 70
     0
  9
$MIRRTEXT
 70
     1
  9
$LTSCALE
 40
1.0
  9
$ATTMODE
 70
     1
  9
$TEXTSIZE
 40
0.2
  9
$TRACEWID
 40
0.05
  9
$TEXTSTYLE
  7
Standard
  9
$CLAYER
  8
0
  9
$CELTYPE
  6
ByLayer
  9
$CECOLOR
 62
   256
  9
$CELTSCALE
 40
1.0
  9
$DISPSILH
 70
     0
  9
$DIMSCALE
 40
1.0
  9
$DIMASZ
 40
0.18
  9
$DIMEXO
 40
0.0625
  9
$DIMDLI
 40
0.38
  9
$DIMRND
 40
0.0
  9
$DIMDLE
 40
0.0
  9
$DIMEXE
 40
0.18
  9
$DIMTP
 40
0.0
  9
$DIMTM
 40
0.0
  9
$DIMTXT
 40
0.18
  9
$DIMCEN
 40
0.09
  9
$DIMTSZ
 40
0.0
  9
$DIMTOL
 70
     0
  9
$DIMLIM
 70
     0
  9
$DIMTIH
 70
     1
  9
$DIMTOH
 70
     1
  9
$DIMSE1
 70
     0
  9
$DIMSE2
 70
     0
  9
$DIMTAD
 70
     0
  9
$DIMZIN
 70
     0
  9
$DIMBLK
  1

  9
$DIMASO
 70
     1
  9
$DIMSHO
 70
     1
  9
$DIMPOST
  1

  9
$DIMAPOST
  1

  9
$DIMALT
 70
     0
  9
$DIMALTD
 70
     2
  9
$DIMALTF
 40
25.4
  9
$DIMLFAC
 40
1.0
  9
$DIMTOFL
 70
     0
  9
$DIMTVP
 40
0.0
  9
$DIMTIX
 70
     0
  9
$DIMSOXD
 70
     0
  9
$DIMSAH
 70
     0
  9
$DIMBLK1
  1

  9
$DIMBLK2
  1

  9
$DIMSTYLE
  2
Standard
  9
$DIMCLRD
 70
     0
  9
$DIMCLRE
 70
     0
  9
$DIMCLRT
 70
     0
  9
$DIMTFAC
 40
1.0
  9
$DIMGAP
 40
0.09
  9
$DIMJUST
 70
     0
  9
$DIMSD1
 70
     0
  9
$DIMSD2
 70
     0
  9
$DIMTOLJ
 70
     1
  9
$DIMTZIN
 70
     0
  9
$DIMALTZ
 70
     0
  9
$DIMALTTZ
 70
     0
  9
$DIMUPT
 70
     0
  9
$DIMDEC
 70
     4
  9
$DIMTDEC
 70
     4
  9
$DIMALTU
 70
     2
  9
$DIMALTTD
 70
     2
  9
$DIMTXSTY
  7
Standard
  9
$DIMAUNIT
 70
     0
  9
$DIMADEC
 70
     0
  9
$DIMALTRND
 40
0.0
  9
$DIMAZIN
 70
     0
  9
$DIMDSEP
 70
    46
  9
$DIMATFIT
 70
     3
  9
$DIMFRAC
 70
     0
  9
$DIMLDRBLK
  1

  9
$DIMLUNIT
 70
     2
  9
$DIMLWD
 70
    -2
  9
$DIMLWE
 70
    -2
  9
$DIMTMOVE
 70
     0
  9
$DIMFXL
 40
1.0
  9
$DIMFXLON
 70
     0
  9
$DIMJOGANG
 40
0.7853981633974483
  9
$DIMTFILL
 70
     0
  9
$DIMTFILLCLR
 70
     0
  9
$DIMARCSYM
 70
     0
  9
$DIMLTYPE
  6

  9
$DIMLTEX1
  6

  9
$DIMLTEX2
  6

  9
$DIMTXTDIRECTION
 70
     0
  9
$LUNITS
 70
     2
  9
$LUPREC
 70
     4
  9
$SKETCHINC
 40
0.1
  9
$FILLETRAD
 40
0.5
  9
$AUNITS
 70
     0
  9
$AUPREC
 70
     0
  9
$MENU
  1
.
  9
$ELEVATION
 40
0.0
  9
$PELEVATION
 40
0.0
  9
$THICKNESS
 40
0.0
  9
$LIMCHECK
 70
     0
  9
$CHAMFERA
 40
0.5
  9
$CHAMFERB
 40
0.5
  9
$CHAMFERC
 40
1.0
  9
$CHAMFERD
 40
0.0
  9
$SKPOLY
 70
     0
  9
$TDCREATE
 40
2457917.583842593
  9
$TDUCREATE
 40
2457917.208842593
  9
$TDUPDATE
 40
2457917.583842593
  9
$TDUUPDATE
 40
2457917.208842593
  9
$TDINDWG
 40
0.0000000116
  9
$TDUSRTIMER
 40
0.0000000116
  9
$USRTIMER
 70
     1
  9
$ANGBASE
 50
0.0
  9
$ANGDIR
 70
     0
  9
$PDMODE
 70
     0
  9
$PDSIZE
 40
0.0
  9
$PLINEWID
 40
0.0
  9
$SPLFRAME
 70
     0
  9
$SPLINETYPE
 70
     6
  9
$SPLINESEGS
 70
     8
  9
$HANDSEED
  5
155
  9
$SURFTAB1
 70
     6
  9
$SURFTAB2
 70
     6
  9
$SURFTYPE
 70
     6
  9
$SURFU
 70
     6
  9
$SURFV
 70
     6
  9
$UCSBASE
  2

  9
$UCSNAME
  2

  9
$UCSORG
 10
0.0
 20
0.0
 30
0.0
  9
$UCSXDIR
 10
1.0
 20
0.0
 30
0.0
  9
$UCSYDIR
 10
0.0
 20
1.0
 30
0.0
  9
$UCSORTHOREF
  2

  9
$UCSORTHOVIEW
 70
     0
  9
$UCSORGTOP
 10
0.0
 20
0.0
 30
0.0
  9
$UCSORGBOTTOM
 10
0.0
 20
0.0
 30
0.0
  9
$UCSORGLEFT
 10
0.0
 20
0.0
 30
0.0
  9
$UCSORGRIGHT
 10
0.0
 20
0.0
 30
0.0
  9
$UCSORGFRONT
 10
0.0
 20
0.0
 30
0.0
  9
$UCSORGBACK
 10
0.0
 20
0.0
 30
0.0
  9
$PUCSBASE
  2

  9
$PUCSNAME
  2

  9
$PUCSORG
 10
0.0
 20
0.0
 30
0.0
  9
$PUCSXDIR
 10
1.0
 20
0.0
 30
0.0
  9
$PUCSYDIR
 10
0.0
 20
1.0
 30
0.0
  9
$PUCSORTHOREF
  2

  9
$PUCSORTHOVIEW
 70
     0
  9
$PUCSORGTOP
 10
0.0
 20
0.0
 30
0.0
  9
$PUCSORGBOTTOM
 10
0.0
 20
0.0
 30
0.0
  9
$PUCSORGLEFT
 10
0.0
 20
0.0
 30
0.0
  9
$PUCSORGRIGHT
 10
0.0
 20
0.0
 30
0.0
  9
$PUCSORGFRONT
 10
0.0
 20
0.0
 30
0.0
  9
$PUCSORGBACK
 10
0.0
 20
0.0
 30
0.0
  9
$USERI1
 70
     0
  9
$USERI2
 70
     0
  9
$USERI3
 70
     0
  9
$USERI4
 70
     0
  9
$USERI5
 70
     0
  9
$USERR1
 40
0.0
  9
$USERR2
 40
0.0
  9
$USERR3
 40
0.0
  9
$USERR4
 40
0.0
  9
$USERR5
 40
0.0
  9
$WORLDVIEW
 70
     1
  9
$SHADEDGE
 70
     3
  9
$SHADEDIF
 70
    70
  9
$TILEMODE
 70
     1
  9
$MAXACTVP
 70
    64
  9
$PINSBASE
 10
0.0
 20
0.0
 30
0.0
  9
$PLIMCHECK
 70
     0
  9
$PEXTMIN
 10
1.000000000000000E+20
 20
1.000000000000000E+20
 30
1.000000000000000E+20
  9
$PEXTMAX
 10
-1.000000000000000E+20
 20
-1.000000000000000E+20
 30
-1.000000000000000E+20
  9
$PLIMMIN
 10
0.0
 20
0.0
  9
$PLIMMAX
 10
12.0
 20
9.0
  9
$UNITMODE
 70
     0
  9
$VISRETAIN
 70
     1
  9
$PLINEGEN
 70
     0
  9
$PSLTSCALE
 70
     1
  9
$TREEDEPTH
 70
  3020
  9
$CMLSTYLE
  2
Standard
  9
$CMLJUST
 70
     0
  9
$CMLSCALE
 40
1.0
  9
$PROXYGRAPHICS
 70
     1
  9
$MEASUREMENT
 70
     0
  9
$CELWEIGHT
370
    -1
  9
$ENDCAPS
280
     0
  9
$JOINSTYLE
280
     0
  9
$LWDISPLAY
290
     1
  9
$INSUNITS
 70
     1
  9
$HYPERLINKBASE
  1

  9
$STYLESHEET
  1

  9
$XEDIT
290
     1
  9
$CEPSNTYPE
380
     0
  9
$PSTYLEMODE
290
     1
  9
$FINGERPRINTGUID
  2
{CDFD3AA3-25F1-38D8-C4F2-A70EB6C9D179}
  9
$VERSIONGUID
  2
{FAEB1C32-E019-11D5-929B-00C0DF256EC4}
  9
$EXTNAMES
290
     1
  9
$PSVPSCALE
 40
0.0
  9
$OLESTARTUP
290
     0
  9
$SORTENTS
280
   127
  9
$INDEXCTL
280
     0
  9
$HIDETEXT
280
     1
  9
$XCLIPFRAME
280
     2
  9
$HALOGAP
280
     0
  9
$OBSCOLOR
 70
   257
  9
$OBSLTYPE
280
     0
  9
$INTERSECTIONDISPLAY
280
     0
  9
$INTERSECTIONCOLOR
 70
   257
  9
$DIMASSOC
280
     2
  9
$PROJECTNAME
  1

  9
$CAMERADISPLAY
290
     0
  9
$LENSLENGTH
 40
50.0
  9
$CAMERAHEIGHT
 40
0.0
  9
$STEPSPERSEC
 40
2.0
  9
$STEPSIZE
 40
6.0
  9
$3DDWFPREC
 40
2.0
  9
$PSOLWIDTH
 40
0.25
  9
$PSOLHEIGHT
 40
4.0
  9
$LOFTANG1
 40
1.570796326794897
  9
$LOFTANG2
 40
1.570796326794897
  9
$LOFTMAG1
 40
0.0
  9
$LOFTMAG2
 40
0.0
  9
$LOFTPARAM
 70
     7
  9
$LOFTNORMALS
280
     1
  9
$LATITUDE
 40
37.795
  9
$LONGITUDE
 40
-122.394
  9
$NORTHDIRECTION
 40
0.0
  9
$TIMEZONE
 70
 -8000
  9
$LIGHTGLYPHDISPLAY
280
     1
  9
$TILEMODELIGHTSYNCH
280
     1
  9
$CMATERIAL
347
3C
  9
$SOLIDHIST
280
     1
  9
$SHOWHIST
280
     1
  9
$DWFFRAME
280
     2
  9
$DGNFRAME
280
     2
  9
$REALWORLDSCALE
290
     1
  9
$INTERFERECOLOR
 62
   256
  9
$CSHADOW
280
     0
  9
$SHADOWPLANELOCATION
 40
0.0
  0
ENDSEC
  0
SECTION
  2
CLASSES
  0
CLASS
  1
ACDBDICTIONARYWDFLT
  2
AcDbDictionaryWithDefault
  3
ObjectDBX Classes
 90
        0
 91
        4
280
     0
281
     0
  0
CLASS
  1
VISUALSTYLE
  2
AcDbVisualStyle
  3
ObjectDBX Classes
 90
     4095
 91
        4
280
     0
281
     0
  0
CLASS
  1
MATERIAL
  2
AcDbMaterial
  3
ObjectDBX Classes
 90
     1153
 91
        4
280
     0
281
     0
  0
CLASS
  1
SUN
  2
AcDbSun
  3
SCENEOE
 90
     1024
 91
        4
280
     0
281
     0
  0
ENDSEC
  0
SECTION
  2
TABLES
  0
TABLE
  2
VPORT
  5
8
330
0
100
AcDbSymbolTable
 70
     1
  0
VPORT
  5
29
330
8
100
AcDbSymbolTableRecord
100
AcDbViewportTableRecord
  2
*Active
 70
     0
 10
0.0
 20
0.0
 11
1.0
 21
1.0
 12
0.0
 22
0.0
 13
0.0
 23
0.0
 14
0.5
 24
0.5
 15
0.5
 25
0.5
 16
0.0
 26
0.0
 36
1.0
 17
91.00082462281999
 27
-128.4993055234307
 37
0.0
 40
256.9986110468615
 41
0.7081814508812795
 42
50.0
 43
0.0
 44
0.0
 50
0.0
 51
0.0
 71
     0
 72
   100
 73
     1
 74
     3
 75
     0
 76
     0
 77
     0
 78
     0
281
     0
 65
     1
110
0.0
120
0.0
130
0.0
111
1.0
121
0.0
131
0.0
112
0.0
122
1.0
132
0.0
 79
     0
146
0.0
 60
     3
 61
     5
292
     1
282
     1
141
0.0
142
0.0
 63
   250
361
3F
  0
ENDTAB
  0
TABLE
  2
LTYPE
  5
5
330
0
100
AcDbSymbolTable
 70
     1
  0
LTYPE
  5
14
330
5
100
AcDbSymbolTableRecord
100
AcDbLinetypeTableRecord
  2
ByBlock
 70
     0
  3

 72
    65
 73
     0
 40
0.0
  0
LTYPE
  5
15
330
5
100
AcDbSymbolTableRecord
100
AcDbLinetypeTableRecord
  2
ByLayer
 70
     0
  3

 72
    65
 73
     0
 40
0.0
  0
LTYPE
  5
16
330
5
100
AcDbSymbolTableRecord
100
AcDbLinetypeTableRecord
  2
Continuous
 70
     0
  3
Solid line
 72
    65
 73
     0
 40
0.0
  0
ENDTAB
  0
TABLE
  2
LAYER
  5
2
330
0
100
AcDbSymbolTable
 70
     2
  0
LAYER
  5
10
330
2
100
AcDbSymbolTableRecord
100
AcDbLayerTableRecord
  2
0
 70
     0
 62
     7
  6
Continuous
370
    -3
390
F
347
3E
  0
LAYER
  5
40
330
2
100
AcDbSymbolTableRecord
100
AcDbLayerTableRecord
  2
_U+30EC_U+30A4_U+30E4_U+30FC 1
 70
     0
 62
     7
  6
Continuous
370
    -3
390
F
347
3E
  0
ENDTAB
  0
TABLE
  2
STYLE
  5
3
330
0
100
AcDbSymbolTable
 70
     1
  0
STYLE
  5
11
330
3
100
AcDbSymbolTableRecord
100
AcDbTextStyleTableRecord
  2
Standard
 70
     0
 40
0.0
 41
1.0
 50
0.0
 71
     0
 42
0.2
  3
txt
  4

  0
ENDTAB
  0
TABLE
  2
VIEW
  5
6
330
0
100
AcDbSymbolTable
 70
     0
  0
ENDTAB
  0
TABLE
  2
UCS
  5
7
330
0
100
AcDbSymbolTable
 70
     0
  0
ENDTAB
  0
TABLE
  2
APPID
  5
9
330
0
100
AcDbSymbolTable
 70
     1
  0
APPID
  5
12
330
9
100
AcDbSymbolTableRecord
100
AcDbRegAppTableRecord
  2
ACAD
 70
     0
  0
ENDTAB
  0
TABLE
  2
DIMSTYLE
  5
A
330
0
100
AcDbSymbolTable
 70
     1
100
AcDbDimStyleTable
  0
DIMSTYLE
105
27
330
A
100
AcDbSymbolTableRecord
100
AcDbDimStyleTableRecord
  2
Standard
 70
     0
178
     0
340
11
  0
ENDTAB
  0
TABLE
  2
BLOCK_RECORD
  5
1
330
0
100
AcDbSymbolTable
 70
     9
  0
BLOCK_RECORD
  5
1F
330
1
100
AcDbSymbolTableRecord
100
AcDbBlockTableRecord
  2
*Model_Space
340
22
 70
     0
280
     1
281
     0
  0
BLOCK_RECORD
  5
1B
330
1
100
AcDbSymbolTableRecord
100
AcDbBlockTableRecord
  2
*Paper_Space
340
1E
 70
     0
280
     1
281
     0
  0
BLOCK_RECORD
  5
23
330
1
100
AcDbSymbolTableRecord
100
AcDbBlockTableRecord
  2
*Paper_Space0
340
26
 70
     0
280
     1
281
     0
  0
BLOCK_RECORD
  5
41
330
1
100
AcDbSymbolTableRecord
100
AcDbBlockTableRecord
  2
block 2
340
0
102
{BLKREFS
331
42
102
}
 70
     0
280
     1
281
     0
  0
BLOCK_RECORD
  5
5F
330
1
100
AcDbSymbolTableRecord
100
AcDbBlockTableRecord
  2
block 3
340
0
102
{BLKREFS
331
60
102
}
 70
     0
280
     1
281
     0
  0
BLOCK_RECORD
  5
D4
330
1
100
AcDbSymbolTableRecord
100
AcDbBlockTableRecord
  2
block 4
340
0
102
{BLKREFS
331
D5
102
}
 70
     0
280
     1
281
     0
  0
BLOCK_RECORD
  5
F6
330
1
100
AcDbSymbolTableRecord
100
AcDbBlockTableRecord
  2
block 5
340
0
102
{BLKREFS
331
F7
102
}
 70
     0
280
     1
281
     0
  0
BLOCK_RECORD
  5
10C
330
1
100
AcDbSymbolTableRecord
100
AcDbBlockTableRecord
  2
block 6
340
0
102
{BLKREFS
331
10D
102
}
 70
     0
280
     1
281
     0
  0
BLOCK_RECORD
  5
114
330
1
100
AcDbSymbolTableRecord
100
AcDbBlockTableRecord
  2
block 7
340
0
102
{BLKREFS
331
115
102
}
 70
     0
280
     1
281
     0
  0
BLOCK_RECORD
  5
11C
330
1
100
AcDbSymbolTableRecord
100
AcDbBlockTableRecord
  2
block 8
340
0
102
{BLKREFS
331
11D
102
}
 70
     0
280
     1
281
     0
  0
BLOCK_RECORD
  5
138
330
1
100
AcDbSymbolTableRecord
100
AcDbBlockTableRecord
  2
block 9
340
0
102
{BLKREFS
331
139
102
}
 70
     0
280
     1
281
     0
  0
ENDTAB
  0
ENDSEC
  0
SECTION
  2
BLOCKS
  0
BLOCK
  5
20
330
1F
100
AcDbEntity
  8
0
100
AcDbBlockBegin
  2
*Model_Space
 70
     0
 10
0.0
 20
0.0
 30
0.0
  3
*Model_Space
  1

  0
ENDBLK
  5
21
330
1F
100
AcDbEntity
  8
0
100
AcDbBlockEnd
  0
BLOCK
  5
1C
330
1B
100
AcDbEntity
 67
     1
  8
0
100
AcDbBlockBegin
  2
*Paper_Space
 70
     0
 10
0.0
 20
0.0
 30
0.0
  3
*Paper_Space
  1

  0
ENDBLK
  5
1D
330
1B
100
AcDbEntity
 67
     1
  8
0
100
AcDbBlockEnd
  0
BLOCK
  5
24
330
23
100
AcDbEntity
  8
0
100
AcDbBlockBegin
  2
*Paper_Space0
 70
     0
 10
0.0
 20
0.0
 30
0.0
  3
*Paper_Space0
  1

  0
ENDBLK
  5
25
330
23
100
AcDbEntity
  8
0
100
AcDbBlockEnd
  0
BLOCK
  5
43
330
41
100
AcDbEntity
  8
0
100
AcDbBlockBegin
  2
block 2
 70
     0
 10
0.0
 20
0.0
 30
0.0
  3
block 2
  1

  0
POLYLINE
  5
45
330
41
100
AcDbEntity
  8
_U+30EC_U+30A4_U+30E4_U+30FC 1
 62
   179
420
  2234388
370
     9
100
AcDb2dPolyline
 66
     1
 10
0.0
 20
0.0
 30
0.0
  0
VERTEX
  5
46
330
45
100
AcDbEntity
  8
_U+30EC_U+30A4_U+30E4_U+30FC 1
 62
   179
420
  2234388
370
     9
100
AcDbVertex
100
AcDb2dVertex
 10
112.7531371234278
 20
-126.5102738572612
 30
0.0
  0
VERTEX
  5
47
330
45
100
AcDbEntity
  8
_U+30EC_U+30A4_U+30E4_U+30FC 1
 62
   179
420
  2234388
370
     9
100
AcDbVertex
100
AcDb2dVertex
 10
116.7218870221766
 20
-126.5102738572612
 30
0.0
  0
SEQEND
  5
48
330
45
100
AcDbEntity
  8
_U+30EC_U+30A4_U+30E4_U+30FC 1
 62
   179
420
  2234388
370
     9
  0
POLYLINE
  5
49
330
41
100
AcDbEntity
  8
_U+30EC_U+30A4_U+30E4_U+30FC 1
 62
   179
420
  2234388
370
     9
100
AcDb2dPolyline
 66
     1
 10
0.0
 20
0.0
 30
0.0
  0
VERTEX
  5
4A
330
49
100
AcDbEntity
  8
_U+30EC_U+30A4_U+30E4_U+30FC 1
 62
   179
420
  2234388
370
     9
100
AcDbVertex
100
AcDb2dVertex
 10
115.1784842837743
 20
-126.5096035794839
 30
0.0
  0
VERTEX
  5
4B
330
49
100
AcDbEntity
  8
_U+30EC_U+30A4_U+30E4_U+30FC 1
 62
   179
420
  2234388
370
     9
100
AcDbVertex
100
AcDb2dVertex
 10
115.1784842837743
 20
-134.7597352440879
 30
0.0
  0
SEQEND
  5
4C
330
49
100
AcDbEntity
  8
_U+30EC_U+30A4_U+30E4_U+30FC 1
 62
   179
420
  2234388
370
     9
  0
POLYLINE
  5
4D
330
41
100
AcDbEntity
  8
_U+30EC_U+30A4_U+30E4_U+30FC 1
 62
   179
420
  2234388
370
     9
100
AcDb2dPolyline
 66
     1
 10
0.0
 20
0.0
 30
0.0
  0
VERTEX
  5
4E
330
4D
100
AcDbEntity
  8
_U+30EC_U+30A4_U+30E4_U+30FC 1
 62
   179
420
  2234388
370
     9
100
AcDbVertex
100
AcDb2dVertex
 10
112.6649426812334
 20
-144.9606574637597
 30
0.0
  0
VERTEX
  5
4F
330
4D
100
AcDbEntity
  8
_U+30EC_U+30A4_U+30E4_U+30FC 1
 62
   179
420
  2234388
370
     9
100
AcDbVertex
100
AcDb2dVertex
 10
116.7659842432738
 20
-144.9606574637597
 30
0.0
  0
SEQEND
  5
50
330
4D
100
AcDbEntity
  8
_U+30EC_U+30A4_U+30E4_U+30FC 1
 62
   179
420
  2234388
370
     9
  0
POLYLINE
  5
51
330
41
100
AcDbEntity
  8
_U+30EC_U+30A4_U+30E4_U+30FC 1
 62
   179
420
  2234388
370
     9
100
AcDb2dPolyline
 66
     1
 10
0.0
 20
0.0
 30
0.0
  0
VERTEX
  5
52
330
51
100
AcDbEntity
  8
_U+30EC_U+30A4_U+30E4_U+30FC 1
 62
   179
420
  2234388
370
     9
100
AcDbVertex
100
AcDb2dVertex
 10
115.1509323400328
 20
-144.9606574637597
 30
0.0
  0
VERTEX
  5
53
330
51
100
AcDbEntity
  8
_U+30EC_U+30A4_U+30E4_U+30FC 1
 62
   179
420
  2234388
370
     9
100
AcDbVertex
100
AcDb2dVertex
 10
115.1509323400328
 20
-136.710349410267
 30
0.0
  0
SEQEND
  5
54
330
51
100
AcDbEntity
  8
_U+30EC_U+30A4_U+30E4_U+30FC 1
 62
   179
420
  2234388
370
     9
  0
POLYLINE
  5
55
330
41
100
AcDbEntity
  8
_U+30EC_U+30A4_U+30E4_U+30FC 1
 62
   179
420
  2234388
370
     9
100
AcDb2dPolyline
 66
     1
 10
0.0
 20
0.0
 30
0.0
  0
VERTEX
  5
56
330
55
100
AcDbEntity
  8
_U+30EC_U+30A4_U+30E4_U+30FC 1
 62
   179
420
  2234388
370
     9
100
AcDbVertex
100
AcDb2dVertex
 10
112.9068071195074
 20
-145.7682010746689
 30
0.0
  0
VERTEX
  5
57
330
55
100
AcDbEntity
  8
_U+30EC_U+30A4_U+30E4_U+30FC 1
 62
   179
420
  2234388
370
     9
100
AcDbVertex
100
AcDb2dVertex
 10
115.5526403853399
 20
-147.6202844075392
 30
0.0
  0
SEQEND
  5
58
330
55
100
AcDbEntity
  8
_U+30EC_U+30A4_U+30E4_U+30FC 1
 62
   179
420
  2234388
370
     9
  0
SPLINE
  5
59
330
41
100
AcDbEntity
  8
_U+30EC_U+30A4_U+30E4_U+30FC 1
370
     0
100
AcDbSpline
210
0.0
220
0.0
230
1.0
 70
    11
 71
     3
 72
    17
 73
    13
 74
     0
 42
0.0000000001
 43
0.0000000001
 12
1.0
 22
0.0
 32
0.0
 13
1.0
 23
0.0
 33
0.0
 40
0.0
 40
0.0
 40
0.0
 40
0.0
 40
1.0
 40
1.0
 40
1.0
 40
2.0
 40
2.0
 40
2.0
 40
3.0
 40
3.0
 40
3.0
 40
4.0
 40
4.0
 40
4.0
 40
4.0
 10
114.7946973491211
 20
-146.9615777410376
 30
0.0
 10
114.7946973491211
 20
-147.0931638521157
 30
0.0
 10
114.6879115185121
 20
-147.1999849631999
 30
0.0
 10
114.556325410758
 20
-147.1999849631999
 30
0.0
 10
114.424704025227
 20
-147.1999849631999
 30
0.0
 10
114.317918194618
 20
-147.0931638521157
 30
0.0
 10
114.317918194618
 20
-146.9615777410376
 30
0.0
 10
114.317918194618
 20
-146.830661907737
 30
0.0
 10
114.424704025227
 20
-146.7238760744303
 30
0.0
 10
114.556325410758
 20
-146.7238760744303
 30
0.0
 10
114.6879115185121
 20
-146.7238760744303
 30
0.0
 10
114.7946973491211
 20
-146.830661907737
 30
0.0
 10
114.7946973491211
 20
-146.9615777410376
 30
0.0
  0
HATCH
  5
5A
330
41
100
AcDbEntity
  8
_U+30EC_U+30A4_U+30E4_U+30FC 1
 62
   179
420
  2234388
100
AcDbHatch
 10
0.0
 20
0.0
 30
0.0
210
0.0
220
0.0
230
1.0
  2
SOLID
 70
     1
 71
     0
 91
        1
 92
        1
 93
        1
 72
     4
 94
        3
 73
     0
 74
     1
 95
       17
 96
       13
 40
0.0
 40
0.0
 40
0.0
 40
0.0
 40
1.0
 40
1.0
 40
1.0
 40
2.0
 40
2.0
 40
2.0
 40
3.0
 40
3.0
 40
3.0
 40
4.0
 40
4.0
 40
4.0
 40
4.0
 10
114.7946973491211
 20
-146.9615777410376
 10
114.7946973491211
 20
-147.0931638521157
 10
114.6879115185121
 20
-147.1999849631999
 10
114.556325410758
 20
-147.1999849631999
 10
114.424704025227
 20
-147.1999849631999
 10
114.317918194618
 20
-147.0931638521157
 10
114.317918194618
 20
-146.9615777410376
 10
114.317918194618
 20
-146.830661907737
 10
114.424704025227
 20
-146.7238760744303
 10
114.556325410758
 20
-146.7238760744303
 10
114.6879115185121
 20
-146.7238760744303
 10
114.7946973491211
 20
-146.830661907737
 10
114.7946973491211
 20
-146.9615777410376
 97
        0
 97
        0
 75
     2
 76
     1
 98
        0
  0
SPLINE
  5
5B
330
41
100
AcDbEntity
  8
_U+30EC_U+30A4_U+30E4_U+30FC 1
370
     0
100
AcDbSpline
210
0.0
220
0.0
230
1.0
 70
    11
 71
     3
 72
    17
 73
    13
 74
     0
 42
0.0000000001
 43
0.0000000001
 12
1.0
 22
0.0
 32
0.0
 13
1.0
 23
0.0
 33
0.0
 40
0.0
 40
0.0
 40
0.0
 40
0.0
 40
1.0
 40
1.0
 40
1.0
 40
2.0
 40
2.0
 40
2.0
 40
3.0
 40
3.0
 40
3.0
 40
4.0
 40
4.0
 40
4.0
 40
4.0
 10
115.3886340006351
 20
-144.9489452415405
 30
0.0
 10
115.3886340006351
 20
-145.0805666303967
 30
0.0
 10
115.2818481700261
 20
-145.1873524637034
 30
0.0
 10
115.1502620622721
 20
-145.1873524637034
 30
0.0
 10
115.0186406767411
 20
-145.1873524637034
 30
0.0
 10
114.9125251238928
 20
-145.0805666303967
 30
0.0
 10
114.9125251238928
 20
-144.9489452415405
 30
0.0
 10
114.9125251238928
 20
-144.8173591304624
 30
0.0
 10
115.0186406767411
 20
-144.7105380193782
 30
0.0
 10
115.1502620622721
 20
-144.7105380193782
 30
0.0
 10
115.2818481700261
 20
-144.7105380193782
 30
0.0
 10
115.3886340006351
 20
-144.8173591304624
 30
0.0
 10
115.3886340006351
 20
-144.9489452415405
 30
0.0
  0
HATCH
  5
5C
330
41
100
AcDbEntity
  8
_U+30EC_U+30A4_U+30E4_U+30FC 1
 62
   179
420
  2234388
100
AcDbHatch
 10
0.0
 20
0.0
 30
0.0
210
0.0
220
0.0
230
1.0
  2
SOLID
 70
     1
 71
     0
 91
        1
 92
        1
 93
        1
 72
     4
 94
        3
 73
     0
 74
     1
 95
       17
 96
       13
 40
0.0
 40
0.0
 40
0.0
 40
0.0
 40
1.0
 40
1.0
 40
1.0
 40
2.0
 40
2.0
 40
2.0
 40
3.0
 40
3.0
 40
3.0
 40
4.0
 40
4.0
 40
4.0
 40
4.0
 10
115.3886340006351
 20
-144.9489452415405
 10
115.3886340006351
 20
-145.0805666303967
 10
115.2818481700261
 20
-145.1873524637034
 10
115.1502620622721
 20
-145.1873524637034
 10
115.0186406767411
 20
-145.1873524637034
 10
114.9125251238928
 20
-145.0805666303967
 10
114.9125251238928
 20
-144.9489452415405
 10
114.9125251238928
 20
-144.8173591304624
 10
115.0186406767411
 20
-144.7105380193782
 10
115.1502620622721
 20
-144.7105380193782
 10
115.2818481700261
 20
-144.7105380193782
 10
115.3886340006351
 20
-144.8173591304624
 10
115.3886340006351
 20
-144.9489452415405
 97
        0
 97
        0
 75
     2
 76
     1
 98
        0
  0
SPLINE
  5
5D
330
41
100
AcDbEntity
  8
_U+30EC_U+30A4_U+30E4_U+30FC 1
370
     0
100
AcDbSpline
210
0.0
220
0.0
230
1.0
 70
    11
 71
     3
 72
    17
 73
    13
 74
     0
 42
0.0000000001
 43
0.0000000001
 12
1.0
 22
0.0
 32
0.0
 13
1.0
 23
0.0
 33
0.0
 40
0.0
 40
0.0
 40
0.0
 40
0.0
 40
1.0
 40
1.0
 40
1.0
 40
2.0
 40
2.0
 40
2.0
 40
3.0
 40
3.0
 40
3.0
 40
4.0
 40
4.0
 40
4.0
 40
4.0
 10
115.4051792779908
 20
-126.4978913572643
 30
0.0
 10
115.4051792779908
 20
-126.6294774683427
 30
0.0
 10
115.2983934473818
 20
-126.7362633016494
 30
0.0
 10
115.1667749712084
 20
-126.7362633016494
 30
0.0
 10
115.0351888601304
 20
-126.7362633016494
 30
0.0
 10
114.9290704012485
 20
-126.6294774683427
 30
0.0
 10
114.9290704012485
 20
-126.4978913572643
 30
0.0
 10
114.9290704012485
 20
-126.3662699684084
 30
0.0
 10
115.0351888601304
 20
-126.2594841351017
 30
0.0
 10
115.1667749712084
 20
-126.2594841351017
 30
0.0
 10
115.2983934473818
 20
-126.2594841351017
 30
0.0
 10
115.4051792779908
 20
-126.3662699684084
 30
0.0
 10
115.4051792779908
 20
-126.4978913572643
 30
0.0
  0
HATCH
  5
5E
330
41
100
AcDbEntity
  8
_U+30EC_U+30A4_U+30E4_U+30FC 1
 62
   179
420
  2234388
100
AcDbHatch
 10
0.0
 20
0.0
 30
0.0
210
0.0
220
0.0
230
1.0
  2
SOLID
 70
     1
 71
     0
 91
        1
 92
        1
 93
        1
 72
     4
 94
        3
 73
     0
 74
     1
 95
       17
 96
       13
 40
0.0
 40
0.0
 40
0.0
 40
0.0
 40
1.0
 40
1.0
 40
1.0
 40
2.0
 40
2.0
 40
2.0
 40
3.0
 40
3.0
 40
3.0
 40
4.0
 40
4.0
 40
4.0
 40
4.0
 10
115.4051792779908
 20
-126.4978913572643
 10
115.4051792779908
 20
-126.6294774683427
 10
115.2983934473818
 20
-126.7362633016494
 10
115.1667749712084
 20
-126.7362633016494
 10
115.0351888601304
 20
-126.7362633016494
 10
114.9290704012485
 20
-126.6294774683427
 10
114.9290704012485
 20
-126.4978913572643
 10
114.9290704012485
 20
-126.3662699684084
 10
115.0351888601304
 20
-126.2594841351017
 10
115.1667749712084
 20
-126.2594841351017
 10
115.2983934473818
 20
-126.2594841351017
 10
115.4051792779908
 20
-126.3662699684084
 10
115.4051792779908
 20
-126.4978913572643
 97
        0
 97
        0
 75
     2
 76
     1
 98
        0
  0
INSERT
  5
60
330
41
100
AcDbEntity
  8
_U+30EC_U+30A4_U+30E4_U+30FC 1
100
AcDbBlockReference
  2
block 3
 10
0.0
 20
0.0
 30
0.0
  0
INSERT
  5
139
330
41
100
AcDbEntity
  8
_U+30EC_U+30A4_U+30E4_U+30FC 1
100
AcDbBlockReference
  2
block 9
 10
0.0
 20
0.0
 30
0.0
  0
ENDBLK
  5
44
330
41
100
AcDbEntity
  8
0
100
AcDbBlockEnd
  0
BLOCK
  5
61
330
5F
100
AcDbEntity
  8
0
100
AcDbBlockBegin
  2
block 3
 70
     0
 10
0.0
 20
0.0
 30
0.0
  3
block 3
  1

  0
POLYLINE
  5
63
330
5F
100
AcDbEntity
  8
_U+30EC_U+30A4_U+30E4_U+30FC 1
 62
   179
420
  2234388
370
     9
100
AcDb2dPolyline
 66
     1
 10
0.0
 20
0.0
 30
0.0
  0
VERTEX
  5
64
330
63
100
AcDbEntity
  8
_U+30EC_U+30A4_U+30E4_U+30FC 1
 62
   179
420
  2234388
370
     9
100
AcDbVertex
100
AcDb2dVertex
 10
74.02029005602952
 20
-102.8836524742792
 30
0.0
  0
VERTEX
  5
65
330
63
100
AcDbEntity
  8
_U+30EC_U+30A4_U+30E4_U+30FC 1
 62
   179
420
  2234388
370
     9
100
AcDbVertex
100
AcDb2dVertex
 10
111.5335843767634
 20
-126.5199399683699
 30
0.0
  0
VERTEX
  5
66
330
63
100
AcDbEntity
  8
_U+30EC_U+30A4_U+30E4_U+30FC 1
 62
   179
420
  2234388
370
     9
100
AcDbVertex
100
AcDb2dVertex
 10
111.5335843767634
 20
-144.0346157973245
 30
0.0
  0
VERTEX
  5
67
330
63
100
AcDbEntity
  8
_U+30EC_U+30A4_U+30E4_U+30FC 1
 62
   179
420
  2234388
370
     9
100
AcDbVertex
100
AcDb2dVertex
 10
96.8698825286434
 20
-150.2667880179891
 30
0.0
  0
VERTEX
  5
68
330
63
100
AcDbEntity
  8
_U+30EC_U+30A4_U+30E4_U+30FC 1
 62
   179
420
  2234388
370
     9
100
AcDbVertex
100
AcDb2dVertex
 10
93.6948826096444
 20
-150.2082269068922
 30
0.0
  0
VERTEX
  5
69
330
63
100
AcDbEntity
  8
_U+30EC_U+30A4_U+30E4_U+30FC 1
 62
   179
420
  2234388
370
     9
100
AcDbVertex
100
AcDb2dVertex
 10
88.87364523264442
 20
-146.8272046855157
 30
0.0
  0
VERTEX
  5
6A
330
63
100
AcDbEntity
  8
_U+30EC_U+30A4_U+30E4_U+30FC 1
 62
   179
420
  2234388
370
     9
100
AcDbVertex
100
AcDb2dVertex
 10
90.04910075821161
 20
-145.3568621858831
 30
0.0
  0
VERTEX
  5
6B
330
63
100
AcDbEntity
  8
_U+30EC_U+30A4_U+30E4_U+30FC 1
 62
   179
420
  2234388
370
     9
100
AcDbVertex
100
AcDb2dVertex
 10
105.1243178736108
 20
-140.0362324649912
 30
0.0
  0
SEQEND
  5
6C
330
63
100
AcDbEntity
  8
_U+30EC_U+30A4_U+30E4_U+30FC 1
 62
   179
420
  2234388
370
     9
  0
POLYLINE
  5
6D
330
5F
100
AcDbEntity
  8
_U+30EC_U+30A4_U+30E4_U+30FC 1
 62
   179
420
  2234388
370
     9
100
AcDb2dPolyline
 66
     1
 10
0.0
 20
0.0
 30
0.0
  0
VERTEX
  5
6E
330
6D
100
AcDbEntity
  8
_U+30EC_U+30A4_U+30E4_U+30FC 1
 62
   179
420
  2234388
370
     9
100
AcDbVertex
100
AcDb2dVertex
 10
88.87364523264442
 20
-146.8272046855157
 30
0.0
  0
VERTEX
  5
6F
330
6D
100
AcDbEntity
  8
_U+30EC_U+30A4_U+30E4_U+30FC 1
 62
   179
420
  2234388
370
     9
100
AcDbVertex
100
AcDb2dVertex
 10
88.87364523264442
 20
-147.0525238521258
 30
0.0
  0
VERTEX
  5
70
330
6D
100
AcDbEntity
  8
_U+30EC_U+30A4_U+30E4_U+30FC 1
 62
   179
420
  2234388
370
     9
100
AcDbVertex
100
AcDb2dVertex
 10
93.6948826096444
 20
-150.4583463512744
 30
0.0
  0
VERTEX
  5
71
330
6D
100
AcDbEntity
  8
_U+30EC_U+30A4_U+30E4_U+30FC 1
 62
   179
420
  2234388
370
     9
100
AcDbVertex
100
AcDb2dVertex
 10
96.8698825286434
 20
-150.4914016290437
 30
0.0
  0
VERTEX
  5
72
330
6D
100
AcDbEntity
  8
_U+30EC_U+30A4_U+30E4_U+30FC 1
 62
   179
420
  2234388
370
     9
100
AcDbVertex
100
AcDb2dVertex
 10
111.5921454863805
 20
-144.4838430194345
 30
0.0
  0
VERTEX
  5
73
330
6D
100
AcDbEntity
  8
_U+30EC_U+30A4_U+30E4_U+30FC 1
 62
   179
420
  2234388
370
     9
100
AcDbVertex
100
AcDb2dVertex
 10
111.5921454863805
 20
-144.9310241304341
 30
0.0
  0
SEQEND
  5
74
330
6D
100
AcDbEntity
  8
_U+30EC_U+30A4_U+30E4_U+30FC 1
 62
   179
420
  2234388
370
     9
  0
POLYLINE
  5
75
330
5F
100
AcDbEntity
  8
_U+30EC_U+30A4_U+30E4_U+30FC 1
 62
   179
420
  2234388
370
     9
100
AcDb2dPolyline
 66
     1
 10
0.0
 20
0.0
 30
0.0
  0
VERTEX
  5
76
330
75
100
AcDbEntity
  8
_U+30EC_U+30A4_U+30E4_U+30FC 1
 62
   179
420
  2234388
370
     9
100
AcDbVertex
100
AcDb2dVertex
 10
98.26652971523419
 20
-136.4933205214323
 30
0.0
  0
VERTEX
  5
77
330
75
100
AcDbEntity
  8
_U+30EC_U+30A4_U+30E4_U+30FC 1
 62
   179
420
  2234388
370
     9
100
AcDbVertex
100
AcDb2dVertex
 10
104.3519462266489
 20
-140.3152796871434
 30
0.0
  0
SEQEND
  5
78
330
75
100
AcDbEntity
  8
_U+30EC_U+30A4_U+30E4_U+30FC 1
 62
   179
420
  2234388
370
     9
  0
POLYLINE
  5
79
330
5F
100
AcDbEntity
  8
_U+30EC_U+30A4_U+30E4_U+30FC 1
 62
   179
420
  2234388
370
     9
100
AcDb2dPolyline
 66
     1
 10
0.0
 20
0.0
 30
0.0
  0
VERTEX
  5
7A
330
79
100
AcDbEntity
  8
_U+30EC_U+30A4_U+30E4_U+30FC 1
 62
   179
420
  2234388
370
     9
100
AcDbVertex
100
AcDb2dVertex
 10
73.26358174200142
 20
-120.6033274698491
 30
0.0
  0
VERTEX
  5
7B
330
79
100
AcDbEntity
  8
_U+30EC_U+30A4_U+30E4_U+30FC 1
 62
   179
420
  2234388
370
     9
100
AcDbVertex
100
AcDb2dVertex
 10
79.3486454756474
 20
-124.4838830244345
 30
0.0
  0
SEQEND
  5
7C
330
79
100
AcDbEntity
  8
_U+30EC_U+30A4_U+30E4_U+30FC 1
 62
   179
420
  2234388
370
     9
  0
POLYLINE
  5
7D
330
5F
100
AcDbEntity
  8
_U+30EC_U+30A4_U+30E4_U+30FC 1
 62
   179
420
  2234388
370
     9
100
AcDb2dPolyline
 66
     1
 10
0.0
 20
0.0
 30
0.0
  0
VERTEX
  5
7E
330
7D
100
AcDbEntity
  8
_U+30EC_U+30A4_U+30E4_U+30FC 1
 62
   179
420
  2234388
370
     9
100
AcDbVertex
100
AcDb2dVertex
 10
86.15443419090616
 20
-128.7763066344727
 30
0.0
  0
VERTEX
  5
7F
330
7D
100
AcDbEntity
  8
_U+30EC_U+30A4_U+30E4_U+30FC 1
 62
   179
420
  2234388
370
     9
100
AcDbVertex
100
AcDb2dVertex
 10
91.43146044516689
 20
-132.1421594114087
 30
0.0
  0
SEQEND
  5
80
330
7D
100
AcDbEntity
  8
_U+30EC_U+30A4_U+30E4_U+30FC 1
 62
   179
420
  2234388
370
     9
  0
POLYLINE
  5
81
330
5F
100
AcDbEntity
  8
_U+30EC_U+30A4_U+30E4_U+30FC 1
 62
   179
420
  2234388
370
     9
100
AcDb2dPolyline
 66
     1
 10
0.0
 20
0.0
 30
0.0
  0
VERTEX
  5
82
330
81
100
AcDbEntity
  8
_U+30EC_U+30A4_U+30E4_U+30FC 1
 62
   179
420
  2234388
370
     9
100
AcDbVertex
100
AcDb2dVertex
 10
80.2600468412845
 20
-124.1311052467449
 30
0.0
  0
VERTEX
  5
83
330
81
100
AcDbEntity
  8
_U+30EC_U+30A4_U+30E4_U+30FC 1
 62
   179
420
  2234388
370
     9
100
AcDbVertex
100
AcDb2dVertex
 10
65.85489581990164
 20
-129.2172788565847
 30
0.0
  0
VERTEX
  5
84
330
81
100
AcDbEntity
  8
_U+30EC_U+30A4_U+30E4_U+30FC 1
 62
   179
420
  2234388
370
     9
100
AcDbVertex
100
AcDb2dVertex
 10
64.89957362205172
 20
-130.3341733007496
 30
0.0
  0
VERTEX
  5
85
330
81
100
AcDbEntity
  8
_U+30EC_U+30A4_U+30E4_U+30FC 1
 62
   179
420
  2234388
370
     9
100
AcDbVertex
100
AcDb2dVertex
 10
64.8997500109361
 20
-130.5587869118049
 30
0.0
  0
VERTEX
  5
86
330
81
100
AcDbEntity
  8
_U+30EC_U+30A4_U+30E4_U+30FC 1
 62
   179
420
  2234388
370
     9
100
AcDbVertex
100
AcDb2dVertex
 10
69.02989573890063
 20
-133.3375821888878
 30
0.0
  0
VERTEX
  5
87
330
81
100
AcDbEntity
  8
_U+30EC_U+30A4_U+30E4_U+30FC 1
 62
   179
420
  2234388
370
     9
100
AcDbVertex
100
AcDb2dVertex
 10
72.24899287899686
 20
-133.5139710777325
 30
0.0
  0
VERTEX
  5
88
330
81
100
AcDbEntity
  8
_U+30EC_U+30A4_U+30E4_U+30FC 1
 62
   179
420
  2234388
370
     9
100
AcDbVertex
100
AcDb2dVertex
 10
86.5659494581853
 20
-128.6531166345033
 30
0.0
  0
VERTEX
  5
89
330
81
100
AcDbEntity
  8
_U+30EC_U+30A4_U+30E4_U+30FC 1
 62
   179
420
  2234388
370
     9
100
AcDbVertex
100
AcDb2dVertex
 10
86.5659494581853
 20
-128.2031838568382
 30
0.0
  0
VERTEX
  5
8A
330
81
100
AcDbEntity
  8
_U+30EC_U+30A4_U+30E4_U+30FC 1
 62
   179
420
  2234388
370
     9
100
AcDbVertex
100
AcDb2dVertex
 10
80.2600468412845
 20
-124.1311052467449
 30
0.0
  0
SEQEND
  5
8B
330
81
100
AcDbEntity
  8
_U+30EC_U+30A4_U+30E4_U+30FC 1
 62
   179
420
  2234388
370
     9
  0
POLYLINE
  5
8C
330
5F
100
AcDbEntity
  8
_U+30EC_U+30A4_U+30E4_U+30FC 1
 62
   179
420
  2234388
370
     9
100
AcDb2dPolyline
 66
     1
 10
0.0
 20
0.0
 30
0.0
  0
VERTEX
  5
8D
330
8C
100
AcDbEntity
  8
_U+30EC_U+30A4_U+30E4_U+30FC 1
 62
   179
420
  2234388
370
     9
100
AcDbVertex
100
AcDb2dVertex
 10
105.1835845387654
 20
-140.0362324649912
 30
0.0
  0
VERTEX
  5
8E
330
8C
100
AcDbEntity
  8
_U+30EC_U+30A4_U+30E4_U+30FC 1
 62
   179
420
  2234388
370
     9
100
AcDbVertex
100
AcDb2dVertex
 10
111.5335843767634
 20
-144.0346157973245
 30
0.0
  0
SEQEND
  5
8F
330
8C
100
AcDbEntity
  8
_U+30EC_U+30A4_U+30E4_U+30FC 1
 62
   179
420
  2234388
370
     9
  0
POLYLINE
  5
90
330
5F
100
AcDbEntity
  8
_U+30EC_U+30A4_U+30E4_U+30FC 1
 62
   179
420
  2234388
370
     9
100
AcDb2dPolyline
 66
     1
 10
0.0
 20
0.0
 30
0.0
  0
VERTEX
  5
91
330
90
100
AcDbEntity
  8
_U+30EC_U+30A4_U+30E4_U+30FC 1
 62
   179
420
  2234388
370
     9
100
AcDbVertex
100
AcDb2dVertex
 10
111.215943273756
 20
-144.680904686052
 30
0.0
  0
VERTEX
  5
92
330
90
100
AcDbEntity
  8
_U+30EC_U+30A4_U+30E4_U+30FC 1
 62
   179
420
  2234388
370
     9
100
AcDbVertex
100
AcDb2dVertex
 10
111.5921454863805
 20
-144.9310241304341
 30
0.0
  0
VERTEX
  5
93
330
90
100
AcDbEntity
  8
_U+30EC_U+30A4_U+30E4_U+30FC 1
 62
   179
420
  2234388
370
     9
100
AcDbVertex
100
AcDb2dVertex
 10
111.9835171430625
 20
-144.6816102416075
 30
0.0
  0
VERTEX
  5
94
330
90
100
AcDbEntity
  8
_U+30EC_U+30A4_U+30E4_U+30FC 1
 62
   179
420
  2234388
370
     9
100
AcDbVertex
100
AcDb2dVertex
 10
111.9835171430625
 20
-126.2257233017768
 30
0.0
  0
VERTEX
  5
95
330
90
100
AcDbEntity
  8
_U+30EC_U+30A4_U+30E4_U+30FC 1
 62
   179
420
  2234388
370
     9
100
AcDbVertex
100
AcDb2dVertex
 10
74.02029005602952
 20
-102.5894358076859
 30
0.0
  0
SEQEND
  5
96
330
90
100
AcDbEntity
  8
_U+30EC_U+30A4_U+30E4_U+30FC 1
 62
   179
420
  2234388
370
     9
  0
POLYLINE
  5
97
330
5F
100
AcDbEntity
  8
_U+30EC_U+30A4_U+30E4_U+30FC 1
 62
   179
420
  2234388
370
     9
100
AcDb2dPolyline
 66
     1
 10
0.0
 20
0.0
 30
0.0
  0
VERTEX
  5
98
330
97
100
AcDbEntity
  8
_U+30EC_U+30A4_U+30E4_U+30FC 1
 62
   179
420
  2234388
370
     9
100
AcDbVertex
100
AcDb2dVertex
 10
93.6948826096444
 20
-150.2082269068922
 30
0.0
  0
VERTEX
  5
99
330
97
100
AcDbEntity
  8
_U+30EC_U+30A4_U+30E4_U+30FC 1
 62
   179
420
  2234388
370
     9
100
AcDbVertex
100
AcDb2dVertex
 10
93.6948826096444
 20
-150.4583463512744
 30
0.0
  0
SEQEND
  5
9A
330
97
100
AcDbEntity
  8
_U+30EC_U+30A4_U+30E4_U+30FC 1
 62
   179
420
  2234388
370
     9
  0
POLYLINE
  5
9B
330
5F
100
AcDbEntity
  8
_U+30EC_U+30A4_U+30E4_U+30FC 1
 62
   179
420
  2234388
370
     9
100
AcDb2dPolyline
 66
     1
 10
0.0
 20
0.0
 30
0.0
  0
VERTEX
  5
9C
330
9B
100
AcDbEntity
  8
_U+30EC_U+30A4_U+30E4_U+30FC 1
 62
   179
420
  2234388
370
     9
100
AcDbVertex
100
AcDb2dVertex
 10
96.8698825286434
 20
-150.2667880179891
 30
0.0
  0
VERTEX
  5
9D
330
9B
100
AcDbEntity
  8
_U+30EC_U+30A4_U+30E4_U+30FC 1
 62
   179
420
  2234388
370
     9
100
AcDbVertex
100
AcDb2dVertex
 10
96.8698825286434
 20
-150.4914016290437
 30
0.0
  0
SEQEND
  5
9E
330
9B
100
AcDbEntity
  8
_U+30EC_U+30A4_U+30E4_U+30FC 1
 62
   179
420
  2234388
370
     9
  0
POLYLINE
  5
9F
330
5F
100
AcDbEntity
  8
_U+30EC_U+30A4_U+30E4_U+30FC 1
 62
   179
420
  2234388
370
     9
100
AcDb2dPolyline
 66
     1
 10
0.0
 20
0.0
 30
0.0
  0
VERTEX
  5
A0
330
9F
100
AcDbEntity
  8
_U+30EC_U+30A4_U+30E4_U+30FC 1
 62
   179
420
  2234388
370
     9
100
AcDbVertex
100
AcDb2dVertex
 10
86.5659494581853
 20
-128.2031838568382
 30
0.0
  0
VERTEX
  5
A1
330
9F
100
AcDbEntity
  8
_U+30EC_U+30A4_U+30E4_U+30FC 1
 62
   179
420
  2234388
370
     9
100
AcDbVertex
100
AcDb2dVertex
 10
72.24899287899686
 20
-133.2886871888999
 30
0.0
  0
VERTEX
  5
A2
330
9F
100
AcDbEntity
  8
_U+30EC_U+30A4_U+30E4_U+30FC 1
 62
   179
420
  2234388
370
     9
100
AcDbVertex
100
AcDb2dVertex
 10
69.02989573890063
 20
-133.1122983000551
 30
0.0
  0
VERTEX
  5
A3
330
9F
100
AcDbEntity
  8
_U+30EC_U+30A4_U+30E4_U+30FC 1
 62
   179
420
  2234388
370
     9
100
AcDbVertex
100
AcDb2dVertex
 10
64.95831112055319
 20
-130.3493074674126
 30
0.0
  0
SEQEND
  5
A4
330
9F
100
AcDbEntity
  8
_U+30EC_U+30A4_U+30E4_U+30FC 1
 62
   179
420
  2234388
370
     9
  0
POLYLINE
  5
A5
330
5F
100
AcDbEntity
  8
_U+30EC_U+30A4_U+30E4_U+30FC 1
 62
   179
420
  2234388
370
     9
100
AcDb2dPolyline
 66
     1
 10
0.0
 20
0.0
 30
0.0
  0
VERTEX
  5
A6
330
A5
100
AcDbEntity
  8
_U+30EC_U+30A4_U+30E4_U+30FC 1
 62
   179
420
  2234388
370
     9
100
AcDbVertex
100
AcDb2dVertex
 10
69.02989573890063
 20
-133.1122983000551
 30
0.0
  0
VERTEX
  5
A7
330
A5
100
AcDbEntity
  8
_U+30EC_U+30A4_U+30E4_U+30FC 1
 62
   179
420
  2234388
370
     9
100
AcDbVertex
100
AcDb2dVertex
 10
69.02989573890063
 20
-133.3375821888878
 30
0.0
  0
SEQEND
  5
A8
330
A5
100
AcDbEntity
  8
_U+30EC_U+30A4_U+30E4_U+30FC 1
 62
   179
420
  2234388
370
     9
  0
POLYLINE
  5
A9
330
5F
100
AcDbEntity
  8
_U+30EC_U+30A4_U+30E4_U+30FC 1
 62
   179
420
  2234388
370
     9
100
AcDb2dPolyline
 66
     1
 10
0.0
 20
0.0
 30
0.0
  0
VERTEX
  5
AA
330
A9
100
AcDbEntity
  8
_U+30EC_U+30A4_U+30E4_U+30FC 1
 62
   179
420
  2234388
370
     9
100
AcDbVertex
100
AcDb2dVertex
 10
72.24899287899686
 20
-133.2886871888999
 30
0.0
  0
VERTEX
  5
AB
330
A9
100
AcDbEntity
  8
_U+30EC_U+30A4_U+30E4_U+30FC 1
 62
   179
420
  2234388
370
     9
100
AcDbVertex
100
AcDb2dVertex
 10
72.24899287899686
 20
-133.5139710777325
 30
0.0
  0
SEQEND
  5
AC
330
A9
100
AcDbEntity
  8
_U+30EC_U+30A4_U+30E4_U+30FC 1
 62
   179
420
  2234388
370
     9
  0
POLYLINE
  5
AD
330
5F
100
AcDbEntity
  8
_U+30EC_U+30A4_U+30E4_U+30FC 1
 62
   179
420
  2234388
370
     9
100
AcDb2dPolyline
 66
     1
 10
0.0
 20
0.0
 30
0.0
  0
VERTEX
  5
AE
330
AD
100
AcDbEntity
  8
_U+30EC_U+30A4_U+30E4_U+30FC 1
 62
   179
420
  2234388
370
     9
100
AcDbVertex
100
AcDb2dVertex
 10
92.46016041892257
 20
-131.9223435781308
 30
0.0
  0
VERTEX
  5
AF
330
AD
100
AcDbEntity
  8
_U+30EC_U+30A4_U+30E4_U+30FC 1
 62
   179
420
  2234388
370
     9
100
AcDbVertex
100
AcDb2dVertex
 10
98.69233248214883
 20
-135.9055574660236
 30
0.0
  0
VERTEX
  5
B0
330
AD
100
AcDbEntity
  8
_U+30EC_U+30A4_U+30E4_U+30FC 1
 62
   179
420
  2234388
370
     9
100
AcDbVertex
100
AcDb2dVertex
 10
98.69233248214883
 20
-136.3561957992445
 30
0.0
  0
VERTEX
  5
B1
330
AD
100
AcDbEntity
  8
_U+30EC_U+30A4_U+30E4_U+30FC 1
 62
   179
420
  2234388
370
     9
100
AcDbVertex
100
AcDb2dVertex
 10
83.93475646975708
 20
-141.3853252424313
 30
0.0
  0
VERTEX
  5
B2
330
AD
100
AcDbEntity
  8
_U+30EC_U+30A4_U+30E4_U+30FC 1
 62
   179
420
  2234388
370
     9
100
AcDbVertex
100
AcDb2dVertex
 10
80.62746488746645
 20
-141.3853252424313
 30
0.0
  0
VERTEX
  5
B3
330
AD
100
AcDbEntity
  8
_U+30EC_U+30A4_U+30E4_U+30FC 1
 62
   179
420
  2234388
370
     9
100
AcDbVertex
100
AcDb2dVertex
 10
76.42358860582738
 20
-138.4969571875979
 30
0.0
  0
VERTEX
  5
B4
330
AD
100
AcDbEntity
  8
_U+30EC_U+30A4_U+30E4_U+30FC 1
 62
   179
420
  2234388
370
     9
100
AcDbVertex
100
AcDb2dVertex
 10
76.42358860582738
 20
-138.2716732987653
 30
0.0
  0
VERTEX
  5
B5
330
AD
100
AcDbEntity
  8
_U+30EC_U+30A4_U+30E4_U+30FC 1
 62
   179
420
  2234388
370
     9
100
AcDbVertex
100
AcDb2dVertex
 10
77.67295107395348
 20
-137.0079880213035
 30
0.0
  0
VERTEX
  5
B6
330
AD
100
AcDbEntity
  8
_U+30EC_U+30A4_U+30E4_U+30FC 1
 62
   179
420
  2234388
370
     9
100
AcDbVertex
100
AcDb2dVertex
 10
92.46016041892257
 20
-131.9223435781308
 30
0.0
  0
SEQEND
  5
B7
330
AD
100
AcDbEntity
  8
_U+30EC_U+30A4_U+30E4_U+30FC 1
 62
   179
420
  2234388
370
     9
  0
POLYLINE
  5
B8
330
5F
100
AcDbEntity
  8
_U+30EC_U+30A4_U+30E4_U+30FC 1
 62
   179
420
  2234388
370
     9
100
AcDb2dPolyline
 66
     1
 10
0.0
 20
0.0
 30
0.0
  0
VERTEX
  5
B9
330
B8
100
AcDbEntity
  8
_U+30EC_U+30A4_U+30E4_U+30FC 1
 62
   179
420
  2234388
370
     9
100
AcDbVertex
100
AcDb2dVertex
 10
98.69233248214883
 20
-135.9055574660236
 30
0.0
  0
VERTEX
  5
BA
330
B8
100
AcDbEntity
  8
_U+30EC_U+30A4_U+30E4_U+30FC 1
 62
   179
420
  2234388
370
     9
100
AcDbVertex
100
AcDb2dVertex
 10
83.93475646975708
 20
-141.1600413535987
 30
0.0
  0
VERTEX
  5
BB
330
B8
100
AcDbEntity
  8
_U+30EC_U+30A4_U+30E4_U+30FC 1
 62
   179
420
  2234388
370
     9
100
AcDbVertex
100
AcDb2dVertex
 10
80.62746488746645
 20
-141.1600413535987
 30
0.0
  0
VERTEX
  5
BC
330
B8
100
AcDbEntity
  8
_U+30EC_U+30A4_U+30E4_U+30FC 1
 62
   179
420
  2234388
370
     9
100
AcDbVertex
100
AcDb2dVertex
 10
76.42358860582738
 20
-138.2716732987653
 30
0.0
  0
SEQEND
  5
BD
330
B8
100
AcDbEntity
  8
_U+30EC_U+30A4_U+30E4_U+30FC 1
 62
   179
420
  2234388
370
     9
  0
POLYLINE
  5
BE
330
5F
100
AcDbEntity
  8
_U+30EC_U+30A4_U+30E4_U+30FC 1
 62
   179
420
  2234388
370
     9
100
AcDb2dPolyline
 66
     1
 10
0.0
 20
0.0
 30
0.0
  0
VERTEX
  5
BF
330
BE
100
AcDbEntity
  8
_U+30EC_U+30A4_U+30E4_U+30FC 1
 62
   179
420
  2234388
370
     9
100
AcDbVertex
100
AcDb2dVertex
 10
83.93475646975708
 20
-141.1600413535987
 30
0.0
  0
VERTEX
  5
C0
330
BE
100
AcDbEntity
  8
_U+30EC_U+30A4_U+30E4_U+30FC 1
 62
   179
420
  2234388
370
     9
100
AcDbVertex
100
AcDb2dVertex
 10
83.93475646975708
 20
-141.3853252424313
 30
0.0
  0
SEQEND
  5
C1
330
BE
100
AcDbEntity
  8
_U+30EC_U+30A4_U+30E4_U+30FC 1
 62
   179
420
  2234388
370
     9
  0
POLYLINE
  5
C2
330
5F
100
AcDbEntity
  8
_U+30EC_U+30A4_U+30E4_U+30FC 1
 62
   179
420
  2234388
370
     9
100
AcDb2dPolyline
 66
     1
 10
0.0
 20
0.0
 30
0.0
  0
VERTEX
  5
C3
330
C2
100
AcDbEntity
  8
_U+30EC_U+30A4_U+30E4_U+30FC 1
 62
   179
420
  2234388
370
     9
100
AcDbVertex
100
AcDb2dVertex
 10
80.62746488746645
 20
-141.1600413535987
 30
0.0
  0
VERTEX
  5
C4
330
C2
100
AcDbEntity
  8
_U+30EC_U+30A4_U+30E4_U+30FC 1
 62
   179
420
  2234388
370
     9
100
AcDbVertex
100
AcDb2dVertex
 10
80.62746488746645
 20
-141.3853252424313
 30
0.0
  0
SEQEND
  5
C5
330
C2
100
AcDbEntity
  8
_U+30EC_U+30A4_U+30E4_U+30FC 1
 62
   179
420
  2234388
370
     9
  0
POLYLINE
  5
C6
330
5F
100
AcDbEntity
  8
_U+30EC_U+30A4_U+30E4_U+30FC 1
 62
   179
420
  2234388
370
     9
100
AcDb2dPolyline
 66
     1
 10
0.0
 20
0.0
 30
0.0
  0
VERTEX
  5
C7
330
C6
100
AcDbEntity
  8
_U+30EC_U+30A4_U+30E4_U+30FC 1
 62
   179
420
  2234388
370
     9
100
AcDbVertex
100
AcDb2dVertex
 10
97.07795085666848
 20
-152.5550457951947
 30
0.0
  0
VERTEX
  5
C8
330
C6
100
AcDbEntity
  8
_U+30EC_U+30A4_U+30E4_U+30FC 1
 62
   179
420
  2234388
370
     9
100
AcDbVertex
100
AcDb2dVertex
 10
99.78100467659671
 20
-154.3995444058444
 30
0.0
  0
SEQEND
  5
C9
330
C6
100
AcDbEntity
  8
_U+30EC_U+30A4_U+30E4_U+30FC 1
 62
   179
420
  2234388
370
     9
  0
POLYLINE
  5
CA
330
5F
100
AcDbEntity
  8
_U+30EC_U+30A4_U+30E4_U+30FC 1
 62
   179
420
  2234388
370
     9
100
AcDb2dPolyline
 66
     1
 10
0.0
 20
0.0
 30
0.0
  0
VERTEX
  5
CB
330
CA
100
AcDbEntity
  8
_U+30EC_U+30A4_U+30E4_U+30FC 1
 62
   179
420
  2234388
370
     9
100
AcDbVertex
100
AcDb2dVertex
 10
98.806705530854
 20
-153.74704662823
 30
0.0
  0
VERTEX
  5
CC
330
CA
100
AcDbEntity
  8
_U+30EC_U+30A4_U+30E4_U+30FC 1
 62
   179
420
  2234388
370
     9
100
AcDbVertex
100
AcDb2dVertex
 10
105.0134045431071
 20
-151.037819128907
 30
0.0
  0
SEQEND
  5
CD
330
CA
100
AcDbEntity
  8
_U+30EC_U+30A4_U+30E4_U+30FC 1
 62
   179
420
  2234388
370
     9
  0
POLYLINE
  5
CE
330
5F
100
AcDbEntity
  8
_U+30EC_U+30A4_U+30E4_U+30FC 1
 62
   179
420
  2234388
370
     9
100
AcDb2dPolyline
 66
     1
 10
0.0
 20
0.0
 30
0.0
  0
VERTEX
  5
CF
330
CE
100
AcDbEntity
  8
_U+30EC_U+30A4_U+30E4_U+30FC 1
 62
   179
420
  2234388
370
     9
100
AcDbVertex
100
AcDb2dVertex
 10
107.8356266933284
 20
-149.9133399625215
 30
0.0
  0
VERTEX
  5
D0
330
CE
100
AcDbEntity
  8
_U+30EC_U+30A4_U+30E4_U+30FC 1
 62
   179
420
  2234388
370
     9
100
AcDbVertex
100
AcDb2dVertex
 10
114.5673320771439
 20
-146.9739602410343
 30
0.0
  0
SEQEND
  5
D1
330
CE
100
AcDbEntity
  8
_U+30EC_U+30A4_U+30E4_U+30FC 1
 62
   179
420
  2234388
370
     9
  0
SPLINE
  5
D2
330
5F
100
AcDbEntity
  8
_U+30EC_U+30A4_U+30E4_U+30FC 1
370
     0
100
AcDbSpline
210
0.0
220
0.0
230
1.0
 70
    11
 71
     3
 72
    17
 73
    13
 74
     0
 42
0.0000000001
 43
0.0000000001
 12
1.0
 22
0.0
 32
0.0
 13
1.0
 23
0.0
 33
0.0
 40
0.0
 40
0.0
 40
0.0
 40
0.0
 40
1.0
 40
1.0
 40
1.0
 40
2.0
 40
2.0
 40
2.0
 40
3.0
 40
3.0
 40
3.0
 40
4.0
 40
4.0
 40
4.0
 40
4.0
 10
99.03410358454063
 20
-153.7353344060107
 30
0.0
 10
99.03410358454063
 20
-153.8669205170888
 30
0.0
 10
98.92728247615476
 20
-153.9737063503955
 30
0.0
 10
98.79569636840068
 20
-153.9737063503955
 30
0.0
 10
98.66407498286975
 20
-153.9737063503955
 30
0.0
 10
98.55729164202735
 20
-153.8669205170888
 30
0.0
 10
98.55729164202735
 20
-153.7353344060107
 30
0.0
 10
98.55729164202735
 20
-153.60441857271
 30
0.0
 10
98.66407498286975
 20
-153.4975974616258
 30
0.0
 10
98.79569636840068
 20
-153.4975974616258
 30
0.0
 10
98.92728247615476
 20
-153.4975974616258
 30
0.0
 10
99.03410358454063
 20
-153.60441857271
 30
0.0
 10
99.03410358454063
 20
-153.7353344060107
 30
0.0
  0
HATCH
  5
D3
330
5F
100
AcDbEntity
  8
_U+30EC_U+30A4_U+30E4_U+30FC 1
 62
   179
420
  2234388
100
AcDbHatch
 10
0.0
 20
0.0
 30
0.0
210
0.0
220
0.0
230
1.0
  2
SOLID
 70
     1
 71
     0
 91
        1
 92
        1
 93
        1
 72
     4
 94
        3
 73
     0
 74
     1
 95
       17
 96
       13
 40
0.0
 40
0.0
 40
0.0
 40
0.0
 40
1.0
 40
1.0
 40
1.0
 40
2.0
 40
2.0
 40
2.0
 40
3.0
 40
3.0
 40
3.0
 40
4.0
 40
4.0
 40
4.0
 40
4.0
 10
99.03410358454063
 20
-153.7353344060107
 10
99.03410358454063
 20
-153.8669205170888
 10
98.92728247615476
 20
-153.9737063503955
 10
98.79569636840068
 20
-153.9737063503955
 10
98.66407498286975
 20
-153.9737063503955
 10
98.55729164202735
 20
-153.8669205170888
 10
98.55729164202735
 20
-153.7353344060107
 10
98.55729164202735
 20
-153.60441857271
 10
98.66407498286975
 20
-153.4975974616258
 10
98.79569636840068
 20
-153.4975974616258
 10
98.92728247615476
 20
-153.4975974616258
 10
99.03410358454063
 20
-153.60441857271
 10
99.03410358454063
 20
-153.7353344060107
 97
        0
 97
        0
 75
     2
 76
     1
 98
        0
  0
INSERT
  5
D5
330
5F
100
AcDbEntity
  8
_U+30EC_U+30A4_U+30E4_U+30FC 1
100
AcDbBlockReference
  2
block 4
 10
0.0
 20
0.0
 30
0.0
  0
INSERT
  5
11D
330
5F
100
AcDbEntity
  8
_U+30EC_U+30A4_U+30E4_U+30FC 1
100
AcDbBlockReference
  2
block 8
 10
0.0
 20
0.0
 30
0.0
  0
ENDBLK
  5
62
330
5F
100
AcDbEntity
  8
0
100
AcDbBlockEnd
  0
BLOCK
  5
D6
330
D4
100
AcDbEntity
  8
0
100
AcDbBlockBegin
  2
block 4
 70
     0
 10
0.0
 20
0.0
 30
0.0
  3
block 4
  1

  0
POLYLINE
  5
D8
330
D4
100
AcDbEntity
  8
_U+30EC_U+30A4_U+30E4_U+30FC 1
 62
   179
420
  2234388
370
     9
100
AcDb2dPolyline
 66
     1
 10
0.0
 20
0.0
 30
0.0
  0
VERTEX
  5
D9
330
D8
100
AcDbEntity
  8
_U+30EC_U+30A4_U+30E4_U+30FC 1
 62
   179
420
  2234388
370
     9
100
AcDbVertex
100
AcDb2dVertex
 10
77.52291664728594
 20
-143.2815057975129
 30
0.0
  0
VERTEX
  5
DA
330
D8
100
AcDbEntity
  8
_U+30EC_U+30A4_U+30E4_U+30FC 1
 62
   179
420
  2234388
370
     9
100
AcDbVertex
100
AcDb2dVertex
 10
80.5656249798586
 20
-142.3554641310777
 30
0.0
  0
SEQEND
  5
DB
330
D8
100
AcDbEntity
  8
_U+30EC_U+30A4_U+30E4_U+30FC 1
 62
   179
420
  2234388
370
     9
  0
POLYLINE
  5
DC
330
D4
100
AcDbEntity
  8
_U+30EC_U+30A4_U+30E4_U+30FC 1
 62
   179
420
  2234388
370
     9
100
AcDb2dPolyline
 66
     1
 10
0.0
 20
0.0
 30
0.0
  0
VERTEX
  5
DD
330
DC
100
AcDbEntity
  8
_U+30EC_U+30A4_U+30E4_U+30FC 1
 62
   179
420
  2234388
370
     9
100
AcDbVertex
100
AcDb2dVertex
 10
78.2284722026651
 20
-143.0610196864569
 30
0.0
  0
VERTEX
  5
DE
330
DC
100
AcDbEntity
  8
_U+30EC_U+30A4_U+30E4_U+30FC 1
 62
   179
420
  2234388
370
     9
100
AcDbVertex
100
AcDb2dVertex
 10
80.08055553553542
 20
-144.3398391305816
 30
0.0
  0
SEQEND
  5
DF
330
DC
100
AcDbEntity
  8
_U+30EC_U+30A4_U+30E4_U+30FC 1
 62
   179
420
  2234388
370
     9
  0
POLYLINE
  5
E0
330
D4
100
AcDbEntity
  8
_U+30EC_U+30A4_U+30E4_U+30FC 1
 62
   179
420
  2234388
370
     9
100
AcDb2dPolyline
 66
     1
 10
0.0
 20
0.0
 30
0.0
  0
VERTEX
  5
E1
330
E0
100
AcDbEntity
  8
_U+30EC_U+30A4_U+30E4_U+30FC 1
 62
   179
420
  2234388
370
     9
100
AcDbVertex
100
AcDb2dVertex
 10
83.07916664589688
 20
-146.4565057967191
 30
0.0
  0
VERTEX
  5
E2
330
E0
100
AcDbEntity
  8
_U+30EC_U+30A4_U+30E4_U+30FC 1
 62
   179
420
  2234388
370
     9
100
AcDbVertex
100
AcDb2dVertex
 10
87.0038194226935
 20
-149.1905335738134
 30
0.0
  0
SEQEND
  5
E3
330
E0
100
AcDbEntity
  8
_U+30EC_U+30A4_U+30E4_U+30FC 1
 62
   179
420
  2234388
370
     9
  0
POLYLINE
  5
E4
330
D4
100
AcDbEntity
  8
_U+30EC_U+30A4_U+30E4_U+30FC 1
 62
   179
420
  2234388
370
     9
100
AcDb2dPolyline
 66
     1
 10
0.0
 20
0.0
 30
0.0
  0
VERTEX
  5
E5
330
E4
100
AcDbEntity
  8
_U+30EC_U+30A4_U+30E4_U+30FC 1
 62
   179
420
  2234388
370
     9
100
AcDbVertex
100
AcDb2dVertex
 10
83.56423609022005
 20
-147.7353252408438
 30
0.0
  0
VERTEX
  5
E6
330
E4
100
AcDbEntity
  8
_U+30EC_U+30A4_U+30E4_U+30FC 1
 62
   179
420
  2234388
370
     9
100
AcDbVertex
100
AcDb2dVertex
 10
86.56284720058152
 20
-146.7651863521975
 30
0.0
  0
SEQEND
  5
E7
330
E4
100
AcDbEntity
  8
_U+30EC_U+30A4_U+30E4_U+30FC 1
 62
   179
420
  2234388
370
     9
  0
POLYLINE
  5
E8
330
D4
100
AcDbEntity
  8
_U+30EC_U+30A4_U+30E4_U+30FC 1
 62
   179
420
  2234388
370
     9
100
AcDb2dPolyline
 66
     1
 10
0.0
 20
0.0
 30
0.0
  0
VERTEX
  5
E9
330
E8
100
AcDbEntity
  8
_U+30EC_U+30A4_U+30E4_U+30FC 1
 62
   179
420
  2234388
370
     9
100
AcDbVertex
100
AcDb2dVertex
 10
90.8841962924621
 20
-152.894700239554
 30
0.0
  0
VERTEX
  5
EA
330
E8
100
AcDbEntity
  8
_U+30EC_U+30A4_U+30E4_U+30FC 1
 62
   179
420
  2234388
370
     9
100
AcDbVertex
100
AcDb2dVertex
 10
93.75069442100677
 20
-151.6158807954293
 30
0.0
  0
SEQEND
  5
EB
330
E8
100
AcDbEntity
  8
_U+30EC_U+30A4_U+30E4_U+30FC 1
 62
   179
420
  2234388
370
     9
  0
POLYLINE
  5
EC
330
D4
100
AcDbEntity
  8
_U+30EC_U+30A4_U+30E4_U+30FC 1
 62
   179
420
  2234388
370
     9
100
AcDb2dPolyline
 66
     1
 10
0.0
 20
0.0
 30
0.0
  0
VERTEX
  5
ED
330
EC
100
AcDbEntity
  8
_U+30EC_U+30A4_U+30E4_U+30FC 1
 62
   179
420
  2234388
370
     9
100
AcDbVertex
100
AcDb2dVertex
 10
89.91405742832352
 20
-151.3072002399509
 30
0.0
  0
VERTEX
  5
EE
330
EC
100
AcDbEntity
  8
_U+30EC_U+30A4_U+30E4_U+30FC 1
 62
   179
420
  2234388
370
     9
100
AcDbVertex
100
AcDb2dVertex
 10
91.76631942150287
 20
-152.5419224618644
 30
0.0
  0
SEQEND
  5
EF
330
EC
100
AcDbEntity
  8
_U+30EC_U+30A4_U+30E4_U+30FC 1
 62
   179
420
  2234388
370
     9
  0
SPLINE
  5
F0
330
D4
100
AcDbEntity
  8
_U+30EC_U+30A4_U+30E4_U+30FC 1
370
     0
100
AcDbSpline
210
0.0
220
0.0
230
1.0
 70
    11
 71
     3
 72
    17
 73
    13
 74
     0
 42
0.0000000001
 43
0.0000000001
 12
1.0
 22
0.0
 32
0.0
 13
1.0
 23
0.0
 33
0.0
 40
0.0
 40
0.0
 40
0.0
 40
0.0
 40
1.0
 40
1.0
 40
1.0
 40
2.0
 40
2.0
 40
2.0
 40
3.0
 40
3.0
 40
3.0
 40
4.0
 40
4.0
 40
4.0
 40
4.0
 10
78.44034855437555
 20
-143.0782705197858
 30
0.0
 10
78.44034855437555
 20
-143.2098566308639
 30
0.0
 10
78.33388022375844
 20
-143.3166777419488
 30
0.0
 10
78.20229411600437
 20
-143.3166777419488
 30
0.0
 10
78.07067273047343
 20
-143.3166777419488
 30
0.0
 10
77.96388886939792
 20
-143.2098566308639
 30
0.0
 10
77.96388886939792
 20
-143.0782705197858
 30
0.0
 10
77.96388886939792
 20
-142.9473546864851
 30
0.0
 10
78.07067273047343
 20
-142.8405335754009
 30
0.0
 10
78.20229411600437
 20
-142.8405335754009
 30
0.0
 10
78.33388022375844
 20
-142.8405335754009
 30
0.0
 10
78.44034855437555
 20
-142.9473546864851
 30
0.0
 10
78.44034855437555
 20
-143.0782705197858
 30
0.0
  0
HATCH
  5
F1
330
D4
100
AcDbEntity
  8
_U+30EC_U+30A4_U+30E4_U+30FC 1
 62
   179
420
  2234388
100
AcDbHatch
 10
0.0
 20
0.0
 30
0.0
210
0.0
220
0.0
230
1.0
  2
SOLID
 70
     1
 71
     0
 91
        1
 92
        1
 93
        1
 72
     4
 94
        3
 73
     0
 74
     1
 95
       17
 96
       13
 40
0.0
 40
0.0
 40
0.0
 40
0.0
 40
1.0
 40
1.0
 40
1.0
 40
2.0
 40
2.0
 40
2.0
 40
3.0
 40
3.0
 40
3.0
 40
4.0
 40
4.0
 40
4.0
 40
4.0
 10
78.44034855437555
 20
-143.0782705197858
 10
78.44034855437555
 20
-143.2098566308639
 10
78.33388022375844
 20
-143.3166777419488
 10
78.20229411600437
 20
-143.3166777419488
 10
78.07067273047343
 20
-143.3166777419488
 10
77.96388886939792
 20
-143.2098566308639
 10
77.96388886939792
 20
-143.0782705197858
 10
77.96388886939792
 20
-142.9473546864851
 10
78.07067273047343
 20
-142.8405335754009
 10
78.20229411600437
 20
-142.8405335754009
 10
78.33388022375844
 20
-142.8405335754009
 10
78.44034855437555
 20
-142.9473546864851
 10
78.44034855437555
 20
-143.0782705197858
 97
        0
 97
        0
 75
     2
 76
     1
 98
        0
  0
SPLINE
  5
F2
330
D4
100
AcDbEntity
  8
_U+30EC_U+30A4_U+30E4_U+30FC 1
370
     0
100
AcDbSpline
210
0.0
220
0.0
230
1.0
 70
    11
 71
     3
 72
    17
 73
    13
 74
     0
 42
0.0000000001
 43
0.0000000001
 12
1.0
 22
0.0
 32
0.0
 13
1.0
 23
0.0
 33
0.0
 40
0.0
 40
0.0
 40
0.0
 40
0.0
 40
1.0
 40
1.0
 40
1.0
 40
2.0
 40
2.0
 40
2.0
 40
3.0
 40
3.0
 40
3.0
 40
4.0
 40
4.0
 40
4.0
 40
4.0
 10
84.65805672908192
 20
-147.4438955186944
 30
0.0
 10
84.65805672908192
 20
-147.5754816297725
 30
0.0
 10
84.55158839846483
 20
-147.6823027408574
 30
0.0
 10
84.42000229071076
 20
-147.6823027408574
 30
0.0
 10
84.2883809051798
 20
-147.6823027408574
 30
0.0
 10
84.18159720117683
 20
-147.5754816297725
 30
0.0
 10
84.18159720117683
 20
-147.4438955186944
 30
0.0
 10
84.18159720117683
 20
-147.3129796853937
 30
0.0
 10
84.2883809051798
 20
-147.2061585743095
 30
0.0
 10
84.42000229071076
 20
-147.2061585743095
 30
0.0
 10
84.55158839846483
 20
-147.2061585743095
 30
0.0
 10
84.65805672908192
 20
-147.3129796853937
 30
0.0
 10
84.65805672908192
 20
-147.4438955186944
 30
0.0
  0
HATCH
  5
F3
330
D4
100
AcDbEntity
  8
_U+30EC_U+30A4_U+30E4_U+30FC 1
 62
   179
420
  2234388
100
AcDbHatch
 10
0.0
 20
0.0
 30
0.0
210
0.0
220
0.0
230
1.0
  2
SOLID
 70
     1
 71
     0
 91
        1
 92
        1
 93
        1
 72
     4
 94
        3
 73
     0
 74
     1
 95
       17
 96
       13
 40
0.0
 40
0.0
 40
0.0
 40
0.0
 40
1.0
 40
1.0
 40
1.0
 40
2.0
 40
2.0
 40
2.0
 40
3.0
 40
3.0
 40
3.0
 40
4.0
 40
4.0
 40
4.0
 40
4.0
 10
84.65805672908192
 20
-147.4438955186944
 10
84.65805672908192
 20
-147.5754816297725
 10
84.55158839846483
 20
-147.6823027408574
 10
84.42000229071076
 20
-147.6823027408574
 10
84.2883809051798
 20
-147.6823027408574
 10
84.18159720117683
 20
-147.5754816297725
 10
84.18159720117683
 20
-147.4438955186944
 10
84.18159720117683
 20
-147.3129796853937
 10
84.2883809051798
 20
-147.2061585743095
 10
84.42000229071076
 20
-147.2061585743095
 10
84.55158839846483
 20
-147.2061585743095
 10
84.65805672908192
 20
-147.3129796853937
 10
84.65805672908192
 20
-147.4438955186944
 97
        0
 97
        0
 75
     2
 76
     1
 98
        0
  0
SPLINE
  5
F4
330
D4
100
AcDbEntity
  8
_U+30EC_U+30A4_U+30E4_U+30FC 1
370
     0
100
AcDbSpline
210
0.0
220
0.0
230
1.0
 70
    11
 71
     3
 72
    17
 73
    13
 74
     0
 42
0.0000000001
 43
0.0000000001
 12
1.0
 22
0.0
 32
0.0
 13
1.0
 23
0.0
 33
0.0
 40
0.0
 40
0.0
 40
0.0
 40
0.0
 40
1.0
 40
1.0
 40
1.0
 40
2.0
 40
2.0
 40
2.0
 40
3.0
 40
3.0
 40
3.0
 40
4.0
 40
4.0
 40
4.0
 40
4.0
 10
91.97854820898729
 20
-152.470978850771
 30
0.0
 10
91.97854820898729
 20
-152.6025649618491
 30
0.0
 10
91.87172710060142
 20
-152.7093860729339
 30
0.0
 10
91.74014099284734
 20
-152.7093860729339
 30
0.0
 10
91.6085196073164
 20
-152.7093860729339
 30
0.0
 10
91.50173608823569
 20
-152.6025649618491
 30
0.0
 10
91.50173608823569
 20
-152.470978850771
 30
0.0
 10
91.50173608823569
 20
-152.3400630174703
 30
0.0
 10
91.6085196073164
 20
-152.233241906386
 30
0.0
 10
91.74014099284734
 20
-152.233241906386
 30
0.0
 10
91.87172710060142
 20
-152.233241906386
 30
0.0
 10
91.97854820898729
 20
-152.3400630174703
 30
0.0
 10
91.97854820898729
 20
-152.470978850771
 30
0.0
  0
HATCH
  5
F5
330
D4
100
AcDbEntity
  8
_U+30EC_U+30A4_U+30E4_U+30FC 1
 62
   179
420
  2234388
100
AcDbHatch
 10
0.0
 20
0.0
 30
0.0
210
0.0
220
0.0
230
1.0
  2
SOLID
 70
     1
 71
     0
 91
        1
 92
        1
 93
        1
 72
     4
 94
        3
 73
     0
 74
     1
 95
       17
 96
       13
 40
0.0
 40
0.0
 40
0.0
 40
0.0
 40
1.0
 40
1.0
 40
1.0
 40
2.0
 40
2.0
 40
2.0
 40
3.0
 40
3.0
 40
3.0
 40
4.0
 40
4.0
 40
4.0
 40
4.0
 10
91.97854820898729
 20
-152.470978850771
 10
91.97854820898729
 20
-152.6025649618491
 10
91.87172710060142
 20
-152.7093860729339
 10
91.74014099284734
 20
-152.7093860729339
 10
91.6085196073164
 20
-152.7093860729339
 10
91.50173608823569
 20
-152.6025649618491
 10
91.50173608823569
 20
-152.470978850771
 10
91.50173608823569
 20
-152.3400630174703
 10
91.6085196073164
 20
-152.233241906386
 10
91.74014099284734
 20
-152.233241906386
 10
91.87172710060142
 20
-152.233241906386
 10
91.97854820898729
 20
-152.3400630174703
 10
91.97854820898729
 20
-152.470978850771
 97
        0
 97
        0
 75
     2
 76
     1
 98
        0
  0
INSERT
  5
F7
330
D4
100
AcDbEntity
  8
_U+30EC_U+30A4_U+30E4_U+30FC 1
100
AcDbBlockReference
  2
block 5
 10
0.0
 20
0.0
 30
0.0
  0
POLYLINE
  5
FE
330
D4
100
AcDbEntity
  8
_U+30EC_U+30A4_U+30E4_U+30FC 1
 62
   179
420
  2234388
370
     9
100
AcDb2dPolyline
 66
     1
 10
0.0
 20
0.0
 30
0.0
  0
VERTEX
  5
FF
330
FE
100
AcDbEntity
  8
_U+30EC_U+30A4_U+30E4_U+30FC 1
 62
   179
420
  2234388
370
     9
100
AcDbVertex
100
AcDb2dVertex
 10
71.33155901351365
 20
-138.8979949652755
 30
0.0
  0
VERTEX
  5
100
330
FE
100
AcDbEntity
  8
_U+30EC_U+30A4_U+30E4_U+30FC 1
 62
   179
420
  2234388
370
     9
100
AcDbVertex
100
AcDb2dVertex
 10
74.37426726922104
 20
-137.9719532988403
 30
0.0
  0
SEQEND
  5
101
330
FE
100
AcDbEntity
  8
_U+30EC_U+30A4_U+30E4_U+30FC 1
 62
   179
420
  2234388
370
     9
  0
POLYLINE
  5
102
330
D4
100
AcDbEntity
  8
_U+30EC_U+30A4_U+30E4_U+30FC 1
 62
   179
420
  2234388
370
     9
100
AcDb2dPolyline
 66
     1
 10
0.0
 20
0.0
 30
0.0
  0
VERTEX
  5
103
330
102
100
AcDbEntity
  8
_U+30EC_U+30A4_U+30E4_U+30FC 1
 62
   179
420
  2234388
370
     9
100
AcDbVertex
100
AcDb2dVertex
 10
72.03711455106898
 20
-138.6775088542195
 30
0.0
  0
VERTEX
  5
104
330
102
100
AcDbEntity
  8
_U+30EC_U+30A4_U+30E4_U+30FC 1
 62
   179
420
  2234388
370
     9
100
AcDbVertex
100
AcDb2dVertex
 10
73.88919783715174
 20
-139.9563282983442
 30
0.0
  0
SEQEND
  5
105
330
102
100
AcDbEntity
  8
_U+30EC_U+30A4_U+30E4_U+30FC 1
 62
   179
420
  2234388
370
     9
  0
POLYLINE
  5
106
330
D4
100
AcDbEntity
  8
_U+30EC_U+30A4_U+30E4_U+30FC 1
 62
   179
420
  2234388
370
     9
100
AcDb2dPolyline
 66
     1
 10
0.0
 20
0.0
 30
0.0
  0
VERTEX
  5
107
330
106
100
AcDbEntity
  8
_U+30EC_U+30A4_U+30E4_U+30FC 1
 62
   179
420
  2234388
370
     9
100
AcDbVertex
100
AcDb2dVertex
 10
76.8878088717619
 20
-142.0729949644818
 30
0.0
  0
VERTEX
  5
108
330
106
100
AcDbEntity
  8
_U+30EC_U+30A4_U+30E4_U+30FC 1
 62
   179
420
  2234388
370
     9
100
AcDbVertex
100
AcDb2dVertex
 10
78.2284722026651
 20
-143.0610196864569
 30
0.0
  0
SEQEND
  5
109
330
106
100
AcDbEntity
  8
_U+30EC_U+30A4_U+30E4_U+30FC 1
 62
   179
420
  2234388
370
     9
  0
SPLINE
  5
10A
330
D4
100
AcDbEntity
  8
_U+30EC_U+30A4_U+30E4_U+30FC 1
370
     0
100
AcDbSpline
210
0.0
220
0.0
230
1.0
 70
    11
 71
     3
 72
    17
 73
    13
 74
     0
 42
0.0000000001
 43
0.0000000001
 12
1.0
 22
0.0
 32
0.0
 13
1.0
 23
0.0
 33
0.0
 40
0.0
 40
0.0
 40
0.0
 40
0.0
 40
1.0
 40
1.0
 40
1.0
 40
2.0
 40
2.0
 40
2.0
 40
3.0
 40
3.0
 40
3.0
 40
4.0
 40
4.0
 40
4.0
 40
4.0
 10
72.24899287899686
 20
-138.6947244097709
 30
0.0
 10
72.24899287899686
 20
-138.826310520849
 30
0.0
 10
72.14252454837975
 20
-138.9331316319332
 30
0.0
 10
72.01093844062568
 20
-138.9331316319332
 30
0.0
 10
71.87931705509473
 20
-138.9331316319332
 30
0.0
 10
71.77253122448573
 20
-138.826310520849
 30
0.0
 10
71.77253122448573
 20
-138.6947244097709
 30
0.0
 10
71.77253122448573
 20
-138.5638085764702
 30
0.0
 10
71.87931705509473
 20
-138.4570227431635
 30
0.0
 10
72.01093844062568
 20
-138.4570227431635
 30
0.0
 10
72.14252454837975
 20
-138.4570227431635
 30
0.0
 10
72.24899287899686
 20
-138.5638085764702
 30
0.0
 10
72.24899287899686
 20
-138.6947244097709
 30
0.0
  0
HATCH
  5
10B
330
D4
100
AcDbEntity
  8
_U+30EC_U+30A4_U+30E4_U+30FC 1
 62
   179
420
  2234388
100
AcDbHatch
 10
0.0
 20
0.0
 30
0.0
210
0.0
220
0.0
230
1.0
  2
SOLID
 70
     1
 71
     0
 91
        1
 92
        1
 93
        1
 72
     4
 94
        3
 73
     0
 74
     1
 95
       17
 96
       13
 40
0.0
 40
0.0
 40
0.0
 40
0.0
 40
1.0
 40
1.0
 40
1.0
 40
2.0
 40
2.0
 40
2.0
 40
3.0
 40
3.0
 40
3.0
 40
4.0
 40
4.0
 40
4.0
 40
4.0
 10
72.24899287899686
 20
-138.6947244097709
 10
72.24899287899686
 20
-138.826310520849
 10
72.14252454837975
 20
-138.9331316319332
 10
72.01093844062568
 20
-138.9331316319332
 10
71.87931705509473
 20
-138.9331316319332
 10
71.77253122448573
 20
-138.826310520849
 10
71.77253122448573
 20
-138.6947244097709
 10
71.77253122448573
 20
-138.5638085764702
 10
71.87931705509473
 20
-138.4570227431635
 10
72.01093844062568
 20
-138.4570227431635
 10
72.14252454837975
 20
-138.4570227431635
 10
72.24899287899686
 20
-138.5638085764702
 10
72.24899287899686
 20
-138.6947244097709
 97
        0
 97
        0
 75
     2
 76
     1
 98
        0
  0
INSERT
  5
10D
330
D4
100
AcDbEntity
  8
_U+30EC_U+30A4_U+30E4_U+30FC 1
100
AcDbBlockReference
  2
block 6
 10
0.0
 20
0.0
 30
0.0
  0
INSERT
  5
115
330
D4
100
AcDbEntity
  8
_U+30EC_U+30A4_U+30E4_U+30FC 1
100
AcDbBlockReference
  2
block 7
 10
0.0
 20
0.0
 30
0.0
  0
ENDBLK
  5
D7
330
D4
100
AcDbEntity
  8
0
100
AcDbBlockEnd
  0
BLOCK
  5
F8
330
F6
100
AcDbEntity
  8
0
100
AcDbBlockBegin
  2
block 5
 70
     0
 10
0.0
 20
0.0
 30
0.0
  3
block 5
  1

  0
SPLINE
  5
FA
330
F6
100
AcDbEntity
  8
_U+30EC_U+30A4_U+30E4_U+30FC 1
370
     0
100
AcDbSpline
210
0.0
220
0.0
230
1.0
 70
    11
 71
     3
 72
    26
 73
    22
 74
     0
 42
0.0000000001
 43
0.0000000001
 12
1.0
 22
0.0
 32
0.0
 13
1.0
 23
0.0
 33
0.0
 40
0.0
 40
0.0
 40
0.0
 40
0.0
 40
1.0
 40
1.0
 40
1.0
 40
2.0
 40
2.0
 40
2.0
 40
3.0
 40
3.0
 40
3.0
 40
4.0
 40
4.0
 40
4.0
 40
5.0
 40
5.0
 40
5.0
 40
6.0
 40
6.0
 40
6.0
 40
7.0
 40
7.0
 40
7.0
 40
7.0
 10
80.92873804400394
 20
-146.1478406752686
 30
0.0
 10
80.92873804400394
 20
-146.1478406752686
 30
0.0
 10
80.92873804400394
 20
-145.043687572246
 30
0.0
 10
80.92873804400394
 20
-145.043687572246
 30
0.0
 10
80.92873804400394
 20
-145.043687572246
 30
0.0
 10
80.598697896517
 20
-145.043687572246
 30
0.0
 10
80.598697896517
 20
-145.043687572246
 30
0.0
 10
80.598697896517
 20
-145.043687572246
 30
0.0
 10
80.598697896517
 20
-144.8955484663803
 30
0.0
 10
80.598697896517
 20
-144.8955484663803
 30
0.0
 10
80.93080510129508
 20
-144.8807345557937
 30
0.0
 10
80.97731389034595
 20
-144.7177815393414
 30
0.0
 10
81.0069417115191
 20
-144.6034043692311
 30
0.0
 10
81.0069417115191
 20
-144.6034043692311
 30
0.0
 10
81.1530137600937
 20
-144.6034043692311
 30
0.0
 10
81.1530137600937
 20
-144.6034043692311
 30
0.0
 10
81.1530137600937
 20
-144.6034043692311
 30
0.0
 10
81.1530137600937
 20
-146.1478406752686
 30
0.0
 10
81.1530137600937
 20
-146.1478406752686
 30
0.0
 10
81.1530137600937
 20
-146.1478406752686
 30
0.0
 10
80.92873804400394
 20
-146.1478406752686
 30
0.0
 10
80.92873804400394
 20
-146.1478406752686
 30
0.0
  0
HATCH
  5
FB
330
F6
100
AcDbEntity
  8
_U+30EC_U+30A4_U+30E4_U+30FC 1
 62
   179
420
  2234388
100
AcDbHatch
 10
0.0
 20
0.0
 30
0.0
210
0.0
220
0.0
230
1.0
  2
SOLID
 70
     1
 71
     0
 91
        1
 92
        1
 93
        1
 72
     4
 94
        3
 73
     0
 74
     1
 95
       26
 96
       22
 40
0.0
 40
0.0
 40
0.0
 40
0.0
 40
1.0
 40
1.0
 40
1.0
 40
2.0
 40
2.0
 40
2.0
 40
3.0
 40
3.0
 40
3.0
 40
4.0
 40
4.0
 40
4.0
 40
5.0
 40
5.0
 40
5.0
 40
6.0
 40
6.0
 40
6.0
 40
7.0
 40
7.0
 40
7.0
 40
7.0
 10
80.92873804400394
 20
-146.1478406752686
 10
80.92873804400394
 20
-146.1478406752686
 10
80.92873804400394
 20
-145.043687572246
 10
80.92873804400394
 20
-145.043687572246
 10
80.92873804400394
 20
-145.043687572246
 10
80.598697896517
 20
-145.043687572246
 10
80.598697896517
 20
-145.043687572246
 10
80.598697896517
 20
-145.043687572246
 10
80.598697896517
 20
-144.8955484663803
 10
80.598697896517
 20
-144.8955484663803
 10
80.93080510129508
 20
-144.8807345557937
 10
80.97731389034595
 20
-144.7177815393414
 10
81.0069417115191
 20
-144.6034043692311
 10
81.0069417115191
 20
-144.6034043692311
 10
81.1530137600937
 20
-144.6034043692311
 10
81.1530137600937
 20
-144.6034043692311
 10
81.1530137600937
 20
-144.6034043692311
 10
81.1530137600937
 20
-146.1478406752686
 10
81.1530137600937
 20
-146.1478406752686
 10
81.1530137600937
 20
-146.1478406752686
 10
80.92873804400394
 20
-146.1478406752686
 10
80.92873804400394
 20
-146.1478406752686
 97
        0
 97
        0
 75
     2
 76
     1
 98
        0
  0
SPLINE
  5
FC
330
F6
100
AcDbEntity
  8
_U+30EC_U+30A4_U+30E4_U+30FC 1
370
     0
100
AcDbSpline
210
0.0
220
0.0
230
1.0
 70
    11
 71
     3
 72
    53
 73
    49
 74
     0
 42
0.0000000001
 43
0.0000000001
 12
1.0
 22
0.0
 32
0.0
 13
1.0
 23
0.0
 33
0.0
 40
0.0
 40
0.0
 40
0.0
 40
0.0
 40
1.0
 40
1.0
 40
1.0
 40
2.0
 40
2.0
 40
2.0
 40
3.0
 40
3.0
 40
3.0
 40
4.0
 40
4.0
 40
4.0
 40
5.0
 40
5.0
 40
5.0
 40
6.0
 40
6.0
 40
6.0
 40
7.0
 40
7.0
 40
7.0
 40
8.0
 40
8.0
 40
8.0
 40
9.0
 40
9.0
 40
9.0
 40
10.0
 40
10.0
 40
10.0
 40
11.0
 40
11.0
 40
11.0
 40
12.0
 40
12.0
 40
12.0
 40
13.0
 40
13.0
 40
13.0
 40
14.0
 40
14.0
 40
14.0
 40
15.0
 40
15.0
 40
15.0
 40
16.0
 40
16.0
 40
16.0
 40
16.0
 10
82.13521048293842
 20
-146.1984835789018
 30
0.0
 10
82.056834560649
 20
-146.1984835789018
 30
0.0
 10
81.95537649860839
 20
-146.1816026110241
 30
0.0
 10
81.85374618179351
 20
-146.1182128540954
 30
0.0
 10
81.68028562411118
 20
-146.008314308116
 30
0.0
 10
81.6590982868769
 20
-145.877056170128
 30
0.0
 10
81.64015026170802
 20
-145.7692246814397
 30
0.0
 10
81.64015026170802
 20
-145.7692246814397
 30
0.0
 10
81.86235892050664
 20
-145.7692246814397
 30
0.0
 10
81.86235892050664
 20
-145.7692246814397
 30
0.0
 10
81.91730819349637
 20
-145.9680066909386
 30
0.0
 10
82.04425996212782
 20
-145.9976345121117
 30
0.0
 10
82.13727754022958
 20
-145.9976345121117
 30
0.0
 10
82.27697616215646
 20
-145.9976345121117
 30
0.0
 10
82.4292493826045
 20
-145.898071252588
 30
0.0
 10
82.4292493826045
 20
-145.6655273073336
 30
0.0
 10
82.4292493826045
 20
-145.4095567127796
 30
0.0
 10
82.24941539827445
 20
-145.339621274429
 30
0.0
 10
82.1288370562907
 20
-145.339621274429
 30
0.0
 10
82.09714217782641
 20
-145.339621274429
 30
0.0
 10
81.95537649860839
 20
-145.339621274429
 30
0.0
 10
81.86649303508894
 20
-145.4688123551259
 30
0.0
 10
81.86649303508894
 20
-145.4688123551259
 30
0.0
 10
81.69096542011546
 20
-145.449864329957
 30
0.0
 10
81.69096542011546
 20
-145.449864329957
 30
0.0
 10
81.69096542011546
 20
-145.449864329957
 30
0.0
 10
81.8115437620992
 20
-144.6034043692311
 30
0.0
 10
81.8115437620992
 20
-144.6034043692311
 30
0.0
 10
81.8115437620992
 20
-144.6034043692311
 30
0.0
 10
82.5899630869914
 20
-144.6034043692311
 30
0.0
 10
82.5899630869914
 20
-144.6034043692311
 30
0.0
 10
82.5899630869914
 20
-144.6034043692311
 30
0.0
 10
82.5899630869914
 20
-144.7980522641477
 30
0.0
 10
82.5899630869914
 20
-144.7980522641477
 30
0.0
 10
82.5899630869914
 20
-144.7980522641477
 30
0.0
 10
81.97432452377726
 20
-144.7980522641477
 30
0.0
 10
81.97432452377726
 20
-144.7980522641477
 30
0.0
 10
81.97432452377726
 20
-144.7980522641477
 30
0.0
 10
81.90886770955751
 20
-145.2211099897364
 30
0.0
 10
81.90886770955751
 20
-145.2211099897364
 30
0.0
 10
81.97019040919496
 20
-145.1873480539809
 30
0.0
 10
82.0527004460667
 20
-145.1470404368035
 30
0.0
 10
82.17121173075928
 20
-145.1470404368035
 30
0.0
 10
82.42494301324794
 20
-145.1470404368035
 30
0.0
 10
82.66196558263313
 20
-145.3334201025556
 30
0.0
 10
82.66196558263313
 20
-145.6465792821647
 30
0.0
 10
82.66196558263313
 20
-145.9638725763563
 30
0.0
 10
82.43768986654337
 20
-146.1984835789018
 30
0.0
 10
82.13521048293842
 20
-146.1984835789018
 30
0.0
  0
HATCH
  5
FD
330
F6
100
AcDbEntity
  8
_U+30EC_U+30A4_U+30E4_U+30FC 1
 62
   179
420
  2234388
100
AcDbHatch
 10
0.0
 20
0.0
 30
0.0
210
0.0
220
0.0
230
1.0
  2
SOLID
 70
     1
 71
     0
 91
        1
 92
        1
 93
        1
 72
     4
 94
        3
 73
     0
 74
     1
 95
       53
 96
       49
 40
0.0
 40
0.0
 40
0.0
 40
0.0
 40
1.0
 40
1.0
 40
1.0
 40
2.0
 40
2.0
 40
2.0
 40
3.0
 40
3.0
 40
3.0
 40
4.0
 40
4.0
 40
4.0
 40
5.0
 40
5.0
 40
5.0
 40
6.0
 40
6.0
 40
6.0
 40
7.0
 40
7.0
 40
7.0
 40
8.0
 40
8.0
 40
8.0
 40
9.0
 40
9.0
 40
9.0
 40
10.0
 40
10.0
 40
10.0
 40
11.0
 40
11.0
 40
11.0
 40
12.0
 40
12.0
 40
12.0
 40
13.0
 40
13.0
 40
13.0
 40
14.0
 40
14.0
 40
14.0
 40
15.0
 40
15.0
 40
15.0
 40
16.0
 40
16.0
 40
16.0
 40
16.0
 10
82.13521048293842
 20
-146.1984835789018
 10
82.056834560649
 20
-146.1984835789018
 10
81.95537649860839
 20
-146.1816026110241
 10
81.85374618179351
 20
-146.1182128540954
 10
81.68028562411118
 20
-146.008314308116
 10
81.6590982868769
 20
-145.877056170128
 10
81.64015026170802
 20
-145.7692246814397
 10
81.64015026170802
 20
-145.7692246814397
 10
81.86235892050664
 20
-145.7692246814397
 10
81.86235892050664
 20
-145.7692246814397
 10
81.91730819349637
 20
-145.9680066909386
 10
82.04425996212782
 20
-145.9976345121117
 10
82.13727754022958
 20
-145.9976345121117
 10
82.27697616215646
 20
-145.9976345121117
 10
82.4292493826045
 20
-145.898071252588
 10
82.4292493826045
 20
-145.6655273073336
 10
82.4292493826045
 20
-145.4095567127796
 10
82.24941539827445
 20
-145.339621274429
 10
82.1288370562907
 20
-145.339621274429
 10
82.09714217782641
 20
-145.339621274429
 10
81.95537649860839
 20
-145.339621274429
 10
81.86649303508894
 20
-145.4688123551259
 10
81.86649303508894
 20
-145.4688123551259
 10
81.69096542011546
 20
-145.449864329957
 10
81.69096542011546
 20
-145.449864329957
 10
81.69096542011546
 20
-145.449864329957
 10
81.8115437620992
 20
-144.6034043692311
 10
81.8115437620992
 20
-144.6034043692311
 10
81.8115437620992
 20
-144.6034043692311
 10
82.5899630869914
 20
-144.6034043692311
 10
82.5899630869914
 20
-144.6034043692311
 10
82.5899630869914
 20
-144.6034043692311
 10
82.5899630869914
 20
-144.7980522641477
 10
82.5899630869914
 20
-144.7980522641477
 10
82.5899630869914
 20
-144.7980522641477
 10
81.97432452377726
 20
-144.7980522641477
 10
81.97432452377726
 20
-144.7980522641477
 10
81.97432452377726
 20
-144.7980522641477
 10
81.90886770955751
 20
-145.2211099897364
 10
81.90886770955751
 20
-145.2211099897364
 10
81.97019040919496
 20
-145.1873480539809
 10
82.0527004460667
 20
-145.1470404368035
 10
82.17121173075928
 20
-145.1470404368035
 10
82.42494301324794
 20
-145.1470404368035
 10
82.66196558263313
 20
-145.3334201025556
 10
82.66196558263313
 20
-145.6465792821647
 10
82.66196558263313
 20
-145.9638725763563
 10
82.43768986654337
 20
-146.1984835789018
 10
82.13521048293842
 20
-146.1984835789018
 97
        0
 97
        0
 75
     2
 76
     1
 98
        0
  0
ENDBLK
  5
F9
330
F6
100
AcDbEntity
  8
0
100
AcDbBlockEnd
  0
BLOCK
  5
10E
330
10C
100
AcDbEntity
  8
0
100
AcDbBlockBegin
  2
block 6
 70
     0
 10
0.0
 20
0.0
 30
0.0
  3
block 6
  1

  0
SPLINE
  5
110
330
10C
100
AcDbEntity
  8
_U+30EC_U+30A4_U+30E4_U+30FC 1
370
     0
100
AcDbSpline
210
0.0
220
0.0
230
1.0
 70
    11
 71
     3
 72
    26
 73
    22
 74
     0
 42
0.0000000001
 43
0.0000000001
 12
1.0
 22
0.0
 32
0.0
 13
1.0
 23
0.0
 33
0.0
 40
0.0
 40
0.0
 40
0.0
 40
0.0
 40
1.0
 40
1.0
 40
1.0
 40
2.0
 40
2.0
 40
2.0
 40
3.0
 40
3.0
 40
3.0
 40
4.0
 40
4.0
 40
4.0
 40
5.0
 40
5.0
 40
5.0
 40
6.0
 40
6.0
 40
6.0
 40
7.0
 40
7.0
 40
7.0
 40
7.0
 10
74.73738469268719
 20
-141.7643011798367
 30
0.0
 10
74.73738469268719
 20
-141.7643011798367
 30
0.0
 10
74.73738469268719
 20
-140.6601480768141
 30
0.0
 10
74.73738469268719
 20
-140.6601480768141
 30
0.0
 10
74.73738469268719
 20
-140.6601480768141
 30
0.0
 10
74.40734454520025
 20
-140.6601480768141
 30
0.0
 10
74.40734454520025
 20
-140.6601480768141
 30
0.0
 10
74.40734454520025
 20
-140.6601480768141
 30
0.0
 10
74.40734454520025
 20
-140.5120089709484
 30
0.0
 10
74.40734454520025
 20
-140.5120089709484
 30
0.0
 10
74.73945174997833
 20
-140.4971950603618
 30
0.0
 10
74.7859605390292
 20
-140.3342420439095
 30
0.0
 10
74.81558836020236
 20
-140.2198648737992
 30
0.0
 10
74.81558836020236
 20
-140.2198648737992
 30
0.0
 10
74.96166040877695
 20
-140.2198648737992
 30
0.0
 10
74.96166040877695
 20
-140.2198648737992
 30
0.0
 10
74.96166040877695
 20
-140.2198648737992
 30
0.0
 10
74.96166040877695
 20
-141.7643011798367
 30
0.0
 10
74.96166040877695
 20
-141.7643011798367
 30
0.0
 10
74.96166040877695
 20
-141.7643011798367
 30
0.0
 10
74.73738469268719
 20
-141.7643011798367
 30
0.0
 10
74.73738469268719
 20
-141.7643011798367
 30
0.0
  0
HATCH
  5
111
330
10C
100
AcDbEntity
  8
_U+30EC_U+30A4_U+30E4_U+30FC 1
 62
   179
420
  2234388
100
AcDbHatch
 10
0.0
 20
0.0
 30
0.0
210
0.0
220
0.0
230
1.0
  2
SOLID
 70
     1
 71
     0
 91
        1
 92
        1
 93
        1
 72
     4
 94
        3
 73
     0
 74
     1
 95
       26
 96
       22
 40
0.0
 40
0.0
 40
0.0
 40
0.0
 40
1.0
 40
1.0
 40
1.0
 40
2.0
 40
2.0
 40
2.0
 40
3.0
 40
3.0
 40
3.0
 40
4.0
 40
4.0
 40
4.0
 40
5.0
 40
5.0
 40
5.0
 40
6.0
 40
6.0
 40
6.0
 40
7.0
 40
7.0
 40
7.0
 40
7.0
 10
74.73738469268719
 20
-141.7643011798367
 10
74.73738469268719
 20
-141.7643011798367
 10
74.73738469268719
 20
-140.6601480768141
 10
74.73738469268719
 20
-140.6601480768141
 10
74.73738469268719
 20
-140.6601480768141
 10
74.40734454520025
 20
-140.6601480768141
 10
74.40734454520025
 20
-140.6601480768141
 10
74.40734454520025
 20
-140.6601480768141
 10
74.40734454520025
 20
-140.5120089709484
 10
74.40734454520025
 20
-140.5120089709484
 10
74.73945174997833
 20
-140.4971950603618
 10
74.7859605390292
 20
-140.3342420439095
 10
74.81558836020236
 20
-140.2198648737992
 10
74.81558836020236
 20
-140.2198648737992
 10
74.96166040877695
 20
-140.2198648737992
 10
74.96166040877695
 20
-140.2198648737992
 10
74.96166040877695
 20
-140.2198648737992
 10
74.96166040877695
 20
-141.7643011798367
 10
74.96166040877695
 20
-141.7643011798367
 10
74.96166040877695
 20
-141.7643011798367
 10
74.73738469268719
 20
-141.7643011798367
 10
74.73738469268719
 20
-141.7643011798367
 97
        0
 97
        0
 75
     2
 76
     1
 98
        0
  0
SPLINE
  5
112
330
10C
100
AcDbEntity
  8
_U+30EC_U+30A4_U+30E4_U+30FC 1
370
     0
100
AcDbSpline
210
0.0
220
0.0
230
1.0
 70
    11
 71
     3
 72
    53
 73
    49
 74
     0
 42
0.0000000001
 43
0.0000000001
 12
1.0
 22
0.0
 32
0.0
 13
1.0
 23
0.0
 33
0.0
 40
0.0
 40
0.0
 40
0.0
 40
0.0
 40
1.0
 40
1.0
 40
1.0
 40
2.0
 40
2.0
 40
2.0
 40
3.0
 40
3.0
 40
3.0
 40
4.0
 40
4.0
 40
4.0
 40
5.0
 40
5.0
 40
5.0
 40
6.0
 40
6.0
 40
6.0
 40
7.0
 40
7.0
 40
7.0
 40
8.0
 40
8.0
 40
8.0
 40
9.0
 40
9.0
 40
9.0
 40
10.0
 40
10.0
 40
10.0
 40
11.0
 40
11.0
 40
11.0
 40
12.0
 40
12.0
 40
12.0
 40
13.0
 40
13.0
 40
13.0
 40
14.0
 40
14.0
 40
14.0
 40
15.0
 40
15.0
 40
15.0
 40
16.0
 40
16.0
 40
16.0
 40
16.0
 10
75.94385713162168
 20
-141.8149440834699
 30
0.0
 10
75.86548120933224
 20
-141.8149440834699
 30
0.0
 10
75.76402314729164
 20
-141.7980631155922
 30
0.0
 10
75.66239283047676
 20
-141.7346733586636
 30
0.0
 10
75.48893227279444
 20
-141.6247748126841
 30
0.0
 10
75.46791719033442
 20
-141.4935166746961
 30
0.0
 10
75.44879691039128
 20
-141.3856851860077
 30
0.0
 10
75.44879691039128
 20
-141.3856851860077
 30
0.0
 10
75.67083331441563
 20
-141.3856851860077
 30
0.0
 10
75.67083331441563
 20
-141.3856851860077
 30
0.0
 10
75.72595484217963
 20
-141.5844671955067
 30
0.0
 10
75.85290661081108
 20
-141.6140950166798
 30
0.0
 10
75.94592418891283
 20
-141.6140950166798
 30
0.0
 10
76.08562281083971
 20
-141.6140950166798
 30
0.0
 10
76.23789603128775
 20
-141.5145317571561
 30
0.0
 10
76.23789603128775
 20
-141.2819878119017
 30
0.0
 10
76.23789603128775
 20
-141.0260172173477
 30
0.0
 10
76.05806204695772
 20
-140.9560817789971
 30
0.0
 10
75.93748370497397
 20
-140.9560817789971
 30
0.0
 10
75.90578882650966
 20
-140.9560817789971
 30
0.0
 10
75.76402314729164
 20
-140.9560817789971
 30
0.0
 10
75.67513968377219
 20
-141.085272859694
 30
0.0
 10
75.67513968377219
 20
-141.085272859694
 30
0.0
 10
75.49961206879871
 20
-141.0663248345251
 30
0.0
 10
75.49961206879871
 20
-141.0663248345251
 30
0.0
 10
75.49961206879871
 20
-141.0663248345251
 30
0.0
 10
75.62019041078246
 20
-140.2198648737992
 30
0.0
 10
75.62019041078246
 20
-140.2198648737992
 30
0.0
 10
75.62019041078246
 20
-140.2198648737992
 30
0.0
 10
76.39860973567465
 20
-140.2198648737992
 30
0.0
 10
76.39860973567465
 20
-140.2198648737992
 30
0.0
 10
76.39860973567465
 20
-140.2198648737992
 30
0.0
 10
76.39860973567465
 20
-140.4145127687158
 30
0.0
 10
76.39860973567465
 20
-140.4145127687158
 30
0.0
 10
76.39860973567465
 20
-140.4145127687158
 30
0.0
 10
75.7829711724605
 20
-140.4145127687158
 30
0.0
 10
75.7829711724605
 20
-140.4145127687158
 30
0.0
 10
75.7829711724605
 20
-140.4145127687158
 30
0.0
 10
75.71751435824076
 20
-140.8375704943045
 30
0.0
 10
75.71751435824076
 20
-140.8375704943045
 30
0.0
 10
75.7788370578782
 20
-140.8038085585491
 30
0.0
 10
75.86134709474995
 20
-140.7635009413716
 30
0.0
 10
75.97985837944253
 20
-140.7635009413716
 30
0.0
 10
76.23358966193119
 20
-140.7635009413716
 30
0.0
 10
76.47061223131638
 20
-140.9498806071236
 30
0.0
 10
76.47061223131638
 20
-141.2630397867329
 30
0.0
 10
76.47061223131638
 20
-141.5803330809244
 30
0.0
 10
76.24633651522662
 20
-141.8149440834699
 30
0.0
 10
75.94385713162168
 20
-141.8149440834699
 30
0.0
  0
HATCH
  5
113
330
10C
100
AcDbEntity
  8
_U+30EC_U+30A4_U+30E4_U+30FC 1
 62
   179
420
  2234388
100
AcDbHatch
 10
0.0
 20
0.0
 30
0.0
210
0.0
220
0.0
230
1.0
  2
SOLID
 70
     1
 71
     0
 91
        1
 92
        1
 93
        1
 72
     4
 94
        3
 73
     0
 74
     1
 95
       53
 96
       49
 40
0.0
 40
0.0
 40
0.0
 40
0.0
 40
1.0
 40
1.0
 40
1.0
 40
2.0
 40
2.0
 40
2.0
 40
3.0
 40
3.0
 40
3.0
 40
4.0
 40
4.0
 40
4.0
 40
5.0
 40
5.0
 40
5.0
 40
6.0
 40
6.0
 40
6.0
 40
7.0
 40
7.0
 40
7.0
 40
8.0
 40
8.0
 40
8.0
 40
9.0
 40
9.0
 40
9.0
 40
10.0
 40
10.0
 40
10.0
 40
11.0
 40
11.0
 40
11.0
 40
12.0
 40
12.0
 40
12.0
 40
13.0
 40
13.0
 40
13.0
 40
14.0
 40
14.0
 40
14.0
 40
15.0
 40
15.0
 40
15.0
 40
16.0
 40
16.0
 40
16.0
 40
16.0
 10
75.94385713162168
 20
-141.8149440834699
 10
75.86548120933224
 20
-141.8149440834699
 10
75.76402314729164
 20
-141.7980631155922
 10
75.66239283047676
 20
-141.7346733586636
 10
75.48893227279444
 20
-141.6247748126841
 10
75.46791719033442
 20
-141.4935166746961
 10
75.44879691039128
 20
-141.3856851860077
 10
75.44879691039128
 20
-141.3856851860077
 10
75.67083331441563
 20
-141.3856851860077
 10
75.67083331441563
 20
-141.3856851860077
 10
75.72595484217963
 20
-141.5844671955067
 10
75.85290661081108
 20
-141.6140950166798
 10
75.94592418891283
 20
-141.6140950166798
 10
76.08562281083971
 20
-141.6140950166798
 10
76.23789603128775
 20
-141.5145317571561
 10
76.23789603128775
 20
-141.2819878119017
 10
76.23789603128775
 20
-141.0260172173477
 10
76.05806204695772
 20
-140.9560817789971
 10
75.93748370497397
 20
-140.9560817789971
 10
75.90578882650966
 20
-140.9560817789971
 10
75.76402314729164
 20
-140.9560817789971
 10
75.67513968377219
 20
-141.085272859694
 10
75.67513968377219
 20
-141.085272859694
 10
75.49961206879871
 20
-141.0663248345251
 10
75.49961206879871
 20
-141.0663248345251
 10
75.49961206879871
 20
-141.0663248345251
 10
75.62019041078246
 20
-140.2198648737992
 10
75.62019041078246
 20
-140.2198648737992
 10
75.62019041078246
 20
-140.2198648737992
 10
76.39860973567465
 20
-140.2198648737992
 10
76.39860973567465
 20
-140.2198648737992
 10
76.39860973567465
 20
-140.2198648737992
 10
76.39860973567465
 20
-140.4145127687158
 10
76.39860973567465
 20
-140.4145127687158
 10
76.39860973567465
 20
-140.4145127687158
 10
75.7829711724605
 20
-140.4145127687158
 10
75.7829711724605
 20
-140.4145127687158
 10
75.7829711724605
 20
-140.4145127687158
 10
75.71751435824076
 20
-140.8375704943045
 10
75.71751435824076
 20
-140.8375704943045
 10
75.7788370578782
 20
-140.8038085585491
 10
75.86134709474995
 20
-140.7635009413716
 10
75.97985837944253
 20
-140.7635009413716
 10
76.23358966193119
 20
-140.7635009413716
 10
76.47061223131638
 20
-140.9498806071236
 10
76.47061223131638
 20
-141.2630397867329
 10
76.47061223131638
 20
-141.5803330809244
 10
76.24633651522662
 20
-141.8149440834699
 10
75.94385713162168
 20
-141.8149440834699
 97
        0
 97
        0
 75
     2
 76
     1
 98
        0
  0
ENDBLK
  5
10F
330
10C
100
AcDbEntity
  8
0
100
AcDbBlockEnd
  0
BLOCK
  5
116
330
114
100
AcDbEntity
  8
0
100
AcDbBlockBegin
  2
block 7
 70
     0
 10
0.0
 20
0.0
 30
0.0
  3
block 7
  1

  0
SPLINE
  5
118
330
114
100
AcDbEntity
  8
_U+30EC_U+30A4_U+30E4_U+30FC 1
370
     0
100
AcDbSpline
210
0.0
220
0.0
230
1.0
 70
    11
 71
     3
 72
    26
 73
    22
 74
     0
 42
0.0000000001
 43
0.0000000001
 12
1.0
 22
0.0
 32
0.0
 13
1.0
 23
0.0
 33
0.0
 40
0.0
 40
0.0
 40
0.0
 40
0.0
 40
1.0
 40
1.0
 40
1.0
 40
2.0
 40
2.0
 40
2.0
 40
3.0
 40
3.0
 40
3.0
 40
4.0
 40
4.0
 40
4.0
 40
5.0
 40
5.0
 40
5.0
 40
6.0
 40
6.0
 40
6.0
 40
7.0
 40
7.0
 40
7.0
 40
7.0
 10
87.54332137568362
 20
-151.1749240073452
 30
0.0
 10
87.54332137568362
 20
-151.1749240073452
 30
0.0
 10
87.54332137568362
 20
-150.0707709043226
 30
0.0
 10
87.54332137568362
 20
-150.0707709043226
 30
0.0
 10
87.54332137568362
 20
-150.0707709043226
 30
0.0
 10
87.21328122819668
 20
-150.0707709043226
 30
0.0
 10
87.21328122819668
 20
-150.0707709043226
 30
0.0
 10
87.21328122819668
 20
-150.0707709043226
 30
0.0
 10
87.21328122819668
 20
-149.9226317984568
 30
0.0
 10
87.21328122819668
 20
-149.9226317984568
 30
0.0
 10
87.54538843297476
 20
-149.9078178878703
 30
0.0
 10
87.59189722202564
 20
-149.7448648714179
 30
0.0
 10
87.62152504319879
 20
-149.6304877013077
 30
0.0
 10
87.62152504319879
 20
-149.6304877013077
 30
0.0
 10
87.76759709177338
 20
-149.6304877013077
 30
0.0
 10
87.76759709177338
 20
-149.6304877013077
 30
0.0
 10
87.76759709177338
 20
-149.6304877013077
 30
0.0
 10
87.76759709177338
 20
-151.1749240073452
 30
0.0
 10
87.76759709177338
 20
-151.1749240073452
 30
0.0
 10
87.76759709177338
 20
-151.1749240073452
 30
0.0
 10
87.54332137568362
 20
-151.1749240073452
 30
0.0
 10
87.54332137568362
 20
-151.1749240073452
 30
0.0
  0
HATCH
  5
119
330
114
100
AcDbEntity
  8
_U+30EC_U+30A4_U+30E4_U+30FC 1
 62
   179
420
  2234388
100
AcDbHatch
 10
0.0
 20
0.0
 30
0.0
210
0.0
220
0.0
230
1.0
  2
SOLID
 70
     1
 71
     0
 91
        1
 92
        1
 93
        1
 72
     4
 94
        3
 73
     0
 74
     1
 95
       26
 96
       22
 40
0.0
 40
0.0
 40
0.0
 40
0.0
 40
1.0
 40
1.0
 40
1.0
 40
2.0
 40
2.0
 40
2.0
 40
3.0
 40
3.0
 40
3.0
 40
4.0
 40
4.0
 40
4.0
 40
5.0
 40
5.0
 40
5.0
 40
6.0
 40
6.0
 40
6.0
 40
7.0
 40
7.0
 40
7.0
 40
7.0
 10
87.54332137568362
 20
-151.1749240073452
 10
87.54332137568362
 20
-151.1749240073452
 10
87.54332137568362
 20
-150.0707709043226
 10
87.54332137568362
 20
-150.0707709043226
 10
87.54332137568362
 20
-150.0707709043226
 10
87.21328122819668
 20
-150.0707709043226
 10
87.21328122819668
 20
-150.0707709043226
 10
87.21328122819668
 20
-150.0707709043226
 10
87.21328122819668
 20
-149.9226317984568
 10
87.21328122819668
 20
-149.9226317984568
 10
87.54538843297476
 20
-149.9078178878703
 10
87.59189722202564
 20
-149.7448648714179
 10
87.62152504319879
 20
-149.6304877013077
 10
87.62152504319879
 20
-149.6304877013077
 10
87.76759709177338
 20
-149.6304877013077
 10
87.76759709177338
 20
-149.6304877013077
 10
87.76759709177338
 20
-149.6304877013077
 10
87.76759709177338
 20
-151.1749240073452
 10
87.76759709177338
 20
-151.1749240073452
 10
87.76759709177338
 20
-151.1749240073452
 10
87.54332137568362
 20
-151.1749240073452
 10
87.54332137568362
 20
-151.1749240073452
 97
        0
 97
        0
 75
     2
 76
     1
 98
        0
  0
SPLINE
  5
11A
330
114
100
AcDbEntity
  8
_U+30EC_U+30A4_U+30E4_U+30FC 1
370
     0
100
AcDbSpline
210
0.0
220
0.0
230
1.0
 70
    11
 71
     3
 72
    53
 73
    49
 74
     0
 42
0.0000000001
 43
0.0000000001
 12
1.0
 22
0.0
 32
0.0
 13
1.0
 23
0.0
 33
0.0
 40
0.0
 40
0.0
 40
0.0
 40
0.0
 40
1.0
 40
1.0
 40
1.0
 40
2.0
 40
2.0
 40
2.0
 40
3.0
 40
3.0
 40
3.0
 40
4.0
 40
4.0
 40
4.0
 40
5.0
 40
5.0
 40
5.0
 40
6.0
 40
6.0
 40
6.0
 40
7.0
 40
7.0
 40
7.0
 40
8.0
 40
8.0
 40
8.0
 40
9.0
 40
9.0
 40
9.0
 40
10.0
 40
10.0
 40
10.0
 40
11.0
 40
11.0
 40
11.0
 40
12.0
 40
12.0
 40
12.0
 40
13.0
 40
13.0
 40
13.0
 40
14.0
 40
14.0
 40
14.0
 40
15.0
 40
15.0
 40
15.0
 40
16.0
 40
16.0
 40
16.0
 40
16.0
 10
88.74979381461812
 20
-151.2255669109783
 30
0.0
 10
88.67141789232868
 20
-151.2255669109783
 30
0.0
 10
88.56995983028807
 20
-151.2086859431006
 30
0.0
 10
88.4683295134732
 20
-151.145296186172
 30
0.0
 10
88.29486895579088
 20
-151.0353976401925
 30
0.0
 10
88.27368161855658
 20
-150.9041395022045
 30
0.0
 10
88.25473359338771
 20
-150.7963080135162
 30
0.0
 10
88.25473359338771
 20
-150.7963080135162
 30
0.0
 10
88.47694225218632
 20
-150.7963080135162
 30
0.0
 10
88.47694225218632
 20
-150.7963080135162
 30
0.0
 10
88.53189152517606
 20
-150.9950900230151
 30
0.0
 10
88.65884329380752
 20
-151.0247178441883
 30
0.0
 10
88.75186087190926
 20
-151.0247178441883
 30
0.0
 10
88.89155949383614
 20
-151.0247178441883
 30
0.0
 10
89.04383271428418
 20
-150.9251545846645
 30
0.0
 10
89.04383271428418
 20
-150.6926106394102
 30
0.0
 10
89.04383271428418
 20
-150.4366400448561
 30
0.0
 10
88.86399872995415
 20
-150.3667046065056
 30
0.0
 10
88.7434203879704
 20
-150.3667046065056
 30
0.0
 10
88.7117255095061
 20
-150.3667046065056
 30
0.0
 10
88.56995983028807
 20
-150.3667046065056
 30
0.0
 10
88.48107636676862
 20
-150.4958956872024
 30
0.0
 10
88.48107636676862
 20
-150.4958956872024
 30
0.0
 10
88.30554875179514
 20
-150.4769476620336
 30
0.0
 10
88.30554875179514
 20
-150.4769476620336
 30
0.0
 10
88.30554875179514
 20
-150.4769476620336
 30
0.0
 10
88.42612709377889
 20
-149.6304877013077
 30
0.0
 10
88.42612709377889
 20
-149.6304877013077
 30
0.0
 10
88.42612709377889
 20
-149.6304877013077
 30
0.0
 10
89.20454641867109
 20
-149.6304877013077
 30
0.0
 10
89.20454641867109
 20
-149.6304877013077
 30
0.0
 10
89.20454641867109
 20
-149.6304877013077
 30
0.0
 10
89.20454641867109
 20
-149.8251355962243
 30
0.0
 10
89.20454641867109
 20
-149.8251355962243
 30
0.0
 10
89.20454641867109
 20
-149.8251355962243
 30
0.0
 10
88.58890785545694
 20
-149.8251355962243
 30
0.0
 10
88.58890785545694
 20
-149.8251355962243
 30
0.0
 10
88.58890785545694
 20
-149.8251355962243
 30
0.0
 10
88.5234510412372
 20
-150.2481933218129
 30
0.0
 10
88.5234510412372
 20
-150.2481933218129
 30
0.0
 10
88.58477374087464
 20
-150.2144313860575
 30
0.0
 10
88.66728377774638
 20
-150.1741237688801
 30
0.0
 10
88.78579506243898
 20
-150.1741237688801
 30
0.0
 10
89.03952634492762
 20
-150.1741237688801
 30
0.0
 10
89.27654891431281
 20
-150.3605034346321
 30
0.0
 10
89.27654891431281
 20
-150.6736626142413
 30
0.0
 10
89.27654891431281
 20
-150.9909559084328
 30
0.0
 10
89.05227319822305
 20
-151.2255669109783
 30
0.0
 10
88.74979381461812
 20
-151.2255669109783
 30
0.0
  0
HATCH
  5
11B
330
114
100
AcDbEntity
  8
_U+30EC_U+30A4_U+30E4_U+30FC 1
 62
   179
420
  2234388
100
AcDbHatch
 10
0.0
 20
0.0
 30
0.0
210
0.0
220
0.0
230
1.0
  2
SOLID
 70
     1
 71
     0
 91
        1
 92
        1
 93
        1
 72
     4
 94
        3
 73
     0
 74
     1
 95
       53
 96
       49
 40
0.0
 40
0.0
 40
0.0
 40
0.0
 40
1.0
 40
1.0
 40
1.0
 40
2.0
 40
2.0
 40
2.0
 40
3.0
 40
3.0
 40
3.0
 40
4.0
 40
4.0
 40
4.0
 40
5.0
 40
5.0
 40
5.0
 40
6.0
 40
6.0
 40
6.0
 40
7.0
 40
7.0
 40
7.0
 40
8.0
 40
8.0
 40
8.0
 40
9.0
 40
9.0
 40
9.0
 40
10.0
 40
10.0
 40
10.0
 40
11.0
 40
11.0
 40
11.0
 40
12.0
 40
12.0
 40
12.0
 40
13.0
 40
13.0
 40
13.0
 40
14.0
 40
14.0
 40
14.0
 40
15.0
 40
15.0
 40
15.0
 40
16.0
 40
16.0
 40
16.0
 40
16.0
 10
88.74979381461812
 20
-151.2255669109783
 10
88.67141789232868
 20
-151.2255669109783
 10
88.56995983028807
 20
-151.2086859431006
 10
88.4683295134732
 20
-151.145296186172
 10
88.29486895579088
 20
-151.0353976401925
 10
88.27368161855658
 20
-150.9041395022045
 10
88.25473359338771
 20
-150.7963080135162
 10
88.25473359338771
 20
-150.7963080135162
 10
88.47694225218632
 20
-150.7963080135162
 10
88.47694225218632
 20
-150.7963080135162
 10
88.53189152517606
 20
-150.9950900230151
 10
88.65884329380752
 20
-151.0247178441883
 10
88.75186087190926
 20
-151.0247178441883
 10
88.89155949383614
 20
-151.0247178441883
 10
89.04383271428418
 20
-150.9251545846645
 10
89.04383271428418
 20
-150.6926106394102
 10
89.04383271428418
 20
-150.4366400448561
 10
88.86399872995415
 20
-150.3667046065056
 10
88.7434203879704
 20
-150.3667046065056
 10
88.7117255095061
 20
-150.3667046065056
 10
88.56995983028807
 20
-150.3667046065056
 10
88.48107636676862
 20
-150.4958956872024
 10
88.48107636676862
 20
-150.4958956872024
 10
88.30554875179514
 20
-150.4769476620336
 10
88.30554875179514
 20
-150.4769476620336
 10
88.30554875179514
 20
-150.4769476620336
 10
88.42612709377889
 20
-149.6304877013077
 10
88.42612709377889
 20
-149.6304877013077
 10
88.42612709377889
 20
-149.6304877013077
 10
89.20454641867109
 20
-149.6304877013077
 10
89.20454641867109
 20
-149.6304877013077
 10
89.20454641867109
 20
-149.6304877013077
 10
89.20454641867109
 20
-149.8251355962243
 10
89.20454641867109
 20
-149.8251355962243
 10
89.20454641867109
 20
-149.8251355962243
 10
88.58890785545694
 20
-149.8251355962243
 10
88.58890785545694
 20
-149.8251355962243
 10
88.58890785545694
 20
-149.8251355962243
 10
88.5234510412372
 20
-150.2481933218129
 10
88.5234510412372
 20
-150.2481933218129
 10
88.58477374087464
 20
-150.2144313860575
 10
88.66728377774638
 20
-150.1741237688801
 10
88.78579506243898
 20
-150.1741237688801
 10
89.03952634492762
 20
-150.1741237688801
 10
89.27654891431281
 20
-150.3605034346321
 10
89.27654891431281
 20
-150.6736626142413
 10
89.27654891431281
 20
-150.9909559084328
 10
89.05227319822305
 20
-151.2255669109783
 10
88.74979381461812
 20
-151.2255669109783
 97
        0
 97
        0
 75
     2
 76
     1
 98
        0
  0
ENDBLK
  5
117
330
114
100
AcDbEntity
  8
0
100
AcDbBlockEnd
  0
BLOCK
  5
11E
330
11C
100
AcDbEntity
  8
0
100
AcDbBlockBegin
  2
block 8
 70
     0
 10
0.0
 20
0.0
 30
0.0
  3
block 8
  1

  0
POLYLINE
  5
120
330
11C
100
AcDbEntity
  8
_U+30EC_U+30A4_U+30E4_U+30FC 1
370
     0
100
AcDb2dPolyline
 66
     1
 10
0.0
 20
0.0
 30
0.0
  0
VERTEX
  5
121
330
120
100
AcDbEntity
  8
_U+30EC_U+30A4_U+30E4_U+30FC 1
370
     0
100
AcDbVertex
100
AcDb2dVertex
 10
106.2650037711768
 20
-150.9120632218206
 30
0.0
  0
VERTEX
  5
122
330
120
100
AcDbEntity
  8
_U+30EC_U+30A4_U+30E4_U+30FC 1
370
     0
100
AcDbVertex
100
AcDb2dVertex
 10
106.2650037711768
 20
-151.2589843371853
 30
0.0
  0
VERTEX
  5
123
330
120
100
AcDbEntity
  8
_U+30EC_U+30A4_U+30E4_U+30FC 1
370
     0
100
AcDbVertex
100
AcDb2dVertex
 10
106.047273736509
 20
-151.2589843371853
 30
0.0
  0
VERTEX
  5
124
330
120
100
AcDbEntity
  8
_U+30EC_U+30A4_U+30E4_U+30FC 1
370
     0
100
AcDbVertex
100
AcDb2dVertex
 10
106.047273736509
 20
-150.9120632218206
 30
0.0
  0
VERTEX
  5
125
330
120
100
AcDbEntity
  8
_U+30EC_U+30A4_U+30E4_U+30FC 1
370
     0
100
AcDbVertex
100
AcDb2dVertex
 10
105.3913275561174
 20
-150.9120632218206
 30
0.0
  0
VERTEX
  5
126
330
120
100
AcDbEntity
  8
_U+30EC_U+30A4_U+30E4_U+30FC 1
370
     0
100
AcDbVertex
100
AcDb2dVertex
 10
105.3913275561174
 20
-150.6877875057308
 30
0.0
  0
VERTEX
  5
127
330
120
100
AcDbEntity
  8
_U+30EC_U+30A4_U+30E4_U+30FC 1
370
     0
100
AcDbVertex
100
AcDb2dVertex
 10
106.0703558762602
 20
-149.7145480311478
 30
0.0
  0
VERTEX
  5
128
330
120
100
AcDbEntity
  8
_U+30EC_U+30A4_U+30E4_U+30FC 1
370
     0
100
AcDbVertex
100
AcDb2dVertex
 10
106.2650037711768
 20
-149.7145480311478
 30
0.0
  0
VERTEX
  5
129
330
120
100
AcDbEntity
  8
_U+30EC_U+30A4_U+30E4_U+30FC 1
370
     0
100
AcDbVertex
100
AcDb2dVertex
 10
106.2650037711768
 20
-150.7132812123217
 30
0.0
  0
VERTEX
  5
12A
330
120
100
AcDbEntity
  8
_U+30EC_U+30A4_U+30E4_U+30FC 1
370
     0
100
AcDbVertex
100
AcDb2dVertex
 10
106.4723985193888
 20
-150.7132812123217
 30
0.0
  0
VERTEX
  5
12B
330
120
100
AcDbEntity
  8
_U+30EC_U+30A4_U+30E4_U+30FC 1
370
     0
100
AcDbVertex
100
AcDb2dVertex
 10
106.4723985193888
 20
-150.9120632218206
 30
0.0
  0
VERTEX
  5
12C
330
120
100
AcDbEntity
  8
_U+30EC_U+30A4_U+30E4_U+30FC 1
370
     0
100
AcDbVertex
100
AcDb2dVertex
 10
106.2650037711768
 20
-150.9120632218206
 30
0.0
  0
SEQEND
  5
12D
330
120
100
AcDbEntity
  8
_U+30EC_U+30A4_U+30E4_U+30FC 1
370
     0
  0
POLYLINE
  5
12E
330
11C
100
AcDbEntity
  8
_U+30EC_U+30A4_U+30E4_U+30FC 1
370
     0
100
AcDb2dPolyline
 66
     1
 10
0.0
 20
0.0
 30
0.0
  0
VERTEX
  5
12F
330
12E
100
AcDbEntity
  8
_U+30EC_U+30A4_U+30E4_U+30FC 1
370
     0
100
AcDbVertex
100
AcDb2dVertex
 10
106.047273736509
 20
-150.0573350319301
 30
0.0
  0
VERTEX
  5
130
330
12E
100
AcDbEntity
  8
_U+30EC_U+30A4_U+30E4_U+30FC 1
370
     0
100
AcDbVertex
100
AcDb2dVertex
 10
105.5901095656164
 20
-150.7132812123217
 30
0.0
  0
VERTEX
  5
131
330
12E
100
AcDbEntity
  8
_U+30EC_U+30A4_U+30E4_U+30FC 1
370
     0
100
AcDbVertex
100
AcDb2dVertex
 10
106.047273736509
 20
-150.7132812123217
 30
0.0
  0
VERTEX
  5
132
330
12E
100
AcDbEntity
  8
_U+30EC_U+30A4_U+30E4_U+30FC 1
370
     0
100
AcDbVertex
100
AcDb2dVertex
 10
106.047273736509
 20
-150.0573350319301
 30
0.0
  0
SEQEND
  5
133
330
12E
100
AcDbEntity
  8
_U+30EC_U+30A4_U+30E4_U+30FC 1
370
     0
  0
HATCH
  5
134
330
11C
100
AcDbEntity
  8
_U+30EC_U+30A4_U+30E4_U+30FC 1
 62
   179
420
  2234388
100
AcDbHatch
 10
0.0
 20
0.0
 30
0.0
210
0.0
220
0.0
230
1.0
  2
SOLID
 70
     1
 71
     0
 91
        2
 92
        1
 93
       11
 72
     1
 10
106.2650037711768
 20
-150.9120632218206
 11
106.2650037711768
 21
-151.2589843371853
 72
     1
 10
106.2650037711768
 20
-151.2589843371853
 11
106.047273736509
 21
-151.2589843371853
 72
     1
 10
106.047273736509
 20
-151.2589843371853
 11
106.047273736509
 21
-150.9120632218206
 72
     1
 10
106.047273736509
 20
-150.9120632218206
 11
105.3913275561174
 21
-150.9120632218206
 72
     1
 10
105.3913275561174
 20
-150.9120632218206
 11
105.3913275561174
 21
-150.6877875057308
 72
     1
 10
105.3913275561174
 20
-150.6877875057308
 11
106.0703558762602
 21
-149.7145480311478
 72
     1
 10
106.0703558762602
 20
-149.7145480311478
 11
106.2650037711768
 21
-149.7145480311478
 72
     1
 10
106.2650037711768
 20
-149.7145480311478
 11
106.2650037711768
 21
-150.7132812123217
 72
     1
 10
106.2650037711768
 20
-150.7132812123217
 11
106.4723985193888
 21
-150.7132812123217
 72
     1
 10
106.4723985193888
 20
-150.7132812123217
 11
106.4723985193888
 21
-150.9120632218206
 72
     1
 10
106.4723985193888
 20
-150.9120632218206
 11
106.2650037711768
 21
-150.9120632218206
 97
        0
 92
        1
 93
        3
 72
     1
 10
106.047273736509
 20
-150.0573350319301
 11
105.5901095656164
 21
-150.7132812123217
 72
     1
 10
105.5901095656164
 20
-150.7132812123217
 11
106.047273736509
 21
-150.7132812123217
 72
     1
 10
106.047273736509
 20
-150.7132812123217
 11
106.047273736509
 21
-150.0573350319301
 97
        0
 75
     2
 76
     1
 98
        0
  0
SPLINE
  5
135
330
11C
100
AcDbEntity
  8
_U+30EC_U+30A4_U+30E4_U+30FC 1
370
     0
100
AcDbSpline
210
0.0
220
0.0
230
1.0
 70
    11
 71
     3
 72
    29
 73
    25
 74
     0
 42
0.0000000001
 43
0.0000000001
 12
1.0
 22
0.0
 32
0.0
 13
1.0
 23
0.0
 33
0.0
 40
0.0
 40
0.0
 40
0.0
 40
0.0
 40
1.0
 40
1.0
 40
1.0
 40
2.0
 40
2.0
 40
2.0
 40
3.0
 40
3.0
 40
3.0
 40
4.0
 40
4.0
 40
4.0
 40
5.0
 40
5.0
 40
5.0
 40
6.0
 40
6.0
 40
6.0
 40
7.0
 40
7.0
 40
7.0
 40
8.0
 40
8.0
 40
8.0
 40
8.0
 10
107.5076497127064
 20
-151.0812174101464
 30
0.0
 10
107.3994737144696
 20
-151.2906792156496
 30
0.0
 10
107.2261854115615
 20
-151.3096272408184
 30
0.0
 10
107.1097411841601
 20
-151.3096272408184
 30
0.0
 10
106.9488552249989
 20
-151.3096272408184
 30
0.0
 10
106.8072618005551
 20
-151.2631184517676
 30
0.0
 10
106.7121771651622
 20
-151.0812174101464
 30
0.0
 10
106.6084797910562
 20
-150.8865695152298
 30
0.0
 10
106.5895317658873
 20
-150.6498914553931
 30
0.0
 10
106.5895317658873
 20
-150.4869384389408
 30
0.0
 10
106.5895317658873
 20
-150.3429334476573
 30
0.0
 10
106.6064127337651
 20
-150.0910969676856
 30
0.0
 10
106.7121771651622
 20
-149.8923149581867
 30
0.0
 10
106.8200086538506
 20
-149.6893988341054
 30
0.0
 10
106.9808946130117
 20
-149.6659721848057
 30
0.0
 10
107.1097411841601
 20
-149.6659721848057
 30
0.0
 10
107.2685600860301
 20
-149.6659721848057
 30
0.0
 10
107.412220567765
 20
-149.7104139165655
 30
0.0
 10
107.5076497127064
 20
-149.8923149581867
 30
0.0
 10
107.6068684626816
 20
-150.0848957958121
 30
0.0
 10
107.6302951119813
 20
-150.3133056264842
 30
0.0
 10
107.6302951119813
 20
-150.4869384389408
 30
0.0
 10
107.6302951119813
 20
-150.6581596845577
 30
0.0
 10
107.6089355199728
 20
-150.8886365725209
 30
0.0
 10
107.5076497127064
 20
-151.0812174101464
 30
0.0
  0
SPLINE
  5
136
330
11C
100
AcDbEntity
  8
_U+30EC_U+30A4_U+30E4_U+30FC 1
370
     0
100
AcDbSpline
210
0.0
220
0.0
230
1.0
 70
    11
 71
     3
 72
    17
 73
    13
 74
     0
 42
0.0000000001
 43
0.0000000001
 12
1.0
 22
0.0
 32
0.0
 13
1.0
 23
0.0
 33
0.0
 40
0.0
 40
0.0
 40
0.0
 40
0.0
 40
1.0
 40
1.0
 40
1.0
 40
2.0
 40
2.0
 40
2.0
 40
3.0
 40
3.0
 40
3.0
 40
4.0
 40
4.0
 40
4.0
 40
4.0
 10
107.1097411841601
 20
-149.8585530224312
 30
0.0
 10
106.860316271028
 20
-149.8585530224312
 30
0.0
 10
106.8134629724286
 20
-150.1420843808673
 30
0.0
 10
106.8134629724286
 20
-150.4869384389408
 30
0.0
 10
106.8134629724286
 20
-150.8062987904234
 30
0.0
 10
106.8496364750237
 20
-151.1149793459018
 30
0.0
 10
107.1097411841601
 20
-151.1149793459018
 30
0.0
 10
107.3574435495495
 20
-151.1149793459018
 30
0.0
 10
107.4060193958916
 20
-150.8338595543054
 30
0.0
 10
107.4060193958916
 20
-150.4869384389408
 30
0.0
 10
107.4060193958916
 20
-150.1672335779096
 30
0.0
 10
107.3677788360053
 20
-149.8585530224312
 30
0.0
 10
107.1097411841601
 20
-149.8585530224312
 30
0.0
  0
HATCH
  5
137
330
11C
100
AcDbEntity
  8
_U+30EC_U+30A4_U+30E4_U+30FC 1
 62
   179
420
  2234388
100
AcDbHatch
 10
0.0
 20
0.0
 30
0.0
210
0.0
220
0.0
230
1.0
  2
SOLID
 70
     1
 71
     0
 91
        2
 92
        1
 93
        1
 72
     4
 94
        3
 73
     0
 74
     1
 95
       29
 96
       25
 40
0.0
 40
0.0
 40
0.0
 40
0.0
 40
1.0
 40
1.0
 40
1.0
 40
2.0
 40
2.0
 40
2.0
 40
3.0
 40
3.0
 40
3.0
 40
4.0
 40
4.0
 40
4.0
 40
5.0
 40
5.0
 40
5.0
 40
6.0
 40
6.0
 40
6.0
 40
7.0
 40
7.0
 40
7.0
 40
8.0
 40
8.0
 40
8.0
 40
8.0
 10
107.5076497127064
 20
-151.0812174101464
 10
107.3994737144696
 20
-151.2906792156496
 10
107.2261854115615
 20
-151.3096272408184
 10
107.1097411841601
 20
-151.3096272408184
 10
106.9488552249989
 20
-151.3096272408184
 10
106.8072618005551
 20
-151.2631184517676
 10
106.7121771651622
 20
-151.0812174101464
 10
106.6084797910562
 20
-150.8865695152298
 10
106.5895317658873
 20
-150.6498914553931
 10
106.5895317658873
 20
-150.4869384389408
 10
106.5895317658873
 20
-150.3429334476573
 10
106.6064127337651
 20
-150.0910969676856
 10
106.7121771651622
 20
-149.8923149581867
 10
106.8200086538506
 20
-149.6893988341054
 10
106.9808946130117
 20
-149.6659721848057
 10
107.1097411841601
 20
-149.6659721848057
 10
107.2685600860301
 20
-149.6659721848057
 10
107.412220567765
 20
-149.7104139165655
 10
107.5076497127064
 20
-149.8923149581867
 10
107.6068684626816
 20
-150.0848957958121
 10
107.6302951119813
 20
-150.3133056264842
 10
107.6302951119813
 20
-150.4869384389408
 10
107.6302951119813
 20
-150.6581596845577
 10
107.6089355199728
 20
-150.8886365725209
 10
107.5076497127064
 20
-151.0812174101464
 97
        0
 97
        0
 92
        1
 93
        1
 72
     4
 94
        3
 73
     0
 74
     1
 95
       17
 96
       13
 40
0.0
 40
0.0
 40
0.0
 40
0.0
 40
1.0
 40
1.0
 40
1.0
 40
2.0
 40
2.0
 40
2.0
 40
3.0
 40
3.0
 40
3.0
 40
4.0
 40
4.0
 40
4.0
 40
4.0
 10
107.1097411841601
 20
-149.8585530224312
 10
106.860316271028
 20
-149.8585530224312
 10
106.8134629724286
 20
-150.1420843808673
 10
106.8134629724286
 20
-150.4869384389408
 10
106.8134629724286
 20
-150.8062987904234
 10
106.8496364750237
 20
-151.1149793459018
 10
107.1097411841601
 20
-151.1149793459018
 10
107.3574435495495
 20
-151.1149793459018
 10
107.4060193958916
 20
-150.8338595543054
 10
107.4060193958916
 20
-150.4869384389408
 10
107.4060193958916
 20
-150.1672335779096
 10
107.3677788360053
 20
-149.8585530224312
 10
107.1097411841601
 20
-149.8585530224312
 97
        0
 97
        0
 75
     2
 76
     1
 98
        0
  0
ENDBLK
  5
11F
330
11C
100
AcDbEntity
  8
0
100
AcDbBlockEnd
  0
BLOCK
  5
13A
330
138
100
AcDbEntity
  8
0
100
AcDbBlockBegin
  2
block 9
 70
     0
 10
0.0
 20
0.0
 30
0.0
  3
block 9
  1

  0
POLYLINE
  5
13C
330
138
100
AcDbEntity
  8
_U+30EC_U+30A4_U+30E4_U+30FC 1
370
     0
100
AcDb2dPolyline
 66
     1
 10
0.0
 20
0.0
 30
0.0
  0
VERTEX
  5
13D
330
13C
100
AcDbEntity
  8
_U+30EC_U+30A4_U+30E4_U+30FC 1
370
     0
100
AcDbVertex
100
AcDb2dVertex
 10
114.8639621023604
 20
-136.1463839720398
 30
0.0
  0
VERTEX
  5
13E
330
13C
100
AcDbEntity
  8
_U+30EC_U+30A4_U+30E4_U+30FC 1
370
     0
100
AcDbVertex
100
AcDb2dVertex
 10
114.8639621023604
 20
-136.4933050874045
 30
0.0
  0
VERTEX
  5
13F
330
13C
100
AcDbEntity
  8
_U+30EC_U+30A4_U+30E4_U+30FC 1
370
     0
100
AcDbVertex
100
AcDb2dVertex
 10
114.6462320676926
 20
-136.4933050874045
 30
0.0
  0
VERTEX
  5
140
330
13C
100
AcDbEntity
  8
_U+30EC_U+30A4_U+30E4_U+30FC 1
370
     0
100
AcDbVertex
100
AcDb2dVertex
 10
114.6462320676926
 20
-136.1463839720398
 30
0.0
  0
VERTEX
  5
141
330
13C
100
AcDbEntity
  8
_U+30EC_U+30A4_U+30E4_U+30FC 1
370
     0
100
AcDbVertex
100
AcDb2dVertex
 10
113.990285887301
 20
-136.1463839720398
 30
0.0
  0
VERTEX
  5
142
330
13C
100
AcDbEntity
  8
_U+30EC_U+30A4_U+30E4_U+30FC 1
370
     0
100
AcDbVertex
100
AcDb2dVertex
 10
113.990285887301
 20
-135.92210825595
 30
0.0
  0
VERTEX
  5
143
330
13C
100
AcDbEntity
  8
_U+30EC_U+30A4_U+30E4_U+30FC 1
370
     0
100
AcDbVertex
100
AcDb2dVertex
 10
114.6693142074438
 20
-134.948868781367
 30
0.0
  0
VERTEX
  5
144
330
13C
100
AcDbEntity
  8
_U+30EC_U+30A4_U+30E4_U+30FC 1
370
     0
100
AcDbVertex
100
AcDb2dVertex
 10
114.8639621023604
 20
-134.948868781367
 30
0.0
  0
VERTEX
  5
145
330
13C
100
AcDbEntity
  8
_U+30EC_U+30A4_U+30E4_U+30FC 1
370
     0
100
AcDbVertex
100
AcDb2dVertex
 10
114.8639621023604
 20
-135.9476019625409
 30
0.0
  0
VERTEX
  5
146
330
13C
100
AcDbEntity
  8
_U+30EC_U+30A4_U+30E4_U+30FC 1
370
     0
100
AcDbVertex
100
AcDb2dVertex
 10
115.0713568505724
 20
-135.9476019625409
 30
0.0
  0
VERTEX
  5
147
330
13C
100
AcDbEntity
  8
_U+30EC_U+30A4_U+30E4_U+30FC 1
370
     0
100
AcDbVertex
100
AcDb2dVertex
 10
115.0713568505724
 20
-136.1463839720398
 30
0.0
  0
VERTEX
  5
148
330
13C
100
AcDbEntity
  8
_U+30EC_U+30A4_U+30E4_U+30FC 1
370
     0
100
AcDbVertex
100
AcDb2dVertex
 10
114.8639621023604
 20
-136.1463839720398
 30
0.0
  0
SEQEND
  5
149
330
13C
100
AcDbEntity
  8
_U+30EC_U+30A4_U+30E4_U+30FC 1
370
     0
  0
POLYLINE
  5
14A
330
138
100
AcDbEntity
  8
_U+30EC_U+30A4_U+30E4_U+30FC 1
370
     0
100
AcDb2dPolyline
 66
     1
 10
0.0
 20
0.0
 30
0.0
  0
VERTEX
  5
14B
330
14A
100
AcDbEntity
  8
_U+30EC_U+30A4_U+30E4_U+30FC 1
370
     0
100
AcDbVertex
100
AcDb2dVertex
 10
114.6462320676926
 20
-135.2916557821493
 30
0.0
  0
VERTEX
  5
14C
330
14A
100
AcDbEntity
  8
_U+30EC_U+30A4_U+30E4_U+30FC 1
370
     0
100
AcDbVertex
100
AcDb2dVertex
 10
114.1890678968
 20
-135.9476019625409
 30
0.0
  0
VERTEX
  5
14D
330
14A
100
AcDbEntity
  8
_U+30EC_U+30A4_U+30E4_U+30FC 1
370
     0
100
AcDbVertex
100
AcDb2dVertex
 10
114.6462320676926
 20
-135.9476019625409
 30
0.0
  0
VERTEX
  5
14E
330
14A
100
AcDbEntity
  8
_U+30EC_U+30A4_U+30E4_U+30FC 1
370
     0
100
AcDbVertex
100
AcDb2dVertex
 10
114.6462320676926
 20
-135.2916557821493
 30
0.0
  0
SEQEND
  5
14F
330
14A
100
AcDbEntity
  8
_U+30EC_U+30A4_U+30E4_U+30FC 1
370
     0
  0
HATCH
  5
150
330
138
100
AcDbEntity
  8
_U+30EC_U+30A4_U+30E4_U+30FC 1
 62
   179
420
  2234388
100
AcDbHatch
 10
0.0
 20
0.0
 30
0.0
210
0.0
220
0.0
230
1.0
  2
SOLID
 70
     1
 71
     0
 91
        2
 92
        1
 93
       11
 72
     1
 10
114.8639621023604
 20
-136.1463839720398
 11
114.8639621023604
 21
-136.4933050874045
 72
     1
 10
114.8639621023604
 20
-136.4933050874045
 11
114.6462320676926
 21
-136.4933050874045
 72
     1
 10
114.6462320676926
 20
-136.4933050874045
 11
114.6462320676926
 21
-136.1463839720398
 72
     1
 10
114.6462320676926
 20
-136.1463839720398
 11
113.990285887301
 21
-136.1463839720398
 72
     1
 10
113.990285887301
 20
-136.1463839720398
 11
113.990285887301
 21
-135.92210825595
 72
     1
 10
113.990285887301
 20
-135.92210825595
 11
114.6693142074438
 21
-134.948868781367
 72
     1
 10
114.6693142074438
 20
-134.948868781367
 11
114.8639621023604
 21
-134.948868781367
 72
     1
 10
114.8639621023604
 20
-134.948868781367
 11
114.8639621023604
 21
-135.9476019625409
 72
     1
 10
114.8639621023604
 20
-135.9476019625409
 11
115.0713568505724
 21
-135.9476019625409
 72
     1
 10
115.0713568505724
 20
-135.9476019625409
 11
115.0713568505724
 21
-136.1463839720398
 72
     1
 10
115.0713568505724
 20
-136.1463839720398
 11
114.8639621023604
 21
-136.1463839720398
 97
        0
 92
        1
 93
        3
 72
     1
 10
114.6462320676926
 20
-135.2916557821493
 11
114.1890678968
 21
-135.9476019625409
 72
     1
 10
114.1890678968
 20
-135.9476019625409
 11
114.6462320676926
 21
-135.9476019625409
 72
     1
 10
114.6462320676926
 20
-135.9476019625409
 11
114.6462320676926
 21
-135.2916557821493
 97
        0
 75
     2
 76
     1
 98
        0
  0
SPLINE
  5
151
330
138
100
AcDbEntity
  8
_U+30EC_U+30A4_U+30E4_U+30FC 1
370
     0
100
AcDbSpline
210
0.0
220
0.0
230
1.0
 70
    11
 71
     3
 72
    26
 73
    22
 74
     0
 42
0.0000000001
 43
0.0000000001
 12
1.0
 22
0.0
 32
0.0
 13
1.0
 23
0.0
 33
0.0
 40
0.0
 40
0.0
 40
0.0
 40
0.0
 40
1.0
 40
1.0
 40
1.0
 40
2.0
 40
2.0
 40
2.0
 40
3.0
 40
3.0
 40
3.0
 40
4.0
 40
4.0
 40
4.0
 40
5.0
 40
5.0
 40
5.0
 40
6.0
 40
6.0
 40
6.0
 40
7.0
 40
7.0
 40
7.0
 40
7.0
 10
115.6601236690016
 20
-136.4933050874045
 30
0.0
 10
115.6601236690016
 20
-136.4933050874045
 30
0.0
 10
115.6601236690016
 20
-135.3891519843819
 30
0.0
 10
115.6601236690016
 20
-135.3891519843819
 30
0.0
 10
115.6601236690016
 20
-135.3891519843819
 30
0.0
 10
115.3300835215147
 20
-135.3891519843819
 30
0.0
 10
115.3300835215147
 20
-135.3891519843819
 30
0.0
 10
115.3300835215147
 20
-135.3891519843819
 30
0.0
 10
115.3300835215147
 20
-135.2410128785161
 30
0.0
 10
115.3300835215147
 20
-135.2410128785161
 30
0.0
 10
115.6621907262928
 20
-135.2261989679296
 30
0.0
 10
115.7086995153437
 20
-135.0632459514773
 30
0.0
 10
115.7383273365168
 20
-134.948868781367
 30
0.0
 10
115.7383273365168
 20
-134.948868781367
 30
0.0
 10
115.8843993850914
 20
-134.948868781367
 30
0.0
 10
115.8843993850914
 20
-134.948868781367
 30
0.0
 10
115.8843993850914
 20
-134.948868781367
 30
0.0
 10
115.8843993850914
 20
-136.4933050874045
 30
0.0
 10
115.8843993850914
 20
-136.4933050874045
 30
0.0
 10
115.8843993850914
 20
-136.4933050874045
 30
0.0
 10
115.6601236690016
 20
-136.4933050874045
 30
0.0
 10
115.6601236690016
 20
-136.4933050874045
 30
0.0
  0
HATCH
  5
152
330
138
100
AcDbEntity
  8
_U+30EC_U+30A4_U+30E4_U+30FC 1
 62
   179
420
  2234388
100
AcDbHatch
 10
0.0
 20
0.0
 30
0.0
210
0.0
220
0.0
230
1.0
  2
SOLID
 70
     1
 71
     0
 91
        1
 92
        1
 93
        1
 72
     4
 94
        3
 73
     0
 74
     1
 95
       26
 96
       22
 40
0.0
 40
0.0
 40
0.0
 40
0.0
 40
1.0
 40
1.0
 40
1.0
 40
2.0
 40
2.0
 40
2.0
 40
3.0
 40
3.0
 40
3.0
 40
4.0
 40
4.0
 40
4.0
 40
5.0
 40
5.0
 40
5.0
 40
6.0
 40
6.0
 40
6.0
 40
7.0
 40
7.0
 40
7.0
 40
7.0
 10
115.6601236690016
 20
-136.4933050874045
 10
115.6601236690016
 20
-136.4933050874045
 10
115.6601236690016
 20
-135.3891519843819
 10
115.6601236690016
 20
-135.3891519843819
 10
115.6601236690016
 20
-135.3891519843819
 10
115.3300835215147
 20
-135.3891519843819
 10
115.3300835215147
 20
-135.3891519843819
 10
115.3300835215147
 20
-135.3891519843819
 10
115.3300835215147
 20
-135.2410128785161
 10
115.3300835215147
 20
-135.2410128785161
 10
115.6621907262928
 20
-135.2261989679296
 10
115.7086995153437
 20
-135.0632459514773
 10
115.7383273365168
 20
-134.948868781367
 10
115.7383273365168
 20
-134.948868781367
 10
115.8843993850914
 20
-134.948868781367
 10
115.8843993850914
 20
-134.948868781367
 10
115.8843993850914
 20
-134.948868781367
 10
115.8843993850914
 20
-136.4933050874045
 10
115.8843993850914
 20
-136.4933050874045
 10
115.8843993850914
 20
-136.4933050874045
 10
115.6601236690016
 20
-136.4933050874045
 10
115.6601236690016
 20
-136.4933050874045
 97
        0
 97
        0
 75
     2
 76
     1
 98
        0
  0
ENDBLK
  5
13B
330
138
100
AcDbEntity
  8
0
100
AcDbBlockEnd
  0
ENDSEC
  0
SECTION
  2
ENTITIES
  0
INSERT
  5
42
330
1F
100
AcDbEntity
  8
_U+30EC_U+30A4_U+30E4_U+30FC 1
100
AcDbBlockReference
  2
block 2
 10
0.0
 20
0.0
 30
0.0
  0
ENDSEC
  0
SECTION
  2
OBJECTS
  0
DICTIONARY
  5
C
330
0
100
AcDbDictionary
281
     1
  3
ACAD_GROUP
350
D
  3
ACAD_LAYOUT
350
1A
  3
ACAD_MATERIAL
350
3B
  3
ACAD_MLEADERSTYLE
350
154
  3
ACAD_MLINESTYLE
350
17
  3
ACAD_PLOTSETTINGS
350
19
  3
ACAD_PLOTSTYLENAME
350
E
  3
ACAD_TABLESTYLE
350
153
  3
ACAD_VISUALSTYLE
350
2A
  0
SUN
  5
3F
330
29
100
AcDbSun
 90
        1
290
     0
 63
     7
421
 16777215
 40
1.0
291
     1
 91
  2455826
 92
 54000000
292
     0
 70
     2
 71
   256
280
     1
  0
DICTIONARY
  5
D
102
{ACAD_REACTORS
330
C
102
}
330
C
100
AcDbDictionary
281
     1
  0
DICTIONARY
  5
1A
102
{ACAD_REACTORS
330
C
102
}
330
C
100
AcDbDictionary
281
     1
  3
Layout1
350
1E
  3
Layout2
350
26
  3
Model
350
22
  0
DICTIONARY
  5
3B
102
{ACAD_REACTORS
330
C
102
}
330
C
100
AcDbDictionary
281
     1
  3
ByBlock
350
3D
  3
ByLayer
350
3C
  3
Global
350
3E
  0
DICTIONARY
  5
154
102
{ACAD_REACTORS
330
C
102
}
330
C
100
AcDbDictionary
281
     1
  0
DICTIONARY
  5
17
102
{ACAD_REACTORS
330
C
102
}
330
C
100
AcDbDictionary
281
     1
  3
Standard
350
18
  0
DICTIONARY
  5
19
102
{ACAD_REACTORS
330
C
102
}
330
C
100
AcDbDictionary
281
     1
  0
ACDBDICTIONARYWDFLT
  5
E
102
{ACAD_REACTORS
330
C
102
}
330
C
100
AcDbDictionary
281
     1
  3
Normal
350
F
100
AcDbDictionaryWithDefault
340
F
  0
DICTIONARY
  5
153
102
{ACAD_REACTORS
330
C
102
}
330
C
100
AcDbDictionary
281
     1
  0
DICTIONARY
  5
2A
102
{ACAD_REACTORS
330
C
102
}
330
C
100
AcDbDictionary
281
     1
  3
2dWireframe
350
2F
  3
3D Hidden
350
31
  3
3dWireframe
350
30
  3
Basic
350
32
  3
Brighten
350
36
  3
ColorChange
350
3A
  3
Conceptual
350
34
  3
Dim
350
35
  3
Facepattern
350
39
  3
Flat
350
2B
  3
FlatWithEdges
350
2C
  3
Gouraud
350
2D
  3
GouraudWithEdges
350
2E
  3
Linepattern
350
38
  3
Realistic
350
33
  3
Thicken
350
37
  0
LAYOUT
  5
1E
102
{ACAD_REACTORS
330
1A
102
}
330
1A
100
AcDbPlotSettings
  1

  2
none_device
  4

  6

 40
0.0
 41
0.0
 42
0.0
 43
0.0
 44
0.0
 45
0.0
 46
0.0
 47
0.0
 48
0.0
 49
0.0
140
0.0
141
0.0
142
1.0
143
1.0
 70
   688
 72
     0
 73
     0
 74
     5
  7

 75
    16
 76
     0
 77
     2
 78
   300
147
1.0
148
0.0
149
0.0
100
AcDbLayout
  1
Layout1
 70
     1
 71
     1
 10
0.0
 20
0.0
 11
12.0
 21
9.0
 12
0.0
 22
0.0
 32
0.0
 14
1.000000000000000E+20
 24
1.000000000000000E+20
 34
1.000000000000000E+20
 15
-1.000000000000000E+20
 25
-1.000000000000000E+20
 35
-1.000000000000000E+20
146
0.0
 13
0.0
 23
0.0
 33
0.0
 16
1.0
 26
0.0
 36
0.0
 17
0.0
 27
1.0
 37
0.0
 76
     0
330
1B
  0
LAYOUT
  5
26
102
{ACAD_REACTORS
330
1A
102
}
330
1A
100
AcDbPlotSettings
  1

  2
none_device
  4

  6

 40
0.0
 41
0.0
 42
0.0
 43
0.0
 44
0.0
 45
0.0
 46
0.0
 47
0.0
 48
0.0
 49
0.0
140
0.0
141
0.0
142
1.0
143
1.0
 70
   688
 72
     0
 73
     0
 74
     5
  7

 75
    16
 76
     0
 77
     2
 78
   300
147
1.0
148
0.0
149
0.0
100
AcDbLayout
  1
Layout2
 70
     1
 71
     2
 10
0.0
 20
0.0
 11
0.0
 21
0.0
 12
0.0
 22
0.0
 32
0.0
 14
0.0
 24
0.0
 34
0.0
 15
0.0
 25
0.0
 35
0.0
146
0.0
 13
0.0
 23
0.0
 33
0.0
 16
1.0
 26
0.0
 36
0.0
 17
0.0
 27
1.0
 37
0.0
 76
     0
330
23
  0
LAYOUT
  5
22
102
{ACAD_REACTORS
330
1A
102
}
330
1A
100
AcDbPlotSettings
  1

  2
none_device
  4

  6

 40
0.0
 41
0.0
 42
0.0
 43
0.0
 44
0.0
 45
0.0
 46
0.0
 47
0.0
 48
0.0
 49
0.0
140
0.0
141
0.0
142
1.0
143
1.0
 70
  1712
 72
     0
 73
     0
 74
     0
  7

 75
     0
 76
     0
 77
     2
 78
   300
147
1.0
148
0.0
149
0.0
100
AcDbLayout
  1
Model
 70
     1
 71
     0
 10
0.0
 20
0.0
 11
12.0
 21
9.0
 12
0.0
 22
0.0
 32
0.0
 14
1.000000000000000E+20
 24
1.000000000000000E+20
 34
1.000000000000000E+20
 15
-1.000000000000000E+20
 25
-1.000000000000000E+20
 35
-1.000000000000000E+20
146
0.0
 13
0.0
 23
0.0
 33
0.0
 16
1.0
 26
0.0
 36
0.0
 17
0.0
 27
1.0
 37
0.0
 76
     0
330
1F
331
29
  0
MATERIAL
  5
3D
102
{ACAD_REACTORS
330
3B
102
}
330
3B
100
AcDbMaterial
  1
ByBlock
 72
     1
 94
      127
  0
MATERIAL
  5
3C
102
{ACAD_REACTORS
330
3B
102
}
330
3B
100
AcDbMaterial
  1
ByLayer
 72
     1
 94
      127
  0
MATERIAL
  5
3E
102
{ACAD_REACTORS
330
3B
102
}
330
3B
100
AcDbMaterial
  1
Global
 72
     1
 94
      127
  0
MLINESTYLE
  5
18
102
{ACAD_REACTORS
330
17
102
}
330
17
100
AcDbMlineStyle
  2
Standard
 70
     0
  3

 62
   256
 51
90.0
 52
90.0
 71
     2
 49
0.5
 62
   256
  6
BYLAYER
 49
-0.5
 62
   256
  6
BYLAYER
  0
ACDBPLACEHOLDER
  5
F
102
{ACAD_REACTORS
330
E
102
}
330
E
  0
VISUALSTYLE
  5
2F
102
{ACAD_REACTORS
330
2A
102
}
330
2A
100
AcDbVisualStyle
  2
2dWireframe
 70
     4
177
     2
291
     0
 71
     0
176
     1
 72
     2
176
     1
 73
     0
176
     1
 90
        0
176
     1
 40
-0.6
176
     1
 41
-30.0
176
     1
 62
     5
 63
     7
421
 16777215
176
     1
 74
     1
176
     1
 91
        4
176
     1
 64
     7
176
     1
 65
   257
176
     1
 75
     1
176
     1
175
     1
176
     1
 42
1.0
176
     1
 92
        0
176
     1
 66
   257
176
     1
 43
1.0
176
     1
 76
     1
176
     1
 77
     6
176
     1
 78
     2
176
     1
 67
     7
176
     1
 79
     5
176
     1
170
     0
176
     1
171
     0
176
     1
290
     0
176
     1
 93
        1
176
     1
 44
0.0
176
     1
173
     0
176
     1
  0
VISUALSTYLE
  5
31
102
{ACAD_REACTORS
330
2A
102
}
330
2A
100
AcDbVisualStyle
  2
3D Hidden
 70
     6
177
     2
291
     0
 71
     1
176
     1
 72
     2
176
     1
 73
     2
176
     1
 90
        0
176
     1
 40
-0.6
176
     1
 41
-30.0
176
     1
 62
     5
 63
     7
421
 16777215
176
     1
 74
     2
176
     1
 91
        2
176
     1
 64
     7
176
     1
 65
   257
176
     1
 75
     2
176
     1
175
     1
176
     1
 42
40.0
176
     1
 92
        0
176
     1
 66
   257
176
     1
 43
1.0
176
     1
 76
     1
176
     1
 77
     6
176
     1
 78
     2
176
     1
 67
     7
176
     1
 79
     3
176
     1
170
     0
176
     1
171
     0
176
     1
290
     0
176
     1
 93
        1
176
     1
 44
0.0
176
     1
173
     0
176
     1
  0
VISUALSTYLE
  5
30
102
{ACAD_REACTORS
330
2A
102
}
330
2A
100
AcDbVisualStyle
  2
3dWireframe
 70
     5
177
     2
291
     0
 71
     0
176
     1
 72
     2
176
     1
 73
     0
176
     1
 90
        0
176
     1
 40
-0.6
176
     1
 41
-30.0
176
     1
 62
     5
 63
     7
421
 16777215
176
     1
 74
     1
176
     1
 91
        4
176
     1
 64
     7
176
     1
 65
   257
176
     1
 75
     1
176
     1
175
     1
176
     1
 42
1.0
176
     1
 92
        0
176
     1
 66
   257
176
     1
 43
1.0
176
     1
 76
     1
176
     1
 77
     6
176
     1
 78
     2
176
     1
 67
     7
176
     1
 79
     5
176
     1
170
     0
176
     1
171
     0
176
     1
290
     0
176
     1
 93
        1
176
     1
 44
0.0
176
     1
173
     0
176
     1
  0
VISUALSTYLE
  5
32
102
{ACAD_REACTORS
330
2A
102
}
330
2A
100
AcDbVisualStyle
  2
Basic
 70
     7
177
     2
291
     1
 71
     1
176
     1
 72
     0
176
     1
 73
     1
176
     1
 90
        0
176
     1
 40
-0.6
176
     1
 41
-30.0
176
     1
 62
     5
 63
     7
421
 16777215
176
     1
 74
     0
176
     1
 91
        4
176
     1
 64
     7
176
     1
 65
   257
176
     1
 75
     1
176
     1
175
     1
176
     1
 42
1.0
176
     1
 92
        8
176
     1
 66
     7
176
     1
 43
1.0
176
     1
 76
     1
176
     1
 77
     6
176
     1
 78
     2
176
     1
 67
     7
176
     1
 79
     5
176
     1
170
     0
176
     1
171
     0
176
     1
290
     0
176
     1
 93
        1
176
     1
 44
0.0
176
     1
173
     0
176
     1
  0
VISUALSTYLE
  5
36
102
{ACAD_REACTORS
330
2A
102
}
330
2A
100
AcDbVisualStyle
  2
Brighten
 70
    12
177
     2
291
     1
 71
     2
176
     1
 72
     2
176
     1
 73
     0
176
     1
 90
        0
176
     1
 40
-0.6
176
     1
 41
-30.0
176
     1
 62
     5
 63
     7
421
 16777215
176
     1
 74
     1
176
     1
 91
        4
176
     1
 64
     7
176
     1
 65
   257
176
     1
 75
     1
176
     1
175
     1
176
     1
 42
1.0
176
     1
 92
        8
176
     1
 66
     7
176
     1
 43
1.0
176
     1
 76
     1
176
     1
 77
     6
176
     1
 78
     2
176
     1
 67
     7
176
     1
 79
     5
176
     1
170
     0
176
     1
171
     0
176
     1
290
     0
176
     1
 93
        1
176
     1
 44
50.0
176
     1
173
     0
176
     1
  0
VISUALSTYLE
  5
3A
102
{ACAD_REACTORS
330
2A
102
}
330
2A
100
AcDbVisualStyle
  2
ColorChange
 70
    16
177
     2
291
     1
 71
     2
176
     1
 72
     2
176
     1
 73
     3
176
     1
 90
        0
176
     1
 40
-0.6
176
     1
 41
-30.0
176
     1
 62
     5
 63
     8
421
  8421504
176
     1
 74
     1
176
     1
 91
        4
176
     1
 64
     7
176
     1
 65
   257
176
     1
 75
     1
176
     1
175
     1
176
     1
 42
1.0
176
     1
 92
        8
176
     1
 66
     8
424
  8421504
176
     1
 43
1.0
176
     1
 76
     1
176
     1
 77
     6
176
     1
 78
     2
176
     1
 67
     7
176
     1
 79
     5
176
     1
170
     0
176
     1
171
     0
176
     1
290
     0
176
     1
 93
        1
176
     1
 44
0.0
176
     1
173
     0
176
     1
  0
VISUALSTYLE
  5
34
102
{ACAD_REACTORS
330
2A
102
}
330
2A
100
AcDbVisualStyle
  2
Conceptual
 70
     9
177
     2
291
     0
 71
     3
176
     1
 72
     2
176
     1
 73
     0
176
     1
 90
        0
176
     1
 40
-0.6
176
     1
 41
-30.0
176
     1
 62
     5
 63
     7
421
 16777215
176
     1
 74
     2
176
     1
 91
        2
176
     1
 64
     7
176
     1
 65
   257
176
     1
 75
     1
176
     1
175
     1
176
     1
 42
40.0
176
     1
 92
        8
176
     1
 66
     7
176
     1
 43
1.0
176
     1
 76
     1
176
     1
 77
     6
176
     1
 78
     2
176
     1
 67
     7
176
     1
 79
     3
176
     1
170
     0
176
     1
171
     0
176
     1
290
     0
176
     1
 93
        1
176
     1
 44
0.0
176
     1
173
     0
176
     1
  0
VISUALSTYLE
  5
35
102
{ACAD_REACTORS
330
2A
102
}
330
2A
100
AcDbVisualStyle
  2
Dim
 70
    11
177
     2
291
     1
 71
     2
176
     1
 72
     2
176
     1
 73
     0
176
     1
 90
        0
176
     1
 40
-0.6
176
     1
 41
-30.0
176
     1
 62
     5
 63
     7
421
 16777215
176
     1
 74
     1
176
     1
 91
        4
176
     1
 64
     7
176
     1
 65
   257
176
     1
 75
     1
176
     1
175
     1
176
     1
 42
1.0
176
     1
 92
        8
176
     1
 66
     7
176
     1
 43
1.0
176
     1
 76
     1
176
     1
 77
     6
176
     1
 78
     2
176
     1
 67
     7
176
     1
 79
     5
176
     1
170
     0
176
     1
171
     0
176
     1
290
     0
176
     1
 93
        1
176
     1
 44
-50.0
176
     1
173
     0
176
     1
  0
VISUALSTYLE
  5
39
102
{ACAD_REACTORS
330
2A
102
}
330
2A
100
AcDbVisualStyle
  2
Facepattern
 70
    15
177
     2
291
     1
 71
     2
176
     1
 72
     2
176
     1
 73
     0
176
     1
 90
        0
176
     1
 40
-0.6
176
     1
 41
-30.0
176
     1
 62
     5
 63
     7
421
 16777215
176
     1
 74
     1
176
     1
 91
        4
176
     1
 64
     7
176
     1
 65
   257
176
     1
 75
     1
176
     1
175
     1
176
     1
 42
1.0
176
     1
 92
        8
176
     1
 66
     7
176
     1
 43
1.0
176
     1
 76
     1
176
     1
 77
     6
176
     1
 78
     2
176
     1
 67
     7
176
     1
 79
     5
176
     1
170
     0
176
     1
171
     0
176
     1
290
     0
176
     1
 93
        1
176
     1
 44
0.0
176
     1
173
     0
176
     1
  0
VISUALSTYLE
  5
2B
102
{ACAD_REACTORS
330
2A
102
}
330
2A
100
AcDbVisualStyle
  2
Flat
 70
     0
177
     2
291
     1
 71
     2
176
     1
 72
     1
176
     1
 73
     1
176
     1
 90
        2
176
     1
 40
-0.6
176
     1
 41
30.0
176
     1
 62
     5
 63
     7
421
 16777215
176
     1
 74
     0
176
     1
 91
        4
176
     1
 64
     7
176
     1
 65
   257
176
     1
 75
     1
176
     1
175
     1
176
     1
 42
1.0
176
     1
 92
        8
176
     1
 66
     7
176
     1
 43
1.0
176
     1
 76
     1
176
     1
 77
     6
176
     1
 78
     2
176
     1
 67
     7
176
     1
 79
     5
176
     1
170
     0
176
     1
171
     0
176
     1
290
     0
176
     1
 93
       13
176
     1
 44
0.0
176
     1
173
     0
176
     1
  0
VISUALSTYLE
  5
2C
102
{ACAD_REACTORS
330
2A
102
}
330
2A
100
AcDbVisualStyle
  2
FlatWithEdges
 70
     1
177
     2
291
     1
 71
     2
176
     1
 72
     1
176
     1
 73
     1
176
     1
 90
        2
176
     1
 40
-0.6
176
     1
 41
30.0
176
     1
 62
     5
 63
     7
421
 16777215
176
     1
 74
     1
176
     1
 91
        4
176
     1
 64
     7
176
     1
 65
   257
176
     1
 75
     1
176
     1
175
     1
176
     1
 42
1.0
176
     1
 92
        0
176
     1
 66
   257
176
     1
 43
1.0
176
     1
 76
     1
176
     1
 77
     6
176
     1
 78
     2
176
     1
 67
     7
176
     1
 79
     5
176
     1
170
     0
176
     1
171
     0
176
     1
290
     0
176
     1
 93
       13
176
     1
 44
0.0
176
     1
173
     0
176
     1
  0
VISUALSTYLE
  5
2D
102
{ACAD_REACTORS
330
2A
102
}
330
2A
100
AcDbVisualStyle
  2
Gouraud
 70
     2
177
     2
291
     1
 71
     2
176
     1
 72
     2
176
     1
 73
     1
176
     1
 90
        2
176
     1
 40
-0.6
176
     1
 41
30.0
176
     1
 62
     5
 63
     7
421
 16777215
176
     1
 74
     0
176
     1
 91
        4
176
     1
 64
     7
176
     1
 65
   257
176
     1
 75
     1
176
     1
175
     1
176
     1
 42
1.0
176
     1
 92
        0
176
     1
 66
     7
176
     1
 43
1.0
176
     1
 76
     1
176
     1
 77
     6
176
     1
 78
     2
176
     1
 67
     7
176
     1
 79
     5
176
     1
170
     0
176
     1
171
     0
176
     1
290
     0
176
     1
 93
       13
176
     1
 44
0.0
176
     1
173
     0
176
     1
  0
VISUALSTYLE
  5
2E
102
{ACAD_REACTORS
330
2A
102
}
330
2A
100
AcDbVisualStyle
  2
GouraudWithEdges
 70
     3
177
     2
291
     1
 71
     2
176
     1
 72
     2
176
     1
 73
     1
176
     1
 90
        2
176
     1
 40
-0.6
176
     1
 41
30.0
176
     1
 62
     5
 63
     7
421
 16777215
176
     1
 74
     1
176
     1
 91
        4
176
     1
 64
     7
176
     1
 65
   257
176
     1
 75
     1
176
     1
175
     1
176
     1
 42
1.0
176
     1
 92
        0
176
     1
 66
   257
176
     1
 43
1.0
176
     1
 76
     1
176
     1
 77
     6
176
     1
 78
     2
176
     1
 67
     7
176
     1
 79
     5
176
     1
170
     0
176
     1
171
     0
176
     1
290
     0
176
     1
 93
       13
176
     1
 44
0.0
176
     1
173
     0
176
     1
  0
VISUALSTYLE
  5
38
102
{ACAD_REACTORS
330
2A
102
}
330
2A
100
AcDbVisualStyle
  2
Linepattern
 70
    14
177
     2
291
     1
 71
     2
176
     1
 72
     2
176
     1
 73
     0
176
     1
 90
        0
176
     1
 40
-0.6
176
     1
 41
-30.0
176
     1
 62
     5
 63
     7
421
 16777215
176
     1
 74
     1
176
     1
 91
        4
176
     1
 64
     7
176
     1
 65
   257
176
     1
 75
     7
176
     1
175
     7
176
     1
 42
1.0
176
     1
 92
        8
176
     1
 66
     7
176
     1
 43
1.0
176
     1
 76
     1
176
     1
 77
     6
176
     1
 78
     2
176
     1
 67
     7
176
     1
 79
     5
176
     1
170
     0
176
     1
171
     0
176
     1
290
     0
176
     1
 93
        1
176
     1
 44
0.0
176
     1
173
     0
176
     1
  0
VISUALSTYLE
  5
33
102
{ACAD_REACTORS
330
2A
102
}
330
2A
100
AcDbVisualStyle
  2
Realistic
 70
     8
177
     2
291
     0
 71
     2
176
     1
 72
     2
176
     1
 73
     0
176
     1
 90
        0
176
     1
 40
-0.6
176
     1
 41
-30.0
176
     1
 62
     5
 63
     7
421
 16777215
176
     1
 74
     1
176
     1
 91
        0
176
     1
 64
     7
176
     1
 65
   257
176
     1
 75
     1
176
     1
175
     1
176
     1
 42
1.0
176
     1
 92
        8
176
     1
 66
     8
424
  7895160
176
     1
 43
1.0
176
     1
 76
     1
176
     1
 77
     6
176
     1
 78
     2
176
     1
 67
     7
176
     1
 79
     5
176
     1
170
     0
176
     1
171
     0
176
     1
290
     0
176
     1
 93
       13
176
     1
 44
0.0
176
     1
173
     0
176
     1
  0
VISUALSTYLE
  5
37
102
{ACAD_REACTORS
330
2A
102
}
330
2A
100
AcDbVisualStyle
  2
Thicken
 70
    13
177
     2
291
     1
 71
     2
176
     1
 72
     2
176
     1
 73
     0
176
     1
 90
        0
176
     1
 40
-0.6
176
     1
 41
-30.0
176
     1
 62
     5
 63
     7
421
 16777215
176
     1
 74
     1
176
     1
 91
        4
176
     1
 64
     7
176
     1
 65
   257
176
     1
 75
     1
176
     1
175
     1
176
     1
 42
1.0
176
     1
 92
       12
176
     1
 66
     7
176
     1
 43
1.0
176
     1
 76
     1
176
     1
 77
     6
176
     1
 78
     2
176
     1
 67
     7
176
     1
 79
     5
176
     1
170
     0
176
     1
171
     0
176
     1
290
     0
176
     1
 93
        1
176
     1
 44
0.0
176
     1
173
     0
176
     1
  0
ENDSEC
  0
EOF
