  0
SECTION
  2
HEADER
  9
$ACADVER
  1
AC1024
  9
$ACADMAINTVER
 70
     6
  9
$DWGCODEPAGE
  3
UNDEFINED
  9
$INSBASE
 10
0.0
 20
0.0
 30
0.0
  9
$EXTMIN
 10
1.000000000000000E+20
 20
1.000000000000000E+20
 30
1.000000000000000E+20
  9
$EXTMAX
 10
-1.000000000000000E+20
 20
-1.000000000000000E+20
 30
-1.000000000000000E+20
  9
$LIMMIN
 10
0.0
 20
0.0
  9
$LIMMAX
 10
12.0
 20
9.0
  9
$ORTHOMODE
 70
     0
  9
$REGENMODE
 70
     1
  9
$FILLMODE
 70
     1
  9
$QTEXTMODE
 70
     0
  9
$MIRRTEXT
 70
     1
  9
$LTSCALE
 40
1.0
  9
$ATTMODE
 70
     1
  9
$TEXTSIZE
 40
0.2
  9
$TRACEWID
 40
0.05
  9
$TEXTSTYLE
  7
Standard
  9
$CLAYER
  8
0
  9
$CELTYPE
  6
ByLayer
  9
$CECOLOR
 62
   256
  9
$CELTSCALE
 40
1.0
  9
$DISPSILH
 70
     0
  9
$DIMSCALE
 40
1.0
  9
$DIMASZ
 40
0.18
  9
$DIMEXO
 40
0.0625
  9
$DIMDLI
 40
0.38
  9
$DIMRND
 40
0.0
  9
$DIMDLE
 40
0.0
  9
$DIMEXE
 40
0.18
  9
$DIMTP
 40
0.0
  9
$DIMTM
 40
0.0
  9
$DIMTXT
 40
0.18
  9
$DIMCEN
 40
0.09
  9
$DIMTSZ
 40
0.0
  9
$DIMTOL
 70
     0
  9
$DIMLIM
 70
     0
  9
$DIMTIH
 70
     1
  9
$DIMTOH
 70
     1
  9
$DIMSE1
 70
     0
  9
$DIMSE2
 70
     0
  9
$DIMTAD
 70
     0
  9
$DIMZIN
 70
     0
  9
$DIMBLK
  1

  9
$DIMASO
 70
     1
  9
$DIMSHO
 70
     1
  9
$DIMPOST
  1

  9
$DIMAPOST
  1

  9
$DIMALT
 70
     0
  9
$DIMALTD
 70
     2
  9
$DIMALTF
 40
25.4
  9
$DIMLFAC
 40
1.0
  9
$DIMTOFL
 70
     0
  9
$DIMTVP
 40
0.0
  9
$DIMTIX
 70
     0
  9
$DIMSOXD
 70
     0
  9
$DIMSAH
 70
     0
  9
$DIMBLK1
  1

  9
$DIMBLK2
  1

  9
$DIMSTYLE
  2
Standard
  9
$DIMCLRD
 70
     0
  9
$DIMCLRE
 70
     0
  9
$DIMCLRT
 70
     0
  9
$DIMTFAC
 40
1.0
  9
$DIMGAP
 40
0.09
  9
$DIMJUST
 70
     0
  9
$DIMSD1
 70
     0
  9
$DIMSD2
 70
     0
  9
$DIMTOLJ
 70
     1
  9
$DIMTZIN
 70
     0
  9
$DIMALTZ
 70
     0
  9
$DIMALTTZ
 70
     0
  9
$DIMUPT
 70
     0
  9
$DIMDEC
 70
     4
  9
$DIMTDEC
 70
     4
  9
$DIMALTU
 70
     2
  9
$DIMALTTD
 70
     2
  9
$DIMTXSTY
  7
Standard
  9
$DIMAUNIT
 70
     0
  9
$DIMADEC
 70
     0
  9
$DIMALTRND
 40
0.0
  9
$DIMAZIN
 70
     0
  9
$DIMDSEP
 70
    46
  9
$DIMATFIT
 70
     3
  9
$DIMFRAC
 70
     0
  9
$DIMLDRBLK
  1

  9
$DIMLUNIT
 70
     2
  9
$DIMLWD
 70
    -2
  9
$DIMLWE
 70
    -2
  9
$DIMTMOVE
 70
     0
  9
$DIMFXL
 40
1.0
  9
$DIMFXLON
 70
     0
  9
$DIMJOGANG
 40
0.7853981633974483
  9
$DIMTFILL
 70
     0
  9
$DIMTFILLCLR
 70
     0
  9
$DIMARCSYM
 70
     0
  9
$DIMLTYPE
  6

  9
$DIMLTEX1
  6

  9
$DIMLTEX2
  6

  9
$DIMTXTDIRECTION
 70
     0
  9
$LUNITS
 70
     2
  9
$LUPREC
 70
     4
  9
$SKETCHINC
 40
0.1
  9
$FILLETRAD
 40
0.5
  9
$AUNITS
 70
     0
  9
$AUPREC
 70
     0
  9
$MENU
  1
.
  9
$ELEVATION
 40
0.0
  9
$PELEVATION
 40
0.0
  9
$THICKNESS
 40
0.0
  9
$LIMCHECK
 70
     0
  9
$CHAMFERA
 40
0.5
  9
$CHAMFERB
 40
0.5
  9
$CHAMFERC
 40
1.0
  9
$CHAMFERD
 40
0.0
  9
$SKPOLY
 70
     0
  9
$TDCREATE
 40
2457917.585127315
  9
$TDUCREATE
 40
2457917.210127315
  9
$TDUPDATE
 40
2457917.585127315
  9
$TDUUPDATE
 40
2457917.210127315
  9
$TDINDWG
 40
0.0000000116
  9
$TDUSRTIMER
 40
0.0000000116
  9
$USRTIMER
 70
     1
  9
$ANGBASE
 50
0.0
  9
$ANGDIR
 70
     0
  9
$PDMODE
 70
     0
  9
$PDSIZE
 40
0.0
  9
$PLINEWID
 40
0.0
  9
$SPLFRAME
 70
     0
  9
$SPLINETYPE
 70
     6
  9
$SPLINESEGS
 70
     8
  9
$HANDSEED
  5
220
  9
$SURFTAB1
 70
     6
  9
$SURFTAB2
 70
     6
  9
$SURFTYPE
 70
     6
  9
$SURFU
 70
     6
  9
$SURFV
 70
     6
  9
$UCSBASE
  2

  9
$UCSNAME
  2

  9
$UCSORG
 10
0.0
 20
0.0
 30
0.0
  9
$UCSXDIR
 10
1.0
 20
0.0
 30
0.0
  9
$UCSYDIR
 10
0.0
 20
1.0
 30
0.0
  9
$UCSORTHOREF
  2

  9
$UCSORTHOVIEW
 70
     0
  9
$UCSORGTOP
 10
0.0
 20
0.0
 30
0.0
  9
$UCSORGBOTTOM
 10
0.0
 20
0.0
 30
0.0
  9
$UCSORGLEFT
 10
0.0
 20
0.0
 30
0.0
  9
$UCSORGRIGHT
 10
0.0
 20
0.0
 30
0.0
  9
$UCSORGFRONT
 10
0.0
 20
0.0
 30
0.0
  9
$UCSORGBACK
 10
0.0
 20
0.0
 30
0.0
  9
$PUCSBASE
  2

  9
$PUCSNAME
  2

  9
$PUCSORG
 10
0.0
 20
0.0
 30
0.0
  9
$PUCSXDIR
 10
1.0
 20
0.0
 30
0.0
  9
$PUCSYDIR
 10
0.0
 20
1.0
 30
0.0
  9
$PUCSORTHOREF
  2

  9
$PUCSORTHOVIEW
 70
     0
  9
$PUCSORGTOP
 10
0.0
 20
0.0
 30
0.0
  9
$PUCSORGBOTTOM
 10
0.0
 20
0.0
 30
0.0
  9
$PUCSORGLEFT
 10
0.0
 20
0.0
 30
0.0
  9
$PUCSORGRIGHT
 10
0.0
 20
0.0
 30
0.0
  9
$PUCSORGFRONT
 10
0.0
 20
0.0
 30
0.0
  9
$PUCSORGBACK
 10
0.0
 20
0.0
 30
0.0
  9
$USERI1
 70
     0
  9
$USERI2
 70
     0
  9
$USERI3
 70
     0
  9
$USERI4
 70
     0
  9
$USERI5
 70
     0
  9
$USERR1
 40
0.0
  9
$USERR2
 40
0.0
  9
$USERR3
 40
0.0
  9
$USERR4
 40
0.0
  9
$USERR5
 40
0.0
  9
$WORLDVIEW
 70
     1
  9
$SHADEDGE
 70
     3
  9
$SHADEDIF
 70
    70
  9
$TILEMODE
 70
     1
  9
$MAXACTVP
 70
    64
  9
$PINSBASE
 10
0.0
 20
0.0
 30
0.0
  9
$PLIMCHECK
 70
     0
  9
$PEXTMIN
 10
1.000000000000000E+20
 20
1.000000000000000E+20
 30
1.000000000000000E+20
  9
$PEXTMAX
 10
-1.000000000000000E+20
 20
-1.000000000000000E+20
 30
-1.000000000000000E+20
  9
$PLIMMIN
 10
0.0
 20
0.0
  9
$PLIMMAX
 10
12.0
 20
9.0
  9
$UNITMODE
 70
     0
  9
$VISRETAIN
 70
     1
  9
$PLINEGEN
 70
     0
  9
$PSLTSCALE
 70
     1
  9
$TREEDEPTH
 70
  3020
  9
$CMLSTYLE
  2
Standard
  9
$CMLJUST
 70
     0
  9
$CMLSCALE
 40
1.0
  9
$PROXYGRAPHICS
 70
     1
  9
$MEASUREMENT
 70
     0
  9
$CELWEIGHT
370
    -1
  9
$ENDCAPS
280
     0
  9
$JOINSTYLE
280
     0
  9
$LWDISPLAY
290
     1
  9
$INSUNITS
 70
     1
  9
$HYPERLINKBASE
  1

  9
$STYLESHEET
  1

  9
$XEDIT
290
     1
  9
$CEPSNTYPE
380
     0
  9
$PSTYLEMODE
290
     1
  9
$FINGERPRINTGUID
  2
{0364F091-A4ED-17D4-708F-C323FA8E08BE}
  9
$VERSIONGUID
  2
{FAEB1C32-E019-11D5-929B-00C0DF256EC4}
  9
$EXTNAMES
290
     1
  9
$PSVPSCALE
 40
0.0
  9
$OLESTARTUP
290
     0
  9
$SORTENTS
280
   127
  9
$INDEXCTL
280
     0
  9
$HIDETEXT
280
     1
  9
$XCLIPFRAME
280
     2
  9
$HALOGAP
280
     0
  9
$OBSCOLOR
 70
   257
  9
$OBSLTYPE
280
     0
  9
$INTERSECTIONDISPLAY
280
     0
  9
$INTERSECTIONCOLOR
 70
   257
  9
$DIMASSOC
280
     2
  9
$PROJECTNAME
  1

  9
$CAMERADISPLAY
290
     0
  9
$LENSLENGTH
 40
50.0
  9
$CAMERAHEIGHT
 40
0.0
  9
$STEPSPERSEC
 40
2.0
  9
$STEPSIZE
 40
6.0
  9
$3DDWFPREC
 40
2.0
  9
$PSOLWIDTH
 40
0.25
  9
$PSOLHEIGHT
 40
4.0
  9
$LOFTANG1
 40
1.570796326794897
  9
$LOFTANG2
 40
1.570796326794897
  9
$LOFTMAG1
 40
0.0
  9
$LOFTMAG2
 40
0.0
  9
$LOFTPARAM
 70
     7
  9
$LOFTNORMALS
280
     1
  9
$LATITUDE
 40
37.795
  9
$LONGITUDE
 40
-122.394
  9
$NORTHDIRECTION
 40
0.0
  9
$TIMEZONE
 70
 -8000
  9
$LIGHTGLYPHDISPLAY
280
     1
  9
$TILEMODELIGHTSYNCH
280
     1
  9
$CMATERIAL
347
3C
  9
$SOLIDHIST
280
     1
  9
$SHOWHIST
280
     1
  9
$DWFFRAME
280
     2
  9
$DGNFRAME
280
     2
  9
$REALWORLDSCALE
290
     1
  9
$INTERFERECOLOR
 62
   256
  9
$CSHADOW
280
     0
  9
$SHADOWPLANELOCATION
 40
0.0
  0
ENDSEC
  0
SECTION
  2
CLASSES
  0
CLASS
  1
ACDBDICTIONARYWDFLT
  2
AcDbDictionaryWithDefault
  3
ObjectDBX Classes
 90
        0
 91
        4
280
     0
281
     0
  0
CLASS
  1
VISUALSTYLE
  2
AcDbVisualStyle
  3
ObjectDBX Classes
 90
     4095
 91
        4
280
     0
281
     0
  0
CLASS
  1
MATERIAL
  2
AcDbMaterial
  3
ObjectDBX Classes
 90
     1153
 91
        4
280
     0
281
     0
  0
CLASS
  1
SUN
  2
AcDbSun
  3
SCENEOE
 90
     1024
 91
        4
280
     0
281
     0
  0
ENDSEC
  0
SECTION
  2
TABLES
  0
TABLE
  2
VPORT
  5
8
330
0
100
AcDbSymbolTable
 70
     1
  0
VPORT
  5
29
330
8
100
AcDbSymbolTableRecord
100
AcDbViewportTableRecord
  2
*Active
 70
     0
 10
0.0
 20
0.0
 11
1.0
 21
1.0
 12
0.0
 22
0.0
 13
0.0
 23
0.0
 14
0.5
 24
0.5
 15
0.5
 25
0.5
 16
0.0
 26
0.0
 36
1.0
 17
91.00082462281999
 27
-128.4993055234307
 37
0.0
 40
256.9986110468615
 41
0.7081814508812795
 42
50.0
 43
0.0
 44
0.0
 50
0.0
 51
0.0
 71
     0
 72
   100
 73
     1
 74
     3
 75
     0
 76
     0
 77
     0
 78
     0
281
     0
 65
     1
110
0.0
120
0.0
130
0.0
111
1.0
121
0.0
131
0.0
112
0.0
122
1.0
132
0.0
 79
     0
146
0.0
 60
     3
 61
     5
292
     1
282
     1
141
0.0
142
0.0
 63
   250
361
3F
  0
ENDTAB
  0
TABLE
  2
LTYPE
  5
5
330
0
100
AcDbSymbolTable
 70
     3
  0
LTYPE
  5
14
330
5
100
AcDbSymbolTableRecord
100
AcDbLinetypeTableRecord
  2
ByBlock
 70
     0
  3

 72
    65
 73
     0
 40
0.0
  0
LTYPE
  5
15
330
5
100
AcDbSymbolTableRecord
100
AcDbLinetypeTableRecord
  2
ByLayer
 70
     0
  3

 72
    65
 73
     0
 40
0.0
  0
LTYPE
  5
16
330
5
100
AcDbSymbolTableRecord
100
AcDbLinetypeTableRecord
  2
Continuous
 70
     0
  3
Solid line
 72
    65
 73
     0
 40
0.0
  0
LTYPE
  5
1BC
330
5
100
AcDbSymbolTableRecord
100
AcDbLinetypeTableRecord
  2
AI-Linetype-1
 70
     0
  3
Adobe Illustrator Linetype No. 1
 72
    65
 73
     2
 40
1.411111110758333
 49
0.7055555553791667
 74
     0
 49
-0.7055555553791667
 74
     0
  0
LTYPE
  5
1C1
330
5
100
AcDbSymbolTableRecord
100
AcDbLinetypeTableRecord
  2
AI-Linetype-2
 70
     0
  3
Adobe Illustrator Linetype No. 2
 72
    65
 73
     2
 40
1.411111110758333
 49
0.7055555553791667
 74
     0
 49
-0.7055555553791667
 74
     0
  0
ENDTAB
  0
TABLE
  2
LAYER
  5
2
330
0
100
AcDbSymbolTable
 70
     2
  0
LAYER
  5
10
330
2
100
AcDbSymbolTableRecord
100
AcDbLayerTableRecord
  2
0
 70
     0
 62
     7
  6
Continuous
370
    -3
390
F
347
3E
  0
LAYER
  5
40
330
2
100
AcDbSymbolTableRecord
100
AcDbLayerTableRecord
  2
_U+30EC_U+30A4_U+30E4_U+30FC 1
 70
     0
 62
     7
  6
Continuous
370
    -3
390
F
347
3E
  0
ENDTAB
  0
TABLE
  2
STYLE
  5
3
330
0
100
AcDbSymbolTable
 70
     1
  0
STYLE
  5
11
330
3
100
AcDbSymbolTableRecord
100
AcDbTextStyleTableRecord
  2
Standard
 70
     0
 40
0.0
 41
1.0
 50
0.0
 71
     0
 42
0.2
  3
txt
  4

  0
ENDTAB
  0
TABLE
  2
VIEW
  5
6
330
0
100
AcDbSymbolTable
 70
     0
  0
ENDTAB
  0
TABLE
  2
UCS
  5
7
330
0
100
AcDbSymbolTable
 70
     0
  0
ENDTAB
  0
TABLE
  2
APPID
  5
9
330
0
100
AcDbSymbolTable
 70
     1
  0
APPID
  5
12
330
9
100
AcDbSymbolTableRecord
100
AcDbRegAppTableRecord
  2
ACAD
 70
     0
  0
ENDTAB
  0
TABLE
  2
DIMSTYLE
  5
A
330
0
100
AcDbSymbolTable
 70
     1
100
AcDbDimStyleTable
  0
DIMSTYLE
105
27
330
A
100
AcDbSymbolTableRecord
100
AcDbDimStyleTableRecord
  2
Standard
 70
     0
178
     0
340
11
  0
ENDTAB
  0
TABLE
  2
BLOCK_RECORD
  5
1
330
0
100
AcDbSymbolTable
 70
     9
  0
BLOCK_RECORD
  5
1F
330
1
100
AcDbSymbolTableRecord
100
AcDbBlockTableRecord
  2
*Model_Space
340
22
 70
     0
280
     1
281
     0
  0
BLOCK_RECORD
  5
1B
330
1
100
AcDbSymbolTableRecord
100
AcDbBlockTableRecord
  2
*Paper_Space
340
1E
 70
     0
280
     1
281
     0
  0
BLOCK_RECORD
  5
23
330
1
100
AcDbSymbolTableRecord
100
AcDbBlockTableRecord
  2
*Paper_Space0
340
26
 70
     0
280
     1
281
     0
  0
BLOCK_RECORD
  5
41
330
1
100
AcDbSymbolTableRecord
100
AcDbBlockTableRecord
  2
block 2
340
0
102
{BLKREFS
331
42
102
}
 70
     0
280
     1
281
     0
  0
BLOCK_RECORD
  5
45
330
1
100
AcDbSymbolTableRecord
100
AcDbBlockTableRecord
  2
block 3
340
0
102
{BLKREFS
331
46
102
}
 70
     0
280
     1
281
     0
  0
BLOCK_RECORD
  5
71
330
1
100
AcDbSymbolTableRecord
100
AcDbBlockTableRecord
  2
block 4
340
0
102
{BLKREFS
331
72
102
}
 70
     0
280
     1
281
     0
  0
BLOCK_RECORD
  5
85
330
1
100
AcDbSymbolTableRecord
100
AcDbBlockTableRecord
  2
block 5
340
0
102
{BLKREFS
331
86
102
}
 70
     0
280
     1
281
     0
  0
BLOCK_RECORD
  5
95
330
1
100
AcDbSymbolTableRecord
100
AcDbBlockTableRecord
  2
block 6
340
0
102
{BLKREFS
331
96
102
}
 70
     0
280
     1
281
     0
  0
BLOCK_RECORD
  5
1C3
330
1
100
AcDbSymbolTableRecord
100
AcDbBlockTableRecord
  2
block 7
340
0
102
{BLKREFS
331
1C4
102
}
 70
     0
280
     1
281
     0
  0
BLOCK_RECORD
  5
1D3
330
1
100
AcDbSymbolTableRecord
100
AcDbBlockTableRecord
  2
block 8
340
0
102
{BLKREFS
331
1D4
102
}
 70
     0
280
     1
281
     0
  0
BLOCK_RECORD
  5
1FB
330
1
100
AcDbSymbolTableRecord
100
AcDbBlockTableRecord
  2
block 9
340
0
102
{BLKREFS
331
1FC
102
}
 70
     0
280
     1
281
     0
  0
ENDTAB
  0
ENDSEC
  0
SECTION
  2
BLOCKS
  0
BLOCK
  5
20
330
1F
100
AcDbEntity
  8
0
100
AcDbBlockBegin
  2
*Model_Space
 70
     0
 10
0.0
 20
0.0
 30
0.0
  3
*Model_Space
  1

  0
ENDBLK
  5
21
330
1F
100
AcDbEntity
  8
0
100
AcDbBlockEnd
  0
BLOCK
  5
1C
330
1B
100
AcDbEntity
 67
     1
  8
0
100
AcDbBlockBegin
  2
*Paper_Space
 70
     0
 10
0.0
 20
0.0
 30
0.0
  3
*Paper_Space
  1

  0
ENDBLK
  5
1D
330
1B
100
AcDbEntity
 67
     1
  8
0
100
AcDbBlockEnd
  0
BLOCK
  5
24
330
23
100
AcDbEntity
  8
0
100
AcDbBlockBegin
  2
*Paper_Space0
 70
     0
 10
0.0
 20
0.0
 30
0.0
  3
*Paper_Space0
  1

  0
ENDBLK
  5
25
330
23
100
AcDbEntity
  8
0
100
AcDbBlockEnd
  0
BLOCK
  5
43
330
41
100
AcDbEntity
  8
0
100
AcDbBlockBegin
  2
block 2
 70
     0
 10
0.0
 20
0.0
 30
0.0
  3
block 2
  1

  0
INSERT
  5
46
330
41
100
AcDbEntity
  8
_U+30EC_U+30A4_U+30E4_U+30FC 1
100
AcDbBlockReference
  2
block 3
 10
0.0
 20
0.0
 30
0.0
  0
POLYLINE
  5
B1
330
41
100
AcDbEntity
  8
_U+30EC_U+30A4_U+30E4_U+30FC 1
 62
     7
420
 16777215
370
    25
100
AcDb2dPolyline
 66
     1
 10
0.0
 20
0.0
 30
0.0
  0
VERTEX
  5
B2
330
B1
100
AcDbEntity
  8
_U+30EC_U+30A4_U+30E4_U+30FC 1
 62
     7
420
 16777215
370
    25
100
AcDbVertex
100
AcDb2dVertex
 10
82.35706373222959
 20
-118.4637302481619
 30
0.0
  0
VERTEX
  5
B3
330
B1
100
AcDbEntity
  8
_U+30EC_U+30A4_U+30E4_U+30FC 1
 62
     7
420
 16777215
370
    25
100
AcDbVertex
100
AcDb2dVertex
 10
82.76533344403599
 20
-117.9704058038408
 30
0.0
  0
SEQEND
  5
B4
330
B1
100
AcDbEntity
  8
_U+30EC_U+30A4_U+30E4_U+30FC 1
 62
     7
420
 16777215
370
    25
  0
POLYLINE
  5
B5
330
41
100
AcDbEntity
  8
_U+30EC_U+30A4_U+30E4_U+30FC 1
 62
     7
420
 16777215
370
    25
100
AcDb2dPolyline
 66
     1
 10
0.0
 20
0.0
 30
0.0
  0
VERTEX
  5
B6
330
B5
100
AcDbEntity
  8
_U+30EC_U+30A4_U+30E4_U+30FC 1
 62
     7
420
 16777215
370
    25
100
AcDbVertex
100
AcDb2dVertex
 10
82.3405537326508
 20
-119.4642080256897
 30
0.0
  0
VERTEX
  5
B7
330
B5
100
AcDbEntity
  8
_U+30EC_U+30A4_U+30E4_U+30FC 1
 62
     7
420
 16777215
370
    25
100
AcDbVertex
100
AcDb2dVertex
 10
82.7491409444491
 20
-118.9708483035907
 30
0.0
  0
SEQEND
  5
B8
330
B5
100
AcDbEntity
  8
_U+30EC_U+30A4_U+30E4_U+30FC 1
 62
     7
420
 16777215
370
    25
  0
POLYLINE
  5
B9
330
41
100
AcDbEntity
  8
_U+30EC_U+30A4_U+30E4_U+30FC 1
 62
     7
420
 16777215
370
    25
100
AcDb2dPolyline
 66
     1
 10
0.0
 20
0.0
 30
0.0
  0
VERTEX
  5
BA
330
B9
100
AcDbEntity
  8
_U+30EC_U+30A4_U+30E4_U+30FC 1
 62
     7
420
 16777215
370
    25
100
AcDbVertex
100
AcDb2dVertex
 10
82.7491409444491
 20
-118.9708483035907
 30
0.0
  0
VERTEX
  5
BB
330
B9
100
AcDbEntity
  8
_U+30EC_U+30A4_U+30E4_U+30FC 1
 62
     7
420
 16777215
370
    25
100
AcDbVertex
100
AcDb2dVertex
 10
82.35706373222959
 20
-118.4637302481619
 30
0.0
  0
SEQEND
  5
BC
330
B9
100
AcDbEntity
  8
_U+30EC_U+30A4_U+30E4_U+30FC 1
 62
     7
420
 16777215
370
    25
  0
POLYLINE
  5
BD
330
41
100
AcDbEntity
  8
_U+30EC_U+30A4_U+30E4_U+30FC 1
 62
     7
420
 16777215
370
    25
100
AcDb2dPolyline
 66
     1
 10
0.0
 20
0.0
 30
0.0
  0
VERTEX
  5
BE
330
BD
100
AcDbEntity
  8
_U+30EC_U+30A4_U+30E4_U+30FC 1
 62
     7
420
 16777215
370
    25
100
AcDbVertex
100
AcDb2dVertex
 10
82.3246787330558
 20
-120.4646505254392
 30
0.0
  0
VERTEX
  5
BF
330
BD
100
AcDbEntity
  8
_U+30EC_U+30A4_U+30E4_U+30FC 1
 62
     7
420
 16777215
370
    25
100
AcDbVertex
100
AcDb2dVertex
 10
82.73259566709342
 20
-119.9713260811184
 30
0.0
  0
SEQEND
  5
C0
330
BD
100
AcDbEntity
  8
_U+30EC_U+30A4_U+30E4_U+30FC 1
 62
     7
420
 16777215
370
    25
  0
POLYLINE
  5
C1
330
41
100
AcDbEntity
  8
_U+30EC_U+30A4_U+30E4_U+30FC 1
 62
     7
420
 16777215
370
    25
100
AcDb2dPolyline
 66
     1
 10
0.0
 20
0.0
 30
0.0
  0
VERTEX
  5
C2
330
C1
100
AcDbEntity
  8
_U+30EC_U+30A4_U+30E4_U+30FC 1
 62
     7
420
 16777215
370
    25
100
AcDbVertex
100
AcDb2dVertex
 10
82.73259566709342
 20
-119.9713260811184
 30
0.0
  0
VERTEX
  5
C3
330
C1
100
AcDbEntity
  8
_U+30EC_U+30A4_U+30E4_U+30FC 1
 62
     7
420
 16777215
370
    25
100
AcDbVertex
100
AcDb2dVertex
 10
82.3405537326508
 20
-119.4642080256897
 30
0.0
  0
SEQEND
  5
C4
330
C1
100
AcDbEntity
  8
_U+30EC_U+30A4_U+30E4_U+30FC 1
 62
     7
420
 16777215
370
    25
  0
POLYLINE
  5
C5
330
41
100
AcDbEntity
  8
_U+30EC_U+30A4_U+30E4_U+30FC 1
 62
     7
420
 16777215
370
    25
100
AcDb2dPolyline
 66
     1
 10
0.0
 20
0.0
 30
0.0
  0
VERTEX
  5
C6
330
C5
100
AcDbEntity
  8
_U+30EC_U+30A4_U+30E4_U+30FC 1
 62
     7
420
 16777215
370
    25
100
AcDbVertex
100
AcDb2dVertex
 10
82.308168733477
 20
-121.4650930251891
 30
0.0
  0
VERTEX
  5
C7
330
C5
100
AcDbEntity
  8
_U+30EC_U+30A4_U+30E4_U+30FC 1
 62
     7
420
 16777215
370
    25
100
AcDbVertex
100
AcDb2dVertex
 10
82.71605038973775
 20
-120.971768580868
 30
0.0
  0
SEQEND
  5
C8
330
C5
100
AcDbEntity
  8
_U+30EC_U+30A4_U+30E4_U+30FC 1
 62
     7
420
 16777215
370
    25
  0
POLYLINE
  5
C9
330
41
100
AcDbEntity
  8
_U+30EC_U+30A4_U+30E4_U+30FC 1
 62
     7
420
 16777215
370
    25
100
AcDb2dPolyline
 66
     1
 10
0.0
 20
0.0
 30
0.0
  0
VERTEX
  5
CA
330
C9
100
AcDbEntity
  8
_U+30EC_U+30A4_U+30E4_U+30FC 1
 62
     7
420
 16777215
370
    25
100
AcDbVertex
100
AcDb2dVertex
 10
82.71605038973775
 20
-120.971768580868
 30
0.0
  0
VERTEX
  5
CB
330
C9
100
AcDbEntity
  8
_U+30EC_U+30A4_U+30E4_U+30FC 1
 62
     7
420
 16777215
370
    25
100
AcDbVertex
100
AcDb2dVertex
 10
82.3246787330558
 20
-120.4646505254392
 30
0.0
  0
SEQEND
  5
CC
330
C9
100
AcDbEntity
  8
_U+30EC_U+30A4_U+30E4_U+30FC 1
 62
     7
420
 16777215
370
    25
  0
POLYLINE
  5
CD
330
41
100
AcDbEntity
  8
_U+30EC_U+30A4_U+30E4_U+30FC 1
 62
     7
420
 16777215
370
    25
100
AcDb2dPolyline
 66
     1
 10
0.0
 20
0.0
 30
0.0
  0
VERTEX
  5
CE
330
CD
100
AcDbEntity
  8
_U+30EC_U+30A4_U+30E4_U+30FC 1
 62
     7
420
 16777215
370
    25
100
AcDbVertex
100
AcDb2dVertex
 10
82.29162345612133
 20
-122.4655708027169
 30
0.0
  0
VERTEX
  5
CF
330
CD
100
AcDbEntity
  8
_U+30EC_U+30A4_U+30E4_U+30FC 1
 62
     7
420
 16777215
370
    25
100
AcDbVertex
100
AcDb2dVertex
 10
82.69985789015085
 20
-121.9722110806179
 30
0.0
  0
SEQEND
  5
D0
330
CD
100
AcDbEntity
  8
_U+30EC_U+30A4_U+30E4_U+30FC 1
 62
     7
420
 16777215
370
    25
  0
POLYLINE
  5
D1
330
41
100
AcDbEntity
  8
_U+30EC_U+30A4_U+30E4_U+30FC 1
 62
     7
420
 16777215
370
    25
100
AcDb2dPolyline
 66
     1
 10
0.0
 20
0.0
 30
0.0
  0
VERTEX
  5
D2
330
D1
100
AcDbEntity
  8
_U+30EC_U+30A4_U+30E4_U+30FC 1
 62
     7
420
 16777215
370
    25
100
AcDbVertex
100
AcDb2dVertex
 10
82.69985789015085
 20
-121.9722110806179
 30
0.0
  0
VERTEX
  5
D3
330
D1
100
AcDbEntity
  8
_U+30EC_U+30A4_U+30E4_U+30FC 1
 62
     7
420
 16777215
370
    25
100
AcDbVertex
100
AcDb2dVertex
 10
82.308168733477
 20
-121.4650930251891
 30
0.0
  0
SEQEND
  5
D4
330
D1
100
AcDbEntity
  8
_U+30EC_U+30A4_U+30E4_U+30FC 1
 62
     7
420
 16777215
370
    25
  0
POLYLINE
  5
D5
330
41
100
AcDbEntity
  8
_U+30EC_U+30A4_U+30E4_U+30FC 1
 62
     7
420
 16777215
370
    25
100
AcDb2dPolyline
 66
     1
 10
0.0
 20
0.0
 30
0.0
  0
VERTEX
  5
D6
330
D5
100
AcDbEntity
  8
_U+30EC_U+30A4_U+30E4_U+30FC 1
 62
     7
420
 16777215
370
    25
100
AcDbVertex
100
AcDb2dVertex
 10
82.27543095653444
 20
-123.4660133024668
 30
0.0
  0
VERTEX
  5
D7
330
D5
100
AcDbEntity
  8
_U+30EC_U+30A4_U+30E4_U+30FC 1
 62
     7
420
 16777215
370
    25
100
AcDbVertex
100
AcDb2dVertex
 10
82.68366539056396
 20
-122.9726888581457
 30
0.0
  0
SEQEND
  5
D8
330
D5
100
AcDbEntity
  8
_U+30EC_U+30A4_U+30E4_U+30FC 1
 62
     7
420
 16777215
370
    25
  0
POLYLINE
  5
D9
330
41
100
AcDbEntity
  8
_U+30EC_U+30A4_U+30E4_U+30FC 1
 62
     7
420
 16777215
370
    25
100
AcDb2dPolyline
 66
     1
 10
0.0
 20
0.0
 30
0.0
  0
VERTEX
  5
DA
330
D9
100
AcDbEntity
  8
_U+30EC_U+30A4_U+30E4_U+30FC 1
 62
     7
420
 16777215
370
    25
100
AcDbVertex
100
AcDb2dVertex
 10
82.68366539056396
 20
-122.9726888581457
 30
0.0
  0
VERTEX
  5
DB
330
D9
100
AcDbEntity
  8
_U+30EC_U+30A4_U+30E4_U+30FC 1
 62
     7
420
 16777215
370
    25
100
AcDbVertex
100
AcDb2dVertex
 10
82.29162345612133
 20
-122.4655708027169
 30
0.0
  0
SEQEND
  5
DC
330
D9
100
AcDbEntity
  8
_U+30EC_U+30A4_U+30E4_U+30FC 1
 62
     7
420
 16777215
370
    25
  0
POLYLINE
  5
DD
330
41
100
AcDbEntity
  8
_U+30EC_U+30A4_U+30E4_U+30FC 1
 62
     7
420
 16777215
370
    25
100
AcDb2dPolyline
 66
     1
 10
0.0
 20
0.0
 30
0.0
  0
VERTEX
  5
DE
330
DD
100
AcDbEntity
  8
_U+30EC_U+30A4_U+30E4_U+30FC 1
 62
     7
420
 16777215
370
    25
100
AcDbVertex
100
AcDb2dVertex
 10
82.25923845694754
 20
-124.4664910799945
 30
0.0
  0
VERTEX
  5
DF
330
DD
100
AcDbEntity
  8
_U+30EC_U+30A4_U+30E4_U+30FC 1
 62
     7
420
 16777215
370
    25
100
AcDbVertex
100
AcDb2dVertex
 10
82.66712220155556
 20
-123.9731313578956
 30
0.0
  0
SEQEND
  5
E0
330
DD
100
AcDbEntity
  8
_U+30EC_U+30A4_U+30E4_U+30FC 1
 62
     7
420
 16777215
370
    25
  0
POLYLINE
  5
E1
330
41
100
AcDbEntity
  8
_U+30EC_U+30A4_U+30E4_U+30FC 1
 62
     7
420
 16777215
370
    25
100
AcDb2dPolyline
 66
     1
 10
0.0
 20
0.0
 30
0.0
  0
VERTEX
  5
E2
330
E1
100
AcDbEntity
  8
_U+30EC_U+30A4_U+30E4_U+30FC 1
 62
     7
420
 16777215
370
    25
100
AcDbVertex
100
AcDb2dVertex
 10
82.66712220155556
 20
-123.9731313578956
 30
0.0
  0
VERTEX
  5
E3
330
E1
100
AcDbEntity
  8
_U+30EC_U+30A4_U+30E4_U+30FC 1
 62
     7
420
 16777215
370
    25
100
AcDbVertex
100
AcDb2dVertex
 10
82.27543095653444
 20
-123.4660133024668
 30
0.0
  0
SEQEND
  5
E4
330
E1
100
AcDbEntity
  8
_U+30EC_U+30A4_U+30E4_U+30FC 1
 62
     7
420
 16777215
370
    25
  0
POLYLINE
  5
E5
330
41
100
AcDbEntity
  8
_U+30EC_U+30A4_U+30E4_U+30FC 1
 62
     7
420
 16777215
370
    25
100
AcDb2dPolyline
 66
     1
 10
0.0
 20
0.0
 30
0.0
  0
VERTEX
  5
E6
330
E5
100
AcDbEntity
  8
_U+30EC_U+30A4_U+30E4_U+30FC 1
 62
     7
420
 16777215
370
    25
100
AcDbVertex
100
AcDb2dVertex
 10
82.24269317959187
 20
-125.4669335797444
 30
0.0
  0
VERTEX
  5
E7
330
E5
100
AcDbEntity
  8
_U+30EC_U+30A4_U+30E4_U+30FC 1
 62
     7
420
 16777215
370
    25
100
AcDbVertex
100
AcDb2dVertex
 10
82.65092761362139
 20
-124.9736091354233
 30
0.0
  0
SEQEND
  5
E8
330
E5
100
AcDbEntity
  8
_U+30EC_U+30A4_U+30E4_U+30FC 1
 62
     7
420
 16777215
370
    25
  0
POLYLINE
  5
E9
330
41
100
AcDbEntity
  8
_U+30EC_U+30A4_U+30E4_U+30FC 1
 62
     7
420
 16777215
370
    25
100
AcDb2dPolyline
 66
     1
 10
0.0
 20
0.0
 30
0.0
  0
VERTEX
  5
EA
330
E9
100
AcDbEntity
  8
_U+30EC_U+30A4_U+30E4_U+30FC 1
 62
     7
420
 16777215
370
    25
100
AcDbVertex
100
AcDb2dVertex
 10
82.65092761362139
 20
-124.9736091354233
 30
0.0
  0
VERTEX
  5
EB
330
E9
100
AcDbEntity
  8
_U+30EC_U+30A4_U+30E4_U+30FC 1
 62
     7
420
 16777215
370
    25
100
AcDbVertex
100
AcDb2dVertex
 10
82.25923845694754
 20
-124.4664910799945
 30
0.0
  0
SEQEND
  5
EC
330
E9
100
AcDbEntity
  8
_U+30EC_U+30A4_U+30E4_U+30FC 1
 62
     7
420
 16777215
370
    25
  0
POLYLINE
  5
ED
330
41
100
AcDbEntity
  8
_U+30EC_U+30A4_U+30E4_U+30FC 1
 62
     7
420
 16777215
370
    25
100
AcDb2dPolyline
 66
     1
 10
0.0
 20
0.0
 30
0.0
  0
VERTEX
  5
EE
330
ED
100
AcDbEntity
  8
_U+30EC_U+30A4_U+30E4_U+30FC 1
 62
     7
420
 16777215
370
    25
100
AcDbVertex
100
AcDb2dVertex
 10
82.22614997944359
 20
-126.4673760794943
 30
0.0
  0
VERTEX
  5
EF
330
ED
100
AcDbEntity
  8
_U+30EC_U+30A4_U+30E4_U+30FC 1
 62
     7
420
 16777215
370
    25
100
AcDbVertex
100
AcDb2dVertex
 10
82.6347351140345
 20
-125.9740516351732
 30
0.0
  0
SEQEND
  5
F0
330
ED
100
AcDbEntity
  8
_U+30EC_U+30A4_U+30E4_U+30FC 1
 62
     7
420
 16777215
370
    25
  0
POLYLINE
  5
F1
330
41
100
AcDbEntity
  8
_U+30EC_U+30A4_U+30E4_U+30FC 1
 62
     7
420
 16777215
370
    25
100
AcDb2dPolyline
 66
     1
 10
0.0
 20
0.0
 30
0.0
  0
VERTEX
  5
F2
330
F1
100
AcDbEntity
  8
_U+30EC_U+30A4_U+30E4_U+30FC 1
 62
     7
420
 16777215
370
    25
100
AcDbVertex
100
AcDb2dVertex
 10
82.6347351140345
 20
-125.9740516351732
 30
0.0
  0
VERTEX
  5
F3
330
F1
100
AcDbEntity
  8
_U+30EC_U+30A4_U+30E4_U+30FC 1
 62
     7
420
 16777215
370
    25
100
AcDbVertex
100
AcDb2dVertex
 10
82.24269317959187
 20
-125.4669335797444
 30
0.0
  0
SEQEND
  5
F4
330
F1
100
AcDbEntity
  8
_U+30EC_U+30A4_U+30E4_U+30FC 1
 62
     7
420
 16777215
370
    25
  0
POLYLINE
  5
F5
330
41
100
AcDbEntity
  8
_U+30EC_U+30A4_U+30E4_U+30FC 1
 62
     7
420
 16777215
370
    25
100
AcDb2dPolyline
 66
     1
 10
0.0
 20
0.0
 30
0.0
  0
VERTEX
  5
F6
330
F5
100
AcDbEntity
  8
_U+30EC_U+30A4_U+30E4_U+30FC 1
 62
     7
420
 16777215
370
    25
100
AcDbVertex
100
AcDb2dVertex
 10
82.21030818041808
 20
-127.4678538570221
 30
0.0
  0
VERTEX
  5
F7
330
F5
100
AcDbEntity
  8
_U+30EC_U+30A4_U+30E4_U+30FC 1
 62
     7
420
 16777215
370
    25
100
AcDbVertex
100
AcDb2dVertex
 10
82.6182251144557
 20
-126.9744941349231
 30
0.0
  0
SEQEND
  5
F8
330
F5
100
AcDbEntity
  8
_U+30EC_U+30A4_U+30E4_U+30FC 1
 62
     7
420
 16777215
370
    25
  0
POLYLINE
  5
F9
330
41
100
AcDbEntity
  8
_U+30EC_U+30A4_U+30E4_U+30FC 1
 62
     7
420
 16777215
370
    25
100
AcDb2dPolyline
 66
     1
 10
0.0
 20
0.0
 30
0.0
  0
VERTEX
  5
FA
330
F9
100
AcDbEntity
  8
_U+30EC_U+30A4_U+30E4_U+30FC 1
 62
     7
420
 16777215
370
    25
100
AcDbVertex
100
AcDb2dVertex
 10
82.6182251144557
 20
-126.9744941349231
 30
0.0
  0
VERTEX
  5
FB
330
F9
100
AcDbEntity
  8
_U+30EC_U+30A4_U+30E4_U+30FC 1
 62
     7
420
 16777215
370
    25
100
AcDbVertex
100
AcDb2dVertex
 10
82.22614997944359
 20
-126.4673760794943
 30
0.0
  0
SEQEND
  5
FC
330
F9
100
AcDbEntity
  8
_U+30EC_U+30A4_U+30E4_U+30FC 1
 62
     7
420
 16777215
370
    25
  0
POLYLINE
  5
FD
330
41
100
AcDbEntity
  8
_U+30EC_U+30A4_U+30E4_U+30FC 1
 62
     7
420
 16777215
370
    25
100
AcDb2dPolyline
 66
     1
 10
0.0
 20
0.0
 30
0.0
  0
VERTEX
  5
FE
330
FD
100
AcDbEntity
  8
_U+30EC_U+30A4_U+30E4_U+30FC 1
 62
     7
420
 16777215
370
    25
100
AcDbVertex
100
AcDb2dVertex
 10
82.1937629030624
 20
-128.4682963567717
 30
0.0
  0
VERTEX
  5
FF
330
FD
100
AcDbEntity
  8
_U+30EC_U+30A4_U+30E4_U+30FC 1
 62
     7
420
 16777215
370
    25
100
AcDbVertex
100
AcDb2dVertex
 10
82.60167983710002
 20
-127.9749719124509
 30
0.0
  0
SEQEND
  5
100
330
FD
100
AcDbEntity
  8
_U+30EC_U+30A4_U+30E4_U+30FC 1
 62
     7
420
 16777215
370
    25
  0
POLYLINE
  5
101
330
41
100
AcDbEntity
  8
_U+30EC_U+30A4_U+30E4_U+30FC 1
 62
     7
420
 16777215
370
    25
100
AcDb2dPolyline
 66
     1
 10
0.0
 20
0.0
 30
0.0
  0
VERTEX
  5
102
330
101
100
AcDbEntity
  8
_U+30EC_U+30A4_U+30E4_U+30FC 1
 62
     7
420
 16777215
370
    25
100
AcDbVertex
100
AcDb2dVertex
 10
82.60167983710002
 20
-127.9749719124509
 30
0.0
  0
VERTEX
  5
103
330
101
100
AcDbEntity
  8
_U+30EC_U+30A4_U+30E4_U+30FC 1
 62
     7
420
 16777215
370
    25
100
AcDbVertex
100
AcDb2dVertex
 10
82.21030818041808
 20
-127.4678538570221
 30
0.0
  0
SEQEND
  5
104
330
101
100
AcDbEntity
  8
_U+30EC_U+30A4_U+30E4_U+30FC 1
 62
     7
420
 16777215
370
    25
  0
POLYLINE
  5
105
330
41
100
AcDbEntity
  8
_U+30EC_U+30A4_U+30E4_U+30FC 1
 62
     7
420
 16777215
370
    25
100
AcDb2dPolyline
 66
     1
 10
0.0
 20
0.0
 30
0.0
  0
VERTEX
  5
106
330
105
100
AcDbEntity
  8
_U+30EC_U+30A4_U+30E4_U+30FC 1
 62
     7
420
 16777215
370
    25
100
AcDbVertex
100
AcDb2dVertex
 10
82.17725290348362
 20
-129.468421356522
 30
0.0
  0
VERTEX
  5
107
330
105
100
AcDbEntity
  8
_U+30EC_U+30A4_U+30E4_U+30FC 1
 62
     7
420
 16777215
370
    25
100
AcDbVertex
100
AcDb2dVertex
 10
82.58548733751313
 20
-128.9750616344227
 30
0.0
  0
SEQEND
  5
108
330
105
100
AcDbEntity
  8
_U+30EC_U+30A4_U+30E4_U+30FC 1
 62
     7
420
 16777215
370
    25
  0
POLYLINE
  5
109
330
41
100
AcDbEntity
  8
_U+30EC_U+30A4_U+30E4_U+30FC 1
 62
     7
420
 16777215
370
    25
100
AcDb2dPolyline
 66
     1
 10
0.0
 20
0.0
 30
0.0
  0
VERTEX
  5
10A
330
109
100
AcDbEntity
  8
_U+30EC_U+30A4_U+30E4_U+30FC 1
 62
     7
420
 16777215
370
    25
100
AcDbVertex
100
AcDb2dVertex
 10
82.58548733751313
 20
-128.9750616344227
 30
0.0
  0
VERTEX
  5
10B
330
109
100
AcDbEntity
  8
_U+30EC_U+30A4_U+30E4_U+30FC 1
 62
     7
420
 16777215
370
    25
100
AcDbVertex
100
AcDb2dVertex
 10
82.1937629030624
 20
-128.4682963567717
 30
0.0
  0
SEQEND
  5
10C
330
109
100
AcDbEntity
  8
_U+30EC_U+30A4_U+30E4_U+30FC 1
 62
     7
420
 16777215
370
    25
  0
POLYLINE
  5
10D
330
41
100
AcDbEntity
  8
_U+30EC_U+30A4_U+30E4_U+30FC 1
 62
     7
420
 16777215
370
    25
100
AcDb2dPolyline
 66
     1
 10
0.0
 20
0.0
 30
0.0
  0
VERTEX
  5
10E
330
10D
100
AcDbEntity
  8
_U+30EC_U+30A4_U+30E4_U+30FC 1
 62
     7
420
 16777215
370
    25
100
AcDbVertex
100
AcDb2dVertex
 10
82.16106040389673
 20
-130.4688638562719
 30
0.0
  0
VERTEX
  5
10F
330
10D
100
AcDbEntity
  8
_U+30EC_U+30A4_U+30E4_U+30FC 1
 62
     7
420
 16777215
370
    25
100
AcDbVertex
100
AcDb2dVertex
 10
82.56929483792624
 20
-129.9748338563952
 30
0.0
  0
SEQEND
  5
110
330
10D
100
AcDbEntity
  8
_U+30EC_U+30A4_U+30E4_U+30FC 1
 62
     7
420
 16777215
370
    25
  0
POLYLINE
  5
111
330
41
100
AcDbEntity
  8
_U+30EC_U+30A4_U+30E4_U+30FC 1
 62
     7
420
 16777215
370
    25
100
AcDb2dPolyline
 66
     1
 10
0.0
 20
0.0
 30
0.0
  0
VERTEX
  5
112
330
111
100
AcDbEntity
  8
_U+30EC_U+30A4_U+30E4_U+30FC 1
 62
     7
420
 16777215
370
    25
100
AcDbVertex
100
AcDb2dVertex
 10
82.56929483792624
 20
-129.9748338563952
 30
0.0
  0
VERTEX
  5
113
330
111
100
AcDbEntity
  8
_U+30EC_U+30A4_U+30E4_U+30FC 1
 62
     7
420
 16777215
370
    25
100
AcDbVertex
100
AcDb2dVertex
 10
82.17725290348362
 20
-129.468421356522
 30
0.0
  0
SEQEND
  5
114
330
111
100
AcDbEntity
  8
_U+30EC_U+30A4_U+30E4_U+30FC 1
 62
     7
420
 16777215
370
    25
  0
POLYLINE
  5
115
330
41
100
AcDbEntity
  8
_U+30EC_U+30A4_U+30E4_U+30FC 1
 62
     7
420
 16777215
370
    25
100
AcDb2dPolyline
 66
     1
 10
0.0
 20
0.0
 30
0.0
  0
VERTEX
  5
116
330
115
100
AcDbEntity
  8
_U+30EC_U+30A4_U+30E4_U+30FC 1
 62
     7
420
 16777215
370
    25
100
AcDbVertex
100
AcDb2dVertex
 10
82.14486790430982
 20
-131.4693063560218
 30
0.0
  0
VERTEX
  5
117
330
115
100
AcDbEntity
  8
_U+30EC_U+30A4_U+30E4_U+30FC 1
 62
     7
420
 16777215
370
    25
100
AcDbVertex
100
AcDb2dVertex
 10
82.55274956057056
 20
-130.9753116339226
 30
0.0
  0
SEQEND
  5
118
330
115
100
AcDbEntity
  8
_U+30EC_U+30A4_U+30E4_U+30FC 1
 62
     7
420
 16777215
370
    25
  0
POLYLINE
  5
119
330
41
100
AcDbEntity
  8
_U+30EC_U+30A4_U+30E4_U+30FC 1
 62
     7
420
 16777215
370
    25
100
AcDb2dPolyline
 66
     1
 10
0.0
 20
0.0
 30
0.0
  0
VERTEX
  5
11A
330
119
100
AcDbEntity
  8
_U+30EC_U+30A4_U+30E4_U+30FC 1
 62
     7
420
 16777215
370
    25
100
AcDbVertex
100
AcDb2dVertex
 10
82.55274956057056
 20
-130.9753116339226
 30
0.0
  0
VERTEX
  5
11B
330
119
100
AcDbEntity
  8
_U+30EC_U+30A4_U+30E4_U+30FC 1
 62
     7
420
 16777215
370
    25
100
AcDbVertex
100
AcDb2dVertex
 10
82.16106040389673
 20
-130.4688638562719
 30
0.0
  0
SEQEND
  5
11C
330
119
100
AcDbEntity
  8
_U+30EC_U+30A4_U+30E4_U+30FC 1
 62
     7
420
 16777215
370
    25
  0
POLYLINE
  5
11D
330
41
100
AcDbEntity
  8
_U+30EC_U+30A4_U+30E4_U+30FC 1
 62
     7
420
 16777215
370
    25
100
AcDb2dPolyline
 66
     1
 10
0.0
 20
0.0
 30
0.0
  0
VERTEX
  5
11E
330
11D
100
AcDbEntity
  8
_U+30EC_U+30A4_U+30E4_U+30FC 1
 62
     7
420
 16777215
370
    25
100
AcDbVertex
100
AcDb2dVertex
 10
82.12832262695416
 20
-132.4697841335492
 30
0.0
  0
VERTEX
  5
11F
330
11D
100
AcDbEntity
  8
_U+30EC_U+30A4_U+30E4_U+30FC 1
 62
     7
420
 16777215
370
    25
100
AcDbVertex
100
AcDb2dVertex
 10
82.53620428321489
 20
-131.9757541336726
 30
0.0
  0
SEQEND
  5
120
330
11D
100
AcDbEntity
  8
_U+30EC_U+30A4_U+30E4_U+30FC 1
 62
     7
420
 16777215
370
    25
  0
POLYLINE
  5
121
330
41
100
AcDbEntity
  8
_U+30EC_U+30A4_U+30E4_U+30FC 1
 62
     7
420
 16777215
370
    25
100
AcDb2dPolyline
 66
     1
 10
0.0
 20
0.0
 30
0.0
  0
VERTEX
  5
122
330
121
100
AcDbEntity
  8
_U+30EC_U+30A4_U+30E4_U+30FC 1
 62
     7
420
 16777215
370
    25
100
AcDbVertex
100
AcDb2dVertex
 10
82.53620428321489
 20
-131.9757541336726
 30
0.0
  0
VERTEX
  5
123
330
121
100
AcDbEntity
  8
_U+30EC_U+30A4_U+30E4_U+30FC 1
 62
     7
420
 16777215
370
    25
100
AcDbVertex
100
AcDb2dVertex
 10
82.14486790430982
 20
-131.4693063560218
 30
0.0
  0
SEQEND
  5
124
330
121
100
AcDbEntity
  8
_U+30EC_U+30A4_U+30E4_U+30FC 1
 62
     7
420
 16777215
370
    25
  0
POLYLINE
  5
125
330
41
100
AcDbEntity
  8
_U+30EC_U+30A4_U+30E4_U+30FC 1
 62
     7
420
 16777215
370
    25
100
AcDb2dPolyline
 66
     1
 10
0.0
 20
0.0
 30
0.0
  0
VERTEX
  5
126
330
125
100
AcDbEntity
  8
_U+30EC_U+30A4_U+30E4_U+30FC 1
 62
     7
420
 16777215
370
    25
100
AcDbVertex
100
AcDb2dVertex
 10
82.11177734959848
 20
-133.4702266332991
 30
0.0
  0
VERTEX
  5
127
330
125
100
AcDbEntity
  8
_U+30EC_U+30A4_U+30E4_U+30FC 1
 62
     7
420
 16777215
370
    25
100
AcDbVertex
100
AcDb2dVertex
 10
82.52036664603663
 20
-132.9761966334225
 30
0.0
  0
SEQEND
  5
128
330
125
100
AcDbEntity
  8
_U+30EC_U+30A4_U+30E4_U+30FC 1
 62
     7
420
 16777215
370
    25
  0
POLYLINE
  5
129
330
41
100
AcDbEntity
  8
_U+30EC_U+30A4_U+30E4_U+30FC 1
 62
     7
420
 16777215
370
    25
100
AcDb2dPolyline
 66
     1
 10
0.0
 20
0.0
 30
0.0
  0
VERTEX
  5
12A
330
129
100
AcDbEntity
  8
_U+30EC_U+30A4_U+30E4_U+30FC 1
 62
     7
420
 16777215
370
    25
100
AcDbVertex
100
AcDb2dVertex
 10
82.52036664603663
 20
-132.9761966334225
 30
0.0
  0
VERTEX
  5
12B
330
129
100
AcDbEntity
  8
_U+30EC_U+30A4_U+30E4_U+30FC 1
 62
     7
420
 16777215
370
    25
100
AcDbVertex
100
AcDb2dVertex
 10
82.12832262695416
 20
-132.4697841335492
 30
0.0
  0
SEQEND
  5
12C
330
129
100
AcDbEntity
  8
_U+30EC_U+30A4_U+30E4_U+30FC 1
 62
     7
420
 16777215
370
    25
  0
POLYLINE
  5
12D
330
41
100
AcDbEntity
  8
_U+30EC_U+30A4_U+30E4_U+30FC 1
 62
     7
420
 16777215
370
    25
100
AcDb2dPolyline
 66
     1
 10
0.0
 20
0.0
 30
0.0
  0
VERTEX
  5
12E
330
12D
100
AcDbEntity
  8
_U+30EC_U+30A4_U+30E4_U+30FC 1
 62
     7
420
 16777215
370
    25
100
AcDbVertex
100
AcDb2dVertex
 10
82.23958873522663
 20
-134.3721735775178
 30
0.0
  0
VERTEX
  5
12F
330
12D
100
AcDbEntity
  8
_U+30EC_U+30A4_U+30E4_U+30FC 1
 62
     7
420
 16777215
370
    25
100
AcDbVertex
100
AcDb2dVertex
 10
82.5038192840411
 20
-133.9766744109505
 30
0.0
  0
SEQEND
  5
130
330
12D
100
AcDbEntity
  8
_U+30EC_U+30A4_U+30E4_U+30FC 1
 62
     7
420
 16777215
370
    25
  0
POLYLINE
  5
131
330
41
100
AcDbEntity
  8
_U+30EC_U+30A4_U+30E4_U+30FC 1
 62
     7
420
 16777215
370
    25
100
AcDb2dPolyline
 66
     1
 10
0.0
 20
0.0
 30
0.0
  0
VERTEX
  5
132
330
131
100
AcDbEntity
  8
_U+30EC_U+30A4_U+30E4_U+30FC 1
 62
     7
420
 16777215
370
    25
100
AcDbVertex
100
AcDb2dVertex
 10
82.5038192840411
 20
-133.9766744109505
 30
0.0
  0
VERTEX
  5
133
330
131
100
AcDbEntity
  8
_U+30EC_U+30A4_U+30E4_U+30FC 1
 62
     7
420
 16777215
370
    25
100
AcDbVertex
100
AcDb2dVertex
 10
82.11177734959848
 20
-133.4702266332991
 30
0.0
  0
SEQEND
  5
134
330
131
100
AcDbEntity
  8
_U+30EC_U+30A4_U+30E4_U+30FC 1
 62
     7
420
 16777215
370
    25
  0
POLYLINE
  5
135
330
41
100
AcDbEntity
  8
_U+30EC_U+30A4_U+30E4_U+30FC 1
 62
     7
420
 16777215
370
    25
100
AcDb2dPolyline
 66
     1
 10
0.0
 20
0.0
 30
0.0
  0
VERTEX
  5
136
330
135
100
AcDbEntity
  8
_U+30EC_U+30A4_U+30E4_U+30FC 1
 62
     7
420
 16777215
370
    25
100
AcDbVertex
100
AcDb2dVertex
 10
102.2366554472812
 20
-138.3440280209697
 30
0.0
  0
VERTEX
  5
137
330
135
100
AcDbEntity
  8
_U+30EC_U+30A4_U+30E4_U+30FC 1
 62
     7
420
 16777215
370
    25
100
AcDbVertex
100
AcDb2dVertex
 10
102.7306854346774
 20
-137.9361110766271
 30
0.0
  0
SEQEND
  5
138
330
135
100
AcDbEntity
  8
_U+30EC_U+30A4_U+30E4_U+30FC 1
 62
     7
420
 16777215
370
    25
  0
POLYLINE
  5
139
330
41
100
AcDbEntity
  8
_U+30EC_U+30A4_U+30E4_U+30FC 1
 62
     7
420
 16777215
370
    25
100
AcDb2dPolyline
 66
     1
 10
0.0
 20
0.0
 30
0.0
  0
VERTEX
  5
13A
330
139
100
AcDbEntity
  8
_U+30EC_U+30A4_U+30E4_U+30FC 1
 62
     7
420
 16777215
370
    25
100
AcDbVertex
100
AcDb2dVertex
 10
101.2362129728046
 20
-138.3605380209657
 30
0.0
  0
VERTEX
  5
13B
330
139
100
AcDbEntity
  8
_U+30EC_U+30A4_U+30E4_U+30FC 1
 62
     7
420
 16777215
370
    25
100
AcDbVertex
100
AcDb2dVertex
 10
101.730207682424
 20
-137.9526563544005
 30
0.0
  0
SEQEND
  5
13C
330
139
100
AcDbEntity
  8
_U+30EC_U+30A4_U+30E4_U+30FC 1
 62
     7
420
 16777215
370
    25
  0
POLYLINE
  5
13D
330
41
100
AcDbEntity
  8
_U+30EC_U+30A4_U+30E4_U+30FC 1
 62
     7
420
 16777215
370
    25
100
AcDb2dPolyline
 66
     1
 10
0.0
 20
0.0
 30
0.0
  0
VERTEX
  5
13E
330
13D
100
AcDbEntity
  8
_U+30EC_U+30A4_U+30E4_U+30FC 1
 62
     7
420
 16777215
370
    25
100
AcDbVertex
100
AcDb2dVertex
 10
101.730207682424
 20
-137.9526563544005
 30
0.0
  0
VERTEX
  5
13F
330
13D
100
AcDbEntity
  8
_U+30EC_U+30A4_U+30E4_U+30FC 1
 62
     7
420
 16777215
370
    25
100
AcDbVertex
100
AcDb2dVertex
 10
102.2366554472812
 20
-138.3440280209697
 30
0.0
  0
SEQEND
  5
140
330
13D
100
AcDbEntity
  8
_U+30EC_U+30A4_U+30E4_U+30FC 1
 62
     7
420
 16777215
370
    25
  0
POLYLINE
  5
141
330
41
100
AcDbEntity
  8
_U+30EC_U+30A4_U+30E4_U+30FC 1
 62
     7
420
 16777215
370
    25
100
AcDb2dPolyline
 66
     1
 10
0.0
 20
0.0
 30
0.0
  0
VERTEX
  5
142
330
141
100
AcDbEntity
  8
_U+30EC_U+30A4_U+30E4_U+30FC 1
 62
     7
420
 16777215
370
    25
100
AcDbVertex
100
AcDb2dVertex
 10
100.2357352205511
 20
-138.3777888542946
 30
0.0
  0
VERTEX
  5
143
330
141
100
AcDbEntity
  8
_U+30EC_U+30A4_U+30E4_U+30FC 1
 62
     7
420
 16777215
370
    25
100
AcDbVertex
100
AcDb2dVertex
 10
100.7297652079474
 20
-137.9692016321746
 30
0.0
  0
SEQEND
  5
144
330
141
100
AcDbEntity
  8
_U+30EC_U+30A4_U+30E4_U+30FC 1
 62
     7
420
 16777215
370
    25
  0
POLYLINE
  5
145
330
41
100
AcDbEntity
  8
_U+30EC_U+30A4_U+30E4_U+30FC 1
 62
     7
420
 16777215
370
    25
100
AcDb2dPolyline
 66
     1
 10
0.0
 20
0.0
 30
0.0
  0
VERTEX
  5
146
330
145
100
AcDbEntity
  8
_U+30EC_U+30A4_U+30E4_U+30FC 1
 62
     7
420
 16777215
370
    25
100
AcDbVertex
100
AcDb2dVertex
 10
100.7297652079474
 20
-137.9692016321746
 30
0.0
  0
VERTEX
  5
147
330
145
100
AcDbEntity
  8
_U+30EC_U+30A4_U+30E4_U+30FC 1
 62
     7
420
 16777215
370
    25
100
AcDbVertex
100
AcDb2dVertex
 10
101.2362129728046
 20
-138.3605380209657
 30
0.0
  0
SEQEND
  5
148
330
145
100
AcDbEntity
  8
_U+30EC_U+30A4_U+30E4_U+30FC 1
 62
     7
420
 16777215
370
    25
  0
POLYLINE
  5
149
330
41
100
AcDbEntity
  8
_U+30EC_U+30A4_U+30E4_U+30FC 1
 62
     7
420
 16777215
370
    25
100
AcDb2dPolyline
 66
     1
 10
0.0
 20
0.0
 30
0.0
  0
VERTEX
  5
14A
330
149
100
AcDbEntity
  8
_U+30EC_U+30A4_U+30E4_U+30FC 1
 62
     7
420
 16777215
370
    25
100
AcDbVertex
100
AcDb2dVertex
 10
99.23529274607453
 20
-138.3942988542905
 30
0.0
  0
VERTEX
  5
14B
330
149
100
AcDbEntity
  8
_U+30EC_U+30A4_U+30E4_U+30FC 1
 62
     7
420
 16777215
370
    25
100
AcDbVertex
100
AcDb2dVertex
 10
99.72932273347078
 20
-137.9857116321705
 30
0.0
  0
SEQEND
  5
14C
330
149
100
AcDbEntity
  8
_U+30EC_U+30A4_U+30E4_U+30FC 1
 62
     7
420
 16777215
370
    25
  0
POLYLINE
  5
14D
330
41
100
AcDbEntity
  8
_U+30EC_U+30A4_U+30E4_U+30FC 1
 62
     7
420
 16777215
370
    25
100
AcDb2dPolyline
 66
     1
 10
0.0
 20
0.0
 30
0.0
  0
VERTEX
  5
14E
330
14D
100
AcDbEntity
  8
_U+30EC_U+30A4_U+30E4_U+30FC 1
 62
     7
420
 16777215
370
    25
100
AcDbVertex
100
AcDb2dVertex
 10
99.72932273347078
 20
-137.9857116321705
 30
0.0
  0
VERTEX
  5
14F
330
14D
100
AcDbEntity
  8
_U+30EC_U+30A4_U+30E4_U+30FC 1
 62
     7
420
 16777215
370
    25
100
AcDbVertex
100
AcDb2dVertex
 10
100.2357352205511
 20
-138.3777888542946
 30
0.0
  0
SEQEND
  5
150
330
14D
100
AcDbEntity
  8
_U+30EC_U+30A4_U+30E4_U+30FC 1
 62
     7
420
 16777215
370
    25
  0
POLYLINE
  5
151
330
41
100
AcDbEntity
  8
_U+30EC_U+30A4_U+30E4_U+30FC 1
 62
     7
420
 16777215
370
    25
100
AcDb2dPolyline
 66
     1
 10
0.0
 20
0.0
 30
0.0
  0
VERTEX
  5
152
330
151
100
AcDbEntity
  8
_U+30EC_U+30A4_U+30E4_U+30FC 1
 62
     7
420
 16777215
370
    25
100
AcDbVertex
100
AcDb2dVertex
 10
98.23481499382108
 20
-138.4108441320639
 30
0.0
  0
VERTEX
  5
153
330
151
100
AcDbEntity
  8
_U+30EC_U+30A4_U+30E4_U+30FC 1
 62
     7
420
 16777215
370
    25
100
AcDbVertex
100
AcDb2dVertex
 10
98.72884498121732
 20
-138.0022569099439
 30
0.0
  0
SEQEND
  5
154
330
151
100
AcDbEntity
  8
_U+30EC_U+30A4_U+30E4_U+30FC 1
 62
     7
420
 16777215
370
    25
  0
POLYLINE
  5
155
330
41
100
AcDbEntity
  8
_U+30EC_U+30A4_U+30E4_U+30FC 1
 62
     7
420
 16777215
370
    25
100
AcDb2dPolyline
 66
     1
 10
0.0
 20
0.0
 30
0.0
  0
VERTEX
  5
156
330
155
100
AcDbEntity
  8
_U+30EC_U+30A4_U+30E4_U+30FC 1
 62
     7
420
 16777215
370
    25
100
AcDbVertex
100
AcDb2dVertex
 10
98.72884498121732
 20
-138.0022569099439
 30
0.0
  0
VERTEX
  5
157
330
155
100
AcDbEntity
  8
_U+30EC_U+30A4_U+30E4_U+30FC 1
 62
     7
420
 16777215
370
    25
100
AcDbVertex
100
AcDb2dVertex
 10
99.23529274607453
 20
-138.3942988542905
 30
0.0
  0
SEQEND
  5
158
330
155
100
AcDbEntity
  8
_U+30EC_U+30A4_U+30E4_U+30FC 1
 62
     7
420
 16777215
370
    25
  0
POLYLINE
  5
159
330
41
100
AcDbEntity
  8
_U+30EC_U+30A4_U+30E4_U+30FC 1
 62
     7
420
 16777215
370
    25
100
AcDb2dPolyline
 66
     1
 10
0.0
 20
0.0
 30
0.0
  0
VERTEX
  5
15A
330
159
100
AcDbEntity
  8
_U+30EC_U+30A4_U+30E4_U+30FC 1
 62
     7
420
 16777215
370
    25
100
AcDbVertex
100
AcDb2dVertex
 10
97.23437497569141
 20
-138.4273894098373
 30
0.0
  0
VERTEX
  5
15B
330
159
100
AcDbEntity
  8
_U+30EC_U+30A4_U+30E4_U+30FC 1
 62
     7
420
 16777215
370
    25
100
AcDbVertex
100
AcDb2dVertex
 10
97.72840250674074
 20
-138.0188021877173
 30
0.0
  0
SEQEND
  5
15C
330
159
100
AcDbEntity
  8
_U+30EC_U+30A4_U+30E4_U+30FC 1
 62
     7
420
 16777215
370
    25
  0
POLYLINE
  5
15D
330
41
100
AcDbEntity
  8
_U+30EC_U+30A4_U+30E4_U+30FC 1
 62
     7
420
 16777215
370
    25
100
AcDb2dPolyline
 66
     1
 10
0.0
 20
0.0
 30
0.0
  0
VERTEX
  5
15E
330
15D
100
AcDbEntity
  8
_U+30EC_U+30A4_U+30E4_U+30FC 1
 62
     7
420
 16777215
370
    25
100
AcDbVertex
100
AcDb2dVertex
 10
97.72840250674074
 20
-138.0188021877173
 30
0.0
  0
VERTEX
  5
15F
330
15D
100
AcDbEntity
  8
_U+30EC_U+30A4_U+30E4_U+30FC 1
 62
     7
420
 16777215
370
    25
100
AcDbVertex
100
AcDb2dVertex
 10
98.23481499382108
 20
-138.4108441320639
 30
0.0
  0
SEQEND
  5
160
330
15D
100
AcDbEntity
  8
_U+30EC_U+30A4_U+30E4_U+30FC 1
 62
     7
420
 16777215
370
    25
  0
POLYLINE
  5
161
330
41
100
AcDbEntity
  8
_U+30EC_U+30A4_U+30E4_U+30FC 1
 62
     7
420
 16777215
370
    25
100
AcDb2dPolyline
 66
     1
 10
0.0
 20
0.0
 30
0.0
  0
VERTEX
  5
162
330
161
100
AcDbEntity
  8
_U+30EC_U+30A4_U+30E4_U+30FC 1
 62
     7
420
 16777215
370
    25
100
AcDbVertex
100
AcDb2dVertex
 10
96.23357726709912
 20
-138.4439346876114
 30
0.0
  0
VERTEX
  5
163
330
161
100
AcDbEntity
  8
_U+30EC_U+30A4_U+30E4_U+30FC 1
 62
     7
420
 16777215
370
    25
100
AcDbVertex
100
AcDb2dVertex
 10
96.72796003226415
 20
-138.0360177432687
 30
0.0
  0
SEQEND
  5
164
330
161
100
AcDbEntity
  8
_U+30EC_U+30A4_U+30E4_U+30FC 1
 62
     7
420
 16777215
370
    25
  0
POLYLINE
  5
165
330
41
100
AcDbEntity
  8
_U+30EC_U+30A4_U+30E4_U+30FC 1
 62
     7
420
 16777215
370
    25
100
AcDb2dPolyline
 66
     1
 10
0.0
 20
0.0
 30
0.0
  0
VERTEX
  5
166
330
165
100
AcDbEntity
  8
_U+30EC_U+30A4_U+30E4_U+30FC 1
 62
     7
420
 16777215
370
    25
100
AcDbVertex
100
AcDb2dVertex
 10
96.72796003226415
 20
-138.0360177432687
 30
0.0
  0
VERTEX
  5
167
330
165
100
AcDbEntity
  8
_U+30EC_U+30A4_U+30E4_U+30FC 1
 62
     7
420
 16777215
370
    25
100
AcDbVertex
100
AcDb2dVertex
 10
97.23437497569141
 20
-138.4273894098373
 30
0.0
  0
SEQEND
  5
168
330
165
100
AcDbEntity
  8
_U+30EC_U+30A4_U+30E4_U+30FC 1
 62
     7
420
 16777215
370
    25
  0
POLYLINE
  5
169
330
41
100
AcDbEntity
  8
_U+30EC_U+30A4_U+30E4_U+30FC 1
 62
     7
420
 16777215
370
    25
100
AcDb2dPolyline
 66
     1
 10
0.0
 20
0.0
 30
0.0
  0
VERTEX
  5
16A
330
169
100
AcDbEntity
  8
_U+30EC_U+30A4_U+30E4_U+30FC 1
 62
     7
420
 16777215
370
    25
100
AcDbVertex
100
AcDb2dVertex
 10
95.23309951484566
 20
-138.4604446876073
 30
0.0
  0
VERTEX
  5
16B
330
169
100
AcDbEntity
  8
_U+30EC_U+30A4_U+30E4_U+30FC 1
 62
     7
420
 16777215
370
    25
100
AcDbVertex
100
AcDb2dVertex
 10
95.72712950224191
 20
-138.0525630210421
 30
0.0
  0
SEQEND
  5
16C
330
169
100
AcDbEntity
  8
_U+30EC_U+30A4_U+30E4_U+30FC 1
 62
     7
420
 16777215
370
    25
  0
POLYLINE
  5
16D
330
41
100
AcDbEntity
  8
_U+30EC_U+30A4_U+30E4_U+30FC 1
 62
     7
420
 16777215
370
    25
100
AcDb2dPolyline
 66
     1
 10
0.0
 20
0.0
 30
0.0
  0
VERTEX
  5
16E
330
16D
100
AcDbEntity
  8
_U+30EC_U+30A4_U+30E4_U+30FC 1
 62
     7
420
 16777215
370
    25
100
AcDbVertex
100
AcDb2dVertex
 10
95.72712950224191
 20
-138.0525630210421
 30
0.0
  0
VERTEX
  5
16F
330
16D
100
AcDbEntity
  8
_U+30EC_U+30A4_U+30E4_U+30FC 1
 62
     7
420
 16777215
370
    25
100
AcDbVertex
100
AcDb2dVertex
 10
96.23357726709912
 20
-138.4439346876114
 30
0.0
  0
SEQEND
  5
170
330
16D
100
AcDbEntity
  8
_U+30EC_U+30A4_U+30E4_U+30FC 1
 62
     7
420
 16777215
370
    25
  0
POLYLINE
  5
171
330
41
100
AcDbEntity
  8
_U+30EC_U+30A4_U+30E4_U+30FC 1
 62
     7
420
 16777215
370
    25
100
AcDb2dPolyline
 66
     1
 10
0.0
 20
0.0
 30
0.0
  0
VERTEX
  5
172
330
171
100
AcDbEntity
  8
_U+30EC_U+30A4_U+30E4_U+30FC 1
 62
     7
420
 16777215
370
    25
100
AcDbVertex
100
AcDb2dVertex
 10
94.23336259590663
 20
-138.4769899653807
 30
0.0
  0
VERTEX
  5
173
330
171
100
AcDbEntity
  8
_U+30EC_U+30A4_U+30E4_U+30FC 1
 62
     7
420
 16777215
370
    25
100
AcDbVertex
100
AcDb2dVertex
 10
94.72668702776532
 20
-138.0691082988162
 30
0.0
  0
SEQEND
  5
174
330
171
100
AcDbEntity
  8
_U+30EC_U+30A4_U+30E4_U+30FC 1
 62
     7
420
 16777215
370
    25
  0
POLYLINE
  5
175
330
41
100
AcDbEntity
  8
_U+30EC_U+30A4_U+30E4_U+30FC 1
 62
     7
420
 16777215
370
    25
100
AcDb2dPolyline
 66
     1
 10
0.0
 20
0.0
 30
0.0
  0
VERTEX
  5
176
330
175
100
AcDbEntity
  8
_U+30EC_U+30A4_U+30E4_U+30FC 1
 62
     7
420
 16777215
370
    25
100
AcDbVertex
100
AcDb2dVertex
 10
94.72668702776532
 20
-138.0691082988162
 30
0.0
  0
VERTEX
  5
177
330
175
100
AcDbEntity
  8
_U+30EC_U+30A4_U+30E4_U+30FC 1
 62
     7
420
 16777215
370
    25
100
AcDbVertex
100
AcDb2dVertex
 10
95.23309951484566
 20
-138.4604446876073
 30
0.0
  0
SEQEND
  5
178
330
175
100
AcDbEntity
  8
_U+30EC_U+30A4_U+30E4_U+30FC 1
 62
     7
420
 16777215
370
    25
  0
POLYLINE
  5
179
330
41
100
AcDbEntity
  8
_U+30EC_U+30A4_U+30E4_U+30FC 1
 62
     7
420
 16777215
370
    25
100
AcDb2dPolyline
 66
     1
 10
0.0
 20
0.0
 30
0.0
  0
VERTEX
  5
17A
330
179
100
AcDbEntity
  8
_U+30EC_U+30A4_U+30E4_U+30FC 1
 62
     7
420
 16777215
370
    25
100
AcDbVertex
100
AcDb2dVertex
 10
93.23288484365317
 20
-138.4935352431541
 30
0.0
  0
VERTEX
  5
17B
330
179
100
AcDbEntity
  8
_U+30EC_U+30A4_U+30E4_U+30FC 1
 62
     7
420
 16777215
370
    25
100
AcDbVertex
100
AcDb2dVertex
 10
93.72624455328874
 20
-138.0856182988121
 30
0.0
  0
SEQEND
  5
17C
330
179
100
AcDbEntity
  8
_U+30EC_U+30A4_U+30E4_U+30FC 1
 62
     7
420
 16777215
370
    25
  0
POLYLINE
  5
17D
330
41
100
AcDbEntity
  8
_U+30EC_U+30A4_U+30E4_U+30FC 1
 62
     7
420
 16777215
370
    25
100
AcDb2dPolyline
 66
     1
 10
0.0
 20
0.0
 30
0.0
  0
VERTEX
  5
17E
330
17D
100
AcDbEntity
  8
_U+30EC_U+30A4_U+30E4_U+30FC 1
 62
     7
420
 16777215
370
    25
100
AcDbVertex
100
AcDb2dVertex
 10
93.72624455328874
 20
-138.0856182988121
 30
0.0
  0
VERTEX
  5
17F
330
17D
100
AcDbEntity
  8
_U+30EC_U+30A4_U+30E4_U+30FC 1
 62
     7
420
 16777215
370
    25
100
AcDbVertex
100
AcDb2dVertex
 10
94.23336259590663
 20
-138.4769899653807
 30
0.0
  0
SEQEND
  5
180
330
17D
100
AcDbEntity
  8
_U+30EC_U+30A4_U+30E4_U+30FC 1
 62
     7
420
 16777215
370
    25
  0
POLYLINE
  5
181
330
41
100
AcDbEntity
  8
_U+30EC_U+30A4_U+30E4_U+30FC 1
 62
     7
420
 16777215
370
    25
100
AcDb2dPolyline
 66
     1
 10
0.0
 20
0.0
 30
0.0
  0
VERTEX
  5
182
330
181
100
AcDbEntity
  8
_U+30EC_U+30A4_U+30E4_U+30FC 1
 62
     7
420
 16777215
370
    25
100
AcDbVertex
100
AcDb2dVertex
 10
92.23244236917658
 20
-138.5107507987055
 30
0.0
  0
VERTEX
  5
183
330
181
100
AcDbEntity
  8
_U+30EC_U+30A4_U+30E4_U+30FC 1
 62
     7
420
 16777215
370
    25
100
AcDbVertex
100
AcDb2dVertex
 10
92.72576680103528
 20
-138.1021635765855
 30
0.0
  0
SEQEND
  5
184
330
181
100
AcDbEntity
  8
_U+30EC_U+30A4_U+30E4_U+30FC 1
 62
     7
420
 16777215
370
    25
  0
POLYLINE
  5
185
330
41
100
AcDbEntity
  8
_U+30EC_U+30A4_U+30E4_U+30FC 1
 62
     7
420
 16777215
370
    25
100
AcDb2dPolyline
 66
     1
 10
0.0
 20
0.0
 30
0.0
  0
VERTEX
  5
186
330
185
100
AcDbEntity
  8
_U+30EC_U+30A4_U+30E4_U+30FC 1
 62
     7
420
 16777215
370
    25
100
AcDbVertex
100
AcDb2dVertex
 10
92.72576680103528
 20
-138.1021635765855
 30
0.0
  0
VERTEX
  5
187
330
185
100
AcDbEntity
  8
_U+30EC_U+30A4_U+30E4_U+30FC 1
 62
     7
420
 16777215
370
    25
100
AcDbVertex
100
AcDb2dVertex
 10
93.23288484365317
 20
-138.4935352431541
 30
0.0
  0
SEQEND
  5
188
330
185
100
AcDbEntity
  8
_U+30EC_U+30A4_U+30E4_U+30FC 1
 62
     7
420
 16777215
370
    25
  0
POLYLINE
  5
189
330
41
100
AcDbEntity
  8
_U+30EC_U+30A4_U+30E4_U+30FC 1
 62
     7
420
 16777215
370
    25
100
AcDb2dPolyline
 66
     1
 10
0.0
 20
0.0
 30
0.0
  0
VERTEX
  5
18A
330
189
100
AcDbEntity
  8
_U+30EC_U+30A4_U+30E4_U+30FC 1
 62
     7
420
 16777215
370
    25
100
AcDbVertex
100
AcDb2dVertex
 10
91.2319998947
 20
-138.5272960764796
 30
0.0
  0
VERTEX
  5
18B
330
189
100
AcDbEntity
  8
_U+30EC_U+30A4_U+30E4_U+30FC 1
 62
     7
420
 16777215
370
    25
100
AcDbVertex
100
AcDb2dVertex
 10
91.72532432655869
 20
-138.1187088543589
 30
0.0
  0
SEQEND
  5
18C
330
189
100
AcDbEntity
  8
_U+30EC_U+30A4_U+30E4_U+30FC 1
 62
     7
420
 16777215
370
    25
  0
POLYLINE
  5
18D
330
41
100
AcDbEntity
  8
_U+30EC_U+30A4_U+30E4_U+30FC 1
 62
     7
420
 16777215
370
    25
100
AcDb2dPolyline
 66
     1
 10
0.0
 20
0.0
 30
0.0
  0
VERTEX
  5
18E
330
18D
100
AcDbEntity
  8
_U+30EC_U+30A4_U+30E4_U+30FC 1
 62
     7
420
 16777215
370
    25
100
AcDbVertex
100
AcDb2dVertex
 10
91.72532432655869
 20
-138.1187088543589
 30
0.0
  0
VERTEX
  5
18F
330
18D
100
AcDbEntity
  8
_U+30EC_U+30A4_U+30E4_U+30FC 1
 62
     7
420
 16777215
370
    25
100
AcDbVertex
100
AcDb2dVertex
 10
92.23244236917658
 20
-138.5107507987055
 30
0.0
  0
SEQEND
  5
190
330
18D
100
AcDbEntity
  8
_U+30EC_U+30A4_U+30E4_U+30FC 1
 62
     7
420
 16777215
370
    25
  0
POLYLINE
  5
191
330
41
100
AcDbEntity
  8
_U+30EC_U+30A4_U+30E4_U+30FC 1
 62
     7
420
 16777215
370
    25
100
AcDb2dPolyline
 66
     1
 10
0.0
 20
0.0
 30
0.0
  0
VERTEX
  5
192
330
191
100
AcDbEntity
  8
_U+30EC_U+30A4_U+30E4_U+30FC 1
 62
     7
420
 16777215
370
    25
100
AcDbVertex
100
AcDb2dVertex
 10
90.23152214244654
 20
-138.543841354253
 30
0.0
  0
VERTEX
  5
193
330
191
100
AcDbEntity
  8
_U+30EC_U+30A4_U+30E4_U+30FC 1
 62
     7
420
 16777215
370
    25
100
AcDbVertex
100
AcDb2dVertex
 10
90.7248818520821
 20
-138.135254132133
 30
0.0
  0
SEQEND
  5
194
330
191
100
AcDbEntity
  8
_U+30EC_U+30A4_U+30E4_U+30FC 1
 62
     7
420
 16777215
370
    25
  0
POLYLINE
  5
195
330
41
100
AcDbEntity
  8
_U+30EC_U+30A4_U+30E4_U+30FC 1
 62
     7
420
 16777215
370
    25
100
AcDb2dPolyline
 66
     1
 10
0.0
 20
0.0
 30
0.0
  0
VERTEX
  5
196
330
195
100
AcDbEntity
  8
_U+30EC_U+30A4_U+30E4_U+30FC 1
 62
     7
420
 16777215
370
    25
100
AcDbVertex
100
AcDb2dVertex
 10
90.7248818520821
 20
-138.135254132133
 30
0.0
  0
VERTEX
  5
197
330
195
100
AcDbEntity
  8
_U+30EC_U+30A4_U+30E4_U+30FC 1
 62
     7
420
 16777215
370
    25
100
AcDbVertex
100
AcDb2dVertex
 10
91.2319998947
 20
-138.5272960764796
 30
0.0
  0
SEQEND
  5
198
330
195
100
AcDbEntity
  8
_U+30EC_U+30A4_U+30E4_U+30FC 1
 62
     7
420
 16777215
370
    25
  0
POLYLINE
  5
199
330
41
100
AcDbEntity
  8
_U+30EC_U+30A4_U+30E4_U+30FC 1
 62
     7
420
 16777215
370
    25
100
AcDb2dPolyline
 66
     1
 10
0.0
 20
0.0
 30
0.0
  0
VERTEX
  5
19A
330
199
100
AcDbEntity
  8
_U+30EC_U+30A4_U+30E4_U+30FC 1
 62
     7
420
 16777215
370
    25
100
AcDbVertex
100
AcDb2dVertex
 10
89.23107966796995
 20
-138.5603513542489
 30
0.0
  0
VERTEX
  5
19B
330
199
100
AcDbEntity
  8
_U+30EC_U+30A4_U+30E4_U+30FC 1
 62
     7
420
 16777215
370
    25
100
AcDbVertex
100
AcDb2dVertex
 10
89.72440409982863
 20
-138.1517641321289
 30
0.0
  0
SEQEND
  5
19C
330
199
100
AcDbEntity
  8
_U+30EC_U+30A4_U+30E4_U+30FC 1
 62
     7
420
 16777215
370
    25
  0
POLYLINE
  5
19D
330
41
100
AcDbEntity
  8
_U+30EC_U+30A4_U+30E4_U+30FC 1
 62
     7
420
 16777215
370
    25
100
AcDb2dPolyline
 66
     1
 10
0.0
 20
0.0
 30
0.0
  0
VERTEX
  5
19E
330
19D
100
AcDbEntity
  8
_U+30EC_U+30A4_U+30E4_U+30FC 1
 62
     7
420
 16777215
370
    25
100
AcDbVertex
100
AcDb2dVertex
 10
89.72440409982863
 20
-138.1517641321289
 30
0.0
  0
VERTEX
  5
19F
330
19D
100
AcDbEntity
  8
_U+30EC_U+30A4_U+30E4_U+30FC 1
 62
     7
420
 16777215
370
    25
100
AcDbVertex
100
AcDb2dVertex
 10
90.23152214244654
 20
-138.543841354253
 30
0.0
  0
SEQEND
  5
1A0
330
19D
100
AcDbEntity
  8
_U+30EC_U+30A4_U+30E4_U+30FC 1
 62
     7
420
 16777215
370
    25
  0
POLYLINE
  5
1A1
330
41
100
AcDbEntity
  8
_U+30EC_U+30A4_U+30E4_U+30FC 1
 62
     7
420
 16777215
370
    25
100
AcDb2dPolyline
 66
     1
 10
0.0
 20
0.0
 30
0.0
  0
VERTEX
  5
1A2
330
1A1
100
AcDbEntity
  8
_U+30EC_U+30A4_U+30E4_U+30FC 1
 62
     7
420
 16777215
370
    25
100
AcDbVertex
100
AcDb2dVertex
 10
88.23060191571648
 20
-138.5768966320223
 30
0.0
  0
VERTEX
  5
1A3
330
1A1
100
AcDbEntity
  8
_U+30EC_U+30A4_U+30E4_U+30FC 1
 62
     7
420
 16777215
370
    25
100
AcDbVertex
100
AcDb2dVertex
 10
88.72396386670798
 20
-138.1690149654578
 30
0.0
  0
SEQEND
  5
1A4
330
1A1
100
AcDbEntity
  8
_U+30EC_U+30A4_U+30E4_U+30FC 1
 62
     7
420
 16777215
370
    25
  0
POLYLINE
  5
1A5
330
41
100
AcDbEntity
  8
_U+30EC_U+30A4_U+30E4_U+30FC 1
 62
     7
420
 16777215
370
    25
100
AcDb2dPolyline
 66
     1
 10
0.0
 20
0.0
 30
0.0
  0
VERTEX
  5
1A6
330
1A5
100
AcDbEntity
  8
_U+30EC_U+30A4_U+30E4_U+30FC 1
 62
     7
420
 16777215
370
    25
100
AcDbVertex
100
AcDb2dVertex
 10
88.72396386670798
 20
-138.1690149654578
 30
0.0
  0
VERTEX
  5
1A7
330
1A5
100
AcDbEntity
  8
_U+30EC_U+30A4_U+30E4_U+30FC 1
 62
     7
420
 16777215
370
    25
100
AcDbVertex
100
AcDb2dVertex
 10
89.23107966796995
 20
-138.5603513542489
 30
0.0
  0
SEQEND
  5
1A8
330
1A5
100
AcDbEntity
  8
_U+30EC_U+30A4_U+30E4_U+30FC 1
 62
     7
420
 16777215
370
    25
  0
POLYLINE
  5
1A9
330
41
100
AcDbEntity
  8
_U+30EC_U+30A4_U+30E4_U+30FC 1
 62
     7
420
 16777215
370
    25
100
AcDb2dPolyline
 66
     1
 10
0.0
 20
0.0
 30
0.0
  0
VERTEX
  5
1AA
330
1A9
100
AcDbEntity
  8
_U+30EC_U+30A4_U+30E4_U+30FC 1
 62
     7
420
 16777215
370
    25
100
AcDbVertex
100
AcDb2dVertex
 10
87.23015944123989
 20
-138.5934419097964
 30
0.0
  0
VERTEX
  5
1AB
330
1A9
100
AcDbEntity
  8
_U+30EC_U+30A4_U+30E4_U+30FC 1
 62
     7
420
 16777215
370
    25
100
AcDbVertex
100
AcDb2dVertex
 10
87.72348608918023
 20
-138.1855249654537
 30
0.0
  0
SEQEND
  5
1AC
330
1A9
100
AcDbEntity
  8
_U+30EC_U+30A4_U+30E4_U+30FC 1
 62
     7
420
 16777215
370
    25
  0
POLYLINE
  5
1AD
330
41
100
AcDbEntity
  8
_U+30EC_U+30A4_U+30E4_U+30FC 1
 62
     7
420
 16777215
370
    25
100
AcDb2dPolyline
 66
     1
 10
0.0
 20
0.0
 30
0.0
  0
VERTEX
  5
1AE
330
1AD
100
AcDbEntity
  8
_U+30EC_U+30A4_U+30E4_U+30FC 1
 62
     7
420
 16777215
370
    25
100
AcDbVertex
100
AcDb2dVertex
 10
87.72348608918023
 20
-138.1855249654537
 30
0.0
  0
VERTEX
  5
1AF
330
1AD
100
AcDbEntity
  8
_U+30EC_U+30A4_U+30E4_U+30FC 1
 62
     7
420
 16777215
370
    25
100
AcDbVertex
100
AcDb2dVertex
 10
88.23060191571648
 20
-138.5768966320223
 30
0.0
  0
SEQEND
  5
1B0
330
1AD
100
AcDbEntity
  8
_U+30EC_U+30A4_U+30E4_U+30FC 1
 62
     7
420
 16777215
370
    25
  0
POLYLINE
  5
1B1
330
41
100
AcDbEntity
  8
_U+30EC_U+30A4_U+30E4_U+30FC 1
 62
     7
420
 16777215
370
    25
100
AcDb2dPolyline
 66
     1
 10
0.0
 20
0.0
 30
0.0
  0
VERTEX
  5
1B2
330
1B1
100
AcDbEntity
  8
_U+30EC_U+30A4_U+30E4_U+30FC 1
 62
     7
420
 16777215
370
    25
100
AcDbVertex
100
AcDb2dVertex
 10
86.32754442286243
 20
-138.460127187607
 30
0.0
  0
VERTEX
  5
1B3
330
1B1
100
AcDbEntity
  8
_U+30EC_U+30A4_U+30E4_U+30FC 1
 62
     7
420
 16777215
370
    25
100
AcDbVertex
100
AcDb2dVertex
 10
86.723041398622
 20
-138.2020702432272
 30
0.0
  0
SEQEND
  5
1B4
330
1B1
100
AcDbEntity
  8
_U+30EC_U+30A4_U+30E4_U+30FC 1
 62
     7
420
 16777215
370
    25
  0
POLYLINE
  5
1B5
330
41
100
AcDbEntity
  8
_U+30EC_U+30A4_U+30E4_U+30FC 1
 62
     7
420
 16777215
370
    25
100
AcDb2dPolyline
 66
     1
 10
0.0
 20
0.0
 30
0.0
  0
VERTEX
  5
1B6
330
1B5
100
AcDbEntity
  8
_U+30EC_U+30A4_U+30E4_U+30FC 1
 62
     7
420
 16777215
370
    25
100
AcDbVertex
100
AcDb2dVertex
 10
86.723041398622
 20
-138.2020702432272
 30
0.0
  0
VERTEX
  5
1B7
330
1B5
100
AcDbEntity
  8
_U+30EC_U+30A4_U+30E4_U+30FC 1
 62
     7
420
 16777215
370
    25
100
AcDbVertex
100
AcDb2dVertex
 10
87.23015944123989
 20
-138.5934419097964
 30
0.0
  0
SEQEND
  5
1B8
330
1B5
100
AcDbEntity
  8
_U+30EC_U+30A4_U+30E4_U+30FC 1
 62
     7
420
 16777215
370
    25
  0
POLYLINE
  5
1B9
330
41
100
AcDbEntity
  8
_U+30EC_U+30A4_U+30E4_U+30FC 1
  6
AI-Linetype-1
 62
   154
420
    23468
370
    25
100
AcDb2dPolyline
 66
     1
 10
0.0
 20
0.0
 30
0.0
  0
VERTEX
  5
1BA
330
1B9
100
AcDbEntity
  8
_U+30EC_U+30A4_U+30E4_U+30FC 1
  6
AI-Linetype-1
 62
   154
420
    23468
370
    25
100
AcDbVertex
100
AcDb2dVertex
 10
83.63761386797935
 20
-113.4724891382986
 30
0.0
  0
VERTEX
  5
1BB
330
1B9
100
AcDbEntity
  8
_U+30EC_U+30A4_U+30E4_U+30FC 1
  6
AI-Linetype-1
 62
   154
420
    23468
370
    25
100
AcDbVertex
100
AcDb2dVertex
 10
83.63761386797935
 20
-123.4722221913542
 30
0.0
  0
SEQEND
  5
1BD
330
1B9
100
AcDbEntity
  8
_U+30EC_U+30A4_U+30E4_U+30FC 1
  6
AI-Linetype-1
 62
   154
420
    23468
370
    25
  0
POLYLINE
  5
1BE
330
41
100
AcDbEntity
  8
_U+30EC_U+30A4_U+30E4_U+30FC 1
  6
AI-Linetype-2
 62
   154
420
    23468
370
    25
100
AcDb2dPolyline
 66
     1
 10
0.0
 20
0.0
 30
0.0
  0
VERTEX
  5
1BF
330
1BE
100
AcDbEntity
  8
_U+30EC_U+30A4_U+30E4_U+30FC 1
  6
AI-Linetype-2
 62
   154
420
    23468
370
    25
100
AcDbVertex
100
AcDb2dVertex
 10
97.23920557477675
 20
-137.0861988546173
 30
0.0
  0
VERTEX
  5
1C0
330
1BE
100
AcDbEntity
  8
_U+30EC_U+30A4_U+30E4_U+30FC 1
  6
AI-Linetype-2
 62
   154
420
    23468
370
    25
100
AcDbVertex
100
AcDb2dVertex
 10
107.2389383752179
 20
-137.0861988546173
 30
0.0
  0
SEQEND
  5
1C2
330
1BE
100
AcDbEntity
  8
_U+30EC_U+30A4_U+30E4_U+30FC 1
  6
AI-Linetype-2
 62
   154
420
    23468
370
    25
  0
INSERT
  5
1C4
330
41
100
AcDbEntity
  8
_U+30EC_U+30A4_U+30E4_U+30FC 1
100
AcDbBlockReference
  2
block 7
 10
0.0
 20
0.0
 30
0.0
  0
INSERT
  5
1D4
330
41
100
AcDbEntity
  8
_U+30EC_U+30A4_U+30E4_U+30FC 1
100
AcDbBlockReference
  2
block 8
 10
0.0
 20
0.0
 30
0.0
  0
INSERT
  5
1FC
330
41
100
AcDbEntity
  8
_U+30EC_U+30A4_U+30E4_U+30FC 1
100
AcDbBlockReference
  2
block 9
 10
0.0
 20
0.0
 30
0.0
  0
SPLINE
  5
20B
330
41
100
AcDbEntity
  8
_U+30EC_U+30A4_U+30E4_U+30FC 1
 62
   179
420
  2234388
370
    25
100
AcDbSpline
210
0.0
220
0.0
230
1.0
 70
    11
 71
     3
 72
    17
 73
    13
 74
     0
 42
0.0000000001
 43
0.0000000001
 12
1.0
 22
0.0
 32
0.0
 13
1.0
 23
0.0
 33
0.0
 40
0.0
 40
0.0
 40
0.0
 40
0.0
 40
1.0
 40
1.0
 40
1.0
 40
2.0
 40
2.0
 40
2.0
 40
3.0
 40
3.0
 40
3.0
 40
4.0
 40
4.0
 40
4.0
 40
4.0
 10
89.57764854801712
 20
-124.4451127466666
 30
0.0
 10
89.57764854801712
 20
-120.5252930254242
 30
0.0
 10
92.7554001336126
 20
-117.3475413595522
 30
0.0
 10
96.67522219805373
 20
-117.3475413595522
 30
0.0
 10
100.5957449335887
 20
-117.3475413595522
 30
0.0
 10
103.7728262414235
 20
-120.5252930254242
 30
0.0
 10
103.7728262414235
 20
-124.4451127466666
 30
0.0
 10
103.7728262414235
 20
-128.3649324679087
 30
0.0
 10
100.5957449335887
 20
-131.5430369115585
 30
0.0
 10
96.67522219805373
 20
-131.5430369115585
 30
0.0
 10
92.7554001336126
 20
-131.5430369115585
 30
0.0
 10
89.57764854801712
 20
-128.3649324679087
 30
0.0
 10
89.57764854801712
 20
-124.4451127466666
 30
0.0
  0
POLYLINE
  5
20C
330
41
100
AcDbEntity
  8
_U+30EC_U+30A4_U+30E4_U+30FC 1
 62
   179
420
  2234388
370
    25
100
AcDb2dPolyline
 66
     1
 10
0.0
 20
0.0
 30
0.0
  0
VERTEX
  5
20D
330
20C
100
AcDbEntity
  8
_U+30EC_U+30A4_U+30E4_U+30FC 1
 62
   179
420
  2234388
370
    25
100
AcDbVertex
100
AcDb2dVertex
 10
89.67684965659741
 20
-124.1474741356298
 30
0.0
  0
VERTEX
  5
20E
330
20C
100
AcDbEntity
  8
_U+30EC_U+30A4_U+30E4_U+30FC 1
 62
   179
420
  2234388
370
    25
100
AcDbVertex
100
AcDb2dVertex
 10
96.37758115231418
 20
-117.3964363595397
 30
0.0
  0
SEQEND
  5
20F
330
20C
100
AcDbEntity
  8
_U+30EC_U+30A4_U+30E4_U+30FC 1
 62
   179
420
  2234388
370
    25
  0
POLYLINE
  5
210
330
41
100
AcDbEntity
  8
_U+30EC_U+30A4_U+30E4_U+30FC 1
 62
   179
420
  2234388
370
    25
100
AcDb2dPolyline
 66
     1
 10
0.0
 20
0.0
 30
0.0
  0
VERTEX
  5
211
330
210
100
AcDbEntity
  8
_U+30EC_U+30A4_U+30E4_U+30FC 1
 62
   179
420
  2234388
370
    25
100
AcDbVertex
100
AcDb2dVertex
 10
96.03030671672944
 20
-131.4934363560158
 30
0.0
  0
VERTEX
  5
212
330
210
100
AcDbEntity
  8
_U+30EC_U+30A4_U+30E4_U+30FC 1
 62
   179
420
  2234388
370
    25
100
AcDbVertex
100
AcDb2dVertex
 10
103.6239893007762
 20
-123.8498002468154
 30
0.0
  0
SEQEND
  5
213
330
210
100
AcDbEntity
  8
_U+30EC_U+30A4_U+30E4_U+30FC 1
 62
   179
420
  2234388
370
    25
  0
SPLINE
  5
214
330
41
100
AcDbEntity
  8
_U+30EC_U+30A4_U+30E4_U+30FC 1
 62
   179
420
  2234388
370
    25
100
AcDbSpline
210
0.0
220
0.0
230
1.0
 70
    11
 71
     3
 72
    17
 73
    13
 74
     0
 42
0.0000000001
 43
0.0000000001
 12
1.0
 22
0.0
 32
0.0
 13
1.0
 23
0.0
 33
0.0
 40
0.0
 40
0.0
 40
0.0
 40
0.0
 40
1.0
 40
1.0
 40
1.0
 40
2.0
 40
2.0
 40
2.0
 40
3.0
 40
3.0
 40
3.0
 40
4.0
 40
4.0
 40
4.0
 40
4.0
 10
94.16926287531973
 20
-122.7081055248785
 30
0.0
 10
94.16926287531973
 20
-122.3105249694225
 30
0.0
 10
94.49103147822184
 20
-121.988086080614
 30
0.0
 10
94.88861202363427
 20
-121.988086080614
 30
0.0
 10
95.28615729126983
 20
-121.988086080614
 30
0.0
 10
95.60792589417194
 20
-122.3105249694225
 30
0.0
 10
95.60792589417194
 20
-122.7081055248785
 30
0.0
 10
95.60792589417194
 20
-123.1049805247793
 30
0.0
 10
95.28615729126983
 20
-123.4274194135875
 30
0.0
 10
94.88861202363427
 20
-123.4274194135875
 30
0.0
 10
94.49103147822184
 20
-123.4274194135875
 30
0.0
 10
94.16926287531973
 20
-123.1049805247793
 30
0.0
 10
94.16926287531973
 20
-122.7081055248785
 30
0.0
  0
SPLINE
  5
215
330
41
100
AcDbEntity
  8
_U+30EC_U+30A4_U+30E4_U+30FC 1
 62
   179
420
  2234388
370
    25
100
AcDbSpline
210
0.0
220
0.0
230
1.0
 70
    11
 71
     3
 72
    17
 73
    13
 74
     0
 42
0.0000000001
 43
0.0000000001
 12
1.0
 22
0.0
 32
0.0
 13
1.0
 23
0.0
 33
0.0
 40
0.0
 40
0.0
 40
0.0
 40
0.0
 40
1.0
 40
1.0
 40
1.0
 40
2.0
 40
2.0
 40
2.0
 40
3.0
 40
3.0
 40
3.0
 40
4.0
 40
4.0
 40
4.0
 40
4.0
 10
96.99839946980912
 20
-119.8790041366971
 30
0.0
 10
96.99839946980912
 20
-119.4814235812408
 30
0.0
 10
97.32016807271123
 20
-119.1589494146547
 30
0.0
 10
97.71771334034678
 20
-119.1589494146547
 30
0.0
 10
98.1152938857592
 20
-119.1589494146547
 30
0.0
 10
98.43706248866131
 20
-119.4814235812408
 30
0.0
 10
98.43706248866131
 20
-119.8790041366971
 30
0.0
 10
98.43706248866131
 20
-120.2758791365979
 30
0.0
 10
98.1152938857592
 20
-120.598318025406
 30
0.0
 10
97.71771334034678
 20
-120.598318025406
 30
0.0
 10
97.32016807271123
 20
-120.598318025406
 30
0.0
 10
96.99839946980912
 20
-120.2758791365979
 30
0.0
 10
96.99839946980912
 20
-119.8790041366971
 30
0.0
  0
SPLINE
  5
216
330
41
100
AcDbEntity
  8
_U+30EC_U+30A4_U+30E4_U+30FC 1
 62
   179
420
  2234388
370
    25
100
AcDbSpline
210
0.0
220
0.0
230
1.0
 70
    11
 71
     3
 72
    17
 73
    13
 74
     0
 42
0.0000000001
 43
0.0000000001
 12
1.0
 22
0.0
 32
0.0
 13
1.0
 23
0.0
 33
0.0
 40
0.0
 40
0.0
 40
0.0
 40
0.0
 40
1.0
 40
1.0
 40
1.0
 40
2.0
 40
2.0
 40
2.0
 40
3.0
 40
3.0
 40
3.0
 40
4.0
 40
4.0
 40
4.0
 40
4.0
 10
100.7211574303892
 20
-122.8569424692858
 30
0.0
 10
100.7211574303892
 20
-122.4593619138295
 30
0.0
 10
101.0429260332913
 20
-122.137593302799
 30
0.0
 10
101.4405065787037
 20
-122.137593302799
 30
0.0
 10
101.8380518463393
 20
-122.137593302799
 30
0.0
 10
102.1598204492414
 20
-122.4593619138295
 30
0.0
 10
102.1598204492414
 20
-122.8569424692858
 30
0.0
 10
102.1598204492414
 20
-123.2544877469643
 30
0.0
 10
101.8380518463393
 20
-123.5762563579948
 30
0.0
 10
101.4405065787037
 20
-123.5762563579948
 30
0.0
 10
101.0429260332913
 20
-123.5762563579948
 30
0.0
 10
100.7211574303892
 20
-123.2544877469643
 30
0.0
 10
100.7211574303892
 20
-122.8569424692858
 30
0.0
  0
SPLINE
  5
217
330
41
100
AcDbEntity
  8
_U+30EC_U+30A4_U+30E4_U+30FC 1
 62
   179
420
  2234388
370
    25
100
AcDbSpline
210
0.0
220
0.0
230
1.0
 70
    11
 71
     3
 72
    17
 73
    13
 74
     0
 42
0.0000000001
 43
0.0000000001
 12
1.0
 22
0.0
 32
0.0
 13
1.0
 23
0.0
 33
0.0
 40
0.0
 40
0.0
 40
0.0
 40
0.0
 40
1.0
 40
1.0
 40
1.0
 40
2.0
 40
2.0
 40
2.0
 40
3.0
 40
3.0
 40
3.0
 40
4.0
 40
4.0
 40
4.0
 40
4.0
 10
100.3738829948045
 20
-119.9782052477832
 30
0.0
 10
100.3738829948045
 20
-119.5806599701047
 30
0.0
 10
100.6956515977066
 20
-119.2581858035187
 30
0.0
 10
101.093232143119
 20
-119.2581858035187
 30
0.0
 10
101.4907774107546
 20
-119.2581858035187
 30
0.0
 10
101.8125460136567
 20
-119.5806599701047
 30
0.0
 10
101.8125460136567
 20
-119.9782052477832
 30
0.0
 10
101.8125460136567
 20
-120.375080247684
 30
0.0
 10
101.4907774107546
 20
-120.69755441427
 30
0.0
 10
101.093232143119
 20
-120.69755441427
 30
0.0
 10
100.6956515977066
 20
-120.69755441427
 30
0.0
 10
100.3738829948045
 20
-120.375080247684
 30
0.0
 10
100.3738829948045
 20
-119.9782052477832
 30
0.0
  0
SPLINE
  5
218
330
41
100
AcDbEntity
  8
_U+30EC_U+30A4_U+30E4_U+30FC 1
 62
   179
420
  2234388
370
    25
100
AcDbSpline
210
0.0
220
0.0
230
1.0
 70
    11
 71
     3
 72
    17
 73
    13
 74
     0
 42
0.0000000001
 43
0.0000000001
 12
1.0
 22
0.0
 32
0.0
 13
1.0
 23
0.0
 33
0.0
 40
0.0
 40
0.0
 40
0.0
 40
0.0
 40
1.0
 40
1.0
 40
1.0
 40
2.0
 40
2.0
 40
2.0
 40
3.0
 40
3.0
 40
3.0
 40
4.0
 40
4.0
 40
4.0
 40
4.0
 10
91.63780016212495
 20
-128.4159441345628
 30
0.0
 10
91.63780016212495
 20
-128.0183635791065
 30
0.0
 10
91.95960404280393
 20
-127.6965949680757
 30
0.0
 10
92.35714931043948
 20
-127.6965949680757
 30
0.0
 10
92.75472985585192
 20
-127.6965949680757
 30
0.0
 10
93.07649845875403
 20
-128.0183635791065
 30
0.0
 10
93.07649845875403
 20
-128.4159441345628
 30
0.0
 10
93.07649845875403
 20
-128.8131366344635
 30
0.0
 10
92.75472985585192
 20
-129.1349405232716
 30
0.0
 10
92.35714931043948
 20
-129.1349405232716
 30
0.0
 10
91.95960404280393
 20
-129.1349405232716
 30
0.0
 10
91.63780016212495
 20
-128.8131366344635
 30
0.0
 10
91.63780016212495
 20
-128.4159441345628
 30
0.0
  0
SPLINE
  5
219
330
41
100
AcDbEntity
  8
_U+30EC_U+30A4_U+30E4_U+30FC 1
 62
   179
420
  2234388
370
    25
100
AcDbSpline
210
0.0
220
0.0
230
1.0
 70
    11
 71
     3
 72
    17
 73
    13
 74
     0
 42
0.0000000001
 43
0.0000000001
 12
1.0
 22
0.0
 32
0.0
 13
1.0
 23
0.0
 33
0.0
 40
0.0
 40
0.0
 40
0.0
 40
0.0
 40
1.0
 40
1.0
 40
1.0
 40
2.0
 40
2.0
 40
2.0
 40
3.0
 40
3.0
 40
3.0
 40
4.0
 40
4.0
 40
4.0
 40
4.0
 10
94.91341230077934
 20
-128.6143816345132
 30
0.0
 10
94.91341230077934
 20
-128.2175066346124
 30
0.0
 10
95.23518330952473
 20
-127.8950324680261
 30
0.0
 10
95.63276386498039
 20
-127.8950324680261
 30
0.0
 10
96.03030671672944
 20
-127.8950324680261
 30
0.0
 10
96.35207775368968
 20
-128.2175066346124
 30
0.0
 10
96.35207775368968
 20
-128.6143816345132
 30
0.0
 10
96.35207775368968
 20
-129.0115741344139
 30
0.0
 10
96.03030671672944
 20
-129.334048301
 30
0.0
 10
95.63276386498039
 20
-129.334048301
 30
0.0
 10
95.23518330952473
 20
-129.334048301
 30
0.0
 10
94.91341230077934
 20
-129.0115741344139
 30
0.0
 10
94.91341230077934
 20
-128.6143816345132
 30
0.0
  0
SPLINE
  5
21A
330
41
100
AcDbEntity
  8
_U+30EC_U+30A4_U+30E4_U+30FC 1
 62
   179
420
  2234388
370
    25
100
AcDbSpline
210
0.0
220
0.0
230
1.0
 70
    11
 71
     3
 72
    17
 73
    13
 74
     0
 42
0.0000000001
 43
0.0000000001
 12
1.0
 22
0.0
 32
0.0
 13
1.0
 23
0.0
 33
0.0
 40
0.0
 40
0.0
 40
0.0
 40
0.0
 40
1.0
 40
1.0
 40
1.0
 40
2.0
 40
2.0
 40
2.0
 40
3.0
 40
3.0
 40
3.0
 40
4.0
 40
4.0
 40
4.0
 40
4.0
 10
91.28985544877953
 20
-125.5868074686033
 30
0.0
 10
91.28985544877953
 20
-125.1892621909248
 30
0.0
 10
91.61162405168164
 20
-124.8674935798943
 30
0.0
 10
92.00987487485476
 20
-124.8674935798943
 30
0.0
 10
92.40745542026718
 20
-124.8674935798943
 30
0.0
 10
92.7292240231693
 20
-125.1892621909248
 30
0.0
 10
92.7292240231693
 20
-125.5868074686033
 30
0.0
 10
92.7292240231693
 20
-125.9843880240596
 30
0.0
 10
92.40745542026718
 20
-126.3061566350901
 30
0.0
 10
92.00987487485476
 20
-126.3061566350901
 30
0.0
 10
91.61162405168164
 20
-126.3061566350901
 30
0.0
 10
91.28985544877953
 20
-125.9843880240596
 30
0.0
 10
91.28985544877953
 20
-125.5868074686033
 30
0.0
  0
SPLINE
  5
21B
330
41
100
AcDbEntity
  8
_U+30EC_U+30A4_U+30E4_U+30FC 1
 62
   179
420
  2234388
370
    25
100
AcDbSpline
210
0.0
220
0.0
230
1.0
 70
    11
 71
     3
 72
    17
 73
    13
 74
     0
 42
0.0000000001
 43
0.0000000001
 12
1.0
 22
0.0
 32
0.0
 13
1.0
 23
0.0
 33
0.0
 40
0.0
 40
0.0
 40
0.0
 40
0.0
 40
1.0
 40
1.0
 40
1.0
 40
2.0
 40
2.0
 40
2.0
 40
3.0
 40
3.0
 40
3.0
 40
4.0
 40
4.0
 40
4.0
 40
4.0
 10
94.5661378651946
 20
-125.6364433019242
 30
0.0
 10
94.5661378651946
 20
-125.2388627464682
 30
0.0
 10
94.88790646809672
 20
-124.9170941354374
 30
0.0
 10
95.28548701350915
 20
-124.9170941354374
 30
0.0
 10
95.6830322811447
 20
-124.9170941354374
 30
0.0
 10
96.00480088404682
 20
-125.2388627464682
 30
0.0
 10
96.00480088404682
 20
-125.6364433019242
 30
0.0
 10
96.00480088404682
 20
-126.0339885796026
 30
0.0
 10
95.6830322811447
 20
-126.3557571906335
 30
0.0
 10
95.28548701350915
 20
-126.3557571906335
 30
0.0
 10
94.88790646809672
 20
-126.3557571906335
 30
0.0
 10
94.5661378651946
 20
-126.0339885796026
 30
0.0
 10
94.5661378651946
 20
-125.6364433019242
 30
0.0
  0
SPLINE
  5
21C
330
41
100
AcDbEntity
  8
_U+30EC_U+30A4_U+30E4_U+30FC 1
 62
   179
420
  2234388
370
    25
100
AcDbSpline
210
0.0
220
0.0
230
1.0
 70
    11
 71
     3
 72
    17
 73
    13
 74
     0
 42
0.0000000001
 43
0.0000000001
 12
1.0
 22
0.0
 32
0.0
 13
1.0
 23
0.0
 33
0.0
 40
0.0
 40
0.0
 40
0.0
 40
0.0
 40
1.0
 40
1.0
 40
1.0
 40
2.0
 40
2.0
 40
2.0
 40
3.0
 40
3.0
 40
3.0
 40
4.0
 40
4.0
 40
4.0
 40
4.0
 10
97.7432191730294
 20
-125.5868074686033
 30
0.0
 10
97.7432191730294
 20
-125.1899324687025
 30
0.0
 10
98.06498777593151
 20
-124.8674935798943
 30
0.0
 10
98.46253304356706
 20
-124.8674935798943
 30
0.0
 10
98.86011358897949
 20
-124.8674935798943
 30
0.0
 10
99.1818821918816
 20
-125.1899324687025
 30
0.0
 10
99.1818821918816
 20
-125.5868074686033
 30
0.0
 10
99.1818821918816
 20
-125.9843880240596
 30
0.0
 10
98.86011358897949
 20
-126.3061566350901
 30
0.0
 10
98.46253304356706
 20
-126.3061566350901
 30
0.0
 10
98.06498777593151
 20
-126.3061566350901
 30
0.0
 10
97.7432191730294
 20
-125.9843880240596
 30
0.0
 10
97.7432191730294
 20
-125.5868074686033
 30
0.0
  0
SPLINE
  5
21D
330
41
100
AcDbEntity
  8
_U+30EC_U+30A4_U+30E4_U+30FC 1
 62
   179
420
  2234388
370
    25
100
AcDbSpline
210
0.0
220
0.0
230
1.0
 70
    11
 71
     3
 72
    17
 73
    13
 74
     0
 42
0.0000000001
 43
0.0000000001
 12
1.0
 22
0.0
 32
0.0
 13
1.0
 23
0.0
 33
0.0
 40
0.0
 40
0.0
 40
0.0
 40
0.0
 40
1.0
 40
1.0
 40
1.0
 40
2.0
 40
2.0
 40
2.0
 40
3.0
 40
3.0
 40
3.0
 40
4.0
 40
4.0
 40
4.0
 40
4.0
 10
97.39527445968399
 20
-122.6088691360145
 30
0.0
 10
97.39527445968399
 20
-122.2113238583361
 30
0.0
 10
97.7170430625861
 20
-121.8895552473056
 30
0.0
 10
98.11458833022165
 20
-121.8895552473056
 30
0.0
 10
98.51216887563407
 20
-121.8895552473056
 30
0.0
 10
98.83393747853619
 20
-122.2113238583361
 30
0.0
 10
98.83393747853619
 20
-122.6088691360145
 30
0.0
 10
98.83393747853619
 20
-123.0057441359153
 30
0.0
 10
98.51216887563407
 20
-123.3282183025013
 30
0.0
 10
98.11458833022165
 20
-123.3282183025013
 30
0.0
 10
97.7170430625861
 20
-123.3282183025013
 30
0.0
 10
97.39527445968399
 20
-123.0057441359153
 30
0.0
 10
97.39527445968399
 20
-122.6088691360145
 30
0.0
  0
ENDBLK
  5
44
330
41
100
AcDbEntity
  8
0
100
AcDbBlockEnd
  0
BLOCK
  5
47
330
45
100
AcDbEntity
  8
0
100
AcDbBlockBegin
  2
block 3
 70
     0
 10
0.0
 20
0.0
 30
0.0
  3
block 3
  1

  0
POLYLINE
  5
49
330
45
100
AcDbEntity
  8
_U+30EC_U+30A4_U+30E4_U+30FC 1
 62
     7
420
 16777215
370
    25
100
AcDb2dPolyline
 66
     1
 10
0.0
 20
0.0
 30
0.0
  0
VERTEX
  5
4A
330
49
100
AcDbEntity
  8
_U+30EC_U+30A4_U+30E4_U+30FC 1
 62
     7
420
 16777215
370
    25
100
AcDbVertex
100
AcDb2dVertex
 10
102.7306854346774
 20
-137.9361110766271
 30
0.0
  0
VERTEX
  5
4B
330
49
100
AcDbEntity
  8
_U+30EC_U+30A4_U+30E4_U+30FC 1
 62
     7
420
 16777215
370
    25
100
AcDbVertex
100
AcDb2dVertex
 10
103.2370979217578
 20
-138.3274827431957
 30
0.0
  0
VERTEX
  5
4C
330
49
100
AcDbEntity
  8
_U+30EC_U+30A4_U+30E4_U+30FC 1
 62
     7
420
 16777215
370
    25
100
AcDbVertex
100
AcDb2dVertex
 10
107.2389383752179
 20
-138.0611707988179
 30
0.0
  0
VERTEX
  5
4D
330
49
100
AcDbEntity
  8
_U+30EC_U+30A4_U+30E4_U+30FC 1
 62
     7
420
 16777215
370
    25
100
AcDbVertex
100
AcDb2dVertex
 10
107.2389383752179
 20
-137.6615441322513
 30
0.0
  0
VERTEX
  5
4E
330
49
100
AcDbEntity
  8
_U+30EC_U+30A4_U+30E4_U+30FC 1
 62
     7
420
 16777215
370
    25
100
AcDbVertex
100
AcDb2dVertex
 10
86.23867752209027
 20
-137.6615441322513
 30
0.0
  0
SEQEND
  5
4F
330
49
100
AcDbEntity
  8
_U+30EC_U+30A4_U+30E4_U+30FC 1
 62
     7
420
 16777215
370
    25
  0
POLYLINE
  5
50
330
45
100
AcDbEntity
  8
_U+30EC_U+30A4_U+30E4_U+30FC 1
 62
     7
420
 16777215
370
    25
100
AcDb2dPolyline
 66
     1
 10
0.0
 20
0.0
 30
0.0
  0
VERTEX
  5
51
330
50
100
AcDbEntity
  8
_U+30EC_U+30A4_U+30E4_U+30FC 1
 62
     7
420
 16777215
370
    25
100
AcDbVertex
100
AcDb2dVertex
 10
82.76533344403599
 20
-117.9704058038408
 30
0.0
  0
VERTEX
  5
52
330
50
100
AcDbEntity
  8
_U+30EC_U+30A4_U+30E4_U+30FC 1
 62
     7
420
 16777215
370
    25
100
AcDbVertex
100
AcDb2dVertex
 10
82.37361109051771
 20
-117.463287748412
 30
0.0
  0
VERTEX
  5
53
330
50
100
AcDbEntity
  8
_U+30EC_U+30A4_U+30E4_U+30FC 1
 62
     7
420
 16777215
370
    25
100
AcDbVertex
100
AcDb2dVertex
 10
82.63921539169797
 20
-113.4614471938567
 30
0.0
  0
VERTEX
  5
54
330
50
100
AcDbEntity
  8
_U+30EC_U+30A4_U+30E4_U+30FC 1
 62
     7
420
 16777215
370
    25
100
AcDbVertex
100
AcDb2dVertex
 10
83.03884204816931
 20
-113.4614471938567
 30
0.0
  0
VERTEX
  5
55
330
50
100
AcDbEntity
  8
_U+30EC_U+30A4_U+30E4_U+30FC 1
 62
     7
420
 16777215
370
    25
100
AcDbVertex
100
AcDb2dVertex
 10
83.03884204816931
 20
-134.4617438552737
 30
0.0
  0
SEQEND
  5
56
330
50
100
AcDbEntity
  8
_U+30EC_U+30A4_U+30E4_U+30FC 1
 62
     7
420
 16777215
370
    25
  0
POLYLINE
  5
57
330
45
100
AcDbEntity
  8
_U+30EC_U+30A4_U+30E4_U+30FC 1
 62
     7
420
 16777215
370
     9
100
AcDb2dPolyline
 66
     1
 10
0.0
 20
0.0
 30
0.0
  0
VERTEX
  5
58
330
57
100
AcDbEntity
  8
_U+30EC_U+30A4_U+30E4_U+30FC 1
 62
     7
420
 16777215
370
     9
100
AcDbVertex
100
AcDb2dVertex
 10
82.91071316254926
 20
-138.155574132128
 30
0.0
  0
VERTEX
  5
59
330
57
100
AcDbEntity
  8
_U+30EC_U+30A4_U+30E4_U+30FC 1
 62
     7
420
 16777215
370
     9
100
AcDbVertex
100
AcDb2dVertex
 10
83.41024648313844
 20
-137.2901396878999
 30
0.0
  0
SEQEND
  5
5A
330
57
100
AcDbEntity
  8
_U+30EC_U+30A4_U+30E4_U+30FC 1
 62
     7
420
 16777215
370
     9
  0
POLYLINE
  5
5B
330
45
100
AcDbEntity
  8
_U+30EC_U+30A4_U+30E4_U+30FC 1
 62
     7
420
 16777215
370
     9
100
AcDb2dPolyline
 66
     1
 10
0.0
 20
0.0
 30
0.0
  0
VERTEX
  5
5C
330
5B
100
AcDbEntity
  8
_U+30EC_U+30A4_U+30E4_U+30FC 1
 62
     7
420
 16777215
370
     9
100
AcDbVertex
100
AcDb2dVertex
 10
82.54414178301239
 20
-137.7897082988856
 30
0.0
  0
VERTEX
  5
5D
330
5B
100
AcDbEntity
  8
_U+30EC_U+30A4_U+30E4_U+30FC 1
 62
     7
420
 16777215
370
     9
100
AcDbVertex
100
AcDb2dVertex
 10
83.41024648313844
 20
-137.2901396878999
 30
0.0
  0
SEQEND
  5
5E
330
5B
100
AcDbEntity
  8
_U+30EC_U+30A4_U+30E4_U+30FC 1
 62
     7
420
 16777215
370
     9
  0
SPLINE
  5
5F
330
45
100
AcDbEntity
  8
_U+30EC_U+30A4_U+30E4_U+30FC 1
 62
     7
420
 16777215
370
    25
100
AcDbSpline
210
0.0
220
0.0
230
1.0
 70
     8
 71
     3
 72
    11
 73
     7
 74
     0
 42
0.0000000001
 43
0.0000000001
 12
1.0
 22
0.0
 32
0.0
 13
1.0
 23
0.0
 33
0.0
 40
0.0
 40
0.0
 40
0.0
 40
0.0
 40
1.0
 40
1.0
 40
1.0
 40
2.0
 40
2.0
 40
2.0
 40
2.0
 10
82.23958873522663
 20
-134.3721735775178
 30
0.0
 10
82.19065845869717
 20
-136.5811621880769
 30
0.0
 10
83.94078896960318
 20
-138.4111969098417
 30
0.0
 10
86.14977752435829
 20
-138.460127187607
 30
0.0
 10
86.20904418951294
 20
-138.4615030209399
 30
0.0
 10
86.2682777562107
 20
-138.4615030209399
 30
0.0
 10
86.32754442286243
 20
-138.460127187607
 30
0.0
  0
SPLINE
  5
60
330
45
100
AcDbEntity
  8
_U+30EC_U+30A4_U+30E4_U+30FC 1
 62
     7
420
 16777215
370
    25
100
AcDbSpline
210
0.0
220
0.0
230
1.0
 70
     8
 71
     3
 72
     8
 73
     4
 74
     0
 42
0.0000000001
 43
0.0000000001
 12
1.0
 22
0.0
 32
0.0
 13
1.0
 23
0.0
 33
0.0
 40
0.0
 40
0.0
 40
0.0
 40
0.0
 40
1.0
 40
1.0
 40
1.0
 40
1.0
 10
83.03884204816931
 20
-134.4617438552737
 30
0.0
 10
83.03884204816931
 20
-136.2283844103874
 30
0.0
 10
84.4713314560679
 20
-137.6615441322513
 30
0.0
 10
86.23867752209027
 20
-137.6615441322513
 30
0.0
  0
SPLINE
  5
61
330
45
100
AcDbEntity
  8
_U+30EC_U+30A4_U+30E4_U+30FC 1
 62
     7
420
 16777215
370
     9
100
AcDbSpline
210
0.0
220
0.0
230
1.0
 70
    11
 71
     3
 72
    17
 73
    13
 74
     0
 42
0.0000000001
 43
0.0000000001
 12
1.0
 22
0.0
 32
0.0
 13
1.0
 23
0.0
 33
0.0
 40
0.0
 40
0.0
 40
0.0
 40
0.0
 40
1.0
 40
1.0
 40
1.0
 40
2.0
 40
2.0
 40
2.0
 40
3.0
 40
3.0
 40
3.0
 40
4.0
 40
4.0
 40
4.0
 40
4.0
 10
107.3388450393357
 20
-142.4612269088293
 30
0.0
 10
107.3388450393357
 20
-142.4061230199537
 30
0.0
 10
107.2940422627009
 20
-142.3613202421876
 30
0.0
 10
107.2389383752179
 20
-142.3613202421876
 30
0.0
 10
107.1837992099579
 20
-142.3613202421876
 30
0.0
 10
107.1390317111
 20
-142.4061230199537
 30
0.0
 10
107.1390317111
 20
-142.4612269088293
 30
0.0
 10
107.1390317111
 20
-142.5163660754817
 30
0.0
 10
107.1837992099579
 20
-142.5611688532485
 30
0.0
 10
107.2389383752179
 20
-142.5611688532485
 30
0.0
 10
107.2940422627009
 20
-142.5611688532485
 30
0.0
 10
107.3388450393357
 20
-142.5163660754817
 30
0.0
 10
107.3388450393357
 20
-142.4612269088293
 30
0.0
  0
SPLINE
  5
62
330
45
100
AcDbEntity
  8
_U+30EC_U+30A4_U+30E4_U+30FC 1
 62
     7
420
 16777215
370
     9
100
AcDbSpline
210
0.0
220
0.0
230
1.0
 70
    11
 71
     3
 72
    17
 73
    13
 74
     0
 42
0.0000000001
 43
0.0000000001
 12
1.0
 22
0.0
 32
0.0
 13
1.0
 23
0.0
 33
0.0
 40
0.0
 40
0.0
 40
0.0
 40
0.0
 40
1.0
 40
1.0
 40
1.0
 40
2.0
 40
2.0
 40
2.0
 40
3.0
 40
3.0
 40
3.0
 40
4.0
 40
4.0
 40
4.0
 40
4.0
 10
82.33882512158378
 20
-142.4612269088293
 30
0.0
 10
82.33882512158378
 20
-142.4061230199537
 30
0.0
 10
82.29402234494903
 20
-142.3613202421876
 30
0.0
 10
82.23891845746596
 20
-142.3613202421876
 30
0.0
 10
82.183779292206
 20
-142.3613202421876
 30
0.0
 10
82.13901386835416
 20
-142.4061230199537
 30
0.0
 10
82.13901386835416
 20
-142.4612269088293
 30
0.0
 10
82.13901386835416
 20
-142.5163660754817
 30
0.0
 10
82.183779292206
 20
-142.5611688532485
 30
0.0
 10
82.23891845746596
 20
-142.5611688532485
 30
0.0
 10
82.29402234494903
 20
-142.5611688532485
 30
0.0
 10
82.33882512158378
 20
-142.5163660754817
 30
0.0
 10
82.33882512158378
 20
-142.4612269088293
 30
0.0
  0
SPLINE
  5
63
330
45
100
AcDbEntity
  8
_U+30EC_U+30A4_U+30E4_U+30FC 1
 62
     7
420
 16777215
370
     9
100
AcDbSpline
210
0.0
220
0.0
230
1.0
 70
    11
 71
     3
 72
    17
 73
    13
 74
     0
 42
0.0000000001
 43
0.0000000001
 12
1.0
 22
0.0
 32
0.0
 13
1.0
 23
0.0
 33
0.0
 40
0.0
 40
0.0
 40
0.0
 40
0.0
 40
1.0
 40
1.0
 40
1.0
 40
2.0
 40
2.0
 40
2.0
 40
3.0
 40
3.0
 40
3.0
 40
4.0
 40
4.0
 40
4.0
 40
4.0
 10
78.33889164708198
 20
-113.4614471938567
 30
0.0
 10
78.33889164708198
 20
-113.4063433049818
 30
0.0
 10
78.29444164709302
 20
-113.3615405272151
 30
0.0
 10
78.23898300395726
 20
-113.3615405272151
 30
0.0
 10
78.1835263387054
 20
-113.3615405272151
 30
0.0
 10
78.13872356207064
 20
-113.4063433049818
 30
0.0
 10
78.13872356207064
 20
-113.4614471938567
 30
0.0
 10
78.13872356207064
 20
-113.5169391382876
 30
0.0
 10
78.1835263387054
 20
-113.5617066382761
 30
0.0
 10
78.23898300395726
 20
-113.5617066382761
 30
0.0
 10
78.29444164709302
 20
-113.5617066382761
 30
0.0
 10
78.33889164708198
 20
-113.5169391382876
 30
0.0
 10
78.33889164708198
 20
-113.4614471938567
 30
0.0
  0
SPLINE
  5
64
330
45
100
AcDbEntity
  8
_U+30EC_U+30A4_U+30E4_U+30FC 1
 62
     7
420
 16777215
370
     9
100
AcDbSpline
210
0.0
220
0.0
230
1.0
 70
    11
 71
     3
 72
    17
 73
    13
 74
     0
 42
0.0000000001
 43
0.0000000001
 12
1.0
 22
0.0
 32
0.0
 13
1.0
 23
0.0
 33
0.0
 40
0.0
 40
0.0
 40
0.0
 40
0.0
 40
1.0
 40
1.0
 40
1.0
 40
2.0
 40
2.0
 40
2.0
 40
3.0
 40
3.0
 40
3.0
 40
4.0
 40
4.0
 40
4.0
 40
4.0
 10
78.33889164708198
 20
-138.4615030209399
 30
0.0
 10
78.33889164708198
 20
-138.4063638542875
 30
0.0
 10
78.29444164709302
 20
-138.3615963542983
 30
0.0
 10
78.23898300395726
 20
-138.3615963542983
 30
0.0
 10
78.1835263387054
 20
-138.3615963542983
 30
0.0
 10
78.13872356207064
 20
-138.4063638542875
 30
0.0
 10
78.13872356207064
 20
-138.4615030209399
 30
0.0
 10
78.13872356207064
 20
-138.5166069098155
 30
0.0
 10
78.1835263387054
 20
-138.5614096875816
 30
0.0
 10
78.23898300395726
 20
-138.5614096875816
 30
0.0
 10
78.29444164709302
 20
-138.5614096875816
 30
0.0
 10
78.33889164708198
 20
-138.5166069098155
 30
0.0
 10
78.33889164708198
 20
-138.4615030209399
 30
0.0
  0
POLYLINE
  5
65
330
45
100
AcDbEntity
  8
_U+30EC_U+30A4_U+30E4_U+30FC 1
 62
     7
420
 16777215
370
     9
100
AcDb2dPolyline
 66
     1
 10
0.0
 20
0.0
 30
0.0
  0
VERTEX
  5
66
330
65
100
AcDbEntity
  8
_U+30EC_U+30A4_U+30E4_U+30FC 1
 62
     7
420
 16777215
370
     9
100
AcDbVertex
100
AcDb2dVertex
 10
82.23891845746596
 20
-142.4612269088293
 30
0.0
  0
VERTEX
  5
67
330
65
100
AcDbEntity
  8
_U+30EC_U+30A4_U+30E4_U+30FC 1
 62
     7
420
 16777215
370
     9
100
AcDbVertex
100
AcDb2dVertex
 10
107.2389383752179
 20
-142.4612269088293
 30
0.0
  0
SEQEND
  5
68
330
65
100
AcDbEntity
  8
_U+30EC_U+30A4_U+30E4_U+30FC 1
 62
     7
420
 16777215
370
     9
  0
POLYLINE
  5
69
330
45
100
AcDbEntity
  8
_U+30EC_U+30A4_U+30E4_U+30FC 1
 62
     7
420
 16777215
370
     9
100
AcDb2dPolyline
 66
     1
 10
0.0
 20
0.0
 30
0.0
  0
VERTEX
  5
6A
330
69
100
AcDbEntity
  8
_U+30EC_U+30A4_U+30E4_U+30FC 1
 62
     7
420
 16777215
370
     9
100
AcDbVertex
100
AcDb2dVertex
 10
82.23891845746596
 20
-137.0014616324162
 30
0.0
  0
VERTEX
  5
6B
330
69
100
AcDbEntity
  8
_U+30EC_U+30A4_U+30E4_U+30FC 1
 62
     7
420
 16777215
370
     9
100
AcDbVertex
100
AcDb2dVertex
 10
82.23891845746596
 20
-143.4609991308012
 30
0.0
  0
SEQEND
  5
6C
330
69
100
AcDbEntity
  8
_U+30EC_U+30A4_U+30E4_U+30FC 1
 62
     7
420
 16777215
370
     9
  0
POLYLINE
  5
6D
330
45
100
AcDbEntity
  8
_U+30EC_U+30A4_U+30E4_U+30FC 1
 62
     7
420
 16777215
370
     9
100
AcDb2dPolyline
 66
     1
 10
0.0
 20
0.0
 30
0.0
  0
VERTEX
  5
6E
330
6D
100
AcDbEntity
  8
_U+30EC_U+30A4_U+30E4_U+30FC 1
 62
     7
420
 16777215
370
     9
100
AcDbVertex
100
AcDb2dVertex
 10
107.2389383752179
 20
-140.6015941315165
 30
0.0
  0
VERTEX
  5
6F
330
6D
100
AcDbEntity
  8
_U+30EC_U+30A4_U+30E4_U+30FC 1
 62
     7
420
 16777215
370
     9
100
AcDbVertex
100
AcDb2dVertex
 10
107.2389383752179
 20
-143.4609991308012
 30
0.0
  0
SEQEND
  5
70
330
6D
100
AcDbEntity
  8
_U+30EC_U+30A4_U+30E4_U+30FC 1
 62
     7
420
 16777215
370
     9
  0
INSERT
  5
72
330
45
100
AcDbEntity
  8
_U+30EC_U+30A4_U+30E4_U+30FC 1
100
AcDbBlockReference
  2
block 4
 10
0.0
 20
0.0
 30
0.0
  0
POLYLINE
  5
79
330
45
100
AcDbEntity
  8
_U+30EC_U+30A4_U+30E4_U+30FC 1
 62
     7
420
 16777215
370
     9
100
AcDb2dPolyline
 66
     1
 10
0.0
 20
0.0
 30
0.0
  0
VERTEX
  5
7A
330
79
100
AcDbEntity
  8
_U+30EC_U+30A4_U+30E4_U+30FC 1
 62
     7
420
 16777215
370
     9
100
AcDbVertex
100
AcDb2dVertex
 10
78.23898300395726
 20
-113.4614471938567
 30
0.0
  0
VERTEX
  5
7B
330
79
100
AcDbEntity
  8
_U+30EC_U+30A4_U+30E4_U+30FC 1
 62
     7
420
 16777215
370
     9
100
AcDbVertex
100
AcDb2dVertex
 10
78.23898300395726
 20
-138.4615030209399
 30
0.0
  0
SEQEND
  5
7C
330
79
100
AcDbEntity
  8
_U+30EC_U+30A4_U+30E4_U+30FC 1
 62
     7
420
 16777215
370
     9
  0
POLYLINE
  5
7D
330
45
100
AcDbEntity
  8
_U+30EC_U+30A4_U+30E4_U+30FC 1
 62
     7
420
 16777215
370
     9
100
AcDb2dPolyline
 66
     1
 10
0.0
 20
0.0
 30
0.0
  0
VERTEX
  5
7E
330
7D
100
AcDbEntity
  8
_U+30EC_U+30A4_U+30E4_U+30FC 1
 62
     7
420
 16777215
370
     9
100
AcDbVertex
100
AcDb2dVertex
 10
80.09896851206062
 20
-113.4614471938567
 30
0.0
  0
VERTEX
  5
7F
330
7D
100
AcDbEntity
  8
_U+30EC_U+30A4_U+30E4_U+30FC 1
 62
     7
420
 16777215
370
     9
100
AcDbVertex
100
AcDb2dVertex
 10
77.23885802947257
 20
-113.4614471938567
 30
0.0
  0
SEQEND
  5
80
330
7D
100
AcDbEntity
  8
_U+30EC_U+30A4_U+30E4_U+30FC 1
 62
     7
420
 16777215
370
     9
  0
POLYLINE
  5
81
330
45
100
AcDbEntity
  8
_U+30EC_U+30A4_U+30E4_U+30FC 1
 62
     7
420
 16777215
370
     9
100
AcDb2dPolyline
 66
     1
 10
0.0
 20
0.0
 30
0.0
  0
VERTEX
  5
82
330
81
100
AcDbEntity
  8
_U+30EC_U+30A4_U+30E4_U+30FC 1
 62
     7
420
 16777215
370
     9
100
AcDbVertex
100
AcDb2dVertex
 10
83.69892453132921
 20
-138.4615030209399
 30
0.0
  0
VERTEX
  5
83
330
81
100
AcDbEntity
  8
_U+30EC_U+30A4_U+30E4_U+30FC 1
 62
     7
420
 16777215
370
     9
100
AcDbVertex
100
AcDb2dVertex
 10
77.23885802947257
 20
-138.4615030209399
 30
0.0
  0
SEQEND
  5
84
330
81
100
AcDbEntity
  8
_U+30EC_U+30A4_U+30E4_U+30FC 1
 62
     7
420
 16777215
370
     9
  0
INSERT
  5
86
330
45
100
AcDbEntity
  8
_U+30EC_U+30A4_U+30E4_U+30FC 1
100
AcDbBlockReference
  2
block 5
 10
0.0
 20
0.0
 30
0.0
  0
POLYLINE
  5
8D
330
45
100
AcDbEntity
  8
_U+30EC_U+30A4_U+30E4_U+30FC 1
 62
     7
420
 16777215
370
     9
100
AcDb2dPolyline
 66
     1
 10
0.0
 20
0.0
 30
0.0
  0
VERTEX
  5
8E
330
8D
100
AcDbEntity
  8
_U+30EC_U+30A4_U+30E4_U+30FC 1
 62
     7
420
 16777215
370
     9
100
AcDbVertex
100
AcDb2dVertex
 10
83.41024648313844
 20
-137.2901396878999
 30
0.0
  0
VERTEX
  5
8F
330
8D
100
AcDbEntity
  8
_U+30EC_U+30A4_U+30E4_U+30FC 1
 62
     7
420
 16777215
370
     9
100
AcDbVertex
100
AcDb2dVertex
 10
78.23898300395726
 20
-142.4612269088293
 30
0.0
  0
SEQEND
  5
90
330
8D
100
AcDbEntity
  8
_U+30EC_U+30A4_U+30E4_U+30FC 1
 62
     7
420
 16777215
370
     9
  0
POLYLINE
  5
91
330
45
100
AcDbEntity
  8
_U+30EC_U+30A4_U+30E4_U+30FC 1
 62
     7
420
 16777215
370
     9
100
AcDb2dPolyline
 66
     1
 10
0.0
 20
0.0
 30
0.0
  0
VERTEX
  5
92
330
91
100
AcDbEntity
  8
_U+30EC_U+30A4_U+30E4_U+30FC 1
 62
     7
420
 16777215
370
     9
100
AcDbVertex
100
AcDb2dVertex
 10
78.23898300395726
 20
-142.4612269088293
 30
0.0
  0
VERTEX
  5
93
330
91
100
AcDbEntity
  8
_U+30EC_U+30A4_U+30E4_U+30FC 1
 62
     7
420
 16777215
370
     9
100
AcDbVertex
100
AcDb2dVertex
 10
74.85760809022331
 20
-142.4612269088293
 30
0.0
  0
SEQEND
  5
94
330
91
100
AcDbEntity
  8
_U+30EC_U+30A4_U+30E4_U+30FC 1
 62
     7
420
 16777215
370
     9
  0
INSERT
  5
96
330
45
100
AcDbEntity
  8
_U+30EC_U+30A4_U+30E4_U+30FC 1
100
AcDbBlockReference
  2
block 6
 10
0.0
 20
0.0
 30
0.0
  0
ENDBLK
  5
48
330
45
100
AcDbEntity
  8
0
100
AcDbBlockEnd
  0
BLOCK
  5
73
330
71
100
AcDbEntity
  8
0
100
AcDbBlockBegin
  2
block 4
 70
     0
 10
0.0
 20
0.0
 30
0.0
  3
block 4
  1

  0
SPLINE
  5
75
330
71
100
AcDbEntity
  8
_U+30EC_U+30A4_U+30E4_U+30FC 1
370
     0
100
AcDbSpline
210
0.0
220
0.0
230
1.0
 70
    11
 71
     3
 72
    44
 73
    40
 74
     0
 42
0.0000000001
 43
0.0000000001
 12
1.0
 22
0.0
 32
0.0
 13
1.0
 23
0.0
 33
0.0
 40
0.0
 40
0.0
 40
0.0
 40
0.0
 40
1.0
 40
1.0
 40
1.0
 40
2.0
 40
2.0
 40
2.0
 40
3.0
 40
3.0
 40
3.0
 40
4.0
 40
4.0
 40
4.0
 40
5.0
 40
5.0
 40
5.0
 40
6.0
 40
6.0
 40
6.0
 40
7.0
 40
7.0
 40
7.0
 40
8.0
 40
8.0
 40
8.0
 40
9.0
 40
9.0
 40
9.0
 40
10.0
 40
10.0
 40
10.0
 40
11.0
 40
11.0
 40
11.0
 40
12.0
 40
12.0
 40
12.0
 40
13.0
 40
13.0
 40
13.0
 40
13.0
 10
94.24403209449456
 20
-141.1665771131458
 30
0.0
 10
94.02630205982676
 20
-141.3253960150159
 30
0.0
 10
93.93328448172501
 20
-141.3994655679487
 30
0.0
 10
93.88436412583447
 20
-141.5431260496837
 30
0.0
 10
93.88436412583447
 20
-141.5431260496837
 30
0.0
 10
94.66295570550093
 20
-141.5431260496837
 30
0.0
 10
94.66295570550093
 20
-141.5431260496837
 30
0.0
 10
94.66295570550093
 20
-141.5431260496837
 30
0.0
 10
94.66295570550093
 20
-141.7484537406046
 30
0.0
 10
94.66295570550093
 20
-141.7484537406046
 30
0.0
 10
94.66295570550093
 20
-141.7484537406046
 30
0.0
 10
93.63493921270238
 20
-141.7484537406046
 30
0.0
 10
93.63493921270238
 20
-141.7484537406046
 30
0.0
 10
93.66663409116669
 20
-141.3908528292356
 30
0.0
 10
93.73209090538643
 20
-141.3126491617205
 30
0.0
 10
94.11725258063736
 20
-141.0143038926978
 30
0.0
 10
94.37322317519143
 20
-140.8155218831989
 30
0.0
 10
94.43867998941117
 20
-140.7476535021395
 30
0.0
 10
94.43867998941117
 20
-140.610194192278
 30
0.0
 10
94.43867998941117
 20
-140.4916829075854
 30
0.0
 10
94.36667749376944
 20
-140.3607692791459
 30
0.0
 10
94.16996254156167
 20
-140.3607692791459
 30
0.0
 10
93.90985783242532
 20
-140.3607692791459
 30
0.0
 10
93.90158960326072
 20
-140.5912461671091
 30
0.0
 10
93.89711097912989
 20
-140.7076903945106
 30
0.0
 10
93.89711097912989
 20
-140.7076903945106
 30
0.0
 10
93.67283526304013
 20
-140.7076903945106
 30
0.0
 10
93.67283526304013
 20
-140.7076903945106
 30
0.0
 10
93.68144800175325
 20
-140.5805663711049
 30
0.0
 10
93.69212779775752
 20
-140.4686007678342
 30
0.0
 10
93.77239852256385
 20
-140.3500894831417
 30
0.0
 10
93.88229706854332
 20
-140.1892035239805
 30
0.0
 10
94.06867673429534
 20
-140.155441588225
 30
0.0
 10
94.18477645214826
 20
-140.155441588225
 30
0.0
 10
94.46210663871086
 20
-140.155441588225
 30
0.0
 10
94.6695013869229
 20
-140.3394096871374
 30
0.0
 10
94.6695013869229
 20
-140.6122612495692
 30
0.0
 10
94.6695013869229
 20
-140.8410155897897
 30
0.0
 10
94.55305715952146
 20
-140.9402343397649
 30
0.0
 10
94.24403209449456
 20
-141.1665771131458
 30
0.0
  0
HATCH
  5
76
330
71
100
AcDbEntity
  8
_U+30EC_U+30A4_U+30E4_U+30FC 1
 62
     7
420
 16777215
100
AcDbHatch
 10
0.0
 20
0.0
 30
0.0
210
0.0
220
0.0
230
1.0
  2
SOLID
 70
     1
 71
     0
 91
        1
 92
        1
 93
        1
 72
     4
 94
        3
 73
     0
 74
     1
 95
       44
 96
       40
 40
0.0
 40
0.0
 40
0.0
 40
0.0
 40
1.0
 40
1.0
 40
1.0
 40
2.0
 40
2.0
 40
2.0
 40
3.0
 40
3.0
 40
3.0
 40
4.0
 40
4.0
 40
4.0
 40
5.0
 40
5.0
 40
5.0
 40
6.0
 40
6.0
 40
6.0
 40
7.0
 40
7.0
 40
7.0
 40
8.0
 40
8.0
 40
8.0
 40
9.0
 40
9.0
 40
9.0
 40
10.0
 40
10.0
 40
10.0
 40
11.0
 40
11.0
 40
11.0
 40
12.0
 40
12.0
 40
12.0
 40
13.0
 40
13.0
 40
13.0
 40
13.0
 10
94.24403209449456
 20
-141.1665771131458
 10
94.02630205982676
 20
-141.3253960150159
 10
93.93328448172501
 20
-141.3994655679487
 10
93.88436412583447
 20
-141.5431260496837
 10
93.88436412583447
 20
-141.5431260496837
 10
94.66295570550093
 20
-141.5431260496837
 10
94.66295570550093
 20
-141.5431260496837
 10
94.66295570550093
 20
-141.5431260496837
 10
94.66295570550093
 20
-141.7484537406046
 10
94.66295570550093
 20
-141.7484537406046
 10
94.66295570550093
 20
-141.7484537406046
 10
93.63493921270238
 20
-141.7484537406046
 10
93.63493921270238
 20
-141.7484537406046
 10
93.66663409116669
 20
-141.3908528292356
 10
93.73209090538643
 20
-141.3126491617205
 10
94.11725258063736
 20
-141.0143038926978
 10
94.37322317519143
 20
-140.8155218831989
 10
94.43867998941117
 20
-140.7476535021395
 10
94.43867998941117
 20
-140.610194192278
 10
94.43867998941117
 20
-140.4916829075854
 10
94.36667749376944
 20
-140.3607692791459
 10
94.16996254156167
 20
-140.3607692791459
 10
93.90985783242532
 20
-140.3607692791459
 10
93.90158960326072
 20
-140.5912461671091
 10
93.89711097912989
 20
-140.7076903945106
 10
93.89711097912989
 20
-140.7076903945106
 10
93.67283526304013
 20
-140.7076903945106
 10
93.67283526304013
 20
-140.7076903945106
 10
93.68144800175325
 20
-140.5805663711049
 10
93.69212779775752
 20
-140.4686007678342
 10
93.77239852256385
 20
-140.3500894831417
 10
93.88229706854332
 20
-140.1892035239805
 10
94.06867673429534
 20
-140.155441588225
 10
94.18477645214826
 20
-140.155441588225
 10
94.46210663871086
 20
-140.155441588225
 10
94.6695013869229
 20
-140.3394096871374
 10
94.6695013869229
 20
-140.6122612495692
 10
94.6695013869229
 20
-140.8410155897897
 10
94.55305715952146
 20
-140.9402343397649
 10
94.24403209449456
 20
-141.1665771131458
 97
        0
 97
        0
 75
     2
 76
     1
 98
        0
  0
SPLINE
  5
77
330
71
100
AcDbEntity
  8
_U+30EC_U+30A4_U+30E4_U+30FC 1
370
     0
100
AcDbSpline
210
0.0
220
0.0
230
1.0
 70
    11
 71
     3
 72
    53
 73
    49
 74
     0
 42
0.0000000001
 43
0.0000000001
 12
1.0
 22
0.0
 32
0.0
 13
1.0
 23
0.0
 33
0.0
 40
0.0
 40
0.0
 40
0.0
 40
0.0
 40
1.0
 40
1.0
 40
1.0
 40
2.0
 40
2.0
 40
2.0
 40
3.0
 40
3.0
 40
3.0
 40
4.0
 40
4.0
 40
4.0
 40
5.0
 40
5.0
 40
5.0
 40
6.0
 40
6.0
 40
6.0
 40
7.0
 40
7.0
 40
7.0
 40
8.0
 40
8.0
 40
8.0
 40
9.0
 40
9.0
 40
9.0
 40
10.0
 40
10.0
 40
10.0
 40
11.0
 40
11.0
 40
11.0
 40
12.0
 40
12.0
 40
12.0
 40
13.0
 40
13.0
 40
13.0
 40
14.0
 40
14.0
 40
14.0
 40
15.0
 40
15.0
 40
15.0
 40
16.0
 40
16.0
 40
16.0
 40
16.0
 10
95.30891110898527
 20
-141.7990966442377
 30
0.0
 10
95.2307074414701
 20
-141.7990966442377
 30
0.0
 10
95.12907712465524
 20
-141.78221567636
 30
0.0
 10
95.02744680784036
 20
-141.7188259194314
 30
0.0
 10
94.8541585049323
 20
-141.6089273734519
 30
0.0
 10
94.83279891292375
 20
-141.4776692354639
 30
0.0
 10
94.81385088775488
 20
-141.3698377467756
 30
0.0
 10
94.81385088775488
 20
-141.3698377467756
 30
0.0
 10
95.03605954655349
 20
-141.3698377467756
 30
0.0
 10
95.03605954655349
 20
-141.3698377467756
 30
0.0
 10
95.09083656476896
 20
-141.5686197562745
 30
0.0
 10
95.21796058817468
 20
-141.5982475774477
 30
0.0
 10
95.31097816627643
 20
-141.5982475774477
 30
0.0
 10
95.45050453342904
 20
-141.5982475774477
 30
0.0
 10
95.60277775387709
 20
-141.498684317924
 30
0.0
 10
95.60277775387709
 20
-141.2661403726696
 30
0.0
 10
95.60277775387709
 20
-141.0101697781155
 30
0.0
 10
95.42294376954705
 20
-140.9402343397649
 30
0.0
 10
95.3023654275633
 20
-140.9402343397649
 30
0.0
 10
95.27067054909901
 20
-140.9402343397649
 30
0.0
 10
95.12907712465524
 20
-140.9402343397649
 30
0.0
 10
95.04019366113579
 20
-141.0694254204618
 30
0.0
 10
95.04019366113579
 20
-141.0694254204618
 30
0.0
 10
94.86449379138804
 20
-141.0504773952929
 30
0.0
 10
94.86449379138804
 20
-141.0504773952929
 30
0.0
 10
94.86449379138804
 20
-141.0504773952929
 30
0.0
 10
94.98507213337179
 20
-140.204017434567
 30
0.0
 10
94.98507213337179
 20
-140.204017434567
 30
0.0
 10
94.98507213337179
 20
-140.204017434567
 30
0.0
 10
95.76366371303826
 20
-140.204017434567
 30
0.0
 10
95.76366371303826
 20
-140.204017434567
 30
0.0
 10
95.76366371303826
 20
-140.204017434567
 30
0.0
 10
95.76366371303826
 20
-140.3986653294837
 30
0.0
 10
95.76366371303826
 20
-140.3986653294837
 30
0.0
 10
95.76366371303826
 20
-140.3986653294837
 30
0.0
 10
95.14802514982411
 20
-140.3986653294837
 30
0.0
 10
95.14802514982411
 20
-140.3986653294837
 30
0.0
 10
95.14802514982411
 20
-140.3986653294837
 30
0.0
 10
95.08256833560436
 20
-140.8217230550723
 30
0.0
 10
95.08256833560436
 20
-140.8217230550723
 30
0.0
 10
95.14389103524181
 20
-140.7879611193169
 30
0.0
 10
95.22622881733928
 20
-140.7476535021395
 30
0.0
 10
95.34474010203188
 20
-140.7476535021395
 30
0.0
 10
95.59864363929479
 20
-140.7476535021395
 30
0.0
 10
95.83566620867998
 20
-140.9340331678915
 30
0.0
 10
95.83566620867998
 20
-141.2471923475007
 30
0.0
 10
95.83566620867998
 20
-141.5644856416922
 30
0.0
 10
95.61139049259022
 20
-141.7990966442377
 30
0.0
 10
95.30891110898527
 20
-141.7990966442377
 30
0.0
  0
HATCH
  5
78
330
71
100
AcDbEntity
  8
_U+30EC_U+30A4_U+30E4_U+30FC 1
 62
     7
420
 16777215
100
AcDbHatch
 10
0.0
 20
0.0
 30
0.0
210
0.0
220
0.0
230
1.0
  2
SOLID
 70
     1
 71
     0
 91
        1
 92
        1
 93
        1
 72
     4
 94
        3
 73
     0
 74
     1
 95
       53
 96
       49
 40
0.0
 40
0.0
 40
0.0
 40
0.0
 40
1.0
 40
1.0
 40
1.0
 40
2.0
 40
2.0
 40
2.0
 40
3.0
 40
3.0
 40
3.0
 40
4.0
 40
4.0
 40
4.0
 40
5.0
 40
5.0
 40
5.0
 40
6.0
 40
6.0
 40
6.0
 40
7.0
 40
7.0
 40
7.0
 40
8.0
 40
8.0
 40
8.0
 40
9.0
 40
9.0
 40
9.0
 40
10.0
 40
10.0
 40
10.0
 40
11.0
 40
11.0
 40
11.0
 40
12.0
 40
12.0
 40
12.0
 40
13.0
 40
13.0
 40
13.0
 40
14.0
 40
14.0
 40
14.0
 40
15.0
 40
15.0
 40
15.0
 40
16.0
 40
16.0
 40
16.0
 40
16.0
 10
95.30891110898527
 20
-141.7990966442377
 10
95.2307074414701
 20
-141.7990966442377
 10
95.12907712465524
 20
-141.78221567636
 10
95.02744680784036
 20
-141.7188259194314
 10
94.8541585049323
 20
-141.6089273734519
 10
94.83279891292375
 20
-141.4776692354639
 10
94.81385088775488
 20
-141.3698377467756
 10
94.81385088775488
 20
-141.3698377467756
 10
95.03605954655349
 20
-141.3698377467756
 10
95.03605954655349
 20
-141.3698377467756
 10
95.09083656476896
 20
-141.5686197562745
 10
95.21796058817468
 20
-141.5982475774477
 10
95.31097816627643
 20
-141.5982475774477
 10
95.45050453342904
 20
-141.5982475774477
 10
95.60277775387709
 20
-141.498684317924
 10
95.60277775387709
 20
-141.2661403726696
 10
95.60277775387709
 20
-141.0101697781155
 10
95.42294376954705
 20
-140.9402343397649
 10
95.3023654275633
 20
-140.9402343397649
 10
95.27067054909901
 20
-140.9402343397649
 10
95.12907712465524
 20
-140.9402343397649
 10
95.04019366113579
 20
-141.0694254204618
 10
95.04019366113579
 20
-141.0694254204618
 10
94.86449379138804
 20
-141.0504773952929
 10
94.86449379138804
 20
-141.0504773952929
 10
94.86449379138804
 20
-141.0504773952929
 10
94.98507213337179
 20
-140.204017434567
 10
94.98507213337179
 20
-140.204017434567
 10
94.98507213337179
 20
-140.204017434567
 10
95.76366371303826
 20
-140.204017434567
 10
95.76366371303826
 20
-140.204017434567
 10
95.76366371303826
 20
-140.204017434567
 10
95.76366371303826
 20
-140.3986653294837
 10
95.76366371303826
 20
-140.3986653294837
 10
95.76366371303826
 20
-140.3986653294837
 10
95.14802514982411
 20
-140.3986653294837
 10
95.14802514982411
 20
-140.3986653294837
 10
95.14802514982411
 20
-140.3986653294837
 10
95.08256833560436
 20
-140.8217230550723
 10
95.08256833560436
 20
-140.8217230550723
 10
95.14389103524181
 20
-140.7879611193169
 10
95.22622881733928
 20
-140.7476535021395
 10
95.34474010203188
 20
-140.7476535021395
 10
95.59864363929479
 20
-140.7476535021395
 10
95.83566620867998
 20
-140.9340331678915
 10
95.83566620867998
 20
-141.2471923475007
 10
95.83566620867998
 20
-141.5644856416922
 10
95.61139049259022
 20
-141.7990966442377
 10
95.30891110898527
 20
-141.7990966442377
 97
        0
 97
        0
 75
     2
 76
     1
 98
        0
  0
ENDBLK
  5
74
330
71
100
AcDbEntity
  8
0
100
AcDbBlockEnd
  0
BLOCK
  5
87
330
85
100
AcDbEntity
  8
0
100
AcDbBlockBegin
  2
block 5
 70
     0
 10
0.0
 20
0.0
 30
0.0
  3
block 5
  1

  0
SPLINE
  5
89
330
85
100
AcDbEntity
  8
_U+30EC_U+30A4_U+30E4_U+30FC 1
370
     0
100
AcDbSpline
210
0.0
220
0.0
230
1.0
 70
    11
 71
     3
 72
    44
 73
    40
 74
     0
 42
0.0000000001
 43
0.0000000001
 12
1.0
 22
0.0
 32
0.0
 13
1.0
 23
0.0
 33
0.0
 40
0.0
 40
0.0
 40
0.0
 40
0.0
 40
1.0
 40
1.0
 40
1.0
 40
2.0
 40
2.0
 40
2.0
 40
3.0
 40
3.0
 40
3.0
 40
4.0
 40
4.0
 40
4.0
 40
5.0
 40
5.0
 40
5.0
 40
6.0
 40
6.0
 40
6.0
 40
7.0
 40
7.0
 40
7.0
 40
8.0
 40
8.0
 40
8.0
 40
9.0
 40
9.0
 40
9.0
 40
10.0
 40
10.0
 40
10.0
 40
11.0
 40
11.0
 40
11.0
 40
12.0
 40
12.0
 40
12.0
 40
13.0
 40
13.0
 40
13.0
 40
13.0
 10
76.94500187963529
 20
-126.4573974293232
 30
0.0
 10
77.10364852673104
 20
-126.6751274639909
 30
0.0
 10
77.1777180796639
 20
-126.7681450420927
 30
0.0
 10
77.32155081617309
 20
-126.8170653979832
 30
0.0
 10
77.32155081617309
 20
-126.8170653979832
 30
0.0
 10
77.32155081617309
 20
-126.0384738183168
 30
0.0
 10
77.32155081617309
 20
-126.0384738183168
 30
0.0
 10
77.32155081617309
 20
-126.0384738183168
 30
0.0
 10
77.52670625231971
 20
-126.0384738183168
 30
0.0
 10
77.52670625231971
 20
-126.0384738183168
 30
0.0
 10
77.52670625231971
 20
-126.0384738183168
 30
0.0
 10
77.52670625231971
 20
-127.0664903111153
 30
0.0
 10
77.52670625231971
 20
-127.0664903111153
 30
0.0
 10
77.16910534095078
 20
-127.034795432651
 30
0.0
 10
77.09090167343561
 20
-126.9693386184313
 30
0.0
 10
76.79255640441298
 20
-126.5841769431804
 30
0.0
 10
76.59377439491406
 20
-126.3282063486263
 30
0.0
 10
76.52607826862891
 20
-126.2627495344065
 30
0.0
 10
76.38861895876744
 20
-126.2627495344065
 30
0.0
 10
76.27010767407484
 20
-126.2627495344065
 30
0.0
 10
76.13902179086108
 20
-126.3347520300483
 30
0.0
 10
76.13902179086108
 20
-126.531466982256
 30
0.0
 10
76.13902179086108
 20
-126.7915716913924
 30
0.0
 10
76.3694986788243
 20
-126.8001844301055
 30
0.0
 10
76.48594290622574
 20
-126.8043185446878
 30
0.0
 10
76.48594290622574
 20
-126.8043185446878
 30
0.0
 10
76.48594290622574
 20
-127.0285942607776
 30
0.0
 10
76.48594290622574
 20
-127.0285942607776
 30
0.0
 10
76.35899113759429
 20
-127.0199815220645
 30
0.0
 10
76.2468532795494
 20
-127.0093017260602
 30
0.0
 10
76.12834199485681
 20
-126.9290310012539
 30
0.0
 10
75.9676282904699
 20
-126.8191324552744
 30
0.0
 10
75.9336940999402
 20
-126.6327527895224
 30
0.0
 10
75.9336940999402
 20
-126.5166530716695
 30
0.0
 10
75.9336940999402
 20
-126.2393228851068
 30
0.0
 10
76.1178344536268
 20
-126.0319281368948
 30
0.0
 10
76.39068601605858
 20
-126.0319281368948
 30
0.0
 10
76.61909584673064
 20
-126.0319281368948
 30
0.0
 10
76.71865910625436
 20
-126.1483723642963
 30
0.0
 10
76.94500187963529
 20
-126.4573974293232
 30
0.0
  0
HATCH
  5
8A
330
85
100
AcDbEntity
  8
_U+30EC_U+30A4_U+30E4_U+30FC 1
 62
     7
420
 16777215
100
AcDbHatch
 10
0.0
 20
0.0
 30
0.0
210
0.0
220
0.0
230
1.0
  2
SOLID
 70
     1
 71
     0
 91
        1
 92
        1
 93
        1
 72
     4
 94
        3
 73
     0
 74
     1
 95
       44
 96
       40
 40
0.0
 40
0.0
 40
0.0
 40
0.0
 40
1.0
 40
1.0
 40
1.0
 40
2.0
 40
2.0
 40
2.0
 40
3.0
 40
3.0
 40
3.0
 40
4.0
 40
4.0
 40
4.0
 40
5.0
 40
5.0
 40
5.0
 40
6.0
 40
6.0
 40
6.0
 40
7.0
 40
7.0
 40
7.0
 40
8.0
 40
8.0
 40
8.0
 40
9.0
 40
9.0
 40
9.0
 40
10.0
 40
10.0
 40
10.0
 40
11.0
 40
11.0
 40
11.0
 40
12.0
 40
12.0
 40
12.0
 40
13.0
 40
13.0
 40
13.0
 40
13.0
 10
76.94500187963529
 20
-126.4573974293232
 10
77.10364852673104
 20
-126.6751274639909
 10
77.1777180796639
 20
-126.7681450420927
 10
77.32155081617309
 20
-126.8170653979832
 10
77.32155081617309
 20
-126.8170653979832
 10
77.32155081617309
 20
-126.0384738183168
 10
77.32155081617309
 20
-126.0384738183168
 10
77.32155081617309
 20
-126.0384738183168
 10
77.52670625231971
 20
-126.0384738183168
 10
77.52670625231971
 20
-126.0384738183168
 10
77.52670625231971
 20
-126.0384738183168
 10
77.52670625231971
 20
-127.0664903111153
 10
77.52670625231971
 20
-127.0664903111153
 10
77.16910534095078
 20
-127.034795432651
 10
77.09090167343561
 20
-126.9693386184313
 10
76.79255640441298
 20
-126.5841769431804
 10
76.59377439491406
 20
-126.3282063486263
 10
76.52607826862891
 20
-126.2627495344065
 10
76.38861895876744
 20
-126.2627495344065
 10
76.27010767407484
 20
-126.2627495344065
 10
76.13902179086108
 20
-126.3347520300483
 10
76.13902179086108
 20
-126.531466982256
 10
76.13902179086108
 20
-126.7915716913924
 10
76.3694986788243
 20
-126.8001844301055
 10
76.48594290622574
 20
-126.8043185446878
 10
76.48594290622574
 20
-126.8043185446878
 10
76.48594290622574
 20
-127.0285942607776
 10
76.48594290622574
 20
-127.0285942607776
 10
76.35899113759429
 20
-127.0199815220645
 10
76.2468532795494
 20
-127.0093017260602
 10
76.12834199485681
 20
-126.9290310012539
 10
75.9676282904699
 20
-126.8191324552744
 10
75.9336940999402
 20
-126.6327527895224
 10
75.9336940999402
 20
-126.5166530716695
 10
75.9336940999402
 20
-126.2393228851068
 10
76.1178344536268
 20
-126.0319281368948
 10
76.39068601605858
 20
-126.0319281368948
 10
76.61909584673064
 20
-126.0319281368948
 10
76.71865910625436
 20
-126.1483723642963
 10
76.94500187963529
 20
-126.4573974293232
 97
        0
 97
        0
 75
     2
 76
     1
 98
        0
  0
SPLINE
  5
8B
330
85
100
AcDbEntity
  8
_U+30EC_U+30A4_U+30E4_U+30FC 1
370
     0
100
AcDbSpline
210
0.0
220
0.0
230
1.0
 70
    11
 71
     3
 72
    53
 73
    49
 74
     0
 42
0.0000000001
 43
0.0000000001
 12
1.0
 22
0.0
 32
0.0
 13
1.0
 23
0.0
 33
0.0
 40
0.0
 40
0.0
 40
0.0
 40
0.0
 40
1.0
 40
1.0
 40
1.0
 40
2.0
 40
2.0
 40
2.0
 40
3.0
 40
3.0
 40
3.0
 40
4.0
 40
4.0
 40
4.0
 40
5.0
 40
5.0
 40
5.0
 40
6.0
 40
6.0
 40
6.0
 40
7.0
 40
7.0
 40
7.0
 40
8.0
 40
8.0
 40
8.0
 40
9.0
 40
9.0
 40
9.0
 40
10.0
 40
10.0
 40
10.0
 40
11.0
 40
11.0
 40
11.0
 40
12.0
 40
12.0
 40
12.0
 40
13.0
 40
13.0
 40
13.0
 40
14.0
 40
14.0
 40
14.0
 40
15.0
 40
15.0
 40
15.0
 40
16.0
 40
16.0
 40
16.0
 40
16.0
 10
77.57752141072716
 20
-125.3925184148324
 30
0.0
 10
77.57752141072716
 20
-125.4707220823476
 30
0.0
 10
77.56046818807516
 20
-125.5723523991625
 30
0.0
 10
77.49707843114656
 20
-125.6739827159773
 30
0.0
 10
77.38700763039283
 20
-125.8472710188854
 30
0.0
 10
77.25592174717907
 20
-125.868630610894
 30
0.0
 10
77.14809025849075
 20
-125.8875786360628
 30
0.0
 10
77.14809025849075
 20
-125.8875786360628
 30
0.0
 10
77.14809025849075
 20
-125.6653699772642
 30
0.0
 10
77.14809025849075
 20
-125.6653699772642
 30
0.0
 10
77.34687226798968
 20
-125.6105929590487
 30
0.0
 10
77.37650008916282
 20
-125.483468935643
 30
0.0
 10
77.37650008916282
 20
-125.3904513575413
 30
0.0
 10
77.37650008916282
 20
-125.2509249903887
 30
0.0
 10
77.27710908441337
 20
-125.0986517699406
 30
0.0
 10
77.04439288438473
 20
-125.0986517699406
 30
0.0
 10
76.78842228983068
 20
-125.0986517699406
 30
0.0
 10
76.71865910625436
 20
-125.2784857542707
 30
0.0
 10
76.71865910625436
 20
-125.3990640962544
 30
0.0
 10
76.71865910625436
 20
-125.4307589747187
 30
0.0
 10
76.71865910625436
 20
-125.5723523991625
 30
0.0
 10
76.84767793217698
 20
-125.6612358626819
 30
0.0
 10
76.84767793217698
 20
-125.6612358626819
 30
0.0
 10
76.82855765223384
 20
-125.8369357324297
 30
0.0
 10
76.82855765223384
 20
-125.8369357324297
 30
0.0
 10
76.82855765223384
 20
-125.8369357324297
 30
0.0
 10
75.98244220105647
 20
-125.7163573904459
 30
0.0
 10
75.98244220105647
 20
-125.7163573904459
 30
0.0
 10
75.98244220105647
 20
-125.7163573904459
 30
0.0
 10
75.98244220105647
 20
-124.9377658107795
 30
0.0
 10
75.98244220105647
 20
-124.9377658107795
 30
0.0
 10
75.98244220105647
 20
-124.9377658107795
 30
0.0
 10
76.17709009597309
 20
-124.9377658107795
 30
0.0
 10
76.17709009597309
 20
-124.9377658107795
 30
0.0
 10
76.17709009597309
 20
-124.9377658107795
 30
0.0
 10
76.17709009597309
 20
-125.5534043739936
 30
0.0
 10
76.17709009597309
 20
-125.5534043739936
 30
0.0
 10
76.17709009597309
 20
-125.5534043739936
 30
0.0
 10
76.60014782156178
 20
-125.6188611882133
 30
0.0
 10
76.60014782156178
 20
-125.6188611882133
 30
0.0
 10
76.56621363103206
 20
-125.5575384885759
 30
0.0
 10
76.52607826862891
 20
-125.4752007064784
 30
0.0
 10
76.52607826862891
 20
-125.3566894217858
 30
0.0
 10
76.52607826862891
 20
-125.1027858845229
 30
0.0
 10
76.71228567960665
 20
-124.8657633151377
 30
0.0
 10
77.0252726044416
 20
-124.8657633151377
 30
0.0
 10
77.34273815340737
 20
-124.8657633151377
 30
0.0
 10
77.57752141072716
 20
-125.0900390312275
 30
0.0
 10
77.57752141072716
 20
-125.3925184148324
 30
0.0
  0
HATCH
  5
8C
330
85
100
AcDbEntity
  8
_U+30EC_U+30A4_U+30E4_U+30FC 1
 62
     7
420
 16777215
100
AcDbHatch
 10
0.0
 20
0.0
 30
0.0
210
0.0
220
0.0
230
1.0
  2
SOLID
 70
     1
 71
     0
 91
        1
 92
        1
 93
        1
 72
     4
 94
        3
 73
     0
 74
     1
 95
       53
 96
       49
 40
0.0
 40
0.0
 40
0.0
 40
0.0
 40
1.0
 40
1.0
 40
1.0
 40
2.0
 40
2.0
 40
2.0
 40
3.0
 40
3.0
 40
3.0
 40
4.0
 40
4.0
 40
4.0
 40
5.0
 40
5.0
 40
5.0
 40
6.0
 40
6.0
 40
6.0
 40
7.0
 40
7.0
 40
7.0
 40
8.0
 40
8.0
 40
8.0
 40
9.0
 40
9.0
 40
9.0
 40
10.0
 40
10.0
 40
10.0
 40
11.0
 40
11.0
 40
11.0
 40
12.0
 40
12.0
 40
12.0
 40
13.0
 40
13.0
 40
13.0
 40
14.0
 40
14.0
 40
14.0
 40
15.0
 40
15.0
 40
15.0
 40
16.0
 40
16.0
 40
16.0
 40
16.0
 10
77.57752141072716
 20
-125.3925184148324
 10
77.57752141072716
 20
-125.4707220823476
 10
77.56046818807516
 20
-125.5723523991625
 10
77.49707843114656
 20
-125.6739827159773
 10
77.38700763039283
 20
-125.8472710188854
 10
77.25592174717907
 20
-125.868630610894
 10
77.14809025849075
 20
-125.8875786360628
 10
77.14809025849075
 20
-125.8875786360628
 10
77.14809025849075
 20
-125.6653699772642
 10
77.14809025849075
 20
-125.6653699772642
 10
77.34687226798968
 20
-125.6105929590487
 10
77.37650008916282
 20
-125.483468935643
 10
77.37650008916282
 20
-125.3904513575413
 10
77.37650008916282
 20
-125.2509249903887
 10
77.27710908441337
 20
-125.0986517699406
 10
77.04439288438473
 20
-125.0986517699406
 10
76.78842228983068
 20
-125.0986517699406
 10
76.71865910625436
 20
-125.2784857542707
 10
76.71865910625436
 20
-125.3990640962544
 10
76.71865910625436
 20
-125.4307589747187
 10
76.71865910625436
 20
-125.5723523991625
 10
76.84767793217698
 20
-125.6612358626819
 10
76.84767793217698
 20
-125.6612358626819
 10
76.82855765223384
 20
-125.8369357324297
 10
76.82855765223384
 20
-125.8369357324297
 10
76.82855765223384
 20
-125.8369357324297
 10
75.98244220105647
 20
-125.7163573904459
 10
75.98244220105647
 20
-125.7163573904459
 10
75.98244220105647
 20
-125.7163573904459
 10
75.98244220105647
 20
-124.9377658107795
 10
75.98244220105647
 20
-124.9377658107795
 10
75.98244220105647
 20
-124.9377658107795
 10
76.17709009597309
 20
-124.9377658107795
 10
76.17709009597309
 20
-124.9377658107795
 10
76.17709009597309
 20
-124.9377658107795
 10
76.17709009597309
 20
-125.5534043739936
 10
76.17709009597309
 20
-125.5534043739936
 10
76.17709009597309
 20
-125.5534043739936
 10
76.60014782156178
 20
-125.6188611882133
 10
76.60014782156178
 20
-125.6188611882133
 10
76.56621363103206
 20
-125.5575384885759
 10
76.52607826862891
 20
-125.4752007064784
 10
76.52607826862891
 20
-125.3566894217858
 10
76.52607826862891
 20
-125.1027858845229
 10
76.71228567960665
 20
-124.8657633151377
 10
77.0252726044416
 20
-124.8657633151377
 10
77.34273815340737
 20
-124.8657633151377
 10
77.57752141072716
 20
-125.0900390312275
 10
77.57752141072716
 20
-125.3925184148324
 97
        0
 97
        0
 75
     2
 76
     1
 98
        0
  0
ENDBLK
  5
88
330
85
100
AcDbEntity
  8
0
100
AcDbBlockEnd
  0
BLOCK
  5
97
330
95
100
AcDbEntity
  8
0
100
AcDbBlockBegin
  2
block 6
 70
     0
 10
0.0
 20
0.0
 30
0.0
  3
block 6
  1

  0
POLYLINE
  5
99
330
95
100
AcDbEntity
  8
_U+30EC_U+30A4_U+30E4_U+30FC 1
370
     0
100
AcDb2dPolyline
 66
     1
 10
0.0
 20
0.0
 30
0.0
  0
VERTEX
  5
9A
330
99
100
AcDbEntity
  8
_U+30EC_U+30A4_U+30E4_U+30FC 1
370
     0
100
AcDbVertex
100
AcDb2dVertex
 10
76.00965845538995
 20
-141.4015326252399
 30
0.0
  0
VERTEX
  5
9B
330
99
100
AcDbEntity
  8
_U+30EC_U+30A4_U+30E4_U+30FC 1
370
     0
100
AcDbVertex
100
AcDb2dVertex
 10
76.00965845538995
 20
-141.7484537406046
 30
0.0
  0
VERTEX
  5
9C
330
99
100
AcDbEntity
  8
_U+30EC_U+30A4_U+30E4_U+30FC 1
370
     0
100
AcDbVertex
100
AcDb2dVertex
 10
75.7917561659479
 20
-141.7484537406046
 30
0.0
  0
VERTEX
  5
9D
330
99
100
AcDbEntity
  8
_U+30EC_U+30A4_U+30E4_U+30FC 1
370
     0
100
AcDbVertex
100
AcDb2dVertex
 10
75.7917561659479
 20
-141.4015326252399
 30
0.0
  0
VERTEX
  5
9E
330
99
100
AcDbEntity
  8
_U+30EC_U+30A4_U+30E4_U+30FC 1
370
     0
100
AcDbVertex
100
AcDb2dVertex
 10
75.13598224033059
 20
-141.4015326252399
 30
0.0
  0
VERTEX
  5
9F
330
99
100
AcDbEntity
  8
_U+30EC_U+30A4_U+30E4_U+30FC 1
370
     0
100
AcDbVertex
100
AcDb2dVertex
 10
75.13598224033059
 20
-141.1772569091501
 30
0.0
  0
VERTEX
  5
A0
330
99
100
AcDbEntity
  8
_U+30EC_U+30A4_U+30E4_U+30FC 1
370
     0
100
AcDbVertex
100
AcDb2dVertex
 10
75.81501056047334
 20
-140.204017434567
 30
0.0
  0
VERTEX
  5
A1
330
99
100
AcDbEntity
  8
_U+30EC_U+30A4_U+30E4_U+30FC 1
370
     0
100
AcDbVertex
100
AcDb2dVertex
 10
76.00965845538995
 20
-140.204017434567
 30
0.0
  0
VERTEX
  5
A2
330
99
100
AcDbEntity
  8
_U+30EC_U+30A4_U+30E4_U+30FC 1
370
     0
100
AcDbVertex
100
AcDb2dVertex
 10
76.00965845538995
 20
-141.202750615741
 30
0.0
  0
VERTEX
  5
A3
330
99
100
AcDbEntity
  8
_U+30EC_U+30A4_U+30E4_U+30FC 1
370
     0
100
AcDbVertex
100
AcDb2dVertex
 10
76.21705320360199
 20
-141.202750615741
 30
0.0
  0
VERTEX
  5
A4
330
99
100
AcDbEntity
  8
_U+30EC_U+30A4_U+30E4_U+30FC 1
370
     0
100
AcDbVertex
100
AcDb2dVertex
 10
76.21705320360199
 20
-141.4015326252399
 30
0.0
  0
VERTEX
  5
A5
330
99
100
AcDbEntity
  8
_U+30EC_U+30A4_U+30E4_U+30FC 1
370
     0
100
AcDbVertex
100
AcDb2dVertex
 10
76.00965845538995
 20
-141.4015326252399
 30
0.0
  0
SEQEND
  5
A6
330
99
100
AcDbEntity
  8
_U+30EC_U+30A4_U+30E4_U+30FC 1
370
     0
  0
POLYLINE
  5
A7
330
95
100
AcDbEntity
  8
_U+30EC_U+30A4_U+30E4_U+30FC 1
370
     0
100
AcDb2dPolyline
 66
     1
 10
0.0
 20
0.0
 30
0.0
  0
VERTEX
  5
A8
330
A7
100
AcDbEntity
  8
_U+30EC_U+30A4_U+30E4_U+30FC 1
370
     0
100
AcDbVertex
100
AcDb2dVertex
 10
75.7917561659479
 20
-140.5468044353494
 30
0.0
  0
VERTEX
  5
A9
330
A7
100
AcDbEntity
  8
_U+30EC_U+30A4_U+30E4_U+30FC 1
370
     0
100
AcDbVertex
100
AcDb2dVertex
 10
75.33493650460377
 20
-141.202750615741
 30
0.0
  0
VERTEX
  5
AA
330
A7
100
AcDbEntity
  8
_U+30EC_U+30A4_U+30E4_U+30FC 1
370
     0
100
AcDbVertex
100
AcDb2dVertex
 10
75.7917561659479
 20
-141.202750615741
 30
0.0
  0
VERTEX
  5
AB
330
A7
100
AcDbEntity
  8
_U+30EC_U+30A4_U+30E4_U+30FC 1
370
     0
100
AcDbVertex
100
AcDb2dVertex
 10
75.7917561659479
 20
-140.5468044353494
 30
0.0
  0
SEQEND
  5
AC
330
A7
100
AcDbEntity
  8
_U+30EC_U+30A4_U+30E4_U+30FC 1
370
     0
  0
HATCH
  5
AD
330
95
100
AcDbEntity
  8
_U+30EC_U+30A4_U+30E4_U+30FC 1
 62
     7
420
 16777215
100
AcDbHatch
 10
0.0
 20
0.0
 30
0.0
210
0.0
220
0.0
230
1.0
  2
SOLID
 70
     1
 71
     0
 91
        2
 92
        1
 93
       11
 72
     1
 10
76.00965845538995
 20
-141.4015326252399
 11
76.00965845538995
 21
-141.7484537406046
 72
     1
 10
76.00965845538995
 20
-141.7484537406046
 11
75.7917561659479
 21
-141.7484537406046
 72
     1
 10
75.7917561659479
 20
-141.7484537406046
 11
75.7917561659479
 21
-141.4015326252399
 72
     1
 10
75.7917561659479
 20
-141.4015326252399
 11
75.13598224033059
 21
-141.4015326252399
 72
     1
 10
75.13598224033059
 20
-141.4015326252399
 11
75.13598224033059
 21
-141.1772569091501
 72
     1
 10
75.13598224033059
 20
-141.1772569091501
 11
75.81501056047334
 21
-140.204017434567
 72
     1
 10
75.81501056047334
 20
-140.204017434567
 11
76.00965845538995
 21
-140.204017434567
 72
     1
 10
76.00965845538995
 20
-140.204017434567
 11
76.00965845538995
 21
-141.202750615741
 72
     1
 10
76.00965845538995
 20
-141.202750615741
 11
76.21705320360199
 21
-141.202750615741
 72
     1
 10
76.21705320360199
 20
-141.202750615741
 11
76.21705320360199
 21
-141.4015326252399
 72
     1
 10
76.21705320360199
 20
-141.4015326252399
 11
76.00965845538995
 21
-141.4015326252399
 97
        0
 92
        1
 93
        3
 72
     1
 10
75.7917561659479
 20
-140.5468044353494
 11
75.33493650460377
 21
-141.202750615741
 72
     1
 10
75.33493650460377
 20
-141.202750615741
 11
75.7917561659479
 21
-141.202750615741
 72
     1
 10
75.7917561659479
 20
-141.202750615741
 11
75.7917561659479
 21
-140.5468044353494
 97
        0
 75
     2
 76
     1
 98
        0
  0
SPLINE
  5
AE
330
95
100
AcDbEntity
  8
_U+30EC_U+30A4_U+30E4_U+30FC 1
370
     0
100
AcDbSpline
210
0.0
220
0.0
230
1.0
 70
    11
 71
     3
 72
    44
 73
    40
 74
     0
 42
0.0000000001
 43
0.0000000001
 12
1.0
 22
0.0
 32
0.0
 13
1.0
 23
0.0
 33
0.0
 40
0.0
 40
0.0
 40
0.0
 40
0.0
 40
1.0
 40
1.0
 40
1.0
 40
2.0
 40
2.0
 40
2.0
 40
3.0
 40
3.0
 40
3.0
 40
4.0
 40
4.0
 40
4.0
 40
5.0
 40
5.0
 40
5.0
 40
6.0
 40
6.0
 40
6.0
 40
7.0
 40
7.0
 40
7.0
 40
8.0
 40
8.0
 40
8.0
 40
9.0
 40
9.0
 40
9.0
 40
10.0
 40
10.0
 40
10.0
 40
11.0
 40
11.0
 40
11.0
 40
12.0
 40
12.0
 40
12.0
 40
13.0
 40
13.0
 40
13.0
 40
13.0
 10
77.36857636954674
 20
-141.7484537406046
 30
0.0
 10
77.34514972024705
 20
-141.7040120088448
 30
0.0
 10
77.32413463778703
 20
-141.6513020479205
 30
0.0
 10
77.32189532572161
 20
-141.4204806504088
 30
0.0
 10
77.31776121113931
 20
-141.1772569091501
 30
0.0
 10
77.25850556879301
 20
-141.1073214707996
 30
0.0
 10
77.08073864175412
 20
-141.1073214707996
 30
0.0
 10
77.08073864175412
 20
-141.1073214707996
 30
0.0
 10
76.67249482675201
 20
-141.1073214707996
 30
0.0
 10
76.67249482675201
 20
-141.1073214707996
 30
0.0
 10
76.67249482675201
 20
-141.1073214707996
 30
0.0
 10
76.67249482675201
 20
-141.7484537406046
 30
0.0
 10
76.67249482675201
 20
-141.7484537406046
 30
0.0
 10
76.67249482675201
 20
-141.7484537406046
 30
0.0
 10
76.43771156943224
 20
-141.7484537406046
 30
0.0
 10
76.43771156943224
 20
-141.7484537406046
 30
0.0
 10
76.43771156943224
 20
-141.7484537406046
 30
0.0
 10
76.43771156943224
 20
-140.204017434567
 30
0.0
 10
76.43771156943224
 20
-140.204017434567
 30
0.0
 10
76.43771156943224
 20
-140.204017434567
 30
0.0
 10
77.11260577499269
 20
-140.204017434567
 30
0.0
 10
77.11260577499269
 20
-140.204017434567
 30
0.0
 10
77.41921927317992
 20
-140.204017434567
 30
0.0
 10
77.58630640421454
 20
-140.3755831897325
 30
0.0
 10
77.58630640421454
 20
-140.6315537842866
 30
0.0
 10
77.58630640421454
 20
-140.6821966879197
 30
0.0
 10
77.57786592027567
 20
-140.7648789795657
 30
0.0
 10
77.53342418851595
 20
-140.8451497043721
 30
0.0
 10
77.47434080094392
 20
-140.9488470784781
 30
0.0
 10
77.40871173194991
 20
-140.9677951036469
 30
0.0
 10
77.34738903231246
 20
-140.9846760715247
 30
0.0
 10
77.48484834217393
 20
-141.0270507459933
 30
0.0
 10
77.55254446845909
 20
-141.0756265923353
 30
0.0
 10
77.55685083781565
 20
-141.3908528292356
 30
0.0
 10
77.56098495239794
 20
-141.6616373343763
 30
0.0
 10
77.59698620021881
 20
-141.6933322128406
 30
0.0
 10
77.66468232650398
 20
-141.7484537406046
 30
0.0
 10
77.66468232650398
 20
-141.7484537406046
 30
0.0
 10
77.36857636954674
 20
-141.7484537406046
 30
0.0
 10
77.36857636954674
 20
-141.7484537406046
 30
0.0
  0
SPLINE
  5
AF
330
95
100
AcDbEntity
  8
_U+30EC_U+30A4_U+30E4_U+30FC 1
370
     0
100
AcDbSpline
210
0.0
220
0.0
230
1.0
 70
    11
 71
     3
 72
    20
 73
    16
 74
     0
 42
0.0000000001
 43
0.0000000001
 12
1.0
 22
0.0
 32
0.0
 13
1.0
 23
0.0
 33
0.0
 40
0.0
 40
0.0
 40
0.0
 40
0.0
 40
1.0
 40
1.0
 40
1.0
 40
2.0
 40
2.0
 40
2.0
 40
3.0
 40
3.0
 40
3.0
 40
4.0
 40
4.0
 40
4.0
 40
5.0
 40
5.0
 40
5.0
 40
5.0
 10
77.11673988957499
 20
-140.4155462973614
 30
0.0
 10
77.11673988957499
 20
-140.4155462973614
 30
0.0
 10
76.67249482675201
 20
-140.4155462973614
 30
0.0
 10
76.67249482675201
 20
-140.4155462973614
 30
0.0
 10
76.67249482675201
 20
-140.4155462973614
 30
0.0
 10
76.67249482675201
 20
-140.8957926080052
 30
0.0
 10
76.67249482675201
 20
-140.8957926080052
 30
0.0
 10
76.67249482675201
 20
-140.8957926080052
 30
0.0
 10
77.11467283228383
 20
-140.8957926080052
 30
0.0
 10
77.11467283228383
 20
-140.8957926080052
 30
0.0
 10
77.2140638370333
 20
-140.8957926080052
 30
0.0
 10
77.3494560896036
 20
-140.8196559977812
 30
0.0
 10
77.3494560896036
 20
-140.6484347521643
 30
0.0
 10
77.3494560896036
 20
-140.5702310846491
 30
0.0
 10
77.3155218990739
 20
-140.4155462973614
 30
0.0
 10
77.11673988957499
 20
-140.4155462973614
 30
0.0
  0
HATCH
  5
B0
330
95
100
AcDbEntity
  8
_U+30EC_U+30A4_U+30E4_U+30FC 1
 62
     7
420
 16777215
100
AcDbHatch
 10
0.0
 20
0.0
 30
0.0
210
0.0
220
0.0
230
1.0
  2
SOLID
 70
     1
 71
     0
 91
        2
 92
        1
 93
        1
 72
     4
 94
        3
 73
     0
 74
     1
 95
       44
 96
       40
 40
0.0
 40
0.0
 40
0.0
 40
0.0
 40
1.0
 40
1.0
 40
1.0
 40
2.0
 40
2.0
 40
2.0
 40
3.0
 40
3.0
 40
3.0
 40
4.0
 40
4.0
 40
4.0
 40
5.0
 40
5.0
 40
5.0
 40
6.0
 40
6.0
 40
6.0
 40
7.0
 40
7.0
 40
7.0
 40
8.0
 40
8.0
 40
8.0
 40
9.0
 40
9.0
 40
9.0
 40
10.0
 40
10.0
 40
10.0
 40
11.0
 40
11.0
 40
11.0
 40
12.0
 40
12.0
 40
12.0
 40
13.0
 40
13.0
 40
13.0
 40
13.0
 10
77.36857636954674
 20
-141.7484537406046
 10
77.34514972024705
 20
-141.7040120088448
 10
77.32413463778703
 20
-141.6513020479205
 10
77.32189532572161
 20
-141.4204806504088
 10
77.31776121113931
 20
-141.1772569091501
 10
77.25850556879301
 20
-141.1073214707996
 10
77.08073864175412
 20
-141.1073214707996
 10
77.08073864175412
 20
-141.1073214707996
 10
76.67249482675201
 20
-141.1073214707996
 10
76.67249482675201
 20
-141.1073214707996
 10
76.67249482675201
 20
-141.1073214707996
 10
76.67249482675201
 20
-141.7484537406046
 10
76.67249482675201
 20
-141.7484537406046
 10
76.67249482675201
 20
-141.7484537406046
 10
76.43771156943224
 20
-141.7484537406046
 10
76.43771156943224
 20
-141.7484537406046
 10
76.43771156943224
 20
-141.7484537406046
 10
76.43771156943224
 20
-140.204017434567
 10
76.43771156943224
 20
-140.204017434567
 10
76.43771156943224
 20
-140.204017434567
 10
77.11260577499269
 20
-140.204017434567
 10
77.11260577499269
 20
-140.204017434567
 10
77.41921927317992
 20
-140.204017434567
 10
77.58630640421454
 20
-140.3755831897325
 10
77.58630640421454
 20
-140.6315537842866
 10
77.58630640421454
 20
-140.6821966879197
 10
77.57786592027567
 20
-140.7648789795657
 10
77.53342418851595
 20
-140.8451497043721
 10
77.47434080094392
 20
-140.9488470784781
 10
77.40871173194991
 20
-140.9677951036469
 10
77.34738903231246
 20
-140.9846760715247
 10
77.48484834217393
 20
-141.0270507459933
 10
77.55254446845909
 20
-141.0756265923353
 10
77.55685083781565
 20
-141.3908528292356
 10
77.56098495239794
 20
-141.6616373343763
 10
77.59698620021881
 20
-141.6933322128406
 10
77.66468232650398
 20
-141.7484537406046
 10
77.66468232650398
 20
-141.7484537406046
 10
77.36857636954674
 20
-141.7484537406046
 10
77.36857636954674
 20
-141.7484537406046
 97
        0
 97
        0
 92
        1
 93
        1
 72
     4
 94
        3
 73
     0
 74
     1
 95
       20
 96
       16
 40
0.0
 40
0.0
 40
0.0
 40
0.0
 40
1.0
 40
1.0
 40
1.0
 40
2.0
 40
2.0
 40
2.0
 40
3.0
 40
3.0
 40
3.0
 40
4.0
 40
4.0
 40
4.0
 40
5.0
 40
5.0
 40
5.0
 40
5.0
 10
77.11673988957499
 20
-140.4155462973614
 10
77.11673988957499
 20
-140.4155462973614
 10
76.67249482675201
 20
-140.4155462973614
 10
76.67249482675201
 20
-140.4155462973614
 10
76.67249482675201
 20
-140.4155462973614
 10
76.67249482675201
 20
-140.8957926080052
 10
76.67249482675201
 20
-140.8957926080052
 10
76.67249482675201
 20
-140.8957926080052
 10
77.11467283228383
 20
-140.8957926080052
 10
77.11467283228383
 20
-140.8957926080052
 10
77.2140638370333
 20
-140.8957926080052
 10
77.3494560896036
 20
-140.8196559977812
 10
77.3494560896036
 20
-140.6484347521643
 10
77.3494560896036
 20
-140.5702310846491
 10
77.3155218990739
 20
-140.4155462973614
 10
77.11673988957499
 20
-140.4155462973614
 97
        0
 97
        0
 75
     2
 76
     1
 98
        0
  0
ENDBLK
  5
98
330
95
100
AcDbEntity
  8
0
100
AcDbBlockEnd
  0
BLOCK
  5
1C5
330
1C3
100
AcDbEntity
  8
0
100
AcDbBlockBegin
  2
block 7
 70
     0
 10
0.0
 20
0.0
 30
0.0
  3
block 7
  1

  0
POLYLINE
  5
1C7
330
1C3
100
AcDbEntity
  8
_U+30EC_U+30A4_U+30E4_U+30FC 1
 62
     7
420
 16777215
370
     9
100
AcDb2dPolyline
 66
     1
 10
0.0
 20
0.0
 30
0.0
  0
VERTEX
  5
1C8
330
1C7
100
AcDbEntity
  8
_U+30EC_U+30A4_U+30E4_U+30FC 1
 62
     7
420
 16777215
370
     9
100
AcDbVertex
100
AcDb2dVertex
 10
84.13820553452115
 20
-121.4726777474097
 30
0.0
  0
VERTEX
  5
1C9
330
1C7
100
AcDbEntity
  8
_U+30EC_U+30A4_U+30E4_U+30FC 1
 62
     7
420
 16777215
370
     9
100
AcDbVertex
100
AcDb2dVertex
 10
89.66376386647293
 20
-132.2561771891583
 30
0.0
  0
SEQEND
  5
1CA
330
1C7
100
AcDbEntity
  8
_U+30EC_U+30A4_U+30E4_U+30FC 1
 62
     7
420
 16777215
370
     9
  0
POLYLINE
  5
1CB
330
1C3
100
AcDbEntity
  8
_U+30EC_U+30A4_U+30E4_U+30FC 1
 62
     7
420
 16777215
370
     9
100
AcDb2dPolyline
 66
     1
 10
0.0
 20
0.0
 30
0.0
  0
VERTEX
  5
1CC
330
1CB
100
AcDbEntity
  8
_U+30EC_U+30A4_U+30E4_U+30FC 1
 62
     7
420
 16777215
370
     9
100
AcDbVertex
100
AcDb2dVertex
 10
84.13820553452115
 20
-121.4726777474097
 30
0.0
  0
VERTEX
  5
1CD
330
1CB
100
AcDbEntity
  8
_U+30EC_U+30A4_U+30E4_U+30FC 1
 62
     7
420
 16777215
370
     9
100
AcDbVertex
100
AcDb2dVertex
 10
84.80929255855692
 20
-122.2140755250021
 30
0.0
  0
SEQEND
  5
1CE
330
1CB
100
AcDbEntity
  8
_U+30EC_U+30A4_U+30E4_U+30FC 1
 62
     7
420
 16777215
370
     9
  0
POLYLINE
  5
1CF
330
1C3
100
AcDbEntity
  8
_U+30EC_U+30A4_U+30E4_U+30FC 1
 62
     7
420
 16777215
370
     9
100
AcDb2dPolyline
 66
     1
 10
0.0
 20
0.0
 30
0.0
  0
VERTEX
  5
1D0
330
1CF
100
AcDbEntity
  8
_U+30EC_U+30A4_U+30E4_U+30FC 1
 62
     7
420
 16777215
370
     9
100
AcDbVertex
100
AcDb2dVertex
 10
84.13820553452115
 20
-121.4726777474097
 30
0.0
  0
VERTEX
  5
1D1
330
1CF
100
AcDbEntity
  8
_U+30EC_U+30A4_U+30E4_U+30FC 1
 62
     7
420
 16777215
370
     9
100
AcDbVertex
100
AcDb2dVertex
 10
84.34867062586392
 20
-122.4504013582764
 30
0.0
  0
SEQEND
  5
1D2
330
1CF
100
AcDbEntity
  8
_U+30EC_U+30A4_U+30E4_U+30FC 1
 62
     7
420
 16777215
370
     9
  0
ENDBLK
  5
1C6
330
1C3
100
AcDbEntity
  8
0
100
AcDbBlockEnd
  0
BLOCK
  5
1D5
330
1D3
100
AcDbEntity
  8
0
100
AcDbBlockBegin
  2
block 8
 70
     0
 10
0.0
 20
0.0
 30
0.0
  3
block 8
  1

  0
SPLINE
  5
1D7
330
1D3
100
AcDbEntity
  8
_U+30EC_U+30A4_U+30E4_U+30FC 1
370
     0
100
AcDbSpline
210
0.0
220
0.0
230
1.0
 70
    11
 71
     3
 72
   242
 73
   238
 74
     0
 42
0.0000000001
 43
0.0000000001
 12
1.0
 22
0.0
 32
0.0
 13
1.0
 23
0.0
 33
0.0
 40
0.0
 40
0.0
 40
0.0
 40
0.0
 40
1.0
 40
1.0
 40
1.0
 40
2.0
 40
2.0
 40
2.0
 40
3.0
 40
3.0
 40
3.0
 40
4.0
 40
4.0
 40
4.0
 40
5.0
 40
5.0
 40
5.0
 40
6.0
 40
6.0
 40
6.0
 40
7.0
 40
7.0
 40
7.0
 40
8.0
 40
8.0
 40
8.0
 40
9.0
 40
9.0
 40
9.0
 40
10.0
 40
10.0
 40
10.0
 40
11.0
 40
11.0
 40
11.0
 40
12.0
 40
12.0
 40
12.0
 40
13.0
 40
13.0
 40
13.0
 40
14.0
 40
14.0
 40
14.0
 40
15.0
 40
15.0
 40
15.0
 40
16.0
 40
16.0
 40
16.0
 40
17.0
 40
17.0
 40
17.0
 40
18.0
 40
18.0
 40
18.0
 40
19.0
 40
19.0
 40
19.0
 40
20.0
 40
20.0
 40
20.0
 40
21.0
 40
21.0
 40
21.0
 40
22.0
 40
22.0
 40
22.0
 40
23.0
 40
23.0
 40
23.0
 40
24.0
 40
24.0
 40
24.0
 40
25.0
 40
25.0
 40
25.0
 40
26.0
 40
26.0
 40
26.0
 40
27.0
 40
27.0
 40
27.0
 40
28.0
 40
28.0
 40
28.0
 40
29.0
 40
29.0
 40
29.0
 40
30.0
 40
30.0
 40
30.0
 40
31.0
 40
31.0
 40
31.0
 40
32.0
 40
32.0
 40
32.0
 40
33.0
 40
33.0
 40
33.0
 40
34.0
 40
34.0
 40
34.0
 40
35.0
 40
35.0
 40
35.0
 40
36.0
 40
36.0
 40
36.0
 40
37.0
 40
37.0
 40
37.0
 40
38.0
 40
38.0
 40
38.0
 40
39.0
 40
39.0
 40
39.0
 40
40.0
 40
40.0
 40
40.0
 40
41.0
 40
41.0
 40
41.0
 40
42.0
 40
42.0
 40
42.0
 40
43.0
 40
43.0
 40
43.0
 40
44.0
 40
44.0
 40
44.0
 40
45.0
 40
45.0
 40
45.0
 40
46.0
 40
46.0
 40
46.0
 40
47.0
 40
47.0
 40
47.0
 40
48.0
 40
48.0
 40
48.0
 40
49.0
 40
49.0
 40
49.0
 40
50.0
 40
50.0
 40
50.0
 40
51.0
 40
51.0
 40
51.0
 40
52.0
 40
52.0
 40
52.0
 40
53.0
 40
53.0
 40
53.0
 40
54.0
 40
54.0
 40
54.0
 40
55.0
 40
55.0
 40
55.0
 40
56.0
 40
56.0
 40
56.0
 40
57.0
 40
57.0
 40
57.0
 40
58.0
 40
58.0
 40
58.0
 40
59.0
 40
59.0
 40
59.0
 40
60.0
 40
60.0
 40
60.0
 40
61.0
 40
61.0
 40
61.0
 40
62.0
 40
62.0
 40
62.0
 40
63.0
 40
63.0
 40
63.0
 40
64.0
 40
64.0
 40
64.0
 40
65.0
 40
65.0
 40
65.0
 40
66.0
 40
66.0
 40
66.0
 40
67.0
 40
67.0
 40
67.0
 40
68.0
 40
68.0
 40
68.0
 40
69.0
 40
69.0
 40
69.0
 40
70.0
 40
70.0
 40
70.0
 40
71.0
 40
71.0
 40
71.0
 40
72.0
 40
72.0
 40
72.0
 40
73.0
 40
73.0
 40
73.0
 40
74.0
 40
74.0
 40
74.0
 40
75.0
 40
75.0
 40
75.0
 40
76.0
 40
76.0
 40
76.0
 40
77.0
 40
77.0
 40
77.0
 40
78.0
 40
78.0
 40
78.0
 40
79.0
 40
79.0
 40
79.0
 40
79.0
 10
87.49853513437537
 20
-133.3782497496416
 30
0.0
 10
87.49853513437537
 20
-133.3782497496416
 30
0.0
 10
87.24463159711246
 20
-133.3782497496416
 30
0.0
 10
87.24463159711246
 20
-133.3782497496416
 30
0.0
 10
87.24463159711246
 20
-133.3782497496416
 30
0.0
 10
86.96764592009838
 20
-133.3782497496416
 30
0.0
 10
86.96764592009838
 20
-133.3782497496416
 30
0.0
 10
86.96764592009838
 20
-133.3782497496416
 30
0.0
 10
87.09442543395556
 20
-133.4202799145616
 30
0.0
 10
87.09442543395556
 20
-133.4202799145616
 30
0.0
 10
87.10510522995983
 20
-133.4247585386924
 30
0.0
 10
87.11750757370673
 20
-133.4309597105659
 30
0.0
 10
87.11750757370673
 20
-133.4437065638613
 30
0.0
 10
87.11750757370673
 20
-133.4650661558699
 30
0.0
 10
87.08581269524244
 20
-133.4712673277433
 30
0.0
 10
87.06479761278241
 20
-133.4754014423256
 30
0.0
 10
87.05411781677815
 20
-133.4988280916253
 30
0.0
 10
87.024489995605
 20
-133.5642849058451
 30
0.0
 10
87.00554197043611
 20
-133.6087266376048
 30
0.0
 10
87.00554197043611
 20
-133.6087266376048
 30
0.0
 10
87.27632647557675
 20
-133.6087266376048
 30
0.0
 10
87.27632647557675
 20
-133.6087266376048
 30
0.0
 10
87.36727699638735
 20
-133.6087266376048
 30
0.0
 10
87.56399194859512
 20
-133.6042480134739
 30
0.0
 10
87.70592988258741
 20
-133.5959797843093
 30
0.0
 10
87.70592988258741
 20
-133.5959797843093
 30
0.0
 10
87.70592988258741
 20
-133.7737467113482
 30
0.0
 10
87.70592988258741
 20
-133.7737467113482
 30
0.0
 10
87.62324759094142
 20
-133.7696125967659
 30
0.0
 10
87.60223250848139
 20
-133.7696125967659
 30
0.0
 10
87.42239852415135
 20
-133.7654784821836
 30
0.0
 10
87.39070364568705
 20
-133.9198187599228
 30
0.0
 10
87.34626191392732
 20
-134.0000894847292
 30
0.0
 10
87.3018201821676
 20
-134.0700249230797
 30
0.0
 10
87.42239852415135
 20
-134.129280565426
 30
0.0
 10
87.52816295554852
 20
-134.1968044369369
 30
0.0
 10
87.63186032965454
 20
-134.2794867285829
 30
0.0
 10
87.63186032965454
 20
-134.2794867285829
 30
0.0
 10
87.51334904496194
 20
-134.446229350069
 30
0.0
 10
87.51334904496194
 20
-134.446229350069
 30
0.0
 10
87.48992239566225
 20
-134.4276258344487
 30
0.0
 10
87.47717554236682
 20
-134.4190130957355
 30
0.0
 10
87.3652099390962
 20
-134.3342637467984
 30
0.0
 10
87.31663409275419
 20
-134.2960231869121
 30
0.0
 10
87.25737845040788
 20
-134.2601941938655
 30
0.0
 10
87.17676321605303
 20
-134.2160969716543
 30
0.0
 10
86.9652343532587
 20
-134.4021321278578
 30
0.0
 10
86.76025117188632
 20
-134.4255587771575
 30
0.0
 10
86.47017413202829
 20
-134.4551865983306
 30
0.0
 10
86.47017413202829
 20
-134.4551865983306
 30
0.0
 10
86.3668212674708
 20
-134.2753526140006
 30
0.0
 10
86.3668212674708
 20
-134.2753526140006
 30
0.0
 10
86.68411456166231
 20
-134.2708739898698
 30
0.0
 10
86.85946992186153
 20
-134.2457247928275
 30
0.0
 10
87.01174314230957
 20
-134.1354817372995
 30
0.0
 10
86.8935763671655
 20
-134.0844943241178
 30
0.0
 10
86.80469290364606
 20
-134.0572780697843
 30
0.0
 10
86.76851940105092
 20
-134.0445312164889
 30
0.0
 10
86.74957137588206
 20
-134.0720919803709
 30
0.0
 10
86.73475746529549
 20
-134.0910400055398
 30
0.0
 10
86.70719670141348
 20
-134.1251464508437
 30
0.0
 10
86.70719670141348
 20
-134.1251464508437
 30
0.0
 10
86.51048174920572
 20
-134.0424641591977
 30
0.0
 10
86.51048174920572
 20
-134.0424641591977
 30
0.0
 10
86.59316404085172
 20
-133.9618489248429
 30
0.0
 10
86.65448674048916
 20
-133.86676428945
 30
0.0
 10
86.7116753255443
 20
-133.7654784821836
 30
0.0
 10
86.52116154520999
 20
-133.7696125967659
 30
0.0
 10
86.49980195320144
 20
-133.7696125967659
 30
0.0
 10
86.41746417110397
 20
-133.7737467113482
 30
0.0
 10
86.41746417110397
 20
-133.7737467113482
 30
0.0
 10
86.41746417110397
 20
-133.5959797843093
 30
0.0
 10
86.41746417110397
 20
-133.5959797843093
 30
0.0
 10
86.55699053825658
 20
-133.6021809561828
 30
0.0
 10
86.76645234375978
 20
-133.6066595803136
 30
0.0
 10
86.79194605035063
 20
-133.6066595803136
 30
0.0
 10
86.80882701822836
 20
-133.5725531350097
 30
0.0
 10
86.86394854599234
 20
-133.4519747930259
 30
0.0
 10
86.88289657116123
 20
-133.3782497496416
 30
0.0
 10
86.86394854599234
 20
-133.3782497496416
 30
0.0
 10
86.68618161895346
 20
-133.384450921515
 30
0.0
 10
86.49153372403684
 20
-133.3971977748104
 30
0.0
 10
86.49153372403684
 20
-133.3971977748104
 30
0.0
 10
86.49153372403684
 20
-133.5305229700896
 30
0.0
 10
86.49153372403684
 20
-133.5305229700896
 30
0.0
 10
86.44295787769482
 20
-133.5560166766805
 30
0.0
 10
86.38370223534852
 20
-133.5877115551448
 30
0.0
 10
86.25037704006935
 20
-133.6531683693645
 30
0.0
 10
86.25037704006935
 20
-133.6531683693645
 30
0.0
 10
86.25037704006935
 20
-133.7992404179391
 30
0.0
 10
86.25037704006935
 20
-133.7992404179391
 30
0.0
 10
86.25037704006935
 20
-133.7992404179391
 30
0.0
 10
86.25037704006935
 20
-134.2667398752875
 30
0.0
 10
86.25037704006935
 20
-134.2667398752875
 30
0.0
 10
86.25037704006935
 20
-134.3935193891447
 30
0.0
 10
86.21420353747423
 20
-134.452775031491
 30
0.0
 10
85.9310166885867
 20
-134.4441622927779
 30
0.0
 10
85.9310166885867
 20
-134.4441622927779
 30
0.0
 10
85.82731931448068
 20
-134.2371120541143
 30
0.0
 10
85.82731931448068
 20
-134.2371120541143
 30
0.0
 10
85.89070907140928
 20
-134.2498589074098
 30
0.0
 10
85.9392849177513
 20
-134.2539930219921
 30
0.0
 10
85.97959253492871
 20
-134.2539930219921
 30
0.0
 10
86.05572914515274
 20
-134.2539930219921
 30
0.0
 10
86.06640894115701
 20
-134.2305663726924
 30
0.0
 10
86.06640894115701
 20
-134.1651095584726
 30
0.0
 10
86.06640894115701
 20
-134.1651095584726
 30
0.0
 10
86.06640894115701
 20
-133.7358506610105
 30
0.0
 10
86.06640894115701
 20
-133.7358506610105
 30
0.0
 10
85.96891273892444
 20
-133.7758137686394
 30
0.0
 10
85.95203177104672
 20
-133.7820149405128
 30
0.0
 10
85.90552298199584
 20
-133.8013074752302
 30
0.0
 10
85.90138886741354
 20
-133.8223225576903
 30
0.0
 10
85.89691024328272
 20
-133.8519503788634
 30
0.0
 10
85.87796221811385
 20
-133.8519503788634
 30
0.0
 10
85.86969398894925
 20
-133.8519503788634
 30
0.0
 10
85.85901419294497
 20
-133.8478162642811
 30
0.0
 10
85.852468511523
 20
-133.8247341245299
 30
0.0
 10
85.852468511523
 20
-133.8247341245299
 30
0.0
 10
85.79975855059868
 20
-133.631808777356
 30
0.0
 10
85.79975855059868
 20
-133.631808777356
 30
0.0
 10
85.94583059917326
 20
-133.5856444978536
 30
0.0
 10
86.01128741339302
 20
-133.5622178485539
 30
0.0
 10
86.06640894115701
 20
-133.5408582565453
 30
0.0
 10
86.06640894115701
 20
-133.5408582565453
 30
0.0
 10
86.06640894115701
 20
-133.128480326961
 30
0.0
 10
86.06640894115701
 20
-133.128480326961
 30
0.0
 10
86.06640894115701
 20
-133.128480326961
 30
0.0
 10
86.01335447068416
 20
-133.128480326961
 30
0.0
 10
86.01335447068416
 20
-133.128480326961
 30
0.0
 10
86.01335447068416
 20
-133.128480326961
 30
0.0
 10
85.935150803169
 20
-133.128480326961
 30
0.0
 10
85.935150803169
 20
-133.128480326961
 30
0.0
 10
85.86728242210957
 20
-133.128480326961
 30
0.0
 10
85.85901419294497
 20
-133.128480326961
 30
0.0
 10
85.82284069034985
 20
-133.1350260083829
 30
0.0
 10
85.82284069034985
 20
-133.1350260083829
 30
0.0
 10
85.82284069034985
 20
-132.9400336039178
 30
0.0
 10
85.82284069034985
 20
-132.9400336039178
 30
0.0
 10
85.85040145423184
 20
-132.9465792853397
 30
0.0
 10
85.85901419294497
 20
-132.9465792853397
 30
0.0
 10
85.92860512174703
 20
-132.9465792853397
 30
0.0
 10
85.92860512174703
 20
-132.9465792853397
 30
0.0
 10
86.06193031702618
 20
-132.9465792853397
 30
0.0
 10
86.06193031702618
 20
-132.9465792853397
 30
0.0
 10
86.06193031702618
 20
-132.8766438469892
 30
0.0
 10
86.06193031702618
 20
-132.7943060648917
 30
0.0
 10
86.05986325973504
 20
-132.7898274407609
 30
0.0
 10
86.05159503057044
 20
-132.6099934564308
 30
0.0
 10
86.05159503057044
 20
-132.5913899408105
 30
0.0
 10
86.04918346373077
 20
-132.5445366422111
 30
0.0
 10
86.04918346373077
 20
-132.5445366422111
 30
0.0
 10
86.26519095065593
 20
-132.5531493809242
 30
0.0
 10
86.26519095065593
 20
-132.5531493809242
 30
0.0
 10
86.2758707466602
 20
-132.5531493809242
 30
0.0
 10
86.29688582912023
 20
-132.5552164382154
 30
0.0
 10
86.29688582912023
 20
-132.5720974060931
 30
0.0
 10
86.29688582912023
 20
-132.5913899408105
 30
0.0
 10
86.28207191853365
 20
-132.6017252272662
 30
0.0
 10
86.25657821194281
 20
-132.6210177619836
 30
0.0
 10
86.25657821194281
 20
-132.6713161560683
 30
0.0
 10
86.25037704006935
 20
-132.9000704962889
 30
0.0
 10
86.25244409736051
 20
-132.9465792853397
 30
0.0
 10
86.38163517805738
 20
-132.9465792853397
 30
0.0
 10
86.39403752180428
 20
-132.9465792853397
 30
0.0
 10
86.49153372403684
 20
-132.9379665466266
 30
0.0
 10
86.49153372403684
 20
-132.9379665466266
 30
0.0
 10
86.49153372403684
 20
-133.1329589510918
 30
0.0
 10
86.49153372403684
 20
-133.1329589510918
 30
0.0
 10
86.45329316415057
 20
-133.1305473842521
 30
0.0
 10
86.38576929263968
 20
-133.1264132696698
 30
0.0
 10
86.25037704006935
 20
-133.128480326961
 30
0.0
 10
86.25037704006935
 20
-133.128480326961
 30
0.0
 10
86.25037704006935
 20
-133.467133213161
 30
0.0
 10
86.25037704006935
 20
-133.467133213161
 30
0.0
 10
86.30515405828483
 20
-133.4437065638613
 30
0.0
 10
86.3709553820531
 20
-133.4161457999793
 30
0.0
 10
86.41953122839512
 20
-133.3927191506796
 30
0.0
 10
86.41953122839512
 20
-133.3927191506796
 30
0.0
 10
86.41953122839512
 20
-133.2152967331892
 30
0.0
 10
86.41953122839512
 20
-133.2152967331892
 30
0.0
 10
86.53390839850542
 20
-133.2280435864847
 30
0.0
 10
86.652419683198
 20
-133.2280435864847
 30
0.0
 10
86.76851940105092
 20
-133.2280435864847
 30
0.0
 10
86.74543726129976
 20
-133.1329589510918
 30
0.0
 10
86.71787649741776
 20
-133.0502766594458
 30
0.0
 10
86.65448674048916
 20
-132.9169514641666
 30
0.0
 10
86.61004500872944
 20
-132.9190185214578
 30
0.0
 10
86.52736271708343
 20
-132.9234971455886
 30
0.0
 10
86.4894666667457
 20
-132.9255642028797
 30
0.0
 10
86.4894666667457
 20
-132.9255642028797
 30
0.0
 10
86.4894666667457
 20
-132.7457302185497
 30
0.0
 10
86.4894666667457
 20
-132.7457302185497
 30
0.0
 10
86.61417912331174
 20
-132.7539984477143
 30
0.0
 10
86.78781193576833
 20
-132.7581325622966
 30
0.0
 10
86.8701497178658
 20
-132.7581325622966
 30
0.0
 10
86.8701497178658
 20
-132.7581325622966
 30
0.0
 10
86.9528320095118
 20
-132.7581325622966
 30
0.0
 10
86.9528320095118
 20
-132.7581325622966
 30
0.0
 10
86.9528320095118
 20
-132.5955240553928
 30
0.0
 10
86.9528320095118
 20
-132.5848442593885
 30
0.0
 10
86.95042044267213
 20
-132.530067241173
 30
0.0
 10
86.95042044267213
 20
-132.530067241173
 30
0.0
 10
87.17469615876189
 20
-132.5552164382154
 30
0.0
 10
87.17469615876189
 20
-132.5552164382154
 30
0.0
 10
87.17917478289272
 20
-132.5552164382154
 30
0.0
 10
87.20018986535274
 20
-132.5572834955065
 30
0.0
 10
87.20018986535274
 20
-132.5741644633842
 30
0.0
 10
87.20018986535274
 20
-132.5889783739708
 30
0.0
 10
87.18951006934846
 20
-132.5975911126839
 30
0.0
 10
87.16194930546646
 20
-132.6124050232705
 30
0.0
 10
87.15574813359301
 20
-132.6778618374903
 30
0.0
 10
87.15368107630187
 20
-132.6988769199503
 30
0.0
 10
87.15368107630187
 20
-132.7581325622966
 30
0.0
 10
87.15368107630187
 20
-132.7581325622966
 30
0.0
 10
87.24876571169476
 20
-132.7581325622966
 30
0.0
 10
87.24876571169476
 20
-132.7581325622966
 30
0.0
 10
87.33144800334075
 20
-132.7581325622966
 30
0.0
 10
87.50473630624882
 20
-132.7539984477143
 30
0.0
 10
87.62979327236339
 20
-132.7457302185497
 30
0.0
 10
87.62979327236339
 20
-132.7457302185497
 30
0.0
 10
87.62979327236339
 20
-132.9255642028797
 30
0.0
 10
87.62979327236339
 20
-132.9255642028797
 30
0.0
 10
87.60016545119024
 20
-132.9234971455886
 30
0.0
 10
87.48165416649765
 20
-132.9190185214578
 30
0.0
 10
87.44134654932023
 20
-132.9169514641666
 30
0.0
 10
87.42653263873365
 20
-132.9675943677998
 30
0.0
 10
87.3927707029782
 20
-133.0799044806189
 30
0.0
 10
87.32696937920993
 20
-133.2194308477715
 30
0.0
 10
87.3693440536785
 20
-133.2194308477715
 30
0.0
 10
87.64667424024111
 20
-133.2004828226027
 30
0.0
 10
87.70799693987856
 20
-133.1984157653115
 30
0.0
 10
87.70799693987856
 20
-133.1984157653115
 30
0.0
 10
87.70799693987856
 20
-133.3823838642239
 30
0.0
 10
87.70799693987856
 20
-133.3823838642239
 30
0.0
 10
87.67836911870542
 20
-133.3823838642239
 30
0.0
 10
87.6614881508277
 20
-133.3782497496416
 30
0.0
 10
87.49853513437537
 20
-133.3782497496416
 30
0.0
  0
SPLINE
  5
1D8
330
1D3
100
AcDbEntity
  8
_U+30EC_U+30A4_U+30E4_U+30FC 1
370
     0
100
AcDbSpline
210
0.0
220
0.0
230
1.0
 70
    11
 71
     3
 72
    20
 73
    16
 74
     0
 42
0.0000000001
 43
0.0000000001
 12
1.0
 22
0.0
 32
0.0
 13
1.0
 23
0.0
 33
0.0
 40
0.0
 40
0.0
 40
0.0
 40
0.0
 40
1.0
 40
1.0
 40
1.0
 40
2.0
 40
2.0
 40
2.0
 40
3.0
 40
3.0
 40
3.0
 40
4.0
 40
4.0
 40
4.0
 40
5.0
 40
5.0
 40
5.0
 40
5.0
 10
86.8701497178658
 20
-132.9128173495843
 30
0.0
 10
86.8701497178658
 20
-132.9128173495843
 30
0.0
 10
86.8384548394015
 20
-132.9128173495843
 30
0.0
 10
86.8384548394015
 20
-132.9128173495843
 30
0.0
 10
86.88496362845237
 20
-133.012380609108
 30
0.0
 10
86.91665850691668
 20
-133.0923068243658
 30
0.0
 10
86.95042044267213
 20
-133.2194308477715
 30
0.0
 10
86.95042044267213
 20
-133.2194308477715
 30
0.0
 10
87.15781519088416
 20
-133.2194308477715
 30
0.0
 10
87.15781519088416
 20
-133.2194308477715
 30
0.0
 10
87.18951006934846
 20
-133.1264132696698
 30
0.0
 10
87.21293671864815
 20
-133.0420084302812
 30
0.0
 10
87.23601885839933
 20
-132.9128173495843
 30
0.0
 10
87.23601885839933
 20
-132.9128173495843
 30
0.0
 10
86.8701497178658
 20
-132.9128173495843
 30
0.0
 10
86.8701497178658
 20
-132.9128173495843
 30
0.0
  0
SPLINE
  5
1D9
330
1D3
100
AcDbEntity
  8
_U+30EC_U+30A4_U+30E4_U+30FC 1
370
     0
100
AcDbSpline
210
0.0
220
0.0
230
1.0
 70
    11
 71
     3
 72
    17
 73
    13
 74
     0
 42
0.0000000001
 43
0.0000000001
 12
1.0
 22
0.0
 32
0.0
 13
1.0
 23
0.0
 33
0.0
 40
0.0
 40
0.0
 40
0.0
 40
0.0
 40
1.0
 40
1.0
 40
1.0
 40
2.0
 40
2.0
 40
2.0
 40
3.0
 40
3.0
 40
3.0
 40
4.0
 40
4.0
 40
4.0
 40
4.0
 10
86.9335394747944
 20
-133.7634114248925
 30
0.0
 10
86.91665850691668
 20
-133.7926947365171
 30
0.0
 10
86.8660156032835
 20
-133.8860568241674
 30
0.0
 10
86.85533580727923
 20
-133.9046603397877
 30
0.0
 10
87.04584958761355
 20
-133.963915982134
 30
0.0
 10
87.06686467007357
 20
-133.970461663556
 30
0.0
 10
87.13886716571528
 20
-133.998022427438
 30
0.0
 10
87.19398869347928
 20
-133.9112060212097
 30
0.0
 10
87.21707083323045
 20
-133.8371364682768
 30
0.0
 10
87.23188474381703
 20
-133.7634114248925
 30
0.0
 10
87.23188474381703
 20
-133.7634114248925
 30
0.0
 10
86.9335394747944
 20
-133.7634114248925
 30
0.0
 10
86.9335394747944
 20
-133.7634114248925
 30
0.0
  0
HATCH
  5
1DA
330
1D3
100
AcDbEntity
  8
_U+30EC_U+30A4_U+30E4_U+30FC 1
 62
     7
420
 16777215
100
AcDbHatch
 10
0.0
 20
0.0
 30
0.0
210
0.0
220
0.0
230
1.0
  2
SOLID
 70
     1
 71
     0
 91
        3
 92
        1
 93
        1
 72
     4
 94
        3
 73
     0
 74
     1
 95
      242
 96
      238
 40
0.0
 40
0.0
 40
0.0
 40
0.0
 40
1.0
 40
1.0
 40
1.0
 40
2.0
 40
2.0
 40
2.0
 40
3.0
 40
3.0
 40
3.0
 40
4.0
 40
4.0
 40
4.0
 40
5.0
 40
5.0
 40
5.0
 40
6.0
 40
6.0
 40
6.0
 40
7.0
 40
7.0
 40
7.0
 40
8.0
 40
8.0
 40
8.0
 40
9.0
 40
9.0
 40
9.0
 40
10.0
 40
10.0
 40
10.0
 40
11.0
 40
11.0
 40
11.0
 40
12.0
 40
12.0
 40
12.0
 40
13.0
 40
13.0
 40
13.0
 40
14.0
 40
14.0
 40
14.0
 40
15.0
 40
15.0
 40
15.0
 40
16.0
 40
16.0
 40
16.0
 40
17.0
 40
17.0
 40
17.0
 40
18.0
 40
18.0
 40
18.0
 40
19.0
 40
19.0
 40
19.0
 40
20.0
 40
20.0
 40
20.0
 40
21.0
 40
21.0
 40
21.0
 40
22.0
 40
22.0
 40
22.0
 40
23.0
 40
23.0
 40
23.0
 40
24.0
 40
24.0
 40
24.0
 40
25.0
 40
25.0
 40
25.0
 40
26.0
 40
26.0
 40
26.0
 40
27.0
 40
27.0
 40
27.0
 40
28.0
 40
28.0
 40
28.0
 40
29.0
 40
29.0
 40
29.0
 40
30.0
 40
30.0
 40
30.0
 40
31.0
 40
31.0
 40
31.0
 40
32.0
 40
32.0
 40
32.0
 40
33.0
 40
33.0
 40
33.0
 40
34.0
 40
34.0
 40
34.0
 40
35.0
 40
35.0
 40
35.0
 40
36.0
 40
36.0
 40
36.0
 40
37.0
 40
37.0
 40
37.0
 40
38.0
 40
38.0
 40
38.0
 40
39.0
 40
39.0
 40
39.0
 40
40.0
 40
40.0
 40
40.0
 40
41.0
 40
41.0
 40
41.0
 40
42.0
 40
42.0
 40
42.0
 40
43.0
 40
43.0
 40
43.0
 40
44.0
 40
44.0
 40
44.0
 40
45.0
 40
45.0
 40
45.0
 40
46.0
 40
46.0
 40
46.0
 40
47.0
 40
47.0
 40
47.0
 40
48.0
 40
48.0
 40
48.0
 40
49.0
 40
49.0
 40
49.0
 40
50.0
 40
50.0
 40
50.0
 40
51.0
 40
51.0
 40
51.0
 40
52.0
 40
52.0
 40
52.0
 40
53.0
 40
53.0
 40
53.0
 40
54.0
 40
54.0
 40
54.0
 40
55.0
 40
55.0
 40
55.0
 40
56.0
 40
56.0
 40
56.0
 40
57.0
 40
57.0
 40
57.0
 40
58.0
 40
58.0
 40
58.0
 40
59.0
 40
59.0
 40
59.0
 40
60.0
 40
60.0
 40
60.0
 40
61.0
 40
61.0
 40
61.0
 40
62.0
 40
62.0
 40
62.0
 40
63.0
 40
63.0
 40
63.0
 40
64.0
 40
64.0
 40
64.0
 40
65.0
 40
65.0
 40
65.0
 40
66.0
 40
66.0
 40
66.0
 40
67.0
 40
67.0
 40
67.0
 40
68.0
 40
68.0
 40
68.0
 40
69.0
 40
69.0
 40
69.0
 40
70.0
 40
70.0
 40
70.0
 40
71.0
 40
71.0
 40
71.0
 40
72.0
 40
72.0
 40
72.0
 40
73.0
 40
73.0
 40
73.0
 40
74.0
 40
74.0
 40
74.0
 40
75.0
 40
75.0
 40
75.0
 40
76.0
 40
76.0
 40
76.0
 40
77.0
 40
77.0
 40
77.0
 40
78.0
 40
78.0
 40
78.0
 40
79.0
 40
79.0
 40
79.0
 40
79.0
 10
87.49853513437537
 20
-133.3782497496416
 10
87.49853513437537
 20
-133.3782497496416
 10
87.24463159711246
 20
-133.3782497496416
 10
87.24463159711246
 20
-133.3782497496416
 10
87.24463159711246
 20
-133.3782497496416
 10
86.96764592009838
 20
-133.3782497496416
 10
86.96764592009838
 20
-133.3782497496416
 10
86.96764592009838
 20
-133.3782497496416
 10
87.09442543395556
 20
-133.4202799145616
 10
87.09442543395556
 20
-133.4202799145616
 10
87.10510522995983
 20
-133.4247585386924
 10
87.11750757370673
 20
-133.4309597105659
 10
87.11750757370673
 20
-133.4437065638613
 10
87.11750757370673
 20
-133.4650661558699
 10
87.08581269524244
 20
-133.4712673277433
 10
87.06479761278241
 20
-133.4754014423256
 10
87.05411781677815
 20
-133.4988280916253
 10
87.024489995605
 20
-133.5642849058451
 10
87.00554197043611
 20
-133.6087266376048
 10
87.00554197043611
 20
-133.6087266376048
 10
87.27632647557675
 20
-133.6087266376048
 10
87.27632647557675
 20
-133.6087266376048
 10
87.36727699638735
 20
-133.6087266376048
 10
87.56399194859512
 20
-133.6042480134739
 10
87.70592988258741
 20
-133.5959797843093
 10
87.70592988258741
 20
-133.5959797843093
 10
87.70592988258741
 20
-133.7737467113482
 10
87.70592988258741
 20
-133.7737467113482
 10
87.62324759094142
 20
-133.7696125967659
 10
87.60223250848139
 20
-133.7696125967659
 10
87.42239852415135
 20
-133.7654784821836
 10
87.39070364568705
 20
-133.9198187599228
 10
87.34626191392732
 20
-134.0000894847292
 10
87.3018201821676
 20
-134.0700249230797
 10
87.42239852415135
 20
-134.129280565426
 10
87.52816295554852
 20
-134.1968044369369
 10
87.63186032965454
 20
-134.2794867285829
 10
87.63186032965454
 20
-134.2794867285829
 10
87.51334904496194
 20
-134.446229350069
 10
87.51334904496194
 20
-134.446229350069
 10
87.48992239566225
 20
-134.4276258344487
 10
87.47717554236682
 20
-134.4190130957355
 10
87.3652099390962
 20
-134.3342637467984
 10
87.31663409275419
 20
-134.2960231869121
 10
87.25737845040788
 20
-134.2601941938655
 10
87.17676321605303
 20
-134.2160969716543
 10
86.9652343532587
 20
-134.4021321278578
 10
86.76025117188632
 20
-134.4255587771575
 10
86.47017413202829
 20
-134.4551865983306
 10
86.47017413202829
 20
-134.4551865983306
 10
86.3668212674708
 20
-134.2753526140006
 10
86.3668212674708
 20
-134.2753526140006
 10
86.68411456166231
 20
-134.2708739898698
 10
86.85946992186153
 20
-134.2457247928275
 10
87.01174314230957
 20
-134.1354817372995
 10
86.8935763671655
 20
-134.0844943241178
 10
86.80469290364606
 20
-134.0572780697843
 10
86.76851940105092
 20
-134.0445312164889
 10
86.74957137588206
 20
-134.0720919803709
 10
86.73475746529549
 20
-134.0910400055398
 10
86.70719670141348
 20
-134.1251464508437
 10
86.70719670141348
 20
-134.1251464508437
 10
86.51048174920572
 20
-134.0424641591977
 10
86.51048174920572
 20
-134.0424641591977
 10
86.59316404085172
 20
-133.9618489248429
 10
86.65448674048916
 20
-133.86676428945
 10
86.7116753255443
 20
-133.7654784821836
 10
86.52116154520999
 20
-133.7696125967659
 10
86.49980195320144
 20
-133.7696125967659
 10
86.41746417110397
 20
-133.7737467113482
 10
86.41746417110397
 20
-133.7737467113482
 10
86.41746417110397
 20
-133.5959797843093
 10
86.41746417110397
 20
-133.5959797843093
 10
86.55699053825658
 20
-133.6021809561828
 10
86.76645234375978
 20
-133.6066595803136
 10
86.79194605035063
 20
-133.6066595803136
 10
86.80882701822836
 20
-133.5725531350097
 10
86.86394854599234
 20
-133.4519747930259
 10
86.88289657116123
 20
-133.3782497496416
 10
86.86394854599234
 20
-133.3782497496416
 10
86.68618161895346
 20
-133.384450921515
 10
86.49153372403684
 20
-133.3971977748104
 10
86.49153372403684
 20
-133.3971977748104
 10
86.49153372403684
 20
-133.5305229700896
 10
86.49153372403684
 20
-133.5305229700896
 10
86.44295787769482
 20
-133.5560166766805
 10
86.38370223534852
 20
-133.5877115551448
 10
86.25037704006935
 20
-133.6531683693645
 10
86.25037704006935
 20
-133.6531683693645
 10
86.25037704006935
 20
-133.7992404179391
 10
86.25037704006935
 20
-133.7992404179391
 10
86.25037704006935
 20
-133.7992404179391
 10
86.25037704006935
 20
-134.2667398752875
 10
86.25037704006935
 20
-134.2667398752875
 10
86.25037704006935
 20
-134.3935193891447
 10
86.21420353747423
 20
-134.452775031491
 10
85.9310166885867
 20
-134.4441622927779
 10
85.9310166885867
 20
-134.4441622927779
 10
85.82731931448068
 20
-134.2371120541143
 10
85.82731931448068
 20
-134.2371120541143
 10
85.89070907140928
 20
-134.2498589074098
 10
85.9392849177513
 20
-134.2539930219921
 10
85.97959253492871
 20
-134.2539930219921
 10
86.05572914515274
 20
-134.2539930219921
 10
86.06640894115701
 20
-134.2305663726924
 10
86.06640894115701
 20
-134.1651095584726
 10
86.06640894115701
 20
-134.1651095584726
 10
86.06640894115701
 20
-133.7358506610105
 10
86.06640894115701
 20
-133.7358506610105
 10
85.96891273892444
 20
-133.7758137686394
 10
85.95203177104672
 20
-133.7820149405128
 10
85.90552298199584
 20
-133.8013074752302
 10
85.90138886741354
 20
-133.8223225576903
 10
85.89691024328272
 20
-133.8519503788634
 10
85.87796221811385
 20
-133.8519503788634
 10
85.86969398894925
 20
-133.8519503788634
 10
85.85901419294497
 20
-133.8478162642811
 10
85.852468511523
 20
-133.8247341245299
 10
85.852468511523
 20
-133.8247341245299
 10
85.79975855059868
 20
-133.631808777356
 10
85.79975855059868
 20
-133.631808777356
 10
85.94583059917326
 20
-133.5856444978536
 10
86.01128741339302
 20
-133.5622178485539
 10
86.06640894115701
 20
-133.5408582565453
 10
86.06640894115701
 20
-133.5408582565453
 10
86.06640894115701
 20
-133.128480326961
 10
86.06640894115701
 20
-133.128480326961
 10
86.06640894115701
 20
-133.128480326961
 10
86.01335447068416
 20
-133.128480326961
 10
86.01335447068416
 20
-133.128480326961
 10
86.01335447068416
 20
-133.128480326961
 10
85.935150803169
 20
-133.128480326961
 10
85.935150803169
 20
-133.128480326961
 10
85.86728242210957
 20
-133.128480326961
 10
85.85901419294497
 20
-133.128480326961
 10
85.82284069034985
 20
-133.1350260083829
 10
85.82284069034985
 20
-133.1350260083829
 10
85.82284069034985
 20
-132.9400336039178
 10
85.82284069034985
 20
-132.9400336039178
 10
85.85040145423184
 20
-132.9465792853397
 10
85.85901419294497
 20
-132.9465792853397
 10
85.92860512174703
 20
-132.9465792853397
 10
85.92860512174703
 20
-132.9465792853397
 10
86.06193031702618
 20
-132.9465792853397
 10
86.06193031702618
 20
-132.9465792853397
 10
86.06193031702618
 20
-132.8766438469892
 10
86.06193031702618
 20
-132.7943060648917
 10
86.05986325973504
 20
-132.7898274407609
 10
86.05159503057044
 20
-132.6099934564308
 10
86.05159503057044
 20
-132.5913899408105
 10
86.04918346373077
 20
-132.5445366422111
 10
86.04918346373077
 20
-132.5445366422111
 10
86.26519095065593
 20
-132.5531493809242
 10
86.26519095065593
 20
-132.5531493809242
 10
86.2758707466602
 20
-132.5531493809242
 10
86.29688582912023
 20
-132.5552164382154
 10
86.29688582912023
 20
-132.5720974060931
 10
86.29688582912023
 20
-132.5913899408105
 10
86.28207191853365
 20
-132.6017252272662
 10
86.25657821194281
 20
-132.6210177619836
 10
86.25657821194281
 20
-132.6713161560683
 10
86.25037704006935
 20
-132.9000704962889
 10
86.25244409736051
 20
-132.9465792853397
 10
86.38163517805738
 20
-132.9465792853397
 10
86.39403752180428
 20
-132.9465792853397
 10
86.49153372403684
 20
-132.9379665466266
 10
86.49153372403684
 20
-132.9379665466266
 10
86.49153372403684
 20
-133.1329589510918
 10
86.49153372403684
 20
-133.1329589510918
 10
86.45329316415057
 20
-133.1305473842521
 10
86.38576929263968
 20
-133.1264132696698
 10
86.25037704006935
 20
-133.128480326961
 10
86.25037704006935
 20
-133.128480326961
 10
86.25037704006935
 20
-133.467133213161
 10
86.25037704006935
 20
-133.467133213161
 10
86.30515405828483
 20
-133.4437065638613
 10
86.3709553820531
 20
-133.4161457999793
 10
86.41953122839512
 20
-133.3927191506796
 10
86.41953122839512
 20
-133.3927191506796
 10
86.41953122839512
 20
-133.2152967331892
 10
86.41953122839512
 20
-133.2152967331892
 10
86.53390839850542
 20
-133.2280435864847
 10
86.652419683198
 20
-133.2280435864847
 10
86.76851940105092
 20
-133.2280435864847
 10
86.74543726129976
 20
-133.1329589510918
 10
86.71787649741776
 20
-133.0502766594458
 10
86.65448674048916
 20
-132.9169514641666
 10
86.61004500872944
 20
-132.9190185214578
 10
86.52736271708343
 20
-132.9234971455886
 10
86.4894666667457
 20
-132.9255642028797
 10
86.4894666667457
 20
-132.9255642028797
 10
86.4894666667457
 20
-132.7457302185497
 10
86.4894666667457
 20
-132.7457302185497
 10
86.61417912331174
 20
-132.7539984477143
 10
86.78781193576833
 20
-132.7581325622966
 10
86.8701497178658
 20
-132.7581325622966
 10
86.8701497178658
 20
-132.7581325622966
 10
86.9528320095118
 20
-132.7581325622966
 10
86.9528320095118
 20
-132.7581325622966
 10
86.9528320095118
 20
-132.5955240553928
 10
86.9528320095118
 20
-132.5848442593885
 10
86.95042044267213
 20
-132.530067241173
 10
86.95042044267213
 20
-132.530067241173
 10
87.17469615876189
 20
-132.5552164382154
 10
87.17469615876189
 20
-132.5552164382154
 10
87.17917478289272
 20
-132.5552164382154
 10
87.20018986535274
 20
-132.5572834955065
 10
87.20018986535274
 20
-132.5741644633842
 10
87.20018986535274
 20
-132.5889783739708
 10
87.18951006934846
 20
-132.5975911126839
 10
87.16194930546646
 20
-132.6124050232705
 10
87.15574813359301
 20
-132.6778618374903
 10
87.15368107630187
 20
-132.6988769199503
 10
87.15368107630187
 20
-132.7581325622966
 10
87.15368107630187
 20
-132.7581325622966
 10
87.24876571169476
 20
-132.7581325622966
 10
87.24876571169476
 20
-132.7581325622966
 10
87.33144800334075
 20
-132.7581325622966
 10
87.50473630624882
 20
-132.7539984477143
 10
87.62979327236339
 20
-132.7457302185497
 10
87.62979327236339
 20
-132.7457302185497
 10
87.62979327236339
 20
-132.9255642028797
 10
87.62979327236339
 20
-132.9255642028797
 10
87.60016545119024
 20
-132.9234971455886
 10
87.48165416649765
 20
-132.9190185214578
 10
87.44134654932023
 20
-132.9169514641666
 10
87.42653263873365
 20
-132.9675943677998
 10
87.3927707029782
 20
-133.0799044806189
 10
87.32696937920993
 20
-133.2194308477715
 10
87.3693440536785
 20
-133.2194308477715
 10
87.64667424024111
 20
-133.2004828226027
 10
87.70799693987856
 20
-133.1984157653115
 10
87.70799693987856
 20
-133.1984157653115
 10
87.70799693987856
 20
-133.3823838642239
 10
87.70799693987856
 20
-133.3823838642239
 10
87.67836911870542
 20
-133.3823838642239
 10
87.6614881508277
 20
-133.3782497496416
 10
87.49853513437537
 20
-133.3782497496416
 97
        0
 97
        0
 92
        1
 93
        1
 72
     4
 94
        3
 73
     0
 74
     1
 95
       20
 96
       16
 40
0.0
 40
0.0
 40
0.0
 40
0.0
 40
1.0
 40
1.0
 40
1.0
 40
2.0
 40
2.0
 40
2.0
 40
3.0
 40
3.0
 40
3.0
 40
4.0
 40
4.0
 40
4.0
 40
5.0
 40
5.0
 40
5.0
 40
5.0
 10
86.8701497178658
 20
-132.9128173495843
 10
86.8701497178658
 20
-132.9128173495843
 10
86.8384548394015
 20
-132.9128173495843
 10
86.8384548394015
 20
-132.9128173495843
 10
86.88496362845237
 20
-133.012380609108
 10
86.91665850691668
 20
-133.0923068243658
 10
86.95042044267213
 20
-133.2194308477715
 10
86.95042044267213
 20
-133.2194308477715
 10
87.15781519088416
 20
-133.2194308477715
 10
87.15781519088416
 20
-133.2194308477715
 10
87.18951006934846
 20
-133.1264132696698
 10
87.21293671864815
 20
-133.0420084302812
 10
87.23601885839933
 20
-132.9128173495843
 10
87.23601885839933
 20
-132.9128173495843
 10
86.8701497178658
 20
-132.9128173495843
 10
86.8701497178658
 20
-132.9128173495843
 97
        0
 97
        0
 92
        1
 93
        1
 72
     4
 94
        3
 73
     0
 74
     1
 95
       17
 96
       13
 40
0.0
 40
0.0
 40
0.0
 40
0.0
 40
1.0
 40
1.0
 40
1.0
 40
2.0
 40
2.0
 40
2.0
 40
3.0
 40
3.0
 40
3.0
 40
4.0
 40
4.0
 40
4.0
 40
4.0
 10
86.9335394747944
 20
-133.7634114248925
 10
86.91665850691668
 20
-133.7926947365171
 10
86.8660156032835
 20
-133.8860568241674
 10
86.85533580727923
 20
-133.9046603397877
 10
87.04584958761355
 20
-133.963915982134
 10
87.06686467007357
 20
-133.970461663556
 10
87.13886716571528
 20
-133.998022427438
 10
87.19398869347928
 20
-133.9112060212097
 10
87.21707083323045
 20
-133.8371364682768
 10
87.23188474381703
 20
-133.7634114248925
 10
87.23188474381703
 20
-133.7634114248925
 10
86.9335394747944
 20
-133.7634114248925
 10
86.9335394747944
 20
-133.7634114248925
 97
        0
 97
        0
 75
     2
 76
     1
 98
        0
  0
SPLINE
  5
1DB
330
1D3
100
AcDbEntity
  8
_U+30EC_U+30A4_U+30E4_U+30FC 1
370
     0
100
AcDbSpline
210
0.0
220
0.0
230
1.0
 70
    11
 71
     3
 72
   203
 73
   199
 74
     0
 42
0.0000000001
 43
0.0000000001
 12
1.0
 22
0.0
 32
0.0
 13
1.0
 23
0.0
 33
0.0
 40
0.0
 40
0.0
 40
0.0
 40
0.0
 40
1.0
 40
1.0
 40
1.0
 40
2.0
 40
2.0
 40
2.0
 40
3.0
 40
3.0
 40
3.0
 40
4.0
 40
4.0
 40
4.0
 40
5.0
 40
5.0
 40
5.0
 40
6.0
 40
6.0
 40
6.0
 40
7.0
 40
7.0
 40
7.0
 40
8.0
 40
8.0
 40
8.0
 40
9.0
 40
9.0
 40
9.0
 40
10.0
 40
10.0
 40
10.0
 40
11.0
 40
11.0
 40
11.0
 40
12.0
 40
12.0
 40
12.0
 40
13.0
 40
13.0
 40
13.0
 40
14.0
 40
14.0
 40
14.0
 40
15.0
 40
15.0
 40
15.0
 40
16.0
 40
16.0
 40
16.0
 40
17.0
 40
17.0
 40
17.0
 40
18.0
 40
18.0
 40
18.0
 40
19.0
 40
19.0
 40
19.0
 40
20.0
 40
20.0
 40
20.0
 40
21.0
 40
21.0
 40
21.0
 40
22.0
 40
22.0
 40
22.0
 40
23.0
 40
23.0
 40
23.0
 40
24.0
 40
24.0
 40
24.0
 40
25.0
 40
25.0
 40
25.0
 40
26.0
 40
26.0
 40
26.0
 40
27.0
 40
27.0
 40
27.0
 40
28.0
 40
28.0
 40
28.0
 40
29.0
 40
29.0
 40
29.0
 40
30.0
 40
30.0
 40
30.0
 40
31.0
 40
31.0
 40
31.0
 40
32.0
 40
32.0
 40
32.0
 40
33.0
 40
33.0
 40
33.0
 40
34.0
 40
34.0
 40
34.0
 40
35.0
 40
35.0
 40
35.0
 40
36.0
 40
36.0
 40
36.0
 40
37.0
 40
37.0
 40
37.0
 40
38.0
 40
38.0
 40
38.0
 40
39.0
 40
39.0
 40
39.0
 40
40.0
 40
40.0
 40
40.0
 40
41.0
 40
41.0
 40
41.0
 40
42.0
 40
42.0
 40
42.0
 40
43.0
 40
43.0
 40
43.0
 40
44.0
 40
44.0
 40
44.0
 40
45.0
 40
45.0
 40
45.0
 40
46.0
 40
46.0
 40
46.0
 40
47.0
 40
47.0
 40
47.0
 40
48.0
 40
48.0
 40
48.0
 40
49.0
 40
49.0
 40
49.0
 40
50.0
 40
50.0
 40
50.0
 40
51.0
 40
51.0
 40
51.0
 40
52.0
 40
52.0
 40
52.0
 40
53.0
 40
53.0
 40
53.0
 40
54.0
 40
54.0
 40
54.0
 40
55.0
 40
55.0
 40
55.0
 40
56.0
 40
56.0
 40
56.0
 40
57.0
 40
57.0
 40
57.0
 40
58.0
 40
58.0
 40
58.0
 40
59.0
 40
59.0
 40
59.0
 40
60.0
 40
60.0
 40
60.0
 40
61.0
 40
61.0
 40
61.0
 40
62.0
 40
62.0
 40
62.0
 40
63.0
 40
63.0
 40
63.0
 40
64.0
 40
64.0
 40
64.0
 40
65.0
 40
65.0
 40
65.0
 40
66.0
 40
66.0
 40
66.0
 40
66.0
 10
89.19007701763304
 20
-133.4457736211525
 30
0.0
 10
89.19007701763304
 20
-133.4457736211525
 30
0.0
 10
88.63128252992551
 20
-133.4457736211525
 30
0.0
 10
88.63128252992551
 20
-133.4457736211525
 30
0.0
 10
88.62094724346977
 20
-133.4902153529122
 30
0.0
 10
88.61233450475665
 20
-133.5219102313765
 30
0.0
 10
88.59958765146122
 20
-133.5601507912627
 30
0.0
 10
88.62508135805207
 20
-133.5601507912627
 30
0.0
 10
88.63989526863864
 20
-133.5622178485539
 30
0.0
 10
88.6460964405121
 20
-133.5622178485539
 30
0.0
 10
88.6460964405121
 20
-133.5622178485539
 30
0.0
 10
88.83454316355525
 20
-133.5622178485539
 30
0.0
 10
88.83454316355525
 20
-133.5622178485539
 30
0.0
 10
88.83454316355525
 20
-133.5622178485539
 30
0.0
 10
89.20902504280191
 20
-133.5622178485539
 30
0.0
 10
89.20902504280191
 20
-133.5622178485539
 30
0.0
 10
89.25966794643509
 20
-133.5622178485539
 30
0.0
 10
89.54319930487115
 20
-133.5494709952585
 30
0.0
 10
89.57489418333545
 20
-133.5494709952585
 30
0.0
 10
89.5728271260443
 20
-133.5770317591405
 30
0.0
 10
89.57076006875315
 20
-133.5959797843093
 30
0.0
 10
89.57076006875315
 20
-133.6256076054825
 30
0.0
 10
89.568693011462
 20
-133.6573024839468
 30
0.0
 10
89.568693011462
 20
-133.7926947365171
 30
0.0
 10
89.568693011462
 20
-133.8202555003991
 30
0.0
 10
89.568693011462
 20
-133.8202555003991
 30
0.0
 10
89.568693011462
 20
-134.0658908084974
 30
0.0
 10
89.568693011462
 20
-134.0658908084974
 30
0.0
 10
89.568693011462
 20
-134.1099880307086
 30
0.0
 10
89.5728271260443
 20
-134.3070474924649
 30
0.0
 10
89.5769612406266
 20
-134.459320712913
 30
0.0
 10
89.5769612406266
 20
-134.459320712913
 30
0.0
 10
89.35061846724568
 20
-134.459320712913
 30
0.0
 10
89.35061846724568
 20
-134.459320712913
 30
0.0
 10
89.35061846724568
 20
-134.459320712913
 30
0.0
 10
89.35268552453684
 20
-134.4255587771575
 30
0.0
 10
89.35268552453684
 20
-134.4255587771575
 30
0.0
 10
89.35268552453684
 20
-134.4255587771575
 30
0.0
 10
88.65057506464292
 20
-134.4255587771575
 30
0.0
 10
88.65057506464292
 20
-134.4255587771575
 30
0.0
 10
88.65057506464292
 20
-134.4255587771575
 30
0.0
 10
88.65264212193406
 20
-134.459320712913
 30
0.0
 10
88.65264212193406
 20
-134.459320712913
 30
0.0
 10
88.65264212193406
 20
-134.459320712913
 30
0.0
 10
88.43456757771776
 20
-134.459320712913
 30
0.0
 10
88.43456757771776
 20
-134.459320712913
 30
0.0
 10
88.43904620184857
 20
-134.404199185149
 30
0.0
 10
88.43904620184857
 20
-134.3914523318535
 30
0.0
 10
88.44524737372203
 20
-134.2774196712918
 30
0.0
 10
88.44731443101317
 20
-134.2498589074098
 30
0.0
 10
88.44938148830433
 20
-134.1165337121306
 30
0.0
 10
88.44938148830433
 20
-134.0975856869617
 30
0.0
 10
88.44938148830433
 20
-134.0975856869617
 30
0.0
 10
88.44938148830433
 20
-133.894325053332
 30
0.0
 10
88.44938148830433
 20
-133.894325053332
 30
0.0
 10
88.30985512115171
 20
-134.1437499664641
 30
0.0
 10
88.14070093282594
 20
-134.2753526140006
 30
0.0
 10
88.03493650142877
 20
-134.3408094282204
 30
0.0
 10
88.03493650142877
 20
-134.3408094282204
 30
0.0
 10
87.86130368897217
 20
-134.2009385515192
 30
0.0
 10
87.86130368897217
 20
-134.2009385515192
 30
0.0
 10
87.95018715249162
 20
-134.1502956478861
 30
0.0
 10
88.09419214377506
 20
-134.0634792416577
 30
0.0
 10
88.23165145363653
 20
-133.8688313467411
 30
0.0
 10
88.32260197444712
 20
-133.7420518328839
 30
0.0
 10
88.38805878866688
 20
-133.5980468416005
 30
0.0
 10
88.42182072442233
 20
-133.4457736211525
 30
0.0
 10
88.19341089375027
 20
-133.4478406784436
 30
0.0
 10
88.01357690942022
 20
-133.4543863598656
 30
0.0
 10
87.91849227402733
 20
-133.4564534171567
 30
0.0
 10
87.91849227402733
 20
-133.4564534171567
 30
0.0
 10
87.91849227402733
 20
-133.2786864901178
 30
0.0
 10
87.91849227402733
 20
-133.2786864901178
 30
0.0
 10
88.11520722623509
 20
-133.2852321715398
 30
0.0
 10
88.39873858467115
 20
-133.2893662861221
 30
0.0
 10
88.54894474782805
 20
-133.2893662861221
 30
0.0
 10
88.54894474782805
 20
-133.2893662861221
 30
0.0
 10
88.76254066791354
 20
-133.2893662861221
 30
0.0
 10
88.76254066791354
 20
-133.2893662861221
 30
0.0
 10
88.76254066791354
 20
-133.2893662861221
 30
0.0
 10
88.76254066791354
 20
-133.1811902878853
 30
0.0
 10
88.76254066791354
 20
-133.1811902878853
 30
0.0
 10
88.76254066791354
 20
-133.1811902878853
 30
0.0
 10
88.61646861933895
 20
-133.1811902878853
 30
0.0
 10
88.61646861933895
 20
-133.1811902878853
 30
0.0
 10
88.44731443101317
 20
-133.1811902878853
 30
0.0
 10
88.2781602426874
 20
-133.1856689120161
 30
0.0
 10
88.11107311165279
 20
-133.1922145934381
 30
0.0
 10
88.11107311165279
 20
-133.1922145934381
 30
0.0
 10
88.11107311165279
 20
-133.0206488382726
 30
0.0
 10
88.11107311165279
 20
-133.0206488382726
 30
0.0
 10
88.26541338939198
 20
-133.0309841247284
 30
0.0
 10
88.45144854559547
 20
-133.0309841247284
 30
0.0
 10
88.61646861933895
 20
-133.0309841247284
 30
0.0
 10
88.61646861933895
 20
-133.0309841247284
 30
0.0
 10
88.76254066791354
 20
-133.0309841247284
 30
0.0
 10
88.76254066791354
 20
-133.0309841247284
 30
0.0
 10
88.76254066791354
 20
-133.0309841247284
 30
0.0
 10
88.76254066791354
 20
-132.9128173495843
 30
0.0
 10
88.76254066791354
 20
-132.9128173495843
 30
0.0
 10
88.76254066791354
 20
-132.9128173495843
 30
0.0
 10
88.63128252992551
 20
-132.9128173495843
 30
0.0
 10
88.63128252992551
 20
-132.9128173495843
 30
0.0
 10
88.58477374087464
 20
-132.9128173495843
 30
0.0
 10
88.38185761679343
 20
-132.9214300882974
 30
0.0
 10
88.33948294232485
 20
-132.9214300882974
 30
0.0
 10
88.13656681824364
 20
-132.9255642028797
 30
0.0
 10
88.0600856984711
 20
-132.9276312601709
 30
0.0
 10
87.98188203095592
 20
-132.929698317462
 30
0.0
 10
87.98188203095592
 20
-132.929698317462
 30
0.0
 10
87.98188203095592
 20
-132.7457302185497
 30
0.0
 10
87.98188203095592
 20
-132.7457302185497
 30
0.0
 10
88.09625920106622
 20
-132.7539984477143
 30
0.0
 10
88.14070093282594
 20
-132.7539984477143
 30
0.0
 10
88.5234510412372
 20
-132.7626111864274
 30
0.0
 10
88.4600612843086
 20
-132.667182041486
 30
0.0
 10
88.4325005204266
 20
-132.639621277604
 30
0.0
 10
88.39667152738001
 20
-132.6037922845574
 30
0.0
 10
88.39667152738001
 20
-132.6037922845574
 30
0.0
 10
88.57202688757921
 20
-132.5211099929114
 30
0.0
 10
88.57202688757921
 20
-132.5211099929114
 30
0.0
 10
88.61233450475665
 20
-132.5572834955065
 30
0.0
 10
88.65677623651636
 20
-132.5996581699751
 30
0.0
 10
88.73084578944923
 20
-132.7095567159546
 30
0.0
 10
88.73084578944923
 20
-132.7095567159546
 30
0.0
 10
88.61646861933895
 20
-132.7646782437185
 30
0.0
 10
88.61646861933895
 20
-132.7646782437185
 30
0.0
 10
88.61646861933895
 20
-132.7646782437185
 30
0.0
 10
88.62714841534321
 20
-132.7646782437185
 30
0.0
 10
88.62714841534321
 20
-132.7646782437185
 30
0.0
 10
88.62714841534321
 20
-132.7646782437185
 30
0.0
 10
89.14976940045561
 20
-132.7646782437185
 30
0.0
 10
89.14976940045561
 20
-132.7646782437185
 30
0.0
 10
89.14976940045561
 20
-132.7646782437185
 30
0.0
 10
89.05468476506272
 20
-132.7202365119588
 30
0.0
 10
89.05468476506272
 20
-132.7202365119588
 30
0.0
 10
89.0819010193962
 20
-132.6823404616211
 30
0.0
 10
89.13908960445134
 20
-132.6017252272662
 30
0.0
 10
89.15390351503791
 20
-132.5276556743334
 30
0.0
 10
89.15390351503791
 20
-132.5276556743334
 30
0.0
 10
89.3674994351234
 20
-132.5913899408105
 30
0.0
 10
89.3674994351234
 20
-132.5913899408105
 30
0.0
 10
89.37611217383653
 20
-132.5934569981016
 30
0.0
 10
89.39712725629656
 20
-132.6037922845574
 30
0.0
 10
89.39712725629656
 20
-132.625151876566
 30
0.0
 10
89.39712725629656
 20
-132.6630479269037
 30
0.0
 10
89.33167044207681
 20
-132.6630479269037
 30
0.0
 10
89.31272241690793
 20
-132.6630479269037
 30
0.0
 10
89.30204262090366
 20
-132.6823404616211
 30
0.0
 10
89.27861597160395
 20
-132.72230356925
 30
0.0
 10
89.24898815043082
 20
-132.7626111864274
 30
0.0
 10
89.64896373626831
 20
-132.7560655050054
 30
0.0
 10
89.67859155744146
 20
-132.7539984477143
 30
0.0
 10
89.75472816766549
 20
-132.7477972758408
 30
0.0
 10
89.75472816766549
 20
-132.7477972758408
 30
0.0
 10
89.75472816766549
 20
-132.929698317462
 30
0.0
 10
89.75472816766549
 20
-132.929698317462
 30
0.0
 10
89.73578014249661
 20
-132.929698317462
 30
0.0
 10
89.71028643590577
 20
-132.9276312601709
 30
0.0
 10
89.49048934394682
 20
-132.9190185214578
 30
0.0
 10
89.43950193076513
 20
-132.9169514641666
 30
0.0
 10
89.2197048388062
 20
-132.9128173495843
 30
0.0
 10
89.17526310704646
 20
-132.9128173495843
 30
0.0
 10
89.17526310704646
 20
-132.9128173495843
 30
0.0
 10
88.9592556201213
 20
-132.9128173495843
 30
0.0
 10
88.9592556201213
 20
-132.9128173495843
 30
0.0
 10
88.9592556201213
 20
-132.9128173495843
 30
0.0
 10
88.9592556201213
 20
-133.0309841247284
 30
0.0
 10
88.9592556201213
 20
-133.0309841247284
 30
0.0
 10
88.9592556201213
 20
-133.0309841247284
 30
0.0
 10
89.1328884325779
 20
-133.0309841247284
 30
0.0
 10
89.1328884325779
 20
-133.0309841247284
 30
0.0
 10
89.2958414490302
 20
-133.0309841247284
 30
0.0
 10
89.48601071981601
 20
-133.0309841247284
 30
0.0
 10
89.64276256439487
 20
-133.0206488382726
 30
0.0
 10
89.64276256439487
 20
-133.0206488382726
 30
0.0
 10
89.64276256439487
 20
-133.1922145934381
 30
0.0
 10
89.64276256439487
 20
-133.1922145934381
 30
0.0
 10
89.43330075889168
 20
-133.1836018547249
 30
0.0
 10
89.23658580668392
 20
-133.1811902878853
 30
0.0
 10
89.1328884325779
 20
-133.1811902878853
 30
0.0
 10
89.1328884325779
 20
-133.1811902878853
 30
0.0
 10
88.9592556201213
 20
-133.1811902878853
 30
0.0
 10
88.9592556201213
 20
-133.1811902878853
 30
0.0
 10
88.9592556201213
 20
-133.1811902878853
 30
0.0
 10
88.9592556201213
 20
-133.2893662861221
 30
0.0
 10
88.9592556201213
 20
-133.2893662861221
 30
0.0
 10
88.9592556201213
 20
-133.2893662861221
 30
0.0
 10
89.19007701763304
 20
-133.2893662861221
 30
0.0
 10
89.19007701763304
 20
-133.2893662861221
 30
0.0
 10
89.32305770336369
 20
-133.2893662861221
 30
0.0
 10
89.61106768593056
 20
-133.2852321715398
 30
0.0
 10
89.82018498188523
 20
-133.2786864901178
 30
0.0
 10
89.82018498188523
 20
-133.2786864901178
 30
0.0
 10
89.82018498188523
 20
-133.4564534171567
 30
0.0
 10
89.82018498188523
 20
-133.4564534171567
 30
0.0
 10
89.62794865380829
 20
-133.4499077357347
 30
0.0
 10
89.31478947419909
 20
-133.4457736211525
 30
0.0
 10
89.19007701763304
 20
-133.4457736211525
 30
0.0
  0
POLYLINE
  5
1DC
330
1D3
100
AcDbEntity
  8
_U+30EC_U+30A4_U+30E4_U+30FC 1
370
     0
100
AcDb2dPolyline
 66
     1
 10
0.0
 20
0.0
 30
0.0
  0
VERTEX
  5
1DD
330
1DC
100
AcDbEntity
  8
_U+30EC_U+30A4_U+30E4_U+30FC 1
370
     0
100
AcDbVertex
100
AcDb2dVertex
 10
89.3550970913765
 20
-133.7017442157065
 30
0.0
  0
VERTEX
  5
1DE
330
1DC
100
AcDbEntity
  8
_U+30EC_U+30A4_U+30E4_U+30FC 1
370
     0
100
AcDbVertex
100
AcDb2dVertex
 10
88.64850800735177
 20
-133.7017442157065
 30
0.0
  0
VERTEX
  5
1DF
330
1DC
100
AcDbEntity
  8
_U+30EC_U+30A4_U+30E4_U+30FC 1
370
     0
100
AcDbVertex
100
AcDb2dVertex
 10
88.64850800735177
 20
-133.8095757043948
 30
0.0
  0
VERTEX
  5
1E0
330
1DC
100
AcDbEntity
  8
_U+30EC_U+30A4_U+30E4_U+30FC 1
370
     0
100
AcDbVertex
100
AcDb2dVertex
 10
89.3550970913765
 20
-133.8095757043948
 30
0.0
  0
VERTEX
  5
1E1
330
1DC
100
AcDbEntity
  8
_U+30EC_U+30A4_U+30E4_U+30FC 1
370
     0
100
AcDbVertex
100
AcDb2dVertex
 10
89.3550970913765
 20
-133.7017442157065
 30
0.0
  0
SEQEND
  5
1E2
330
1DC
100
AcDbEntity
  8
_U+30EC_U+30A4_U+30E4_U+30FC 1
370
     0
  0
POLYLINE
  5
1E3
330
1D3
100
AcDbEntity
  8
_U+30EC_U+30A4_U+30E4_U+30FC 1
370
     0
100
AcDb2dPolyline
 66
     1
 10
0.0
 20
0.0
 30
0.0
  0
VERTEX
  5
1E4
330
1E3
100
AcDbEntity
  8
_U+30EC_U+30A4_U+30E4_U+30FC 1
370
     0
100
AcDbVertex
100
AcDb2dVertex
 10
89.3550970913765
 20
-133.9342881609609
 30
0.0
  0
VERTEX
  5
1E5
330
1E3
100
AcDbEntity
  8
_U+30EC_U+30A4_U+30E4_U+30FC 1
370
     0
100
AcDbVertex
100
AcDb2dVertex
 10
88.64850800735177
 20
-133.9342881609609
 30
0.0
  0
VERTEX
  5
1E6
330
1E3
100
AcDbEntity
  8
_U+30EC_U+30A4_U+30E4_U+30FC 1
370
     0
100
AcDbVertex
100
AcDb2dVertex
 10
88.64850800735177
 20
-134.0486653310712
 30
0.0
  0
VERTEX
  5
1E7
330
1E3
100
AcDbEntity
  8
_U+30EC_U+30A4_U+30E4_U+30FC 1
370
     0
100
AcDbVertex
100
AcDb2dVertex
 10
89.3550970913765
 20
-134.0486653310712
 30
0.0
  0
VERTEX
  5
1E8
330
1E3
100
AcDbEntity
  8
_U+30EC_U+30A4_U+30E4_U+30FC 1
370
     0
100
AcDbVertex
100
AcDb2dVertex
 10
89.3550970913765
 20
-133.9342881609609
 30
0.0
  0
SEQEND
  5
1E9
330
1E3
100
AcDbEntity
  8
_U+30EC_U+30A4_U+30E4_U+30FC 1
370
     0
  0
POLYLINE
  5
1EA
330
1D3
100
AcDbEntity
  8
_U+30EC_U+30A4_U+30E4_U+30FC 1
370
     0
100
AcDb2dPolyline
 66
     1
 10
0.0
 20
0.0
 30
0.0
  0
VERTEX
  5
1EB
330
1EA
100
AcDbEntity
  8
_U+30EC_U+30A4_U+30E4_U+30FC 1
370
     0
100
AcDbVertex
100
AcDb2dVertex
 10
89.3550970913765
 20
-134.177856411768
 30
0.0
  0
VERTEX
  5
1EC
330
1EA
100
AcDbEntity
  8
_U+30EC_U+30A4_U+30E4_U+30FC 1
370
     0
100
AcDbVertex
100
AcDb2dVertex
 10
88.64850800735177
 20
-134.177856411768
 30
0.0
  0
VERTEX
  5
1ED
330
1EA
100
AcDbEntity
  8
_U+30EC_U+30A4_U+30E4_U+30FC 1
370
     0
100
AcDbVertex
100
AcDb2dVertex
 10
88.64850800735177
 20
-134.2918890723298
 30
0.0
  0
VERTEX
  5
1EE
330
1EA
100
AcDbEntity
  8
_U+30EC_U+30A4_U+30E4_U+30FC 1
370
     0
100
AcDbVertex
100
AcDb2dVertex
 10
89.3550970913765
 20
-134.2918890723298
 30
0.0
  0
VERTEX
  5
1EF
330
1EA
100
AcDbEntity
  8
_U+30EC_U+30A4_U+30E4_U+30FC 1
370
     0
100
AcDbVertex
100
AcDb2dVertex
 10
89.3550970913765
 20
-134.177856411768
 30
0.0
  0
SEQEND
  5
1F0
330
1EA
100
AcDbEntity
  8
_U+30EC_U+30A4_U+30E4_U+30FC 1
370
     0
  0
HATCH
  5
1F1
330
1D3
100
AcDbEntity
  8
_U+30EC_U+30A4_U+30E4_U+30FC 1
 62
     7
420
 16777215
100
AcDbHatch
 10
0.0
 20
0.0
 30
0.0
210
0.0
220
0.0
230
1.0
  2
SOLID
 70
     1
 71
     0
 91
        4
 92
        1
 93
        1
 72
     4
 94
        3
 73
     0
 74
     1
 95
      203
 96
      199
 40
0.0
 40
0.0
 40
0.0
 40
0.0
 40
1.0
 40
1.0
 40
1.0
 40
2.0
 40
2.0
 40
2.0
 40
3.0
 40
3.0
 40
3.0
 40
4.0
 40
4.0
 40
4.0
 40
5.0
 40
5.0
 40
5.0
 40
6.0
 40
6.0
 40
6.0
 40
7.0
 40
7.0
 40
7.0
 40
8.0
 40
8.0
 40
8.0
 40
9.0
 40
9.0
 40
9.0
 40
10.0
 40
10.0
 40
10.0
 40
11.0
 40
11.0
 40
11.0
 40
12.0
 40
12.0
 40
12.0
 40
13.0
 40
13.0
 40
13.0
 40
14.0
 40
14.0
 40
14.0
 40
15.0
 40
15.0
 40
15.0
 40
16.0
 40
16.0
 40
16.0
 40
17.0
 40
17.0
 40
17.0
 40
18.0
 40
18.0
 40
18.0
 40
19.0
 40
19.0
 40
19.0
 40
20.0
 40
20.0
 40
20.0
 40
21.0
 40
21.0
 40
21.0
 40
22.0
 40
22.0
 40
22.0
 40
23.0
 40
23.0
 40
23.0
 40
24.0
 40
24.0
 40
24.0
 40
25.0
 40
25.0
 40
25.0
 40
26.0
 40
26.0
 40
26.0
 40
27.0
 40
27.0
 40
27.0
 40
28.0
 40
28.0
 40
28.0
 40
29.0
 40
29.0
 40
29.0
 40
30.0
 40
30.0
 40
30.0
 40
31.0
 40
31.0
 40
31.0
 40
32.0
 40
32.0
 40
32.0
 40
33.0
 40
33.0
 40
33.0
 40
34.0
 40
34.0
 40
34.0
 40
35.0
 40
35.0
 40
35.0
 40
36.0
 40
36.0
 40
36.0
 40
37.0
 40
37.0
 40
37.0
 40
38.0
 40
38.0
 40
38.0
 40
39.0
 40
39.0
 40
39.0
 40
40.0
 40
40.0
 40
40.0
 40
41.0
 40
41.0
 40
41.0
 40
42.0
 40
42.0
 40
42.0
 40
43.0
 40
43.0
 40
43.0
 40
44.0
 40
44.0
 40
44.0
 40
45.0
 40
45.0
 40
45.0
 40
46.0
 40
46.0
 40
46.0
 40
47.0
 40
47.0
 40
47.0
 40
48.0
 40
48.0
 40
48.0
 40
49.0
 40
49.0
 40
49.0
 40
50.0
 40
50.0
 40
50.0
 40
51.0
 40
51.0
 40
51.0
 40
52.0
 40
52.0
 40
52.0
 40
53.0
 40
53.0
 40
53.0
 40
54.0
 40
54.0
 40
54.0
 40
55.0
 40
55.0
 40
55.0
 40
56.0
 40
56.0
 40
56.0
 40
57.0
 40
57.0
 40
57.0
 40
58.0
 40
58.0
 40
58.0
 40
59.0
 40
59.0
 40
59.0
 40
60.0
 40
60.0
 40
60.0
 40
61.0
 40
61.0
 40
61.0
 40
62.0
 40
62.0
 40
62.0
 40
63.0
 40
63.0
 40
63.0
 40
64.0
 40
64.0
 40
64.0
 40
65.0
 40
65.0
 40
65.0
 40
66.0
 40
66.0
 40
66.0
 40
66.0
 10
89.19007701763304
 20
-133.4457736211525
 10
89.19007701763304
 20
-133.4457736211525
 10
88.63128252992551
 20
-133.4457736211525
 10
88.63128252992551
 20
-133.4457736211525
 10
88.62094724346977
 20
-133.4902153529122
 10
88.61233450475665
 20
-133.5219102313765
 10
88.59958765146122
 20
-133.5601507912627
 10
88.62508135805207
 20
-133.5601507912627
 10
88.63989526863864
 20
-133.5622178485539
 10
88.6460964405121
 20
-133.5622178485539
 10
88.6460964405121
 20
-133.5622178485539
 10
88.83454316355525
 20
-133.5622178485539
 10
88.83454316355525
 20
-133.5622178485539
 10
88.83454316355525
 20
-133.5622178485539
 10
89.20902504280191
 20
-133.5622178485539
 10
89.20902504280191
 20
-133.5622178485539
 10
89.25966794643509
 20
-133.5622178485539
 10
89.54319930487115
 20
-133.5494709952585
 10
89.57489418333545
 20
-133.5494709952585
 10
89.5728271260443
 20
-133.5770317591405
 10
89.57076006875315
 20
-133.5959797843093
 10
89.57076006875315
 20
-133.6256076054825
 10
89.568693011462
 20
-133.6573024839468
 10
89.568693011462
 20
-133.7926947365171
 10
89.568693011462
 20
-133.8202555003991
 10
89.568693011462
 20
-133.8202555003991
 10
89.568693011462
 20
-134.0658908084974
 10
89.568693011462
 20
-134.0658908084974
 10
89.568693011462
 20
-134.1099880307086
 10
89.5728271260443
 20
-134.3070474924649
 10
89.5769612406266
 20
-134.459320712913
 10
89.5769612406266
 20
-134.459320712913
 10
89.35061846724568
 20
-134.459320712913
 10
89.35061846724568
 20
-134.459320712913
 10
89.35061846724568
 20
-134.459320712913
 10
89.35268552453684
 20
-134.4255587771575
 10
89.35268552453684
 20
-134.4255587771575
 10
89.35268552453684
 20
-134.4255587771575
 10
88.65057506464292
 20
-134.4255587771575
 10
88.65057506464292
 20
-134.4255587771575
 10
88.65057506464292
 20
-134.4255587771575
 10
88.65264212193406
 20
-134.459320712913
 10
88.65264212193406
 20
-134.459320712913
 10
88.65264212193406
 20
-134.459320712913
 10
88.43456757771776
 20
-134.459320712913
 10
88.43456757771776
 20
-134.459320712913
 10
88.43904620184857
 20
-134.404199185149
 10
88.43904620184857
 20
-134.3914523318535
 10
88.44524737372203
 20
-134.2774196712918
 10
88.44731443101317
 20
-134.2498589074098
 10
88.44938148830433
 20
-134.1165337121306
 10
88.44938148830433
 20
-134.0975856869617
 10
88.44938148830433
 20
-134.0975856869617
 10
88.44938148830433
 20
-133.894325053332
 10
88.44938148830433
 20
-133.894325053332
 10
88.30985512115171
 20
-134.1437499664641
 10
88.14070093282594
 20
-134.2753526140006
 10
88.03493650142877
 20
-134.3408094282204
 10
88.03493650142877
 20
-134.3408094282204
 10
87.86130368897217
 20
-134.2009385515192
 10
87.86130368897217
 20
-134.2009385515192
 10
87.95018715249162
 20
-134.1502956478861
 10
88.09419214377506
 20
-134.0634792416577
 10
88.23165145363653
 20
-133.8688313467411
 10
88.32260197444712
 20
-133.7420518328839
 10
88.38805878866688
 20
-133.5980468416005
 10
88.42182072442233
 20
-133.4457736211525
 10
88.19341089375027
 20
-133.4478406784436
 10
88.01357690942022
 20
-133.4543863598656
 10
87.91849227402733
 20
-133.4564534171567
 10
87.91849227402733
 20
-133.4564534171567
 10
87.91849227402733
 20
-133.2786864901178
 10
87.91849227402733
 20
-133.2786864901178
 10
88.11520722623509
 20
-133.2852321715398
 10
88.39873858467115
 20
-133.2893662861221
 10
88.54894474782805
 20
-133.2893662861221
 10
88.54894474782805
 20
-133.2893662861221
 10
88.76254066791354
 20
-133.2893662861221
 10
88.76254066791354
 20
-133.2893662861221
 10
88.76254066791354
 20
-133.2893662861221
 10
88.76254066791354
 20
-133.1811902878853
 10
88.76254066791354
 20
-133.1811902878853
 10
88.76254066791354
 20
-133.1811902878853
 10
88.61646861933895
 20
-133.1811902878853
 10
88.61646861933895
 20
-133.1811902878853
 10
88.44731443101317
 20
-133.1811902878853
 10
88.2781602426874
 20
-133.1856689120161
 10
88.11107311165279
 20
-133.1922145934381
 10
88.11107311165279
 20
-133.1922145934381
 10
88.11107311165279
 20
-133.0206488382726
 10
88.11107311165279
 20
-133.0206488382726
 10
88.26541338939198
 20
-133.0309841247284
 10
88.45144854559547
 20
-133.0309841247284
 10
88.61646861933895
 20
-133.0309841247284
 10
88.61646861933895
 20
-133.0309841247284
 10
88.76254066791354
 20
-133.0309841247284
 10
88.76254066791354
 20
-133.0309841247284
 10
88.76254066791354
 20
-133.0309841247284
 10
88.76254066791354
 20
-132.9128173495843
 10
88.76254066791354
 20
-132.9128173495843
 10
88.76254066791354
 20
-132.9128173495843
 10
88.63128252992551
 20
-132.9128173495843
 10
88.63128252992551
 20
-132.9128173495843
 10
88.58477374087464
 20
-132.9128173495843
 10
88.38185761679343
 20
-132.9214300882974
 10
88.33948294232485
 20
-132.9214300882974
 10
88.13656681824364
 20
-132.9255642028797
 10
88.0600856984711
 20
-132.9276312601709
 10
87.98188203095592
 20
-132.929698317462
 10
87.98188203095592
 20
-132.929698317462
 10
87.98188203095592
 20
-132.7457302185497
 10
87.98188203095592
 20
-132.7457302185497
 10
88.09625920106622
 20
-132.7539984477143
 10
88.14070093282594
 20
-132.7539984477143
 10
88.5234510412372
 20
-132.7626111864274
 10
88.4600612843086
 20
-132.667182041486
 10
88.4325005204266
 20
-132.639621277604
 10
88.39667152738001
 20
-132.6037922845574
 10
88.39667152738001
 20
-132.6037922845574
 10
88.57202688757921
 20
-132.5211099929114
 10
88.57202688757921
 20
-132.5211099929114
 10
88.61233450475665
 20
-132.5572834955065
 10
88.65677623651636
 20
-132.5996581699751
 10
88.73084578944923
 20
-132.7095567159546
 10
88.73084578944923
 20
-132.7095567159546
 10
88.61646861933895
 20
-132.7646782437185
 10
88.61646861933895
 20
-132.7646782437185
 10
88.61646861933895
 20
-132.7646782437185
 10
88.62714841534321
 20
-132.7646782437185
 10
88.62714841534321
 20
-132.7646782437185
 10
88.62714841534321
 20
-132.7646782437185
 10
89.14976940045561
 20
-132.7646782437185
 10
89.14976940045561
 20
-132.7646782437185
 10
89.14976940045561
 20
-132.7646782437185
 10
89.05468476506272
 20
-132.7202365119588
 10
89.05468476506272
 20
-132.7202365119588
 10
89.0819010193962
 20
-132.6823404616211
 10
89.13908960445134
 20
-132.6017252272662
 10
89.15390351503791
 20
-132.5276556743334
 10
89.15390351503791
 20
-132.5276556743334
 10
89.3674994351234
 20
-132.5913899408105
 10
89.3674994351234
 20
-132.5913899408105
 10
89.37611217383653
 20
-132.5934569981016
 10
89.39712725629656
 20
-132.6037922845574
 10
89.39712725629656
 20
-132.625151876566
 10
89.39712725629656
 20
-132.6630479269037
 10
89.33167044207681
 20
-132.6630479269037
 10
89.31272241690793
 20
-132.6630479269037
 10
89.30204262090366
 20
-132.6823404616211
 10
89.27861597160395
 20
-132.72230356925
 10
89.24898815043082
 20
-132.7626111864274
 10
89.64896373626831
 20
-132.7560655050054
 10
89.67859155744146
 20
-132.7539984477143
 10
89.75472816766549
 20
-132.7477972758408
 10
89.75472816766549
 20
-132.7477972758408
 10
89.75472816766549
 20
-132.929698317462
 10
89.75472816766549
 20
-132.929698317462
 10
89.73578014249661
 20
-132.929698317462
 10
89.71028643590577
 20
-132.9276312601709
 10
89.49048934394682
 20
-132.9190185214578
 10
89.43950193076513
 20
-132.9169514641666
 10
89.2197048388062
 20
-132.9128173495843
 10
89.17526310704646
 20
-132.9128173495843
 10
89.17526310704646
 20
-132.9128173495843
 10
88.9592556201213
 20
-132.9128173495843
 10
88.9592556201213
 20
-132.9128173495843
 10
88.9592556201213
 20
-132.9128173495843
 10
88.9592556201213
 20
-133.0309841247284
 10
88.9592556201213
 20
-133.0309841247284
 10
88.9592556201213
 20
-133.0309841247284
 10
89.1328884325779
 20
-133.0309841247284
 10
89.1328884325779
 20
-133.0309841247284
 10
89.2958414490302
 20
-133.0309841247284
 10
89.48601071981601
 20
-133.0309841247284
 10
89.64276256439487
 20
-133.0206488382726
 10
89.64276256439487
 20
-133.0206488382726
 10
89.64276256439487
 20
-133.1922145934381
 10
89.64276256439487
 20
-133.1922145934381
 10
89.43330075889168
 20
-133.1836018547249
 10
89.23658580668392
 20
-133.1811902878853
 10
89.1328884325779
 20
-133.1811902878853
 10
89.1328884325779
 20
-133.1811902878853
 10
88.9592556201213
 20
-133.1811902878853
 10
88.9592556201213
 20
-133.1811902878853
 10
88.9592556201213
 20
-133.1811902878853
 10
88.9592556201213
 20
-133.2893662861221
 10
88.9592556201213
 20
-133.2893662861221
 10
88.9592556201213
 20
-133.2893662861221
 10
89.19007701763304
 20
-133.2893662861221
 10
89.19007701763304
 20
-133.2893662861221
 10
89.32305770336369
 20
-133.2893662861221
 10
89.61106768593056
 20
-133.2852321715398
 10
89.82018498188523
 20
-133.2786864901178
 10
89.82018498188523
 20
-133.2786864901178
 10
89.82018498188523
 20
-133.4564534171567
 10
89.82018498188523
 20
-133.4564534171567
 10
89.62794865380829
 20
-133.4499077357347
 10
89.31478947419909
 20
-133.4457736211525
 10
89.19007701763304
 20
-133.4457736211525
 97
        0
 97
        0
 92
        1
 93
        4
 72
     1
 10
89.3550970913765
 20
-133.7017442157065
 11
88.64850800735177
 21
-133.7017442157065
 72
     1
 10
88.64850800735177
 20
-133.7017442157065
 11
88.64850800735177
 21
-133.8095757043948
 72
     1
 10
88.64850800735177
 20
-133.8095757043948
 11
89.3550970913765
 21
-133.8095757043948
 72
     1
 10
89.3550970913765
 20
-133.8095757043948
 11
89.3550970913765
 21
-133.7017442157065
 97
        0
 92
        1
 93
        4
 72
     1
 10
89.3550970913765
 20
-133.9342881609609
 11
88.64850800735177
 21
-133.9342881609609
 72
     1
 10
88.64850800735177
 20
-133.9342881609609
 11
88.64850800735177
 21
-134.0486653310712
 72
     1
 10
88.64850800735177
 20
-134.0486653310712
 11
89.3550970913765
 21
-134.0486653310712
 72
     1
 10
89.3550970913765
 20
-134.0486653310712
 11
89.3550970913765
 21
-133.9342881609609
 97
        0
 92
        1
 93
        4
 72
     1
 10
89.3550970913765
 20
-134.177856411768
 11
88.64850800735177
 21
-134.177856411768
 72
     1
 10
88.64850800735177
 20
-134.177856411768
 11
88.64850800735177
 21
-134.2918890723298
 72
     1
 10
88.64850800735177
 20
-134.2918890723298
 11
89.3550970913765
 21
-134.2918890723298
 72
     1
 10
89.3550970913765
 20
-134.2918890723298
 11
89.3550970913765
 21
-134.177856411768
 97
        0
 75
     2
 76
     1
 98
        0
  0
SPLINE
  5
1F2
330
1D3
100
AcDbEntity
  8
_U+30EC_U+30A4_U+30E4_U+30FC 1
370
     0
100
AcDbSpline
210
0.0
220
0.0
230
1.0
 70
    11
 71
     3
 72
    47
 73
    43
 74
     0
 42
0.0000000001
 43
0.0000000001
 12
1.0
 22
0.0
 32
0.0
 13
1.0
 23
0.0
 33
0.0
 40
0.0
 40
0.0
 40
0.0
 40
0.0
 40
1.0
 40
1.0
 40
1.0
 40
2.0
 40
2.0
 40
2.0
 40
3.0
 40
3.0
 40
3.0
 40
4.0
 40
4.0
 40
4.0
 40
5.0
 40
5.0
 40
5.0
 40
6.0
 40
6.0
 40
6.0
 40
7.0
 40
7.0
 40
7.0
 40
8.0
 40
8.0
 40
8.0
 40
9.0
 40
9.0
 40
9.0
 40
10.0
 40
10.0
 40
10.0
 40
11.0
 40
11.0
 40
11.0
 40
12.0
 40
12.0
 40
12.0
 40
13.0
 40
13.0
 40
13.0
 40
14.0
 40
14.0
 40
14.0
 40
14.0
 10
91.1668728070694
 20
-133.4223469718528
 30
0.0
 10
91.1668728070694
 20
-133.4223469718528
 30
0.0
 10
91.06524249025453
 20
-133.4223469718528
 30
0.0
 10
91.06524249025453
 20
-133.4223469718528
 30
0.0
 10
91.06524249025453
 20
-133.509163378081
 30
0.0
 10
91.04422740779451
 20
-133.8984591679143
 30
0.0
 10
90.84716794603821
 20
-134.1186007694217
 30
0.0
 10
90.69489472559017
 20
-134.2877549577475
 30
0.0
 10
90.48784448692665
 20
-134.3576903960981
 30
0.0
 10
90.40309513798951
 20
-134.3849066504316
 30
0.0
 10
90.40309513798951
 20
-134.3849066504316
 30
0.0
 10
90.2084472430729
 20
-134.2181640289455
 30
0.0
 10
90.2084472430729
 20
-134.2181640289455
 30
0.0
 10
90.30559893575693
 20
-134.2050726661015
 30
0.0
 10
90.48129880550468
 20
-134.1819905263503
 30
0.0
 10
90.66974552854785
 20
-133.9935438033072
 30
0.0
 10
90.74381508148072
 20
-133.921885817214
 30
0.0
 10
90.84716794603821
 20
-133.7820149405128
 30
0.0
 10
90.84716794603821
 20
-133.4223469718528
 30
0.0
 10
90.84716794603821
 20
-133.4223469718528
 30
0.0
 10
90.61669105807499
 20
-133.4223469718528
 30
0.0
 10
90.61669105807499
 20
-133.4223469718528
 30
0.0
 10
90.4306559018715
 20
-133.4223469718528
 30
0.0
 10
90.24427623611949
 20
-133.4268255959836
 30
0.0
 10
90.058241079916
 20
-133.4416395065701
 30
0.0
 10
90.058241079916
 20
-133.4416395065701
 30
0.0
 10
90.058241079916
 20
-133.2218424146112
 30
0.0
 10
90.058241079916
 20
-133.2218424146112
 30
0.0
 10
90.24668780295917
 20
-133.2363118156493
 30
0.0
 10
90.53228621868638
 20
-133.2404459302316
 30
0.0
 10
90.61669105807499
 20
-133.2404459302316
 30
0.0
 10
90.61669105807499
 20
-133.2404459302316
 30
0.0
 10
91.1668728070694
 20
-133.2404459302316
 30
0.0
 10
91.1668728070694
 20
-133.2404459302316
 30
0.0
 10
91.18582083223828
 20
-133.2404459302316
 30
0.0
 10
91.50311412642978
 20
-133.2404459302316
 30
0.0
 10
91.73152395710184
 20
-133.2218424146112
 30
0.0
 10
91.73152395710184
 20
-133.2218424146112
 30
0.0
 10
91.73152395710184
 20
-133.4416395065701
 30
0.0
 10
91.73152395710184
 20
-133.4416395065701
 30
0.0
 10
91.5434217436072
 20
-133.4268255959836
 30
0.0
 10
91.35497502056404
 20
-133.4223469718528
 30
0.0
 10
91.1668728070694
 20
-133.4223469718528
 30
0.0
  0
SPLINE
  5
1F3
330
1D3
100
AcDbEntity
  8
_U+30EC_U+30A4_U+30E4_U+30FC 1
370
     0
100
AcDbSpline
210
0.0
220
0.0
230
1.0
 70
    11
 71
     3
 72
    29
 73
    25
 74
     0
 42
0.0000000001
 43
0.0000000001
 12
1.0
 22
0.0
 32
0.0
 13
1.0
 23
0.0
 33
0.0
 40
0.0
 40
0.0
 40
0.0
 40
0.0
 40
1.0
 40
1.0
 40
1.0
 40
2.0
 40
2.0
 40
2.0
 40
3.0
 40
3.0
 40
3.0
 40
4.0
 40
4.0
 40
4.0
 40
5.0
 40
5.0
 40
5.0
 40
6.0
 40
6.0
 40
6.0
 40
7.0
 40
7.0
 40
7.0
 40
8.0
 40
8.0
 40
8.0
 40
8.0
 10
91.06524249025453
 20
-132.8938693244154
 30
0.0
 10
91.06524249025453
 20
-132.8938693244154
 30
0.0
 10
90.71212020301643
 20
-132.8938693244154
 30
0.0
 10
90.71212020301643
 20
-132.8938693244154
 30
0.0
 10
90.59981009019728
 20
-132.8938693244154
 30
0.0
 10
90.46028372304465
 20
-132.9000704962889
 30
0.0
 10
90.35245223435633
 20
-132.9128173495843
 30
0.0
 10
90.35245223435633
 20
-132.9128173495843
 30
0.0
 10
90.35245223435633
 20
-132.6778618374903
 30
0.0
 10
90.35245223435633
 20
-132.6778618374903
 30
0.0
 10
90.47061900950041
 20
-132.6926757480768
 30
0.0
 10
90.65493161796127
 20
-132.6968098626591
 30
0.0
 10
90.71212020301643
 20
-132.6968098626591
 30
0.0
 10
90.71212020301643
 20
-132.6968098626591
 30
0.0
 10
91.06524249025453
 20
-132.6968098626591
 30
0.0
 10
91.06524249025453
 20
-132.6968098626591
 30
0.0
 10
91.0841905154234
 20
-132.6968098626591
 30
0.0
 10
91.28745114905314
 20
-132.6968098626591
 30
0.0
 10
91.42904457349691
 20
-132.6778618374903
 30
0.0
 10
91.42904457349691
 20
-132.6778618374903
 30
0.0
 10
91.42904457349691
 20
-132.9128173495843
 30
0.0
 10
91.42904457349691
 20
-132.9128173495843
 30
0.0
 10
91.27263723846657
 20
-132.8938693244154
 30
0.0
 10
91.08212345813224
 20
-132.8938693244154
 30
0.0
 10
91.06524249025453
 20
-132.8938693244154
 30
0.0
  0
HATCH
  5
1F4
330
1D3
100
AcDbEntity
  8
_U+30EC_U+30A4_U+30E4_U+30FC 1
 62
     7
420
 16777215
100
AcDbHatch
 10
0.0
 20
0.0
 30
0.0
210
0.0
220
0.0
230
1.0
  2
SOLID
 70
     1
 71
     0
 91
        2
 92
        1
 93
        1
 72
     4
 94
        3
 73
     0
 74
     1
 95
       47
 96
       43
 40
0.0
 40
0.0
 40
0.0
 40
0.0
 40
1.0
 40
1.0
 40
1.0
 40
2.0
 40
2.0
 40
2.0
 40
3.0
 40
3.0
 40
3.0
 40
4.0
 40
4.0
 40
4.0
 40
5.0
 40
5.0
 40
5.0
 40
6.0
 40
6.0
 40
6.0
 40
7.0
 40
7.0
 40
7.0
 40
8.0
 40
8.0
 40
8.0
 40
9.0
 40
9.0
 40
9.0
 40
10.0
 40
10.0
 40
10.0
 40
11.0
 40
11.0
 40
11.0
 40
12.0
 40
12.0
 40
12.0
 40
13.0
 40
13.0
 40
13.0
 40
14.0
 40
14.0
 40
14.0
 40
14.0
 10
91.1668728070694
 20
-133.4223469718528
 10
91.1668728070694
 20
-133.4223469718528
 10
91.06524249025453
 20
-133.4223469718528
 10
91.06524249025453
 20
-133.4223469718528
 10
91.06524249025453
 20
-133.509163378081
 10
91.04422740779451
 20
-133.8984591679143
 10
90.84716794603821
 20
-134.1186007694217
 10
90.69489472559017
 20
-134.2877549577475
 10
90.48784448692665
 20
-134.3576903960981
 10
90.40309513798951
 20
-134.3849066504316
 10
90.40309513798951
 20
-134.3849066504316
 10
90.2084472430729
 20
-134.2181640289455
 10
90.2084472430729
 20
-134.2181640289455
 10
90.30559893575693
 20
-134.2050726661015
 10
90.48129880550468
 20
-134.1819905263503
 10
90.66974552854785
 20
-133.9935438033072
 10
90.74381508148072
 20
-133.921885817214
 10
90.84716794603821
 20
-133.7820149405128
 10
90.84716794603821
 20
-133.4223469718528
 10
90.84716794603821
 20
-133.4223469718528
 10
90.61669105807499
 20
-133.4223469718528
 10
90.61669105807499
 20
-133.4223469718528
 10
90.4306559018715
 20
-133.4223469718528
 10
90.24427623611949
 20
-133.4268255959836
 10
90.058241079916
 20
-133.4416395065701
 10
90.058241079916
 20
-133.4416395065701
 10
90.058241079916
 20
-133.2218424146112
 10
90.058241079916
 20
-133.2218424146112
 10
90.24668780295917
 20
-133.2363118156493
 10
90.53228621868638
 20
-133.2404459302316
 10
90.61669105807499
 20
-133.2404459302316
 10
90.61669105807499
 20
-133.2404459302316
 10
91.1668728070694
 20
-133.2404459302316
 10
91.1668728070694
 20
-133.2404459302316
 10
91.18582083223828
 20
-133.2404459302316
 10
91.50311412642978
 20
-133.2404459302316
 10
91.73152395710184
 20
-133.2218424146112
 10
91.73152395710184
 20
-133.2218424146112
 10
91.73152395710184
 20
-133.4416395065701
 10
91.73152395710184
 20
-133.4416395065701
 10
91.5434217436072
 20
-133.4268255959836
 10
91.35497502056404
 20
-133.4223469718528
 10
91.1668728070694
 20
-133.4223469718528
 97
        0
 97
        0
 92
        1
 93
        1
 72
     4
 94
        3
 73
     0
 74
     1
 95
       29
 96
       25
 40
0.0
 40
0.0
 40
0.0
 40
0.0
 40
1.0
 40
1.0
 40
1.0
 40
2.0
 40
2.0
 40
2.0
 40
3.0
 40
3.0
 40
3.0
 40
4.0
 40
4.0
 40
4.0
 40
5.0
 40
5.0
 40
5.0
 40
6.0
 40
6.0
 40
6.0
 40
7.0
 40
7.0
 40
7.0
 40
8.0
 40
8.0
 40
8.0
 40
8.0
 10
91.06524249025453
 20
-132.8938693244154
 10
91.06524249025453
 20
-132.8938693244154
 10
90.71212020301643
 20
-132.8938693244154
 10
90.71212020301643
 20
-132.8938693244154
 10
90.59981009019728
 20
-132.8938693244154
 10
90.46028372304465
 20
-132.9000704962889
 10
90.35245223435633
 20
-132.9128173495843
 10
90.35245223435633
 20
-132.9128173495843
 10
90.35245223435633
 20
-132.6778618374903
 10
90.35245223435633
 20
-132.6778618374903
 10
90.47061900950041
 20
-132.6926757480768
 10
90.65493161796127
 20
-132.6968098626591
 10
90.71212020301643
 20
-132.6968098626591
 10
90.71212020301643
 20
-132.6968098626591
 10
91.06524249025453
 20
-132.6968098626591
 10
91.06524249025453
 20
-132.6968098626591
 10
91.0841905154234
 20
-132.6968098626591
 10
91.28745114905314
 20
-132.6968098626591
 10
91.42904457349691
 20
-132.6778618374903
 10
91.42904457349691
 20
-132.6778618374903
 10
91.42904457349691
 20
-132.9128173495843
 10
91.42904457349691
 20
-132.9128173495843
 10
91.27263723846657
 20
-132.8938693244154
 10
91.08212345813224
 20
-132.8938693244154
 10
91.06524249025453
 20
-132.8938693244154
 97
        0
 97
        0
 75
     2
 76
     1
 98
        0
  0
SPLINE
  5
1F5
330
1D3
100
AcDbEntity
  8
_U+30EC_U+30A4_U+30E4_U+30FC 1
370
     0
100
AcDbSpline
210
0.0
220
0.0
230
1.0
 70
    11
 71
     3
 72
    29
 73
    25
 74
     0
 42
0.0000000001
 43
0.0000000001
 12
1.0
 22
0.0
 32
0.0
 13
1.0
 23
0.0
 33
0.0
 40
0.0
 40
0.0
 40
0.0
 40
0.0
 40
1.0
 40
1.0
 40
1.0
 40
2.0
 40
2.0
 40
2.0
 40
3.0
 40
3.0
 40
3.0
 40
4.0
 40
4.0
 40
4.0
 40
5.0
 40
5.0
 40
5.0
 40
6.0
 40
6.0
 40
6.0
 40
7.0
 40
7.0
 40
7.0
 40
8.0
 40
8.0
 40
8.0
 40
8.0
 10
93.01275496806626
 20
-133.5856444978536
 30
0.0
 10
93.01275496806626
 20
-133.5856444978536
 30
0.0
 10
92.52837454284013
 20
-133.5856444978536
 30
0.0
 10
92.52837454284013
 20
-133.5856444978536
 30
0.0
 10
92.50081377895813
 20
-133.5856444978536
 30
0.0
 10
92.18352048476662
 20
-133.5856444978536
 30
0.0
 10
91.97199162197228
 20
-133.6107936948959
 30
0.0
 10
91.97199162197228
 20
-133.6107936948959
 30
0.0
 10
91.97199162197228
 20
-133.3803168069327
 30
0.0
 10
91.97199162197228
 20
-133.3803168069327
 30
0.0
 10
92.13046601429377
 20
-133.4037434562324
 30
0.0
 10
92.32097979462809
 20
-133.4058105135236
 30
0.0
 10
92.52837454284013
 20
-133.4058105135236
 30
0.0
 10
92.52837454284013
 20
-133.4058105135236
 30
0.0
 10
93.01275496806626
 20
-133.4058105135236
 30
0.0
 10
93.01275496806626
 20
-133.4058105135236
 30
0.0
 10
93.19879012426975
 20
-133.4058105135236
 30
0.0
 10
93.38516979002176
 20
-133.4037434562324
 30
0.0
 10
93.56913788893411
 20
-133.3803168069327
 30
0.0
 10
93.56913788893411
 20
-133.3803168069327
 30
0.0
 10
93.56913788893411
 20
-133.6107936948959
 30
0.0
 10
93.56913788893411
 20
-133.6107936948959
 30
0.0
 10
93.38516979002176
 20
-133.5877115551448
 30
0.0
 10
93.1374674246323
 20
-133.5856444978536
 30
0.0
 10
93.01275496806626
 20
-133.5856444978536
 30
0.0
  0
HATCH
  5
1F6
330
1D3
100
AcDbEntity
  8
_U+30EC_U+30A4_U+30E4_U+30FC 1
 62
     7
420
 16777215
100
AcDbHatch
 10
0.0
 20
0.0
 30
0.0
210
0.0
220
0.0
230
1.0
  2
SOLID
 70
     1
 71
     0
 91
        1
 92
        1
 93
        1
 72
     4
 94
        3
 73
     0
 74
     1
 95
       29
 96
       25
 40
0.0
 40
0.0
 40
0.0
 40
0.0
 40
1.0
 40
1.0
 40
1.0
 40
2.0
 40
2.0
 40
2.0
 40
3.0
 40
3.0
 40
3.0
 40
4.0
 40
4.0
 40
4.0
 40
5.0
 40
5.0
 40
5.0
 40
6.0
 40
6.0
 40
6.0
 40
7.0
 40
7.0
 40
7.0
 40
8.0
 40
8.0
 40
8.0
 40
8.0
 10
93.01275496806626
 20
-133.5856444978536
 10
93.01275496806626
 20
-133.5856444978536
 10
92.52837454284013
 20
-133.5856444978536
 10
92.52837454284013
 20
-133.5856444978536
 10
92.50081377895813
 20
-133.5856444978536
 10
92.18352048476662
 20
-133.5856444978536
 10
91.97199162197228
 20
-133.6107936948959
 10
91.97199162197228
 20
-133.6107936948959
 10
91.97199162197228
 20
-133.3803168069327
 10
91.97199162197228
 20
-133.3803168069327
 10
92.13046601429377
 20
-133.4037434562324
 10
92.32097979462809
 20
-133.4058105135236
 10
92.52837454284013
 20
-133.4058105135236
 10
92.52837454284013
 20
-133.4058105135236
 10
93.01275496806626
 20
-133.4058105135236
 10
93.01275496806626
 20
-133.4058105135236
 10
93.19879012426975
 20
-133.4058105135236
 10
93.38516979002176
 20
-133.4037434562324
 10
93.56913788893411
 20
-133.3803168069327
 10
93.56913788893411
 20
-133.3803168069327
 10
93.56913788893411
 20
-133.6107936948959
 10
93.56913788893411
 20
-133.6107936948959
 10
93.38516979002176
 20
-133.5877115551448
 10
93.1374674246323
 20
-133.5856444978536
 10
93.01275496806626
 20
-133.5856444978536
 97
        0
 97
        0
 75
     2
 76
     1
 98
        0
  0
SPLINE
  5
1F7
330
1D3
100
AcDbEntity
  8
_U+30EC_U+30A4_U+30E4_U+30FC 1
370
     0
100
AcDbSpline
210
0.0
220
0.0
230
1.0
 70
    11
 71
     3
 72
    44
 73
    40
 74
     0
 42
0.0000000001
 43
0.0000000001
 12
1.0
 22
0.0
 32
0.0
 13
1.0
 23
0.0
 33
0.0
 40
0.0
 40
0.0
 40
0.0
 40
0.0
 40
1.0
 40
1.0
 40
1.0
 40
2.0
 40
2.0
 40
2.0
 40
3.0
 40
3.0
 40
3.0
 40
4.0
 40
4.0
 40
4.0
 40
5.0
 40
5.0
 40
5.0
 40
6.0
 40
6.0
 40
6.0
 40
7.0
 40
7.0
 40
7.0
 40
8.0
 40
8.0
 40
8.0
 40
9.0
 40
9.0
 40
9.0
 40
10.0
 40
10.0
 40
10.0
 40
11.0
 40
11.0
 40
11.0
 40
12.0
 40
12.0
 40
12.0
 40
13.0
 40
13.0
 40
13.0
 40
13.0
 10
95.22416176004813
 20
-133.1474283521298
 30
0.0
 10
95.11219615677751
 20
-133.515709059503
 30
0.0
 10
95.06155325314434
 20
-133.674527961373
 30
0.0
 10
94.86483830093657
 20
-133.9239528745051
 30
0.0
 10
94.68052569247571
 20
-134.1547742720169
 30
0.0
 10
94.44384763263905
 20
-134.3408094282204
 30
0.0
 10
94.16445038878528
 20
-134.4338270063221
 30
0.0
 10
94.16445038878528
 20
-134.4338270063221
 30
0.0
 10
93.97186955115981
 20
-134.2539930219921
 30
0.0
 10
93.97186955115981
 20
-134.2539930219921
 30
0.0
 10
94.61300182096481
 20
-134.101719801544
 30
0.0
 10
94.94304196845174
 20
-133.5453368806762
 30
0.0
 10
95.00643172538034
 20
-133.1053981872098
 30
0.0
 10
95.00643172538034
 20
-133.1053981872098
 30
0.0
 10
94.2405869990093
 20
-133.1053981872098
 30
0.0
 10
94.2405869990093
 20
-133.1053981872098
 30
0.0
 10
94.14756942090756
 20
-133.1053981872098
 30
0.0
 10
93.96360132199521
 20
-133.1095323017921
 30
0.0
 10
93.80684947741635
 20
-133.128480326961
 30
0.0
 10
93.80684947741635
 20
-133.128480326961
 30
0.0
 10
93.80684947741635
 20
-132.9083387254535
 30
0.0
 10
93.80684947741635
 20
-132.9083387254535
 30
0.0
 10
93.89366588364464
 20
-132.929698317462
 30
0.0
 10
94.1455023636164
 20
-132.929698317462
 30
0.0
 10
94.2447211135916
 20
-132.929698317462
 30
0.0
 10
94.2447211135916
 20
-132.929698317462
 30
0.0
 10
94.67639157789341
 20
-132.929698317462
 30
0.0
 10
94.67639157789341
 20
-132.929698317462
 30
0.0
 10
94.71876625236197
 20
-132.929698317462
 30
0.0
 10
94.9533772549075
 20
-132.9276312601709
 30
0.0
 10
94.99161781479377
 20
-132.9214300882974
 30
0.0
 10
95.03399248926235
 20
-132.9148844068754
 30
0.0
 10
95.03605954655349
 20
-132.9128173495843
 30
0.0
 10
95.09738224619093
 20
-132.8725097324069
 30
0.0
 10
95.09738224619093
 20
-132.8725097324069
 30
0.0
 10
95.2858289692341
 20
-133.0268500101461
 30
0.0
 10
95.2858289692341
 20
-133.0268500101461
 30
0.0
 10
95.25620114806095
 20
-133.0564778313192
 30
0.0
 10
95.24138723747438
 20
-133.0881727097835
 30
0.0
 10
95.22416176004813
 20
-133.1474283521298
 30
0.0
  0
SPLINE
  5
1F8
330
1D3
100
AcDbEntity
  8
_U+30EC_U+30A4_U+30E4_U+30FC 1
370
     0
100
AcDbSpline
210
0.0
220
0.0
230
1.0
 70
    11
 71
     3
 72
    17
 73
    13
 74
     0
 42
0.0000000001
 43
0.0000000001
 12
1.0
 22
0.0
 32
0.0
 13
1.0
 23
0.0
 33
0.0
 40
0.0
 40
0.0
 40
0.0
 40
0.0
 40
1.0
 40
1.0
 40
1.0
 40
2.0
 40
2.0
 40
2.0
 40
3.0
 40
3.0
 40
3.0
 40
4.0
 40
4.0
 40
4.0
 40
4.0
 10
95.43362356555131
 20
-132.9486463426309
 30
0.0
 10
95.30684405169413
 20
-132.9486463426309
 30
0.0
 10
95.20521373487925
 20
-132.847016025816
 30
0.0
 10
95.20521373487925
 20
-132.7202365119588
 30
0.0
 10
95.20521373487925
 20
-132.5934569981016
 30
0.0
 10
95.30684405169413
 20
-132.4894151144471
 30
0.0
 10
95.43362356555131
 20
-132.4894151144471
 30
0.0
 10
95.56074758895704
 20
-132.4894151144471
 30
0.0
 10
95.66444496306306
 20
-132.5934569981016
 30
0.0
 10
95.66444496306306
 20
-132.7202365119588
 30
0.0
 10
95.66444496306306
 20
-132.847016025816
 30
0.0
 10
95.56074758895704
 20
-132.9486463426309
 30
0.0
 10
95.43362356555131
 20
-132.9486463426309
 30
0.0
  0
SPLINE
  5
1F9
330
1D3
100
AcDbEntity
  8
_U+30EC_U+30A4_U+30E4_U+30FC 1
370
     0
100
AcDbSpline
210
0.0
220
0.0
230
1.0
 70
    11
 71
     3
 72
    17
 73
    13
 74
     0
 42
0.0000000001
 43
0.0000000001
 12
1.0
 22
0.0
 32
0.0
 13
1.0
 23
0.0
 33
0.0
 40
0.0
 40
0.0
 40
0.0
 40
0.0
 40
1.0
 40
1.0
 40
1.0
 40
2.0
 40
2.0
 40
2.0
 40
3.0
 40
3.0
 40
3.0
 40
4.0
 40
4.0
 40
4.0
 40
4.0
 10
95.43155650826017
 20
-132.618606195144
 30
0.0
 10
95.3767794900447
 20
-132.618606195144
 30
0.0
 10
95.33233775828498
 20
-132.6630479269037
 30
0.0
 10
95.33233775828498
 20
-132.7181694546677
 30
0.0
 10
95.33233775828498
 20
-132.7753580397228
 30
0.0
 10
95.3767794900447
 20
-132.8239338860649
 30
0.0
 10
95.43569062284247
 20
-132.8239338860649
 30
0.0
 10
95.49494626518877
 20
-132.8239338860649
 30
0.0
 10
95.53525388236619
 20
-132.7732909824317
 30
0.0
 10
95.53525388236619
 20
-132.7202365119588
 30
0.0
 10
95.53525388236619
 20
-132.6630479269037
 30
0.0
 10
95.48874509331532
 20
-132.618606195144
 30
0.0
 10
95.43155650826017
 20
-132.618606195144
 30
0.0
  0
HATCH
  5
1FA
330
1D3
100
AcDbEntity
  8
_U+30EC_U+30A4_U+30E4_U+30FC 1
 62
     7
420
 16777215
100
AcDbHatch
 10
0.0
 20
0.0
 30
0.0
210
0.0
220
0.0
230
1.0
  2
SOLID
 70
     1
 71
     0
 91
        3
 92
        1
 93
        1
 72
     4
 94
        3
 73
     0
 74
     1
 95
       44
 96
       40
 40
0.0
 40
0.0
 40
0.0
 40
0.0
 40
1.0
 40
1.0
 40
1.0
 40
2.0
 40
2.0
 40
2.0
 40
3.0
 40
3.0
 40
3.0
 40
4.0
 40
4.0
 40
4.0
 40
5.0
 40
5.0
 40
5.0
 40
6.0
 40
6.0
 40
6.0
 40
7.0
 40
7.0
 40
7.0
 40
8.0
 40
8.0
 40
8.0
 40
9.0
 40
9.0
 40
9.0
 40
10.0
 40
10.0
 40
10.0
 40
11.0
 40
11.0
 40
11.0
 40
12.0
 40
12.0
 40
12.0
 40
13.0
 40
13.0
 40
13.0
 40
13.0
 10
95.22416176004813
 20
-133.1474283521298
 10
95.11219615677751
 20
-133.515709059503
 10
95.06155325314434
 20
-133.674527961373
 10
94.86483830093657
 20
-133.9239528745051
 10
94.68052569247571
 20
-134.1547742720169
 10
94.44384763263905
 20
-134.3408094282204
 10
94.16445038878528
 20
-134.4338270063221
 10
94.16445038878528
 20
-134.4338270063221
 10
93.97186955115981
 20
-134.2539930219921
 10
93.97186955115981
 20
-134.2539930219921
 10
94.61300182096481
 20
-134.101719801544
 10
94.94304196845174
 20
-133.5453368806762
 10
95.00643172538034
 20
-133.1053981872098
 10
95.00643172538034
 20
-133.1053981872098
 10
94.2405869990093
 20
-133.1053981872098
 10
94.2405869990093
 20
-133.1053981872098
 10
94.14756942090756
 20
-133.1053981872098
 10
93.96360132199521
 20
-133.1095323017921
 10
93.80684947741635
 20
-133.128480326961
 10
93.80684947741635
 20
-133.128480326961
 10
93.80684947741635
 20
-132.9083387254535
 10
93.80684947741635
 20
-132.9083387254535
 10
93.89366588364464
 20
-132.929698317462
 10
94.1455023636164
 20
-132.929698317462
 10
94.2447211135916
 20
-132.929698317462
 10
94.2447211135916
 20
-132.929698317462
 10
94.67639157789341
 20
-132.929698317462
 10
94.67639157789341
 20
-132.929698317462
 10
94.71876625236197
 20
-132.929698317462
 10
94.9533772549075
 20
-132.9276312601709
 10
94.99161781479377
 20
-132.9214300882974
 10
95.03399248926235
 20
-132.9148844068754
 10
95.03605954655349
 20
-132.9128173495843
 10
95.09738224619093
 20
-132.8725097324069
 10
95.09738224619093
 20
-132.8725097324069
 10
95.2858289692341
 20
-133.0268500101461
 10
95.2858289692341
 20
-133.0268500101461
 10
95.25620114806095
 20
-133.0564778313192
 10
95.24138723747438
 20
-133.0881727097835
 10
95.22416176004813
 20
-133.1474283521298
 97
        0
 97
        0
 92
        1
 93
        1
 72
     4
 94
        3
 73
     0
 74
     1
 95
       17
 96
       13
 40
0.0
 40
0.0
 40
0.0
 40
0.0
 40
1.0
 40
1.0
 40
1.0
 40
2.0
 40
2.0
 40
2.0
 40
3.0
 40
3.0
 40
3.0
 40
4.0
 40
4.0
 40
4.0
 40
4.0
 10
95.43362356555131
 20
-132.9486463426309
 10
95.30684405169413
 20
-132.9486463426309
 10
95.20521373487925
 20
-132.847016025816
 10
95.20521373487925
 20
-132.7202365119588
 10
95.20521373487925
 20
-132.5934569981016
 10
95.30684405169413
 20
-132.4894151144471
 10
95.43362356555131
 20
-132.4894151144471
 10
95.56074758895704
 20
-132.4894151144471
 10
95.66444496306306
 20
-132.5934569981016
 10
95.66444496306306
 20
-132.7202365119588
 10
95.66444496306306
 20
-132.847016025816
 10
95.56074758895704
 20
-132.9486463426309
 10
95.43362356555131
 20
-132.9486463426309
 97
        0
 97
        0
 92
        1
 93
        1
 72
     4
 94
        3
 73
     0
 74
     1
 95
       17
 96
       13
 40
0.0
 40
0.0
 40
0.0
 40
0.0
 40
1.0
 40
1.0
 40
1.0
 40
2.0
 40
2.0
 40
2.0
 40
3.0
 40
3.0
 40
3.0
 40
4.0
 40
4.0
 40
4.0
 40
4.0
 10
95.43155650826017
 20
-132.618606195144
 10
95.3767794900447
 20
-132.618606195144
 10
95.33233775828498
 20
-132.6630479269037
 10
95.33233775828498
 20
-132.7181694546677
 10
95.33233775828498
 20
-132.7753580397228
 10
95.3767794900447
 20
-132.8239338860649
 10
95.43569062284247
 20
-132.8239338860649
 10
95.49494626518877
 20
-132.8239338860649
 10
95.53525388236619
 20
-132.7732909824317
 10
95.53525388236619
 20
-132.7202365119588
 10
95.53525388236619
 20
-132.6630479269037
 10
95.48874509331532
 20
-132.618606195144
 10
95.43155650826017
 20
-132.618606195144
 97
        0
 97
        0
 75
     2
 76
     1
 98
        0
  0
ENDBLK
  5
1D6
330
1D3
100
AcDbEntity
  8
0
100
AcDbBlockEnd
  0
BLOCK
  5
1FD
330
1FB
100
AcDbEntity
  8
0
100
AcDbBlockBegin
  2
block 9
 70
     0
 10
0.0
 20
0.0
 30
0.0
  3
block 9
  1

  0
POLYLINE
  5
1FF
330
1FB
100
AcDbEntity
  8
_U+30EC_U+30A4_U+30E4_U+30FC 1
 62
     7
420
 16777215
370
     9
100
AcDb2dPolyline
 66
     1
 10
0.0
 20
0.0
 30
0.0
  0
VERTEX
  5
200
330
1FF
100
AcDbEntity
  8
_U+30EC_U+30A4_U+30E4_U+30FC 1
 62
     7
420
 16777215
370
     9
100
AcDbVertex
100
AcDb2dVertex
 10
98.12182027448159
 20
-136.5859952436311
 30
0.0
  0
VERTEX
  5
201
330
1FF
100
AcDbEntity
  8
_U+30EC_U+30A4_U+30E4_U+30FC 1
 62
     7
420
 16777215
370
     9
100
AcDbVertex
100
AcDb2dVertex
 10
93.56879983508327
 20
-134.7063246885455
 30
0.0
  0
SEQEND
  5
202
330
1FF
100
AcDbEntity
  8
_U+30EC_U+30A4_U+30E4_U+30FC 1
 62
     7
420
 16777215
370
     9
  0
POLYLINE
  5
203
330
1FB
100
AcDbEntity
  8
_U+30EC_U+30A4_U+30E4_U+30FC 1
 62
     7
420
 16777215
370
     9
100
AcDb2dPolyline
 66
     1
 10
0.0
 20
0.0
 30
0.0
  0
VERTEX
  5
204
330
203
100
AcDbEntity
  8
_U+30EC_U+30A4_U+30E4_U+30FC 1
 62
     7
420
 16777215
370
     9
100
AcDbVertex
100
AcDb2dVertex
 10
98.12182027448159
 20
-136.5859952436311
 30
0.0
  0
VERTEX
  5
205
330
203
100
AcDbEntity
  8
_U+30EC_U+30A4_U+30E4_U+30FC 1
 62
     7
420
 16777215
370
     9
100
AcDbVertex
100
AcDb2dVertex
 10
97.3287758502694
 20
-135.9765363548946
 30
0.0
  0
SEQEND
  5
206
330
203
100
AcDbEntity
  8
_U+30EC_U+30A4_U+30E4_U+30FC 1
 62
     7
420
 16777215
370
     9
  0
POLYLINE
  5
207
330
1FB
100
AcDbEntity
  8
_U+30EC_U+30A4_U+30E4_U+30FC 1
 62
     7
420
 16777215
370
     9
100
AcDb2dPolyline
 66
     1
 10
0.0
 20
0.0
 30
0.0
  0
VERTEX
  5
208
330
207
100
AcDbEntity
  8
_U+30EC_U+30A4_U+30E4_U+30FC 1
 62
     7
420
 16777215
370
     9
100
AcDbVertex
100
AcDb2dVertex
 10
98.12182027448159
 20
-136.5859952436311
 30
0.0
  0
VERTEX
  5
209
330
207
100
AcDbEntity
  8
_U+30EC_U+30A4_U+30E4_U+30FC 1
 62
     7
420
 16777215
370
     9
100
AcDbVertex
100
AcDb2dVertex
 10
97.13069113310074
 20
-136.4547266325533
 30
0.0
  0
SEQEND
  5
20A
330
207
100
AcDbEntity
  8
_U+30EC_U+30A4_U+30E4_U+30FC 1
 62
     7
420
 16777215
370
     9
  0
ENDBLK
  5
1FE
330
1FB
100
AcDbEntity
  8
0
100
AcDbBlockEnd
  0
ENDSEC
  0
SECTION
  2
ENTITIES
  0
INSERT
  5
42
330
1F
100
AcDbEntity
  8
_U+30EC_U+30A4_U+30E4_U+30FC 1
100
AcDbBlockReference
  2
block 2
 10
0.0
 20
0.0
 30
0.0
  0
ENDSEC
  0
SECTION
  2
OBJECTS
  0
DICTIONARY
  5
C
330
0
100
AcDbDictionary
281
     1
  3
ACAD_GROUP
350
D
  3
ACAD_LAYOUT
350
1A
  3
ACAD_MATERIAL
350
3B
  3
ACAD_MLEADERSTYLE
350
21F
  3
ACAD_MLINESTYLE
350
17
  3
ACAD_PLOTSETTINGS
350
19
  3
ACAD_PLOTSTYLENAME
350
E
  3
ACAD_TABLESTYLE
350
21E
  3
ACAD_VISUALSTYLE
350
2A
  0
SUN
  5
3F
330
29
100
AcDbSun
 90
        1
290
     0
 63
     7
421
 16777215
 40
1.0
291
     1
 91
  2455826
 92
 54000000
292
     0
 70
     2
 71
   256
280
     1
  0
DICTIONARY
  5
D
102
{ACAD_REACTORS
330
C
102
}
330
C
100
AcDbDictionary
281
     1
  0
DICTIONARY
  5
1A
102
{ACAD_REACTORS
330
C
102
}
330
C
100
AcDbDictionary
281
     1
  3
Layout1
350
1E
  3
Layout2
350
26
  3
Model
350
22
  0
DICTIONARY
  5
3B
102
{ACAD_REACTORS
330
C
102
}
330
C
100
AcDbDictionary
281
     1
  3
ByBlock
350
3D
  3
ByLayer
350
3C
  3
Global
350
3E
  0
DICTIONARY
  5
21F
102
{ACAD_REACTORS
330
C
102
}
330
C
100
AcDbDictionary
281
     1
  0
DICTIONARY
  5
17
102
{ACAD_REACTORS
330
C
102
}
330
C
100
AcDbDictionary
281
     1
  3
Standard
350
18
  0
DICTIONARY
  5
19
102
{ACAD_REACTORS
330
C
102
}
330
C
100
AcDbDictionary
281
     1
  0
ACDBDICTIONARYWDFLT
  5
E
102
{ACAD_REACTORS
330
C
102
}
330
C
100
AcDbDictionary
281
     1
  3
Normal
350
F
100
AcDbDictionaryWithDefault
340
F
  0
DICTIONARY
  5
21E
102
{ACAD_REACTORS
330
C
102
}
330
C
100
AcDbDictionary
281
     1
  0
DICTIONARY
  5
2A
102
{ACAD_REACTORS
330
C
102
}
330
C
100
AcDbDictionary
281
     1
  3
2dWireframe
350
2F
  3
3D Hidden
350
31
  3
3dWireframe
350
30
  3
Basic
350
32
  3
Brighten
350
36
  3
ColorChange
350
3A
  3
Conceptual
350
34
  3
Dim
350
35
  3
Facepattern
350
39
  3
Flat
350
2B
  3
FlatWithEdges
350
2C
  3
Gouraud
350
2D
  3
GouraudWithEdges
350
2E
  3
Linepattern
350
38
  3
Realistic
350
33
  3
Thicken
350
37
  0
LAYOUT
  5
1E
102
{ACAD_REACTORS
330
1A
102
}
330
1A
100
AcDbPlotSettings
  1

  2
none_device
  4

  6

 40
0.0
 41
0.0
 42
0.0
 43
0.0
 44
0.0
 45
0.0
 46
0.0
 47
0.0
 48
0.0
 49
0.0
140
0.0
141
0.0
142
1.0
143
1.0
 70
   688
 72
     0
 73
     0
 74
     5
  7

 75
    16
 76
     0
 77
     2
 78
   300
147
1.0
148
0.0
149
0.0
100
AcDbLayout
  1
Layout1
 70
     1
 71
     1
 10
0.0
 20
0.0
 11
12.0
 21
9.0
 12
0.0
 22
0.0
 32
0.0
 14
1.000000000000000E+20
 24
1.000000000000000E+20
 34
1.000000000000000E+20
 15
-1.000000000000000E+20
 25
-1.000000000000000E+20
 35
-1.000000000000000E+20
146
0.0
 13
0.0
 23
0.0
 33
0.0
 16
1.0
 26
0.0
 36
0.0
 17
0.0
 27
1.0
 37
0.0
 76
     0
330
1B
  0
LAYOUT
  5
26
102
{ACAD_REACTORS
330
1A
102
}
330
1A
100
AcDbPlotSettings
  1

  2
none_device
  4

  6

 40
0.0
 41
0.0
 42
0.0
 43
0.0
 44
0.0
 45
0.0
 46
0.0
 47
0.0
 48
0.0
 49
0.0
140
0.0
141
0.0
142
1.0
143
1.0
 70
   688
 72
     0
 73
     0
 74
     5
  7

 75
    16
 76
     0
 77
     2
 78
   300
147
1.0
148
0.0
149
0.0
100
AcDbLayout
  1
Layout2
 70
     1
 71
     2
 10
0.0
 20
0.0
 11
0.0
 21
0.0
 12
0.0
 22
0.0
 32
0.0
 14
0.0
 24
0.0
 34
0.0
 15
0.0
 25
0.0
 35
0.0
146
0.0
 13
0.0
 23
0.0
 33
0.0
 16
1.0
 26
0.0
 36
0.0
 17
0.0
 27
1.0
 37
0.0
 76
     0
330
23
  0
LAYOUT
  5
22
102
{ACAD_REACTORS
330
1A
102
}
330
1A
100
AcDbPlotSettings
  1

  2
none_device
  4

  6

 40
0.0
 41
0.0
 42
0.0
 43
0.0
 44
0.0
 45
0.0
 46
0.0
 47
0.0
 48
0.0
 49
0.0
140
0.0
141
0.0
142
1.0
143
1.0
 70
  1712
 72
     0
 73
     0
 74
     0
  7

 75
     0
 76
     0
 77
     2
 78
   300
147
1.0
148
0.0
149
0.0
100
AcDbLayout
  1
Model
 70
     1
 71
     0
 10
0.0
 20
0.0
 11
12.0
 21
9.0
 12
0.0
 22
0.0
 32
0.0
 14
1.000000000000000E+20
 24
1.000000000000000E+20
 34
1.000000000000000E+20
 15
-1.000000000000000E+20
 25
-1.000000000000000E+20
 35
-1.000000000000000E+20
146
0.0
 13
0.0
 23
0.0
 33
0.0
 16
1.0
 26
0.0
 36
0.0
 17
0.0
 27
1.0
 37
0.0
 76
     0
330
1F
331
29
  0
MATERIAL
  5
3D
102
{ACAD_REACTORS
330
3B
102
}
330
3B
100
AcDbMaterial
  1
ByBlock
 72
     1
 94
      127
  0
MATERIAL
  5
3C
102
{ACAD_REACTORS
330
3B
102
}
330
3B
100
AcDbMaterial
  1
ByLayer
 72
     1
 94
      127
  0
MATERIAL
  5
3E
102
{ACAD_REACTORS
330
3B
102
}
330
3B
100
AcDbMaterial
  1
Global
 72
     1
 94
      127
  0
MLINESTYLE
  5
18
102
{ACAD_REACTORS
330
17
102
}
330
17
100
AcDbMlineStyle
  2
Standard
 70
     0
  3

 62
   256
 51
90.0
 52
90.0
 71
     2
 49
0.5
 62
   256
  6
BYLAYER
 49
-0.5
 62
   256
  6
BYLAYER
  0
ACDBPLACEHOLDER
  5
F
102
{ACAD_REACTORS
330
E
102
}
330
E
  0
VISUALSTYLE
  5
2F
102
{ACAD_REACTORS
330
2A
102
}
330
2A
100
AcDbVisualStyle
  2
2dWireframe
 70
     4
177
     2
291
     0
 71
     0
176
     1
 72
     2
176
     1
 73
     0
176
     1
 90
        0
176
     1
 40
-0.6
176
     1
 41
-30.0
176
     1
 62
     5
 63
     7
421
 16777215
176
     1
 74
     1
176
     1
 91
        4
176
     1
 64
     7
176
     1
 65
   257
176
     1
 75
     1
176
     1
175
     1
176
     1
 42
1.0
176
     1
 92
        0
176
     1
 66
   257
176
     1
 43
1.0
176
     1
 76
     1
176
     1
 77
     6
176
     1
 78
     2
176
     1
 67
     7
176
     1
 79
     5
176
     1
170
     0
176
     1
171
     0
176
     1
290
     0
176
     1
 93
        1
176
     1
 44
0.0
176
     1
173
     0
176
     1
  0
VISUALSTYLE
  5
31
102
{ACAD_REACTORS
330
2A
102
}
330
2A
100
AcDbVisualStyle
  2
3D Hidden
 70
     6
177
     2
291
     0
 71
     1
176
     1
 72
     2
176
     1
 73
     2
176
     1
 90
        0
176
     1
 40
-0.6
176
     1
 41
-30.0
176
     1
 62
     5
 63
     7
421
 16777215
176
     1
 74
     2
176
     1
 91
        2
176
     1
 64
     7
176
     1
 65
   257
176
     1
 75
     2
176
     1
175
     1
176
     1
 42
40.0
176
     1
 92
        0
176
     1
 66
   257
176
     1
 43
1.0
176
     1
 76
     1
176
     1
 77
     6
176
     1
 78
     2
176
     1
 67
     7
176
     1
 79
     3
176
     1
170
     0
176
     1
171
     0
176
     1
290
     0
176
     1
 93
        1
176
     1
 44
0.0
176
     1
173
     0
176
     1
  0
VISUALSTYLE
  5
30
102
{ACAD_REACTORS
330
2A
102
}
330
2A
100
AcDbVisualStyle
  2
3dWireframe
 70
     5
177
     2
291
     0
 71
     0
176
     1
 72
     2
176
     1
 73
     0
176
     1
 90
        0
176
     1
 40
-0.6
176
     1
 41
-30.0
176
     1
 62
     5
 63
     7
421
 16777215
176
     1
 74
     1
176
     1
 91
        4
176
     1
 64
     7
176
     1
 65
   257
176
     1
 75
     1
176
     1
175
     1
176
     1
 42
1.0
176
     1
 92
        0
176
     1
 66
   257
176
     1
 43
1.0
176
     1
 76
     1
176
     1
 77
     6
176
     1
 78
     2
176
     1
 67
     7
176
     1
 79
     5
176
     1
170
     0
176
     1
171
     0
176
     1
290
     0
176
     1
 93
        1
176
     1
 44
0.0
176
     1
173
     0
176
     1
  0
VISUALSTYLE
  5
32
102
{ACAD_REACTORS
330
2A
102
}
330
2A
100
AcDbVisualStyle
  2
Basic
 70
     7
177
     2
291
     1
 71
     1
176
     1
 72
     0
176
     1
 73
     1
176
     1
 90
        0
176
     1
 40
-0.6
176
     1
 41
-30.0
176
     1
 62
     5
 63
     7
421
 16777215
176
     1
 74
     0
176
     1
 91
        4
176
     1
 64
     7
176
     1
 65
   257
176
     1
 75
     1
176
     1
175
     1
176
     1
 42
1.0
176
     1
 92
        8
176
     1
 66
     7
176
     1
 43
1.0
176
     1
 76
     1
176
     1
 77
     6
176
     1
 78
     2
176
     1
 67
     7
176
     1
 79
     5
176
     1
170
     0
176
     1
171
     0
176
     1
290
     0
176
     1
 93
        1
176
     1
 44
0.0
176
     1
173
     0
176
     1
  0
VISUALSTYLE
  5
36
102
{ACAD_REACTORS
330
2A
102
}
330
2A
100
AcDbVisualStyle
  2
Brighten
 70
    12
177
     2
291
     1
 71
     2
176
     1
 72
     2
176
     1
 73
     0
176
     1
 90
        0
176
     1
 40
-0.6
176
     1
 41
-30.0
176
     1
 62
     5
 63
     7
421
 16777215
176
     1
 74
     1
176
     1
 91
        4
176
     1
 64
     7
176
     1
 65
   257
176
     1
 75
     1
176
     1
175
     1
176
     1
 42
1.0
176
     1
 92
        8
176
     1
 66
     7
176
     1
 43
1.0
176
     1
 76
     1
176
     1
 77
     6
176
     1
 78
     2
176
     1
 67
     7
176
     1
 79
     5
176
     1
170
     0
176
     1
171
     0
176
     1
290
     0
176
     1
 93
        1
176
     1
 44
50.0
176
     1
173
     0
176
     1
  0
VISUALSTYLE
  5
3A
102
{ACAD_REACTORS
330
2A
102
}
330
2A
100
AcDbVisualStyle
  2
ColorChange
 70
    16
177
     2
291
     1
 71
     2
176
     1
 72
     2
176
     1
 73
     3
176
     1
 90
        0
176
     1
 40
-0.6
176
     1
 41
-30.0
176
     1
 62
     5
 63
     8
421
  8421504
176
     1
 74
     1
176
     1
 91
        4
176
     1
 64
     7
176
     1
 65
   257
176
     1
 75
     1
176
     1
175
     1
176
     1
 42
1.0
176
     1
 92
        8
176
     1
 66
     8
424
  8421504
176
     1
 43
1.0
176
     1
 76
     1
176
     1
 77
     6
176
     1
 78
     2
176
     1
 67
     7
176
     1
 79
     5
176
     1
170
     0
176
     1
171
     0
176
     1
290
     0
176
     1
 93
        1
176
     1
 44
0.0
176
     1
173
     0
176
     1
  0
VISUALSTYLE
  5
34
102
{ACAD_REACTORS
330
2A
102
}
330
2A
100
AcDbVisualStyle
  2
Conceptual
 70
     9
177
     2
291
     0
 71
     3
176
     1
 72
     2
176
     1
 73
     0
176
     1
 90
        0
176
     1
 40
-0.6
176
     1
 41
-30.0
176
     1
 62
     5
 63
     7
421
 16777215
176
     1
 74
     2
176
     1
 91
        2
176
     1
 64
     7
176
     1
 65
   257
176
     1
 75
     1
176
     1
175
     1
176
     1
 42
40.0
176
     1
 92
        8
176
     1
 66
     7
176
     1
 43
1.0
176
     1
 76
     1
176
     1
 77
     6
176
     1
 78
     2
176
     1
 67
     7
176
     1
 79
     3
176
     1
170
     0
176
     1
171
     0
176
     1
290
     0
176
     1
 93
        1
176
     1
 44
0.0
176
     1
173
     0
176
     1
  0
VISUALSTYLE
  5
35
102
{ACAD_REACTORS
330
2A
102
}
330
2A
100
AcDbVisualStyle
  2
Dim
 70
    11
177
     2
291
     1
 71
     2
176
     1
 72
     2
176
     1
 73
     0
176
     1
 90
        0
176
     1
 40
-0.6
176
     1
 41
-30.0
176
     1
 62
     5
 63
     7
421
 16777215
176
     1
 74
     1
176
     1
 91
        4
176
     1
 64
     7
176
     1
 65
   257
176
     1
 75
     1
176
     1
175
     1
176
     1
 42
1.0
176
     1
 92
        8
176
     1
 66
     7
176
     1
 43
1.0
176
     1
 76
     1
176
     1
 77
     6
176
     1
 78
     2
176
     1
 67
     7
176
     1
 79
     5
176
     1
170
     0
176
     1
171
     0
176
     1
290
     0
176
     1
 93
        1
176
     1
 44
-50.0
176
     1
173
     0
176
     1
  0
VISUALSTYLE
  5
39
102
{ACAD_REACTORS
330
2A
102
}
330
2A
100
AcDbVisualStyle
  2
Facepattern
 70
    15
177
     2
291
     1
 71
     2
176
     1
 72
     2
176
     1
 73
     0
176
     1
 90
        0
176
     1
 40
-0.6
176
     1
 41
-30.0
176
     1
 62
     5
 63
     7
421
 16777215
176
     1
 74
     1
176
     1
 91
        4
176
     1
 64
     7
176
     1
 65
   257
176
     1
 75
     1
176
     1
175
     1
176
     1
 42
1.0
176
     1
 92
        8
176
     1
 66
     7
176
     1
 43
1.0
176
     1
 76
     1
176
     1
 77
     6
176
     1
 78
     2
176
     1
 67
     7
176
     1
 79
     5
176
     1
170
     0
176
     1
171
     0
176
     1
290
     0
176
     1
 93
        1
176
     1
 44
0.0
176
     1
173
     0
176
     1
  0
VISUALSTYLE
  5
2B
102
{ACAD_REACTORS
330
2A
102
}
330
2A
100
AcDbVisualStyle
  2
Flat
 70
     0
177
     2
291
     1
 71
     2
176
     1
 72
     1
176
     1
 73
     1
176
     1
 90
        2
176
     1
 40
-0.6
176
     1
 41
30.0
176
     1
 62
     5
 63
     7
421
 16777215
176
     1
 74
     0
176
     1
 91
        4
176
     1
 64
     7
176
     1
 65
   257
176
     1
 75
     1
176
     1
175
     1
176
     1
 42
1.0
176
     1
 92
        8
176
     1
 66
     7
176
     1
 43
1.0
176
     1
 76
     1
176
     1
 77
     6
176
     1
 78
     2
176
     1
 67
     7
176
     1
 79
     5
176
     1
170
     0
176
     1
171
     0
176
     1
290
     0
176
     1
 93
       13
176
     1
 44
0.0
176
     1
173
     0
176
     1
  0
VISUALSTYLE
  5
2C
102
{ACAD_REACTORS
330
2A
102
}
330
2A
100
AcDbVisualStyle
  2
FlatWithEdges
 70
     1
177
     2
291
     1
 71
     2
176
     1
 72
     1
176
     1
 73
     1
176
     1
 90
        2
176
     1
 40
-0.6
176
     1
 41
30.0
176
     1
 62
     5
 63
     7
421
 16777215
176
     1
 74
     1
176
     1
 91
        4
176
     1
 64
     7
176
     1
 65
   257
176
     1
 75
     1
176
     1
175
     1
176
     1
 42
1.0
176
     1
 92
        0
176
     1
 66
   257
176
     1
 43
1.0
176
     1
 76
     1
176
     1
 77
     6
176
     1
 78
     2
176
     1
 67
     7
176
     1
 79
     5
176
     1
170
     0
176
     1
171
     0
176
     1
290
     0
176
     1
 93
       13
176
     1
 44
0.0
176
     1
173
     0
176
     1
  0
VISUALSTYLE
  5
2D
102
{ACAD_REACTORS
330
2A
102
}
330
2A
100
AcDbVisualStyle
  2
Gouraud
 70
     2
177
     2
291
     1
 71
     2
176
     1
 72
     2
176
     1
 73
     1
176
     1
 90
        2
176
     1
 40
-0.6
176
     1
 41
30.0
176
     1
 62
     5
 63
     7
421
 16777215
176
     1
 74
     0
176
     1
 91
        4
176
     1
 64
     7
176
     1
 65
   257
176
     1
 75
     1
176
     1
175
     1
176
     1
 42
1.0
176
     1
 92
        0
176
     1
 66
     7
176
     1
 43
1.0
176
     1
 76
     1
176
     1
 77
     6
176
     1
 78
     2
176
     1
 67
     7
176
     1
 79
     5
176
     1
170
     0
176
     1
171
     0
176
     1
290
     0
176
     1
 93
       13
176
     1
 44
0.0
176
     1
173
     0
176
     1
  0
VISUALSTYLE
  5
2E
102
{ACAD_REACTORS
330
2A
102
}
330
2A
100
AcDbVisualStyle
  2
GouraudWithEdges
 70
     3
177
     2
291
     1
 71
     2
176
     1
 72
     2
176
     1
 73
     1
176
     1
 90
        2
176
     1
 40
-0.6
176
     1
 41
30.0
176
     1
 62
     5
 63
     7
421
 16777215
176
     1
 74
     1
176
     1
 91
        4
176
     1
 64
     7
176
     1
 65
   257
176
     1
 75
     1
176
     1
175
     1
176
     1
 42
1.0
176
     1
 92
        0
176
     1
 66
   257
176
     1
 43
1.0
176
     1
 76
     1
176
     1
 77
     6
176
     1
 78
     2
176
     1
 67
     7
176
     1
 79
     5
176
     1
170
     0
176
     1
171
     0
176
     1
290
     0
176
     1
 93
       13
176
     1
 44
0.0
176
     1
173
     0
176
     1
  0
VISUALSTYLE
  5
38
102
{ACAD_REACTORS
330
2A
102
}
330
2A
100
AcDbVisualStyle
  2
Linepattern
 70
    14
177
     2
291
     1
 71
     2
176
     1
 72
     2
176
     1
 73
     0
176
     1
 90
        0
176
     1
 40
-0.6
176
     1
 41
-30.0
176
     1
 62
     5
 63
     7
421
 16777215
176
     1
 74
     1
176
     1
 91
        4
176
     1
 64
     7
176
     1
 65
   257
176
     1
 75
     7
176
     1
175
     7
176
     1
 42
1.0
176
     1
 92
        8
176
     1
 66
     7
176
     1
 43
1.0
176
     1
 76
     1
176
     1
 77
     6
176
     1
 78
     2
176
     1
 67
     7
176
     1
 79
     5
176
     1
170
     0
176
     1
171
     0
176
     1
290
     0
176
     1
 93
        1
176
     1
 44
0.0
176
     1
173
     0
176
     1
  0
VISUALSTYLE
  5
33
102
{ACAD_REACTORS
330
2A
102
}
330
2A
100
AcDbVisualStyle
  2
Realistic
 70
     8
177
     2
291
     0
 71
     2
176
     1
 72
     2
176
     1
 73
     0
176
     1
 90
        0
176
     1
 40
-0.6
176
     1
 41
-30.0
176
     1
 62
     5
 63
     7
421
 16777215
176
     1
 74
     1
176
     1
 91
        0
176
     1
 64
     7
176
     1
 65
   257
176
     1
 75
     1
176
     1
175
     1
176
     1
 42
1.0
176
     1
 92
        8
176
     1
 66
     8
424
  7895160
176
     1
 43
1.0
176
     1
 76
     1
176
     1
 77
     6
176
     1
 78
     2
176
     1
 67
     7
176
     1
 79
     5
176
     1
170
     0
176
     1
171
     0
176
     1
290
     0
176
     1
 93
       13
176
     1
 44
0.0
176
     1
173
     0
176
     1
  0
VISUALSTYLE
  5
37
102
{ACAD_REACTORS
330
2A
102
}
330
2A
100
AcDbVisualStyle
  2
Thicken
 70
    13
177
     2
291
     1
 71
     2
176
     1
 72
     2
176
     1
 73
     0
176
     1
 90
        0
176
     1
 40
-0.6
176
     1
 41
-30.0
176
     1
 62
     5
 63
     7
421
 16777215
176
     1
 74
     1
176
     1
 91
        4
176
     1
 64
     7
176
     1
 65
   257
176
     1
 75
     1
176
     1
175
     1
176
     1
 42
1.0
176
     1
 92
       12
176
     1
 66
     7
176
     1
 43
1.0
176
     1
 76
     1
176
     1
 77
     6
176
     1
 78
     2
176
     1
 67
     7
176
     1
 79
     5
176
     1
170
     0
176
     1
171
     0
176
     1
290
     0
176
     1
 93
        1
176
     1
 44
0.0
176
     1
173
     0
176
     1
  0
ENDSEC
  0
EOF
