  0
SECTION
  2
HEADER
  9
$ACADVER
  1
AC1024
  9
$ACADMAINTVER
 70
     6
  9
$DWGCODEPAGE
  3
UNDEFINED
  9
$INSBASE
 10
0.0
 20
0.0
 30
0.0
  9
$EXTMIN
 10
1.000000000000000E+20
 20
1.000000000000000E+20
 30
1.000000000000000E+20
  9
$EXTMAX
 10
-1.000000000000000E+20
 20
-1.000000000000000E+20
 30
-1.000000000000000E+20
  9
$LIMMIN
 10
0.0
 20
0.0
  9
$LIMMAX
 10
12.0
 20
9.0
  9
$ORTHOMODE
 70
     0
  9
$REGENMODE
 70
     1
  9
$FILLMODE
 70
     1
  9
$QTEXTMODE
 70
     0
  9
$MIRRTEXT
 70
     1
  9
$LTSCALE
 40
1.0
  9
$ATTMODE
 70
     1
  9
$TEXTSIZE
 40
0.2
  9
$TRACEWID
 40
0.05
  9
$TEXTSTYLE
  7
Standard
  9
$CLAYER
  8
0
  9
$CELTYPE
  6
ByLayer
  9
$CECOLOR
 62
   256
  9
$CELTSCALE
 40
1.0
  9
$DISPSILH
 70
     0
  9
$DIMSCALE
 40
1.0
  9
$DIMASZ
 40
0.18
  9
$DIMEXO
 40
0.0625
  9
$DIMDLI
 40
0.38
  9
$DIMRND
 40
0.0
  9
$DIMDLE
 40
0.0
  9
$DIMEXE
 40
0.18
  9
$DIMTP
 40
0.0
  9
$DIMTM
 40
0.0
  9
$DIMTXT
 40
0.18
  9
$DIMCEN
 40
0.09
  9
$DIMTSZ
 40
0.0
  9
$DIMTOL
 70
     0
  9
$DIMLIM
 70
     0
  9
$DIMTIH
 70
     1
  9
$DIMTOH
 70
     1
  9
$DIMSE1
 70
     0
  9
$DIMSE2
 70
     0
  9
$DIMTAD
 70
     0
  9
$DIMZIN
 70
     0
  9
$DIMBLK
  1

  9
$DIMASO
 70
     1
  9
$DIMSHO
 70
     1
  9
$DIMPOST
  1

  9
$DIMAPOST
  1

  9
$DIMALT
 70
     0
  9
$DIMALTD
 70
     2
  9
$DIMALTF
 40
25.4
  9
$DIMLFAC
 40
1.0
  9
$DIMTOFL
 70
     0
  9
$DIMTVP
 40
0.0
  9
$DIMTIX
 70
     0
  9
$DIMSOXD
 70
     0
  9
$DIMSAH
 70
     0
  9
$DIMBLK1
  1

  9
$DIMBLK2
  1

  9
$DIMSTYLE
  2
Standard
  9
$DIMCLRD
 70
     0
  9
$DIMCLRE
 70
     0
  9
$DIMCLRT
 70
     0
  9
$DIMTFAC
 40
1.0
  9
$DIMGAP
 40
0.09
  9
$DIMJUST
 70
     0
  9
$DIMSD1
 70
     0
  9
$DIMSD2
 70
     0
  9
$DIMTOLJ
 70
     1
  9
$DIMTZIN
 70
     0
  9
$DIMALTZ
 70
     0
  9
$DIMALTTZ
 70
     0
  9
$DIMUPT
 70
     0
  9
$DIMDEC
 70
     4
  9
$DIMTDEC
 70
     4
  9
$DIMALTU
 70
     2
  9
$DIMALTTD
 70
     2
  9
$DIMTXSTY
  7
Standard
  9
$DIMAUNIT
 70
     0
  9
$DIMADEC
 70
     0
  9
$DIMALTRND
 40
0.0
  9
$DIMAZIN
 70
     0
  9
$DIMDSEP
 70
    46
  9
$DIMATFIT
 70
     3
  9
$DIMFRAC
 70
     0
  9
$DIMLDRBLK
  1

  9
$DIMLUNIT
 70
     2
  9
$DIMLWD
 70
    -2
  9
$DIMLWE
 70
    -2
  9
$DIMTMOVE
 70
     0
  9
$DIMFXL
 40
1.0
  9
$DIMFXLON
 70
     0
  9
$DIMJOGANG
 40
0.7853981633974483
  9
$DIMTFILL
 70
     0
  9
$DIMTFILLCLR
 70
     0
  9
$DIMARCSYM
 70
     0
  9
$DIMLTYPE
  6

  9
$DIMLTEX1
  6

  9
$DIMLTEX2
  6

  9
$DIMTXTDIRECTION
 70
     0
  9
$LUNITS
 70
     2
  9
$LUPREC
 70
     4
  9
$SKETCHINC
 40
0.1
  9
$FILLETRAD
 40
0.5
  9
$AUNITS
 70
     0
  9
$AUPREC
 70
     0
  9
$MENU
  1
.
  9
$ELEVATION
 40
0.0
  9
$PELEVATION
 40
0.0
  9
$THICKNESS
 40
0.0
  9
$LIMCHECK
 70
     0
  9
$CHAMFERA
 40
0.5
  9
$CHAMFERB
 40
0.5
  9
$CHAMFERC
 40
1.0
  9
$CHAMFERD
 40
0.0
  9
$SKPOLY
 70
     0
  9
$TDCREATE
 40
2457917.585081007
  9
$TDUCREATE
 40
2457917.210081019
  9
$TDUPDATE
 40
2457917.585081007
  9
$TDUUPDATE
 40
2457917.210081019
  9
$TDINDWG
 40
0.0000000116
  9
$TDUSRTIMER
 40
0.0000000116
  9
$USRTIMER
 70
     1
  9
$ANGBASE
 50
0.0
  9
$ANGDIR
 70
     0
  9
$PDMODE
 70
     0
  9
$PDSIZE
 40
0.0
  9
$PLINEWID
 40
0.0
  9
$SPLFRAME
 70
     0
  9
$SPLINETYPE
 70
     6
  9
$SPLINESEGS
 70
     8
  9
$HANDSEED
  5
1FF
  9
$SURFTAB1
 70
     6
  9
$SURFTAB2
 70
     6
  9
$SURFTYPE
 70
     6
  9
$SURFU
 70
     6
  9
$SURFV
 70
     6
  9
$UCSBASE
  2

  9
$UCSNAME
  2

  9
$UCSORG
 10
0.0
 20
0.0
 30
0.0
  9
$UCSXDIR
 10
1.0
 20
0.0
 30
0.0
  9
$UCSYDIR
 10
0.0
 20
1.0
 30
0.0
  9
$UCSORTHOREF
  2

  9
$UCSORTHOVIEW
 70
     0
  9
$UCSORGTOP
 10
0.0
 20
0.0
 30
0.0
  9
$UCSORGBOTTOM
 10
0.0
 20
0.0
 30
0.0
  9
$UCSORGLEFT
 10
0.0
 20
0.0
 30
0.0
  9
$UCSORGRIGHT
 10
0.0
 20
0.0
 30
0.0
  9
$UCSORGFRONT
 10
0.0
 20
0.0
 30
0.0
  9
$UCSORGBACK
 10
0.0
 20
0.0
 30
0.0
  9
$PUCSBASE
  2

  9
$PUCSNAME
  2

  9
$PUCSORG
 10
0.0
 20
0.0
 30
0.0
  9
$PUCSXDIR
 10
1.0
 20
0.0
 30
0.0
  9
$PUCSYDIR
 10
0.0
 20
1.0
 30
0.0
  9
$PUCSORTHOREF
  2

  9
$PUCSORTHOVIEW
 70
     0
  9
$PUCSORGTOP
 10
0.0
 20
0.0
 30
0.0
  9
$PUCSORGBOTTOM
 10
0.0
 20
0.0
 30
0.0
  9
$PUCSORGLEFT
 10
0.0
 20
0.0
 30
0.0
  9
$PUCSORGRIGHT
 10
0.0
 20
0.0
 30
0.0
  9
$PUCSORGFRONT
 10
0.0
 20
0.0
 30
0.0
  9
$PUCSORGBACK
 10
0.0
 20
0.0
 30
0.0
  9
$USERI1
 70
     0
  9
$USERI2
 70
     0
  9
$USERI3
 70
     0
  9
$USERI4
 70
     0
  9
$USERI5
 70
     0
  9
$USERR1
 40
0.0
  9
$USERR2
 40
0.0
  9
$USERR3
 40
0.0
  9
$USERR4
 40
0.0
  9
$USERR5
 40
0.0
  9
$WORLDVIEW
 70
     1
  9
$SHADEDGE
 70
     3
  9
$SHADEDIF
 70
    70
  9
$TILEMODE
 70
     1
  9
$MAXACTVP
 70
    64
  9
$PINSBASE
 10
0.0
 20
0.0
 30
0.0
  9
$PLIMCHECK
 70
     0
  9
$PEXTMIN
 10
1.000000000000000E+20
 20
1.000000000000000E+20
 30
1.000000000000000E+20
  9
$PEXTMAX
 10
-1.000000000000000E+20
 20
-1.000000000000000E+20
 30
-1.000000000000000E+20
  9
$PLIMMIN
 10
0.0
 20
0.0
  9
$PLIMMAX
 10
12.0
 20
9.0
  9
$UNITMODE
 70
     0
  9
$VISRETAIN
 70
     1
  9
$PLINEGEN
 70
     0
  9
$PSLTSCALE
 70
     1
  9
$TREEDEPTH
 70
  3020
  9
$CMLSTYLE
  2
Standard
  9
$CMLJUST
 70
     0
  9
$CMLSCALE
 40
1.0
  9
$PROXYGRAPHICS
 70
     1
  9
$MEASUREMENT
 70
     0
  9
$CELWEIGHT
370
    -1
  9
$ENDCAPS
280
     0
  9
$JOINSTYLE
280
     0
  9
$LWDISPLAY
290
     1
  9
$INSUNITS
 70
     1
  9
$HYPERLINKBASE
  1

  9
$STYLESHEET
  1

  9
$XEDIT
290
     1
  9
$CEPSNTYPE
380
     0
  9
$PSTYLEMODE
290
     1
  9
$FINGERPRINTGUID
  2
{0ED0A243-4DDB-17F6-9A30-D968A301FD85}
  9
$VERSIONGUID
  2
{FAEB1C32-E019-11D5-929B-00C0DF256EC4}
  9
$EXTNAMES
290
     1
  9
$PSVPSCALE
 40
0.0
  9
$OLESTARTUP
290
     0
  9
$SORTENTS
280
   127
  9
$INDEXCTL
280
     0
  9
$HIDETEXT
280
     1
  9
$XCLIPFRAME
280
     2
  9
$HALOGAP
280
     0
  9
$OBSCOLOR
 70
   257
  9
$OBSLTYPE
280
     0
  9
$INTERSECTIONDISPLAY
280
     0
  9
$INTERSECTIONCOLOR
 70
   257
  9
$DIMASSOC
280
     2
  9
$PROJECTNAME
  1

  9
$CAMERADISPLAY
290
     0
  9
$LENSLENGTH
 40
50.0
  9
$CAMERAHEIGHT
 40
0.0
  9
$STEPSPERSEC
 40
2.0
  9
$STEPSIZE
 40
6.0
  9
$3DDWFPREC
 40
2.0
  9
$PSOLWIDTH
 40
0.25
  9
$PSOLHEIGHT
 40
4.0
  9
$LOFTANG1
 40
1.570796326794897
  9
$LOFTANG2
 40
1.570796326794897
  9
$LOFTMAG1
 40
0.0
  9
$LOFTMAG2
 40
0.0
  9
$LOFTPARAM
 70
     7
  9
$LOFTNORMALS
280
     1
  9
$LATITUDE
 40
37.795
  9
$LONGITUDE
 40
-122.394
  9
$NORTHDIRECTION
 40
0.0
  9
$TIMEZONE
 70
 -8000
  9
$LIGHTGLYPHDISPLAY
280
     1
  9
$TILEMODELIGHTSYNCH
280
     1
  9
$CMATERIAL
347
3C
  9
$SOLIDHIST
280
     1
  9
$SHOWHIST
280
     1
  9
$DWFFRAME
280
     2
  9
$DGNFRAME
280
     2
  9
$REALWORLDSCALE
290
     1
  9
$INTERFERECOLOR
 62
   256
  9
$CSHADOW
280
     0
  9
$SHADOWPLANELOCATION
 40
0.0
  0
ENDSEC
  0
SECTION
  2
CLASSES
  0
CLASS
  1
ACDBDICTIONARYWDFLT
  2
AcDbDictionaryWithDefault
  3
ObjectDBX Classes
 90
        0
 91
        4
280
     0
281
     0
  0
CLASS
  1
VISUALSTYLE
  2
AcDbVisualStyle
  3
ObjectDBX Classes
 90
     4095
 91
        4
280
     0
281
     0
  0
CLASS
  1
MATERIAL
  2
AcDbMaterial
  3
ObjectDBX Classes
 90
     1153
 91
        4
280
     0
281
     0
  0
CLASS
  1
SUN
  2
AcDbSun
  3
SCENEOE
 90
     1024
 91
        4
280
     0
281
     0
  0
ENDSEC
  0
SECTION
  2
TABLES
  0
TABLE
  2
VPORT
  5
8
330
0
100
AcDbSymbolTable
 70
     1
  0
VPORT
  5
29
330
8
100
AcDbSymbolTableRecord
100
AcDbViewportTableRecord
  2
*Active
 70
     0
 10
0.0
 20
0.0
 11
1.0
 21
1.0
 12
0.0
 22
0.0
 13
0.0
 23
0.0
 14
0.5
 24
0.5
 15
0.5
 25
0.5
 16
0.0
 26
0.0
 36
1.0
 17
91.00082462281999
 27
-128.4993055234307
 37
0.0
 40
256.9986110468615
 41
0.7081814508812795
 42
50.0
 43
0.0
 44
0.0
 50
0.0
 51
0.0
 71
     0
 72
   100
 73
     1
 74
     3
 75
     0
 76
     0
 77
     0
 78
     0
281
     0
 65
     1
110
0.0
120
0.0
130
0.0
111
1.0
121
0.0
131
0.0
112
0.0
122
1.0
132
0.0
 79
     0
146
0.0
 60
     3
 61
     5
292
     1
282
     1
141
0.0
142
0.0
 63
   250
361
3F
  0
ENDTAB
  0
TABLE
  2
LTYPE
  5
5
330
0
100
AcDbSymbolTable
 70
     3
  0
LTYPE
  5
14
330
5
100
AcDbSymbolTableRecord
100
AcDbLinetypeTableRecord
  2
ByBlock
 70
     0
  3

 72
    65
 73
     0
 40
0.0
  0
LTYPE
  5
15
330
5
100
AcDbSymbolTableRecord
100
AcDbLinetypeTableRecord
  2
ByLayer
 70
     0
  3

 72
    65
 73
     0
 40
0.0
  0
LTYPE
  5
16
330
5
100
AcDbSymbolTableRecord
100
AcDbLinetypeTableRecord
  2
Continuous
 70
     0
  3
Solid line
 72
    65
 73
     0
 40
0.0
  0
LTYPE
  5
1B6
330
5
100
AcDbSymbolTableRecord
100
AcDbLinetypeTableRecord
  2
AI-Linetype-1
 70
     0
  3
Adobe Illustrator Linetype No. 1
 72
    65
 73
     2
 40
1.411111110758333
 49
0.7055555553791667
 74
     0
 49
-0.7055555553791667
 74
     0
  0
LTYPE
  5
1BB
330
5
100
AcDbSymbolTableRecord
100
AcDbLinetypeTableRecord
  2
AI-Linetype-2
 70
     0
  3
Adobe Illustrator Linetype No. 2
 72
    65
 73
     2
 40
1.411111110758333
 49
0.7055555553791667
 74
     0
 49
-0.7055555553791667
 74
     0
  0
ENDTAB
  0
TABLE
  2
LAYER
  5
2
330
0
100
AcDbSymbolTable
 70
     2
  0
LAYER
  5
10
330
2
100
AcDbSymbolTableRecord
100
AcDbLayerTableRecord
  2
0
 70
     0
 62
     7
  6
Continuous
370
    -3
390
F
347
3E
  0
LAYER
  5
40
330
2
100
AcDbSymbolTableRecord
100
AcDbLayerTableRecord
  2
_U+30EC_U+30A4_U+30E4_U+30FC 1
 70
     0
 62
     7
  6
Continuous
370
    -3
390
F
347
3E
  0
ENDTAB
  0
TABLE
  2
STYLE
  5
3
330
0
100
AcDbSymbolTable
 70
     1
  0
STYLE
  5
11
330
3
100
AcDbSymbolTableRecord
100
AcDbTextStyleTableRecord
  2
Standard
 70
     0
 40
0.0
 41
1.0
 50
0.0
 71
     0
 42
0.2
  3
txt
  4

  0
ENDTAB
  0
TABLE
  2
VIEW
  5
6
330
0
100
AcDbSymbolTable
 70
     0
  0
ENDTAB
  0
TABLE
  2
UCS
  5
7
330
0
100
AcDbSymbolTable
 70
     0
  0
ENDTAB
  0
TABLE
  2
APPID
  5
9
330
0
100
AcDbSymbolTable
 70
     1
  0
APPID
  5
12
330
9
100
AcDbSymbolTableRecord
100
AcDbRegAppTableRecord
  2
ACAD
 70
     0
  0
ENDTAB
  0
TABLE
  2
DIMSTYLE
  5
A
330
0
100
AcDbSymbolTable
 70
     1
100
AcDbDimStyleTable
  0
DIMSTYLE
105
27
330
A
100
AcDbSymbolTableRecord
100
AcDbDimStyleTableRecord
  2
Standard
 70
     0
178
     0
340
11
  0
ENDTAB
  0
TABLE
  2
BLOCK_RECORD
  5
1
330
0
100
AcDbSymbolTable
 70
     7
  0
BLOCK_RECORD
  5
1F
330
1
100
AcDbSymbolTableRecord
100
AcDbBlockTableRecord
  2
*Model_Space
340
22
 70
     0
280
     1
281
     0
  0
BLOCK_RECORD
  5
1B
330
1
100
AcDbSymbolTableRecord
100
AcDbBlockTableRecord
  2
*Paper_Space
340
1E
 70
     0
280
     1
281
     0
  0
BLOCK_RECORD
  5
23
330
1
100
AcDbSymbolTableRecord
100
AcDbBlockTableRecord
  2
*Paper_Space0
340
26
 70
     0
280
     1
281
     0
  0
BLOCK_RECORD
  5
41
330
1
100
AcDbSymbolTableRecord
100
AcDbBlockTableRecord
  2
block 2
340
0
102
{BLKREFS
331
42
102
}
 70
     0
280
     1
281
     0
  0
BLOCK_RECORD
  5
45
330
1
100
AcDbSymbolTableRecord
100
AcDbBlockTableRecord
  2
block 3
340
0
102
{BLKREFS
331
46
102
}
 70
     0
280
     1
281
     0
  0
BLOCK_RECORD
  5
6B
330
1
100
AcDbSymbolTableRecord
100
AcDbBlockTableRecord
  2
block 4
340
0
102
{BLKREFS
331
6C
102
}
 70
     0
280
     1
281
     0
  0
BLOCK_RECORD
  5
7F
330
1
100
AcDbSymbolTableRecord
100
AcDbBlockTableRecord
  2
block 5
340
0
102
{BLKREFS
331
80
102
}
 70
     0
280
     1
281
     0
  0
BLOCK_RECORD
  5
8F
330
1
100
AcDbSymbolTableRecord
100
AcDbBlockTableRecord
  2
block 6
340
0
102
{BLKREFS
331
90
102
}
 70
     0
280
     1
281
     0
  0
BLOCK_RECORD
  5
1CD
330
1
100
AcDbSymbolTableRecord
100
AcDbBlockTableRecord
  2
block 7
340
0
102
{BLKREFS
331
1CE
102
}
 70
     0
280
     1
281
     0
  0
ENDTAB
  0
ENDSEC
  0
SECTION
  2
BLOCKS
  0
BLOCK
  5
20
330
1F
100
AcDbEntity
  8
0
100
AcDbBlockBegin
  2
*Model_Space
 70
     0
 10
0.0
 20
0.0
 30
0.0
  3
*Model_Space
  1

  0
ENDBLK
  5
21
330
1F
100
AcDbEntity
  8
0
100
AcDbBlockEnd
  0
BLOCK
  5
1C
330
1B
100
AcDbEntity
 67
     1
  8
0
100
AcDbBlockBegin
  2
*Paper_Space
 70
     0
 10
0.0
 20
0.0
 30
0.0
  3
*Paper_Space
  1

  0
ENDBLK
  5
1D
330
1B
100
AcDbEntity
 67
     1
  8
0
100
AcDbBlockEnd
  0
BLOCK
  5
24
330
23
100
AcDbEntity
  8
0
100
AcDbBlockBegin
  2
*Paper_Space0
 70
     0
 10
0.0
 20
0.0
 30
0.0
  3
*Paper_Space0
  1

  0
ENDBLK
  5
25
330
23
100
AcDbEntity
  8
0
100
AcDbBlockEnd
  0
BLOCK
  5
43
330
41
100
AcDbEntity
  8
0
100
AcDbBlockBegin
  2
block 2
 70
     0
 10
0.0
 20
0.0
 30
0.0
  3
block 2
  1

  0
INSERT
  5
46
330
41
100
AcDbEntity
  8
_U+30EC_U+30A4_U+30E4_U+30FC 1
100
AcDbBlockReference
  2
block 3
 10
0.0
 20
0.0
 30
0.0
  0
POLYLINE
  5
AB
330
41
100
AcDbEntity
  8
_U+30EC_U+30A4_U+30E4_U+30FC 1
 62
     7
420
 16777215
370
    25
100
AcDb2dPolyline
 66
     1
 10
0.0
 20
0.0
 30
0.0
  0
VERTEX
  5
AC
330
AB
100
AcDbEntity
  8
_U+30EC_U+30A4_U+30E4_U+30FC 1
 62
     7
420
 16777215
370
    25
100
AcDbVertex
100
AcDb2dVertex
 10
81.65150819467426
 20
-118.5579571925828
 30
0.0
  0
VERTEX
  5
AD
330
AB
100
AcDbEntity
  8
_U+30EC_U+30A4_U+30E4_U+30FC 1
 62
     7
420
 16777215
370
    25
100
AcDbVertex
100
AcDb2dVertex
 10
82.05977790648065
 20
-118.0646327482617
 30
0.0
  0
SEQEND
  5
AE
330
AB
100
AcDbEntity
  8
_U+30EC_U+30A4_U+30E4_U+30FC 1
 62
     7
420
 16777215
370
    25
  0
POLYLINE
  5
AF
330
41
100
AcDbEntity
  8
_U+30EC_U+30A4_U+30E4_U+30FC 1
 62
     7
420
 16777215
370
    25
100
AcDb2dPolyline
 66
     1
 10
0.0
 20
0.0
 30
0.0
  0
VERTEX
  5
B0
330
AF
100
AcDbEntity
  8
_U+30EC_U+30A4_U+30E4_U+30FC 1
 62
     7
420
 16777215
370
    25
100
AcDbVertex
100
AcDb2dVertex
 10
81.63499819509546
 20
-119.5584349701106
 30
0.0
  0
VERTEX
  5
B1
330
AF
100
AcDbEntity
  8
_U+30EC_U+30A4_U+30E4_U+30FC 1
 62
     7
420
 16777215
370
    25
100
AcDbVertex
100
AcDb2dVertex
 10
82.04358540689375
 20
-119.0650752480116
 30
0.0
  0
SEQEND
  5
B2
330
AF
100
AcDbEntity
  8
_U+30EC_U+30A4_U+30E4_U+30FC 1
 62
     7
420
 16777215
370
    25
  0
POLYLINE
  5
B3
330
41
100
AcDbEntity
  8
_U+30EC_U+30A4_U+30E4_U+30FC 1
 62
     7
420
 16777215
370
    25
100
AcDb2dPolyline
 66
     1
 10
0.0
 20
0.0
 30
0.0
  0
VERTEX
  5
B4
330
B3
100
AcDbEntity
  8
_U+30EC_U+30A4_U+30E4_U+30FC 1
 62
     7
420
 16777215
370
    25
100
AcDbVertex
100
AcDb2dVertex
 10
82.04358540689375
 20
-119.0650752480116
 30
0.0
  0
VERTEX
  5
B5
330
B3
100
AcDbEntity
  8
_U+30EC_U+30A4_U+30E4_U+30FC 1
 62
     7
420
 16777215
370
    25
100
AcDbVertex
100
AcDb2dVertex
 10
81.65150819467426
 20
-118.5579571925828
 30
0.0
  0
SEQEND
  5
B6
330
B3
100
AcDbEntity
  8
_U+30EC_U+30A4_U+30E4_U+30FC 1
 62
     7
420
 16777215
370
    25
  0
POLYLINE
  5
B7
330
41
100
AcDbEntity
  8
_U+30EC_U+30A4_U+30E4_U+30FC 1
 62
     7
420
 16777215
370
    25
100
AcDb2dPolyline
 66
     1
 10
0.0
 20
0.0
 30
0.0
  0
VERTEX
  5
B8
330
B7
100
AcDbEntity
  8
_U+30EC_U+30A4_U+30E4_U+30FC 1
 62
     7
420
 16777215
370
    25
100
AcDbVertex
100
AcDb2dVertex
 10
81.61912319550046
 20
-120.5588774698605
 30
0.0
  0
VERTEX
  5
B9
330
B7
100
AcDbEntity
  8
_U+30EC_U+30A4_U+30E4_U+30FC 1
 62
     7
420
 16777215
370
    25
100
AcDbVertex
100
AcDb2dVertex
 10
82.02704012953808
 20
-120.0655530255393
 30
0.0
  0
SEQEND
  5
BA
330
B7
100
AcDbEntity
  8
_U+30EC_U+30A4_U+30E4_U+30FC 1
 62
     7
420
 16777215
370
    25
  0
POLYLINE
  5
BB
330
41
100
AcDbEntity
  8
_U+30EC_U+30A4_U+30E4_U+30FC 1
 62
     7
420
 16777215
370
    25
100
AcDb2dPolyline
 66
     1
 10
0.0
 20
0.0
 30
0.0
  0
VERTEX
  5
BC
330
BB
100
AcDbEntity
  8
_U+30EC_U+30A4_U+30E4_U+30FC 1
 62
     7
420
 16777215
370
    25
100
AcDbVertex
100
AcDb2dVertex
 10
82.02704012953808
 20
-120.0655530255393
 30
0.0
  0
VERTEX
  5
BD
330
BB
100
AcDbEntity
  8
_U+30EC_U+30A4_U+30E4_U+30FC 1
 62
     7
420
 16777215
370
    25
100
AcDbVertex
100
AcDb2dVertex
 10
81.63499819509546
 20
-119.5584349701106
 30
0.0
  0
SEQEND
  5
BE
330
BB
100
AcDbEntity
  8
_U+30EC_U+30A4_U+30E4_U+30FC 1
 62
     7
420
 16777215
370
    25
  0
POLYLINE
  5
BF
330
41
100
AcDbEntity
  8
_U+30EC_U+30A4_U+30E4_U+30FC 1
 62
     7
420
 16777215
370
    25
100
AcDb2dPolyline
 66
     1
 10
0.0
 20
0.0
 30
0.0
  0
VERTEX
  5
C0
330
BF
100
AcDbEntity
  8
_U+30EC_U+30A4_U+30E4_U+30FC 1
 62
     7
420
 16777215
370
    25
100
AcDbVertex
100
AcDb2dVertex
 10
81.60261319592168
 20
-121.55931996961
 30
0.0
  0
VERTEX
  5
C1
330
BF
100
AcDbEntity
  8
_U+30EC_U+30A4_U+30E4_U+30FC 1
 62
     7
420
 16777215
370
    25
100
AcDbVertex
100
AcDb2dVertex
 10
82.01049485218242
 20
-121.0659955252892
 30
0.0
  0
SEQEND
  5
C2
330
BF
100
AcDbEntity
  8
_U+30EC_U+30A4_U+30E4_U+30FC 1
 62
     7
420
 16777215
370
    25
  0
POLYLINE
  5
C3
330
41
100
AcDbEntity
  8
_U+30EC_U+30A4_U+30E4_U+30FC 1
 62
     7
420
 16777215
370
    25
100
AcDb2dPolyline
 66
     1
 10
0.0
 20
0.0
 30
0.0
  0
VERTEX
  5
C4
330
C3
100
AcDbEntity
  8
_U+30EC_U+30A4_U+30E4_U+30FC 1
 62
     7
420
 16777215
370
    25
100
AcDbVertex
100
AcDb2dVertex
 10
82.01049485218242
 20
-121.0659955252892
 30
0.0
  0
VERTEX
  5
C5
330
C3
100
AcDbEntity
  8
_U+30EC_U+30A4_U+30E4_U+30FC 1
 62
     7
420
 16777215
370
    25
100
AcDbVertex
100
AcDb2dVertex
 10
81.61912319550046
 20
-120.5588774698605
 30
0.0
  0
SEQEND
  5
C6
330
C3
100
AcDbEntity
  8
_U+30EC_U+30A4_U+30E4_U+30FC 1
 62
     7
420
 16777215
370
    25
  0
POLYLINE
  5
C7
330
41
100
AcDbEntity
  8
_U+30EC_U+30A4_U+30E4_U+30FC 1
 62
     7
420
 16777215
370
    25
100
AcDb2dPolyline
 66
     1
 10
0.0
 20
0.0
 30
0.0
  0
VERTEX
  5
C8
330
C7
100
AcDbEntity
  8
_U+30EC_U+30A4_U+30E4_U+30FC 1
 62
     7
420
 16777215
370
    25
100
AcDbVertex
100
AcDb2dVertex
 10
81.586067918566
 20
-122.5597977471378
 30
0.0
  0
VERTEX
  5
C9
330
C7
100
AcDbEntity
  8
_U+30EC_U+30A4_U+30E4_U+30FC 1
 62
     7
420
 16777215
370
    25
100
AcDbVertex
100
AcDb2dVertex
 10
81.99430235259551
 20
-122.0664380250388
 30
0.0
  0
SEQEND
  5
CA
330
C7
100
AcDbEntity
  8
_U+30EC_U+30A4_U+30E4_U+30FC 1
 62
     7
420
 16777215
370
    25
  0
POLYLINE
  5
CB
330
41
100
AcDbEntity
  8
_U+30EC_U+30A4_U+30E4_U+30FC 1
 62
     7
420
 16777215
370
    25
100
AcDb2dPolyline
 66
     1
 10
0.0
 20
0.0
 30
0.0
  0
VERTEX
  5
CC
330
CB
100
AcDbEntity
  8
_U+30EC_U+30A4_U+30E4_U+30FC 1
 62
     7
420
 16777215
370
    25
100
AcDbVertex
100
AcDb2dVertex
 10
81.99430235259551
 20
-122.0664380250388
 30
0.0
  0
VERTEX
  5
CD
330
CB
100
AcDbEntity
  8
_U+30EC_U+30A4_U+30E4_U+30FC 1
 62
     7
420
 16777215
370
    25
100
AcDbVertex
100
AcDb2dVertex
 10
81.60261319592168
 20
-121.55931996961
 30
0.0
  0
SEQEND
  5
CE
330
CB
100
AcDbEntity
  8
_U+30EC_U+30A4_U+30E4_U+30FC 1
 62
     7
420
 16777215
370
    25
  0
POLYLINE
  5
CF
330
41
100
AcDbEntity
  8
_U+30EC_U+30A4_U+30E4_U+30FC 1
 62
     7
420
 16777215
370
    25
100
AcDb2dPolyline
 66
     1
 10
0.0
 20
0.0
 30
0.0
  0
VERTEX
  5
D0
330
CF
100
AcDbEntity
  8
_U+30EC_U+30A4_U+30E4_U+30FC 1
 62
     7
420
 16777215
370
    25
100
AcDbVertex
100
AcDb2dVertex
 10
81.56987541897911
 20
-123.5602402468877
 30
0.0
  0
VERTEX
  5
D1
330
CF
100
AcDbEntity
  8
_U+30EC_U+30A4_U+30E4_U+30FC 1
 62
     7
420
 16777215
370
    25
100
AcDbVertex
100
AcDb2dVertex
 10
81.97810985300862
 20
-123.0669158025666
 30
0.0
  0
SEQEND
  5
D2
330
CF
100
AcDbEntity
  8
_U+30EC_U+30A4_U+30E4_U+30FC 1
 62
     7
420
 16777215
370
    25
  0
POLYLINE
  5
D3
330
41
100
AcDbEntity
  8
_U+30EC_U+30A4_U+30E4_U+30FC 1
 62
     7
420
 16777215
370
    25
100
AcDb2dPolyline
 66
     1
 10
0.0
 20
0.0
 30
0.0
  0
VERTEX
  5
D4
330
D3
100
AcDbEntity
  8
_U+30EC_U+30A4_U+30E4_U+30FC 1
 62
     7
420
 16777215
370
    25
100
AcDbVertex
100
AcDb2dVertex
 10
81.97810985300862
 20
-123.0669158025666
 30
0.0
  0
VERTEX
  5
D5
330
D3
100
AcDbEntity
  8
_U+30EC_U+30A4_U+30E4_U+30FC 1
 62
     7
420
 16777215
370
    25
100
AcDbVertex
100
AcDb2dVertex
 10
81.586067918566
 20
-122.5597977471378
 30
0.0
  0
SEQEND
  5
D6
330
D3
100
AcDbEntity
  8
_U+30EC_U+30A4_U+30E4_U+30FC 1
 62
     7
420
 16777215
370
    25
  0
POLYLINE
  5
D7
330
41
100
AcDbEntity
  8
_U+30EC_U+30A4_U+30E4_U+30FC 1
 62
     7
420
 16777215
370
    25
100
AcDb2dPolyline
 66
     1
 10
0.0
 20
0.0
 30
0.0
  0
VERTEX
  5
D8
330
D7
100
AcDbEntity
  8
_U+30EC_U+30A4_U+30E4_U+30FC 1
 62
     7
420
 16777215
370
    25
100
AcDbVertex
100
AcDb2dVertex
 10
81.55368291939222
 20
-124.5606827466376
 30
0.0
  0
VERTEX
  5
D9
330
D7
100
AcDbEntity
  8
_U+30EC_U+30A4_U+30E4_U+30FC 1
 62
     7
420
 16777215
370
    25
100
AcDbVertex
100
AcDb2dVertex
 10
81.9615666461764
 20
-124.0673583023165
 30
0.0
  0
SEQEND
  5
DA
330
D7
100
AcDbEntity
  8
_U+30EC_U+30A4_U+30E4_U+30FC 1
 62
     7
420
 16777215
370
    25
  0
POLYLINE
  5
DB
330
41
100
AcDbEntity
  8
_U+30EC_U+30A4_U+30E4_U+30FC 1
 62
     7
420
 16777215
370
    25
100
AcDb2dPolyline
 66
     1
 10
0.0
 20
0.0
 30
0.0
  0
VERTEX
  5
DC
330
DB
100
AcDbEntity
  8
_U+30EC_U+30A4_U+30E4_U+30FC 1
 62
     7
420
 16777215
370
    25
100
AcDbVertex
100
AcDb2dVertex
 10
81.9615666461764
 20
-124.0673583023165
 30
0.0
  0
VERTEX
  5
DD
330
DB
100
AcDbEntity
  8
_U+30EC_U+30A4_U+30E4_U+30FC 1
 62
     7
420
 16777215
370
    25
100
AcDbVertex
100
AcDb2dVertex
 10
81.56987541897911
 20
-123.5602402468877
 30
0.0
  0
SEQEND
  5
DE
330
DB
100
AcDbEntity
  8
_U+30EC_U+30A4_U+30E4_U+30FC 1
 62
     7
420
 16777215
370
    25
  0
POLYLINE
  5
DF
330
41
100
AcDbEntity
  8
_U+30EC_U+30A4_U+30E4_U+30FC 1
 62
     7
420
 16777215
370
    25
100
AcDb2dPolyline
 66
     1
 10
0.0
 20
0.0
 30
0.0
  0
VERTEX
  5
E0
330
DF
100
AcDbEntity
  8
_U+30EC_U+30A4_U+30E4_U+30FC 1
 62
     7
420
 16777215
370
    25
100
AcDbVertex
100
AcDb2dVertex
 10
81.53713764203654
 20
-125.5611605241653
 30
0.0
  0
VERTEX
  5
E1
330
DF
100
AcDbEntity
  8
_U+30EC_U+30A4_U+30E4_U+30FC 1
 62
     7
420
 16777215
370
    25
100
AcDbVertex
100
AcDb2dVertex
 10
81.94537207606605
 20
-125.0678008020664
 30
0.0
  0
SEQEND
  5
E2
330
DF
100
AcDbEntity
  8
_U+30EC_U+30A4_U+30E4_U+30FC 1
 62
     7
420
 16777215
370
    25
  0
POLYLINE
  5
E3
330
41
100
AcDbEntity
  8
_U+30EC_U+30A4_U+30E4_U+30FC 1
 62
     7
420
 16777215
370
    25
100
AcDb2dPolyline
 66
     1
 10
0.0
 20
0.0
 30
0.0
  0
VERTEX
  5
E4
330
E3
100
AcDbEntity
  8
_U+30EC_U+30A4_U+30E4_U+30FC 1
 62
     7
420
 16777215
370
    25
100
AcDbVertex
100
AcDb2dVertex
 10
81.94537207606605
 20
-125.0678008020664
 30
0.0
  0
VERTEX
  5
E5
330
E3
100
AcDbEntity
  8
_U+30EC_U+30A4_U+30E4_U+30FC 1
 62
     7
420
 16777215
370
    25
100
AcDbVertex
100
AcDb2dVertex
 10
81.55368291939222
 20
-124.5606827466376
 30
0.0
  0
SEQEND
  5
E6
330
E3
100
AcDbEntity
  8
_U+30EC_U+30A4_U+30E4_U+30FC 1
 62
     7
420
 16777215
370
    25
  0
POLYLINE
  5
E7
330
41
100
AcDbEntity
  8
_U+30EC_U+30A4_U+30E4_U+30FC 1
 62
     7
420
 16777215
370
    25
100
AcDb2dPolyline
 66
     1
 10
0.0
 20
0.0
 30
0.0
  0
VERTEX
  5
E8
330
E7
100
AcDbEntity
  8
_U+30EC_U+30A4_U+30E4_U+30FC 1
 62
     7
420
 16777215
370
    25
100
AcDbVertex
100
AcDb2dVertex
 10
81.52059442406441
 20
-126.5616030239152
 30
0.0
  0
VERTEX
  5
E9
330
E7
100
AcDbEntity
  8
_U+30EC_U+30A4_U+30E4_U+30FC 1
 62
     7
420
 16777215
370
    25
100
AcDbVertex
100
AcDb2dVertex
 10
81.92917957647916
 20
-126.0682785795941
 30
0.0
  0
SEQEND
  5
EA
330
E7
100
AcDbEntity
  8
_U+30EC_U+30A4_U+30E4_U+30FC 1
 62
     7
420
 16777215
370
    25
  0
POLYLINE
  5
EB
330
41
100
AcDbEntity
  8
_U+30EC_U+30A4_U+30E4_U+30FC 1
 62
     7
420
 16777215
370
    25
100
AcDb2dPolyline
 66
     1
 10
0.0
 20
0.0
 30
0.0
  0
VERTEX
  5
EC
330
EB
100
AcDbEntity
  8
_U+30EC_U+30A4_U+30E4_U+30FC 1
 62
     7
420
 16777215
370
    25
100
AcDbVertex
100
AcDb2dVertex
 10
81.92917957647916
 20
-126.0682785795941
 30
0.0
  0
VERTEX
  5
ED
330
EB
100
AcDbEntity
  8
_U+30EC_U+30A4_U+30E4_U+30FC 1
 62
     7
420
 16777215
370
    25
100
AcDbVertex
100
AcDb2dVertex
 10
81.53713764203654
 20
-125.5611605241653
 30
0.0
  0
SEQEND
  5
EE
330
EB
100
AcDbEntity
  8
_U+30EC_U+30A4_U+30E4_U+30FC 1
 62
     7
420
 16777215
370
    25
  0
POLYLINE
  5
EF
330
41
100
AcDbEntity
  8
_U+30EC_U+30A4_U+30E4_U+30FC 1
 62
     7
420
 16777215
370
    25
100
AcDb2dPolyline
 66
     1
 10
0.0
 20
0.0
 30
0.0
  0
VERTEX
  5
F0
330
EF
100
AcDbEntity
  8
_U+30EC_U+30A4_U+30E4_U+30FC 1
 62
     7
420
 16777215
370
    25
100
AcDbVertex
100
AcDb2dVertex
 10
81.50475264286275
 20
-127.562080801443
 30
0.0
  0
VERTEX
  5
F1
330
EF
100
AcDbEntity
  8
_U+30EC_U+30A4_U+30E4_U+30FC 1
 62
     7
420
 16777215
370
    25
100
AcDbVertex
100
AcDb2dVertex
 10
81.91266957690037
 20
-127.068721079344
 30
0.0
  0
SEQEND
  5
F2
330
EF
100
AcDbEntity
  8
_U+30EC_U+30A4_U+30E4_U+30FC 1
 62
     7
420
 16777215
370
    25
  0
POLYLINE
  5
F3
330
41
100
AcDbEntity
  8
_U+30EC_U+30A4_U+30E4_U+30FC 1
 62
     7
420
 16777215
370
    25
100
AcDb2dPolyline
 66
     1
 10
0.0
 20
0.0
 30
0.0
  0
VERTEX
  5
F4
330
F3
100
AcDbEntity
  8
_U+30EC_U+30A4_U+30E4_U+30FC 1
 62
     7
420
 16777215
370
    25
100
AcDbVertex
100
AcDb2dVertex
 10
81.91266957690037
 20
-127.068721079344
 30
0.0
  0
VERTEX
  5
F5
330
F3
100
AcDbEntity
  8
_U+30EC_U+30A4_U+30E4_U+30FC 1
 62
     7
420
 16777215
370
    25
100
AcDbVertex
100
AcDb2dVertex
 10
81.52059442406441
 20
-126.5616030239152
 30
0.0
  0
SEQEND
  5
F6
330
F3
100
AcDbEntity
  8
_U+30EC_U+30A4_U+30E4_U+30FC 1
 62
     7
420
 16777215
370
    25
  0
POLYLINE
  5
F7
330
41
100
AcDbEntity
  8
_U+30EC_U+30A4_U+30E4_U+30FC 1
 62
     7
420
 16777215
370
    25
100
AcDb2dPolyline
 66
     1
 10
0.0
 20
0.0
 30
0.0
  0
VERTEX
  5
F8
330
F7
100
AcDbEntity
  8
_U+30EC_U+30A4_U+30E4_U+30FC 1
 62
     7
420
 16777215
370
    25
100
AcDbVertex
100
AcDb2dVertex
 10
81.48820736550708
 20
-128.5625233011929
 30
0.0
  0
VERTEX
  5
F9
330
F7
100
AcDbEntity
  8
_U+30EC_U+30A4_U+30E4_U+30FC 1
 62
     7
420
 16777215
370
    25
100
AcDbVertex
100
AcDb2dVertex
 10
81.8961242995447
 20
-128.0691988568718
 30
0.0
  0
SEQEND
  5
FA
330
F7
100
AcDbEntity
  8
_U+30EC_U+30A4_U+30E4_U+30FC 1
 62
     7
420
 16777215
370
    25
  0
POLYLINE
  5
FB
330
41
100
AcDbEntity
  8
_U+30EC_U+30A4_U+30E4_U+30FC 1
 62
     7
420
 16777215
370
    25
100
AcDb2dPolyline
 66
     1
 10
0.0
 20
0.0
 30
0.0
  0
VERTEX
  5
FC
330
FB
100
AcDbEntity
  8
_U+30EC_U+30A4_U+30E4_U+30FC 1
 62
     7
420
 16777215
370
    25
100
AcDbVertex
100
AcDb2dVertex
 10
81.8961242995447
 20
-128.0691988568718
 30
0.0
  0
VERTEX
  5
FD
330
FB
100
AcDbEntity
  8
_U+30EC_U+30A4_U+30E4_U+30FC 1
 62
     7
420
 16777215
370
    25
100
AcDbVertex
100
AcDb2dVertex
 10
81.50475264286275
 20
-127.562080801443
 30
0.0
  0
SEQEND
  5
FE
330
FB
100
AcDbEntity
  8
_U+30EC_U+30A4_U+30E4_U+30FC 1
 62
     7
420
 16777215
370
    25
  0
POLYLINE
  5
FF
330
41
100
AcDbEntity
  8
_U+30EC_U+30A4_U+30E4_U+30FC 1
 62
     7
420
 16777215
370
    25
100
AcDb2dPolyline
 66
     1
 10
0.0
 20
0.0
 30
0.0
  0
VERTEX
  5
100
330
FF
100
AcDbEntity
  8
_U+30EC_U+30A4_U+30E4_U+30FC 1
 62
     7
420
 16777215
370
    25
100
AcDbVertex
100
AcDb2dVertex
 10
81.47169736592828
 20
-129.5631421898317
 30
0.0
  0
VERTEX
  5
101
330
FF
100
AcDbEntity
  8
_U+30EC_U+30A4_U+30E4_U+30FC 1
 62
     7
420
 16777215
370
    25
100
AcDbVertex
100
AcDb2dVertex
 10
81.8799317999578
 20
-129.0698177455105
 30
0.0
  0
SEQEND
  5
102
330
FF
100
AcDbEntity
  8
_U+30EC_U+30A4_U+30E4_U+30FC 1
 62
     7
420
 16777215
370
    25
  0
POLYLINE
  5
103
330
41
100
AcDbEntity
  8
_U+30EC_U+30A4_U+30E4_U+30FC 1
 62
     7
420
 16777215
370
    25
100
AcDb2dPolyline
 66
     1
 10
0.0
 20
0.0
 30
0.0
  0
VERTEX
  5
104
330
103
100
AcDbEntity
  8
_U+30EC_U+30A4_U+30E4_U+30FC 1
 62
     7
420
 16777215
370
    25
100
AcDbVertex
100
AcDb2dVertex
 10
81.8799317999578
 20
-129.0698177455105
 30
0.0
  0
VERTEX
  5
105
330
103
100
AcDbEntity
  8
_U+30EC_U+30A4_U+30E4_U+30FC 1
 62
     7
420
 16777215
370
    25
100
AcDbVertex
100
AcDb2dVertex
 10
81.48820736550708
 20
-128.5625233011929
 30
0.0
  0
SEQEND
  5
106
330
103
100
AcDbEntity
  8
_U+30EC_U+30A4_U+30E4_U+30FC 1
 62
     7
420
 16777215
370
    25
  0
POLYLINE
  5
107
330
41
100
AcDbEntity
  8
_U+30EC_U+30A4_U+30E4_U+30FC 1
 62
     7
420
 16777215
370
    25
100
AcDb2dPolyline
 66
     1
 10
0.0
 20
0.0
 30
0.0
  0
VERTEX
  5
108
330
107
100
AcDbEntity
  8
_U+30EC_U+30A4_U+30E4_U+30FC 1
 62
     7
420
 16777215
370
    25
100
AcDbVertex
100
AcDb2dVertex
 10
81.45550486634139
 20
-130.5636199673591
 30
0.0
  0
VERTEX
  5
109
330
107
100
AcDbEntity
  8
_U+30EC_U+30A4_U+30E4_U+30FC 1
 62
     7
420
 16777215
370
    25
100
AcDbVertex
100
AcDb2dVertex
 10
81.86373930037091
 20
-130.0695899674824
 30
0.0
  0
SEQEND
  5
10A
330
107
100
AcDbEntity
  8
_U+30EC_U+30A4_U+30E4_U+30FC 1
 62
     7
420
 16777215
370
    25
  0
POLYLINE
  5
10B
330
41
100
AcDbEntity
  8
_U+30EC_U+30A4_U+30E4_U+30FC 1
 62
     7
420
 16777215
370
    25
100
AcDb2dPolyline
 66
     1
 10
0.0
 20
0.0
 30
0.0
  0
VERTEX
  5
10C
330
10B
100
AcDbEntity
  8
_U+30EC_U+30A4_U+30E4_U+30FC 1
 62
     7
420
 16777215
370
    25
100
AcDbVertex
100
AcDb2dVertex
 10
81.86373930037091
 20
-130.0695899674824
 30
0.0
  0
VERTEX
  5
10D
330
10B
100
AcDbEntity
  8
_U+30EC_U+30A4_U+30E4_U+30FC 1
 62
     7
420
 16777215
370
    25
100
AcDbVertex
100
AcDb2dVertex
 10
81.47169736592828
 20
-129.5631421898317
 30
0.0
  0
SEQEND
  5
10E
330
10B
100
AcDbEntity
  8
_U+30EC_U+30A4_U+30E4_U+30FC 1
 62
     7
420
 16777215
370
    25
  0
POLYLINE
  5
10F
330
41
100
AcDbEntity
  8
_U+30EC_U+30A4_U+30E4_U+30FC 1
 62
     7
420
 16777215
370
    25
100
AcDb2dPolyline
 66
     1
 10
0.0
 20
0.0
 30
0.0
  0
VERTEX
  5
110
330
10F
100
AcDbEntity
  8
_U+30EC_U+30A4_U+30E4_U+30FC 1
 62
     7
420
 16777215
370
    25
100
AcDbVertex
100
AcDb2dVertex
 10
81.43931236675449
 20
-131.564062467109
 30
0.0
  0
VERTEX
  5
111
330
10F
100
AcDbEntity
  8
_U+30EC_U+30A4_U+30E4_U+30FC 1
 62
     7
420
 16777215
370
    25
100
AcDbVertex
100
AcDb2dVertex
 10
81.84719402301523
 20
-131.0700324672324
 30
0.0
  0
SEQEND
  5
112
330
10F
100
AcDbEntity
  8
_U+30EC_U+30A4_U+30E4_U+30FC 1
 62
     7
420
 16777215
370
    25
  0
POLYLINE
  5
113
330
41
100
AcDbEntity
  8
_U+30EC_U+30A4_U+30E4_U+30FC 1
 62
     7
420
 16777215
370
    25
100
AcDb2dPolyline
 66
     1
 10
0.0
 20
0.0
 30
0.0
  0
VERTEX
  5
114
330
113
100
AcDbEntity
  8
_U+30EC_U+30A4_U+30E4_U+30FC 1
 62
     7
420
 16777215
370
    25
100
AcDbVertex
100
AcDb2dVertex
 10
81.84719402301523
 20
-131.0700324672324
 30
0.0
  0
VERTEX
  5
115
330
113
100
AcDbEntity
  8
_U+30EC_U+30A4_U+30E4_U+30FC 1
 62
     7
420
 16777215
370
    25
100
AcDbVertex
100
AcDb2dVertex
 10
81.45550486634139
 20
-130.5636199673591
 30
0.0
  0
SEQEND
  5
116
330
113
100
AcDbEntity
  8
_U+30EC_U+30A4_U+30E4_U+30FC 1
 62
     7
420
 16777215
370
    25
  0
POLYLINE
  5
117
330
41
100
AcDbEntity
  8
_U+30EC_U+30A4_U+30E4_U+30FC 1
 62
     7
420
 16777215
370
    25
100
AcDb2dPolyline
 66
     1
 10
0.0
 20
0.0
 30
0.0
  0
VERTEX
  5
118
330
117
100
AcDbEntity
  8
_U+30EC_U+30A4_U+30E4_U+30FC 1
 62
     7
420
 16777215
370
    25
100
AcDbVertex
100
AcDb2dVertex
 10
81.42276708939882
 20
-132.5645049668589
 30
0.0
  0
VERTEX
  5
119
330
117
100
AcDbEntity
  8
_U+30EC_U+30A4_U+30E4_U+30FC 1
 62
     7
420
 16777215
370
    25
100
AcDbVertex
100
AcDb2dVertex
 10
81.83064874565956
 20
-132.0704749669822
 30
0.0
  0
SEQEND
  5
11A
330
117
100
AcDbEntity
  8
_U+30EC_U+30A4_U+30E4_U+30FC 1
 62
     7
420
 16777215
370
    25
  0
POLYLINE
  5
11B
330
41
100
AcDbEntity
  8
_U+30EC_U+30A4_U+30E4_U+30FC 1
 62
     7
420
 16777215
370
    25
100
AcDb2dPolyline
 66
     1
 10
0.0
 20
0.0
 30
0.0
  0
VERTEX
  5
11C
330
11B
100
AcDbEntity
  8
_U+30EC_U+30A4_U+30E4_U+30FC 1
 62
     7
420
 16777215
370
    25
100
AcDbVertex
100
AcDb2dVertex
 10
81.83064874565956
 20
-132.0704749669822
 30
0.0
  0
VERTEX
  5
11D
330
11B
100
AcDbEntity
  8
_U+30EC_U+30A4_U+30E4_U+30FC 1
 62
     7
420
 16777215
370
    25
100
AcDbVertex
100
AcDb2dVertex
 10
81.43931236675449
 20
-131.564062467109
 30
0.0
  0
SEQEND
  5
11E
330
11B
100
AcDbEntity
  8
_U+30EC_U+30A4_U+30E4_U+30FC 1
 62
     7
420
 16777215
370
    25
  0
POLYLINE
  5
11F
330
41
100
AcDbEntity
  8
_U+30EC_U+30A4_U+30E4_U+30FC 1
 62
     7
420
 16777215
370
    25
100
AcDb2dPolyline
 66
     1
 10
0.0
 20
0.0
 30
0.0
  0
VERTEX
  5
120
330
11F
100
AcDbEntity
  8
_U+30EC_U+30A4_U+30E4_U+30FC 1
 62
     7
420
 16777215
370
    25
100
AcDbVertex
100
AcDb2dVertex
 10
81.40622181204314
 20
-133.5649827443863
 30
0.0
  0
VERTEX
  5
121
330
11F
100
AcDbEntity
  8
_U+30EC_U+30A4_U+30E4_U+30FC 1
 62
     7
420
 16777215
370
    25
100
AcDbVertex
100
AcDb2dVertex
 10
81.81481109065747
 20
-133.0709527445103
 30
0.0
  0
SEQEND
  5
122
330
11F
100
AcDbEntity
  8
_U+30EC_U+30A4_U+30E4_U+30FC 1
 62
     7
420
 16777215
370
    25
  0
POLYLINE
  5
123
330
41
100
AcDbEntity
  8
_U+30EC_U+30A4_U+30E4_U+30FC 1
 62
     7
420
 16777215
370
    25
100
AcDb2dPolyline
 66
     1
 10
0.0
 20
0.0
 30
0.0
  0
VERTEX
  5
124
330
123
100
AcDbEntity
  8
_U+30EC_U+30A4_U+30E4_U+30FC 1
 62
     7
420
 16777215
370
    25
100
AcDbVertex
100
AcDb2dVertex
 10
81.81481109065747
 20
-133.0709527445103
 30
0.0
  0
VERTEX
  5
125
330
123
100
AcDbEntity
  8
_U+30EC_U+30A4_U+30E4_U+30FC 1
 62
     7
420
 16777215
370
    25
100
AcDbVertex
100
AcDb2dVertex
 10
81.42276708939882
 20
-132.5645049668589
 30
0.0
  0
SEQEND
  5
126
330
123
100
AcDbEntity
  8
_U+30EC_U+30A4_U+30E4_U+30FC 1
 62
     7
420
 16777215
370
    25
  0
POLYLINE
  5
127
330
41
100
AcDbEntity
  8
_U+30EC_U+30A4_U+30E4_U+30FC 1
 62
     7
420
 16777215
370
    25
100
AcDb2dPolyline
 66
     1
 10
0.0
 20
0.0
 30
0.0
  0
VERTEX
  5
128
330
127
100
AcDbEntity
  8
_U+30EC_U+30A4_U+30E4_U+30FC 1
 62
     7
420
 16777215
370
    25
100
AcDbVertex
100
AcDb2dVertex
 10
81.53420958655569
 20
-134.4662241330501
 30
0.0
  0
VERTEX
  5
129
330
127
100
AcDbEntity
  8
_U+30EC_U+30A4_U+30E4_U+30FC 1
 62
     7
420
 16777215
370
    25
100
AcDbVertex
100
AcDb2dVertex
 10
81.79826374648577
 20
-134.0713952442602
 30
0.0
  0
SEQEND
  5
12A
330
127
100
AcDbEntity
  8
_U+30EC_U+30A4_U+30E4_U+30FC 1
 62
     7
420
 16777215
370
    25
  0
POLYLINE
  5
12B
330
41
100
AcDbEntity
  8
_U+30EC_U+30A4_U+30E4_U+30FC 1
 62
     7
420
 16777215
370
    25
100
AcDb2dPolyline
 66
     1
 10
0.0
 20
0.0
 30
0.0
  0
VERTEX
  5
12C
330
12B
100
AcDbEntity
  8
_U+30EC_U+30A4_U+30E4_U+30FC 1
 62
     7
420
 16777215
370
    25
100
AcDbVertex
100
AcDb2dVertex
 10
81.79826374648577
 20
-134.0713952442602
 30
0.0
  0
VERTEX
  5
12D
330
12B
100
AcDbEntity
  8
_U+30EC_U+30A4_U+30E4_U+30FC 1
 62
     7
420
 16777215
370
    25
100
AcDbVertex
100
AcDb2dVertex
 10
81.40622181204314
 20
-133.5649827443863
 30
0.0
  0
SEQEND
  5
12E
330
12B
100
AcDbEntity
  8
_U+30EC_U+30A4_U+30E4_U+30FC 1
 62
     7
420
 16777215
370
    25
  0
POLYLINE
  5
12F
330
41
100
AcDbEntity
  8
_U+30EC_U+30A4_U+30E4_U+30FC 1
 62
     7
420
 16777215
370
    25
100
AcDb2dPolyline
 66
     1
 10
0.0
 20
0.0
 30
0.0
  0
VERTEX
  5
130
330
12F
100
AcDbEntity
  8
_U+30EC_U+30A4_U+30E4_U+30FC 1
 62
     7
420
 16777215
370
    25
100
AcDbVertex
100
AcDb2dVertex
 10
101.5310999097258
 20
-138.4383960765017
 30
0.0
  0
VERTEX
  5
131
330
12F
100
AcDbEntity
  8
_U+30EC_U+30A4_U+30E4_U+30FC 1
 62
     7
420
 16777215
370
    25
100
AcDbVertex
100
AcDb2dVertex
 10
102.0251298971221
 20
-138.0305144099366
 30
0.0
  0
SEQEND
  5
132
330
12F
100
AcDbEntity
  8
_U+30EC_U+30A4_U+30E4_U+30FC 1
 62
     7
420
 16777215
370
    25
  0
POLYLINE
  5
133
330
41
100
AcDbEntity
  8
_U+30EC_U+30A4_U+30E4_U+30FC 1
 62
     7
420
 16777215
370
    25
100
AcDb2dPolyline
 66
     1
 10
0.0
 20
0.0
 30
0.0
  0
VERTEX
  5
134
330
133
100
AcDbEntity
  8
_U+30EC_U+30A4_U+30E4_U+30FC 1
 62
     7
420
 16777215
370
    25
100
AcDbVertex
100
AcDb2dVertex
 10
100.5306574352493
 20
-138.4549413542751
 30
0.0
  0
VERTEX
  5
135
330
133
100
AcDbEntity
  8
_U+30EC_U+30A4_U+30E4_U+30FC 1
 62
     7
420
 16777215
370
    25
100
AcDbVertex
100
AcDb2dVertex
 10
101.0246521448686
 20
-138.0470596877106
 30
0.0
  0
SEQEND
  5
136
330
133
100
AcDbEntity
  8
_U+30EC_U+30A4_U+30E4_U+30FC 1
 62
     7
420
 16777215
370
    25
  0
POLYLINE
  5
137
330
41
100
AcDbEntity
  8
_U+30EC_U+30A4_U+30E4_U+30FC 1
 62
     7
420
 16777215
370
    25
100
AcDb2dPolyline
 66
     1
 10
0.0
 20
0.0
 30
0.0
  0
VERTEX
  5
138
330
137
100
AcDbEntity
  8
_U+30EC_U+30A4_U+30E4_U+30FC 1
 62
     7
420
 16777215
370
    25
100
AcDbVertex
100
AcDb2dVertex
 10
101.0246521448686
 20
-138.0470596877106
 30
0.0
  0
VERTEX
  5
139
330
137
100
AcDbEntity
  8
_U+30EC_U+30A4_U+30E4_U+30FC 1
 62
     7
420
 16777215
370
    25
100
AcDbVertex
100
AcDb2dVertex
 10
101.5310999097258
 20
-138.4383960765017
 30
0.0
  0
SEQEND
  5
13A
330
137
100
AcDbEntity
  8
_U+30EC_U+30A4_U+30E4_U+30FC 1
 62
     7
420
 16777215
370
    25
  0
POLYLINE
  5
13B
330
41
100
AcDbEntity
  8
_U+30EC_U+30A4_U+30E4_U+30FC 1
 62
     7
420
 16777215
370
    25
100
AcDb2dPolyline
 66
     1
 10
0.0
 20
0.0
 30
0.0
  0
VERTEX
  5
13C
330
13B
100
AcDbEntity
  8
_U+30EC_U+30A4_U+30E4_U+30FC 1
 62
     7
420
 16777215
370
    25
100
AcDbVertex
100
AcDb2dVertex
 10
99.5301796829958
 20
-138.4721569098265
 30
0.0
  0
VERTEX
  5
13D
330
13B
100
AcDbEntity
  8
_U+30EC_U+30A4_U+30E4_U+30FC 1
 62
     7
420
 16777215
370
    25
100
AcDbVertex
100
AcDb2dVertex
 10
100.024209670392
 20
-138.0635696877065
 30
0.0
  0
SEQEND
  5
13E
330
13B
100
AcDbEntity
  8
_U+30EC_U+30A4_U+30E4_U+30FC 1
 62
     7
420
 16777215
370
    25
  0
POLYLINE
  5
13F
330
41
100
AcDbEntity
  8
_U+30EC_U+30A4_U+30E4_U+30FC 1
 62
     7
420
 16777215
370
    25
100
AcDb2dPolyline
 66
     1
 10
0.0
 20
0.0
 30
0.0
  0
VERTEX
  5
140
330
13F
100
AcDbEntity
  8
_U+30EC_U+30A4_U+30E4_U+30FC 1
 62
     7
420
 16777215
370
    25
100
AcDbVertex
100
AcDb2dVertex
 10
100.024209670392
 20
-138.0635696877065
 30
0.0
  0
VERTEX
  5
141
330
13F
100
AcDbEntity
  8
_U+30EC_U+30A4_U+30E4_U+30FC 1
 62
     7
420
 16777215
370
    25
100
AcDbVertex
100
AcDb2dVertex
 10
100.5306574352493
 20
-138.4549413542751
 30
0.0
  0
SEQEND
  5
142
330
13F
100
AcDbEntity
  8
_U+30EC_U+30A4_U+30E4_U+30FC 1
 62
     7
420
 16777215
370
    25
  0
POLYLINE
  5
143
330
41
100
AcDbEntity
  8
_U+30EC_U+30A4_U+30E4_U+30FC 1
 62
     7
420
 16777215
370
    25
100
AcDb2dPolyline
 66
     1
 10
0.0
 20
0.0
 30
0.0
  0
VERTEX
  5
144
330
143
100
AcDbEntity
  8
_U+30EC_U+30A4_U+30E4_U+30FC 1
 62
     7
420
 16777215
370
    25
100
AcDbVertex
100
AcDb2dVertex
 10
98.52973720851921
 20
-138.4887021876
 30
0.0
  0
VERTEX
  5
145
330
143
100
AcDbEntity
  8
_U+30EC_U+30A4_U+30E4_U+30FC 1
 62
     7
420
 16777215
370
    25
100
AcDbVertex
100
AcDb2dVertex
 10
99.02376719591545
 20
-138.0801149654799
 30
0.0
  0
SEQEND
  5
146
330
143
100
AcDbEntity
  8
_U+30EC_U+30A4_U+30E4_U+30FC 1
 62
     7
420
 16777215
370
    25
  0
POLYLINE
  5
147
330
41
100
AcDbEntity
  8
_U+30EC_U+30A4_U+30E4_U+30FC 1
 62
     7
420
 16777215
370
    25
100
AcDb2dPolyline
 66
     1
 10
0.0
 20
0.0
 30
0.0
  0
VERTEX
  5
148
330
147
100
AcDbEntity
  8
_U+30EC_U+30A4_U+30E4_U+30FC 1
 62
     7
420
 16777215
370
    25
100
AcDbVertex
100
AcDb2dVertex
 10
99.02376719591545
 20
-138.0801149654799
 30
0.0
  0
VERTEX
  5
149
330
147
100
AcDbEntity
  8
_U+30EC_U+30A4_U+30E4_U+30FC 1
 62
     7
420
 16777215
370
    25
100
AcDbVertex
100
AcDb2dVertex
 10
99.5301796829958
 20
-138.4721569098265
 30
0.0
  0
SEQEND
  5
14A
330
147
100
AcDbEntity
  8
_U+30EC_U+30A4_U+30E4_U+30FC 1
 62
     7
420
 16777215
370
    25
  0
POLYLINE
  5
14B
330
41
100
AcDbEntity
  8
_U+30EC_U+30A4_U+30E4_U+30FC 1
 62
     7
420
 16777215
370
    25
100
AcDb2dPolyline
 66
     1
 10
0.0
 20
0.0
 30
0.0
  0
VERTEX
  5
14C
330
14B
100
AcDbEntity
  8
_U+30EC_U+30A4_U+30E4_U+30FC 1
 62
     7
420
 16777215
370
    25
100
AcDbVertex
100
AcDb2dVertex
 10
97.52925945626575
 20
-138.505247465374
 30
0.0
  0
VERTEX
  5
14D
330
14B
100
AcDbEntity
  8
_U+30EC_U+30A4_U+30E4_U+30FC 1
 62
     7
420
 16777215
370
    25
100
AcDbVertex
100
AcDb2dVertex
 10
98.023289443662
 20
-138.0966602432534
 30
0.0
  0
SEQEND
  5
14E
330
14B
100
AcDbEntity
  8
_U+30EC_U+30A4_U+30E4_U+30FC 1
 62
     7
420
 16777215
370
    25
  0
POLYLINE
  5
14F
330
41
100
AcDbEntity
  8
_U+30EC_U+30A4_U+30E4_U+30FC 1
 62
     7
420
 16777215
370
    25
100
AcDb2dPolyline
 66
     1
 10
0.0
 20
0.0
 30
0.0
  0
VERTEX
  5
150
330
14F
100
AcDbEntity
  8
_U+30EC_U+30A4_U+30E4_U+30FC 1
 62
     7
420
 16777215
370
    25
100
AcDbVertex
100
AcDb2dVertex
 10
98.023289443662
 20
-138.0966602432534
 30
0.0
  0
VERTEX
  5
151
330
14F
100
AcDbEntity
  8
_U+30EC_U+30A4_U+30E4_U+30FC 1
 62
     7
420
 16777215
370
    25
100
AcDbVertex
100
AcDb2dVertex
 10
98.52973720851921
 20
-138.4887021876
 30
0.0
  0
SEQEND
  5
152
330
14F
100
AcDbEntity
  8
_U+30EC_U+30A4_U+30E4_U+30FC 1
 62
     7
420
 16777215
370
    25
  0
POLYLINE
  5
153
330
41
100
AcDbEntity
  8
_U+30EC_U+30A4_U+30E4_U+30FC 1
 62
     7
420
 16777215
370
    25
100
AcDb2dPolyline
 66
     1
 10
0.0
 20
0.0
 30
0.0
  0
VERTEX
  5
154
330
153
100
AcDbEntity
  8
_U+30EC_U+30A4_U+30E4_U+30FC 1
 62
     7
420
 16777215
370
    25
100
AcDbVertex
100
AcDb2dVertex
 10
96.52881942031225
 20
-138.5217927431474
 30
0.0
  0
VERTEX
  5
155
330
153
100
AcDbEntity
  8
_U+30EC_U+30A4_U+30E4_U+30FC 1
 62
     7
420
 16777215
370
    25
100
AcDbVertex
100
AcDb2dVertex
 10
97.02284696918541
 20
-138.1132055210274
 30
0.0
  0
SEQEND
  5
156
330
153
100
AcDbEntity
  8
_U+30EC_U+30A4_U+30E4_U+30FC 1
 62
     7
420
 16777215
370
    25
  0
POLYLINE
  5
157
330
41
100
AcDbEntity
  8
_U+30EC_U+30A4_U+30E4_U+30FC 1
 62
     7
420
 16777215
370
    25
100
AcDb2dPolyline
 66
     1
 10
0.0
 20
0.0
 30
0.0
  0
VERTEX
  5
158
330
157
100
AcDbEntity
  8
_U+30EC_U+30A4_U+30E4_U+30FC 1
 62
     7
420
 16777215
370
    25
100
AcDbVertex
100
AcDb2dVertex
 10
97.02284696918541
 20
-138.1132055210274
 30
0.0
  0
VERTEX
  5
159
330
157
100
AcDbEntity
  8
_U+30EC_U+30A4_U+30E4_U+30FC 1
 62
     7
420
 16777215
370
    25
100
AcDbVertex
100
AcDb2dVertex
 10
97.52925945626575
 20
-138.505247465374
 30
0.0
  0
SEQEND
  5
15A
330
157
100
AcDbEntity
  8
_U+30EC_U+30A4_U+30E4_U+30FC 1
 62
     7
420
 16777215
370
    25
  0
POLYLINE
  5
15B
330
41
100
AcDbEntity
  8
_U+30EC_U+30A4_U+30E4_U+30FC 1
 62
     7
420
 16777215
370
    25
100
AcDb2dPolyline
 66
     1
 10
0.0
 20
0.0
 30
0.0
  0
VERTEX
  5
15C
330
15B
100
AcDbEntity
  8
_U+30EC_U+30A4_U+30E4_U+30FC 1
 62
     7
420
 16777215
370
    25
100
AcDbVertex
100
AcDb2dVertex
 10
95.52837450731258
 20
-138.5383027431433
 30
0.0
  0
VERTEX
  5
15D
330
15B
100
AcDbEntity
  8
_U+30EC_U+30A4_U+30E4_U+30FC 1
 62
     7
420
 16777215
370
    25
100
AcDbVertex
100
AcDb2dVertex
 10
96.02240449470882
 20
-138.1304210765788
 30
0.0
  0
SEQEND
  5
15E
330
15B
100
AcDbEntity
  8
_U+30EC_U+30A4_U+30E4_U+30FC 1
 62
     7
420
 16777215
370
    25
  0
POLYLINE
  5
15F
330
41
100
AcDbEntity
  8
_U+30EC_U+30A4_U+30E4_U+30FC 1
 62
     7
420
 16777215
370
    25
100
AcDb2dPolyline
 66
     1
 10
0.0
 20
0.0
 30
0.0
  0
VERTEX
  5
160
330
15F
100
AcDbEntity
  8
_U+30EC_U+30A4_U+30E4_U+30FC 1
 62
     7
420
 16777215
370
    25
100
AcDbVertex
100
AcDb2dVertex
 10
96.02240449470882
 20
-138.1304210765788
 30
0.0
  0
VERTEX
  5
161
330
15F
100
AcDbEntity
  8
_U+30EC_U+30A4_U+30E4_U+30FC 1
 62
     7
420
 16777215
370
    25
100
AcDbVertex
100
AcDb2dVertex
 10
96.52881942031225
 20
-138.5217927431474
 30
0.0
  0
SEQEND
  5
162
330
15F
100
AcDbEntity
  8
_U+30EC_U+30A4_U+30E4_U+30FC 1
 62
     7
420
 16777215
370
    25
  0
POLYLINE
  5
163
330
41
100
AcDbEntity
  8
_U+30EC_U+30A4_U+30E4_U+30FC 1
 62
     7
420
 16777215
370
    25
100
AcDb2dPolyline
 66
     1
 10
0.0
 20
0.0
 30
0.0
  0
VERTEX
  5
164
330
163
100
AcDbEntity
  8
_U+30EC_U+30A4_U+30E4_U+30FC 1
 62
     7
420
 16777215
370
    25
100
AcDbVertex
100
AcDb2dVertex
 10
94.5278967550591
 20
-138.5548480209168
 30
0.0
  0
VERTEX
  5
165
330
163
100
AcDbEntity
  8
_U+30EC_U+30A4_U+30E4_U+30FC 1
 62
     7
420
 16777215
370
    25
100
AcDbVertex
100
AcDb2dVertex
 10
95.02192674245535
 20
-138.1469663543523
 30
0.0
  0
SEQEND
  5
166
330
163
100
AcDbEntity
  8
_U+30EC_U+30A4_U+30E4_U+30FC 1
 62
     7
420
 16777215
370
    25
  0
POLYLINE
  5
167
330
41
100
AcDbEntity
  8
_U+30EC_U+30A4_U+30E4_U+30FC 1
 62
     7
420
 16777215
370
    25
100
AcDb2dPolyline
 66
     1
 10
0.0
 20
0.0
 30
0.0
  0
VERTEX
  5
168
330
167
100
AcDbEntity
  8
_U+30EC_U+30A4_U+30E4_U+30FC 1
 62
     7
420
 16777215
370
    25
100
AcDbVertex
100
AcDb2dVertex
 10
95.02192674245535
 20
-138.1469663543523
 30
0.0
  0
VERTEX
  5
169
330
167
100
AcDbEntity
  8
_U+30EC_U+30A4_U+30E4_U+30FC 1
 62
     7
420
 16777215
370
    25
100
AcDbVertex
100
AcDb2dVertex
 10
95.52837450731258
 20
-138.5383027431433
 30
0.0
  0
SEQEND
  5
16A
330
167
100
AcDbEntity
  8
_U+30EC_U+30A4_U+30E4_U+30FC 1
 62
     7
420
 16777215
370
    25
  0
POLYLINE
  5
16B
330
41
100
AcDbEntity
  8
_U+30EC_U+30A4_U+30E4_U+30FC 1
 62
     7
420
 16777215
370
    25
100
AcDb2dPolyline
 66
     1
 10
0.0
 20
0.0
 30
0.0
  0
VERTEX
  5
16C
330
16B
100
AcDbEntity
  8
_U+30EC_U+30A4_U+30E4_U+30FC 1
 62
     7
420
 16777215
370
    25
100
AcDbVertex
100
AcDb2dVertex
 10
93.5281245583432
 20
-138.5713932986908
 30
0.0
  0
VERTEX
  5
16D
330
16B
100
AcDbEntity
  8
_U+30EC_U+30A4_U+30E4_U+30FC 1
 62
     7
420
 16777215
370
    25
100
AcDbVertex
100
AcDb2dVertex
 10
94.02148426797876
 20
-138.1634763543481
 30
0.0
  0
SEQEND
  5
16E
330
16B
100
AcDbEntity
  8
_U+30EC_U+30A4_U+30E4_U+30FC 1
 62
     7
420
 16777215
370
    25
  0
POLYLINE
  5
16F
330
41
100
AcDbEntity
  8
_U+30EC_U+30A4_U+30E4_U+30FC 1
 62
     7
420
 16777215
370
    25
100
AcDb2dPolyline
 66
     1
 10
0.0
 20
0.0
 30
0.0
  0
VERTEX
  5
170
330
16F
100
AcDbEntity
  8
_U+30EC_U+30A4_U+30E4_U+30FC 1
 62
     7
420
 16777215
370
    25
100
AcDbVertex
100
AcDb2dVertex
 10
94.02148426797876
 20
-138.1634763543481
 30
0.0
  0
VERTEX
  5
171
330
16F
100
AcDbEntity
  8
_U+30EC_U+30A4_U+30E4_U+30FC 1
 62
     7
420
 16777215
370
    25
100
AcDbVertex
100
AcDb2dVertex
 10
94.5278967550591
 20
-138.5548480209168
 30
0.0
  0
SEQEND
  5
172
330
16F
100
AcDbEntity
  8
_U+30EC_U+30A4_U+30E4_U+30FC 1
 62
     7
420
 16777215
370
    25
  0
POLYLINE
  5
173
330
41
100
AcDbEntity
  8
_U+30EC_U+30A4_U+30E4_U+30FC 1
 62
     7
420
 16777215
370
    25
100
AcDb2dPolyline
 66
     1
 10
0.0
 20
0.0
 30
0.0
  0
VERTEX
  5
174
330
173
100
AcDbEntity
  8
_U+30EC_U+30A4_U+30E4_U+30FC 1
 62
     7
420
 16777215
370
    25
100
AcDbVertex
100
AcDb2dVertex
 10
92.52768208386661
 20
-138.5879385764642
 30
0.0
  0
VERTEX
  5
175
330
173
100
AcDbEntity
  8
_U+30EC_U+30A4_U+30E4_U+30FC 1
 62
     7
420
 16777215
370
    25
100
AcDbVertex
100
AcDb2dVertex
 10
93.0210065157253
 20
-138.1800216321216
 30
0.0
  0
SEQEND
  5
176
330
173
100
AcDbEntity
  8
_U+30EC_U+30A4_U+30E4_U+30FC 1
 62
     7
420
 16777215
370
    25
  0
POLYLINE
  5
177
330
41
100
AcDbEntity
  8
_U+30EC_U+30A4_U+30E4_U+30FC 1
 62
     7
420
 16777215
370
    25
100
AcDb2dPolyline
 66
     1
 10
0.0
 20
0.0
 30
0.0
  0
VERTEX
  5
178
330
177
100
AcDbEntity
  8
_U+30EC_U+30A4_U+30E4_U+30FC 1
 62
     7
420
 16777215
370
    25
100
AcDbVertex
100
AcDb2dVertex
 10
93.0210065157253
 20
-138.1800216321216
 30
0.0
  0
VERTEX
  5
179
330
177
100
AcDbEntity
  8
_U+30EC_U+30A4_U+30E4_U+30FC 1
 62
     7
420
 16777215
370
    25
100
AcDbVertex
100
AcDb2dVertex
 10
93.5281245583432
 20
-138.5713932986908
 30
0.0
  0
SEQEND
  5
17A
330
177
100
AcDbEntity
  8
_U+30EC_U+30A4_U+30E4_U+30FC 1
 62
     7
420
 16777215
370
    25
  0
POLYLINE
  5
17B
330
41
100
AcDbEntity
  8
_U+30EC_U+30A4_U+30E4_U+30FC 1
 62
     7
420
 16777215
370
    25
100
AcDb2dPolyline
 66
     1
 10
0.0
 20
0.0
 30
0.0
  0
VERTEX
  5
17C
330
17B
100
AcDbEntity
  8
_U+30EC_U+30A4_U+30E4_U+30FC 1
 62
     7
420
 16777215
370
    25
100
AcDbVertex
100
AcDb2dVertex
 10
91.52723960939002
 20
-138.6051541320157
 30
0.0
  0
VERTEX
  5
17D
330
17B
100
AcDbEntity
  8
_U+30EC_U+30A4_U+30E4_U+30FC 1
 62
     7
420
 16777215
370
    25
100
AcDbVertex
100
AcDb2dVertex
 10
92.02056404124872
 20
-138.1965669098956
 30
0.0
  0
SEQEND
  5
17E
330
17B
100
AcDbEntity
  8
_U+30EC_U+30A4_U+30E4_U+30FC 1
 62
     7
420
 16777215
370
    25
  0
POLYLINE
  5
17F
330
41
100
AcDbEntity
  8
_U+30EC_U+30A4_U+30E4_U+30FC 1
 62
     7
420
 16777215
370
    25
100
AcDb2dPolyline
 66
     1
 10
0.0
 20
0.0
 30
0.0
  0
VERTEX
  5
180
330
17F
100
AcDbEntity
  8
_U+30EC_U+30A4_U+30E4_U+30FC 1
 62
     7
420
 16777215
370
    25
100
AcDbVertex
100
AcDb2dVertex
 10
92.02056404124872
 20
-138.1965669098956
 30
0.0
  0
VERTEX
  5
181
330
17F
100
AcDbEntity
  8
_U+30EC_U+30A4_U+30E4_U+30FC 1
 62
     7
420
 16777215
370
    25
100
AcDbVertex
100
AcDb2dVertex
 10
92.52768208386661
 20
-138.5879385764642
 30
0.0
  0
SEQEND
  5
182
330
17F
100
AcDbEntity
  8
_U+30EC_U+30A4_U+30E4_U+30FC 1
 62
     7
420
 16777215
370
    25
  0
POLYLINE
  5
183
330
41
100
AcDbEntity
  8
_U+30EC_U+30A4_U+30E4_U+30FC 1
 62
     7
420
 16777215
370
    25
100
AcDb2dPolyline
 66
     1
 10
0.0
 20
0.0
 30
0.0
  0
VERTEX
  5
184
330
183
100
AcDbEntity
  8
_U+30EC_U+30A4_U+30E4_U+30FC 1
 62
     7
420
 16777215
370
    25
100
AcDbVertex
100
AcDb2dVertex
 10
90.52658546825218
 20
-138.6216994097891
 30
0.0
  0
VERTEX
  5
185
330
183
100
AcDbEntity
  8
_U+30EC_U+30A4_U+30E4_U+30FC 1
 62
     7
420
 16777215
370
    25
100
AcDbVertex
100
AcDb2dVertex
 10
91.01994517788773
 20
-138.2131121876691
 30
0.0
  0
SEQEND
  5
186
330
183
100
AcDbEntity
  8
_U+30EC_U+30A4_U+30E4_U+30FC 1
 62
     7
420
 16777215
370
    25
  0
POLYLINE
  5
187
330
41
100
AcDbEntity
  8
_U+30EC_U+30A4_U+30E4_U+30FC 1
 62
     7
420
 16777215
370
    25
100
AcDb2dPolyline
 66
     1
 10
0.0
 20
0.0
 30
0.0
  0
VERTEX
  5
188
330
187
100
AcDbEntity
  8
_U+30EC_U+30A4_U+30E4_U+30FC 1
 62
     7
420
 16777215
370
    25
100
AcDbVertex
100
AcDb2dVertex
 10
91.01994517788773
 20
-138.2131121876691
 30
0.0
  0
VERTEX
  5
189
330
187
100
AcDbEntity
  8
_U+30EC_U+30A4_U+30E4_U+30FC 1
 62
     7
420
 16777215
370
    25
100
AcDbVertex
100
AcDb2dVertex
 10
91.52723960939002
 20
-138.6051541320157
 30
0.0
  0
SEQEND
  5
18A
330
187
100
AcDbEntity
  8
_U+30EC_U+30A4_U+30E4_U+30FC 1
 62
     7
420
 16777215
370
    25
  0
POLYLINE
  5
18B
330
41
100
AcDbEntity
  8
_U+30EC_U+30A4_U+30E4_U+30FC 1
 62
     7
420
 16777215
370
    25
100
AcDb2dPolyline
 66
     1
 10
0.0
 20
0.0
 30
0.0
  0
VERTEX
  5
18C
330
18B
100
AcDbEntity
  8
_U+30EC_U+30A4_U+30E4_U+30FC 1
 62
     7
420
 16777215
370
    25
100
AcDbVertex
100
AcDb2dVertex
 10
89.5261429937756
 20
-138.638209409785
 30
0.0
  0
VERTEX
  5
18D
330
18B
100
AcDbEntity
  8
_U+30EC_U+30A4_U+30E4_U+30FC 1
 62
     7
420
 16777215
370
    25
100
AcDbVertex
100
AcDb2dVertex
 10
90.01946742563428
 20
-138.2296221876649
 30
0.0
  0
SEQEND
  5
18E
330
18B
100
AcDbEntity
  8
_U+30EC_U+30A4_U+30E4_U+30FC 1
 62
     7
420
 16777215
370
    25
  0
POLYLINE
  5
18F
330
41
100
AcDbEntity
  8
_U+30EC_U+30A4_U+30E4_U+30FC 1
 62
     7
420
 16777215
370
    25
100
AcDb2dPolyline
 66
     1
 10
0.0
 20
0.0
 30
0.0
  0
VERTEX
  5
190
330
18F
100
AcDbEntity
  8
_U+30EC_U+30A4_U+30E4_U+30FC 1
 62
     7
420
 16777215
370
    25
100
AcDbVertex
100
AcDb2dVertex
 10
90.01946742563428
 20
-138.2296221876649
 30
0.0
  0
VERTEX
  5
191
330
18F
100
AcDbEntity
  8
_U+30EC_U+30A4_U+30E4_U+30FC 1
 62
     7
420
 16777215
370
    25
100
AcDbVertex
100
AcDb2dVertex
 10
90.52658546825218
 20
-138.6216994097891
 30
0.0
  0
SEQEND
  5
192
330
18F
100
AcDbEntity
  8
_U+30EC_U+30A4_U+30E4_U+30FC 1
 62
     7
420
 16777215
370
    25
  0
POLYLINE
  5
193
330
41
100
AcDbEntity
  8
_U+30EC_U+30A4_U+30E4_U+30FC 1
 62
     7
420
 16777215
370
    25
100
AcDb2dPolyline
 66
     1
 10
0.0
 20
0.0
 30
0.0
  0
VERTEX
  5
194
330
193
100
AcDbEntity
  8
_U+30EC_U+30A4_U+30E4_U+30FC 1
 62
     7
420
 16777215
370
    25
100
AcDbVertex
100
AcDb2dVertex
 10
88.52570275564646
 20
-138.6547546875584
 30
0.0
  0
VERTEX
  5
195
330
193
100
AcDbEntity
  8
_U+30EC_U+30A4_U+30E4_U+30FC 1
 62
     7
420
 16777215
370
    25
100
AcDbVertex
100
AcDb2dVertex
 10
89.01902495115769
 20
-138.2461674654384
 30
0.0
  0
SEQEND
  5
196
330
193
100
AcDbEntity
  8
_U+30EC_U+30A4_U+30E4_U+30FC 1
 62
     7
420
 16777215
370
    25
  0
POLYLINE
  5
197
330
41
100
AcDbEntity
  8
_U+30EC_U+30A4_U+30E4_U+30FC 1
 62
     7
420
 16777215
370
    25
100
AcDb2dPolyline
 66
     1
 10
0.0
 20
0.0
 30
0.0
  0
VERTEX
  5
198
330
197
100
AcDbEntity
  8
_U+30EC_U+30A4_U+30E4_U+30FC 1
 62
     7
420
 16777215
370
    25
100
AcDbVertex
100
AcDb2dVertex
 10
89.01902495115769
 20
-138.2461674654384
 30
0.0
  0
VERTEX
  5
199
330
197
100
AcDbEntity
  8
_U+30EC_U+30A4_U+30E4_U+30FC 1
 62
     7
420
 16777215
370
    25
100
AcDbVertex
100
AcDb2dVertex
 10
89.5261429937756
 20
-138.638209409785
 30
0.0
  0
SEQEND
  5
19A
330
197
100
AcDbEntity
  8
_U+30EC_U+30A4_U+30E4_U+30FC 1
 62
     7
420
 16777215
370
    25
  0
POLYLINE
  5
19B
330
41
100
AcDbEntity
  8
_U+30EC_U+30A4_U+30E4_U+30FC 1
 62
     7
420
 16777215
370
    25
100
AcDb2dPolyline
 66
     1
 10
0.0
 20
0.0
 30
0.0
  0
VERTEX
  5
19C
330
19B
100
AcDbEntity
  8
_U+30EC_U+30A4_U+30E4_U+30FC 1
 62
     7
420
 16777215
370
    25
100
AcDbVertex
100
AcDb2dVertex
 10
87.52522497811871
 20
-138.6712999653325
 30
0.0
  0
VERTEX
  5
19D
330
19B
100
AcDbEntity
  8
_U+30EC_U+30A4_U+30E4_U+30FC 1
 62
     7
420
 16777215
370
    25
100
AcDbVertex
100
AcDb2dVertex
 10
88.0185824766811
 20
-138.2633830209898
 30
0.0
  0
SEQEND
  5
19E
330
19B
100
AcDbEntity
  8
_U+30EC_U+30A4_U+30E4_U+30FC 1
 62
     7
420
 16777215
370
    25
  0
POLYLINE
  5
19F
330
41
100
AcDbEntity
  8
_U+30EC_U+30A4_U+30E4_U+30FC 1
 62
     7
420
 16777215
370
    25
100
AcDb2dPolyline
 66
     1
 10
0.0
 20
0.0
 30
0.0
  0
VERTEX
  5
1A0
330
19F
100
AcDbEntity
  8
_U+30EC_U+30A4_U+30E4_U+30FC 1
 62
     7
420
 16777215
370
    25
100
AcDbVertex
100
AcDb2dVertex
 10
88.0185824766811
 20
-138.2633830209898
 30
0.0
  0
VERTEX
  5
1A1
330
19F
100
AcDbEntity
  8
_U+30EC_U+30A4_U+30E4_U+30FC 1
 62
     7
420
 16777215
370
    25
100
AcDbVertex
100
AcDb2dVertex
 10
88.52570275564646
 20
-138.6547546875584
 30
0.0
  0
SEQEND
  5
1A2
330
19F
100
AcDbEntity
  8
_U+30EC_U+30A4_U+30E4_U+30FC 1
 62
     7
420
 16777215
370
    25
  0
POLYLINE
  5
1A3
330
41
100
AcDbEntity
  8
_U+30EC_U+30A4_U+30E4_U+30FC 1
 62
     7
420
 16777215
370
    25
100
AcDb2dPolyline
 66
     1
 10
0.0
 20
0.0
 30
0.0
  0
VERTEX
  5
1A4
330
1A3
100
AcDbEntity
  8
_U+30EC_U+30A4_U+30E4_U+30FC 1
 62
     7
420
 16777215
370
    25
100
AcDbVertex
100
AcDb2dVertex
 10
86.52478029256895
 20
-138.6878452431059
 30
0.0
  0
VERTEX
  5
1A5
330
1A3
100
AcDbEntity
  8
_U+30EC_U+30A4_U+30E4_U+30FC 1
 62
     7
420
 16777215
370
    25
100
AcDbVertex
100
AcDb2dVertex
 10
87.01810472442764
 20
-138.2799282987632
 30
0.0
  0
SEQEND
  5
1A6
330
1A3
100
AcDbEntity
  8
_U+30EC_U+30A4_U+30E4_U+30FC 1
 62
     7
420
 16777215
370
    25
  0
POLYLINE
  5
1A7
330
41
100
AcDbEntity
  8
_U+30EC_U+30A4_U+30E4_U+30FC 1
 62
     7
420
 16777215
370
    25
100
AcDb2dPolyline
 66
     1
 10
0.0
 20
0.0
 30
0.0
  0
VERTEX
  5
1A8
330
1A7
100
AcDbEntity
  8
_U+30EC_U+30A4_U+30E4_U+30FC 1
 62
     7
420
 16777215
370
    25
100
AcDbVertex
100
AcDb2dVertex
 10
87.01810472442764
 20
-138.2799282987632
 30
0.0
  0
VERTEX
  5
1A9
330
1A7
100
AcDbEntity
  8
_U+30EC_U+30A4_U+30E4_U+30FC 1
 62
     7
420
 16777215
370
    25
100
AcDbVertex
100
AcDb2dVertex
 10
87.52522497811871
 20
-138.6712999653325
 30
0.0
  0
SEQEND
  5
1AA
330
1A7
100
AcDbEntity
  8
_U+30EC_U+30A4_U+30E4_U+30FC 1
 62
     7
420
 16777215
370
    25
  0
POLYLINE
  5
1AB
330
41
100
AcDbEntity
  8
_U+30EC_U+30A4_U+30E4_U+30FC 1
 62
     7
420
 16777215
370
    25
100
AcDb2dPolyline
 66
     1
 10
0.0
 20
0.0
 30
0.0
  0
VERTEX
  5
1AC
330
1AB
100
AcDbEntity
  8
_U+30EC_U+30A4_U+30E4_U+30FC 1
 62
     7
420
 16777215
370
    25
100
AcDbVertex
100
AcDb2dVertex
 10
85.62216309337441
 20
-138.5548480209168
 30
0.0
  0
VERTEX
  5
1AD
330
1AB
100
AcDbEntity
  8
_U+30EC_U+30A4_U+30E4_U+30FC 1
 62
     7
420
 16777215
370
    25
100
AcDbVertex
100
AcDb2dVertex
 10
86.01766224995106
 20
-138.2964735765373
 30
0.0
  0
SEQEND
  5
1AE
330
1AB
100
AcDbEntity
  8
_U+30EC_U+30A4_U+30E4_U+30FC 1
 62
     7
420
 16777215
370
    25
  0
POLYLINE
  5
1AF
330
41
100
AcDbEntity
  8
_U+30EC_U+30A4_U+30E4_U+30FC 1
 62
     7
420
 16777215
370
    25
100
AcDb2dPolyline
 66
     1
 10
0.0
 20
0.0
 30
0.0
  0
VERTEX
  5
1B0
330
1AF
100
AcDbEntity
  8
_U+30EC_U+30A4_U+30E4_U+30FC 1
 62
     7
420
 16777215
370
    25
100
AcDbVertex
100
AcDb2dVertex
 10
86.01766224995106
 20
-138.2964735765373
 30
0.0
  0
VERTEX
  5
1B1
330
1AF
100
AcDbEntity
  8
_U+30EC_U+30A4_U+30E4_U+30FC 1
 62
     7
420
 16777215
370
    25
100
AcDbVertex
100
AcDb2dVertex
 10
86.52478029256895
 20
-138.6878452431059
 30
0.0
  0
SEQEND
  5
1B2
330
1AF
100
AcDbEntity
  8
_U+30EC_U+30A4_U+30E4_U+30FC 1
 62
     7
420
 16777215
370
    25
  0
POLYLINE
  5
1B3
330
41
100
AcDbEntity
  8
_U+30EC_U+30A4_U+30E4_U+30FC 1
  6
AI-Linetype-1
 62
   154
420
    23468
370
    25
100
AcDb2dPolyline
 66
     1
 10
0.0
 20
0.0
 30
0.0
  0
VERTEX
  5
1B4
330
1B3
100
AcDbEntity
  8
_U+30EC_U+30A4_U+30E4_U+30FC 1
  6
AI-Linetype-1
 62
   154
420
    23468
370
    25
100
AcDbVertex
100
AcDb2dVertex
 10
82.9322326064447
 20
-113.5670688604973
 30
0.0
  0
VERTEX
  5
1B5
330
1B3
100
AcDbEntity
  8
_U+30EC_U+30A4_U+30E4_U+30FC 1
  6
AI-Linetype-1
 62
   154
420
    23468
370
    25
100
AcDbVertex
100
AcDb2dVertex
 10
82.9322326064447
 20
-123.5668019135528
 30
0.0
  0
SEQEND
  5
1B7
330
1B3
100
AcDbEntity
  8
_U+30EC_U+30A4_U+30E4_U+30FC 1
  6
AI-Linetype-1
 62
   154
420
    23468
370
    25
  0
POLYLINE
  5
1B8
330
41
100
AcDbEntity
  8
_U+30EC_U+30A4_U+30E4_U+30FC 1
  6
AI-Linetype-2
 62
   154
420
    23468
370
    25
100
AcDb2dPolyline
 66
     1
 10
0.0
 20
0.0
 30
0.0
  0
VERTEX
  5
1B9
330
1B8
100
AcDbEntity
  8
_U+30EC_U+30A4_U+30E4_U+30FC 1
  6
AI-Linetype-2
 62
   154
420
    23468
370
    25
100
AcDbVertex
100
AcDb2dVertex
 10
96.5336500372214
 20
-137.1802494101497
 30
0.0
  0
VERTEX
  5
1BA
330
1B8
100
AcDbEntity
  8
_U+30EC_U+30A4_U+30E4_U+30FC 1
  6
AI-Linetype-2
 62
   154
420
    23468
370
    25
100
AcDbVertex
100
AcDb2dVertex
 10
106.5333828376625
 20
-137.1802494101497
 30
0.0
  0
SEQEND
  5
1BC
330
1B8
100
AcDbEntity
  8
_U+30EC_U+30A4_U+30E4_U+30FC 1
  6
AI-Linetype-2
 62
   154
420
    23468
370
    25
  0
POLYLINE
  5
1BD
330
41
100
AcDbEntity
  8
_U+30EC_U+30A4_U+30E4_U+30FC 1
 62
     7
420
 16777215
370
     9
100
AcDb2dPolyline
 66
     1
 10
0.0
 20
0.0
 30
0.0
  0
VERTEX
  5
1BE
330
1BD
100
AcDbEntity
  8
_U+30EC_U+30A4_U+30E4_U+30FC 1
 62
     7
420
 16777215
370
     9
100
AcDbVertex
100
AcDb2dVertex
 10
83.43247148257143
 20
-121.5672574696081
 30
0.0
  0
VERTEX
  5
1BF
330
1BD
100
AcDbEntity
  8
_U+30EC_U+30A4_U+30E4_U+30FC 1
 62
     7
420
 16777215
370
     9
100
AcDbVertex
100
AcDb2dVertex
 10
95.54904728456295
 20
-121.5672574696081
 30
0.0
  0
SEQEND
  5
1C0
330
1BD
100
AcDbEntity
  8
_U+30EC_U+30A4_U+30E4_U+30FC 1
 62
     7
420
 16777215
370
     9
  0
POLYLINE
  5
1C1
330
41
100
AcDbEntity
  8
_U+30EC_U+30A4_U+30E4_U+30FC 1
 62
     7
420
 16777215
370
     9
100
AcDb2dPolyline
 66
     1
 10
0.0
 20
0.0
 30
0.0
  0
VERTEX
  5
1C2
330
1C1
100
AcDbEntity
  8
_U+30EC_U+30A4_U+30E4_U+30FC 1
 62
     7
420
 16777215
370
     9
100
AcDbVertex
100
AcDb2dVertex
 10
83.43247148257143
 20
-121.5672574696081
 30
0.0
  0
VERTEX
  5
1C3
330
1C1
100
AcDbEntity
  8
_U+30EC_U+30A4_U+30E4_U+30FC 1
 62
     7
420
 16777215
370
     9
100
AcDbVertex
100
AcDb2dVertex
 10
84.39844756903844
 20
-121.3081774696731
 30
0.0
  0
SEQEND
  5
1C4
330
1C1
100
AcDbEntity
  8
_U+30EC_U+30A4_U+30E4_U+30FC 1
 62
     7
420
 16777215
370
     9
  0
POLYLINE
  5
1C5
330
41
100
AcDbEntity
  8
_U+30EC_U+30A4_U+30E4_U+30FC 1
 62
     7
420
 16777215
370
     9
100
AcDb2dPolyline
 66
     1
 10
0.0
 20
0.0
 30
0.0
  0
VERTEX
  5
1C6
330
1C5
100
AcDbEntity
  8
_U+30EC_U+30A4_U+30E4_U+30FC 1
 62
     7
420
 16777215
370
     9
100
AcDbVertex
100
AcDb2dVertex
 10
83.43247148257143
 20
-121.5672574696081
 30
0.0
  0
VERTEX
  5
1C7
330
1C5
100
AcDbEntity
  8
_U+30EC_U+30A4_U+30E4_U+30FC 1
 62
     7
420
 16777215
370
     9
100
AcDbVertex
100
AcDb2dVertex
 10
84.39844756903844
 20
-121.8256319139882
 30
0.0
  0
SEQEND
  5
1C8
330
1C5
100
AcDbEntity
  8
_U+30EC_U+30A4_U+30E4_U+30FC 1
 62
     7
420
 16777215
370
     9
  0
POLYLINE
  5
1C9
330
41
100
AcDbEntity
  8
_U+30EC_U+30A4_U+30E4_U+30FC 1
 62
     7
420
 16777215
370
     9
100
AcDb2dPolyline
 66
     1
 10
0.0
 20
0.0
 30
0.0
  0
VERTEX
  5
1CA
330
1C9
100
AcDbEntity
  8
_U+30EC_U+30A4_U+30E4_U+30FC 1
 62
     7
420
 16777215
370
     9
100
AcDbVertex
100
AcDb2dVertex
 10
101.5906840748724
 20
-136.6800457991635
 30
0.0
  0
VERTEX
  5
1CB
330
1C9
100
AcDbEntity
  8
_U+30EC_U+30A4_U+30E4_U+30FC 1
 62
     7
420
 16777215
370
     9
100
AcDbVertex
100
AcDb2dVertex
 10
101.5906840748724
 20
-124.1352327467439
 30
0.0
  0
SEQEND
  5
1CC
330
1C9
100
AcDbEntity
  8
_U+30EC_U+30A4_U+30E4_U+30FC 1
 62
     7
420
 16777215
370
     9
  0
INSERT
  5
1CE
330
41
100
AcDbEntity
  8
_U+30EC_U+30A4_U+30E4_U+30FC 1
100
AcDbBlockReference
  2
block 7
 10
0.0
 20
0.0
 30
0.0
  0
POLYLINE
  5
1F5
330
41
100
AcDbEntity
  8
_U+30EC_U+30A4_U+30E4_U+30FC 1
 62
     7
420
 16777215
370
     9
100
AcDb2dPolyline
 66
     1
 10
0.0
 20
0.0
 30
0.0
  0
VERTEX
  5
1F6
330
1F5
100
AcDbEntity
  8
_U+30EC_U+30A4_U+30E4_U+30FC 1
 62
     7
420
 16777215
370
     9
100
AcDbVertex
100
AcDb2dVertex
 10
101.5906840748724
 20
-136.6800457991635
 30
0.0
  0
VERTEX
  5
1F7
330
1F5
100
AcDbEntity
  8
_U+30EC_U+30A4_U+30E4_U+30FC 1
 62
     7
420
 16777215
370
     9
100
AcDbVertex
100
AcDb2dVertex
 10
101.8497666412044
 20
-135.7140344105158
 30
0.0
  0
SEQEND
  5
1F8
330
1F5
100
AcDbEntity
  8
_U+30EC_U+30A4_U+30E4_U+30FC 1
 62
     7
420
 16777215
370
     9
  0
POLYLINE
  5
1F9
330
41
100
AcDbEntity
  8
_U+30EC_U+30A4_U+30E4_U+30FC 1
 62
     7
420
 16777215
370
     9
100
AcDb2dPolyline
 66
     1
 10
0.0
 20
0.0
 30
0.0
  0
VERTEX
  5
1FA
330
1F9
100
AcDbEntity
  8
_U+30EC_U+30A4_U+30E4_U+30FC 1
 62
     7
420
 16777215
370
     9
100
AcDbVertex
100
AcDb2dVertex
 10
101.5906840748724
 20
-136.6800457991635
 30
0.0
  0
VERTEX
  5
1FB
330
1F9
100
AcDbEntity
  8
_U+30EC_U+30A4_U+30E4_U+30FC 1
 62
     7
420
 16777215
370
     9
100
AcDbVertex
100
AcDb2dVertex
 10
101.3323096370196
 20
-135.7140344105158
 30
0.0
  0
SEQEND
  5
1FC
330
1F9
100
AcDbEntity
  8
_U+30EC_U+30A4_U+30E4_U+30FC 1
 62
     7
420
 16777215
370
     9
  0
ENDBLK
  5
44
330
41
100
AcDbEntity
  8
0
100
AcDbBlockEnd
  0
BLOCK
  5
47
330
45
100
AcDbEntity
  8
0
100
AcDbBlockBegin
  2
block 3
 70
     0
 10
0.0
 20
0.0
 30
0.0
  3
block 3
  1

  0
POLYLINE
  5
49
330
45
100
AcDbEntity
  8
_U+30EC_U+30A4_U+30E4_U+30FC 1
 62
     7
420
 16777215
370
    25
100
AcDb2dPolyline
 66
     1
 10
0.0
 20
0.0
 30
0.0
  0
VERTEX
  5
4A
330
49
100
AcDbEntity
  8
_U+30EC_U+30A4_U+30E4_U+30FC 1
 62
     7
420
 16777215
370
    25
100
AcDbVertex
100
AcDb2dVertex
 10
102.0251298971221
 20
-138.0305144099366
 30
0.0
  0
VERTEX
  5
4B
330
49
100
AcDbEntity
  8
_U+30EC_U+30A4_U+30E4_U+30FC 1
 62
     7
420
 16777215
370
    25
100
AcDbVertex
100
AcDb2dVertex
 10
102.5315423842024
 20
-138.4218860765058
 30
0.0
  0
VERTEX
  5
4C
330
49
100
AcDbEntity
  8
_U+30EC_U+30A4_U+30E4_U+30FC 1
 62
     7
420
 16777215
370
    25
100
AcDbVertex
100
AcDb2dVertex
 10
106.5333828376625
 20
-138.1552213543502
 30
0.0
  0
VERTEX
  5
4D
330
49
100
AcDbEntity
  8
_U+30EC_U+30A4_U+30E4_U+30FC 1
 62
     7
420
 16777215
370
    25
100
AcDbVertex
100
AcDb2dVertex
 10
106.5333828376625
 20
-137.7555946877837
 30
0.0
  0
VERTEX
  5
4E
330
49
100
AcDbEntity
  8
_U+30EC_U+30A4_U+30E4_U+30FC 1
 62
     7
420
 16777215
370
    25
100
AcDbVertex
100
AcDb2dVertex
 10
85.53326309564244
 20
-137.7555946877837
 30
0.0
  0
SEQEND
  5
4F
330
49
100
AcDbEntity
  8
_U+30EC_U+30A4_U+30E4_U+30FC 1
 62
     7
420
 16777215
370
    25
  0
SPLINE
  5
50
330
45
100
AcDbEntity
  8
_U+30EC_U+30A4_U+30E4_U+30FC 1
 62
     7
420
 16777215
370
    25
100
AcDbSpline
210
0.0
220
0.0
230
1.0
 70
     8
 71
     3
 72
    17
 73
    13
 74
     0
 42
0.0000000001
 43
0.0000000001
 12
1.0
 22
0.0
 32
0.0
 13
1.0
 23
0.0
 33
0.0
 40
0.0
 40
0.0
 40
0.0
 40
0.0
 40
1.0
 40
1.0
 40
1.0
 40
2.0
 40
2.0
 40
2.0
 40
3.0
 40
3.0
 40
3.0
 40
4.0
 40
4.0
 40
4.0
 40
4.0
 10
82.05977790648065
 20
-118.0646327482617
 30
0.0
 10
82.05977790648065
 20
-118.0646327482617
 30
0.0
 10
81.66805553513855
 20
-117.5575146928329
 30
0.0
 10
81.66805553513855
 20
-117.5575146928329
 30
0.0
 10
81.66805553513855
 20
-117.5576910817218
 30
0.0
 10
81.93383624302703
 20
-113.5560269160554
 30
0.0
 10
81.93383624302703
 20
-113.5560269160554
 30
0.0
 10
81.93383624302703
 20
-113.5560269160554
 30
0.0
 10
82.33346289949837
 20
-113.5560269160554
 30
0.0
 10
82.33346289949837
 20
-113.5560269160554
 30
0.0
 10
82.33346289949837
 20
-113.5560269160554
 30
0.0
 10
82.33346289949837
 20
-134.5557944108054
 30
0.0
 10
82.33346289949837
 20
-134.5557944108054
 30
0.0
  0
POLYLINE
  5
51
330
45
100
AcDbEntity
  8
_U+30EC_U+30A4_U+30E4_U+30FC 1
 62
     7
420
 16777215
370
     9
100
AcDb2dPolyline
 66
     1
 10
0.0
 20
0.0
 30
0.0
  0
VERTEX
  5
52
330
51
100
AcDbEntity
  8
_U+30EC_U+30A4_U+30E4_U+30FC 1
 62
     7
420
 16777215
370
     9
100
AcDbVertex
100
AcDb2dVertex
 10
82.20498331278206
 20
-138.2502949654377
 30
0.0
  0
VERTEX
  5
53
330
51
100
AcDbEntity
  8
_U+30EC_U+30A4_U+30E4_U+30FC 1
 62
     7
420
 16777215
370
     9
100
AcDbVertex
100
AcDb2dVertex
 10
82.70486942376834
 20
-137.3841902434316
 30
0.0
  0
SEQEND
  5
54
330
51
100
AcDbEntity
  8
_U+30EC_U+30A4_U+30E4_U+30FC 1
 62
     7
420
 16777215
370
     9
  0
POLYLINE
  5
55
330
45
100
AcDbEntity
  8
_U+30EC_U+30A4_U+30E4_U+30FC 1
 62
     7
420
 16777215
370
     9
100
AcDb2dPolyline
 66
     1
 10
0.0
 20
0.0
 30
0.0
  0
VERTEX
  5
56
330
55
100
AcDbEntity
  8
_U+30EC_U+30A4_U+30E4_U+30FC 1
 62
     7
420
 16777215
370
     9
100
AcDbVertex
100
AcDb2dVertex
 10
81.83876263434145
 20
-137.8844291321953
 30
0.0
  0
VERTEX
  5
57
330
55
100
AcDbEntity
  8
_U+30EC_U+30A4_U+30E4_U+30FC 1
 62
     7
420
 16777215
370
     9
100
AcDbVertex
100
AcDb2dVertex
 10
82.70486942376834
 20
-137.3841902434316
 30
0.0
  0
SEQEND
  5
58
330
55
100
AcDbEntity
  8
_U+30EC_U+30A4_U+30E4_U+30FC 1
 62
     7
420
 16777215
370
     9
  0
SPLINE
  5
59
330
45
100
AcDbEntity
  8
_U+30EC_U+30A4_U+30E4_U+30FC 1
 62
     7
420
 16777215
370
    25
100
AcDbSpline
210
0.0
220
0.0
230
1.0
 70
     8
 71
     3
 72
    11
 73
     7
 74
     0
 42
0.0000000001
 43
0.0000000001
 12
1.0
 22
0.0
 32
0.0
 13
1.0
 23
0.0
 33
0.0
 40
0.0
 40
0.0
 40
0.0
 40
0.0
 40
1.0
 40
1.0
 40
1.0
 40
2.0
 40
2.0
 40
2.0
 40
2.0
 10
81.53420958655569
 20
-134.4662241330501
 30
0.0
 10
81.48527931002623
 20
-136.6752127436093
 30
0.0
 10
83.23540982093223
 20
-138.505247465374
 30
0.0
 10
85.44439837568734
 20
-138.5548480209168
 30
0.0
 10
85.503665040842
 20
-138.5562238542496
 30
0.0
 10
85.56289642821976
 20
-138.5562238542496
 30
0.0
 10
85.62216309337441
 20
-138.5548480209168
 30
0.0
  0
SPLINE
  5
5A
330
45
100
AcDbEntity
  8
_U+30EC_U+30A4_U+30E4_U+30FC 1
 62
     7
420
 16777215
370
    25
100
AcDbSpline
210
0.0
220
0.0
230
1.0
 70
     8
 71
     3
 72
     8
 73
     4
 74
     0
 42
0.0000000001
 43
0.0000000001
 12
1.0
 22
0.0
 32
0.0
 13
1.0
 23
0.0
 33
0.0
 40
0.0
 40
0.0
 40
0.0
 40
0.0
 40
1.0
 40
1.0
 40
1.0
 40
1.0
 10
82.33346289949837
 20
-134.5557944108054
 30
0.0
 10
82.33346289949837
 20
-136.3231052436971
 30
0.0
 10
83.76595230739696
 20
-137.7555946877837
 30
0.0
 10
85.53326309564244
 20
-137.7555946877837
 30
0.0
  0
SPLINE
  5
5B
330
45
100
AcDbEntity
  8
_U+30EC_U+30A4_U+30E4_U+30FC 1
 62
     7
420
 16777215
370
     9
100
AcDbSpline
210
0.0
220
0.0
230
1.0
 70
    11
 71
     3
 72
    17
 73
    13
 74
     0
 42
0.0000000001
 43
0.0000000001
 12
1.0
 22
0.0
 32
0.0
 13
1.0
 23
0.0
 33
0.0
 40
0.0
 40
0.0
 40
0.0
 40
0.0
 40
1.0
 40
1.0
 40
1.0
 40
2.0
 40
2.0
 40
2.0
 40
3.0
 40
3.0
 40
3.0
 40
4.0
 40
4.0
 40
4.0
 40
4.0
 10
106.6332895017804
 20
-142.5559830199165
 30
0.0
 10
106.6332895017804
 20
-142.5001735754861
 30
0.0
 10
106.5884867251456
 20
-142.4553707977194
 30
0.0
 10
106.5333828376625
 20
-142.4553707977194
 30
0.0
 10
106.4782436724026
 20
-142.4553707977194
 30
0.0
 10
106.4334761735447
 20
-142.5001735754861
 30
0.0
 10
106.4334761735447
 20
-142.5559830199165
 30
0.0
 10
106.4334761735447
 20
-142.6111221865696
 30
0.0
 10
106.4782436724026
 20
-142.6558896865581
 30
0.0
 10
106.5333828376625
 20
-142.6558896865581
 30
0.0
 10
106.5884867251456
 20
-142.6558896865581
 30
0.0
 10
106.6332895017804
 20
-142.6111221865696
 30
0.0
 10
106.6332895017804
 20
-142.5559830199165
 30
0.0
  0
SPLINE
  5
5C
330
45
100
AcDbEntity
  8
_U+30EC_U+30A4_U+30E4_U+30FC 1
 62
     7
420
 16777215
370
     9
100
AcDbSpline
210
0.0
220
0.0
230
1.0
 70
    11
 71
     3
 72
    17
 73
    13
 74
     0
 42
0.0000000001
 43
0.0000000001
 12
1.0
 22
0.0
 32
0.0
 13
1.0
 23
0.0
 33
0.0
 40
0.0
 40
0.0
 40
0.0
 40
0.0
 40
1.0
 40
1.0
 40
1.0
 40
2.0
 40
2.0
 40
2.0
 40
3.0
 40
3.0
 40
3.0
 40
4.0
 40
4.0
 40
4.0
 40
4.0
 10
81.63344597291284
 20
-142.5559830199165
 30
0.0
 10
81.63344597291284
 20
-142.5001735754861
 30
0.0
 10
81.58864319627808
 20
-142.4553707977194
 30
0.0
 10
81.53353930879501
 20
-142.4553707977194
 30
0.0
 10
81.47840014353505
 20
-142.4553707977194
 30
0.0
 10
81.43359736690029
 20
-142.5001735754861
 30
0.0
 10
81.43359736690029
 20
-142.5559830199165
 30
0.0
 10
81.43359736690029
 20
-142.6111221865696
 30
0.0
 10
81.47840014353505
 20
-142.6558896865581
 30
0.0
 10
81.53353930879501
 20
-142.6558896865581
 30
0.0
 10
81.58864319627808
 20
-142.6558896865581
 30
0.0
 10
81.63344597291284
 20
-142.6111221865696
 30
0.0
 10
81.63344597291284
 20
-142.5559830199165
 30
0.0
  0
SPLINE
  5
5D
330
45
100
AcDbEntity
  8
_U+30EC_U+30A4_U+30E4_U+30FC 1
 62
     7
420
 16777215
370
     9
100
AcDbSpline
210
0.0
220
0.0
230
1.0
 70
    11
 71
     3
 72
    17
 73
    13
 74
     0
 42
0.0000000001
 43
0.0000000001
 12
1.0
 22
0.0
 32
0.0
 13
1.0
 23
0.0
 33
0.0
 40
0.0
 40
0.0
 40
0.0
 40
0.0
 40
1.0
 40
1.0
 40
1.0
 40
2.0
 40
2.0
 40
2.0
 40
3.0
 40
3.0
 40
3.0
 40
4.0
 40
4.0
 40
4.0
 40
4.0
 10
77.63333609170282
 20
-113.5560269160554
 30
0.0
 10
77.63333609170282
 20
-113.5009230271805
 30
0.0
 10
77.58888609171386
 20
-113.4561202494137
 30
0.0
 10
77.53342746640192
 20
-113.4561202494137
 30
0.0
 10
77.47797080115006
 20
-113.4561202494137
 30
0.0
 10
77.43316802451531
 20
-113.5009230271805
 30
0.0
 10
77.43316802451531
 20
-113.5560269160554
 30
0.0
 10
77.43316802451531
 20
-113.611342471597
 30
0.0
 10
77.47797080115006
 20
-113.6561099715859
 30
0.0
 10
77.53342746640192
 20
-113.6561099715859
 30
0.0
 10
77.58888609171386
 20
-113.6561099715859
 30
0.0
 10
77.63333609170282
 20
-113.611342471597
 30
0.0
 10
77.63333609170282
 20
-113.5560269160554
 30
0.0
  0
SPLINE
  5
5E
330
45
100
AcDbEntity
  8
_U+30EC_U+30A4_U+30E4_U+30FC 1
 62
     7
420
 16777215
370
     9
100
AcDbSpline
210
0.0
220
0.0
230
1.0
 70
    11
 71
     3
 72
    17
 73
    13
 74
     0
 42
0.0000000001
 43
0.0000000001
 12
1.0
 22
0.0
 32
0.0
 13
1.0
 23
0.0
 33
0.0
 40
0.0
 40
0.0
 40
0.0
 40
0.0
 40
1.0
 40
1.0
 40
1.0
 40
2.0
 40
2.0
 40
2.0
 40
3.0
 40
3.0
 40
3.0
 40
4.0
 40
4.0
 40
4.0
 40
4.0
 10
77.63333609170282
 20
-138.5555535764723
 30
0.0
 10
77.63333609170282
 20
-138.5004144098192
 30
0.0
 10
77.58888609171386
 20
-138.4556469098306
 30
0.0
 10
77.53342746640192
 20
-138.4556469098306
 30
0.0
 10
77.47797080115006
 20
-138.4556469098306
 30
0.0
 10
77.43316802451531
 20
-138.5004144098192
 30
0.0
 10
77.43316802451531
 20
-138.5555535764723
 30
0.0
 10
77.43316802451531
 20
-138.6106574653472
 30
0.0
 10
77.47797080115006
 20
-138.6554602431139
 30
0.0
 10
77.53342746640192
 20
-138.6554602431139
 30
0.0
 10
77.58888609171386
 20
-138.6554602431139
 30
0.0
 10
77.63333609170282
 20
-138.6106574653472
 30
0.0
 10
77.63333609170282
 20
-138.5555535764723
 30
0.0
  0
POLYLINE
  5
5F
330
45
100
AcDbEntity
  8
_U+30EC_U+30A4_U+30E4_U+30FC 1
 62
     7
420
 16777215
370
     9
100
AcDb2dPolyline
 66
     1
 10
0.0
 20
0.0
 30
0.0
  0
VERTEX
  5
60
330
5F
100
AcDbEntity
  8
_U+30EC_U+30A4_U+30E4_U+30FC 1
 62
     7
420
 16777215
370
     9
100
AcDbVertex
100
AcDb2dVertex
 10
81.53353930879501
 20
-142.5559830199165
 30
0.0
  0
VERTEX
  5
61
330
5F
100
AcDbEntity
  8
_U+30EC_U+30A4_U+30E4_U+30FC 1
 62
     7
420
 16777215
370
     9
100
AcDbVertex
100
AcDb2dVertex
 10
106.5333828376625
 20
-142.5559830199165
 30
0.0
  0
SEQEND
  5
62
330
5F
100
AcDbEntity
  8
_U+30EC_U+30A4_U+30E4_U+30FC 1
 62
     7
420
 16777215
370
     9
  0
POLYLINE
  5
63
330
45
100
AcDbEntity
  8
_U+30EC_U+30A4_U+30E4_U+30FC 1
 62
     7
420
 16777215
370
     9
100
AcDb2dPolyline
 66
     1
 10
0.0
 20
0.0
 30
0.0
  0
VERTEX
  5
64
330
63
100
AcDbEntity
  8
_U+30EC_U+30A4_U+30E4_U+30FC 1
 62
     7
420
 16777215
370
     9
100
AcDbVertex
100
AcDb2dVertex
 10
81.53353930879501
 20
-137.0955121879486
 30
0.0
  0
VERTEX
  5
65
330
63
100
AcDbEntity
  8
_U+30EC_U+30A4_U+30E4_U+30FC 1
 62
     7
420
 16777215
370
     9
100
AcDbVertex
100
AcDb2dVertex
 10
81.53353930879501
 20
-143.555755241889
 30
0.0
  0
SEQEND
  5
66
330
63
100
AcDbEntity
  8
_U+30EC_U+30A4_U+30E4_U+30FC 1
 62
     7
420
 16777215
370
     9
  0
POLYLINE
  5
67
330
45
100
AcDbEntity
  8
_U+30EC_U+30A4_U+30E4_U+30FC 1
 62
     7
420
 16777215
370
     9
100
AcDb2dPolyline
 66
     1
 10
0.0
 20
0.0
 30
0.0
  0
VERTEX
  5
68
330
67
100
AcDbEntity
  8
_U+30EC_U+30A4_U+30E4_U+30FC 1
 62
     7
420
 16777215
370
     9
100
AcDbVertex
100
AcDb2dVertex
 10
106.5333828376625
 20
-140.6956446870483
 30
0.0
  0
VERTEX
  5
69
330
67
100
AcDbEntity
  8
_U+30EC_U+30A4_U+30E4_U+30FC 1
 62
     7
420
 16777215
370
     9
100
AcDbVertex
100
AcDb2dVertex
 10
106.5333828376625
 20
-143.555755241889
 30
0.0
  0
SEQEND
  5
6A
330
67
100
AcDbEntity
  8
_U+30EC_U+30A4_U+30E4_U+30FC 1
 62
     7
420
 16777215
370
     9
  0
INSERT
  5
6C
330
45
100
AcDbEntity
  8
_U+30EC_U+30A4_U+30E4_U+30FC 1
100
AcDbBlockReference
  2
block 4
 10
0.0
 20
0.0
 30
0.0
  0
POLYLINE
  5
73
330
45
100
AcDbEntity
  8
_U+30EC_U+30A4_U+30E4_U+30FC 1
 62
     7
420
 16777215
370
     9
100
AcDb2dPolyline
 66
     1
 10
0.0
 20
0.0
 30
0.0
  0
VERTEX
  5
74
330
73
100
AcDbEntity
  8
_U+30EC_U+30A4_U+30E4_U+30FC 1
 62
     7
420
 16777215
370
     9
100
AcDbVertex
100
AcDb2dVertex
 10
77.53342746640192
 20
-113.5560269160554
 30
0.0
  0
VERTEX
  5
75
330
73
100
AcDbEntity
  8
_U+30EC_U+30A4_U+30E4_U+30FC 1
 62
     7
420
 16777215
370
     9
100
AcDbVertex
100
AcDb2dVertex
 10
77.53342746640192
 20
-138.5555535764723
 30
0.0
  0
SEQEND
  5
76
330
73
100
AcDbEntity
  8
_U+30EC_U+30A4_U+30E4_U+30FC 1
 62
     7
420
 16777215
370
     9
  0
POLYLINE
  5
77
330
45
100
AcDbEntity
  8
_U+30EC_U+30A4_U+30E4_U+30FC 1
 62
     7
420
 16777215
370
     9
100
AcDb2dPolyline
 66
     1
 10
0.0
 20
0.0
 30
0.0
  0
VERTEX
  5
78
330
77
100
AcDbEntity
  8
_U+30EC_U+30A4_U+30E4_U+30FC 1
 62
     7
420
 16777215
370
     9
100
AcDbVertex
100
AcDb2dVertex
 10
79.3934129745053
 20
-113.5560269160554
 30
0.0
  0
VERTEX
  5
79
330
77
100
AcDbEntity
  8
_U+30EC_U+30A4_U+30E4_U+30FC 1
 62
     7
420
 16777215
370
     9
100
AcDbVertex
100
AcDb2dVertex
 10
76.53330249191723
 20
-113.5560269160554
 30
0.0
  0
SEQEND
  5
7A
330
77
100
AcDbEntity
  8
_U+30EC_U+30A4_U+30E4_U+30FC 1
 62
     7
420
 16777215
370
     9
  0
POLYLINE
  5
7B
330
45
100
AcDbEntity
  8
_U+30EC_U+30A4_U+30E4_U+30FC 1
 62
     7
420
 16777215
370
     9
100
AcDb2dPolyline
 66
     1
 10
0.0
 20
0.0
 30
0.0
  0
VERTEX
  5
7C
330
7B
100
AcDbEntity
  8
_U+30EC_U+30A4_U+30E4_U+30FC 1
 62
     7
420
 16777215
370
     9
100
AcDbVertex
100
AcDb2dVertex
 10
82.99354538265825
 20
-138.5555535764723
 30
0.0
  0
VERTEX
  5
7D
330
7B
100
AcDbEntity
  8
_U+30EC_U+30A4_U+30E4_U+30FC 1
 62
     7
420
 16777215
370
     9
100
AcDbVertex
100
AcDb2dVertex
 10
76.53330249191723
 20
-138.5555535764723
 30
0.0
  0
SEQEND
  5
7E
330
7B
100
AcDbEntity
  8
_U+30EC_U+30A4_U+30E4_U+30FC 1
 62
     7
420
 16777215
370
     9
  0
INSERT
  5
80
330
45
100
AcDbEntity
  8
_U+30EC_U+30A4_U+30E4_U+30FC 1
100
AcDbBlockReference
  2
block 5
 10
0.0
 20
0.0
 30
0.0
  0
POLYLINE
  5
87
330
45
100
AcDbEntity
  8
_U+30EC_U+30A4_U+30E4_U+30FC 1
 62
     7
420
 16777215
370
     9
100
AcDb2dPolyline
 66
     1
 10
0.0
 20
0.0
 30
0.0
  0
VERTEX
  5
88
330
87
100
AcDbEntity
  8
_U+30EC_U+30A4_U+30E4_U+30FC 1
 62
     7
420
 16777215
370
     9
100
AcDbVertex
100
AcDb2dVertex
 10
82.70486942376834
 20
-137.3841902434316
 30
0.0
  0
VERTEX
  5
89
330
87
100
AcDbEntity
  8
_U+30EC_U+30A4_U+30E4_U+30FC 1
 62
     7
420
 16777215
370
     9
100
AcDbVertex
100
AcDb2dVertex
 10
77.53342746640192
 20
-142.5559830199165
 30
0.0
  0
SEQEND
  5
8A
330
87
100
AcDbEntity
  8
_U+30EC_U+30A4_U+30E4_U+30FC 1
 62
     7
420
 16777215
370
     9
  0
POLYLINE
  5
8B
330
45
100
AcDbEntity
  8
_U+30EC_U+30A4_U+30E4_U+30FC 1
 62
     7
420
 16777215
370
     9
100
AcDb2dPolyline
 66
     1
 10
0.0
 20
0.0
 30
0.0
  0
VERTEX
  5
8C
330
8B
100
AcDbEntity
  8
_U+30EC_U+30A4_U+30E4_U+30FC 1
 62
     7
420
 16777215
370
     9
100
AcDbVertex
100
AcDb2dVertex
 10
77.53342746640192
 20
-142.5559830199165
 30
0.0
  0
VERTEX
  5
8D
330
8B
100
AcDbEntity
  8
_U+30EC_U+30A4_U+30E4_U+30FC 1
 62
     7
420
 16777215
370
     9
100
AcDbVertex
100
AcDb2dVertex
 10
74.15205255266798
 20
-142.5559830199165
 30
0.0
  0
SEQEND
  5
8E
330
8B
100
AcDbEntity
  8
_U+30EC_U+30A4_U+30E4_U+30FC 1
 62
     7
420
 16777215
370
     9
  0
INSERT
  5
90
330
45
100
AcDbEntity
  8
_U+30EC_U+30A4_U+30E4_U+30FC 1
100
AcDbBlockReference
  2
block 6
 10
0.0
 20
0.0
 30
0.0
  0
ENDBLK
  5
48
330
45
100
AcDbEntity
  8
0
100
AcDbBlockEnd
  0
BLOCK
  5
6D
330
6B
100
AcDbEntity
  8
0
100
AcDbBlockBegin
  2
block 4
 70
     0
 10
0.0
 20
0.0
 30
0.0
  3
block 4
  1

  0
SPLINE
  5
6F
330
6B
100
AcDbEntity
  8
_U+30EC_U+30A4_U+30E4_U+30FC 1
370
     0
100
AcDbSpline
210
0.0
220
0.0
230
1.0
 70
    11
 71
     3
 72
    44
 73
    40
 74
     0
 42
0.0000000001
 43
0.0000000001
 12
1.0
 22
0.0
 32
0.0
 13
1.0
 23
0.0
 33
0.0
 40
0.0
 40
0.0
 40
0.0
 40
0.0
 40
1.0
 40
1.0
 40
1.0
 40
2.0
 40
2.0
 40
2.0
 40
3.0
 40
3.0
 40
3.0
 40
4.0
 40
4.0
 40
4.0
 40
5.0
 40
5.0
 40
5.0
 40
6.0
 40
6.0
 40
6.0
 40
7.0
 40
7.0
 40
7.0
 40
8.0
 40
8.0
 40
8.0
 40
9.0
 40
9.0
 40
9.0
 40
10.0
 40
10.0
 40
10.0
 40
11.0
 40
11.0
 40
11.0
 40
12.0
 40
12.0
 40
12.0
 40
13.0
 40
13.0
 40
13.0
 40
13.0
 10
93.5388210486639
 20
-141.2609727294417
 30
0.0
 10
93.32109101399612
 20
-141.4197916313117
 30
0.0
 10
93.22807343589437
 20
-141.4938611842446
 30
0.0
 10
93.17915308000383
 20
-141.6375216659795
 30
0.0
 10
93.17915308000383
 20
-141.6375216659795
 30
0.0
 10
93.9577446596703
 20
-141.6375216659795
 30
0.0
 10
93.9577446596703
 20
-141.6375216659795
 30
0.0
 10
93.9577446596703
 20
-141.6375216659795
 30
0.0
 10
93.9577446596703
 20
-141.8428493569004
 30
0.0
 10
93.9577446596703
 20
-141.8428493569004
 30
0.0
 10
93.9577446596703
 20
-141.8428493569004
 30
0.0
 10
92.92972816687174
 20
-141.8428493569004
 30
0.0
 10
92.92972816687174
 20
-141.8428493569004
 30
0.0
 10
92.96142304533603
 20
-141.4852484455315
 30
0.0
 10
93.02687985955579
 20
-141.4070447780163
 30
0.0
 10
93.41204153480672
 20
-141.1086995089937
 30
0.0
 10
93.66801212936078
 20
-140.9099174994948
 30
0.0
 10
93.73346894358052
 20
-140.8420491184353
 30
0.0
 10
93.73346894358052
 20
-140.7045898085739
 30
0.0
 10
93.73346894358052
 20
-140.5860785238813
 30
0.0
 10
93.6614664479388
 20
-140.4551648954418
 30
0.0
 10
93.46475149573104
 20
-140.4551648954418
 30
0.0
 10
93.20464678659468
 20
-140.4551648954418
 30
0.0
 10
93.19637855743008
 20
-140.685641783405
 30
0.0
 10
93.19189993329925
 20
-140.8020860108064
 30
0.0
 10
93.19189993329925
 20
-140.8020860108064
 30
0.0
 10
92.96762421720949
 20
-140.8020860108064
 30
0.0
 10
92.96762421720949
 20
-140.8020860108064
 30
0.0
 10
92.97623695592262
 20
-140.6749619874007
 30
0.0
 10
92.98691675192688
 20
-140.5629963841301
 30
0.0
 10
93.06718747673321
 20
-140.4444850994375
 30
0.0
 10
93.17708602271267
 20
-140.2835991402763
 30
0.0
 10
93.3634656884647
 20
-140.2498372045209
 30
0.0
 10
93.47956540631762
 20
-140.2498372045209
 30
0.0
 10
93.75689559288023
 20
-140.2498372045209
 30
0.0
 10
93.96429034109227
 20
-140.4338053034332
 30
0.0
 10
93.96429034109227
 20
-140.706656865865
 30
0.0
 10
93.96429034109227
 20
-140.9354112060856
 30
0.0
 10
93.84784611369082
 20
-141.0346299560608
 30
0.0
 10
93.5388210486639
 20
-141.2609727294417
 30
0.0
  0
HATCH
  5
70
330
6B
100
AcDbEntity
  8
_U+30EC_U+30A4_U+30E4_U+30FC 1
 62
     7
420
 16777215
100
AcDbHatch
 10
0.0
 20
0.0
 30
0.0
210
0.0
220
0.0
230
1.0
  2
SOLID
 70
     1
 71
     0
 91
        1
 92
        1
 93
        1
 72
     4
 94
        3
 73
     0
 74
     1
 95
       44
 96
       40
 40
0.0
 40
0.0
 40
0.0
 40
0.0
 40
1.0
 40
1.0
 40
1.0
 40
2.0
 40
2.0
 40
2.0
 40
3.0
 40
3.0
 40
3.0
 40
4.0
 40
4.0
 40
4.0
 40
5.0
 40
5.0
 40
5.0
 40
6.0
 40
6.0
 40
6.0
 40
7.0
 40
7.0
 40
7.0
 40
8.0
 40
8.0
 40
8.0
 40
9.0
 40
9.0
 40
9.0
 40
10.0
 40
10.0
 40
10.0
 40
11.0
 40
11.0
 40
11.0
 40
12.0
 40
12.0
 40
12.0
 40
13.0
 40
13.0
 40
13.0
 40
13.0
 10
93.5388210486639
 20
-141.2609727294417
 10
93.32109101399612
 20
-141.4197916313117
 10
93.22807343589437
 20
-141.4938611842446
 10
93.17915308000383
 20
-141.6375216659795
 10
93.17915308000383
 20
-141.6375216659795
 10
93.9577446596703
 20
-141.6375216659795
 10
93.9577446596703
 20
-141.6375216659795
 10
93.9577446596703
 20
-141.6375216659795
 10
93.9577446596703
 20
-141.8428493569004
 10
93.9577446596703
 20
-141.8428493569004
 10
93.9577446596703
 20
-141.8428493569004
 10
92.92972816687174
 20
-141.8428493569004
 10
92.92972816687174
 20
-141.8428493569004
 10
92.96142304533603
 20
-141.4852484455315
 10
93.02687985955579
 20
-141.4070447780163
 10
93.41204153480672
 20
-141.1086995089937
 10
93.66801212936078
 20
-140.9099174994948
 10
93.73346894358052
 20
-140.8420491184353
 10
93.73346894358052
 20
-140.7045898085739
 10
93.73346894358052
 20
-140.5860785238813
 10
93.6614664479388
 20
-140.4551648954418
 10
93.46475149573104
 20
-140.4551648954418
 10
93.20464678659468
 20
-140.4551648954418
 10
93.19637855743008
 20
-140.685641783405
 10
93.19189993329925
 20
-140.8020860108064
 10
93.19189993329925
 20
-140.8020860108064
 10
92.96762421720949
 20
-140.8020860108064
 10
92.96762421720949
 20
-140.8020860108064
 10
92.97623695592262
 20
-140.6749619874007
 10
92.98691675192688
 20
-140.5629963841301
 10
93.06718747673321
 20
-140.4444850994375
 10
93.17708602271267
 20
-140.2835991402763
 10
93.3634656884647
 20
-140.2498372045209
 10
93.47956540631762
 20
-140.2498372045209
 10
93.75689559288023
 20
-140.2498372045209
 10
93.96429034109227
 20
-140.4338053034332
 10
93.96429034109227
 20
-140.706656865865
 10
93.96429034109227
 20
-140.9354112060856
 10
93.84784611369082
 20
-141.0346299560608
 10
93.5388210486639
 20
-141.2609727294417
 97
        0
 97
        0
 75
     2
 76
     1
 98
        0
  0
SPLINE
  5
71
330
6B
100
AcDbEntity
  8
_U+30EC_U+30A4_U+30E4_U+30FC 1
370
     0
100
AcDbSpline
210
0.0
220
0.0
230
1.0
 70
    11
 71
     3
 72
    53
 73
    49
 74
     0
 42
0.0000000001
 43
0.0000000001
 12
1.0
 22
0.0
 32
0.0
 13
1.0
 23
0.0
 33
0.0
 40
0.0
 40
0.0
 40
0.0
 40
0.0
 40
1.0
 40
1.0
 40
1.0
 40
2.0
 40
2.0
 40
2.0
 40
3.0
 40
3.0
 40
3.0
 40
4.0
 40
4.0
 40
4.0
 40
5.0
 40
5.0
 40
5.0
 40
6.0
 40
6.0
 40
6.0
 40
7.0
 40
7.0
 40
7.0
 40
8.0
 40
8.0
 40
8.0
 40
9.0
 40
9.0
 40
9.0
 40
10.0
 40
10.0
 40
10.0
 40
11.0
 40
11.0
 40
11.0
 40
12.0
 40
12.0
 40
12.0
 40
13.0
 40
13.0
 40
13.0
 40
14.0
 40
14.0
 40
14.0
 40
15.0
 40
15.0
 40
15.0
 40
16.0
 40
16.0
 40
16.0
 40
16.0
 10
94.60370006315463
 20
-141.8934922605336
 30
0.0
 10
94.52549639563946
 20
-141.8934922605336
 30
0.0
 10
94.42386607882459
 20
-141.8766112926559
 30
0.0
 10
94.32223576200973
 20
-141.8132215357273
 30
0.0
 10
94.14894745910166
 20
-141.7033229897478
 30
0.0
 10
94.12758786709311
 20
-141.5720648517598
 30
0.0
 10
94.10863984192423
 20
-141.4642333630715
 30
0.0
 10
94.10863984192423
 20
-141.4642333630715
 30
0.0
 10
94.33084850072285
 20
-141.4642333630715
 30
0.0
 10
94.33084850072285
 20
-141.4642333630715
 30
0.0
 10
94.38562551893833
 20
-141.6630153725704
 30
0.0
 10
94.51274954234404
 20
-141.6926431937435
 30
0.0
 10
94.60576712044579
 20
-141.6926431937435
 30
0.0
 10
94.7452934875984
 20
-141.6926431937435
 30
0.0
 10
94.89756670804644
 20
-141.5930799342198
 30
0.0
 10
94.89756670804644
 20
-141.3605359889654
 30
0.0
 10
94.89756670804644
 20
-141.1045653944114
 30
0.0
 10
94.71773272371641
 20
-141.0346299560608
 30
0.0
 10
94.59715438173266
 20
-141.0346299560608
 30
0.0
 10
94.56545950326836
 20
-141.0346299560608
 30
0.0
 10
94.42386607882459
 20
-141.0346299560608
 30
0.0
 10
94.33498261530515
 20
-141.1638210367577
 30
0.0
 10
94.33498261530515
 20
-141.1638210367577
 30
0.0
 10
94.1592827455574
 20
-141.1448730115888
 30
0.0
 10
94.1592827455574
 20
-141.1448730115888
 30
0.0
 10
94.1592827455574
 20
-141.1448730115888
 30
0.0
 10
94.27986108754115
 20
-140.2984130508629
 30
0.0
 10
94.27986108754115
 20
-140.2984130508629
 30
0.0
 10
94.27986108754115
 20
-140.2984130508629
 30
0.0
 10
95.05845266720762
 20
-140.2984130508629
 30
0.0
 10
95.05845266720762
 20
-140.2984130508629
 30
0.0
 10
95.05845266720762
 20
-140.2984130508629
 30
0.0
 10
95.05845266720762
 20
-140.4930609457795
 30
0.0
 10
95.05845266720762
 20
-140.4930609457795
 30
0.0
 10
95.05845266720762
 20
-140.4930609457795
 30
0.0
 10
94.44281410399347
 20
-140.4930609457795
 30
0.0
 10
94.44281410399347
 20
-140.4930609457795
 30
0.0
 10
94.44281410399347
 20
-140.4930609457795
 30
0.0
 10
94.37735728977373
 20
-140.9161186713682
 30
0.0
 10
94.37735728977373
 20
-140.9161186713682
 30
0.0
 10
94.43867998941117
 20
-140.8823567356127
 30
0.0
 10
94.52101777150864
 20
-140.8420491184353
 30
0.0
 10
94.63952905620123
 20
-140.8420491184353
 30
0.0
 10
94.89343259346414
 20
-140.8420491184353
 30
0.0
 10
95.13045516284933
 20
-141.0284287841874
 30
0.0
 10
95.13045516284933
 20
-141.3415879637965
 30
0.0
 10
95.13045516284933
 20
-141.6588812579881
 30
0.0
 10
94.90617944675957
 20
-141.8934922605336
 30
0.0
 10
94.60370006315463
 20
-141.8934922605336
 30
0.0
  0
HATCH
  5
72
330
6B
100
AcDbEntity
  8
_U+30EC_U+30A4_U+30E4_U+30FC 1
 62
     7
420
 16777215
100
AcDbHatch
 10
0.0
 20
0.0
 30
0.0
210
0.0
220
0.0
230
1.0
  2
SOLID
 70
     1
 71
     0
 91
        1
 92
        1
 93
        1
 72
     4
 94
        3
 73
     0
 74
     1
 95
       53
 96
       49
 40
0.0
 40
0.0
 40
0.0
 40
0.0
 40
1.0
 40
1.0
 40
1.0
 40
2.0
 40
2.0
 40
2.0
 40
3.0
 40
3.0
 40
3.0
 40
4.0
 40
4.0
 40
4.0
 40
5.0
 40
5.0
 40
5.0
 40
6.0
 40
6.0
 40
6.0
 40
7.0
 40
7.0
 40
7.0
 40
8.0
 40
8.0
 40
8.0
 40
9.0
 40
9.0
 40
9.0
 40
10.0
 40
10.0
 40
10.0
 40
11.0
 40
11.0
 40
11.0
 40
12.0
 40
12.0
 40
12.0
 40
13.0
 40
13.0
 40
13.0
 40
14.0
 40
14.0
 40
14.0
 40
15.0
 40
15.0
 40
15.0
 40
16.0
 40
16.0
 40
16.0
 40
16.0
 10
94.60370006315463
 20
-141.8934922605336
 10
94.52549639563946
 20
-141.8934922605336
 10
94.42386607882459
 20
-141.8766112926559
 10
94.32223576200973
 20
-141.8132215357273
 10
94.14894745910166
 20
-141.7033229897478
 10
94.12758786709311
 20
-141.5720648517598
 10
94.10863984192423
 20
-141.4642333630715
 10
94.10863984192423
 20
-141.4642333630715
 10
94.33084850072285
 20
-141.4642333630715
 10
94.33084850072285
 20
-141.4642333630715
 10
94.38562551893833
 20
-141.6630153725704
 10
94.51274954234404
 20
-141.6926431937435
 10
94.60576712044579
 20
-141.6926431937435
 10
94.7452934875984
 20
-141.6926431937435
 10
94.89756670804644
 20
-141.5930799342198
 10
94.89756670804644
 20
-141.3605359889654
 10
94.89756670804644
 20
-141.1045653944114
 10
94.71773272371641
 20
-141.0346299560608
 10
94.59715438173266
 20
-141.0346299560608
 10
94.56545950326836
 20
-141.0346299560608
 10
94.42386607882459
 20
-141.0346299560608
 10
94.33498261530515
 20
-141.1638210367577
 10
94.33498261530515
 20
-141.1638210367577
 10
94.1592827455574
 20
-141.1448730115888
 10
94.1592827455574
 20
-141.1448730115888
 10
94.1592827455574
 20
-141.1448730115888
 10
94.27986108754115
 20
-140.2984130508629
 10
94.27986108754115
 20
-140.2984130508629
 10
94.27986108754115
 20
-140.2984130508629
 10
95.05845266720762
 20
-140.2984130508629
 10
95.05845266720762
 20
-140.2984130508629
 10
95.05845266720762
 20
-140.2984130508629
 10
95.05845266720762
 20
-140.4930609457795
 10
95.05845266720762
 20
-140.4930609457795
 10
95.05845266720762
 20
-140.4930609457795
 10
94.44281410399347
 20
-140.4930609457795
 10
94.44281410399347
 20
-140.4930609457795
 10
94.44281410399347
 20
-140.4930609457795
 10
94.37735728977373
 20
-140.9161186713682
 10
94.37735728977373
 20
-140.9161186713682
 10
94.43867998941117
 20
-140.8823567356127
 10
94.52101777150864
 20
-140.8420491184353
 10
94.63952905620123
 20
-140.8420491184353
 10
94.89343259346414
 20
-140.8420491184353
 10
95.13045516284933
 20
-141.0284287841874
 10
95.13045516284933
 20
-141.3415879637965
 10
95.13045516284933
 20
-141.6588812579881
 10
94.90617944675957
 20
-141.8934922605336
 10
94.60370006315463
 20
-141.8934922605336
 97
        0
 97
        0
 75
     2
 76
     1
 98
        0
  0
ENDBLK
  5
6E
330
6B
100
AcDbEntity
  8
0
100
AcDbBlockEnd
  0
BLOCK
  5
81
330
7F
100
AcDbEntity
  8
0
100
AcDbBlockBegin
  2
block 5
 70
     0
 10
0.0
 20
0.0
 30
0.0
  3
block 5
  1

  0
SPLINE
  5
83
330
7F
100
AcDbEntity
  8
_U+30EC_U+30A4_U+30E4_U+30FC 1
370
     0
100
AcDbSpline
210
0.0
220
0.0
230
1.0
 70
    11
 71
     3
 72
    44
 73
    40
 74
     0
 42
0.0000000001
 43
0.0000000001
 12
1.0
 22
0.0
 32
0.0
 13
1.0
 23
0.0
 33
0.0
 40
0.0
 40
0.0
 40
0.0
 40
0.0
 40
1.0
 40
1.0
 40
1.0
 40
2.0
 40
2.0
 40
2.0
 40
3.0
 40
3.0
 40
3.0
 40
4.0
 40
4.0
 40
4.0
 40
5.0
 40
5.0
 40
5.0
 40
6.0
 40
6.0
 40
6.0
 40
7.0
 40
7.0
 40
7.0
 40
8.0
 40
8.0
 40
8.0
 40
9.0
 40
9.0
 40
9.0
 40
10.0
 40
10.0
 40
10.0
 40
11.0
 40
11.0
 40
11.0
 40
12.0
 40
12.0
 40
12.0
 40
13.0
 40
13.0
 40
13.0
 40
13.0
 10
76.23961857903038
 20
-126.551793045619
 30
0.0
 10
76.39826522612613
 20
-126.7695230802868
 30
0.0
 10
76.472334779059
 20
-126.8625406583885
 30
0.0
 10
76.61616751556818
 20
-126.9114610142791
 30
0.0
 10
76.61616751556818
 20
-126.9114610142791
 30
0.0
 10
76.61616751556818
 20
-126.1328694346126
 30
0.0
 10
76.61616751556818
 20
-126.1328694346126
 30
0.0
 10
76.61616751556818
 20
-126.1328694346126
 30
0.0
 10
76.8213229517148
 20
-126.1328694346126
 30
0.0
 10
76.8213229517148
 20
-126.1328694346126
 30
0.0
 10
76.8213229517148
 20
-126.1328694346126
 30
0.0
 10
76.8213229517148
 20
-127.1608859274112
 30
0.0
 10
76.8213229517148
 20
-127.1608859274112
 30
0.0
 10
76.46372204034589
 20
-127.1291910489469
 30
0.0
 10
76.3855183728307
 20
-127.0637342347271
 30
0.0
 10
76.08717310380807
 20
-126.6785725594762
 30
0.0
 10
75.88839109430916
 20
-126.4226019649221
 30
0.0
 10
75.820694968024
 20
-126.3571451507024
 30
0.0
 10
75.68323565816253
 20
-126.3571451507024
 30
0.0
 10
75.56472437346993
 20
-126.3571451507024
 30
0.0
 10
75.43363849025617
 20
-126.4291476463441
 30
0.0
 10
75.43363849025617
 20
-126.6258625985519
 30
0.0
 10
75.43363849025617
 20
-126.8859673076882
 30
0.0
 10
75.66411537821939
 20
-126.8945800464014
 30
0.0
 10
75.78055960562084
 20
-126.8987141609837
 30
0.0
 10
75.78055960562084
 20
-126.8987141609837
 30
0.0
 10
75.78055960562084
 20
-127.1229898770734
 30
0.0
 10
75.78055960562084
 20
-127.1229898770734
 30
0.0
 10
75.65360783698938
 20
-127.1143771383603
 30
0.0
 10
75.54146997894449
 20
-127.103697342356
 30
0.0
 10
75.4229586942519
 20
-127.0234266175497
 30
0.0
 10
75.262244989865
 20
-126.9135280715702
 30
0.0
 10
75.22831079933529
 20
-126.7271484058182
 30
0.0
 10
75.22831079933529
 20
-126.6110486879653
 30
0.0
 10
75.22831079933529
 20
-126.3337185014027
 30
0.0
 10
75.41245115302189
 20
-126.1263237531906
 30
0.0
 10
75.68530271545367
 20
-126.1263237531906
 30
0.0
 10
75.91371254612574
 20
-126.1263237531906
 30
0.0
 10
76.01327580564946
 20
-126.2427679805921
 30
0.0
 10
76.23961857903038
 20
-126.551793045619
 30
0.0
  0
HATCH
  5
84
330
7F
100
AcDbEntity
  8
_U+30EC_U+30A4_U+30E4_U+30FC 1
 62
     7
420
 16777215
100
AcDbHatch
 10
0.0
 20
0.0
 30
0.0
210
0.0
220
0.0
230
1.0
  2
SOLID
 70
     1
 71
     0
 91
        1
 92
        1
 93
        1
 72
     4
 94
        3
 73
     0
 74
     1
 95
       44
 96
       40
 40
0.0
 40
0.0
 40
0.0
 40
0.0
 40
1.0
 40
1.0
 40
1.0
 40
2.0
 40
2.0
 40
2.0
 40
3.0
 40
3.0
 40
3.0
 40
4.0
 40
4.0
 40
4.0
 40
5.0
 40
5.0
 40
5.0
 40
6.0
 40
6.0
 40
6.0
 40
7.0
 40
7.0
 40
7.0
 40
8.0
 40
8.0
 40
8.0
 40
9.0
 40
9.0
 40
9.0
 40
10.0
 40
10.0
 40
10.0
 40
11.0
 40
11.0
 40
11.0
 40
12.0
 40
12.0
 40
12.0
 40
13.0
 40
13.0
 40
13.0
 40
13.0
 10
76.23961857903038
 20
-126.551793045619
 10
76.39826522612613
 20
-126.7695230802868
 10
76.472334779059
 20
-126.8625406583885
 10
76.61616751556818
 20
-126.9114610142791
 10
76.61616751556818
 20
-126.9114610142791
 10
76.61616751556818
 20
-126.1328694346126
 10
76.61616751556818
 20
-126.1328694346126
 10
76.61616751556818
 20
-126.1328694346126
 10
76.8213229517148
 20
-126.1328694346126
 10
76.8213229517148
 20
-126.1328694346126
 10
76.8213229517148
 20
-126.1328694346126
 10
76.8213229517148
 20
-127.1608859274112
 10
76.8213229517148
 20
-127.1608859274112
 10
76.46372204034589
 20
-127.1291910489469
 10
76.3855183728307
 20
-127.0637342347271
 10
76.08717310380807
 20
-126.6785725594762
 10
75.88839109430916
 20
-126.4226019649221
 10
75.820694968024
 20
-126.3571451507024
 10
75.68323565816253
 20
-126.3571451507024
 10
75.56472437346993
 20
-126.3571451507024
 10
75.43363849025617
 20
-126.4291476463441
 10
75.43363849025617
 20
-126.6258625985519
 10
75.43363849025617
 20
-126.8859673076882
 10
75.66411537821939
 20
-126.8945800464014
 10
75.78055960562084
 20
-126.8987141609837
 10
75.78055960562084
 20
-126.8987141609837
 10
75.78055960562084
 20
-127.1229898770734
 10
75.78055960562084
 20
-127.1229898770734
 10
75.65360783698938
 20
-127.1143771383603
 10
75.54146997894449
 20
-127.103697342356
 10
75.4229586942519
 20
-127.0234266175497
 10
75.262244989865
 20
-126.9135280715702
 10
75.22831079933529
 20
-126.7271484058182
 10
75.22831079933529
 20
-126.6110486879653
 10
75.22831079933529
 20
-126.3337185014027
 10
75.41245115302189
 20
-126.1263237531906
 10
75.68530271545367
 20
-126.1263237531906
 10
75.91371254612574
 20
-126.1263237531906
 10
76.01327580564946
 20
-126.2427679805921
 10
76.23961857903038
 20
-126.551793045619
 97
        0
 97
        0
 75
     2
 76
     1
 98
        0
  0
SPLINE
  5
85
330
7F
100
AcDbEntity
  8
_U+30EC_U+30A4_U+30E4_U+30FC 1
370
     0
100
AcDbSpline
210
0.0
220
0.0
230
1.0
 70
    11
 71
     3
 72
    53
 73
    49
 74
     0
 42
0.0000000001
 43
0.0000000001
 12
1.0
 22
0.0
 32
0.0
 13
1.0
 23
0.0
 33
0.0
 40
0.0
 40
0.0
 40
0.0
 40
0.0
 40
1.0
 40
1.0
 40
1.0
 40
2.0
 40
2.0
 40
2.0
 40
3.0
 40
3.0
 40
3.0
 40
4.0
 40
4.0
 40
4.0
 40
5.0
 40
5.0
 40
5.0
 40
6.0
 40
6.0
 40
6.0
 40
7.0
 40
7.0
 40
7.0
 40
8.0
 40
8.0
 40
8.0
 40
9.0
 40
9.0
 40
9.0
 40
10.0
 40
10.0
 40
10.0
 40
11.0
 40
11.0
 40
11.0
 40
12.0
 40
12.0
 40
12.0
 40
13.0
 40
13.0
 40
13.0
 40
14.0
 40
14.0
 40
14.0
 40
15.0
 40
15.0
 40
15.0
 40
16.0
 40
16.0
 40
16.0
 40
16.0
 10
76.87213811012225
 20
-125.4869140311283
 30
0.0
 10
76.87213811012225
 20
-125.5651176986434
 30
0.0
 10
76.85508488747026
 20
-125.6667480154583
 30
0.0
 10
76.79169513054167
 20
-125.7683783322732
 30
0.0
 10
76.68162432978794
 20
-125.9416666351812
 30
0.0
 10
76.55053844657418
 20
-125.9630262271898
 30
0.0
 10
76.44270695788586
 20
-125.9819742523587
 30
0.0
 10
76.44270695788586
 20
-125.9819742523587
 30
0.0
 10
76.44270695788586
 20
-125.7597655935601
 30
0.0
 10
76.44270695788586
 20
-125.7597655935601
 30
0.0
 10
76.64148896738477
 20
-125.7049885753446
 30
0.0
 10
76.67111678855792
 20
-125.5778645519389
 30
0.0
 10
76.67111678855792
 20
-125.4848469738371
 30
0.0
 10
76.67111678855792
 20
-125.3453206066845
 30
0.0
 10
76.57172578380846
 20
-125.1930473862365
 30
0.0
 10
76.33900958377984
 20
-125.1930473862365
 30
0.0
 10
76.08303898922577
 20
-125.1930473862365
 30
0.0
 10
76.01327580564946
 20
-125.3728813705665
 30
0.0
 10
76.01327580564946
 20
-125.4934597125502
 30
0.0
 10
76.01327580564946
 20
-125.5251545910146
 30
0.0
 10
76.01327580564946
 20
-125.6667480154583
 30
0.0
 10
76.14229463157207
 20
-125.7556314789778
 30
0.0
 10
76.14229463157207
 20
-125.7556314789778
 30
0.0
 10
76.12317435162893
 20
-125.9313313487255
 30
0.0
 10
76.12317435162893
 20
-125.9313313487255
 30
0.0
 10
76.12317435162893
 20
-125.9313313487255
 30
0.0
 10
75.27705890045158
 20
-125.8107530067418
 30
0.0
 10
75.27705890045158
 20
-125.8107530067418
 30
0.0
 10
75.27705890045158
 20
-125.8107530067418
 30
0.0
 10
75.27705890045158
 20
-125.0321614270753
 30
0.0
 10
75.27705890045158
 20
-125.0321614270753
 30
0.0
 10
75.27705890045158
 20
-125.0321614270753
 30
0.0
 10
75.47170679536819
 20
-125.0321614270753
 30
0.0
 10
75.47170679536819
 20
-125.0321614270753
 30
0.0
 10
75.47170679536819
 20
-125.0321614270753
 30
0.0
 10
75.47170679536819
 20
-125.6477999902894
 30
0.0
 10
75.47170679536819
 20
-125.6477999902894
 30
0.0
 10
75.47170679536819
 20
-125.6477999902894
 30
0.0
 10
75.89476452095687
 20
-125.7132568045092
 30
0.0
 10
75.89476452095687
 20
-125.7132568045092
 30
0.0
 10
75.86083033042716
 20
-125.6519341048717
 30
0.0
 10
75.820694968024
 20
-125.5695963227743
 30
0.0
 10
75.820694968024
 20
-125.4510850380817
 30
0.0
 10
75.820694968024
 20
-125.1971815008188
 30
0.0
 10
76.00690237900174
 20
-124.9601589314336
 30
0.0
 10
76.3198893038367
 20
-124.9601589314336
 30
0.0
 10
76.63735485280247
 20
-124.9601589314336
 30
0.0
 10
76.87213811012225
 20
-125.1844346475233
 30
0.0
 10
76.87213811012225
 20
-125.4869140311283
 30
0.0
  0
HATCH
  5
86
330
7F
100
AcDbEntity
  8
_U+30EC_U+30A4_U+30E4_U+30FC 1
 62
     7
420
 16777215
100
AcDbHatch
 10
0.0
 20
0.0
 30
0.0
210
0.0
220
0.0
230
1.0
  2
SOLID
 70
     1
 71
     0
 91
        1
 92
        1
 93
        1
 72
     4
 94
        3
 73
     0
 74
     1
 95
       53
 96
       49
 40
0.0
 40
0.0
 40
0.0
 40
0.0
 40
1.0
 40
1.0
 40
1.0
 40
2.0
 40
2.0
 40
2.0
 40
3.0
 40
3.0
 40
3.0
 40
4.0
 40
4.0
 40
4.0
 40
5.0
 40
5.0
 40
5.0
 40
6.0
 40
6.0
 40
6.0
 40
7.0
 40
7.0
 40
7.0
 40
8.0
 40
8.0
 40
8.0
 40
9.0
 40
9.0
 40
9.0
 40
10.0
 40
10.0
 40
10.0
 40
11.0
 40
11.0
 40
11.0
 40
12.0
 40
12.0
 40
12.0
 40
13.0
 40
13.0
 40
13.0
 40
14.0
 40
14.0
 40
14.0
 40
15.0
 40
15.0
 40
15.0
 40
16.0
 40
16.0
 40
16.0
 40
16.0
 10
76.87213811012225
 20
-125.4869140311283
 10
76.87213811012225
 20
-125.5651176986434
 10
76.85508488747026
 20
-125.6667480154583
 10
76.79169513054167
 20
-125.7683783322732
 10
76.68162432978794
 20
-125.9416666351812
 10
76.55053844657418
 20
-125.9630262271898
 10
76.44270695788586
 20
-125.9819742523587
 10
76.44270695788586
 20
-125.9819742523587
 10
76.44270695788586
 20
-125.7597655935601
 10
76.44270695788586
 20
-125.7597655935601
 10
76.64148896738477
 20
-125.7049885753446
 10
76.67111678855792
 20
-125.5778645519389
 10
76.67111678855792
 20
-125.4848469738371
 10
76.67111678855792
 20
-125.3453206066845
 10
76.57172578380846
 20
-125.1930473862365
 10
76.33900958377984
 20
-125.1930473862365
 10
76.08303898922577
 20
-125.1930473862365
 10
76.01327580564946
 20
-125.3728813705665
 10
76.01327580564946
 20
-125.4934597125502
 10
76.01327580564946
 20
-125.5251545910146
 10
76.01327580564946
 20
-125.6667480154583
 10
76.14229463157207
 20
-125.7556314789778
 10
76.14229463157207
 20
-125.7556314789778
 10
76.12317435162893
 20
-125.9313313487255
 10
76.12317435162893
 20
-125.9313313487255
 10
76.12317435162893
 20
-125.9313313487255
 10
75.27705890045158
 20
-125.8107530067418
 10
75.27705890045158
 20
-125.8107530067418
 10
75.27705890045158
 20
-125.8107530067418
 10
75.27705890045158
 20
-125.0321614270753
 10
75.27705890045158
 20
-125.0321614270753
 10
75.27705890045158
 20
-125.0321614270753
 10
75.47170679536819
 20
-125.0321614270753
 10
75.47170679536819
 20
-125.0321614270753
 10
75.47170679536819
 20
-125.0321614270753
 10
75.47170679536819
 20
-125.6477999902894
 10
75.47170679536819
 20
-125.6477999902894
 10
75.47170679536819
 20
-125.6477999902894
 10
75.89476452095687
 20
-125.7132568045092
 10
75.89476452095687
 20
-125.7132568045092
 10
75.86083033042716
 20
-125.6519341048717
 10
75.820694968024
 20
-125.5695963227743
 10
75.820694968024
 20
-125.4510850380817
 10
75.820694968024
 20
-125.1971815008188
 10
76.00690237900174
 20
-124.9601589314336
 10
76.3198893038367
 20
-124.9601589314336
 10
76.63735485280247
 20
-124.9601589314336
 10
76.87213811012225
 20
-125.1844346475233
 10
76.87213811012225
 20
-125.4869140311283
 97
        0
 97
        0
 75
     2
 76
     1
 98
        0
  0
ENDBLK
  5
82
330
7F
100
AcDbEntity
  8
0
100
AcDbBlockEnd
  0
BLOCK
  5
91
330
8F
100
AcDbEntity
  8
0
100
AcDbBlockBegin
  2
block 6
 70
     0
 10
0.0
 20
0.0
 30
0.0
  3
block 6
  1

  0
POLYLINE
  5
93
330
8F
100
AcDbEntity
  8
_U+30EC_U+30A4_U+30E4_U+30FC 1
370
     0
100
AcDb2dPolyline
 66
     1
 10
0.0
 20
0.0
 30
0.0
  0
VERTEX
  5
94
330
93
100
AcDbEntity
  8
_U+30EC_U+30A4_U+30E4_U+30FC 1
370
     0
100
AcDbVertex
100
AcDb2dVertex
 10
75.30427515478505
 20
-141.4959282415358
 30
0.0
  0
VERTEX
  5
95
330
93
100
AcDbEntity
  8
_U+30EC_U+30A4_U+30E4_U+30FC 1
370
     0
100
AcDbVertex
100
AcDb2dVertex
 10
75.30427515478505
 20
-141.8428493569004
 30
0.0
  0
VERTEX
  5
96
330
93
100
AcDbEntity
  8
_U+30EC_U+30A4_U+30E4_U+30FC 1
370
     0
100
AcDbVertex
100
AcDb2dVertex
 10
75.086372865343
 20
-141.8428493569004
 30
0.0
  0
VERTEX
  5
97
330
93
100
AcDbEntity
  8
_U+30EC_U+30A4_U+30E4_U+30FC 1
370
     0
100
AcDbVertex
100
AcDb2dVertex
 10
75.086372865343
 20
-141.4959282415358
 30
0.0
  0
VERTEX
  5
98
330
93
100
AcDbEntity
  8
_U+30EC_U+30A4_U+30E4_U+30FC 1
370
     0
100
AcDbVertex
100
AcDb2dVertex
 10
74.43059893972568
 20
-141.4959282415358
 30
0.0
  0
VERTEX
  5
99
330
93
100
AcDbEntity
  8
_U+30EC_U+30A4_U+30E4_U+30FC 1
370
     0
100
AcDbVertex
100
AcDb2dVertex
 10
74.43059893972568
 20
-141.271652525446
 30
0.0
  0
VERTEX
  5
9A
330
93
100
AcDbEntity
  8
_U+30EC_U+30A4_U+30E4_U+30FC 1
370
     0
100
AcDbVertex
100
AcDb2dVertex
 10
75.10962725986843
 20
-140.2984130508629
 30
0.0
  0
VERTEX
  5
9B
330
93
100
AcDbEntity
  8
_U+30EC_U+30A4_U+30E4_U+30FC 1
370
     0
100
AcDbVertex
100
AcDb2dVertex
 10
75.30427515478505
 20
-140.2984130508629
 30
0.0
  0
VERTEX
  5
9C
330
93
100
AcDbEntity
  8
_U+30EC_U+30A4_U+30E4_U+30FC 1
370
     0
100
AcDbVertex
100
AcDb2dVertex
 10
75.30427515478505
 20
-141.2971462320368
 30
0.0
  0
VERTEX
  5
9D
330
93
100
AcDbEntity
  8
_U+30EC_U+30A4_U+30E4_U+30FC 1
370
     0
100
AcDbVertex
100
AcDb2dVertex
 10
75.51166990299708
 20
-141.2971462320368
 30
0.0
  0
VERTEX
  5
9E
330
93
100
AcDbEntity
  8
_U+30EC_U+30A4_U+30E4_U+30FC 1
370
     0
100
AcDbVertex
100
AcDb2dVertex
 10
75.51166990299708
 20
-141.4959282415358
 30
0.0
  0
VERTEX
  5
9F
330
93
100
AcDbEntity
  8
_U+30EC_U+30A4_U+30E4_U+30FC 1
370
     0
100
AcDbVertex
100
AcDb2dVertex
 10
75.30427515478505
 20
-141.4959282415358
 30
0.0
  0
SEQEND
  5
A0
330
93
100
AcDbEntity
  8
_U+30EC_U+30A4_U+30E4_U+30FC 1
370
     0
  0
POLYLINE
  5
A1
330
8F
100
AcDbEntity
  8
_U+30EC_U+30A4_U+30E4_U+30FC 1
370
     0
100
AcDb2dPolyline
 66
     1
 10
0.0
 20
0.0
 30
0.0
  0
VERTEX
  5
A2
330
A1
100
AcDbEntity
  8
_U+30EC_U+30A4_U+30E4_U+30FC 1
370
     0
100
AcDbVertex
100
AcDb2dVertex
 10
75.086372865343
 20
-140.6412000516453
 30
0.0
  0
VERTEX
  5
A3
330
A1
100
AcDbEntity
  8
_U+30EC_U+30A4_U+30E4_U+30FC 1
370
     0
100
AcDbVertex
100
AcDb2dVertex
 10
74.62955320399887
 20
-141.2971462320368
 30
0.0
  0
VERTEX
  5
A4
330
A1
100
AcDbEntity
  8
_U+30EC_U+30A4_U+30E4_U+30FC 1
370
     0
100
AcDbVertex
100
AcDb2dVertex
 10
75.086372865343
 20
-141.2971462320368
 30
0.0
  0
VERTEX
  5
A5
330
A1
100
AcDbEntity
  8
_U+30EC_U+30A4_U+30E4_U+30FC 1
370
     0
100
AcDbVertex
100
AcDb2dVertex
 10
75.086372865343
 20
-140.6412000516453
 30
0.0
  0
SEQEND
  5
A6
330
A1
100
AcDbEntity
  8
_U+30EC_U+30A4_U+30E4_U+30FC 1
370
     0
  0
HATCH
  5
A7
330
8F
100
AcDbEntity
  8
_U+30EC_U+30A4_U+30E4_U+30FC 1
 62
     7
420
 16777215
100
AcDbHatch
 10
0.0
 20
0.0
 30
0.0
210
0.0
220
0.0
230
1.0
  2
SOLID
 70
     1
 71
     0
 91
        2
 92
        1
 93
       11
 72
     1
 10
75.30427515478505
 20
-141.4959282415358
 11
75.30427515478505
 21
-141.8428493569004
 72
     1
 10
75.30427515478505
 20
-141.8428493569004
 11
75.086372865343
 21
-141.8428493569004
 72
     1
 10
75.086372865343
 20
-141.8428493569004
 11
75.086372865343
 21
-141.4959282415358
 72
     1
 10
75.086372865343
 20
-141.4959282415358
 11
74.43059893972568
 21
-141.4959282415358
 72
     1
 10
74.43059893972568
 20
-141.4959282415358
 11
74.43059893972568
 21
-141.271652525446
 72
     1
 10
74.43059893972568
 20
-141.271652525446
 11
75.10962725986843
 21
-140.2984130508629
 72
     1
 10
75.10962725986843
 20
-140.2984130508629
 11
75.30427515478505
 21
-140.2984130508629
 72
     1
 10
75.30427515478505
 20
-140.2984130508629
 11
75.30427515478505
 21
-141.2971462320368
 72
     1
 10
75.30427515478505
 20
-141.2971462320368
 11
75.51166990299708
 21
-141.2971462320368
 72
     1
 10
75.51166990299708
 20
-141.2971462320368
 11
75.51166990299708
 21
-141.4959282415358
 72
     1
 10
75.51166990299708
 20
-141.4959282415358
 11
75.30427515478505
 21
-141.4959282415358
 97
        0
 92
        1
 93
        3
 72
     1
 10
75.086372865343
 20
-140.6412000516453
 11
74.62955320399887
 21
-141.2971462320368
 72
     1
 10
74.62955320399887
 20
-141.2971462320368
 11
75.086372865343
 21
-141.2971462320368
 72
     1
 10
75.086372865343
 20
-141.2971462320368
 11
75.086372865343
 21
-140.6412000516453
 97
        0
 75
     2
 76
     1
 98
        0
  0
SPLINE
  5
A8
330
8F
100
AcDbEntity
  8
_U+30EC_U+30A4_U+30E4_U+30FC 1
370
     0
100
AcDbSpline
210
0.0
220
0.0
230
1.0
 70
    11
 71
     3
 72
    44
 73
    40
 74
     0
 42
0.0000000001
 43
0.0000000001
 12
1.0
 22
0.0
 32
0.0
 13
1.0
 23
0.0
 33
0.0
 40
0.0
 40
0.0
 40
0.0
 40
0.0
 40
1.0
 40
1.0
 40
1.0
 40
2.0
 40
2.0
 40
2.0
 40
3.0
 40
3.0
 40
3.0
 40
4.0
 40
4.0
 40
4.0
 40
5.0
 40
5.0
 40
5.0
 40
6.0
 40
6.0
 40
6.0
 40
7.0
 40
7.0
 40
7.0
 40
8.0
 40
8.0
 40
8.0
 40
9.0
 40
9.0
 40
9.0
 40
10.0
 40
10.0
 40
10.0
 40
11.0
 40
11.0
 40
11.0
 40
12.0
 40
12.0
 40
12.0
 40
13.0
 40
13.0
 40
13.0
 40
13.0
 10
76.66319306894185
 20
-141.8428493569004
 30
0.0
 10
76.63976641964214
 20
-141.7984076251407
 30
0.0
 10
76.61875133718212
 20
-141.7456976642164
 30
0.0
 10
76.6165120251167
 20
-141.5148762667046
 30
0.0
 10
76.6123779105344
 20
-141.271652525446
 30
0.0
 10
76.5531222681881
 20
-141.2017170870954
 30
0.0
 10
76.37535534114922
 20
-141.2017170870954
 30
0.0
 10
76.37535534114922
 20
-141.2017170870954
 30
0.0
 10
75.96711152614712
 20
-141.2017170870954
 30
0.0
 10
75.96711152614712
 20
-141.2017170870954
 30
0.0
 10
75.96711152614712
 20
-141.2017170870954
 30
0.0
 10
75.96711152614712
 20
-141.8428493569004
 30
0.0
 10
75.96711152614712
 20
-141.8428493569004
 30
0.0
 10
75.96711152614712
 20
-141.8428493569004
 30
0.0
 10
75.73232826882735
 20
-141.8428493569004
 30
0.0
 10
75.73232826882735
 20
-141.8428493569004
 30
0.0
 10
75.73232826882735
 20
-141.8428493569004
 30
0.0
 10
75.73232826882735
 20
-140.2984130508629
 30
0.0
 10
75.73232826882735
 20
-140.2984130508629
 30
0.0
 10
75.73232826882735
 20
-140.2984130508629
 30
0.0
 10
76.40722247438778
 20
-140.2984130508629
 30
0.0
 10
76.40722247438778
 20
-140.2984130508629
 30
0.0
 10
76.71383597257501
 20
-140.2984130508629
 30
0.0
 10
76.88092310360963
 20
-140.4699788060283
 30
0.0
 10
76.88092310360963
 20
-140.7259494005824
 30
0.0
 10
76.88092310360963
 20
-140.7765923042156
 30
0.0
 10
76.87248261967078
 20
-140.8592745958616
 30
0.0
 10
76.82804088791104
 20
-140.9395453206679
 30
0.0
 10
76.76895750033901
 20
-141.0432426947739
 30
0.0
 10
76.703328431345
 20
-141.0621907199428
 30
0.0
 10
76.64200573170756
 20
-141.0790716878205
 30
0.0
 10
76.77946504156903
 20
-141.1214463622891
 30
0.0
 10
76.84716116785418
 20
-141.1700222086311
 30
0.0
 10
76.85146753721075
 20
-141.4852484455315
 30
0.0
 10
76.85560165179305
 20
-141.7560329506721
 30
0.0
 10
76.89160289961391
 20
-141.7877278291364
 30
0.0
 10
76.95929902589907
 20
-141.8428493569004
 30
0.0
 10
76.95929902589907
 20
-141.8428493569004
 30
0.0
 10
76.66319306894185
 20
-141.8428493569004
 30
0.0
 10
76.66319306894185
 20
-141.8428493569004
 30
0.0
  0
SPLINE
  5
A9
330
8F
100
AcDbEntity
  8
_U+30EC_U+30A4_U+30E4_U+30FC 1
370
     0
100
AcDbSpline
210
0.0
220
0.0
230
1.0
 70
    11
 71
     3
 72
    20
 73
    16
 74
     0
 42
0.0000000001
 43
0.0000000001
 12
1.0
 22
0.0
 32
0.0
 13
1.0
 23
0.0
 33
0.0
 40
0.0
 40
0.0
 40
0.0
 40
0.0
 40
1.0
 40
1.0
 40
1.0
 40
2.0
 40
2.0
 40
2.0
 40
3.0
 40
3.0
 40
3.0
 40
4.0
 40
4.0
 40
4.0
 40
5.0
 40
5.0
 40
5.0
 40
5.0
 10
76.41135658897008
 20
-140.5099419136572
 30
0.0
 10
76.41135658897008
 20
-140.5099419136572
 30
0.0
 10
75.96711152614712
 20
-140.5099419136572
 30
0.0
 10
75.96711152614712
 20
-140.5099419136572
 30
0.0
 10
75.96711152614712
 20
-140.5099419136572
 30
0.0
 10
75.96711152614712
 20
-140.9901882243011
 30
0.0
 10
75.96711152614712
 20
-140.9901882243011
 30
0.0
 10
75.96711152614712
 20
-140.9901882243011
 30
0.0
 10
76.40928953167894
 20
-140.9901882243011
 30
0.0
 10
76.40928953167894
 20
-140.9901882243011
 30
0.0
 10
76.50868053642839
 20
-140.9901882243011
 30
0.0
 10
76.64407278899871
 20
-140.914051614077
 30
0.0
 10
76.64407278899871
 20
-140.7428303684601
 30
0.0
 10
76.64407278899871
 20
-140.664626700945
 30
0.0
 10
76.61013859846899
 20
-140.5099419136572
 30
0.0
 10
76.41135658897008
 20
-140.5099419136572
 30
0.0
  0
HATCH
  5
AA
330
8F
100
AcDbEntity
  8
_U+30EC_U+30A4_U+30E4_U+30FC 1
 62
     7
420
 16777215
100
AcDbHatch
 10
0.0
 20
0.0
 30
0.0
210
0.0
220
0.0
230
1.0
  2
SOLID
 70
     1
 71
     0
 91
        2
 92
        1
 93
        1
 72
     4
 94
        3
 73
     0
 74
     1
 95
       44
 96
       40
 40
0.0
 40
0.0
 40
0.0
 40
0.0
 40
1.0
 40
1.0
 40
1.0
 40
2.0
 40
2.0
 40
2.0
 40
3.0
 40
3.0
 40
3.0
 40
4.0
 40
4.0
 40
4.0
 40
5.0
 40
5.0
 40
5.0
 40
6.0
 40
6.0
 40
6.0
 40
7.0
 40
7.0
 40
7.0
 40
8.0
 40
8.0
 40
8.0
 40
9.0
 40
9.0
 40
9.0
 40
10.0
 40
10.0
 40
10.0
 40
11.0
 40
11.0
 40
11.0
 40
12.0
 40
12.0
 40
12.0
 40
13.0
 40
13.0
 40
13.0
 40
13.0
 10
76.66319306894185
 20
-141.8428493569004
 10
76.63976641964214
 20
-141.7984076251407
 10
76.61875133718212
 20
-141.7456976642164
 10
76.6165120251167
 20
-141.5148762667046
 10
76.6123779105344
 20
-141.271652525446
 10
76.5531222681881
 20
-141.2017170870954
 10
76.37535534114922
 20
-141.2017170870954
 10
76.37535534114922
 20
-141.2017170870954
 10
75.96711152614712
 20
-141.2017170870954
 10
75.96711152614712
 20
-141.2017170870954
 10
75.96711152614712
 20
-141.2017170870954
 10
75.96711152614712
 20
-141.8428493569004
 10
75.96711152614712
 20
-141.8428493569004
 10
75.96711152614712
 20
-141.8428493569004
 10
75.73232826882735
 20
-141.8428493569004
 10
75.73232826882735
 20
-141.8428493569004
 10
75.73232826882735
 20
-141.8428493569004
 10
75.73232826882735
 20
-140.2984130508629
 10
75.73232826882735
 20
-140.2984130508629
 10
75.73232826882735
 20
-140.2984130508629
 10
76.40722247438778
 20
-140.2984130508629
 10
76.40722247438778
 20
-140.2984130508629
 10
76.71383597257501
 20
-140.2984130508629
 10
76.88092310360963
 20
-140.4699788060283
 10
76.88092310360963
 20
-140.7259494005824
 10
76.88092310360963
 20
-140.7765923042156
 10
76.87248261967078
 20
-140.8592745958616
 10
76.82804088791104
 20
-140.9395453206679
 10
76.76895750033901
 20
-141.0432426947739
 10
76.703328431345
 20
-141.0621907199428
 10
76.64200573170756
 20
-141.0790716878205
 10
76.77946504156903
 20
-141.1214463622891
 10
76.84716116785418
 20
-141.1700222086311
 10
76.85146753721075
 20
-141.4852484455315
 10
76.85560165179305
 20
-141.7560329506721
 10
76.89160289961391
 20
-141.7877278291364
 10
76.95929902589907
 20
-141.8428493569004
 10
76.95929902589907
 20
-141.8428493569004
 10
76.66319306894185
 20
-141.8428493569004
 10
76.66319306894185
 20
-141.8428493569004
 97
        0
 97
        0
 92
        1
 93
        1
 72
     4
 94
        3
 73
     0
 74
     1
 95
       20
 96
       16
 40
0.0
 40
0.0
 40
0.0
 40
0.0
 40
1.0
 40
1.0
 40
1.0
 40
2.0
 40
2.0
 40
2.0
 40
3.0
 40
3.0
 40
3.0
 40
4.0
 40
4.0
 40
4.0
 40
5.0
 40
5.0
 40
5.0
 40
5.0
 10
76.41135658897008
 20
-140.5099419136572
 10
76.41135658897008
 20
-140.5099419136572
 10
75.96711152614712
 20
-140.5099419136572
 10
75.96711152614712
 20
-140.5099419136572
 10
75.96711152614712
 20
-140.5099419136572
 10
75.96711152614712
 20
-140.9901882243011
 10
75.96711152614712
 20
-140.9901882243011
 10
75.96711152614712
 20
-140.9901882243011
 10
76.40928953167894
 20
-140.9901882243011
 10
76.40928953167894
 20
-140.9901882243011
 10
76.50868053642839
 20
-140.9901882243011
 10
76.64407278899871
 20
-140.914051614077
 10
76.64407278899871
 20
-140.7428303684601
 10
76.64407278899871
 20
-140.664626700945
 10
76.61013859846899
 20
-140.5099419136572
 10
76.41135658897008
 20
-140.5099419136572
 97
        0
 97
        0
 75
     2
 76
     1
 98
        0
  0
ENDBLK
  5
92
330
8F
100
AcDbEntity
  8
0
100
AcDbBlockEnd
  0
BLOCK
  5
1CF
330
1CD
100
AcDbEntity
  8
0
100
AcDbBlockBegin
  2
block 7
 70
     0
 10
0.0
 20
0.0
 30
0.0
  3
block 7
  1

  0
SPLINE
  5
1D1
330
1CD
100
AcDbEntity
  8
_U+30EC_U+30A4_U+30E4_U+30FC 1
370
     0
100
AcDbSpline
210
0.0
220
0.0
230
1.0
 70
    11
 71
     3
 72
   242
 73
   238
 74
     0
 42
0.0000000001
 43
0.0000000001
 12
1.0
 22
0.0
 32
0.0
 13
1.0
 23
0.0
 33
0.0
 40
0.0
 40
0.0
 40
0.0
 40
0.0
 40
1.0
 40
1.0
 40
1.0
 40
2.0
 40
2.0
 40
2.0
 40
3.0
 40
3.0
 40
3.0
 40
4.0
 40
4.0
 40
4.0
 40
5.0
 40
5.0
 40
5.0
 40
6.0
 40
6.0
 40
6.0
 40
7.0
 40
7.0
 40
7.0
 40
8.0
 40
8.0
 40
8.0
 40
9.0
 40
9.0
 40
9.0
 40
10.0
 40
10.0
 40
10.0
 40
11.0
 40
11.0
 40
11.0
 40
12.0
 40
12.0
 40
12.0
 40
13.0
 40
13.0
 40
13.0
 40
14.0
 40
14.0
 40
14.0
 40
15.0
 40
15.0
 40
15.0
 40
16.0
 40
16.0
 40
16.0
 40
17.0
 40
17.0
 40
17.0
 40
18.0
 40
18.0
 40
18.0
 40
19.0
 40
19.0
 40
19.0
 40
20.0
 40
20.0
 40
20.0
 40
21.0
 40
21.0
 40
21.0
 40
22.0
 40
22.0
 40
22.0
 40
23.0
 40
23.0
 40
23.0
 40
24.0
 40
24.0
 40
24.0
 40
25.0
 40
25.0
 40
25.0
 40
26.0
 40
26.0
 40
26.0
 40
27.0
 40
27.0
 40
27.0
 40
28.0
 40
28.0
 40
28.0
 40
29.0
 40
29.0
 40
29.0
 40
30.0
 40
30.0
 40
30.0
 40
31.0
 40
31.0
 40
31.0
 40
32.0
 40
32.0
 40
32.0
 40
33.0
 40
33.0
 40
33.0
 40
34.0
 40
34.0
 40
34.0
 40
35.0
 40
35.0
 40
35.0
 40
36.0
 40
36.0
 40
36.0
 40
37.0
 40
37.0
 40
37.0
 40
38.0
 40
38.0
 40
38.0
 40
39.0
 40
39.0
 40
39.0
 40
40.0
 40
40.0
 40
40.0
 40
41.0
 40
41.0
 40
41.0
 40
42.0
 40
42.0
 40
42.0
 40
43.0
 40
43.0
 40
43.0
 40
44.0
 40
44.0
 40
44.0
 40
45.0
 40
45.0
 40
45.0
 40
46.0
 40
46.0
 40
46.0
 40
47.0
 40
47.0
 40
47.0
 40
48.0
 40
48.0
 40
48.0
 40
49.0
 40
49.0
 40
49.0
 40
50.0
 40
50.0
 40
50.0
 40
51.0
 40
51.0
 40
51.0
 40
52.0
 40
52.0
 40
52.0
 40
53.0
 40
53.0
 40
53.0
 40
54.0
 40
54.0
 40
54.0
 40
55.0
 40
55.0
 40
55.0
 40
56.0
 40
56.0
 40
56.0
 40
57.0
 40
57.0
 40
57.0
 40
58.0
 40
58.0
 40
58.0
 40
59.0
 40
59.0
 40
59.0
 40
60.0
 40
60.0
 40
60.0
 40
61.0
 40
61.0
 40
61.0
 40
62.0
 40
62.0
 40
62.0
 40
63.0
 40
63.0
 40
63.0
 40
64.0
 40
64.0
 40
64.0
 40
65.0
 40
65.0
 40
65.0
 40
66.0
 40
66.0
 40
66.0
 40
67.0
 40
67.0
 40
67.0
 40
68.0
 40
68.0
 40
68.0
 40
69.0
 40
69.0
 40
69.0
 40
70.0
 40
70.0
 40
70.0
 40
71.0
 40
71.0
 40
71.0
 40
72.0
 40
72.0
 40
72.0
 40
73.0
 40
73.0
 40
73.0
 40
74.0
 40
74.0
 40
74.0
 40
75.0
 40
75.0
 40
75.0
 40
76.0
 40
76.0
 40
76.0
 40
77.0
 40
77.0
 40
77.0
 40
78.0
 40
78.0
 40
78.0
 40
79.0
 40
79.0
 40
79.0
 40
79.0
 10
98.55281301789653
 20
-121.7133286913599
 30
0.0
 10
98.55281301789653
 20
-121.7133286913599
 30
0.0
 10
98.29890948063361
 20
-121.7133286913599
 30
0.0
 10
98.29890948063361
 20
-121.7133286913599
 30
0.0
 10
98.29890948063361
 20
-121.7133286913599
 30
0.0
 10
98.02192380361953
 20
-121.7133286913599
 30
0.0
 10
98.02192380361953
 20
-121.7133286913599
 30
0.0
 10
98.02192380361953
 20
-121.7133286913599
 30
0.0
 10
98.14870331747672
 20
-121.7557033658284
 30
0.0
 10
98.14870331747672
 20
-121.7557033658284
 30
0.0
 10
98.159383113481
 20
-121.760009735185
 30
0.0
 10
98.1717854572279
 20
-121.7662109070585
 30
0.0
 10
98.1717854572279
 20
-121.7789577603539
 30
0.0
 10
98.1717854572279
 20
-121.8001450975882
 30
0.0
 10
98.14009057876359
 20
-121.8065185242359
 30
0.0
 10
98.11907549630357
 20
-121.8106526388182
 30
0.0
 10
98.1083957002993
 20
-121.8339070333436
 30
0.0
 10
98.07876787912615
 20
-121.8995361023376
 30
0.0
 10
98.05981985395726
 20
-121.9439778340973
 30
0.0
 10
98.05981985395726
 20
-121.9439778340973
 30
0.0
 10
98.3306043590979
 20
-121.9439778340973
 30
0.0
 10
98.3306043590979
 20
-121.9439778340973
 30
0.0
 10
98.4215548799085
 20
-121.9439778340973
 30
0.0
 10
98.61826983211627
 20
-121.9396714647408
 30
0.0
 10
98.76020776610856
 20
-121.9312309808019
 30
0.0
 10
98.76020776610856
 20
-121.9312309808019
 30
0.0
 10
98.76020776610856
 20
-122.1089979078408
 30
0.0
 10
98.76020776610856
 20
-122.1089979078408
 30
0.0
 10
98.67752547446257
 20
-122.1046915384842
 30
0.0
 10
98.65651039200255
 20
-122.1046915384842
 30
0.0
 10
98.4766764076725
 20
-122.1005574239019
 30
0.0
 10
98.4449815292082
 20
-122.2548977016411
 30
0.0
 10
98.40053979744847
 20
-122.3353406812217
 30
0.0
 10
98.35609806568876
 20
-122.405103864798
 30
0.0
 10
98.4766764076725
 20
-122.4643595071443
 30
0.0
 10
98.58244083906968
 20
-122.5320556334295
 30
0.0
 10
98.6861382131757
 20
-122.6145656703012
 30
0.0
 10
98.6861382131757
 20
-122.6145656703012
 30
0.0
 10
98.5676269284831
 20
-122.7816528013358
 30
0.0
 10
98.5676269284831
 20
-122.7816528013358
 30
0.0
 10
98.5442002791834
 20
-122.762704776167
 30
0.0
 10
98.53145342588797
 20
-122.7542642922281
 30
0.0
 10
98.41948782261736
 20
-122.669514943291
 30
0.0
 10
98.37091197627534
 20
-122.6314466381789
 30
0.0
 10
98.31165633392904
 20
-122.5956176451324
 30
0.0
 10
98.23104109957418
 20
-122.5511759133726
 30
0.0
 10
98.01951223677985
 20
-122.7373833243504
 30
0.0
 10
97.81452905540748
 20
-122.7606377188758
 30
0.0
 10
97.52445201554944
 20
-122.790265540049
 30
0.0
 10
97.52445201554944
 20
-122.790265540049
 30
0.0
 10
97.42109915099195
 20
-122.6104315557189
 30
0.0
 10
97.42109915099195
 20
-122.6104315557189
 30
0.0
 10
97.73839244518346
 20
-122.6061251863624
 30
0.0
 10
97.91374780538268
 20
-122.5808037345458
 30
0.0
 10
98.06602102583072
 20
-122.470732933792
 30
0.0
 10
97.94785425068665
 20
-122.4199177753846
 30
0.0
 10
97.85897078716721
 20
-122.3925292662769
 30
0.0
 10
97.82279728457209
 20
-122.3797824129815
 30
0.0
 10
97.80384925940321
 20
-122.4073431768634
 30
0.0
 10
97.78903534881664
 20
-122.4262912020323
 30
0.0
 10
97.76147458493463
 20
-122.460225392562
 30
0.0
 10
97.76147458493463
 20
-122.460225392562
 30
0.0
 10
97.56475963272688
 20
-122.3777153556903
 30
0.0
 10
97.56475963272688
 20
-122.3777153556903
 30
0.0
 10
97.64744192437287
 20
-122.2972723761097
 30
0.0
 10
97.70876462401031
 20
-122.2020154859426
 30
0.0
 10
97.76595320906546
 20
-122.1005574239019
 30
0.0
 10
97.57543942873114
 20
-122.1046915384842
 30
0.0
 10
97.5540798367226
 20
-122.1046915384842
 30
0.0
 10
97.47174205462512
 20
-122.1089979078408
 30
0.0
 10
97.47174205462512
 20
-122.1089979078408
 30
0.0
 10
97.47174205462512
 20
-121.9312309808019
 30
0.0
 10
97.47174205462512
 20
-121.9312309808019
 30
0.0
 10
97.61126842177774
 20
-121.9376044074496
 30
0.0
 10
97.82073022728093
 20
-121.9419107768062
 30
0.0
 10
97.84622393387178
 20
-121.9419107768062
 30
0.0
 10
97.86310490174951
 20
-121.9079765862765
 30
0.0
 10
97.91822642951351
 20
-121.7873982442927
 30
0.0
 10
97.93717445468238
 20
-121.7133286913599
 30
0.0
 10
97.91822642951351
 20
-121.7133286913599
 30
0.0
 10
97.74045950247461
 20
-121.7197021180076
 30
0.0
 10
97.545811607558
 20
-121.732448971303
 30
0.0
 10
97.545811607558
 20
-121.732448971303
 30
0.0
 10
97.545811607558
 20
-121.8657741665822
 30
0.0
 10
97.545811607558
 20
-121.8657741665822
 30
0.0
 10
97.49723576121598
 20
-121.8910956183988
 30
0.0
 10
97.43798011886967
 20
-121.9227904968631
 30
0.0
 10
97.3046549235905
 20
-121.9884195658571
 30
0.0
 10
97.3046549235905
 20
-121.9884195658571
 30
0.0
 10
97.3046549235905
 20
-122.1343193596574
 30
0.0
 10
97.3046549235905
 20
-122.1343193596574
 30
0.0
 10
97.3046549235905
 20
-122.1343193596574
 30
0.0
 10
97.3046549235905
 20
-122.6019910717801
 30
0.0
 10
97.3046549235905
 20
-122.6019910717801
 30
0.0
 10
97.3046549235905
 20
-122.7287705856373
 30
0.0
 10
97.26848142099539
 20
-122.7880262279836
 30
0.0
 10
96.98529457210785
 20
-122.7795857440447
 30
0.0
 10
96.98529457210785
 20
-122.7795857440447
 30
0.0
 10
96.88159719800183
 20
-122.5723632506069
 30
0.0
 10
96.88159719800183
 20
-122.5723632506069
 30
0.0
 10
96.94498695493043
 20
-122.5849378491281
 30
0.0
 10
96.99356280127245
 20
-122.5892442184846
 30
0.0
 10
97.03387041844987
 20
-122.5892442184846
 30
0.0
 10
97.11000702867389
 20
-122.5892442184846
 30
0.0
 10
97.12068682467816
 20
-122.5659898239592
 30
0.0
 10
97.12068682467816
 20
-122.5003607549652
 30
0.0
 10
97.12068682467816
 20
-122.5003607549652
 30
0.0
 10
97.12068682467816
 20
-122.0709296027288
 30
0.0
 10
97.12068682467816
 20
-122.0709296027288
 30
0.0
 10
97.0231906224456
 20
-122.111064965132
 30
0.0
 10
97.00630965456787
 20
-122.1174383917797
 30
0.0
 10
96.959800865517
 20
-122.1365586717228
 30
0.0
 10
96.9556667509347
 20
-122.1575737541828
 30
0.0
 10
96.95118812680387
 20
-122.187201575356
 30
0.0
 10
96.932240101635
 20
-122.187201575356
 30
0.0
 10
96.9239718724704
 20
-122.187201575356
 30
0.0
 10
96.91329207646612
 20
-122.1830674607737
 30
0.0
 10
96.90674639504415
 20
-122.1598130662482
 30
0.0
 10
96.90674639504415
 20
-122.1598130662482
 30
0.0
 10
96.85403643411983
 20
-121.9672322286228
 30
0.0
 10
96.85403643411983
 20
-121.9672322286228
 30
0.0
 10
97.00010848269442
 20
-121.9207234395719
 30
0.0
 10
97.06556529691417
 20
-121.8974690450465
 30
0.0
 10
97.12068682467816
 20
-121.8762817078122
 30
0.0
 10
97.12068682467816
 20
-121.8762817078122
 30
0.0
 10
97.12068682467816
 20
-121.4637315234535
 30
0.0
 10
97.12068682467816
 20
-121.4637315234535
 30
0.0
 10
97.12068682467816
 20
-121.4637315234535
 30
0.0
 10
97.06763235420532
 20
-121.4637315234535
 30
0.0
 10
97.06763235420532
 20
-121.4637315234535
 30
0.0
 10
97.06763235420532
 20
-121.4637315234535
 30
0.0
 10
96.98942868669015
 20
-121.4637315234535
 30
0.0
 10
96.98942868669015
 20
-121.4637315234535
 30
0.0
 10
96.92156030563072
 20
-121.4637315234535
 30
0.0
 10
96.91329207646612
 20
-121.4637315234535
 30
0.0
 10
96.877118573871
 20
-121.4701049501012
 30
0.0
 10
96.877118573871
 20
-121.4701049501012
 30
0.0
 10
96.877118573871
 20
-121.2754570551846
 30
0.0
 10
96.877118573871
 20
-121.2754570551846
 30
0.0
 10
96.904679337753
 20
-121.2818304818323
 30
0.0
 10
96.91329207646612
 20
-121.2818304818323
 30
0.0
 10
96.98288300526818
 20
-121.2818304818323
 30
0.0
 10
96.98288300526818
 20
-121.2818304818323
 30
0.0
 10
97.11620820054735
 20
-121.2818304818323
 30
0.0
 10
97.11620820054735
 20
-121.2818304818323
 30
0.0
 10
97.11620820054735
 20
-121.212067298256
 30
0.0
 10
97.11620820054735
 20
-121.1295572613843
 30
0.0
 10
97.11414114325619
 20
-121.1252508920277
 30
0.0
 10
97.10587291409159
 20
-120.9454169076977
 30
0.0
 10
97.10587291409159
 20
-120.9264688825288
 30
0.0
 10
97.10346134725192
 20
-120.8799600934779
 30
0.0
 10
97.10346134725192
 20
-120.8799600934779
 30
0.0
 10
97.31946883417709
 20
-120.8884005774168
 30
0.0
 10
97.31946883417709
 20
-120.8884005774168
 30
0.0
 10
97.33014863018136
 20
-120.8884005774168
 30
0.0
 10
97.35116371264138
 20
-120.8904676347079
 30
0.0
 10
97.35116371264138
 20
-120.9073486025857
 30
0.0
 10
97.35116371264138
 20
-120.9264688825288
 30
0.0
 10
97.33634980205481
 20
-120.9369764237588
 30
0.0
 10
97.31085609546396
 20
-120.956096703702
 30
0.0
 10
97.31085609546396
 20
-121.0067396073351
 30
0.0
 10
97.3046549235905
 20
-121.2353216927815
 30
0.0
 10
97.30672198088166
 20
-121.2818304818323
 30
0.0
 10
97.43591306157853
 20
-121.2818304818323
 30
0.0
 10
97.44831540532543
 20
-121.2818304818323
 30
0.0
 10
97.545811607558
 20
-121.2733899978935
 30
0.0
 10
97.545811607558
 20
-121.2733899978935
 30
0.0
 10
97.545811607558
 20
-121.4680378928101
 30
0.0
 10
97.545811607558
 20
-121.4680378928101
 30
0.0
 10
97.50757104767172
 20
-121.4657985807447
 30
0.0
 10
97.44004717616083
 20
-121.4616644661624
 30
0.0
 10
97.3046549235905
 20
-121.4637315234535
 30
0.0
 10
97.3046549235905
 20
-121.4637315234535
 30
0.0
 10
97.3046549235905
 20
-121.8022121548793
 30
0.0
 10
97.3046549235905
 20
-121.8022121548793
 30
0.0
 10
97.35943194180598
 20
-121.7789577603539
 30
0.0
 10
97.42523326557425
 20
-121.7513969964719
 30
0.0
 10
97.47380911191627
 20
-121.7281426019464
 30
0.0
 10
97.47380911191627
 20
-121.7281426019464
 30
0.0
 10
97.47380911191627
 20
-121.5505479296818
 30
0.0
 10
97.47380911191627
 20
-121.5505479296818
 30
0.0
 10
97.58818628202657
 20
-121.563122528203
 30
0.0
 10
97.70669756671916
 20
-121.563122528203
 30
0.0
 10
97.82279728457209
 20
-121.563122528203
 30
0.0
 10
97.79971514482091
 20
-121.4680378928101
 30
0.0
 10
97.77215438093891
 20
-121.3855278559383
 30
0.0
 10
97.70876462401031
 20
-121.2522026606592
 30
0.0
 10
97.6643228922506
 20
-121.2542697179503
 30
0.0
 10
97.5816406006046
 20
-121.2585760873069
 30
0.0
 10
97.54374455026685
 20
-121.260643144598
 30
0.0
 10
97.54374455026685
 20
-121.260643144598
 30
0.0
 10
97.54374455026685
 20
-121.080809160268
 30
0.0
 10
97.54374455026685
 20
-121.080809160268
 30
0.0
 10
97.6684570068329
 20
-121.0892496442069
 30
0.0
 10
97.84208981928948
 20
-121.0935560135634
 30
0.0
 10
97.92442760138695
 20
-121.0935560135634
 30
0.0
 10
97.92442760138695
 20
-121.0935560135634
 30
0.0
 10
98.00710989303295
 20
-121.0935560135634
 30
0.0
 10
98.00710989303295
 20
-121.0935560135634
 30
0.0
 10
98.00710989303295
 20
-120.9306029971111
 30
0.0
 10
98.00710989303295
 20
-120.9200954558811
 30
0.0
 10
98.00469832619328
 20
-120.8651461828914
 30
0.0
 10
98.00469832619328
 20
-120.8651461828914
 30
0.0
 10
98.22897404228304
 20
-120.8904676347079
 30
0.0
 10
98.22897404228304
 20
-120.8904676347079
 30
0.0
 10
98.23345266641387
 20
-120.8904676347079
 30
0.0
 10
98.25446774887389
 20
-120.8925346919991
 30
0.0
 10
98.25446774887389
 20
-120.9094156598768
 30
0.0
 10
98.25446774887389
 20
-120.9242295704634
 30
0.0
 10
98.24378795286961
 20
-120.9328423091765
 30
0.0
 10
98.21622718898762
 20
-120.9476562197631
 30
0.0
 10
98.21002601711416
 20
-121.0131130339828
 30
0.0
 10
98.20795895982302
 20
-121.0343003712171
 30
0.0
 10
98.20795895982302
 20
-121.0935560135634
 30
0.0
 10
98.20795895982302
 20
-121.0935560135634
 30
0.0
 10
98.30304359521591
 20
-121.0935560135634
 30
0.0
 10
98.30304359521591
 20
-121.0935560135634
 30
0.0
 10
98.3857258868619
 20
-121.0935560135634
 30
0.0
 10
98.55901418976997
 20
-121.0892496442069
 30
0.0
 10
98.68407115588454
 20
-121.080809160268
 30
0.0
 10
98.68407115588454
 20
-121.080809160268
 30
0.0
 10
98.68407115588454
 20
-121.260643144598
 30
0.0
 10
98.68407115588454
 20
-121.260643144598
 30
0.0
 10
98.65444333471139
 20
-121.2585760873069
 30
0.0
 10
98.5359320500188
 20
-121.2542697179503
 30
0.0
 10
98.49562443284138
 20
-121.2522026606592
 30
0.0
 10
98.4808105222548
 20
-121.3030178190666
 30
0.0
 10
98.44704858649935
 20
-121.4151556771115
 30
0.0
 10
98.38124726273108
 20
-121.5546820442641
 30
0.0
 10
98.42362193719966
 20
-121.5546820442641
 30
0.0
 10
98.70095212376226
 20
-121.5357340190952
 30
0.0
 10
98.76227482339971
 20
-121.5334947070298
 30
0.0
 10
98.76227482339971
 20
-121.5334947070298
 30
0.0
 10
98.76227482339971
 20
-121.7176350607164
 30
0.0
 10
98.76227482339971
 20
-121.7176350607164
 30
0.0
 10
98.73264700222657
 20
-121.7176350607164
 30
0.0
 10
98.71576603434885
 20
-121.7133286913599
 30
0.0
 10
98.55281301789653
 20
-121.7133286913599
 30
0.0
  0
SPLINE
  5
1D2
330
1CD
100
AcDbEntity
  8
_U+30EC_U+30A4_U+30E4_U+30FC 1
370
     0
100
AcDbSpline
210
0.0
220
0.0
230
1.0
 70
    11
 71
     3
 72
    20
 73
    16
 74
     0
 42
0.0000000001
 43
0.0000000001
 12
1.0
 22
0.0
 32
0.0
 13
1.0
 23
0.0
 33
0.0
 40
0.0
 40
0.0
 40
0.0
 40
0.0
 40
1.0
 40
1.0
 40
1.0
 40
2.0
 40
2.0
 40
2.0
 40
3.0
 40
3.0
 40
3.0
 40
4.0
 40
4.0
 40
4.0
 40
5.0
 40
5.0
 40
5.0
 40
5.0
 10
97.92442760138695
 20
-121.2480685460769
 30
0.0
 10
97.92442760138695
 20
-121.2480685460769
 30
0.0
 10
97.89273272292266
 20
-121.2480685460769
 30
0.0
 10
97.89273272292266
 20
-121.2480685460769
 30
0.0
 10
97.93924151197352
 20
-121.3474595508263
 30
0.0
 10
97.97093639043783
 20
-121.4277302756327
 30
0.0
 10
98.00469832619328
 20
-121.5546820442641
 30
0.0
 10
98.00469832619328
 20
-121.5546820442641
 30
0.0
 10
98.21209307440532
 20
-121.5546820442641
 30
0.0
 10
98.21209307440532
 20
-121.5546820442641
 30
0.0
 10
98.24378795286961
 20
-121.4616644661624
 30
0.0
 10
98.26721460216932
 20
-121.3770873719995
 30
0.0
 10
98.29029674192049
 20
-121.2480685460769
 30
0.0
 10
98.29029674192049
 20
-121.2480685460769
 30
0.0
 10
97.92442760138695
 20
-121.2480685460769
 30
0.0
 10
97.92442760138695
 20
-121.2480685460769
 30
0.0
  0
SPLINE
  5
1D3
330
1CD
100
AcDbEntity
  8
_U+30EC_U+30A4_U+30E4_U+30FC 1
370
     0
100
AcDbSpline
210
0.0
220
0.0
230
1.0
 70
    11
 71
     3
 72
    17
 73
    13
 74
     0
 42
0.0000000001
 43
0.0000000001
 12
1.0
 22
0.0
 32
0.0
 13
1.0
 23
0.0
 33
0.0
 40
0.0
 40
0.0
 40
0.0
 40
0.0
 40
1.0
 40
1.0
 40
1.0
 40
2.0
 40
2.0
 40
2.0
 40
3.0
 40
3.0
 40
3.0
 40
4.0
 40
4.0
 40
4.0
 40
4.0
 10
97.98781735831555
 20
-122.0984903666108
 30
0.0
 10
97.97093639043783
 20
-122.1279459330097
 30
0.0
 10
97.92029348680465
 20
-122.2211357658857
 30
0.0
 10
97.90961369080038
 20
-122.2400837910546
 30
0.0
 10
98.1001274711347
 20
-122.2993394334009
 30
0.0
 10
98.12114255359472
 20
-122.3057128600486
 30
0.0
 10
98.19314504923643
 20
-122.3332736239306
 30
0.0
 10
98.24826657700044
 20
-122.2464572177023
 30
0.0
 10
98.27134871675162
 20
-122.1723876647694
 30
0.0
 10
98.28616262733819
 20
-122.0984903666108
 30
0.0
 10
98.28616262733819
 20
-122.0984903666108
 30
0.0
 10
97.98781735831555
 20
-122.0984903666108
 30
0.0
 10
97.98781735831555
 20
-122.0984903666108
 30
0.0
  0
HATCH
  5
1D4
330
1CD
100
AcDbEntity
  8
_U+30EC_U+30A4_U+30E4_U+30FC 1
 62
     7
420
 16777215
100
AcDbHatch
 10
0.0
 20
0.0
 30
0.0
210
0.0
220
0.0
230
1.0
  2
SOLID
 70
     1
 71
     0
 91
        3
 92
        1
 93
        1
 72
     4
 94
        3
 73
     0
 74
     1
 95
      242
 96
      238
 40
0.0
 40
0.0
 40
0.0
 40
0.0
 40
1.0
 40
1.0
 40
1.0
 40
2.0
 40
2.0
 40
2.0
 40
3.0
 40
3.0
 40
3.0
 40
4.0
 40
4.0
 40
4.0
 40
5.0
 40
5.0
 40
5.0
 40
6.0
 40
6.0
 40
6.0
 40
7.0
 40
7.0
 40
7.0
 40
8.0
 40
8.0
 40
8.0
 40
9.0
 40
9.0
 40
9.0
 40
10.0
 40
10.0
 40
10.0
 40
11.0
 40
11.0
 40
11.0
 40
12.0
 40
12.0
 40
12.0
 40
13.0
 40
13.0
 40
13.0
 40
14.0
 40
14.0
 40
14.0
 40
15.0
 40
15.0
 40
15.0
 40
16.0
 40
16.0
 40
16.0
 40
17.0
 40
17.0
 40
17.0
 40
18.0
 40
18.0
 40
18.0
 40
19.0
 40
19.0
 40
19.0
 40
20.0
 40
20.0
 40
20.0
 40
21.0
 40
21.0
 40
21.0
 40
22.0
 40
22.0
 40
22.0
 40
23.0
 40
23.0
 40
23.0
 40
24.0
 40
24.0
 40
24.0
 40
25.0
 40
25.0
 40
25.0
 40
26.0
 40
26.0
 40
26.0
 40
27.0
 40
27.0
 40
27.0
 40
28.0
 40
28.0
 40
28.0
 40
29.0
 40
29.0
 40
29.0
 40
30.0
 40
30.0
 40
30.0
 40
31.0
 40
31.0
 40
31.0
 40
32.0
 40
32.0
 40
32.0
 40
33.0
 40
33.0
 40
33.0
 40
34.0
 40
34.0
 40
34.0
 40
35.0
 40
35.0
 40
35.0
 40
36.0
 40
36.0
 40
36.0
 40
37.0
 40
37.0
 40
37.0
 40
38.0
 40
38.0
 40
38.0
 40
39.0
 40
39.0
 40
39.0
 40
40.0
 40
40.0
 40
40.0
 40
41.0
 40
41.0
 40
41.0
 40
42.0
 40
42.0
 40
42.0
 40
43.0
 40
43.0
 40
43.0
 40
44.0
 40
44.0
 40
44.0
 40
45.0
 40
45.0
 40
45.0
 40
46.0
 40
46.0
 40
46.0
 40
47.0
 40
47.0
 40
47.0
 40
48.0
 40
48.0
 40
48.0
 40
49.0
 40
49.0
 40
49.0
 40
50.0
 40
50.0
 40
50.0
 40
51.0
 40
51.0
 40
51.0
 40
52.0
 40
52.0
 40
52.0
 40
53.0
 40
53.0
 40
53.0
 40
54.0
 40
54.0
 40
54.0
 40
55.0
 40
55.0
 40
55.0
 40
56.0
 40
56.0
 40
56.0
 40
57.0
 40
57.0
 40
57.0
 40
58.0
 40
58.0
 40
58.0
 40
59.0
 40
59.0
 40
59.0
 40
60.0
 40
60.0
 40
60.0
 40
61.0
 40
61.0
 40
61.0
 40
62.0
 40
62.0
 40
62.0
 40
63.0
 40
63.0
 40
63.0
 40
64.0
 40
64.0
 40
64.0
 40
65.0
 40
65.0
 40
65.0
 40
66.0
 40
66.0
 40
66.0
 40
67.0
 40
67.0
 40
67.0
 40
68.0
 40
68.0
 40
68.0
 40
69.0
 40
69.0
 40
69.0
 40
70.0
 40
70.0
 40
70.0
 40
71.0
 40
71.0
 40
71.0
 40
72.0
 40
72.0
 40
72.0
 40
73.0
 40
73.0
 40
73.0
 40
74.0
 40
74.0
 40
74.0
 40
75.0
 40
75.0
 40
75.0
 40
76.0
 40
76.0
 40
76.0
 40
77.0
 40
77.0
 40
77.0
 40
78.0
 40
78.0
 40
78.0
 40
79.0
 40
79.0
 40
79.0
 40
79.0
 10
98.55281301789653
 20
-121.7133286913599
 10
98.55281301789653
 20
-121.7133286913599
 10
98.29890948063361
 20
-121.7133286913599
 10
98.29890948063361
 20
-121.7133286913599
 10
98.29890948063361
 20
-121.7133286913599
 10
98.02192380361953
 20
-121.7133286913599
 10
98.02192380361953
 20
-121.7133286913599
 10
98.02192380361953
 20
-121.7133286913599
 10
98.14870331747672
 20
-121.7557033658284
 10
98.14870331747672
 20
-121.7557033658284
 10
98.159383113481
 20
-121.760009735185
 10
98.1717854572279
 20
-121.7662109070585
 10
98.1717854572279
 20
-121.7789577603539
 10
98.1717854572279
 20
-121.8001450975882
 10
98.14009057876359
 20
-121.8065185242359
 10
98.11907549630357
 20
-121.8106526388182
 10
98.1083957002993
 20
-121.8339070333436
 10
98.07876787912615
 20
-121.8995361023376
 10
98.05981985395726
 20
-121.9439778340973
 10
98.05981985395726
 20
-121.9439778340973
 10
98.3306043590979
 20
-121.9439778340973
 10
98.3306043590979
 20
-121.9439778340973
 10
98.4215548799085
 20
-121.9439778340973
 10
98.61826983211627
 20
-121.9396714647408
 10
98.76020776610856
 20
-121.9312309808019
 10
98.76020776610856
 20
-121.9312309808019
 10
98.76020776610856
 20
-122.1089979078408
 10
98.76020776610856
 20
-122.1089979078408
 10
98.67752547446257
 20
-122.1046915384842
 10
98.65651039200255
 20
-122.1046915384842
 10
98.4766764076725
 20
-122.1005574239019
 10
98.4449815292082
 20
-122.2548977016411
 10
98.40053979744847
 20
-122.3353406812217
 10
98.35609806568876
 20
-122.405103864798
 10
98.4766764076725
 20
-122.4643595071443
 10
98.58244083906968
 20
-122.5320556334295
 10
98.6861382131757
 20
-122.6145656703012
 10
98.6861382131757
 20
-122.6145656703012
 10
98.5676269284831
 20
-122.7816528013358
 10
98.5676269284831
 20
-122.7816528013358
 10
98.5442002791834
 20
-122.762704776167
 10
98.53145342588797
 20
-122.7542642922281
 10
98.41948782261736
 20
-122.669514943291
 10
98.37091197627534
 20
-122.6314466381789
 10
98.31165633392904
 20
-122.5956176451324
 10
98.23104109957418
 20
-122.5511759133726
 10
98.01951223677985
 20
-122.7373833243504
 10
97.81452905540748
 20
-122.7606377188758
 10
97.52445201554944
 20
-122.790265540049
 10
97.52445201554944
 20
-122.790265540049
 10
97.42109915099195
 20
-122.6104315557189
 10
97.42109915099195
 20
-122.6104315557189
 10
97.73839244518346
 20
-122.6061251863624
 10
97.91374780538268
 20
-122.5808037345458
 10
98.06602102583072
 20
-122.470732933792
 10
97.94785425068665
 20
-122.4199177753846
 10
97.85897078716721
 20
-122.3925292662769
 10
97.82279728457209
 20
-122.3797824129815
 10
97.80384925940321
 20
-122.4073431768634
 10
97.78903534881664
 20
-122.4262912020323
 10
97.76147458493463
 20
-122.460225392562
 10
97.76147458493463
 20
-122.460225392562
 10
97.56475963272688
 20
-122.3777153556903
 10
97.56475963272688
 20
-122.3777153556903
 10
97.64744192437287
 20
-122.2972723761097
 10
97.70876462401031
 20
-122.2020154859426
 10
97.76595320906546
 20
-122.1005574239019
 10
97.57543942873114
 20
-122.1046915384842
 10
97.5540798367226
 20
-122.1046915384842
 10
97.47174205462512
 20
-122.1089979078408
 10
97.47174205462512
 20
-122.1089979078408
 10
97.47174205462512
 20
-121.9312309808019
 10
97.47174205462512
 20
-121.9312309808019
 10
97.61126842177774
 20
-121.9376044074496
 10
97.82073022728093
 20
-121.9419107768062
 10
97.84622393387178
 20
-121.9419107768062
 10
97.86310490174951
 20
-121.9079765862765
 10
97.91822642951351
 20
-121.7873982442927
 10
97.93717445468238
 20
-121.7133286913599
 10
97.91822642951351
 20
-121.7133286913599
 10
97.74045950247461
 20
-121.7197021180076
 10
97.545811607558
 20
-121.732448971303
 10
97.545811607558
 20
-121.732448971303
 10
97.545811607558
 20
-121.8657741665822
 10
97.545811607558
 20
-121.8657741665822
 10
97.49723576121598
 20
-121.8910956183988
 10
97.43798011886967
 20
-121.9227904968631
 10
97.3046549235905
 20
-121.9884195658571
 10
97.3046549235905
 20
-121.9884195658571
 10
97.3046549235905
 20
-122.1343193596574
 10
97.3046549235905
 20
-122.1343193596574
 10
97.3046549235905
 20
-122.1343193596574
 10
97.3046549235905
 20
-122.6019910717801
 10
97.3046549235905
 20
-122.6019910717801
 10
97.3046549235905
 20
-122.7287705856373
 10
97.26848142099539
 20
-122.7880262279836
 10
96.98529457210785
 20
-122.7795857440447
 10
96.98529457210785
 20
-122.7795857440447
 10
96.88159719800183
 20
-122.5723632506069
 10
96.88159719800183
 20
-122.5723632506069
 10
96.94498695493043
 20
-122.5849378491281
 10
96.99356280127245
 20
-122.5892442184846
 10
97.03387041844987
 20
-122.5892442184846
 10
97.11000702867389
 20
-122.5892442184846
 10
97.12068682467816
 20
-122.5659898239592
 10
97.12068682467816
 20
-122.5003607549652
 10
97.12068682467816
 20
-122.5003607549652
 10
97.12068682467816
 20
-122.0709296027288
 10
97.12068682467816
 20
-122.0709296027288
 10
97.0231906224456
 20
-122.111064965132
 10
97.00630965456787
 20
-122.1174383917797
 10
96.959800865517
 20
-122.1365586717228
 10
96.9556667509347
 20
-122.1575737541828
 10
96.95118812680387
 20
-122.187201575356
 10
96.932240101635
 20
-122.187201575356
 10
96.9239718724704
 20
-122.187201575356
 10
96.91329207646612
 20
-122.1830674607737
 10
96.90674639504415
 20
-122.1598130662482
 10
96.90674639504415
 20
-122.1598130662482
 10
96.85403643411983
 20
-121.9672322286228
 10
96.85403643411983
 20
-121.9672322286228
 10
97.00010848269442
 20
-121.9207234395719
 10
97.06556529691417
 20
-121.8974690450465
 10
97.12068682467816
 20
-121.8762817078122
 10
97.12068682467816
 20
-121.8762817078122
 10
97.12068682467816
 20
-121.4637315234535
 10
97.12068682467816
 20
-121.4637315234535
 10
97.12068682467816
 20
-121.4637315234535
 10
97.06763235420532
 20
-121.4637315234535
 10
97.06763235420532
 20
-121.4637315234535
 10
97.06763235420532
 20
-121.4637315234535
 10
96.98942868669015
 20
-121.4637315234535
 10
96.98942868669015
 20
-121.4637315234535
 10
96.92156030563072
 20
-121.4637315234535
 10
96.91329207646612
 20
-121.4637315234535
 10
96.877118573871
 20
-121.4701049501012
 10
96.877118573871
 20
-121.4701049501012
 10
96.877118573871
 20
-121.2754570551846
 10
96.877118573871
 20
-121.2754570551846
 10
96.904679337753
 20
-121.2818304818323
 10
96.91329207646612
 20
-121.2818304818323
 10
96.98288300526818
 20
-121.2818304818323
 10
96.98288300526818
 20
-121.2818304818323
 10
97.11620820054735
 20
-121.2818304818323
 10
97.11620820054735
 20
-121.2818304818323
 10
97.11620820054735
 20
-121.212067298256
 10
97.11620820054735
 20
-121.1295572613843
 10
97.11414114325619
 20
-121.1252508920277
 10
97.10587291409159
 20
-120.9454169076977
 10
97.10587291409159
 20
-120.9264688825288
 10
97.10346134725192
 20
-120.8799600934779
 10
97.10346134725192
 20
-120.8799600934779
 10
97.31946883417709
 20
-120.8884005774168
 10
97.31946883417709
 20
-120.8884005774168
 10
97.33014863018136
 20
-120.8884005774168
 10
97.35116371264138
 20
-120.8904676347079
 10
97.35116371264138
 20
-120.9073486025857
 10
97.35116371264138
 20
-120.9264688825288
 10
97.33634980205481
 20
-120.9369764237588
 10
97.31085609546396
 20
-120.956096703702
 10
97.31085609546396
 20
-121.0067396073351
 10
97.3046549235905
 20
-121.2353216927815
 10
97.30672198088166
 20
-121.2818304818323
 10
97.43591306157853
 20
-121.2818304818323
 10
97.44831540532543
 20
-121.2818304818323
 10
97.545811607558
 20
-121.2733899978935
 10
97.545811607558
 20
-121.2733899978935
 10
97.545811607558
 20
-121.4680378928101
 10
97.545811607558
 20
-121.4680378928101
 10
97.50757104767172
 20
-121.4657985807447
 10
97.44004717616083
 20
-121.4616644661624
 10
97.3046549235905
 20
-121.4637315234535
 10
97.3046549235905
 20
-121.4637315234535
 10
97.3046549235905
 20
-121.8022121548793
 10
97.3046549235905
 20
-121.8022121548793
 10
97.35943194180598
 20
-121.7789577603539
 10
97.42523326557425
 20
-121.7513969964719
 10
97.47380911191627
 20
-121.7281426019464
 10
97.47380911191627
 20
-121.7281426019464
 10
97.47380911191627
 20
-121.5505479296818
 10
97.47380911191627
 20
-121.5505479296818
 10
97.58818628202657
 20
-121.563122528203
 10
97.70669756671916
 20
-121.563122528203
 10
97.82279728457209
 20
-121.563122528203
 10
97.79971514482091
 20
-121.4680378928101
 10
97.77215438093891
 20
-121.3855278559383
 10
97.70876462401031
 20
-121.2522026606592
 10
97.6643228922506
 20
-121.2542697179503
 10
97.5816406006046
 20
-121.2585760873069
 10
97.54374455026685
 20
-121.260643144598
 10
97.54374455026685
 20
-121.260643144598
 10
97.54374455026685
 20
-121.080809160268
 10
97.54374455026685
 20
-121.080809160268
 10
97.6684570068329
 20
-121.0892496442069
 10
97.84208981928948
 20
-121.0935560135634
 10
97.92442760138695
 20
-121.0935560135634
 10
97.92442760138695
 20
-121.0935560135634
 10
98.00710989303295
 20
-121.0935560135634
 10
98.00710989303295
 20
-121.0935560135634
 10
98.00710989303295
 20
-120.9306029971111
 10
98.00710989303295
 20
-120.9200954558811
 10
98.00469832619328
 20
-120.8651461828914
 10
98.00469832619328
 20
-120.8651461828914
 10
98.22897404228304
 20
-120.8904676347079
 10
98.22897404228304
 20
-120.8904676347079
 10
98.23345266641387
 20
-120.8904676347079
 10
98.25446774887389
 20
-120.8925346919991
 10
98.25446774887389
 20
-120.9094156598768
 10
98.25446774887389
 20
-120.9242295704634
 10
98.24378795286961
 20
-120.9328423091765
 10
98.21622718898762
 20
-120.9476562197631
 10
98.21002601711416
 20
-121.0131130339828
 10
98.20795895982302
 20
-121.0343003712171
 10
98.20795895982302
 20
-121.0935560135634
 10
98.20795895982302
 20
-121.0935560135634
 10
98.30304359521591
 20
-121.0935560135634
 10
98.30304359521591
 20
-121.0935560135634
 10
98.3857258868619
 20
-121.0935560135634
 10
98.55901418976997
 20
-121.0892496442069
 10
98.68407115588454
 20
-121.080809160268
 10
98.68407115588454
 20
-121.080809160268
 10
98.68407115588454
 20
-121.260643144598
 10
98.68407115588454
 20
-121.260643144598
 10
98.65444333471139
 20
-121.2585760873069
 10
98.5359320500188
 20
-121.2542697179503
 10
98.49562443284138
 20
-121.2522026606592
 10
98.4808105222548
 20
-121.3030178190666
 10
98.44704858649935
 20
-121.4151556771115
 10
98.38124726273108
 20
-121.5546820442641
 10
98.42362193719966
 20
-121.5546820442641
 10
98.70095212376226
 20
-121.5357340190952
 10
98.76227482339971
 20
-121.5334947070298
 10
98.76227482339971
 20
-121.5334947070298
 10
98.76227482339971
 20
-121.7176350607164
 10
98.76227482339971
 20
-121.7176350607164
 10
98.73264700222657
 20
-121.7176350607164
 10
98.71576603434885
 20
-121.7133286913599
 10
98.55281301789653
 20
-121.7133286913599
 97
        0
 97
        0
 92
        1
 93
        1
 72
     4
 94
        3
 73
     0
 74
     1
 95
       20
 96
       16
 40
0.0
 40
0.0
 40
0.0
 40
0.0
 40
1.0
 40
1.0
 40
1.0
 40
2.0
 40
2.0
 40
2.0
 40
3.0
 40
3.0
 40
3.0
 40
4.0
 40
4.0
 40
4.0
 40
5.0
 40
5.0
 40
5.0
 40
5.0
 10
97.92442760138695
 20
-121.2480685460769
 10
97.92442760138695
 20
-121.2480685460769
 10
97.89273272292266
 20
-121.2480685460769
 10
97.89273272292266
 20
-121.2480685460769
 10
97.93924151197352
 20
-121.3474595508263
 10
97.97093639043783
 20
-121.4277302756327
 10
98.00469832619328
 20
-121.5546820442641
 10
98.00469832619328
 20
-121.5546820442641
 10
98.21209307440532
 20
-121.5546820442641
 10
98.21209307440532
 20
-121.5546820442641
 10
98.24378795286961
 20
-121.4616644661624
 10
98.26721460216932
 20
-121.3770873719995
 10
98.29029674192049
 20
-121.2480685460769
 10
98.29029674192049
 20
-121.2480685460769
 10
97.92442760138695
 20
-121.2480685460769
 10
97.92442760138695
 20
-121.2480685460769
 97
        0
 97
        0
 92
        1
 93
        1
 72
     4
 94
        3
 73
     0
 74
     1
 95
       17
 96
       13
 40
0.0
 40
0.0
 40
0.0
 40
0.0
 40
1.0
 40
1.0
 40
1.0
 40
2.0
 40
2.0
 40
2.0
 40
3.0
 40
3.0
 40
3.0
 40
4.0
 40
4.0
 40
4.0
 40
4.0
 10
97.98781735831555
 20
-122.0984903666108
 10
97.97093639043783
 20
-122.1279459330097
 10
97.92029348680465
 20
-122.2211357658857
 10
97.90961369080038
 20
-122.2400837910546
 10
98.1001274711347
 20
-122.2993394334009
 10
98.12114255359472
 20
-122.3057128600486
 10
98.19314504923643
 20
-122.3332736239306
 10
98.24826657700044
 20
-122.2464572177023
 10
98.27134871675162
 20
-122.1723876647694
 10
98.28616262733819
 20
-122.0984903666108
 10
98.28616262733819
 20
-122.0984903666108
 10
97.98781735831555
 20
-122.0984903666108
 10
97.98781735831555
 20
-122.0984903666108
 97
        0
 97
        0
 75
     2
 76
     1
 98
        0
  0
SPLINE
  5
1D5
330
1CD
100
AcDbEntity
  8
_U+30EC_U+30A4_U+30E4_U+30FC 1
370
     0
100
AcDbSpline
210
0.0
220
0.0
230
1.0
 70
    11
 71
     3
 72
   203
 73
   199
 74
     0
 42
0.0000000001
 43
0.0000000001
 12
1.0
 22
0.0
 32
0.0
 13
1.0
 23
0.0
 33
0.0
 40
0.0
 40
0.0
 40
0.0
 40
0.0
 40
1.0
 40
1.0
 40
1.0
 40
2.0
 40
2.0
 40
2.0
 40
3.0
 40
3.0
 40
3.0
 40
4.0
 40
4.0
 40
4.0
 40
5.0
 40
5.0
 40
5.0
 40
6.0
 40
6.0
 40
6.0
 40
7.0
 40
7.0
 40
7.0
 40
8.0
 40
8.0
 40
8.0
 40
9.0
 40
9.0
 40
9.0
 40
10.0
 40
10.0
 40
10.0
 40
11.0
 40
11.0
 40
11.0
 40
12.0
 40
12.0
 40
12.0
 40
13.0
 40
13.0
 40
13.0
 40
14.0
 40
14.0
 40
14.0
 40
15.0
 40
15.0
 40
15.0
 40
16.0
 40
16.0
 40
16.0
 40
17.0
 40
17.0
 40
17.0
 40
18.0
 40
18.0
 40
18.0
 40
19.0
 40
19.0
 40
19.0
 40
20.0
 40
20.0
 40
20.0
 40
21.0
 40
21.0
 40
21.0
 40
22.0
 40
22.0
 40
22.0
 40
23.0
 40
23.0
 40
23.0
 40
24.0
 40
24.0
 40
24.0
 40
25.0
 40
25.0
 40
25.0
 40
26.0
 40
26.0
 40
26.0
 40
27.0
 40
27.0
 40
27.0
 40
28.0
 40
28.0
 40
28.0
 40
29.0
 40
29.0
 40
29.0
 40
30.0
 40
30.0
 40
30.0
 40
31.0
 40
31.0
 40
31.0
 40
32.0
 40
32.0
 40
32.0
 40
33.0
 40
33.0
 40
33.0
 40
34.0
 40
34.0
 40
34.0
 40
35.0
 40
35.0
 40
35.0
 40
36.0
 40
36.0
 40
36.0
 40
37.0
 40
37.0
 40
37.0
 40
38.0
 40
38.0
 40
38.0
 40
39.0
 40
39.0
 40
39.0
 40
40.0
 40
40.0
 40
40.0
 40
41.0
 40
41.0
 40
41.0
 40
42.0
 40
42.0
 40
42.0
 40
43.0
 40
43.0
 40
43.0
 40
44.0
 40
44.0
 40
44.0
 40
45.0
 40
45.0
 40
45.0
 40
46.0
 40
46.0
 40
46.0
 40
47.0
 40
47.0
 40
47.0
 40
48.0
 40
48.0
 40
48.0
 40
49.0
 40
49.0
 40
49.0
 40
50.0
 40
50.0
 40
50.0
 40
51.0
 40
51.0
 40
51.0
 40
52.0
 40
52.0
 40
52.0
 40
53.0
 40
53.0
 40
53.0
 40
54.0
 40
54.0
 40
54.0
 40
55.0
 40
55.0
 40
55.0
 40
56.0
 40
56.0
 40
56.0
 40
57.0
 40
57.0
 40
57.0
 40
58.0
 40
58.0
 40
58.0
 40
59.0
 40
59.0
 40
59.0
 40
60.0
 40
60.0
 40
60.0
 40
61.0
 40
61.0
 40
61.0
 40
62.0
 40
62.0
 40
62.0
 40
63.0
 40
63.0
 40
63.0
 40
64.0
 40
64.0
 40
64.0
 40
65.0
 40
65.0
 40
65.0
 40
66.0
 40
66.0
 40
66.0
 40
66.0
 10
100.2443549011542
 20
-121.781024817645
 30
0.0
 10
100.2443549011542
 20
-121.781024817645
 30
0.0
 10
99.68556041344667
 20
-121.781024817645
 30
0.0
 10
99.68556041344667
 20
-121.781024817645
 30
0.0
 10
99.67522512699092
 20
-121.8254665494048
 30
0.0
 10
99.6666123882778
 20
-121.857161427869
 30
0.0
 10
99.65386553498237
 20
-121.8954019877553
 30
0.0
 10
99.67935924157322
 20
-121.8954019877553
 30
0.0
 10
99.69417315215979
 20
-121.8974690450465
 30
0.0
 10
99.70037432403325
 20
-121.8974690450465
 30
0.0
 10
99.70037432403325
 20
-121.8974690450465
 30
0.0
 10
99.8888210470764
 20
-121.8974690450465
 30
0.0
 10
99.8888210470764
 20
-121.8974690450465
 30
0.0
 10
99.8888210470764
 20
-121.8974690450465
 30
0.0
 10
100.2633029263231
 20
-121.8974690450465
 30
0.0
 10
100.2633029263231
 20
-121.8974690450465
 30
0.0
 10
100.3139458299562
 20
-121.8974690450465
 30
0.0
 10
100.5974771883923
 20
-121.8847221917511
 30
0.0
 10
100.6291720668566
 20
-121.8847221917511
 30
0.0
 10
100.6271050095655
 20
-121.912282955633
 30
0.0
 10
100.6250379522743
 20
-121.9312309808019
 30
0.0
 10
100.6250379522743
 20
-121.9608588019751
 30
0.0
 10
100.6229708949832
 20
-121.9925536804394
 30
0.0
 10
100.6229708949832
 20
-122.1279459330097
 30
0.0
 10
100.6229708949832
 20
-122.1555066968917
 30
0.0
 10
100.6229708949832
 20
-122.1555066968917
 30
0.0
 10
100.6229708949832
 20
-122.4009697502157
 30
0.0
 10
100.6229708949832
 20
-122.4009697502157
 30
0.0
 10
100.6229708949832
 20
-122.4454114819755
 30
0.0
 10
100.6271050095655
 20
-122.6421264341832
 30
0.0
 10
100.6312391241478
 20
-122.7943996546313
 30
0.0
 10
100.6312391241478
 20
-122.7943996546313
 30
0.0
 10
100.4048963507668
 20
-122.7943996546313
 30
0.0
 10
100.4048963507668
 20
-122.7943996546313
 30
0.0
 10
100.4048963507668
 20
-122.7943996546313
 30
0.0
 10
100.406963408058
 20
-122.7606377188758
 30
0.0
 10
100.406963408058
 20
-122.7606377188758
 30
0.0
 10
100.406963408058
 20
-122.7606377188758
 30
0.0
 10
99.70485294816407
 20
-122.7606377188758
 30
0.0
 10
99.70485294816407
 20
-122.7606377188758
 30
0.0
 10
99.70485294816407
 20
-122.7606377188758
 30
0.0
 10
99.70692000545522
 20
-122.7943996546313
 30
0.0
 10
99.70692000545522
 20
-122.7943996546313
 30
0.0
 10
99.70692000545522
 20
-122.7943996546313
 30
0.0
 10
99.48884546123891
 20
-122.7943996546313
 30
0.0
 10
99.48884546123891
 20
-122.7943996546313
 30
0.0
 10
99.49332408536974
 20
-122.7394503816415
 30
0.0
 10
99.49332408536974
 20
-122.7267035283461
 30
0.0
 10
99.49952525724318
 20
-122.6124986130101
 30
0.0
 10
99.50159231453434
 20
-122.5849378491281
 30
0.0
 10
99.50365937182548
 20
-122.4517849086232
 30
0.0
 10
99.50365937182548
 20
-122.43266462868
 30
0.0
 10
99.50365937182548
 20
-122.43266462868
 30
0.0
 10
99.50365937182548
 20
-122.2295762498246
 30
0.0
 10
99.50365937182548
 20
-122.2295762498246
 30
0.0
 10
99.36413300467287
 20
-122.4791734177309
 30
0.0
 10
99.19497881634709
 20
-122.6104315557189
 30
0.0
 10
99.08921438494993
 20
-122.6758883699387
 30
0.0
 10
99.08921438494993
 20
-122.6758883699387
 30
0.0
 10
98.91558157249334
 20
-122.536362002786
 30
0.0
 10
98.91558157249334
 20
-122.536362002786
 30
0.0
 10
99.00446503601277
 20
-122.4855468443786
 30
0.0
 10
99.14847002729623
 20
-122.3987304381503
 30
0.0
 10
99.28592933715768
 20
-122.204254798008
 30
0.0
 10
99.37687985796829
 20
-122.0773030293765
 30
0.0
 10
99.44233667218803
 20
-121.9334702928673
 30
0.0
 10
99.47609860794348
 20
-121.781024817645
 30
0.0
 10
99.24768877727142
 20
-121.7832641297104
 30
0.0
 10
99.06785479294138
 20
-121.7896375563582
 30
0.0
 10
98.97277015754848
 20
-121.7917046136493
 30
0.0
 10
98.97277015754848
 20
-121.7917046136493
 30
0.0
 10
98.97277015754848
 20
-121.6139376866104
 30
0.0
 10
98.97277015754848
 20
-121.6139376866104
 30
0.0
 10
99.16948510975624
 20
-121.6203111132581
 30
0.0
 10
99.4530164681923
 20
-121.6246174826147
 30
0.0
 10
99.6032226313492
 20
-121.6246174826147
 30
0.0
 10
99.6032226313492
 20
-121.6246174826147
 30
0.0
 10
99.8168185514347
 20
-121.6246174826147
 30
0.0
 10
99.8168185514347
 20
-121.6246174826147
 30
0.0
 10
99.8168185514347
 20
-121.6246174826147
 30
0.0
 10
99.8168185514347
 20
-121.5166137391521
 30
0.0
 10
99.8168185514347
 20
-121.5166137391521
 30
0.0
 10
99.8168185514347
 20
-121.5166137391521
 30
0.0
 10
99.6707465028601
 20
-121.5166137391521
 30
0.0
 10
99.6707465028601
 20
-121.5166137391521
 30
0.0
 10
99.50159231453434
 20
-121.5166137391521
 30
0.0
 10
99.33243812620856
 20
-121.5209201085087
 30
0.0
 10
99.16535099517394
 20
-121.5272935351564
 30
0.0
 10
99.16535099517394
 20
-121.5272935351564
 30
0.0
 10
99.16535099517394
 20
-121.3559000347652
 30
0.0
 10
99.16535099517394
 20
-121.3559000347652
 30
0.0
 10
99.31969127291313
 20
-121.3664075759952
 30
0.0
 10
99.50572642911663
 20
-121.3664075759952
 30
0.0
 10
99.6707465028601
 20
-121.3664075759952
 30
0.0
 10
99.6707465028601
 20
-121.3664075759952
 30
0.0
 10
99.8168185514347
 20
-121.3664075759952
 30
0.0
 10
99.8168185514347
 20
-121.3664075759952
 30
0.0
 10
99.8168185514347
 20
-121.3664075759952
 30
0.0
 10
99.8168185514347
 20
-121.2480685460769
 30
0.0
 10
99.8168185514347
 20
-121.2480685460769
 30
0.0
 10
99.8168185514347
 20
-121.2480685460769
 30
0.0
 10
99.68556041344667
 20
-121.2480685460769
 30
0.0
 10
99.68556041344667
 20
-121.2480685460769
 30
0.0
 10
99.63905162439579
 20
-121.2480685460769
 30
0.0
 10
99.43613550031458
 20
-121.2565090300157
 30
0.0
 10
99.393760825846
 20
-121.2565090300157
 30
0.0
 10
99.19084470176479
 20
-121.260643144598
 30
0.0
 10
99.11436358199225
 20
-121.2627102018892
 30
0.0
 10
99.03615991447708
 20
-121.2649495139546
 30
0.0
 10
99.03615991447708
 20
-121.2649495139546
 30
0.0
 10
99.03615991447708
 20
-121.080809160268
 30
0.0
 10
99.03615991447708
 20
-121.080809160268
 30
0.0
 10
99.15053708458737
 20
-121.0892496442069
 30
0.0
 10
99.19497881634709
 20
-121.0892496442069
 30
0.0
 10
99.57772892475835
 20
-121.09786238292
 30
0.0
 10
99.51433916782975
 20
-121.0026054927528
 30
0.0
 10
99.48677840394775
 20
-120.9750447288708
 30
0.0
 10
99.45094941090116
 20
-120.93904348105
 30
0.0
 10
99.45094941090116
 20
-120.93904348105
 30
0.0
 10
99.62630477110038
 20
-120.8565334441782
 30
0.0
 10
99.62630477110038
 20
-120.8565334441782
 30
0.0
 10
99.6666123882778
 20
-120.8925346919991
 30
0.0
 10
99.71105412003752
 20
-120.9349093664677
 30
0.0
 10
99.78512367297039
 20
-121.0448079124471
 30
0.0
 10
99.78512367297039
 20
-121.0448079124471
 30
0.0
 10
99.6707465028601
 20
-121.0999294402111
 30
0.0
 10
99.6707465028601
 20
-121.0999294402111
 30
0.0
 10
99.6707465028601
 20
-121.0999294402111
 30
0.0
 10
99.68142629886437
 20
-121.0999294402111
 30
0.0
 10
99.68142629886437
 20
-121.0999294402111
 30
0.0
 10
99.68142629886437
 20
-121.0999294402111
 30
0.0
 10
100.2040472839768
 20
-121.0999294402111
 30
0.0
 10
100.2040472839768
 20
-121.0999294402111
 30
0.0
 10
100.2040472839768
 20
-121.0999294402111
 30
0.0
 10
100.1089626485839
 20
-121.0554877084514
 30
0.0
 10
100.1089626485839
 20
-121.0554877084514
 30
0.0
 10
100.1361789029174
 20
-121.0174194033394
 30
0.0
 10
100.1933674879725
 20
-120.9369764237588
 30
0.0
 10
100.2081813985591
 20
-120.862906870826
 30
0.0
 10
100.2081813985591
 20
-120.862906870826
 30
0.0
 10
100.4217773186446
 20
-120.9264688825288
 30
0.0
 10
100.4217773186446
 20
-120.9264688825288
 30
0.0
 10
100.4303900573577
 20
-120.92853593982
 30
0.0
 10
100.4514051398177
 20
-120.93904348105
 30
0.0
 10
100.4514051398177
 20
-120.9602308182843
 30
0.0
 10
100.4514051398177
 20
-120.9982991233963
 30
0.0
 10
100.385948325598
 20
-120.9982991233963
 30
0.0
 10
100.3670003004291
 20
-120.9982991233963
 30
0.0
 10
100.3563205044248
 20
-121.0174194033394
 30
0.0
 10
100.3328938551251
 20
-121.0575547657426
 30
0.0
 10
100.303266033952
 20
-121.09786238292
 30
0.0
 10
100.7032416197895
 20
-121.0914889562723
 30
0.0
 10
100.7328694409626
 20
-121.0892496442069
 30
0.0
 10
100.8090060511866
 20
-121.0830484723334
 30
0.0
 10
100.8090060511866
 20
-121.0830484723334
 30
0.0
 10
100.8090060511866
 20
-121.2649495139546
 30
0.0
 10
100.8090060511866
 20
-121.2649495139546
 30
0.0
 10
100.7900580260178
 20
-121.2649495139546
 30
0.0
 10
100.7645643194269
 20
-121.2627102018892
 30
0.0
 10
100.544767227468
 20
-121.2542697179503
 30
0.0
 10
100.4937798142863
 20
-121.2522026606592
 30
0.0
 10
100.2739827223273
 20
-121.2480685460769
 30
0.0
 10
100.2295409905676
 20
-121.2480685460769
 30
0.0
 10
100.2295409905676
 20
-121.2480685460769
 30
0.0
 10
100.0135335036424
 20
-121.2480685460769
 30
0.0
 10
100.0135335036424
 20
-121.2480685460769
 30
0.0
 10
100.0135335036424
 20
-121.2480685460769
 30
0.0
 10
100.0135335036424
 20
-121.3664075759952
 30
0.0
 10
100.0135335036424
 20
-121.3664075759952
 30
0.0
 10
100.0135335036424
 20
-121.3664075759952
 30
0.0
 10
100.1871663160991
 20
-121.3664075759952
 30
0.0
 10
100.1871663160991
 20
-121.3664075759952
 30
0.0
 10
100.3501193325514
 20
-121.3664075759952
 30
0.0
 10
100.5402886033372
 20
-121.3664075759952
 30
0.0
 10
100.697040447916
 20
-121.3559000347652
 30
0.0
 10
100.697040447916
 20
-121.3559000347652
 30
0.0
 10
100.697040447916
 20
-121.5272935351564
 30
0.0
 10
100.697040447916
 20
-121.5272935351564
 30
0.0
 10
100.4875786424128
 20
-121.5188530512175
 30
0.0
 10
100.2908636902051
 20
-121.5166137391521
 30
0.0
 10
100.1871663160991
 20
-121.5166137391521
 30
0.0
 10
100.1871663160991
 20
-121.5166137391521
 30
0.0
 10
100.0135335036424
 20
-121.5166137391521
 30
0.0
 10
100.0135335036424
 20
-121.5166137391521
 30
0.0
 10
100.0135335036424
 20
-121.5166137391521
 30
0.0
 10
100.0135335036424
 20
-121.6246174826147
 30
0.0
 10
100.0135335036424
 20
-121.6246174826147
 30
0.0
 10
100.0135335036424
 20
-121.6246174826147
 30
0.0
 10
100.2443549011542
 20
-121.6246174826147
 30
0.0
 10
100.2443549011542
 20
-121.6246174826147
 30
0.0
 10
100.3773355868848
 20
-121.6246174826147
 30
0.0
 10
100.6653455694517
 20
-121.6203111132581
 30
0.0
 10
100.8744628654064
 20
-121.6139376866104
 30
0.0
 10
100.8744628654064
 20
-121.6139376866104
 30
0.0
 10
100.8744628654064
 20
-121.7917046136493
 30
0.0
 10
100.8744628654064
 20
-121.7917046136493
 30
0.0
 10
100.6822265373294
 20
-121.7853311870016
 30
0.0
 10
100.3690673577202
 20
-121.781024817645
 30
0.0
 10
100.2443549011542
 20
-121.781024817645
 30
0.0
  0
POLYLINE
  5
1D6
330
1CD
100
AcDbEntity
  8
_U+30EC_U+30A4_U+30E4_U+30FC 1
370
     0
100
AcDb2dPolyline
 66
     1
 10
0.0
 20
0.0
 30
0.0
  0
VERTEX
  5
1D7
330
1D6
100
AcDbEntity
  8
_U+30EC_U+30A4_U+30E4_U+30FC 1
370
     0
100
AcDbVertex
100
AcDb2dVertex
 10
100.4093749748977
 20
-122.0369954121991
 30
0.0
  0
VERTEX
  5
1D8
330
1D6
100
AcDbEntity
  8
_U+30EC_U+30A4_U+30E4_U+30FC 1
370
     0
100
AcDbVertex
100
AcDb2dVertex
 10
99.70278589087292
 20
-122.0369954121991
 30
0.0
  0
VERTEX
  5
1D9
330
1D6
100
AcDbEntity
  8
_U+30EC_U+30A4_U+30E4_U+30FC 1
370
     0
100
AcDbVertex
100
AcDb2dVertex
 10
99.70278589087292
 20
-122.1449991556617
 30
0.0
  0
VERTEX
  5
1DA
330
1D6
100
AcDbEntity
  8
_U+30EC_U+30A4_U+30E4_U+30FC 1
370
     0
100
AcDbVertex
100
AcDb2dVertex
 10
100.4093749748977
 20
-122.1449991556617
 30
0.0
  0
VERTEX
  5
1DB
330
1D6
100
AcDbEntity
  8
_U+30EC_U+30A4_U+30E4_U+30FC 1
370
     0
100
AcDbVertex
100
AcDb2dVertex
 10
100.4093749748977
 20
-122.0369954121991
 30
0.0
  0
SEQEND
  5
1DC
330
1D6
100
AcDbEntity
  8
_U+30EC_U+30A4_U+30E4_U+30FC 1
370
     0
  0
POLYLINE
  5
1DD
330
1CD
100
AcDbEntity
  8
_U+30EC_U+30A4_U+30E4_U+30FC 1
370
     0
100
AcDb2dPolyline
 66
     1
 10
0.0
 20
0.0
 30
0.0
  0
VERTEX
  5
1DE
330
1DD
100
AcDbEntity
  8
_U+30EC_U+30A4_U+30E4_U+30FC 1
370
     0
100
AcDbVertex
100
AcDb2dVertex
 10
100.4093749748977
 20
-122.2697116122277
 30
0.0
  0
VERTEX
  5
1DF
330
1DD
100
AcDbEntity
  8
_U+30EC_U+30A4_U+30E4_U+30FC 1
370
     0
100
AcDbVertex
100
AcDb2dVertex
 10
99.70278589087292
 20
-122.2697116122277
 30
0.0
  0
VERTEX
  5
1E0
330
1DD
100
AcDbEntity
  8
_U+30EC_U+30A4_U+30E4_U+30FC 1
370
     0
100
AcDbVertex
100
AcDb2dVertex
 10
99.70278589087292
 20
-122.384088782338
 30
0.0
  0
VERTEX
  5
1E1
330
1DD
100
AcDbEntity
  8
_U+30EC_U+30A4_U+30E4_U+30FC 1
370
     0
100
AcDbVertex
100
AcDb2dVertex
 10
100.4093749748977
 20
-122.384088782338
 30
0.0
  0
VERTEX
  5
1E2
330
1DD
100
AcDbEntity
  8
_U+30EC_U+30A4_U+30E4_U+30FC 1
370
     0
100
AcDbVertex
100
AcDb2dVertex
 10
100.4093749748977
 20
-122.2697116122277
 30
0.0
  0
SEQEND
  5
1E3
330
1DD
100
AcDbEntity
  8
_U+30EC_U+30A4_U+30E4_U+30FC 1
370
     0
  0
POLYLINE
  5
1E4
330
1CD
100
AcDbEntity
  8
_U+30EC_U+30A4_U+30E4_U+30FC 1
370
     0
100
AcDb2dPolyline
 66
     1
 10
0.0
 20
0.0
 30
0.0
  0
VERTEX
  5
1E5
330
1E4
100
AcDbEntity
  8
_U+30EC_U+30A4_U+30E4_U+30FC 1
370
     0
100
AcDbVertex
100
AcDb2dVertex
 10
100.4093749748977
 20
-122.5131076082606
 30
0.0
  0
VERTEX
  5
1E6
330
1E4
100
AcDbEntity
  8
_U+30EC_U+30A4_U+30E4_U+30FC 1
370
     0
100
AcDbVertex
100
AcDb2dVertex
 10
99.70278589087292
 20
-122.5131076082606
 30
0.0
  0
VERTEX
  5
1E7
330
1E4
100
AcDbEntity
  8
_U+30EC_U+30A4_U+30E4_U+30FC 1
370
     0
100
AcDbVertex
100
AcDb2dVertex
 10
99.70278589087292
 20
-122.6273125235966
 30
0.0
  0
VERTEX
  5
1E8
330
1E4
100
AcDbEntity
  8
_U+30EC_U+30A4_U+30E4_U+30FC 1
370
     0
100
AcDbVertex
100
AcDb2dVertex
 10
100.4093749748977
 20
-122.6273125235966
 30
0.0
  0
VERTEX
  5
1E9
330
1E4
100
AcDbEntity
  8
_U+30EC_U+30A4_U+30E4_U+30FC 1
370
     0
100
AcDbVertex
100
AcDb2dVertex
 10
100.4093749748977
 20
-122.5131076082606
 30
0.0
  0
SEQEND
  5
1EA
330
1E4
100
AcDbEntity
  8
_U+30EC_U+30A4_U+30E4_U+30FC 1
370
     0
  0
HATCH
  5
1EB
330
1CD
100
AcDbEntity
  8
_U+30EC_U+30A4_U+30E4_U+30FC 1
 62
     7
420
 16777215
100
AcDbHatch
 10
0.0
 20
0.0
 30
0.0
210
0.0
220
0.0
230
1.0
  2
SOLID
 70
     1
 71
     0
 91
        4
 92
        1
 93
        1
 72
     4
 94
        3
 73
     0
 74
     1
 95
      203
 96
      199
 40
0.0
 40
0.0
 40
0.0
 40
0.0
 40
1.0
 40
1.0
 40
1.0
 40
2.0
 40
2.0
 40
2.0
 40
3.0
 40
3.0
 40
3.0
 40
4.0
 40
4.0
 40
4.0
 40
5.0
 40
5.0
 40
5.0
 40
6.0
 40
6.0
 40
6.0
 40
7.0
 40
7.0
 40
7.0
 40
8.0
 40
8.0
 40
8.0
 40
9.0
 40
9.0
 40
9.0
 40
10.0
 40
10.0
 40
10.0
 40
11.0
 40
11.0
 40
11.0
 40
12.0
 40
12.0
 40
12.0
 40
13.0
 40
13.0
 40
13.0
 40
14.0
 40
14.0
 40
14.0
 40
15.0
 40
15.0
 40
15.0
 40
16.0
 40
16.0
 40
16.0
 40
17.0
 40
17.0
 40
17.0
 40
18.0
 40
18.0
 40
18.0
 40
19.0
 40
19.0
 40
19.0
 40
20.0
 40
20.0
 40
20.0
 40
21.0
 40
21.0
 40
21.0
 40
22.0
 40
22.0
 40
22.0
 40
23.0
 40
23.0
 40
23.0
 40
24.0
 40
24.0
 40
24.0
 40
25.0
 40
25.0
 40
25.0
 40
26.0
 40
26.0
 40
26.0
 40
27.0
 40
27.0
 40
27.0
 40
28.0
 40
28.0
 40
28.0
 40
29.0
 40
29.0
 40
29.0
 40
30.0
 40
30.0
 40
30.0
 40
31.0
 40
31.0
 40
31.0
 40
32.0
 40
32.0
 40
32.0
 40
33.0
 40
33.0
 40
33.0
 40
34.0
 40
34.0
 40
34.0
 40
35.0
 40
35.0
 40
35.0
 40
36.0
 40
36.0
 40
36.0
 40
37.0
 40
37.0
 40
37.0
 40
38.0
 40
38.0
 40
38.0
 40
39.0
 40
39.0
 40
39.0
 40
40.0
 40
40.0
 40
40.0
 40
41.0
 40
41.0
 40
41.0
 40
42.0
 40
42.0
 40
42.0
 40
43.0
 40
43.0
 40
43.0
 40
44.0
 40
44.0
 40
44.0
 40
45.0
 40
45.0
 40
45.0
 40
46.0
 40
46.0
 40
46.0
 40
47.0
 40
47.0
 40
47.0
 40
48.0
 40
48.0
 40
48.0
 40
49.0
 40
49.0
 40
49.0
 40
50.0
 40
50.0
 40
50.0
 40
51.0
 40
51.0
 40
51.0
 40
52.0
 40
52.0
 40
52.0
 40
53.0
 40
53.0
 40
53.0
 40
54.0
 40
54.0
 40
54.0
 40
55.0
 40
55.0
 40
55.0
 40
56.0
 40
56.0
 40
56.0
 40
57.0
 40
57.0
 40
57.0
 40
58.0
 40
58.0
 40
58.0
 40
59.0
 40
59.0
 40
59.0
 40
60.0
 40
60.0
 40
60.0
 40
61.0
 40
61.0
 40
61.0
 40
62.0
 40
62.0
 40
62.0
 40
63.0
 40
63.0
 40
63.0
 40
64.0
 40
64.0
 40
64.0
 40
65.0
 40
65.0
 40
65.0
 40
66.0
 40
66.0
 40
66.0
 40
66.0
 10
100.2443549011542
 20
-121.781024817645
 10
100.2443549011542
 20
-121.781024817645
 10
99.68556041344667
 20
-121.781024817645
 10
99.68556041344667
 20
-121.781024817645
 10
99.67522512699092
 20
-121.8254665494048
 10
99.6666123882778
 20
-121.857161427869
 10
99.65386553498237
 20
-121.8954019877553
 10
99.67935924157322
 20
-121.8954019877553
 10
99.69417315215979
 20
-121.8974690450465
 10
99.70037432403325
 20
-121.8974690450465
 10
99.70037432403325
 20
-121.8974690450465
 10
99.8888210470764
 20
-121.8974690450465
 10
99.8888210470764
 20
-121.8974690450465
 10
99.8888210470764
 20
-121.8974690450465
 10
100.2633029263231
 20
-121.8974690450465
 10
100.2633029263231
 20
-121.8974690450465
 10
100.3139458299562
 20
-121.8974690450465
 10
100.5974771883923
 20
-121.8847221917511
 10
100.6291720668566
 20
-121.8847221917511
 10
100.6271050095655
 20
-121.912282955633
 10
100.6250379522743
 20
-121.9312309808019
 10
100.6250379522743
 20
-121.9608588019751
 10
100.6229708949832
 20
-121.9925536804394
 10
100.6229708949832
 20
-122.1279459330097
 10
100.6229708949832
 20
-122.1555066968917
 10
100.6229708949832
 20
-122.1555066968917
 10
100.6229708949832
 20
-122.4009697502157
 10
100.6229708949832
 20
-122.4009697502157
 10
100.6229708949832
 20
-122.4454114819755
 10
100.6271050095655
 20
-122.6421264341832
 10
100.6312391241478
 20
-122.7943996546313
 10
100.6312391241478
 20
-122.7943996546313
 10
100.4048963507668
 20
-122.7943996546313
 10
100.4048963507668
 20
-122.7943996546313
 10
100.4048963507668
 20
-122.7943996546313
 10
100.406963408058
 20
-122.7606377188758
 10
100.406963408058
 20
-122.7606377188758
 10
100.406963408058
 20
-122.7606377188758
 10
99.70485294816407
 20
-122.7606377188758
 10
99.70485294816407
 20
-122.7606377188758
 10
99.70485294816407
 20
-122.7606377188758
 10
99.70692000545522
 20
-122.7943996546313
 10
99.70692000545522
 20
-122.7943996546313
 10
99.70692000545522
 20
-122.7943996546313
 10
99.48884546123891
 20
-122.7943996546313
 10
99.48884546123891
 20
-122.7943996546313
 10
99.49332408536974
 20
-122.7394503816415
 10
99.49332408536974
 20
-122.7267035283461
 10
99.49952525724318
 20
-122.6124986130101
 10
99.50159231453434
 20
-122.5849378491281
 10
99.50365937182548
 20
-122.4517849086232
 10
99.50365937182548
 20
-122.43266462868
 10
99.50365937182548
 20
-122.43266462868
 10
99.50365937182548
 20
-122.2295762498246
 10
99.50365937182548
 20
-122.2295762498246
 10
99.36413300467287
 20
-122.4791734177309
 10
99.19497881634709
 20
-122.6104315557189
 10
99.08921438494993
 20
-122.6758883699387
 10
99.08921438494993
 20
-122.6758883699387
 10
98.91558157249334
 20
-122.536362002786
 10
98.91558157249334
 20
-122.536362002786
 10
99.00446503601277
 20
-122.4855468443786
 10
99.14847002729623
 20
-122.3987304381503
 10
99.28592933715768
 20
-122.204254798008
 10
99.37687985796829
 20
-122.0773030293765
 10
99.44233667218803
 20
-121.9334702928673
 10
99.47609860794348
 20
-121.781024817645
 10
99.24768877727142
 20
-121.7832641297104
 10
99.06785479294138
 20
-121.7896375563582
 10
98.97277015754848
 20
-121.7917046136493
 10
98.97277015754848
 20
-121.7917046136493
 10
98.97277015754848
 20
-121.6139376866104
 10
98.97277015754848
 20
-121.6139376866104
 10
99.16948510975624
 20
-121.6203111132581
 10
99.4530164681923
 20
-121.6246174826147
 10
99.6032226313492
 20
-121.6246174826147
 10
99.6032226313492
 20
-121.6246174826147
 10
99.8168185514347
 20
-121.6246174826147
 10
99.8168185514347
 20
-121.6246174826147
 10
99.8168185514347
 20
-121.6246174826147
 10
99.8168185514347
 20
-121.5166137391521
 10
99.8168185514347
 20
-121.5166137391521
 10
99.8168185514347
 20
-121.5166137391521
 10
99.6707465028601
 20
-121.5166137391521
 10
99.6707465028601
 20
-121.5166137391521
 10
99.50159231453434
 20
-121.5166137391521
 10
99.33243812620856
 20
-121.5209201085087
 10
99.16535099517394
 20
-121.5272935351564
 10
99.16535099517394
 20
-121.5272935351564
 10
99.16535099517394
 20
-121.3559000347652
 10
99.16535099517394
 20
-121.3559000347652
 10
99.31969127291313
 20
-121.3664075759952
 10
99.50572642911663
 20
-121.3664075759952
 10
99.6707465028601
 20
-121.3664075759952
 10
99.6707465028601
 20
-121.3664075759952
 10
99.8168185514347
 20
-121.3664075759952
 10
99.8168185514347
 20
-121.3664075759952
 10
99.8168185514347
 20
-121.3664075759952
 10
99.8168185514347
 20
-121.2480685460769
 10
99.8168185514347
 20
-121.2480685460769
 10
99.8168185514347
 20
-121.2480685460769
 10
99.68556041344667
 20
-121.2480685460769
 10
99.68556041344667
 20
-121.2480685460769
 10
99.63905162439579
 20
-121.2480685460769
 10
99.43613550031458
 20
-121.2565090300157
 10
99.393760825846
 20
-121.2565090300157
 10
99.19084470176479
 20
-121.260643144598
 10
99.11436358199225
 20
-121.2627102018892
 10
99.03615991447708
 20
-121.2649495139546
 10
99.03615991447708
 20
-121.2649495139546
 10
99.03615991447708
 20
-121.080809160268
 10
99.03615991447708
 20
-121.080809160268
 10
99.15053708458737
 20
-121.0892496442069
 10
99.19497881634709
 20
-121.0892496442069
 10
99.57772892475835
 20
-121.09786238292
 10
99.51433916782975
 20
-121.0026054927528
 10
99.48677840394775
 20
-120.9750447288708
 10
99.45094941090116
 20
-120.93904348105
 10
99.45094941090116
 20
-120.93904348105
 10
99.62630477110038
 20
-120.8565334441782
 10
99.62630477110038
 20
-120.8565334441782
 10
99.6666123882778
 20
-120.8925346919991
 10
99.71105412003752
 20
-120.9349093664677
 10
99.78512367297039
 20
-121.0448079124471
 10
99.78512367297039
 20
-121.0448079124471
 10
99.6707465028601
 20
-121.0999294402111
 10
99.6707465028601
 20
-121.0999294402111
 10
99.6707465028601
 20
-121.0999294402111
 10
99.68142629886437
 20
-121.0999294402111
 10
99.68142629886437
 20
-121.0999294402111
 10
99.68142629886437
 20
-121.0999294402111
 10
100.2040472839768
 20
-121.0999294402111
 10
100.2040472839768
 20
-121.0999294402111
 10
100.2040472839768
 20
-121.0999294402111
 10
100.1089626485839
 20
-121.0554877084514
 10
100.1089626485839
 20
-121.0554877084514
 10
100.1361789029174
 20
-121.0174194033394
 10
100.1933674879725
 20
-120.9369764237588
 10
100.2081813985591
 20
-120.862906870826
 10
100.2081813985591
 20
-120.862906870826
 10
100.4217773186446
 20
-120.9264688825288
 10
100.4217773186446
 20
-120.9264688825288
 10
100.4303900573577
 20
-120.92853593982
 10
100.4514051398177
 20
-120.93904348105
 10
100.4514051398177
 20
-120.9602308182843
 10
100.4514051398177
 20
-120.9982991233963
 10
100.385948325598
 20
-120.9982991233963
 10
100.3670003004291
 20
-120.9982991233963
 10
100.3563205044248
 20
-121.0174194033394
 10
100.3328938551251
 20
-121.0575547657426
 10
100.303266033952
 20
-121.09786238292
 10
100.7032416197895
 20
-121.0914889562723
 10
100.7328694409626
 20
-121.0892496442069
 10
100.8090060511866
 20
-121.0830484723334
 10
100.8090060511866
 20
-121.0830484723334
 10
100.8090060511866
 20
-121.2649495139546
 10
100.8090060511866
 20
-121.2649495139546
 10
100.7900580260178
 20
-121.2649495139546
 10
100.7645643194269
 20
-121.2627102018892
 10
100.544767227468
 20
-121.2542697179503
 10
100.4937798142863
 20
-121.2522026606592
 10
100.2739827223273
 20
-121.2480685460769
 10
100.2295409905676
 20
-121.2480685460769
 10
100.2295409905676
 20
-121.2480685460769
 10
100.0135335036424
 20
-121.2480685460769
 10
100.0135335036424
 20
-121.2480685460769
 10
100.0135335036424
 20
-121.2480685460769
 10
100.0135335036424
 20
-121.3664075759952
 10
100.0135335036424
 20
-121.3664075759952
 10
100.0135335036424
 20
-121.3664075759952
 10
100.1871663160991
 20
-121.3664075759952
 10
100.1871663160991
 20
-121.3664075759952
 10
100.3501193325514
 20
-121.3664075759952
 10
100.5402886033372
 20
-121.3664075759952
 10
100.697040447916
 20
-121.3559000347652
 10
100.697040447916
 20
-121.3559000347652
 10
100.697040447916
 20
-121.5272935351564
 10
100.697040447916
 20
-121.5272935351564
 10
100.4875786424128
 20
-121.5188530512175
 10
100.2908636902051
 20
-121.5166137391521
 10
100.1871663160991
 20
-121.5166137391521
 10
100.1871663160991
 20
-121.5166137391521
 10
100.0135335036424
 20
-121.5166137391521
 10
100.0135335036424
 20
-121.5166137391521
 10
100.0135335036424
 20
-121.5166137391521
 10
100.0135335036424
 20
-121.6246174826147
 10
100.0135335036424
 20
-121.6246174826147
 10
100.0135335036424
 20
-121.6246174826147
 10
100.2443549011542
 20
-121.6246174826147
 10
100.2443549011542
 20
-121.6246174826147
 10
100.3773355868848
 20
-121.6246174826147
 10
100.6653455694517
 20
-121.6203111132581
 10
100.8744628654064
 20
-121.6139376866104
 10
100.8744628654064
 20
-121.6139376866104
 10
100.8744628654064
 20
-121.7917046136493
 10
100.8744628654064
 20
-121.7917046136493
 10
100.6822265373294
 20
-121.7853311870016
 10
100.3690673577202
 20
-121.781024817645
 10
100.2443549011542
 20
-121.781024817645
 97
        0
 97
        0
 92
        1
 93
        4
 72
     1
 10
100.4093749748977
 20
-122.0369954121991
 11
99.70278589087292
 21
-122.0369954121991
 72
     1
 10
99.70278589087292
 20
-122.0369954121991
 11
99.70278589087292
 21
-122.1449991556617
 72
     1
 10
99.70278589087292
 20
-122.1449991556617
 11
100.4093749748977
 21
-122.1449991556617
 72
     1
 10
100.4093749748977
 20
-122.1449991556617
 11
100.4093749748977
 21
-122.0369954121991
 97
        0
 92
        1
 93
        4
 72
     1
 10
100.4093749748977
 20
-122.2697116122277
 11
99.70278589087292
 21
-122.2697116122277
 72
     1
 10
99.70278589087292
 20
-122.2697116122277
 11
99.70278589087292
 21
-122.384088782338
 72
     1
 10
99.70278589087292
 20
-122.384088782338
 11
100.4093749748977
 21
-122.384088782338
 72
     1
 10
100.4093749748977
 20
-122.384088782338
 11
100.4093749748977
 21
-122.2697116122277
 97
        0
 92
        1
 93
        4
 72
     1
 10
100.4093749748977
 20
-122.5131076082606
 11
99.70278589087292
 21
-122.5131076082606
 72
     1
 10
99.70278589087292
 20
-122.5131076082606
 11
99.70278589087292
 21
-122.6273125235966
 72
     1
 10
99.70278589087292
 20
-122.6273125235966
 11
100.4093749748977
 21
-122.6273125235966
 72
     1
 10
100.4093749748977
 20
-122.6273125235966
 11
100.4093749748977
 21
-122.5131076082606
 97
        0
 75
     2
 76
     1
 98
        0
  0
SPLINE
  5
1EC
330
1CD
100
AcDbEntity
  8
_U+30EC_U+30A4_U+30E4_U+30FC 1
370
     0
100
AcDbSpline
210
0.0
220
0.0
230
1.0
 70
    11
 71
     3
 72
    47
 73
    43
 74
     0
 42
0.0000000001
 43
0.0000000001
 12
1.0
 22
0.0
 32
0.0
 13
1.0
 23
0.0
 33
0.0
 40
0.0
 40
0.0
 40
0.0
 40
0.0
 40
1.0
 40
1.0
 40
1.0
 40
2.0
 40
2.0
 40
2.0
 40
3.0
 40
3.0
 40
3.0
 40
4.0
 40
4.0
 40
4.0
 40
5.0
 40
5.0
 40
5.0
 40
6.0
 40
6.0
 40
6.0
 40
7.0
 40
7.0
 40
7.0
 40
8.0
 40
8.0
 40
8.0
 40
9.0
 40
9.0
 40
9.0
 40
10.0
 40
10.0
 40
10.0
 40
11.0
 40
11.0
 40
11.0
 40
12.0
 40
12.0
 40
12.0
 40
13.0
 40
13.0
 40
13.0
 40
14.0
 40
14.0
 40
14.0
 40
14.0
 10
102.2211506905905
 20
-121.7577704231196
 30
0.0
 10
102.2211506905905
 20
-121.7577704231196
 30
0.0
 10
102.1195203737757
 20
-121.7577704231196
 30
0.0
 10
102.1195203737757
 20
-121.7577704231196
 30
0.0
 10
102.1195203737757
 20
-121.8445868293479
 30
0.0
 10
102.0985052913157
 20
-122.2338826191811
 30
0.0
 10
101.9014458295594
 20
-122.4538519659143
 30
0.0
 10
101.7491726091113
 20
-122.6230061542401
 30
0.0
 10
101.5421223704478
 20
-122.6929415925907
 30
0.0
 10
101.4573730215107
 20
-122.7203301016984
 30
0.0
 10
101.4573730215107
 20
-122.7203301016984
 30
0.0
 10
101.262725126594
 20
-122.5532429706638
 30
0.0
 10
101.262725126594
 20
-122.5532429706638
 30
0.0
 10
101.3598768192781
 20
-122.5404961173683
 30
0.0
 10
101.5355766890258
 20
-122.5172417228429
 30
0.0
 10
101.724023412069
 20
-122.328967254574
 30
0.0
 10
101.7980929650019
 20
-122.2571370137066
 30
0.0
 10
101.9014458295594
 20
-122.1174383917797
 30
0.0
 10
101.9014458295594
 20
-121.7577704231196
 30
0.0
 10
101.9014458295594
 20
-121.7577704231196
 30
0.0
 10
101.6709689415962
 20
-121.7577704231196
 30
0.0
 10
101.6709689415962
 20
-121.7577704231196
 30
0.0
 10
101.4849337853927
 20
-121.7577704231196
 30
0.0
 10
101.2985541196406
 20
-121.7620767924762
 30
0.0
 10
101.1125189634372
 20
-121.7768907030627
 30
0.0
 10
101.1125189634372
 20
-121.7768907030627
 30
0.0
 10
101.1125189634372
 20
-121.5569213563295
 30
0.0
 10
101.1125189634372
 20
-121.5569213563295
 30
0.0
 10
101.3009656864803
 20
-121.5717352669161
 30
0.0
 10
101.5865641022075
 20
-121.5758693814984
 30
0.0
 10
101.6709689415962
 20
-121.5758693814984
 30
0.0
 10
101.6709689415962
 20
-121.5758693814984
 30
0.0
 10
102.2211506905905
 20
-121.5758693814984
 30
0.0
 10
102.2211506905905
 20
-121.5758693814984
 30
0.0
 10
102.2400987157594
 20
-121.5758693814984
 30
0.0
 10
102.5573920099509
 20
-121.5758693814984
 30
0.0
 10
102.785801840623
 20
-121.5569213563295
 30
0.0
 10
102.785801840623
 20
-121.5569213563295
 30
0.0
 10
102.785801840623
 20
-121.7768907030627
 30
0.0
 10
102.785801840623
 20
-121.7768907030627
 30
0.0
 10
102.5976996271284
 20
-121.7620767924762
 30
0.0
 10
102.4092529040852
 20
-121.7577704231196
 30
0.0
 10
102.2211506905905
 20
-121.7577704231196
 30
0.0
  0
SPLINE
  5
1ED
330
1CD
100
AcDbEntity
  8
_U+30EC_U+30A4_U+30E4_U+30FC 1
370
     0
100
AcDbSpline
210
0.0
220
0.0
230
1.0
 70
    11
 71
     3
 72
    29
 73
    25
 74
     0
 42
0.0000000001
 43
0.0000000001
 12
1.0
 22
0.0
 32
0.0
 13
1.0
 23
0.0
 33
0.0
 40
0.0
 40
0.0
 40
0.0
 40
0.0
 40
1.0
 40
1.0
 40
1.0
 40
2.0
 40
2.0
 40
2.0
 40
3.0
 40
3.0
 40
3.0
 40
4.0
 40
4.0
 40
4.0
 40
5.0
 40
5.0
 40
5.0
 40
6.0
 40
6.0
 40
6.0
 40
7.0
 40
7.0
 40
7.0
 40
8.0
 40
8.0
 40
8.0
 40
8.0
 10
102.1195203737757
 20
-121.2289482661337
 30
0.0
 10
102.1195203737757
 20
-121.2289482661337
 30
0.0
 10
101.7663980865376
 20
-121.2289482661337
 30
0.0
 10
101.7663980865376
 20
-121.2289482661337
 30
0.0
 10
101.6540879737184
 20
-121.2289482661337
 30
0.0
 10
101.5145616065658
 20
-121.2353216927815
 30
0.0
 10
101.4067301178775
 20
-121.2480685460769
 30
0.0
 10
101.4067301178775
 20
-121.2480685460769
 30
0.0
 10
101.4067301178775
 20
-121.0131130339828
 30
0.0
 10
101.4067301178775
 20
-121.0131130339828
 30
0.0
 10
101.5248968930216
 20
-121.0279269445694
 30
0.0
 10
101.7092095014824
 20
-121.032233313926
 30
0.0
 10
101.7663980865376
 20
-121.032233313926
 30
0.0
 10
101.7663980865376
 20
-121.032233313926
 30
0.0
 10
102.1195203737757
 20
-121.032233313926
 30
0.0
 10
102.1195203737757
 20
-121.032233313926
 30
0.0
 10
102.1384683989446
 20
-121.032233313926
 30
0.0
 10
102.3417290325743
 20
-121.032233313926
 30
0.0
 10
102.4833224570181
 20
-121.0131130339828
 30
0.0
 10
102.4833224570181
 20
-121.0131130339828
 30
0.0
 10
102.4833224570181
 20
-121.2480685460769
 30
0.0
 10
102.4833224570181
 20
-121.2480685460769
 30
0.0
 10
102.3269151219877
 20
-121.2289482661337
 30
0.0
 10
102.1364013416534
 20
-121.2289482661337
 30
0.0
 10
102.1195203737757
 20
-121.2289482661337
 30
0.0
  0
HATCH
  5
1EE
330
1CD
100
AcDbEntity
  8
_U+30EC_U+30A4_U+30E4_U+30FC 1
 62
     7
420
 16777215
100
AcDbHatch
 10
0.0
 20
0.0
 30
0.0
210
0.0
220
0.0
230
1.0
  2
SOLID
 70
     1
 71
     0
 91
        2
 92
        1
 93
        1
 72
     4
 94
        3
 73
     0
 74
     1
 95
       47
 96
       43
 40
0.0
 40
0.0
 40
0.0
 40
0.0
 40
1.0
 40
1.0
 40
1.0
 40
2.0
 40
2.0
 40
2.0
 40
3.0
 40
3.0
 40
3.0
 40
4.0
 40
4.0
 40
4.0
 40
5.0
 40
5.0
 40
5.0
 40
6.0
 40
6.0
 40
6.0
 40
7.0
 40
7.0
 40
7.0
 40
8.0
 40
8.0
 40
8.0
 40
9.0
 40
9.0
 40
9.0
 40
10.0
 40
10.0
 40
10.0
 40
11.0
 40
11.0
 40
11.0
 40
12.0
 40
12.0
 40
12.0
 40
13.0
 40
13.0
 40
13.0
 40
14.0
 40
14.0
 40
14.0
 40
14.0
 10
102.2211506905905
 20
-121.7577704231196
 10
102.2211506905905
 20
-121.7577704231196
 10
102.1195203737757
 20
-121.7577704231196
 10
102.1195203737757
 20
-121.7577704231196
 10
102.1195203737757
 20
-121.8445868293479
 10
102.0985052913157
 20
-122.2338826191811
 10
101.9014458295594
 20
-122.4538519659143
 10
101.7491726091113
 20
-122.6230061542401
 10
101.5421223704478
 20
-122.6929415925907
 10
101.4573730215107
 20
-122.7203301016984
 10
101.4573730215107
 20
-122.7203301016984
 10
101.262725126594
 20
-122.5532429706638
 10
101.262725126594
 20
-122.5532429706638
 10
101.3598768192781
 20
-122.5404961173683
 10
101.5355766890258
 20
-122.5172417228429
 10
101.724023412069
 20
-122.328967254574
 10
101.7980929650019
 20
-122.2571370137066
 10
101.9014458295594
 20
-122.1174383917797
 10
101.9014458295594
 20
-121.7577704231196
 10
101.9014458295594
 20
-121.7577704231196
 10
101.6709689415962
 20
-121.7577704231196
 10
101.6709689415962
 20
-121.7577704231196
 10
101.4849337853927
 20
-121.7577704231196
 10
101.2985541196406
 20
-121.7620767924762
 10
101.1125189634372
 20
-121.7768907030627
 10
101.1125189634372
 20
-121.7768907030627
 10
101.1125189634372
 20
-121.5569213563295
 10
101.1125189634372
 20
-121.5569213563295
 10
101.3009656864803
 20
-121.5717352669161
 10
101.5865641022075
 20
-121.5758693814984
 10
101.6709689415962
 20
-121.5758693814984
 10
101.6709689415962
 20
-121.5758693814984
 10
102.2211506905905
 20
-121.5758693814984
 10
102.2211506905905
 20
-121.5758693814984
 10
102.2400987157594
 20
-121.5758693814984
 10
102.5573920099509
 20
-121.5758693814984
 10
102.785801840623
 20
-121.5569213563295
 10
102.785801840623
 20
-121.5569213563295
 10
102.785801840623
 20
-121.7768907030627
 10
102.785801840623
 20
-121.7768907030627
 10
102.5976996271284
 20
-121.7620767924762
 10
102.4092529040852
 20
-121.7577704231196
 10
102.2211506905905
 20
-121.7577704231196
 97
        0
 97
        0
 92
        1
 93
        1
 72
     4
 94
        3
 73
     0
 74
     1
 95
       29
 96
       25
 40
0.0
 40
0.0
 40
0.0
 40
0.0
 40
1.0
 40
1.0
 40
1.0
 40
2.0
 40
2.0
 40
2.0
 40
3.0
 40
3.0
 40
3.0
 40
4.0
 40
4.0
 40
4.0
 40
5.0
 40
5.0
 40
5.0
 40
6.0
 40
6.0
 40
6.0
 40
7.0
 40
7.0
 40
7.0
 40
8.0
 40
8.0
 40
8.0
 40
8.0
 10
102.1195203737757
 20
-121.2289482661337
 10
102.1195203737757
 20
-121.2289482661337
 10
101.7663980865376
 20
-121.2289482661337
 10
101.7663980865376
 20
-121.2289482661337
 10
101.6540879737184
 20
-121.2289482661337
 10
101.5145616065658
 20
-121.2353216927815
 10
101.4067301178775
 20
-121.2480685460769
 10
101.4067301178775
 20
-121.2480685460769
 10
101.4067301178775
 20
-121.0131130339828
 10
101.4067301178775
 20
-121.0131130339828
 10
101.5248968930216
 20
-121.0279269445694
 10
101.7092095014824
 20
-121.032233313926
 10
101.7663980865376
 20
-121.032233313926
 10
101.7663980865376
 20
-121.032233313926
 10
102.1195203737757
 20
-121.032233313926
 10
102.1195203737757
 20
-121.032233313926
 10
102.1384683989446
 20
-121.032233313926
 10
102.3417290325743
 20
-121.032233313926
 10
102.4833224570181
 20
-121.0131130339828
 10
102.4833224570181
 20
-121.0131130339828
 10
102.4833224570181
 20
-121.2480685460769
 10
102.4833224570181
 20
-121.2480685460769
 10
102.3269151219877
 20
-121.2289482661337
 10
102.1364013416534
 20
-121.2289482661337
 10
102.1195203737757
 20
-121.2289482661337
 97
        0
 97
        0
 75
     2
 76
     1
 98
        0
  0
SPLINE
  5
1EF
330
1CD
100
AcDbEntity
  8
_U+30EC_U+30A4_U+30E4_U+30FC 1
370
     0
100
AcDbSpline
210
0.0
220
0.0
230
1.0
 70
    11
 71
     3
 72
    29
 73
    25
 74
     0
 42
0.0000000001
 43
0.0000000001
 12
1.0
 22
0.0
 32
0.0
 13
1.0
 23
0.0
 33
0.0
 40
0.0
 40
0.0
 40
0.0
 40
0.0
 40
1.0
 40
1.0
 40
1.0
 40
2.0
 40
2.0
 40
2.0
 40
3.0
 40
3.0
 40
3.0
 40
4.0
 40
4.0
 40
4.0
 40
5.0
 40
5.0
 40
5.0
 40
6.0
 40
6.0
 40
6.0
 40
7.0
 40
7.0
 40
7.0
 40
8.0
 40
8.0
 40
8.0
 40
8.0
 10
104.0670328515874
 20
-121.9207234395719
 30
0.0
 10
104.0670328515874
 20
-121.9207234395719
 30
0.0
 10
103.5826524263613
 20
-121.9207234395719
 30
0.0
 10
103.5826524263613
 20
-121.9207234395719
 30
0.0
 10
103.5550916624793
 20
-121.9207234395719
 30
0.0
 10
103.2377983682878
 20
-121.9207234395719
 30
0.0
 10
103.0262695054934
 20
-121.9460448913885
 30
0.0
 10
103.0262695054934
 20
-121.9460448913885
 30
0.0
 10
103.0262695054934
 20
-121.7155680034253
 30
0.0
 10
103.0262695054934
 20
-121.7155680034253
 30
0.0
 10
103.1847438978149
 20
-121.7388223979507
 30
0.0
 10
103.3752576781492
 20
-121.7408894552419
 30
0.0
 10
103.5826524263613
 20
-121.7408894552419
 30
0.0
 10
103.5826524263613
 20
-121.7408894552419
 30
0.0
 10
104.0670328515874
 20
-121.7408894552419
 30
0.0
 10
104.0670328515874
 20
-121.7408894552419
 30
0.0
 10
104.2530680077909
 20
-121.7408894552419
 30
0.0
 10
104.4394476735429
 20
-121.7388223979507
 30
0.0
 10
104.6234157724553
 20
-121.7155680034253
 30
0.0
 10
104.6234157724553
 20
-121.7155680034253
 30
0.0
 10
104.6234157724553
 20
-121.9460448913885
 30
0.0
 10
104.6234157724553
 20
-121.9460448913885
 30
0.0
 10
104.4394476735429
 20
-121.9227904968631
 30
0.0
 10
104.1917453081535
 20
-121.9207234395719
 30
0.0
 10
104.0670328515874
 20
-121.9207234395719
 30
0.0
  0
HATCH
  5
1F0
330
1CD
100
AcDbEntity
  8
_U+30EC_U+30A4_U+30E4_U+30FC 1
 62
     7
420
 16777215
100
AcDbHatch
 10
0.0
 20
0.0
 30
0.0
210
0.0
220
0.0
230
1.0
  2
SOLID
 70
     1
 71
     0
 91
        1
 92
        1
 93
        1
 72
     4
 94
        3
 73
     0
 74
     1
 95
       29
 96
       25
 40
0.0
 40
0.0
 40
0.0
 40
0.0
 40
1.0
 40
1.0
 40
1.0
 40
2.0
 40
2.0
 40
2.0
 40
3.0
 40
3.0
 40
3.0
 40
4.0
 40
4.0
 40
4.0
 40
5.0
 40
5.0
 40
5.0
 40
6.0
 40
6.0
 40
6.0
 40
7.0
 40
7.0
 40
7.0
 40
8.0
 40
8.0
 40
8.0
 40
8.0
 10
104.0670328515874
 20
-121.9207234395719
 10
104.0670328515874
 20
-121.9207234395719
 10
103.5826524263613
 20
-121.9207234395719
 10
103.5826524263613
 20
-121.9207234395719
 10
103.5550916624793
 20
-121.9207234395719
 10
103.2377983682878
 20
-121.9207234395719
 10
103.0262695054934
 20
-121.9460448913885
 10
103.0262695054934
 20
-121.9460448913885
 10
103.0262695054934
 20
-121.7155680034253
 10
103.0262695054934
 20
-121.7155680034253
 10
103.1847438978149
 20
-121.7388223979507
 10
103.3752576781492
 20
-121.7408894552419
 10
103.5826524263613
 20
-121.7408894552419
 10
103.5826524263613
 20
-121.7408894552419
 10
104.0670328515874
 20
-121.7408894552419
 10
104.0670328515874
 20
-121.7408894552419
 10
104.2530680077909
 20
-121.7408894552419
 10
104.4394476735429
 20
-121.7388223979507
 10
104.6234157724553
 20
-121.7155680034253
 10
104.6234157724553
 20
-121.7155680034253
 10
104.6234157724553
 20
-121.9460448913885
 10
104.6234157724553
 20
-121.9460448913885
 10
104.4394476735429
 20
-121.9227904968631
 10
104.1917453081535
 20
-121.9207234395719
 10
104.0670328515874
 20
-121.9207234395719
 97
        0
 97
        0
 75
     2
 76
     1
 98
        0
  0
SPLINE
  5
1F1
330
1CD
100
AcDbEntity
  8
_U+30EC_U+30A4_U+30E4_U+30FC 1
370
     0
100
AcDbSpline
210
0.0
220
0.0
230
1.0
 70
    11
 71
     3
 72
    44
 73
    40
 74
     0
 42
0.0000000001
 43
0.0000000001
 12
1.0
 22
0.0
 32
0.0
 13
1.0
 23
0.0
 33
0.0
 40
0.0
 40
0.0
 40
0.0
 40
0.0
 40
1.0
 40
1.0
 40
1.0
 40
2.0
 40
2.0
 40
2.0
 40
3.0
 40
3.0
 40
3.0
 40
4.0
 40
4.0
 40
4.0
 40
5.0
 40
5.0
 40
5.0
 40
6.0
 40
6.0
 40
6.0
 40
7.0
 40
7.0
 40
7.0
 40
8.0
 40
8.0
 40
8.0
 40
9.0
 40
9.0
 40
9.0
 40
10.0
 40
10.0
 40
10.0
 40
11.0
 40
11.0
 40
11.0
 40
12.0
 40
12.0
 40
12.0
 40
13.0
 40
13.0
 40
13.0
 40
13.0
 10
106.2784396435693
 20
-121.4828518033967
 30
0.0
 10
106.1664740402987
 20
-121.8509602559956
 30
0.0
 10
106.1158311366655
 20
-122.0096069030914
 30
0.0
 10
105.9191161844577
 20
-122.2592040709977
 30
0.0
 10
105.7348035759969
 20
-122.4898532137352
 30
0.0
 10
105.4981255161602
 20
-122.6758883699387
 30
0.0
 10
105.2187282723064
 20
-122.7690782028147
 30
0.0
 10
105.2187282723064
 20
-122.7690782028147
 30
0.0
 10
105.026147434681
 20
-122.5892442184846
 30
0.0
 10
105.026147434681
 20
-122.5892442184846
 30
0.0
 10
105.667279704486
 20
-122.4369709980366
 30
0.0
 10
105.9973198519729
 20
-121.8805880771688
 30
0.0
 10
106.0607096089015
 20
-121.4404771289281
 30
0.0
 10
106.0607096089015
 20
-121.4404771289281
 30
0.0
 10
105.2948648825305
 20
-121.4404771289281
 30
0.0
 10
105.2948648825305
 20
-121.4404771289281
 30
0.0
 10
105.2018473044287
 20
-121.4404771289281
 30
0.0
 10
105.0178792055164
 20
-121.4447834982846
 30
0.0
 10
104.8611273609375
 20
-121.4637315234535
 30
0.0
 10
104.8611273609375
 20
-121.4637315234535
 30
0.0
 10
104.8611273609375
 20
-121.2437621767203
 30
0.0
 10
104.8611273609375
 20
-121.2437621767203
 30
0.0
 10
104.9479437671658
 20
-121.2649495139546
 30
0.0
 10
105.1997802471376
 20
-121.2649495139546
 30
0.0
 10
105.2989989971128
 20
-121.2649495139546
 30
0.0
 10
105.2989989971128
 20
-121.2649495139546
 30
0.0
 10
105.7306694614146
 20
-121.2649495139546
 30
0.0
 10
105.7306694614146
 20
-121.2649495139546
 30
0.0
 10
105.7730441358831
 20
-121.2649495139546
 30
0.0
 10
106.0076551384286
 20
-121.2627102018892
 30
0.0
 10
106.0458956983149
 20
-121.2565090300157
 30
0.0
 10
106.0882703727835
 20
-121.250135603368
 30
0.0
 10
106.0903374300746
 20
-121.2480685460769
 30
0.0
 10
106.1516601297121
 20
-121.2077609288995
 30
0.0
 10
106.1516601297121
 20
-121.2077609288995
 30
0.0
 10
106.3401068527553
 20
-121.3622734614129
 30
0.0
 10
106.3401068527553
 20
-121.3622734614129
 30
0.0
 10
106.3104790315821
 20
-121.3919012825861
 30
0.0
 10
106.2956651209955
 20
-121.4235961610504
 30
0.0
 10
106.2784396435693
 20
-121.4828518033967
 30
0.0
  0
SPLINE
  5
1F2
330
1CD
100
AcDbEntity
  8
_U+30EC_U+30A4_U+30E4_U+30FC 1
370
     0
100
AcDbSpline
210
0.0
220
0.0
230
1.0
 70
    11
 71
     3
 72
    17
 73
    13
 74
     0
 42
0.0000000001
 43
0.0000000001
 12
1.0
 22
0.0
 32
0.0
 13
1.0
 23
0.0
 33
0.0
 40
0.0
 40
0.0
 40
0.0
 40
0.0
 40
1.0
 40
1.0
 40
1.0
 40
2.0
 40
2.0
 40
2.0
 40
3.0
 40
3.0
 40
3.0
 40
4.0
 40
4.0
 40
4.0
 40
4.0
 10
106.4879014490725
 20
-121.2838975391235
 30
0.0
 10
106.3611219352153
 20
-121.2838975391235
 30
0.0
 10
106.2594916184004
 20
-121.1824394770829
 30
0.0
 10
106.2594916184004
 20
-121.0554877084514
 30
0.0
 10
106.2594916184004
 20
-120.92853593982
 30
0.0
 10
106.3611219352153
 20
-120.8248385657139
 30
0.0
 10
106.4879014490725
 20
-120.8248385657139
 30
0.0
 10
106.6150254724782
 20
-120.8248385657139
 30
0.0
 10
106.7187228465842
 20
-120.92853593982
 30
0.0
 10
106.7187228465842
 20
-121.0554877084514
 30
0.0
 10
106.7187228465842
 20
-121.1824394770829
 30
0.0
 10
106.6150254724782
 20
-121.2838975391235
 30
0.0
 10
106.4879014490725
 20
-121.2838975391235
 30
0.0
  0
SPLINE
  5
1F3
330
1CD
100
AcDbEntity
  8
_U+30EC_U+30A4_U+30E4_U+30FC 1
370
     0
100
AcDbSpline
210
0.0
220
0.0
230
1.0
 70
    11
 71
     3
 72
    17
 73
    13
 74
     0
 42
0.0000000001
 43
0.0000000001
 12
1.0
 22
0.0
 32
0.0
 13
1.0
 23
0.0
 33
0.0
 40
0.0
 40
0.0
 40
0.0
 40
0.0
 40
1.0
 40
1.0
 40
1.0
 40
2.0
 40
2.0
 40
2.0
 40
3.0
 40
3.0
 40
3.0
 40
4.0
 40
4.0
 40
4.0
 40
4.0
 10
106.4858343917813
 20
-120.9538573916365
 30
0.0
 10
106.4310573735658
 20
-120.9538573916365
 30
0.0
 10
106.3866156418061
 20
-120.9982991233963
 30
0.0
 10
106.3866156418061
 20
-121.0534206511603
 30
0.0
 10
106.3866156418061
 20
-121.1104369814411
 30
0.0
 10
106.4310573735658
 20
-121.1591850825574
 30
0.0
 10
106.4899685063636
 20
-121.1591850825574
 30
0.0
 10
106.5492241487099
 20
-121.1591850825574
 30
0.0
 10
106.5895317658873
 20
-121.10836992415
 30
0.0
 10
106.5895317658873
 20
-121.0554877084514
 30
0.0
 10
106.5895317658873
 20
-120.9982991233963
 30
0.0
 10
106.5430229768365
 20
-120.9538573916365
 30
0.0
 10
106.4858343917813
 20
-120.9538573916365
 30
0.0
  0
HATCH
  5
1F4
330
1CD
100
AcDbEntity
  8
_U+30EC_U+30A4_U+30E4_U+30FC 1
 62
     7
420
 16777215
100
AcDbHatch
 10
0.0
 20
0.0
 30
0.0
210
0.0
220
0.0
230
1.0
  2
SOLID
 70
     1
 71
     0
 91
        3
 92
        1
 93
        1
 72
     4
 94
        3
 73
     0
 74
     1
 95
       44
 96
       40
 40
0.0
 40
0.0
 40
0.0
 40
0.0
 40
1.0
 40
1.0
 40
1.0
 40
2.0
 40
2.0
 40
2.0
 40
3.0
 40
3.0
 40
3.0
 40
4.0
 40
4.0
 40
4.0
 40
5.0
 40
5.0
 40
5.0
 40
6.0
 40
6.0
 40
6.0
 40
7.0
 40
7.0
 40
7.0
 40
8.0
 40
8.0
 40
8.0
 40
9.0
 40
9.0
 40
9.0
 40
10.0
 40
10.0
 40
10.0
 40
11.0
 40
11.0
 40
11.0
 40
12.0
 40
12.0
 40
12.0
 40
13.0
 40
13.0
 40
13.0
 40
13.0
 10
106.2784396435693
 20
-121.4828518033967
 10
106.1664740402987
 20
-121.8509602559956
 10
106.1158311366655
 20
-122.0096069030914
 10
105.9191161844577
 20
-122.2592040709977
 10
105.7348035759969
 20
-122.4898532137352
 10
105.4981255161602
 20
-122.6758883699387
 10
105.2187282723064
 20
-122.7690782028147
 10
105.2187282723064
 20
-122.7690782028147
 10
105.026147434681
 20
-122.5892442184846
 10
105.026147434681
 20
-122.5892442184846
 10
105.667279704486
 20
-122.4369709980366
 10
105.9973198519729
 20
-121.8805880771688
 10
106.0607096089015
 20
-121.4404771289281
 10
106.0607096089015
 20
-121.4404771289281
 10
105.2948648825305
 20
-121.4404771289281
 10
105.2948648825305
 20
-121.4404771289281
 10
105.2018473044287
 20
-121.4404771289281
 10
105.0178792055164
 20
-121.4447834982846
 10
104.8611273609375
 20
-121.4637315234535
 10
104.8611273609375
 20
-121.4637315234535
 10
104.8611273609375
 20
-121.2437621767203
 10
104.8611273609375
 20
-121.2437621767203
 10
104.9479437671658
 20
-121.2649495139546
 10
105.1997802471376
 20
-121.2649495139546
 10
105.2989989971128
 20
-121.2649495139546
 10
105.2989989971128
 20
-121.2649495139546
 10
105.7306694614146
 20
-121.2649495139546
 10
105.7306694614146
 20
-121.2649495139546
 10
105.7730441358831
 20
-121.2649495139546
 10
106.0076551384286
 20
-121.2627102018892
 10
106.0458956983149
 20
-121.2565090300157
 10
106.0882703727835
 20
-121.250135603368
 10
106.0903374300746
 20
-121.2480685460769
 10
106.1516601297121
 20
-121.2077609288995
 10
106.1516601297121
 20
-121.2077609288995
 10
106.3401068527553
 20
-121.3622734614129
 10
106.3401068527553
 20
-121.3622734614129
 10
106.3104790315821
 20
-121.3919012825861
 10
106.2956651209955
 20
-121.4235961610504
 10
106.2784396435693
 20
-121.4828518033967
 97
        0
 97
        0
 92
        1
 93
        1
 72
     4
 94
        3
 73
     0
 74
     1
 95
       17
 96
       13
 40
0.0
 40
0.0
 40
0.0
 40
0.0
 40
1.0
 40
1.0
 40
1.0
 40
2.0
 40
2.0
 40
2.0
 40
3.0
 40
3.0
 40
3.0
 40
4.0
 40
4.0
 40
4.0
 40
4.0
 10
106.4879014490725
 20
-121.2838975391235
 10
106.3611219352153
 20
-121.2838975391235
 10
106.2594916184004
 20
-121.1824394770829
 10
106.2594916184004
 20
-121.0554877084514
 10
106.2594916184004
 20
-120.92853593982
 10
106.3611219352153
 20
-120.8248385657139
 10
106.4879014490725
 20
-120.8248385657139
 10
106.6150254724782
 20
-120.8248385657139
 10
106.7187228465842
 20
-120.92853593982
 10
106.7187228465842
 20
-121.0554877084514
 10
106.7187228465842
 20
-121.1824394770829
 10
106.6150254724782
 20
-121.2838975391235
 10
106.4879014490725
 20
-121.2838975391235
 97
        0
 97
        0
 92
        1
 93
        1
 72
     4
 94
        3
 73
     0
 74
     1
 95
       17
 96
       13
 40
0.0
 40
0.0
 40
0.0
 40
0.0
 40
1.0
 40
1.0
 40
1.0
 40
2.0
 40
2.0
 40
2.0
 40
3.0
 40
3.0
 40
3.0
 40
4.0
 40
4.0
 40
4.0
 40
4.0
 10
106.4858343917813
 20
-120.9538573916365
 10
106.4310573735658
 20
-120.9538573916365
 10
106.3866156418061
 20
-120.9982991233963
 10
106.3866156418061
 20
-121.0534206511603
 10
106.3866156418061
 20
-121.1104369814411
 10
106.4310573735658
 20
-121.1591850825574
 10
106.4899685063636
 20
-121.1591850825574
 10
106.5492241487099
 20
-121.1591850825574
 10
106.5895317658873
 20
-121.10836992415
 10
106.5895317658873
 20
-121.0554877084514
 10
106.5895317658873
 20
-120.9982991233963
 10
106.5430229768365
 20
-120.9538573916365
 10
106.4858343917813
 20
-120.9538573916365
 97
        0
 97
        0
 75
     2
 76
     1
 98
        0
  0
ENDBLK
  5
1D0
330
1CD
100
AcDbEntity
  8
0
100
AcDbBlockEnd
  0
ENDSEC
  0
SECTION
  2
ENTITIES
  0
INSERT
  5
42
330
1F
100
AcDbEntity
  8
_U+30EC_U+30A4_U+30E4_U+30FC 1
100
AcDbBlockReference
  2
block 2
 10
0.0
 20
0.0
 30
0.0
  0
ENDSEC
  0
SECTION
  2
OBJECTS
  0
DICTIONARY
  5
C
330
0
100
AcDbDictionary
281
     1
  3
ACAD_GROUP
350
D
  3
ACAD_LAYOUT
350
1A
  3
ACAD_MATERIAL
350
3B
  3
ACAD_MLEADERSTYLE
350
1FE
  3
ACAD_MLINESTYLE
350
17
  3
ACAD_PLOTSETTINGS
350
19
  3
ACAD_PLOTSTYLENAME
350
E
  3
ACAD_TABLESTYLE
350
1FD
  3
ACAD_VISUALSTYLE
350
2A
  0
SUN
  5
3F
330
29
100
AcDbSun
 90
        1
290
     0
 63
     7
421
 16777215
 40
1.0
291
     1
 91
  2455826
 92
 54000000
292
     0
 70
     2
 71
   256
280
     1
  0
DICTIONARY
  5
D
102
{ACAD_REACTORS
330
C
102
}
330
C
100
AcDbDictionary
281
     1
  0
DICTIONARY
  5
1A
102
{ACAD_REACTORS
330
C
102
}
330
C
100
AcDbDictionary
281
     1
  3
Layout1
350
1E
  3
Layout2
350
26
  3
Model
350
22
  0
DICTIONARY
  5
3B
102
{ACAD_REACTORS
330
C
102
}
330
C
100
AcDbDictionary
281
     1
  3
ByBlock
350
3D
  3
ByLayer
350
3C
  3
Global
350
3E
  0
DICTIONARY
  5
1FE
102
{ACAD_REACTORS
330
C
102
}
330
C
100
AcDbDictionary
281
     1
  0
DICTIONARY
  5
17
102
{ACAD_REACTORS
330
C
102
}
330
C
100
AcDbDictionary
281
     1
  3
Standard
350
18
  0
DICTIONARY
  5
19
102
{ACAD_REACTORS
330
C
102
}
330
C
100
AcDbDictionary
281
     1
  0
ACDBDICTIONARYWDFLT
  5
E
102
{ACAD_REACTORS
330
C
102
}
330
C
100
AcDbDictionary
281
     1
  3
Normal
350
F
100
AcDbDictionaryWithDefault
340
F
  0
DICTIONARY
  5
1FD
102
{ACAD_REACTORS
330
C
102
}
330
C
100
AcDbDictionary
281
     1
  0
DICTIONARY
  5
2A
102
{ACAD_REACTORS
330
C
102
}
330
C
100
AcDbDictionary
281
     1
  3
2dWireframe
350
2F
  3
3D Hidden
350
31
  3
3dWireframe
350
30
  3
Basic
350
32
  3
Brighten
350
36
  3
ColorChange
350
3A
  3
Conceptual
350
34
  3
Dim
350
35
  3
Facepattern
350
39
  3
Flat
350
2B
  3
FlatWithEdges
350
2C
  3
Gouraud
350
2D
  3
GouraudWithEdges
350
2E
  3
Linepattern
350
38
  3
Realistic
350
33
  3
Thicken
350
37
  0
LAYOUT
  5
1E
102
{ACAD_REACTORS
330
1A
102
}
330
1A
100
AcDbPlotSettings
  1

  2
none_device
  4

  6

 40
0.0
 41
0.0
 42
0.0
 43
0.0
 44
0.0
 45
0.0
 46
0.0
 47
0.0
 48
0.0
 49
0.0
140
0.0
141
0.0
142
1.0
143
1.0
 70
   688
 72
     0
 73
     0
 74
     5
  7

 75
    16
 76
     0
 77
     2
 78
   300
147
1.0
148
0.0
149
0.0
100
AcDbLayout
  1
Layout1
 70
     1
 71
     1
 10
0.0
 20
0.0
 11
12.0
 21
9.0
 12
0.0
 22
0.0
 32
0.0
 14
1.000000000000000E+20
 24
1.000000000000000E+20
 34
1.000000000000000E+20
 15
-1.000000000000000E+20
 25
-1.000000000000000E+20
 35
-1.000000000000000E+20
146
0.0
 13
0.0
 23
0.0
 33
0.0
 16
1.0
 26
0.0
 36
0.0
 17
0.0
 27
1.0
 37
0.0
 76
     0
330
1B
  0
LAYOUT
  5
26
102
{ACAD_REACTORS
330
1A
102
}
330
1A
100
AcDbPlotSettings
  1

  2
none_device
  4

  6

 40
0.0
 41
0.0
 42
0.0
 43
0.0
 44
0.0
 45
0.0
 46
0.0
 47
0.0
 48
0.0
 49
0.0
140
0.0
141
0.0
142
1.0
143
1.0
 70
   688
 72
     0
 73
     0
 74
     5
  7

 75
    16
 76
     0
 77
     2
 78
   300
147
1.0
148
0.0
149
0.0
100
AcDbLayout
  1
Layout2
 70
     1
 71
     2
 10
0.0
 20
0.0
 11
0.0
 21
0.0
 12
0.0
 22
0.0
 32
0.0
 14
0.0
 24
0.0
 34
0.0
 15
0.0
 25
0.0
 35
0.0
146
0.0
 13
0.0
 23
0.0
 33
0.0
 16
1.0
 26
0.0
 36
0.0
 17
0.0
 27
1.0
 37
0.0
 76
     0
330
23
  0
LAYOUT
  5
22
102
{ACAD_REACTORS
330
1A
102
}
330
1A
100
AcDbPlotSettings
  1

  2
none_device
  4

  6

 40
0.0
 41
0.0
 42
0.0
 43
0.0
 44
0.0
 45
0.0
 46
0.0
 47
0.0
 48
0.0
 49
0.0
140
0.0
141
0.0
142
1.0
143
1.0
 70
  1712
 72
     0
 73
     0
 74
     0
  7

 75
     0
 76
     0
 77
     2
 78
   300
147
1.0
148
0.0
149
0.0
100
AcDbLayout
  1
Model
 70
     1
 71
     0
 10
0.0
 20
0.0
 11
12.0
 21
9.0
 12
0.0
 22
0.0
 32
0.0
 14
1.000000000000000E+20
 24
1.000000000000000E+20
 34
1.000000000000000E+20
 15
-1.000000000000000E+20
 25
-1.000000000000000E+20
 35
-1.000000000000000E+20
146
0.0
 13
0.0
 23
0.0
 33
0.0
 16
1.0
 26
0.0
 36
0.0
 17
0.0
 27
1.0
 37
0.0
 76
     0
330
1F
331
29
  0
MATERIAL
  5
3D
102
{ACAD_REACTORS
330
3B
102
}
330
3B
100
AcDbMaterial
  1
ByBlock
 72
     1
 94
      127
  0
MATERIAL
  5
3C
102
{ACAD_REACTORS
330
3B
102
}
330
3B
100
AcDbMaterial
  1
ByLayer
 72
     1
 94
      127
  0
MATERIAL
  5
3E
102
{ACAD_REACTORS
330
3B
102
}
330
3B
100
AcDbMaterial
  1
Global
 72
     1
 94
      127
  0
MLINESTYLE
  5
18
102
{ACAD_REACTORS
330
17
102
}
330
17
100
AcDbMlineStyle
  2
Standard
 70
     0
  3

 62
   256
 51
90.0
 52
90.0
 71
     2
 49
0.5
 62
   256
  6
BYLAYER
 49
-0.5
 62
   256
  6
BYLAYER
  0
ACDBPLACEHOLDER
  5
F
102
{ACAD_REACTORS
330
E
102
}
330
E
  0
VISUALSTYLE
  5
2F
102
{ACAD_REACTORS
330
2A
102
}
330
2A
100
AcDbVisualStyle
  2
2dWireframe
 70
     4
177
     2
291
     0
 71
     0
176
     1
 72
     2
176
     1
 73
     0
176
     1
 90
        0
176
     1
 40
-0.6
176
     1
 41
-30.0
176
     1
 62
     5
 63
     7
421
 16777215
176
     1
 74
     1
176
     1
 91
        4
176
     1
 64
     7
176
     1
 65
   257
176
     1
 75
     1
176
     1
175
     1
176
     1
 42
1.0
176
     1
 92
        0
176
     1
 66
   257
176
     1
 43
1.0
176
     1
 76
     1
176
     1
 77
     6
176
     1
 78
     2
176
     1
 67
     7
176
     1
 79
     5
176
     1
170
     0
176
     1
171
     0
176
     1
290
     0
176
     1
 93
        1
176
     1
 44
0.0
176
     1
173
     0
176
     1
  0
VISUALSTYLE
  5
31
102
{ACAD_REACTORS
330
2A
102
}
330
2A
100
AcDbVisualStyle
  2
3D Hidden
 70
     6
177
     2
291
     0
 71
     1
176
     1
 72
     2
176
     1
 73
     2
176
     1
 90
        0
176
     1
 40
-0.6
176
     1
 41
-30.0
176
     1
 62
     5
 63
     7
421
 16777215
176
     1
 74
     2
176
     1
 91
        2
176
     1
 64
     7
176
     1
 65
   257
176
     1
 75
     2
176
     1
175
     1
176
     1
 42
40.0
176
     1
 92
        0
176
     1
 66
   257
176
     1
 43
1.0
176
     1
 76
     1
176
     1
 77
     6
176
     1
 78
     2
176
     1
 67
     7
176
     1
 79
     3
176
     1
170
     0
176
     1
171
     0
176
     1
290
     0
176
     1
 93
        1
176
     1
 44
0.0
176
     1
173
     0
176
     1
  0
VISUALSTYLE
  5
30
102
{ACAD_REACTORS
330
2A
102
}
330
2A
100
AcDbVisualStyle
  2
3dWireframe
 70
     5
177
     2
291
     0
 71
     0
176
     1
 72
     2
176
     1
 73
     0
176
     1
 90
        0
176
     1
 40
-0.6
176
     1
 41
-30.0
176
     1
 62
     5
 63
     7
421
 16777215
176
     1
 74
     1
176
     1
 91
        4
176
     1
 64
     7
176
     1
 65
   257
176
     1
 75
     1
176
     1
175
     1
176
     1
 42
1.0
176
     1
 92
        0
176
     1
 66
   257
176
     1
 43
1.0
176
     1
 76
     1
176
     1
 77
     6
176
     1
 78
     2
176
     1
 67
     7
176
     1
 79
     5
176
     1
170
     0
176
     1
171
     0
176
     1
290
     0
176
     1
 93
        1
176
     1
 44
0.0
176
     1
173
     0
176
     1
  0
VISUALSTYLE
  5
32
102
{ACAD_REACTORS
330
2A
102
}
330
2A
100
AcDbVisualStyle
  2
Basic
 70
     7
177
     2
291
     1
 71
     1
176
     1
 72
     0
176
     1
 73
     1
176
     1
 90
        0
176
     1
 40
-0.6
176
     1
 41
-30.0
176
     1
 62
     5
 63
     7
421
 16777215
176
     1
 74
     0
176
     1
 91
        4
176
     1
 64
     7
176
     1
 65
   257
176
     1
 75
     1
176
     1
175
     1
176
     1
 42
1.0
176
     1
 92
        8
176
     1
 66
     7
176
     1
 43
1.0
176
     1
 76
     1
176
     1
 77
     6
176
     1
 78
     2
176
     1
 67
     7
176
     1
 79
     5
176
     1
170
     0
176
     1
171
     0
176
     1
290
     0
176
     1
 93
        1
176
     1
 44
0.0
176
     1
173
     0
176
     1
  0
VISUALSTYLE
  5
36
102
{ACAD_REACTORS
330
2A
102
}
330
2A
100
AcDbVisualStyle
  2
Brighten
 70
    12
177
     2
291
     1
 71
     2
176
     1
 72
     2
176
     1
 73
     0
176
     1
 90
        0
176
     1
 40
-0.6
176
     1
 41
-30.0
176
     1
 62
     5
 63
     7
421
 16777215
176
     1
 74
     1
176
     1
 91
        4
176
     1
 64
     7
176
     1
 65
   257
176
     1
 75
     1
176
     1
175
     1
176
     1
 42
1.0
176
     1
 92
        8
176
     1
 66
     7
176
     1
 43
1.0
176
     1
 76
     1
176
     1
 77
     6
176
     1
 78
     2
176
     1
 67
     7
176
     1
 79
     5
176
     1
170
     0
176
     1
171
     0
176
     1
290
     0
176
     1
 93
        1
176
     1
 44
50.0
176
     1
173
     0
176
     1
  0
VISUALSTYLE
  5
3A
102
{ACAD_REACTORS
330
2A
102
}
330
2A
100
AcDbVisualStyle
  2
ColorChange
 70
    16
177
     2
291
     1
 71
     2
176
     1
 72
     2
176
     1
 73
     3
176
     1
 90
        0
176
     1
 40
-0.6
176
     1
 41
-30.0
176
     1
 62
     5
 63
     8
421
  8421504
176
     1
 74
     1
176
     1
 91
        4
176
     1
 64
     7
176
     1
 65
   257
176
     1
 75
     1
176
     1
175
     1
176
     1
 42
1.0
176
     1
 92
        8
176
     1
 66
     8
424
  8421504
176
     1
 43
1.0
176
     1
 76
     1
176
     1
 77
     6
176
     1
 78
     2
176
     1
 67
     7
176
     1
 79
     5
176
     1
170
     0
176
     1
171
     0
176
     1
290
     0
176
     1
 93
        1
176
     1
 44
0.0
176
     1
173
     0
176
     1
  0
VISUALSTYLE
  5
34
102
{ACAD_REACTORS
330
2A
102
}
330
2A
100
AcDbVisualStyle
  2
Conceptual
 70
     9
177
     2
291
     0
 71
     3
176
     1
 72
     2
176
     1
 73
     0
176
     1
 90
        0
176
     1
 40
-0.6
176
     1
 41
-30.0
176
     1
 62
     5
 63
     7
421
 16777215
176
     1
 74
     2
176
     1
 91
        2
176
     1
 64
     7
176
     1
 65
   257
176
     1
 75
     1
176
     1
175
     1
176
     1
 42
40.0
176
     1
 92
        8
176
     1
 66
     7
176
     1
 43
1.0
176
     1
 76
     1
176
     1
 77
     6
176
     1
 78
     2
176
     1
 67
     7
176
     1
 79
     3
176
     1
170
     0
176
     1
171
     0
176
     1
290
     0
176
     1
 93
        1
176
     1
 44
0.0
176
     1
173
     0
176
     1
  0
VISUALSTYLE
  5
35
102
{ACAD_REACTORS
330
2A
102
}
330
2A
100
AcDbVisualStyle
  2
Dim
 70
    11
177
     2
291
     1
 71
     2
176
     1
 72
     2
176
     1
 73
     0
176
     1
 90
        0
176
     1
 40
-0.6
176
     1
 41
-30.0
176
     1
 62
     5
 63
     7
421
 16777215
176
     1
 74
     1
176
     1
 91
        4
176
     1
 64
     7
176
     1
 65
   257
176
     1
 75
     1
176
     1
175
     1
176
     1
 42
1.0
176
     1
 92
        8
176
     1
 66
     7
176
     1
 43
1.0
176
     1
 76
     1
176
     1
 77
     6
176
     1
 78
     2
176
     1
 67
     7
176
     1
 79
     5
176
     1
170
     0
176
     1
171
     0
176
     1
290
     0
176
     1
 93
        1
176
     1
 44
-50.0
176
     1
173
     0
176
     1
  0
VISUALSTYLE
  5
39
102
{ACAD_REACTORS
330
2A
102
}
330
2A
100
AcDbVisualStyle
  2
Facepattern
 70
    15
177
     2
291
     1
 71
     2
176
     1
 72
     2
176
     1
 73
     0
176
     1
 90
        0
176
     1
 40
-0.6
176
     1
 41
-30.0
176
     1
 62
     5
 63
     7
421
 16777215
176
     1
 74
     1
176
     1
 91
        4
176
     1
 64
     7
176
     1
 65
   257
176
     1
 75
     1
176
     1
175
     1
176
     1
 42
1.0
176
     1
 92
        8
176
     1
 66
     7
176
     1
 43
1.0
176
     1
 76
     1
176
     1
 77
     6
176
     1
 78
     2
176
     1
 67
     7
176
     1
 79
     5
176
     1
170
     0
176
     1
171
     0
176
     1
290
     0
176
     1
 93
        1
176
     1
 44
0.0
176
     1
173
     0
176
     1
  0
VISUALSTYLE
  5
2B
102
{ACAD_REACTORS
330
2A
102
}
330
2A
100
AcDbVisualStyle
  2
Flat
 70
     0
177
     2
291
     1
 71
     2
176
     1
 72
     1
176
     1
 73
     1
176
     1
 90
        2
176
     1
 40
-0.6
176
     1
 41
30.0
176
     1
 62
     5
 63
     7
421
 16777215
176
     1
 74
     0
176
     1
 91
        4
176
     1
 64
     7
176
     1
 65
   257
176
     1
 75
     1
176
     1
175
     1
176
     1
 42
1.0
176
     1
 92
        8
176
     1
 66
     7
176
     1
 43
1.0
176
     1
 76
     1
176
     1
 77
     6
176
     1
 78
     2
176
     1
 67
     7
176
     1
 79
     5
176
     1
170
     0
176
     1
171
     0
176
     1
290
     0
176
     1
 93
       13
176
     1
 44
0.0
176
     1
173
     0
176
     1
  0
VISUALSTYLE
  5
2C
102
{ACAD_REACTORS
330
2A
102
}
330
2A
100
AcDbVisualStyle
  2
FlatWithEdges
 70
     1
177
     2
291
     1
 71
     2
176
     1
 72
     1
176
     1
 73
     1
176
     1
 90
        2
176
     1
 40
-0.6
176
     1
 41
30.0
176
     1
 62
     5
 63
     7
421
 16777215
176
     1
 74
     1
176
     1
 91
        4
176
     1
 64
     7
176
     1
 65
   257
176
     1
 75
     1
176
     1
175
     1
176
     1
 42
1.0
176
     1
 92
        0
176
     1
 66
   257
176
     1
 43
1.0
176
     1
 76
     1
176
     1
 77
     6
176
     1
 78
     2
176
     1
 67
     7
176
     1
 79
     5
176
     1
170
     0
176
     1
171
     0
176
     1
290
     0
176
     1
 93
       13
176
     1
 44
0.0
176
     1
173
     0
176
     1
  0
VISUALSTYLE
  5
2D
102
{ACAD_REACTORS
330
2A
102
}
330
2A
100
AcDbVisualStyle
  2
Gouraud
 70
     2
177
     2
291
     1
 71
     2
176
     1
 72
     2
176
     1
 73
     1
176
     1
 90
        2
176
     1
 40
-0.6
176
     1
 41
30.0
176
     1
 62
     5
 63
     7
421
 16777215
176
     1
 74
     0
176
     1
 91
        4
176
     1
 64
     7
176
     1
 65
   257
176
     1
 75
     1
176
     1
175
     1
176
     1
 42
1.0
176
     1
 92
        0
176
     1
 66
     7
176
     1
 43
1.0
176
     1
 76
     1
176
     1
 77
     6
176
     1
 78
     2
176
     1
 67
     7
176
     1
 79
     5
176
     1
170
     0
176
     1
171
     0
176
     1
290
     0
176
     1
 93
       13
176
     1
 44
0.0
176
     1
173
     0
176
     1
  0
VISUALSTYLE
  5
2E
102
{ACAD_REACTORS
330
2A
102
}
330
2A
100
AcDbVisualStyle
  2
GouraudWithEdges
 70
     3
177
     2
291
     1
 71
     2
176
     1
 72
     2
176
     1
 73
     1
176
     1
 90
        2
176
     1
 40
-0.6
176
     1
 41
30.0
176
     1
 62
     5
 63
     7
421
 16777215
176
     1
 74
     1
176
     1
 91
        4
176
     1
 64
     7
176
     1
 65
   257
176
     1
 75
     1
176
     1
175
     1
176
     1
 42
1.0
176
     1
 92
        0
176
     1
 66
   257
176
     1
 43
1.0
176
     1
 76
     1
176
     1
 77
     6
176
     1
 78
     2
176
     1
 67
     7
176
     1
 79
     5
176
     1
170
     0
176
     1
171
     0
176
     1
290
     0
176
     1
 93
       13
176
     1
 44
0.0
176
     1
173
     0
176
     1
  0
VISUALSTYLE
  5
38
102
{ACAD_REACTORS
330
2A
102
}
330
2A
100
AcDbVisualStyle
  2
Linepattern
 70
    14
177
     2
291
     1
 71
     2
176
     1
 72
     2
176
     1
 73
     0
176
     1
 90
        0
176
     1
 40
-0.6
176
     1
 41
-30.0
176
     1
 62
     5
 63
     7
421
 16777215
176
     1
 74
     1
176
     1
 91
        4
176
     1
 64
     7
176
     1
 65
   257
176
     1
 75
     7
176
     1
175
     7
176
     1
 42
1.0
176
     1
 92
        8
176
     1
 66
     7
176
     1
 43
1.0
176
     1
 76
     1
176
     1
 77
     6
176
     1
 78
     2
176
     1
 67
     7
176
     1
 79
     5
176
     1
170
     0
176
     1
171
     0
176
     1
290
     0
176
     1
 93
        1
176
     1
 44
0.0
176
     1
173
     0
176
     1
  0
VISUALSTYLE
  5
33
102
{ACAD_REACTORS
330
2A
102
}
330
2A
100
AcDbVisualStyle
  2
Realistic
 70
     8
177
     2
291
     0
 71
     2
176
     1
 72
     2
176
     1
 73
     0
176
     1
 90
        0
176
     1
 40
-0.6
176
     1
 41
-30.0
176
     1
 62
     5
 63
     7
421
 16777215
176
     1
 74
     1
176
     1
 91
        0
176
     1
 64
     7
176
     1
 65
   257
176
     1
 75
     1
176
     1
175
     1
176
     1
 42
1.0
176
     1
 92
        8
176
     1
 66
     8
424
  7895160
176
     1
 43
1.0
176
     1
 76
     1
176
     1
 77
     6
176
     1
 78
     2
176
     1
 67
     7
176
     1
 79
     5
176
     1
170
     0
176
     1
171
     0
176
     1
290
     0
176
     1
 93
       13
176
     1
 44
0.0
176
     1
173
     0
176
     1
  0
VISUALSTYLE
  5
37
102
{ACAD_REACTORS
330
2A
102
}
330
2A
100
AcDbVisualStyle
  2
Thicken
 70
    13
177
     2
291
     1
 71
     2
176
     1
 72
     2
176
     1
 73
     0
176
     1
 90
        0
176
     1
 40
-0.6
176
     1
 41
-30.0
176
     1
 62
     5
 63
     7
421
 16777215
176
     1
 74
     1
176
     1
 91
        4
176
     1
 64
     7
176
     1
 65
   257
176
     1
 75
     1
176
     1
175
     1
176
     1
 42
1.0
176
     1
 92
       12
176
     1
 66
     7
176
     1
 43
1.0
176
     1
 76
     1
176
     1
 77
     6
176
     1
 78
     2
176
     1
 67
     7
176
     1
 79
     5
176
     1
170
     0
176
     1
171
     0
176
     1
290
     0
176
     1
 93
        1
176
     1
 44
0.0
176
     1
173
     0
176
     1
  0
ENDSEC
  0
EOF
