  0
SECTION
  2
HEADER
  9
$ACADVER
  1
AC1024
  9
$ACADMAINTVER
 70
     6
  9
$DWGCODEPAGE
  3
UNDEFINED
  9
$INSBASE
 10
0.0
 20
0.0
 30
0.0
  9
$EXTMIN
 10
1.000000000000000E+20
 20
1.000000000000000E+20
 30
1.000000000000000E+20
  9
$EXTMAX
 10
-1.000000000000000E+20
 20
-1.000000000000000E+20
 30
-1.000000000000000E+20
  9
$LIMMIN
 10
0.0
 20
0.0
  9
$LIMMAX
 10
12.0
 20
9.0
  9
$ORTHOMODE
 70
     0
  9
$REGENMODE
 70
     1
  9
$FILLMODE
 70
     1
  9
$QTEXTMODE
 70
     0
  9
$MIRRTEXT
 70
     1
  9
$LTSCALE
 40
1.0
  9
$ATTMODE
 70
     1
  9
$TEXTSIZE
 40
0.2
  9
$TRACEWID
 40
0.05
  9
$TEXTSTYLE
  7
Standard
  9
$CLAYER
  8
0
  9
$CELTYPE
  6
ByLayer
  9
$CECOLOR
 62
   256
  9
$CELTSCALE
 40
1.0
  9
$DISPSILH
 70
     0
  9
$DIMSCALE
 40
1.0
  9
$DIMASZ
 40
0.18
  9
$DIMEXO
 40
0.0625
  9
$DIMDLI
 40
0.38
  9
$DIMRND
 40
0.0
  9
$DIMDLE
 40
0.0
  9
$DIMEXE
 40
0.18
  9
$DIMTP
 40
0.0
  9
$DIMTM
 40
0.0
  9
$DIMTXT
 40
0.18
  9
$DIMCEN
 40
0.09
  9
$DIMTSZ
 40
0.0
  9
$DIMTOL
 70
     0
  9
$DIMLIM
 70
     0
  9
$DIMTIH
 70
     1
  9
$DIMTOH
 70
     1
  9
$DIMSE1
 70
     0
  9
$DIMSE2
 70
     0
  9
$DIMTAD
 70
     0
  9
$DIMZIN
 70
     0
  9
$DIMBLK
  1

  9
$DIMASO
 70
     1
  9
$DIMSHO
 70
     1
  9
$DIMPOST
  1

  9
$DIMAPOST
  1

  9
$DIMALT
 70
     0
  9
$DIMALTD
 70
     2
  9
$DIMALTF
 40
25.4
  9
$DIMLFAC
 40
1.0
  9
$DIMTOFL
 70
     0
  9
$DIMTVP
 40
0.0
  9
$DIMTIX
 70
     0
  9
$DIMSOXD
 70
     0
  9
$DIMSAH
 70
     0
  9
$DIMBLK1
  1

  9
$DIMBLK2
  1

  9
$DIMSTYLE
  2
Standard
  9
$DIMCLRD
 70
     0
  9
$DIMCLRE
 70
     0
  9
$DIMCLRT
 70
     0
  9
$DIMTFAC
 40
1.0
  9
$DIMGAP
 40
0.09
  9
$DIMJUST
 70
     0
  9
$DIMSD1
 70
     0
  9
$DIMSD2
 70
     0
  9
$DIMTOLJ
 70
     1
  9
$DIMTZIN
 70
     0
  9
$DIMALTZ
 70
     0
  9
$DIMALTTZ
 70
     0
  9
$DIMUPT
 70
     0
  9
$DIMDEC
 70
     4
  9
$DIMTDEC
 70
     4
  9
$DIMALTU
 70
     2
  9
$DIMALTTD
 70
     2
  9
$DIMTXSTY
  7
Standard
  9
$DIMAUNIT
 70
     0
  9
$DIMADEC
 70
     0
  9
$DIMALTRND
 40
0.0
  9
$DIMAZIN
 70
     0
  9
$DIMDSEP
 70
    46
  9
$DIMATFIT
 70
     3
  9
$DIMFRAC
 70
     0
  9
$DIMLDRBLK
  1

  9
$DIMLUNIT
 70
     2
  9
$DIMLWD
 70
    -2
  9
$DIMLWE
 70
    -2
  9
$DIMTMOVE
 70
     0
  9
$DIMFXL
 40
1.0
  9
$DIMFXLON
 70
     0
  9
$DIMJOGANG
 40
0.7853981633974483
  9
$DIMTFILL
 70
     0
  9
$DIMTFILLCLR
 70
     0
  9
$DIMARCSYM
 70
     0
  9
$DIMLTYPE
  6

  9
$DIMLTEX1
  6

  9
$DIMLTEX2
  6

  9
$DIMTXTDIRECTION
 70
     0
  9
$LUNITS
 70
     2
  9
$LUPREC
 70
     4
  9
$SKETCHINC
 40
0.1
  9
$FILLETRAD
 40
0.5
  9
$AUNITS
 70
     0
  9
$AUPREC
 70
     0
  9
$MENU
  1
.
  9
$ELEVATION
 40
0.0
  9
$PELEVATION
 40
0.0
  9
$THICKNESS
 40
0.0
  9
$LIMCHECK
 70
     0
  9
$CHAMFERA
 40
0.5
  9
$CHAMFERB
 40
0.5
  9
$CHAMFERC
 40
1.0
  9
$CHAMFERD
 40
0.0
  9
$SKPOLY
 70
     0
  9
$TDCREATE
 40
2457917.583807859
  9
$TDUCREATE
 40
2457917.20880787
  9
$TDUPDATE
 40
2457917.583807859
  9
$TDUUPDATE
 40
2457917.20880787
  9
$TDINDWG
 40
0.0000000116
  9
$TDUSRTIMER
 40
0.0000000116
  9
$USRTIMER
 70
     1
  9
$ANGBASE
 50
0.0
  9
$ANGDIR
 70
     0
  9
$PDMODE
 70
     0
  9
$PDSIZE
 40
0.0
  9
$PLINEWID
 40
0.0
  9
$SPLFRAME
 70
     0
  9
$SPLINETYPE
 70
     6
  9
$SPLINESEGS
 70
     8
  9
$HANDSEED
  5
D2
  9
$SURFTAB1
 70
     6
  9
$SURFTAB2
 70
     6
  9
$SURFTYPE
 70
     6
  9
$SURFU
 70
     6
  9
$SURFV
 70
     6
  9
$UCSBASE
  2

  9
$UCSNAME
  2

  9
$UCSORG
 10
0.0
 20
0.0
 30
0.0
  9
$UCSXDIR
 10
1.0
 20
0.0
 30
0.0
  9
$UCSYDIR
 10
0.0
 20
1.0
 30
0.0
  9
$UCSORTHOREF
  2

  9
$UCSORTHOVIEW
 70
     0
  9
$UCSORGTOP
 10
0.0
 20
0.0
 30
0.0
  9
$UCSORGBOTTOM
 10
0.0
 20
0.0
 30
0.0
  9
$UCSORGLEFT
 10
0.0
 20
0.0
 30
0.0
  9
$UCSORGRIGHT
 10
0.0
 20
0.0
 30
0.0
  9
$UCSORGFRONT
 10
0.0
 20
0.0
 30
0.0
  9
$UCSORGBACK
 10
0.0
 20
0.0
 30
0.0
  9
$PUCSBASE
  2

  9
$PUCSNAME
  2

  9
$PUCSORG
 10
0.0
 20
0.0
 30
0.0
  9
$PUCSXDIR
 10
1.0
 20
0.0
 30
0.0
  9
$PUCSYDIR
 10
0.0
 20
1.0
 30
0.0
  9
$PUCSORTHOREF
  2

  9
$PUCSORTHOVIEW
 70
     0
  9
$PUCSORGTOP
 10
0.0
 20
0.0
 30
0.0
  9
$PUCSORGBOTTOM
 10
0.0
 20
0.0
 30
0.0
  9
$PUCSORGLEFT
 10
0.0
 20
0.0
 30
0.0
  9
$PUCSORGRIGHT
 10
0.0
 20
0.0
 30
0.0
  9
$PUCSORGFRONT
 10
0.0
 20
0.0
 30
0.0
  9
$PUCSORGBACK
 10
0.0
 20
0.0
 30
0.0
  9
$USERI1
 70
     0
  9
$USERI2
 70
     0
  9
$USERI3
 70
     0
  9
$USERI4
 70
     0
  9
$USERI5
 70
     0
  9
$USERR1
 40
0.0
  9
$USERR2
 40
0.0
  9
$USERR3
 40
0.0
  9
$USERR4
 40
0.0
  9
$USERR5
 40
0.0
  9
$WORLDVIEW
 70
     1
  9
$SHADEDGE
 70
     3
  9
$SHADEDIF
 70
    70
  9
$TILEMODE
 70
     1
  9
$MAXACTVP
 70
    64
  9
$PINSBASE
 10
0.0
 20
0.0
 30
0.0
  9
$PLIMCHECK
 70
     0
  9
$PEXTMIN
 10
1.000000000000000E+20
 20
1.000000000000000E+20
 30
1.000000000000000E+20
  9
$PEXTMAX
 10
-1.000000000000000E+20
 20
-1.000000000000000E+20
 30
-1.000000000000000E+20
  9
$PLIMMIN
 10
0.0
 20
0.0
  9
$PLIMMAX
 10
12.0
 20
9.0
  9
$UNITMODE
 70
     0
  9
$VISRETAIN
 70
     1
  9
$PLINEGEN
 70
     0
  9
$PSLTSCALE
 70
     1
  9
$TREEDEPTH
 70
  3020
  9
$CMLSTYLE
  2
Standard
  9
$CMLJUST
 70
     0
  9
$CMLSCALE
 40
1.0
  9
$PROXYGRAPHICS
 70
     1
  9
$MEASUREMENT
 70
     0
  9
$CELWEIGHT
370
    -1
  9
$ENDCAPS
280
     0
  9
$JOINSTYLE
280
     0
  9
$LWDISPLAY
290
     1
  9
$INSUNITS
 70
     1
  9
$HYPERLINKBASE
  1

  9
$STYLESHEET
  1

  9
$XEDIT
290
     1
  9
$CEPSNTYPE
380
     0
  9
$PSTYLEMODE
290
     1
  9
$FINGERPRINTGUID
  2
{381FB628-9F32-B165-ADC5-4326D3183837}
  9
$VERSIONGUID
  2
{FAEB1C32-E019-11D5-929B-00C0DF256EC4}
  9
$EXTNAMES
290
     1
  9
$PSVPSCALE
 40
0.0
  9
$OLESTARTUP
290
     0
  9
$SORTENTS
280
   127
  9
$INDEXCTL
280
     0
  9
$HIDETEXT
280
     1
  9
$XCLIPFRAME
280
     2
  9
$HALOGAP
280
     0
  9
$OBSCOLOR
 70
   257
  9
$OBSLTYPE
280
     0
  9
$INTERSECTIONDISPLAY
280
     0
  9
$INTERSECTIONCOLOR
 70
   257
  9
$DIMASSOC
280
     2
  9
$PROJECTNAME
  1

  9
$CAMERADISPLAY
290
     0
  9
$LENSLENGTH
 40
50.0
  9
$CAMERAHEIGHT
 40
0.0
  9
$STEPSPERSEC
 40
2.0
  9
$STEPSIZE
 40
6.0
  9
$3DDWFPREC
 40
2.0
  9
$PSOLWIDTH
 40
0.25
  9
$PSOLHEIGHT
 40
4.0
  9
$LOFTANG1
 40
1.570796326794897
  9
$LOFTANG2
 40
1.570796326794897
  9
$LOFTMAG1
 40
0.0
  9
$LOFTMAG2
 40
0.0
  9
$LOFTPARAM
 70
     7
  9
$LOFTNORMALS
280
     1
  9
$LATITUDE
 40
37.795
  9
$LONGITUDE
 40
-122.394
  9
$NORTHDIRECTION
 40
0.0
  9
$TIMEZONE
 70
 -8000
  9
$LIGHTGLYPHDISPLAY
280
     1
  9
$TILEMODELIGHTSYNCH
280
     1
  9
$CMATERIAL
347
3C
  9
$SOLIDHIST
280
     1
  9
$SHOWHIST
280
     1
  9
$DWFFRAME
280
     2
  9
$DGNFRAME
280
     2
  9
$REALWORLDSCALE
290
     1
  9
$INTERFERECOLOR
 62
   256
  9
$CSHADOW
280
     0
  9
$SHADOWPLANELOCATION
 40
0.0
  0
ENDSEC
  0
SECTION
  2
CLASSES
  0
CLASS
  1
ACDBDICTIONARYWDFLT
  2
AcDbDictionaryWithDefault
  3
ObjectDBX Classes
 90
        0
 91
        4
280
     0
281
     0
  0
CLASS
  1
VISUALSTYLE
  2
AcDbVisualStyle
  3
ObjectDBX Classes
 90
     4095
 91
        4
280
     0
281
     0
  0
CLASS
  1
MATERIAL
  2
AcDbMaterial
  3
ObjectDBX Classes
 90
     1153
 91
        4
280
     0
281
     0
  0
CLASS
  1
SUN
  2
AcDbSun
  3
SCENEOE
 90
     1024
 91
        4
280
     0
281
     0
  0
ENDSEC
  0
SECTION
  2
TABLES
  0
TABLE
  2
VPORT
  5
8
330
0
100
AcDbSymbolTable
 70
     1
  0
VPORT
  5
29
330
8
100
AcDbSymbolTableRecord
100
AcDbViewportTableRecord
  2
*Active
 70
     0
 10
0.0
 20
0.0
 11
1.0
 21
1.0
 12
0.0
 22
0.0
 13
0.0
 23
0.0
 14
0.5
 24
0.5
 15
0.5
 25
0.5
 16
0.0
 26
0.0
 36
1.0
 17
91.00082462281999
 27
-128.4993055234307
 37
0.0
 40
256.9986110468615
 41
0.7081814508812795
 42
50.0
 43
0.0
 44
0.0
 50
0.0
 51
0.0
 71
     0
 72
   100
 73
     1
 74
     3
 75
     0
 76
     0
 77
     0
 78
     0
281
     0
 65
     1
110
0.0
120
0.0
130
0.0
111
1.0
121
0.0
131
0.0
112
0.0
122
1.0
132
0.0
 79
     0
146
0.0
 60
     3
 61
     5
292
     1
282
     1
141
0.0
142
0.0
 63
   250
361
3F
  0
ENDTAB
  0
TABLE
  2
LTYPE
  5
5
330
0
100
AcDbSymbolTable
 70
     3
  0
LTYPE
  5
14
330
5
100
AcDbSymbolTableRecord
100
AcDbLinetypeTableRecord
  2
ByBlock
 70
     0
  3

 72
    65
 73
     0
 40
0.0
  0
LTYPE
  5
15
330
5
100
AcDbSymbolTableRecord
100
AcDbLinetypeTableRecord
  2
ByLayer
 70
     0
  3

 72
    65
 73
     0
 40
0.0
  0
LTYPE
  5
16
330
5
100
AcDbSymbolTableRecord
100
AcDbLinetypeTableRecord
  2
Continuous
 70
     0
  3
Solid line
 72
    65
 73
     0
 40
0.0
  0
LTYPE
  5
54
330
5
100
AcDbSymbolTableRecord
100
AcDbLinetypeTableRecord
  2
AI-Linetype-1
 70
     0
  3
Adobe Illustrator Linetype No. 1
 72
    65
 73
     2
 40
1.411111110758333
 49
0.7055555553791667
 74
     0
 49
-0.7055555553791667
 74
     0
  0
LTYPE
  5
59
330
5
100
AcDbSymbolTableRecord
100
AcDbLinetypeTableRecord
  2
AI-Linetype-2
 70
     0
  3
Adobe Illustrator Linetype No. 2
 72
    65
 73
     2
 40
1.411111110758333
 49
0.7055555553791667
 74
     0
 49
-0.7055555553791667
 74
     0
  0
ENDTAB
  0
TABLE
  2
LAYER
  5
2
330
0
100
AcDbSymbolTable
 70
     2
  0
LAYER
  5
10
330
2
100
AcDbSymbolTableRecord
100
AcDbLayerTableRecord
  2
0
 70
     0
 62
     7
  6
Continuous
370
    -3
390
F
347
3E
  0
LAYER
  5
40
330
2
100
AcDbSymbolTableRecord
100
AcDbLayerTableRecord
  2
_U+30EC_U+30A4_U+30E4_U+30FC 1
 70
     0
 62
     7
  6
Continuous
370
    -3
390
F
347
3E
  0
ENDTAB
  0
TABLE
  2
STYLE
  5
3
330
0
100
AcDbSymbolTable
 70
     1
  0
STYLE
  5
11
330
3
100
AcDbSymbolTableRecord
100
AcDbTextStyleTableRecord
  2
Standard
 70
     0
 40
0.0
 41
1.0
 50
0.0
 71
     0
 42
0.2
  3
txt
  4

  0
ENDTAB
  0
TABLE
  2
VIEW
  5
6
330
0
100
AcDbSymbolTable
 70
     0
  0
ENDTAB
  0
TABLE
  2
UCS
  5
7
330
0
100
AcDbSymbolTable
 70
     0
  0
ENDTAB
  0
TABLE
  2
APPID
  5
9
330
0
100
AcDbSymbolTable
 70
     1
  0
APPID
  5
12
330
9
100
AcDbSymbolTableRecord
100
AcDbRegAppTableRecord
  2
ACAD
 70
     0
  0
ENDTAB
  0
TABLE
  2
DIMSTYLE
  5
A
330
0
100
AcDbSymbolTable
 70
     1
100
AcDbDimStyleTable
  0
DIMSTYLE
105
27
330
A
100
AcDbSymbolTableRecord
100
AcDbDimStyleTableRecord
  2
Standard
 70
     0
178
     0
340
11
  0
ENDTAB
  0
TABLE
  2
BLOCK_RECORD
  5
1
330
0
100
AcDbSymbolTable
 70
     4
  0
BLOCK_RECORD
  5
1F
330
1
100
AcDbSymbolTableRecord
100
AcDbBlockTableRecord
  2
*Model_Space
340
22
 70
     0
280
     1
281
     0
  0
BLOCK_RECORD
  5
1B
330
1
100
AcDbSymbolTableRecord
100
AcDbBlockTableRecord
  2
*Paper_Space
340
1E
 70
     0
280
     1
281
     0
  0
BLOCK_RECORD
  5
23
330
1
100
AcDbSymbolTableRecord
100
AcDbBlockTableRecord
  2
*Paper_Space0
340
26
 70
     0
280
     1
281
     0
  0
BLOCK_RECORD
  5
80
330
1
100
AcDbSymbolTableRecord
100
AcDbBlockTableRecord
  2
block 2
340
0
102
{BLKREFS
331
81
102
}
 70
     0
280
     1
281
     0
  0
BLOCK_RECORD
  5
B4
330
1
100
AcDbSymbolTableRecord
100
AcDbBlockTableRecord
  2
block 3
340
0
102
{BLKREFS
331
B5
102
}
 70
     0
280
     1
281
     0
  0
BLOCK_RECORD
  5
C8
330
1
100
AcDbSymbolTableRecord
100
AcDbBlockTableRecord
  2
block 4
340
0
102
{BLKREFS
331
C9
102
}
 70
     0
280
     1
281
     0
  0
ENDTAB
  0
ENDSEC
  0
SECTION
  2
BLOCKS
  0
BLOCK
  5
20
330
1F
100
AcDbEntity
  8
0
100
AcDbBlockBegin
  2
*Model_Space
 70
     0
 10
0.0
 20
0.0
 30
0.0
  3
*Model_Space
  1

  0
ENDBLK
  5
21
330
1F
100
AcDbEntity
  8
0
100
AcDbBlockEnd
  0
BLOCK
  5
1C
330
1B
100
AcDbEntity
 67
     1
  8
0
100
AcDbBlockBegin
  2
*Paper_Space
 70
     0
 10
0.0
 20
0.0
 30
0.0
  3
*Paper_Space
  1

  0
ENDBLK
  5
1D
330
1B
100
AcDbEntity
 67
     1
  8
0
100
AcDbBlockEnd
  0
BLOCK
  5
24
330
23
100
AcDbEntity
  8
0
100
AcDbBlockBegin
  2
*Paper_Space0
 70
     0
 10
0.0
 20
0.0
 30
0.0
  3
*Paper_Space0
  1

  0
ENDBLK
  5
25
330
23
100
AcDbEntity
  8
0
100
AcDbBlockEnd
  0
BLOCK
  5
82
330
80
100
AcDbEntity
  8
0
100
AcDbBlockBegin
  2
block 2
 70
     0
 10
0.0
 20
0.0
 30
0.0
  3
block 2
  1

  0
SPLINE
  5
84
330
80
100
AcDbEntity
  8
_U+30EC_U+30A4_U+30E4_U+30FC 1
370
     0
100
AcDbSpline
210
0.0
220
0.0
230
1.0
 70
    11
 71
     3
 72
   242
 73
   238
 74
     0
 42
0.0000000001
 43
0.0000000001
 12
1.0
 22
0.0
 32
0.0
 13
1.0
 23
0.0
 33
0.0
 40
0.0
 40
0.0
 40
0.0
 40
0.0
 40
1.0
 40
1.0
 40
1.0
 40
2.0
 40
2.0
 40
2.0
 40
3.0
 40
3.0
 40
3.0
 40
4.0
 40
4.0
 40
4.0
 40
5.0
 40
5.0
 40
5.0
 40
6.0
 40
6.0
 40
6.0
 40
7.0
 40
7.0
 40
7.0
 40
8.0
 40
8.0
 40
8.0
 40
9.0
 40
9.0
 40
9.0
 40
10.0
 40
10.0
 40
10.0
 40
11.0
 40
11.0
 40
11.0
 40
12.0
 40
12.0
 40
12.0
 40
13.0
 40
13.0
 40
13.0
 40
14.0
 40
14.0
 40
14.0
 40
15.0
 40
15.0
 40
15.0
 40
16.0
 40
16.0
 40
16.0
 40
17.0
 40
17.0
 40
17.0
 40
18.0
 40
18.0
 40
18.0
 40
19.0
 40
19.0
 40
19.0
 40
20.0
 40
20.0
 40
20.0
 40
21.0
 40
21.0
 40
21.0
 40
22.0
 40
22.0
 40
22.0
 40
23.0
 40
23.0
 40
23.0
 40
24.0
 40
24.0
 40
24.0
 40
25.0
 40
25.0
 40
25.0
 40
26.0
 40
26.0
 40
26.0
 40
27.0
 40
27.0
 40
27.0
 40
28.0
 40
28.0
 40
28.0
 40
29.0
 40
29.0
 40
29.0
 40
30.0
 40
30.0
 40
30.0
 40
31.0
 40
31.0
 40
31.0
 40
32.0
 40
32.0
 40
32.0
 40
33.0
 40
33.0
 40
33.0
 40
34.0
 40
34.0
 40
34.0
 40
35.0
 40
35.0
 40
35.0
 40
36.0
 40
36.0
 40
36.0
 40
37.0
 40
37.0
 40
37.0
 40
38.0
 40
38.0
 40
38.0
 40
39.0
 40
39.0
 40
39.0
 40
40.0
 40
40.0
 40
40.0
 40
41.0
 40
41.0
 40
41.0
 40
42.0
 40
42.0
 40
42.0
 40
43.0
 40
43.0
 40
43.0
 40
44.0
 40
44.0
 40
44.0
 40
45.0
 40
45.0
 40
45.0
 40
46.0
 40
46.0
 40
46.0
 40
47.0
 40
47.0
 40
47.0
 40
48.0
 40
48.0
 40
48.0
 40
49.0
 40
49.0
 40
49.0
 40
50.0
 40
50.0
 40
50.0
 40
51.0
 40
51.0
 40
51.0
 40
52.0
 40
52.0
 40
52.0
 40
53.0
 40
53.0
 40
53.0
 40
54.0
 40
54.0
 40
54.0
 40
55.0
 40
55.0
 40
55.0
 40
56.0
 40
56.0
 40
56.0
 40
57.0
 40
57.0
 40
57.0
 40
58.0
 40
58.0
 40
58.0
 40
59.0
 40
59.0
 40
59.0
 40
60.0
 40
60.0
 40
60.0
 40
61.0
 40
61.0
 40
61.0
 40
62.0
 40
62.0
 40
62.0
 40
63.0
 40
63.0
 40
63.0
 40
64.0
 40
64.0
 40
64.0
 40
65.0
 40
65.0
 40
65.0
 40
66.0
 40
66.0
 40
66.0
 40
67.0
 40
67.0
 40
67.0
 40
68.0
 40
68.0
 40
68.0
 40
69.0
 40
69.0
 40
69.0
 40
70.0
 40
70.0
 40
70.0
 40
71.0
 40
71.0
 40
71.0
 40
72.0
 40
72.0
 40
72.0
 40
73.0
 40
73.0
 40
73.0
 40
74.0
 40
74.0
 40
74.0
 40
75.0
 40
75.0
 40
75.0
 40
76.0
 40
76.0
 40
76.0
 40
77.0
 40
77.0
 40
77.0
 40
78.0
 40
78.0
 40
78.0
 40
79.0
 40
79.0
 40
79.0
 40
79.0
 10
98.67029077394355
 20
-120.5623222897379
 30
0.0
 10
98.67029077394355
 20
-120.5623222897379
 30
0.0
 10
98.44842662469345
 20
-120.5623222897379
 30
0.0
 10
98.44842662469345
 20
-120.5623222897379
 30
0.0
 10
98.44842662469345
 20
-120.5623222897379
 30
0.0
 10
98.20554739298333
 20
-120.5623222897379
 30
0.0
 10
98.20554739298333
 20
-120.5623222897379
 30
0.0
 10
98.20554739298333
 20
-120.5623222897379
 30
0.0
 10
98.31682397715691
 20
-120.6046969642065
 30
0.0
 10
98.31682397715691
 20
-120.6046969642065
 30
0.0
 10
98.32612573496708
 20
-120.609003333563
 30
0.0
 10
98.33715004051989
 20
-120.6152045054365
 30
0.0
 10
98.33715004051989
 20
-120.6279513587319
 30
0.0
 10
98.33715004051989
 20
-120.6491386959662
 30
0.0
 10
98.30924476708935
 20
-120.6555121226139
 30
0.0
 10
98.29098576101754
 20
-120.6596462371962
 30
0.0
 10
98.28168400320736
 20
-120.6829006317216
 30
0.0
 10
98.25550127751946
 20
-120.7485297007157
 30
0.0
 10
98.23896481919026
 20
-120.7929714324754
 30
0.0
 10
98.23896481919026
 20
-120.7929714324754
 30
0.0
 10
98.47598738857545
 20
-120.7929714324754
 30
0.0
 10
98.47598738857545
 20
-120.7929714324754
 30
0.0
 10
98.55556909428472
 20
-120.7929714324754
 30
0.0
 10
98.72782386854722
 20
-120.7886650631188
 30
0.0
 10
98.85184730601621
 20
-120.7802245791799
 30
0.0
 10
98.85184730601621
 20
-120.7802245791799
 30
0.0
 10
98.85184730601621
 20
-120.9579915062188
 30
0.0
 10
98.85184730601621
 20
-120.9579915062188
 30
0.0
 10
98.77984481037448
 20
-120.9536851368623
 30
0.0
 10
98.76124129475414
 20
-120.9536851368623
 30
0.0
 10
98.60380043107823
 20
-120.94955102228
 30
0.0
 10
98.5758951576477
 20
-121.1038913000192
 30
0.0
 10
98.5373100882129
 20
-121.1843342795998
 30
0.0
 10
98.49838050922958
 20
-121.2540974631761
 30
0.0
 10
98.60380043107823
 20
-121.3133531055224
 30
0.0
 10
98.69647349963144
 20
-121.3810492318075
 30
0.0
 10
98.7870795108935
 20
-121.4635592686792
 30
0.0
 10
98.7870795108935
 20
-121.4635592686792
 30
0.0
 10
98.68338213678749
 20
-121.6306463997139
 30
0.0
 10
98.68338213678749
 20
-121.6306463997139
 30
0.0
 10
98.66305607342451
 20
-121.611698374545
 30
0.0
 10
98.65203176787172
 20
-121.6032578906061
 30
0.0
 10
98.5538465465421
 20
-121.518508541669
 30
0.0
 10
98.511127362525
 20
-121.480440236557
 30
0.0
 10
98.45945093024625
 20
-121.4446112435104
 30
0.0
 10
98.38917098234715
 20
-121.4001695117507
 30
0.0
 10
98.20382484524072
 20
-121.5863769227284
 30
0.0
 10
98.0243353704592
 20
-121.6096313172538
 30
0.0
 10
97.77043183319628
 20
-121.639259138427
 30
0.0
 10
97.77043183319628
 20
-121.639259138427
 30
0.0
 10
97.67982582193422
 20
-121.4594251540969
 30
0.0
 10
97.67982582193422
 20
-121.4594251540969
 30
0.0
 10
97.95750051804535
 20
-121.4551187847404
 30
0.0
 10
98.11115177668749
 20
-121.4297973329238
 30
0.0
 10
98.24447697196666
 20
-121.3197265321701
 30
0.0
 10
98.14077959786064
 20
-121.2689113737626
 30
0.0
 10
98.06326494944253
 20
-121.2415228646549
 30
0.0
 10
98.03157007097822
 20
-121.2287760113595
 30
0.0
 10
98.01503361264902
 20
-121.2563367752415
 30
0.0
 10
98.00194224980507
 20
-121.2752848004103
 30
0.0
 10
97.97782658140832
 20
-121.3092189909401
 30
0.0
 10
97.97782658140832
 20
-121.3092189909401
 30
0.0
 10
97.80557180714584
 20
-121.2267089540683
 30
0.0
 10
97.80557180714584
 20
-121.2267089540683
 30
0.0
 10
97.87791881233608
 20
-121.1462659744877
 30
0.0
 10
97.93166230190597
 20
-121.0510090843206
 30
0.0
 10
97.9816161864421
 20
-120.94955102228
 30
0.0
 10
97.814873564956
 20
-120.9536851368623
 30
0.0
 10
97.79661455888419
 20
-120.9536851368623
 30
0.0
 10
97.72426755369393
 20
-120.9579915062188
 30
0.0
 10
97.72426755369393
 20
-120.9579915062188
 30
0.0
 10
97.72426755369393
 20
-120.7802245791799
 30
0.0
 10
97.72426755369393
 20
-120.7802245791799
 30
0.0
 10
97.84656844342031
 20
-120.7865980058277
 30
0.0
 10
98.0298475232356
 20
-120.7909043751842
 30
0.0
 10
98.05189613434119
 20
-120.7909043751842
 30
0.0
 10
98.06671004492777
 20
-120.7569701846545
 30
0.0
 10
98.11494138172127
 20
-120.6363918426708
 30
0.0
 10
98.13147784005047
 20
-120.5623222897379
 30
0.0
 10
98.11494138172127
 20
-120.5623222897379
 30
0.0
 10
97.95922306578798
 20
-120.5686957163856
 30
0.0
 10
97.78903534881664
 20
-120.581442569681
 30
0.0
 10
97.78903534881664
 20
-120.581442569681
 30
0.0
 10
97.78903534881664
 20
-120.7147677649602
 30
0.0
 10
97.78903534881664
 20
-120.7147677649602
 30
0.0
 10
97.74631616479954
 20
-120.7400892167768
 30
0.0
 10
97.69463973252078
 20
-120.7717840952411
 30
0.0
 10
97.57785099557081
 20
-120.8374131642351
 30
0.0
 10
97.57785099557081
 20
-120.8374131642351
 30
0.0
 10
97.57785099557081
 20
-120.9833129580354
 30
0.0
 10
97.57785099557081
 20
-120.9833129580354
 30
0.0
 10
97.57785099557081
 20
-120.9833129580354
 30
0.0
 10
97.57785099557081
 20
-121.4509846701581
 30
0.0
 10
97.57785099557081
 20
-121.4509846701581
 30
0.0
 10
97.57785099557081
 20
-121.5777641840153
 30
0.0
 10
97.54650062665505
 20
-121.6370198263616
 30
0.0
 10
97.29845375171706
 20
-121.6285793424227
 30
0.0
 10
97.29845375171706
 20
-121.6285793424227
 30
0.0
 10
97.20750323090647
 20
-121.4213568489849
 30
0.0
 10
97.20750323090647
 20
-121.4213568489849
 30
0.0
 10
97.26331377776751
 20
-121.4339314475061
 30
0.0
 10
97.30568845223608
 20
-121.4382378168627
 30
0.0
 10
97.34082842618562
 20
-121.4382378168627
 30
0.0
 10
97.40766327859947
 20
-121.4382378168627
 30
0.0
 10
97.41696503640965
 20
-121.4149834223372
 30
0.0
 10
97.41696503640965
 20
-121.3493543533432
 30
0.0
 10
97.41696503640965
 20
-121.3493543533432
 30
0.0
 10
97.41696503640965
 20
-120.9199232011068
 30
0.0
 10
97.41696503640965
 20
-120.9199232011068
 30
0.0
 10
97.33152666837546
 20
-120.96005856351
 30
0.0
 10
97.31671275778888
 20
-120.9664319901577
 30
0.0
 10
97.27606063106293
 20
-120.9855522701008
 30
0.0
 10
97.27227102602916
 20
-121.0065673525609
 30
0.0
 10
97.26882593054391
 20
-121.036195173734
 30
0.0
 10
97.25194496266619
 20
-121.036195173734
 30
0.0
 10
97.24471026214717
 20
-121.036195173734
 30
0.0
 10
97.23540850433699
 20
-121.0320610591517
 30
0.0
 10
97.22989635156058
 20
-121.0088066646263
 30
0.0
 10
97.22989635156058
 20
-121.0088066646263
 30
0.0
 10
97.18338756250971
 20
-120.8162258270008
 30
0.0
 10
97.18338756250971
 20
-120.8162258270008
 30
0.0
 10
97.31120060501249
 20
-120.7697170379499
 30
0.0
 10
97.36873369961616
 20
-120.7464626434245
 30
0.0
 10
97.41696503640965
 20
-120.7252753061902
 30
0.0
 10
97.41696503640965
 20
-120.7252753061902
 30
0.0
 10
97.41696503640965
 20
-120.3127251218315
 30
0.0
 10
97.41696503640965
 20
-120.3127251218315
 30
0.0
 10
97.41696503640965
 20
-120.3127251218315
 30
0.0
 10
97.37045624735877
 20
-120.3127251218315
 30
0.0
 10
97.37045624735877
 20
-120.3127251218315
 30
0.0
 10
97.37045624735877
 20
-120.3127251218315
 30
0.0
 10
97.30189884720231
 20
-120.3127251218315
 30
0.0
 10
97.30189884720231
 20
-120.3127251218315
 30
0.0
 10
97.24264320485601
 20
-120.3127251218315
 30
0.0
 10
97.23540850433699
 20
-120.3127251218315
 30
0.0
 10
97.2040581354212
 20
-120.3190985484793
 30
0.0
 10
97.2040581354212
 20
-120.3190985484793
 30
0.0
 10
97.2040581354212
 20
-120.1244506535626
 30
0.0
 10
97.2040581354212
 20
-120.1244506535626
 30
0.0
 10
97.22782929426944
 20
-120.1308240802104
 30
0.0
 10
97.23540850433699
 20
-120.1308240802104
 30
0.0
 10
97.2963866944259
 20
-120.1308240802104
 30
0.0
 10
97.2963866944259
 20
-120.1308240802104
 30
0.0
 10
97.41317543137588
 20
-120.1308240802104
 30
0.0
 10
97.41317543137588
 20
-120.1308240802104
 30
0.0
 10
97.41317543137588
 20
-120.061060896634
 30
0.0
 10
97.41317543137588
 20
-119.9785508597623
 30
0.0
 10
97.41145288363325
 20
-119.9742444904058
 30
0.0
 10
97.4038736735657
 20
-119.7944105060757
 30
0.0
 10
97.4038736735657
 20
-119.7754624809068
 30
0.0
 10
97.40215112582308
 20
-119.728953691856
 30
0.0
 10
97.40215112582308
 20
-119.728953691856
 30
0.0
 10
97.59094235841476
 20
-119.7373941757948
 30
0.0
 10
97.59094235841476
 20
-119.7373941757948
 30
0.0
 10
97.60024411622494
 20
-119.7373941757948
 30
0.0
 10
97.6188476318453
 20
-119.739461233086
 30
0.0
 10
97.6188476318453
 20
-119.7563422009637
 30
0.0
 10
97.6188476318453
 20
-119.7754624809068
 30
0.0
 10
97.60575626900135
 20
-119.7859700221369
 30
0.0
 10
97.58336314834722
 20
-119.80509030208
 30
0.0
 10
97.58336314834722
 20
-119.8557332057132
 30
0.0
 10
97.57785099557081
 20
-120.0843152911595
 30
0.0
 10
97.57991805286197
 20
-120.1308240802104
 30
0.0
 10
97.69257267522964
 20
-120.1308240802104
 30
0.0
 10
97.70394149033096
 20
-120.1308240802104
 30
0.0
 10
97.78903534881664
 20
-120.1223835962715
 30
0.0
 10
97.78903534881664
 20
-120.1223835962715
 30
0.0
 10
97.78903534881664
 20
-120.3170314911881
 30
0.0
 10
97.78903534881664
 20
-120.3170314911881
 30
0.0
 10
97.75561792260972
 20
-120.3147921791227
 30
0.0
 10
97.69636228026341
 20
-120.3106580645404
 30
0.0
 10
97.57785099557081
 20
-120.3127251218315
 30
0.0
 10
97.57785099557081
 20
-120.3127251218315
 30
0.0
 10
97.57785099557081
 20
-120.6512057532573
 30
0.0
 10
97.57785099557081
 20
-120.6512057532573
 30
0.0
 10
97.62608233236432
 20
-120.6279513587319
 30
0.0
 10
97.68361542696799
 20
-120.6003905948499
 30
0.0
 10
97.72599010143657
 20
-120.5771362003245
 30
0.0
 10
97.72599010143657
 20
-120.5771362003245
 30
0.0
 10
97.72599010143657
 20
-120.3995415280598
 30
0.0
 10
97.72599010143657
 20
-120.3995415280598
 30
0.0
 10
97.82624238005734
 20
-120.412116126581
 30
0.0
 10
97.92959524461483
 20
-120.412116126581
 30
0.0
 10
98.03157007097822
 20
-120.412116126581
 30
0.0
 10
98.01124400761525
 20
-120.3170314911881
 30
0.0
 10
97.9871283392185
 20
-120.2345214543164
 30
0.0
 10
97.93166230190597
 20
-120.1011962590372
 30
0.0
 10
97.89273272292266
 20
-120.1032633163284
 30
0.0
 10
97.8203857177324
 20
-120.1075696856849
 30
0.0
 10
97.78731280107401
 20
-120.1096367429761
 30
0.0
 10
97.78731280107401
 20
-120.1096367429761
 30
0.0
 10
97.78731280107401
 20
-119.929802758646
 30
0.0
 10
97.78731280107401
 20
-119.929802758646
 30
0.0
 10
97.89652232795643
 20
-119.9382432425849
 30
0.0
 10
98.04810652930742
 20
-119.9425496119414
 30
0.0
 10
98.12045353449767
 20
-119.9425496119414
 30
0.0
 10
98.12045353449767
 20
-119.9425496119414
 30
0.0
 10
98.19280053968791
 20
-119.9425496119414
 30
0.0
 10
98.19280053968791
 20
-119.9425496119414
 30
0.0
 10
98.19280053968791
 20
-119.7795965954891
 30
0.0
 10
98.19280053968791
 20
-119.7690890542591
 30
0.0
 10
98.19073348239677
 20
-119.7141397812694
 30
0.0
 10
98.19073348239677
 20
-119.7141397812694
 30
0.0
 10
98.38710392505601
 20
-119.739461233086
 30
0.0
 10
98.38710392505601
 20
-119.739461233086
 30
0.0
 10
98.39089353008978
 20
-119.739461233086
 30
0.0
 10
98.40949704571013
 20
-119.7415282903771
 30
0.0
 10
98.40949704571013
 20
-119.7584092582548
 30
0.0
 10
98.40949704571013
 20
-119.7732231688414
 30
0.0
 10
98.40019528789996
 20
-119.7818359075546
 30
0.0
 10
98.3760796195032
 20
-119.7966498181411
 30
0.0
 10
98.37056746672681
 20
-119.8621066323609
 30
0.0
 10
98.36850040943565
 20
-119.8832939695952
 30
0.0
 10
98.36850040943565
 20
-119.9425496119414
 30
0.0
 10
98.36850040943565
 20
-119.9425496119414
 30
0.0
 10
98.4518717201787
 20
-119.9425496119414
 30
0.0
 10
98.4518717201787
 20
-119.9425496119414
 30
0.0
 10
98.52421872536895
 20
-119.9425496119414
 30
0.0
 10
98.67614743626847
 20
-119.9382432425849
 30
0.0
 10
98.78535696315089
 20
-119.929802758646
 30
0.0
 10
98.78535696315089
 20
-119.929802758646
 30
0.0
 10
98.78535696315089
 20
-120.1096367429761
 30
0.0
 10
98.78535696315089
 20
-120.1096367429761
 30
0.0
 10
98.75917423746299
 20
-120.1075696856849
 30
0.0
 10
98.65582137290549
 20
-120.1032633163284
 30
0.0
 10
98.62033688940743
 20
-120.1011962590372
 30
0.0
 10
98.607590036112
 20
-120.1520114174446
 30
0.0
 10
98.57796221493885
 20
-120.2641492754895
 30
0.0
 10
98.52042912033518
 20
-120.4036756426421
 30
0.0
 10
98.55763615157588
 20
-120.4036756426421
 30
0.0
 10
98.80017087373746
 20
-120.3847276174733
 30
0.0
 10
98.85391436330735
 20
-120.3824883054079
 30
0.0
 10
98.85391436330735
 20
-120.3824883054079
 30
0.0
 10
98.85391436330735
 20
-120.5666286590945
 30
0.0
 10
98.85391436330735
 20
-120.5666286590945
 30
0.0
 10
98.82773163761946
 20
-120.5666286590945
 30
0.0
 10
98.81291772703288
 20
-120.5623222897379
 30
0.0
 10
98.67029077394355
 20
-120.5623222897379
 30
0.0
  0
SPLINE
  5
85
330
80
100
AcDbEntity
  8
_U+30EC_U+30A4_U+30E4_U+30FC 1
370
     0
100
AcDbSpline
210
0.0
220
0.0
230
1.0
 70
    11
 71
     3
 72
    20
 73
    16
 74
     0
 42
0.0000000001
 43
0.0000000001
 12
1.0
 22
0.0
 32
0.0
 13
1.0
 23
0.0
 33
0.0
 40
0.0
 40
0.0
 40
0.0
 40
0.0
 40
1.0
 40
1.0
 40
1.0
 40
2.0
 40
2.0
 40
2.0
 40
3.0
 40
3.0
 40
3.0
 40
4.0
 40
4.0
 40
4.0
 40
5.0
 40
5.0
 40
5.0
 40
5.0
 10
98.12045353449767
 20
-120.0970621444549
 30
0.0
 10
98.12045353449767
 20
-120.0970621444549
 30
0.0
 10
98.09289277061568
 20
-120.0970621444549
 30
0.0
 10
98.09289277061568
 20
-120.0970621444549
 30
0.0
 10
98.13354489734162
 20
-120.1964531492044
 30
0.0
 10
98.16110566122362
 20
-120.2767238740107
 30
0.0
 10
98.19073348239677
 20
-120.4036756426421
 30
0.0
 10
98.19073348239677
 20
-120.4036756426421
 30
0.0
 10
98.37229001446943
 20
-120.4036756426421
 30
0.0
 10
98.37229001446943
 20
-120.4036756426421
 30
0.0
 10
98.40019528789996
 20
-120.3106580645404
 30
0.0
 10
98.42052135126293
 20
-120.2260809703775
 30
0.0
 10
98.4408474146259
 20
-120.0970621444549
 30
0.0
 10
98.4408474146259
 20
-120.0970621444549
 30
0.0
 10
98.12045353449767
 20
-120.0970621444549
 30
0.0
 10
98.12045353449767
 20
-120.0970621444549
 30
0.0
  0
SPLINE
  5
86
330
80
100
AcDbEntity
  8
_U+30EC_U+30A4_U+30E4_U+30FC 1
370
     0
100
AcDbSpline
210
0.0
220
0.0
230
1.0
 70
    11
 71
     3
 72
    17
 73
    13
 74
     0
 42
0.0000000001
 43
0.0000000001
 12
1.0
 22
0.0
 32
0.0
 13
1.0
 23
0.0
 33
0.0
 40
0.0
 40
0.0
 40
0.0
 40
0.0
 40
1.0
 40
1.0
 40
1.0
 40
2.0
 40
2.0
 40
2.0
 40
3.0
 40
3.0
 40
3.0
 40
4.0
 40
4.0
 40
4.0
 40
4.0
 10
98.1759195718102
 20
-120.9474839649888
 30
0.0
 10
98.16110566122362
 20
-120.9769395313877
 30
0.0
 10
98.1166639294639
 20
-121.0701293642637
 30
0.0
 10
98.10736217165372
 20
-121.0890773894326
 30
0.0
 10
98.27410479313981
 20
-121.1483330317789
 30
0.0
 10
98.29270830876015
 20
-121.1547064584266
 30
0.0
 10
98.35575355614023
 20
-121.1822672223086
 30
0.0
 10
98.40364038338521
 20
-121.0954508160803
 30
0.0
 10
98.42431095629671
 20
-121.0213812631474
 30
0.0
 10
98.43705780959213
 20
-120.9474839649888
 30
0.0
 10
98.43705780959213
 20
-120.9474839649888
 30
0.0
 10
98.1759195718102
 20
-120.9474839649888
 30
0.0
 10
98.1759195718102
 20
-120.9474839649888
 30
0.0
  0
HATCH
  5
87
330
80
100
AcDbEntity
  8
_U+30EC_U+30A4_U+30E4_U+30FC 1
 62
   179
420
  2234388
100
AcDbHatch
 10
0.0
 20
0.0
 30
0.0
210
0.0
220
0.0
230
1.0
  2
SOLID
 70
     1
 71
     0
 91
        3
 92
        1
 93
        1
 72
     4
 94
        3
 73
     0
 74
     1
 95
      242
 96
      238
 40
0.0
 40
0.0
 40
0.0
 40
0.0
 40
1.0
 40
1.0
 40
1.0
 40
2.0
 40
2.0
 40
2.0
 40
3.0
 40
3.0
 40
3.0
 40
4.0
 40
4.0
 40
4.0
 40
5.0
 40
5.0
 40
5.0
 40
6.0
 40
6.0
 40
6.0
 40
7.0
 40
7.0
 40
7.0
 40
8.0
 40
8.0
 40
8.0
 40
9.0
 40
9.0
 40
9.0
 40
10.0
 40
10.0
 40
10.0
 40
11.0
 40
11.0
 40
11.0
 40
12.0
 40
12.0
 40
12.0
 40
13.0
 40
13.0
 40
13.0
 40
14.0
 40
14.0
 40
14.0
 40
15.0
 40
15.0
 40
15.0
 40
16.0
 40
16.0
 40
16.0
 40
17.0
 40
17.0
 40
17.0
 40
18.0
 40
18.0
 40
18.0
 40
19.0
 40
19.0
 40
19.0
 40
20.0
 40
20.0
 40
20.0
 40
21.0
 40
21.0
 40
21.0
 40
22.0
 40
22.0
 40
22.0
 40
23.0
 40
23.0
 40
23.0
 40
24.0
 40
24.0
 40
24.0
 40
25.0
 40
25.0
 40
25.0
 40
26.0
 40
26.0
 40
26.0
 40
27.0
 40
27.0
 40
27.0
 40
28.0
 40
28.0
 40
28.0
 40
29.0
 40
29.0
 40
29.0
 40
30.0
 40
30.0
 40
30.0
 40
31.0
 40
31.0
 40
31.0
 40
32.0
 40
32.0
 40
32.0
 40
33.0
 40
33.0
 40
33.0
 40
34.0
 40
34.0
 40
34.0
 40
35.0
 40
35.0
 40
35.0
 40
36.0
 40
36.0
 40
36.0
 40
37.0
 40
37.0
 40
37.0
 40
38.0
 40
38.0
 40
38.0
 40
39.0
 40
39.0
 40
39.0
 40
40.0
 40
40.0
 40
40.0
 40
41.0
 40
41.0
 40
41.0
 40
42.0
 40
42.0
 40
42.0
 40
43.0
 40
43.0
 40
43.0
 40
44.0
 40
44.0
 40
44.0
 40
45.0
 40
45.0
 40
45.0
 40
46.0
 40
46.0
 40
46.0
 40
47.0
 40
47.0
 40
47.0
 40
48.0
 40
48.0
 40
48.0
 40
49.0
 40
49.0
 40
49.0
 40
50.0
 40
50.0
 40
50.0
 40
51.0
 40
51.0
 40
51.0
 40
52.0
 40
52.0
 40
52.0
 40
53.0
 40
53.0
 40
53.0
 40
54.0
 40
54.0
 40
54.0
 40
55.0
 40
55.0
 40
55.0
 40
56.0
 40
56.0
 40
56.0
 40
57.0
 40
57.0
 40
57.0
 40
58.0
 40
58.0
 40
58.0
 40
59.0
 40
59.0
 40
59.0
 40
60.0
 40
60.0
 40
60.0
 40
61.0
 40
61.0
 40
61.0
 40
62.0
 40
62.0
 40
62.0
 40
63.0
 40
63.0
 40
63.0
 40
64.0
 40
64.0
 40
64.0
 40
65.0
 40
65.0
 40
65.0
 40
66.0
 40
66.0
 40
66.0
 40
67.0
 40
67.0
 40
67.0
 40
68.0
 40
68.0
 40
68.0
 40
69.0
 40
69.0
 40
69.0
 40
70.0
 40
70.0
 40
70.0
 40
71.0
 40
71.0
 40
71.0
 40
72.0
 40
72.0
 40
72.0
 40
73.0
 40
73.0
 40
73.0
 40
74.0
 40
74.0
 40
74.0
 40
75.0
 40
75.0
 40
75.0
 40
76.0
 40
76.0
 40
76.0
 40
77.0
 40
77.0
 40
77.0
 40
78.0
 40
78.0
 40
78.0
 40
79.0
 40
79.0
 40
79.0
 40
79.0
 10
98.67029077394355
 20
-120.5623222897379
 10
98.67029077394355
 20
-120.5623222897379
 10
98.44842662469345
 20
-120.5623222897379
 10
98.44842662469345
 20
-120.5623222897379
 10
98.44842662469345
 20
-120.5623222897379
 10
98.20554739298333
 20
-120.5623222897379
 10
98.20554739298333
 20
-120.5623222897379
 10
98.20554739298333
 20
-120.5623222897379
 10
98.31682397715691
 20
-120.6046969642065
 10
98.31682397715691
 20
-120.6046969642065
 10
98.32612573496708
 20
-120.609003333563
 10
98.33715004051989
 20
-120.6152045054365
 10
98.33715004051989
 20
-120.6279513587319
 10
98.33715004051989
 20
-120.6491386959662
 10
98.30924476708935
 20
-120.6555121226139
 10
98.29098576101754
 20
-120.6596462371962
 10
98.28168400320736
 20
-120.6829006317216
 10
98.25550127751946
 20
-120.7485297007157
 10
98.23896481919026
 20
-120.7929714324754
 10
98.23896481919026
 20
-120.7929714324754
 10
98.47598738857545
 20
-120.7929714324754
 10
98.47598738857545
 20
-120.7929714324754
 10
98.55556909428472
 20
-120.7929714324754
 10
98.72782386854722
 20
-120.7886650631188
 10
98.85184730601621
 20
-120.7802245791799
 10
98.85184730601621
 20
-120.7802245791799
 10
98.85184730601621
 20
-120.9579915062188
 10
98.85184730601621
 20
-120.9579915062188
 10
98.77984481037448
 20
-120.9536851368623
 10
98.76124129475414
 20
-120.9536851368623
 10
98.60380043107823
 20
-120.94955102228
 10
98.5758951576477
 20
-121.1038913000192
 10
98.5373100882129
 20
-121.1843342795998
 10
98.49838050922958
 20
-121.2540974631761
 10
98.60380043107823
 20
-121.3133531055224
 10
98.69647349963144
 20
-121.3810492318075
 10
98.7870795108935
 20
-121.4635592686792
 10
98.7870795108935
 20
-121.4635592686792
 10
98.68338213678749
 20
-121.6306463997139
 10
98.68338213678749
 20
-121.6306463997139
 10
98.66305607342451
 20
-121.611698374545
 10
98.65203176787172
 20
-121.6032578906061
 10
98.5538465465421
 20
-121.518508541669
 10
98.511127362525
 20
-121.480440236557
 10
98.45945093024625
 20
-121.4446112435104
 10
98.38917098234715
 20
-121.4001695117507
 10
98.20382484524072
 20
-121.5863769227284
 10
98.0243353704592
 20
-121.6096313172538
 10
97.77043183319628
 20
-121.639259138427
 10
97.77043183319628
 20
-121.639259138427
 10
97.67982582193422
 20
-121.4594251540969
 10
97.67982582193422
 20
-121.4594251540969
 10
97.95750051804535
 20
-121.4551187847404
 10
98.11115177668749
 20
-121.4297973329238
 10
98.24447697196666
 20
-121.3197265321701
 10
98.14077959786064
 20
-121.2689113737626
 10
98.06326494944253
 20
-121.2415228646549
 10
98.03157007097822
 20
-121.2287760113595
 10
98.01503361264902
 20
-121.2563367752415
 10
98.00194224980507
 20
-121.2752848004103
 10
97.97782658140832
 20
-121.3092189909401
 10
97.97782658140832
 20
-121.3092189909401
 10
97.80557180714584
 20
-121.2267089540683
 10
97.80557180714584
 20
-121.2267089540683
 10
97.87791881233608
 20
-121.1462659744877
 10
97.93166230190597
 20
-121.0510090843206
 10
97.9816161864421
 20
-120.94955102228
 10
97.814873564956
 20
-120.9536851368623
 10
97.79661455888419
 20
-120.9536851368623
 10
97.72426755369393
 20
-120.9579915062188
 10
97.72426755369393
 20
-120.9579915062188
 10
97.72426755369393
 20
-120.7802245791799
 10
97.72426755369393
 20
-120.7802245791799
 10
97.84656844342031
 20
-120.7865980058277
 10
98.0298475232356
 20
-120.7909043751842
 10
98.05189613434119
 20
-120.7909043751842
 10
98.06671004492777
 20
-120.7569701846545
 10
98.11494138172127
 20
-120.6363918426708
 10
98.13147784005047
 20
-120.5623222897379
 10
98.11494138172127
 20
-120.5623222897379
 10
97.95922306578798
 20
-120.5686957163856
 10
97.78903534881664
 20
-120.581442569681
 10
97.78903534881664
 20
-120.581442569681
 10
97.78903534881664
 20
-120.7147677649602
 10
97.78903534881664
 20
-120.7147677649602
 10
97.74631616479954
 20
-120.7400892167768
 10
97.69463973252078
 20
-120.7717840952411
 10
97.57785099557081
 20
-120.8374131642351
 10
97.57785099557081
 20
-120.8374131642351
 10
97.57785099557081
 20
-120.9833129580354
 10
97.57785099557081
 20
-120.9833129580354
 10
97.57785099557081
 20
-120.9833129580354
 10
97.57785099557081
 20
-121.4509846701581
 10
97.57785099557081
 20
-121.4509846701581
 10
97.57785099557081
 20
-121.5777641840153
 10
97.54650062665505
 20
-121.6370198263616
 10
97.29845375171706
 20
-121.6285793424227
 10
97.29845375171706
 20
-121.6285793424227
 10
97.20750323090647
 20
-121.4213568489849
 10
97.20750323090647
 20
-121.4213568489849
 10
97.26331377776751
 20
-121.4339314475061
 10
97.30568845223608
 20
-121.4382378168627
 10
97.34082842618562
 20
-121.4382378168627
 10
97.40766327859947
 20
-121.4382378168627
 10
97.41696503640965
 20
-121.4149834223372
 10
97.41696503640965
 20
-121.3493543533432
 10
97.41696503640965
 20
-121.3493543533432
 10
97.41696503640965
 20
-120.9199232011068
 10
97.41696503640965
 20
-120.9199232011068
 10
97.33152666837546
 20
-120.96005856351
 10
97.31671275778888
 20
-120.9664319901577
 10
97.27606063106293
 20
-120.9855522701008
 10
97.27227102602916
 20
-121.0065673525609
 10
97.26882593054391
 20
-121.036195173734
 10
97.25194496266619
 20
-121.036195173734
 10
97.24471026214717
 20
-121.036195173734
 10
97.23540850433699
 20
-121.0320610591517
 10
97.22989635156058
 20
-121.0088066646263
 10
97.22989635156058
 20
-121.0088066646263
 10
97.18338756250971
 20
-120.8162258270008
 10
97.18338756250971
 20
-120.8162258270008
 10
97.31120060501249
 20
-120.7697170379499
 10
97.36873369961616
 20
-120.7464626434245
 10
97.41696503640965
 20
-120.7252753061902
 10
97.41696503640965
 20
-120.7252753061902
 10
97.41696503640965
 20
-120.3127251218315
 10
97.41696503640965
 20
-120.3127251218315
 10
97.41696503640965
 20
-120.3127251218315
 10
97.37045624735877
 20
-120.3127251218315
 10
97.37045624735877
 20
-120.3127251218315
 10
97.37045624735877
 20
-120.3127251218315
 10
97.30189884720231
 20
-120.3127251218315
 10
97.30189884720231
 20
-120.3127251218315
 10
97.24264320485601
 20
-120.3127251218315
 10
97.23540850433699
 20
-120.3127251218315
 10
97.2040581354212
 20
-120.3190985484793
 10
97.2040581354212
 20
-120.3190985484793
 10
97.2040581354212
 20
-120.1244506535626
 10
97.2040581354212
 20
-120.1244506535626
 10
97.22782929426944
 20
-120.1308240802104
 10
97.23540850433699
 20
-120.1308240802104
 10
97.2963866944259
 20
-120.1308240802104
 10
97.2963866944259
 20
-120.1308240802104
 10
97.41317543137588
 20
-120.1308240802104
 10
97.41317543137588
 20
-120.1308240802104
 10
97.41317543137588
 20
-120.061060896634
 10
97.41317543137588
 20
-119.9785508597623
 10
97.41145288363325
 20
-119.9742444904058
 10
97.4038736735657
 20
-119.7944105060757
 10
97.4038736735657
 20
-119.7754624809068
 10
97.40215112582308
 20
-119.728953691856
 10
97.40215112582308
 20
-119.728953691856
 10
97.59094235841476
 20
-119.7373941757948
 10
97.59094235841476
 20
-119.7373941757948
 10
97.60024411622494
 20
-119.7373941757948
 10
97.6188476318453
 20
-119.739461233086
 10
97.6188476318453
 20
-119.7563422009637
 10
97.6188476318453
 20
-119.7754624809068
 10
97.60575626900135
 20
-119.7859700221369
 10
97.58336314834722
 20
-119.80509030208
 10
97.58336314834722
 20
-119.8557332057132
 10
97.57785099557081
 20
-120.0843152911595
 10
97.57991805286197
 20
-120.1308240802104
 10
97.69257267522964
 20
-120.1308240802104
 10
97.70394149033096
 20
-120.1308240802104
 10
97.78903534881664
 20
-120.1223835962715
 10
97.78903534881664
 20
-120.1223835962715
 10
97.78903534881664
 20
-120.3170314911881
 10
97.78903534881664
 20
-120.3170314911881
 10
97.75561792260972
 20
-120.3147921791227
 10
97.69636228026341
 20
-120.3106580645404
 10
97.57785099557081
 20
-120.3127251218315
 10
97.57785099557081
 20
-120.3127251218315
 10
97.57785099557081
 20
-120.6512057532573
 10
97.57785099557081
 20
-120.6512057532573
 10
97.62608233236432
 20
-120.6279513587319
 10
97.68361542696799
 20
-120.6003905948499
 10
97.72599010143657
 20
-120.5771362003245
 10
97.72599010143657
 20
-120.5771362003245
 10
97.72599010143657
 20
-120.3995415280598
 10
97.72599010143657
 20
-120.3995415280598
 10
97.82624238005734
 20
-120.412116126581
 10
97.92959524461483
 20
-120.412116126581
 10
98.03157007097822
 20
-120.412116126581
 10
98.01124400761525
 20
-120.3170314911881
 10
97.9871283392185
 20
-120.2345214543164
 10
97.93166230190597
 20
-120.1011962590372
 10
97.89273272292266
 20
-120.1032633163284
 10
97.8203857177324
 20
-120.1075696856849
 10
97.78731280107401
 20
-120.1096367429761
 10
97.78731280107401
 20
-120.1096367429761
 10
97.78731280107401
 20
-119.929802758646
 10
97.78731280107401
 20
-119.929802758646
 10
97.89652232795643
 20
-119.9382432425849
 10
98.04810652930742
 20
-119.9425496119414
 10
98.12045353449767
 20
-119.9425496119414
 10
98.12045353449767
 20
-119.9425496119414
 10
98.19280053968791
 20
-119.9425496119414
 10
98.19280053968791
 20
-119.9425496119414
 10
98.19280053968791
 20
-119.7795965954891
 10
98.19280053968791
 20
-119.7690890542591
 10
98.19073348239677
 20
-119.7141397812694
 10
98.19073348239677
 20
-119.7141397812694
 10
98.38710392505601
 20
-119.739461233086
 10
98.38710392505601
 20
-119.739461233086
 10
98.39089353008978
 20
-119.739461233086
 10
98.40949704571013
 20
-119.7415282903771
 10
98.40949704571013
 20
-119.7584092582548
 10
98.40949704571013
 20
-119.7732231688414
 10
98.40019528789996
 20
-119.7818359075546
 10
98.3760796195032
 20
-119.7966498181411
 10
98.37056746672681
 20
-119.8621066323609
 10
98.36850040943565
 20
-119.8832939695952
 10
98.36850040943565
 20
-119.9425496119414
 10
98.36850040943565
 20
-119.9425496119414
 10
98.4518717201787
 20
-119.9425496119414
 10
98.4518717201787
 20
-119.9425496119414
 10
98.52421872536895
 20
-119.9425496119414
 10
98.67614743626847
 20
-119.9382432425849
 10
98.78535696315089
 20
-119.929802758646
 10
98.78535696315089
 20
-119.929802758646
 10
98.78535696315089
 20
-120.1096367429761
 10
98.78535696315089
 20
-120.1096367429761
 10
98.75917423746299
 20
-120.1075696856849
 10
98.65582137290549
 20
-120.1032633163284
 10
98.62033688940743
 20
-120.1011962590372
 10
98.607590036112
 20
-120.1520114174446
 10
98.57796221493885
 20
-120.2641492754895
 10
98.52042912033518
 20
-120.4036756426421
 10
98.55763615157588
 20
-120.4036756426421
 10
98.80017087373746
 20
-120.3847276174733
 10
98.85391436330735
 20
-120.3824883054079
 10
98.85391436330735
 20
-120.3824883054079
 10
98.85391436330735
 20
-120.5666286590945
 10
98.85391436330735
 20
-120.5666286590945
 10
98.82773163761946
 20
-120.5666286590945
 10
98.81291772703288
 20
-120.5623222897379
 10
98.67029077394355
 20
-120.5623222897379
 97
        0
 97
        0
 92
        1
 93
        1
 72
     4
 94
        3
 73
     0
 74
     1
 95
       20
 96
       16
 40
0.0
 40
0.0
 40
0.0
 40
0.0
 40
1.0
 40
1.0
 40
1.0
 40
2.0
 40
2.0
 40
2.0
 40
3.0
 40
3.0
 40
3.0
 40
4.0
 40
4.0
 40
4.0
 40
5.0
 40
5.0
 40
5.0
 40
5.0
 10
98.12045353449767
 20
-120.0970621444549
 10
98.12045353449767
 20
-120.0970621444549
 10
98.09289277061568
 20
-120.0970621444549
 10
98.09289277061568
 20
-120.0970621444549
 10
98.13354489734162
 20
-120.1964531492044
 10
98.16110566122362
 20
-120.2767238740107
 10
98.19073348239677
 20
-120.4036756426421
 10
98.19073348239677
 20
-120.4036756426421
 10
98.37229001446943
 20
-120.4036756426421
 10
98.37229001446943
 20
-120.4036756426421
 10
98.40019528789996
 20
-120.3106580645404
 10
98.42052135126293
 20
-120.2260809703775
 10
98.4408474146259
 20
-120.0970621444549
 10
98.4408474146259
 20
-120.0970621444549
 10
98.12045353449767
 20
-120.0970621444549
 10
98.12045353449767
 20
-120.0970621444549
 97
        0
 97
        0
 92
        1
 93
        1
 72
     4
 94
        3
 73
     0
 74
     1
 95
       17
 96
       13
 40
0.0
 40
0.0
 40
0.0
 40
0.0
 40
1.0
 40
1.0
 40
1.0
 40
2.0
 40
2.0
 40
2.0
 40
3.0
 40
3.0
 40
3.0
 40
4.0
 40
4.0
 40
4.0
 40
4.0
 10
98.1759195718102
 20
-120.9474839649888
 10
98.16110566122362
 20
-120.9769395313877
 10
98.1166639294639
 20
-121.0701293642637
 10
98.10736217165372
 20
-121.0890773894326
 10
98.27410479313981
 20
-121.1483330317789
 10
98.29270830876015
 20
-121.1547064584266
 10
98.35575355614023
 20
-121.1822672223086
 10
98.40364038338521
 20
-121.0954508160803
 10
98.42431095629671
 20
-121.0213812631474
 10
98.43705780959213
 20
-120.9474839649888
 10
98.43705780959213
 20
-120.9474839649888
 10
98.1759195718102
 20
-120.9474839649888
 10
98.1759195718102
 20
-120.9474839649888
 97
        0
 97
        0
 75
     2
 76
     1
 98
        0
  0
SPLINE
  5
88
330
80
100
AcDbEntity
  8
_U+30EC_U+30A4_U+30E4_U+30FC 1
370
     0
100
AcDbSpline
210
0.0
220
0.0
230
1.0
 70
    11
 71
     3
 72
   203
 73
   199
 74
     0
 42
0.0000000001
 43
0.0000000001
 12
1.0
 22
0.0
 32
0.0
 13
1.0
 23
0.0
 33
0.0
 40
0.0
 40
0.0
 40
0.0
 40
0.0
 40
1.0
 40
1.0
 40
1.0
 40
2.0
 40
2.0
 40
2.0
 40
3.0
 40
3.0
 40
3.0
 40
4.0
 40
4.0
 40
4.0
 40
5.0
 40
5.0
 40
5.0
 40
6.0
 40
6.0
 40
6.0
 40
7.0
 40
7.0
 40
7.0
 40
8.0
 40
8.0
 40
8.0
 40
9.0
 40
9.0
 40
9.0
 40
10.0
 40
10.0
 40
10.0
 40
11.0
 40
11.0
 40
11.0
 40
12.0
 40
12.0
 40
12.0
 40
13.0
 40
13.0
 40
13.0
 40
14.0
 40
14.0
 40
14.0
 40
15.0
 40
15.0
 40
15.0
 40
16.0
 40
16.0
 40
16.0
 40
17.0
 40
17.0
 40
17.0
 40
18.0
 40
18.0
 40
18.0
 40
19.0
 40
19.0
 40
19.0
 40
20.0
 40
20.0
 40
20.0
 40
21.0
 40
21.0
 40
21.0
 40
22.0
 40
22.0
 40
22.0
 40
23.0
 40
23.0
 40
23.0
 40
24.0
 40
24.0
 40
24.0
 40
25.0
 40
25.0
 40
25.0
 40
26.0
 40
26.0
 40
26.0
 40
27.0
 40
27.0
 40
27.0
 40
28.0
 40
28.0
 40
28.0
 40
29.0
 40
29.0
 40
29.0
 40
30.0
 40
30.0
 40
30.0
 40
31.0
 40
31.0
 40
31.0
 40
32.0
 40
32.0
 40
32.0
 40
33.0
 40
33.0
 40
33.0
 40
34.0
 40
34.0
 40
34.0
 40
35.0
 40
35.0
 40
35.0
 40
36.0
 40
36.0
 40
36.0
 40
37.0
 40
37.0
 40
37.0
 40
38.0
 40
38.0
 40
38.0
 40
39.0
 40
39.0
 40
39.0
 40
40.0
 40
40.0
 40
40.0
 40
41.0
 40
41.0
 40
41.0
 40
42.0
 40
42.0
 40
42.0
 40
43.0
 40
43.0
 40
43.0
 40
44.0
 40
44.0
 40
44.0
 40
45.0
 40
45.0
 40
45.0
 40
46.0
 40
46.0
 40
46.0
 40
47.0
 40
47.0
 40
47.0
 40
48.0
 40
48.0
 40
48.0
 40
49.0
 40
49.0
 40
49.0
 40
50.0
 40
50.0
 40
50.0
 40
51.0
 40
51.0
 40
51.0
 40
52.0
 40
52.0
 40
52.0
 40
53.0
 40
53.0
 40
53.0
 40
54.0
 40
54.0
 40
54.0
 40
55.0
 40
55.0
 40
55.0
 40
56.0
 40
56.0
 40
56.0
 40
57.0
 40
57.0
 40
57.0
 40
58.0
 40
58.0
 40
58.0
 40
59.0
 40
59.0
 40
59.0
 40
60.0
 40
60.0
 40
60.0
 40
61.0
 40
61.0
 40
61.0
 40
62.0
 40
62.0
 40
62.0
 40
63.0
 40
63.0
 40
63.0
 40
64.0
 40
64.0
 40
64.0
 40
65.0
 40
65.0
 40
65.0
 40
66.0
 40
66.0
 40
66.0
 40
66.0
 10
100.152370851698
 20
-120.6300184160231
 30
0.0
 10
100.152370851698
 20
-120.6300184160231
 30
0.0
 10
99.66351180234108
 20
-120.6300184160231
 30
0.0
 10
99.66351180234108
 20
-120.6300184160231
 30
0.0
 10
99.6542100445309
 20
-120.6744601477828
 30
0.0
 10
99.64697534401188
 20
-120.7061550262471
 30
0.0
 10
99.63560652891054
 20
-120.7443955861334
 30
0.0
 10
99.65799964956467
 20
-120.7443955861334
 30
0.0
 10
99.67109101240862
 20
-120.7464626434245
 30
0.0
 10
99.67660316518501
 20
-120.7464626434245
 30
0.0
 10
99.67660316518501
 20
-120.7464626434245
 30
0.0
 10
99.84127872937997
 20
-120.7464626434245
 30
0.0
 10
99.84127872937997
 20
-120.7464626434245
 30
0.0
 10
99.84127872937997
 20
-120.7464626434245
 30
0.0
 10
100.1689073100272
 20
-120.7464626434245
 30
0.0
 10
100.1689073100272
 20
-120.7464626434245
 30
0.0
 10
100.2136935513355
 20
-120.7464626434245
 30
0.0
 10
100.4617404262735
 20
-120.7337157901291
 30
0.0
 10
100.4893011901555
 20
-120.7337157901291
 30
0.0
 10
100.4875786424128
 20
-120.7612765540111
 30
0.0
 10
100.4858560946702
 20
-120.7802245791799
 30
0.0
 10
100.4858560946702
 20
-120.8098524003531
 30
0.0
 10
100.4837890373791
 20
-120.8415472788174
 30
0.0
 10
100.4837890373791
 20
-120.9769395313877
 30
0.0
 10
100.4837890373791
 20
-121.0045002952697
 30
0.0
 10
100.4837890373791
 20
-121.0045002952697
 30
0.0
 10
100.4837890373791
 20
-121.2499633485938
 30
0.0
 10
100.4837890373791
 20
-121.2499633485938
 30
0.0
 10
100.4837890373791
 20
-121.2944050803535
 30
0.0
 10
100.4875786424128
 20
-121.4911200325613
 30
0.0
 10
100.4913682474466
 20
-121.6433932530093
 30
0.0
 10
100.4913682474466
 20
-121.6433932530093
 30
0.0
 10
100.2932752570447
 20
-121.6433932530093
 30
0.0
 10
100.2932752570447
 20
-121.6433932530093
 30
0.0
 10
100.2932752570447
 20
-121.6433932530093
 30
0.0
 10
100.2949978047874
 20
-121.6096313172538
 30
0.0
 10
100.2949978047874
 20
-121.6096313172538
 30
0.0
 10
100.2949978047874
 20
-121.6096313172538
 30
0.0
 10
99.6803927702188
 20
-121.6096313172538
 30
0.0
 10
99.6803927702188
 20
-121.6096313172538
 30
0.0
 10
99.6803927702188
 20
-121.6096313172538
 30
0.0
 10
99.68211531796142
 20
-121.6433932530093
 30
0.0
 10
99.68211531796142
 20
-121.6433932530093
 30
0.0
 10
99.68211531796142
 20
-121.6433932530093
 30
0.0
 10
99.49125702807858
 20
-121.6433932530093
 30
0.0
 10
99.49125702807858
 20
-121.6433932530093
 30
0.0
 10
99.49504663311235
 20
-121.5884439800196
 30
0.0
 10
99.49504663311235
 20
-121.5756971267241
 30
0.0
 10
99.50055878588876
 20
-121.4614922113881
 30
0.0
 10
99.5026258431799
 20
-121.4339314475061
 30
0.0
 10
99.50434839092253
 20
-121.3007785070012
 30
0.0
 10
99.50434839092253
 20
-121.2816582270581
 30
0.0
 10
99.50434839092253
 20
-121.2816582270581
 30
0.0
 10
99.50434839092253
 20
-121.0785698482026
 30
0.0
 10
99.50434839092253
 20
-121.0785698482026
 30
0.0
 10
99.38204750119615
 20
-121.3281670161089
 30
0.0
 10
99.23390839533042
 20
-121.4594251540969
 30
0.0
 10
99.14123532677719
 20
-121.5248819683167
 30
0.0
 10
99.14123532677719
 20
-121.5248819683167
 30
0.0
 10
98.9896511254262
 20
-121.3853556011641
 30
0.0
 10
98.9896511254262
 20
-121.3853556011641
 30
0.0
 10
99.06716577384432
 20
-121.3345404427566
 30
0.0
 10
99.19325626860447
 20
-121.2477240365284
 30
0.0
 10
99.31349010103969
 20
-121.053248396386
 30
0.0
 10
99.39307180674896
 20
-120.9262966277545
 30
0.0
 10
99.45060490135263
 20
-120.7824638912454
 30
0.0
 10
99.48023272252578
 20
-120.6300184160231
 30
0.0
 10
99.28007267483277
 20
-120.6322577280885
 30
0.0
 10
99.12297632070538
 20
-120.6386311547362
 30
0.0
 10
99.03960500996233
 20
-120.6406982120273
 30
0.0
 10
99.03960500996233
 20
-120.6406982120273
 30
0.0
 10
99.03960500996233
 20
-120.4629312849884
 30
0.0
 10
99.03960500996233
 20
-120.4629312849884
 30
0.0
 10
99.21185978422481
 20
-120.4693047116362
 30
0.0
 10
99.45990665916281
 20
-120.4736110809927
 30
0.0
 10
99.59150930669935
 20
-120.4736110809927
 30
0.0
 10
99.59150930669935
 20
-120.4736110809927
 30
0.0
 10
99.77823348199989
 20
-120.4736110809927
 30
0.0
 10
99.77823348199989
 20
-120.4736110809927
 30
0.0
 10
99.77823348199989
 20
-120.4736110809927
 30
0.0
 10
99.77823348199989
 20
-120.3656073375301
 30
0.0
 10
99.77823348199989
 20
-120.3656073375301
 30
0.0
 10
99.77823348199989
 20
-120.3656073375301
 30
0.0
 10
99.65076494904565
 20
-120.3656073375301
 30
0.0
 10
99.65076494904565
 20
-120.3656073375301
 30
0.0
 10
99.5026258431799
 20
-120.3656073375301
 30
0.0
 10
99.35448673731416
 20
-120.3699137068867
 30
0.0
 10
99.20807017919104
 20
-120.3762871335344
 30
0.0
 10
99.20807017919104
 20
-120.3762871335344
 30
0.0
 10
99.20807017919104
 20
-120.2048936331432
 30
0.0
 10
99.20807017919104
 20
-120.2048936331432
 30
0.0
 10
99.34311792221284
 20
-120.2154011743732
 30
0.0
 10
99.50607093866515
 20
-120.2154011743732
 30
0.0
 10
99.65076494904565
 20
-120.2154011743732
 30
0.0
 10
99.65076494904565
 20
-120.2154011743732
 30
0.0
 10
99.77823348199989
 20
-120.2154011743732
 30
0.0
 10
99.77823348199989
 20
-120.2154011743732
 30
0.0
 10
99.77823348199989
 20
-120.2154011743732
 30
0.0
 10
99.77823348199989
 20
-120.0970621444549
 30
0.0
 10
99.77823348199989
 20
-120.0970621444549
 30
0.0
 10
99.77823348199989
 20
-120.0970621444549
 30
0.0
 10
99.66351180234108
 20
-120.0970621444549
 30
0.0
 10
99.66351180234108
 20
-120.0970621444549
 30
0.0
 10
99.62285967561512
 20
-120.0970621444549
 30
0.0
 10
99.44509274857623
 20
-120.1055026283938
 30
0.0
 10
99.40788571733553
 20
-120.1055026283938
 30
0.0
 10
99.23011879029664
 20
-120.1096367429761
 30
0.0
 10
99.16362844743132
 20
-120.1117038002672
 30
0.0
 10
99.09507104727484
 20
-120.1139431123326
 30
0.0
 10
99.09507104727484
 20
-120.1139431123326
 30
0.0
 10
99.09507104727484
 20
-119.929802758646
 30
0.0
 10
99.09507104727484
 20
-119.929802758646
 30
0.0
 10
99.19497881634709
 20
-119.9382432425849
 30
0.0
 10
99.23390839533042
 20
-119.9382432425849
 30
0.0
 10
99.56911618604522
 20
-119.946855981298
 30
0.0
 10
99.51365014873271
 20
-119.8515990911309
 30
0.0
 10
99.48953448033595
 20
-119.8240383272489
 30
0.0
 10
99.45783960187165
 20
-119.788037079428
 30
0.0
 10
99.45783960187165
 20
-119.788037079428
 30
0.0
 10
99.61183537006232
 20
-119.7055270425563
 30
0.0
 10
99.61183537006232
 20
-119.7055270425563
 30
0.0
 10
99.64697534401188
 20
-119.7415282903771
 30
0.0
 10
99.68590492299519
 20
-119.7839029648457
 30
0.0
 10
99.7506727181179
 20
-119.8938015108252
 30
0.0
 10
99.7506727181179
 20
-119.8938015108252
 30
0.0
 10
99.65076494904565
 20
-119.9489230385892
 30
0.0
 10
99.65076494904565
 20
-119.9489230385892
 30
0.0
 10
99.65076494904565
 20
-119.9489230385892
 30
0.0
 10
99.6597221973073
 20
-119.9489230385892
 30
0.0
 10
99.6597221973073
 20
-119.9489230385892
 30
0.0
 10
99.6597221973073
 20
-119.9489230385892
 30
0.0
 10
100.1172308777485
 20
-119.9489230385892
 30
0.0
 10
100.1172308777485
 20
-119.9489230385892
 30
0.0
 10
100.1172308777485
 20
-119.9489230385892
 30
0.0
 10
100.0338595670054
 20
-119.9044813068294
 30
0.0
 10
100.0338595670054
 20
-119.9044813068294
 30
0.0
 10
100.0579752354022
 20
-119.8664130017174
 30
0.0
 10
100.1079291199383
 20
-119.7859700221369
 30
0.0
 10
100.1210204827823
 20
-119.711900469204
 30
0.0
 10
100.1210204827823
 20
-119.711900469204
 30
0.0
 10
100.3080891676313
 20
-119.7754624809068
 30
0.0
 10
100.3080891676313
 20
-119.7754624809068
 30
0.0
 10
100.3153238681503
 20
-119.777529538198
 30
0.0
 10
100.3339273837707
 20
-119.788037079428
 30
0.0
 10
100.3339273837707
 20
-119.8092244166623
 30
0.0
 10
100.3339273837707
 20
-119.8472927217743
 30
0.0
 10
100.276394289167
 20
-119.8472927217743
 30
0.0
 10
100.2598578308378
 20
-119.8472927217743
 30
0.0
 10
100.2505560730276
 20
-119.8664130017174
 30
0.0
 10
100.2302300096647
 20
-119.9065483641206
 30
0.0
 10
100.2043917935253
 20
-119.946855981298
 30
0.0
 10
100.5540689852781
 20
-119.9404825546503
 30
0.0
 10
100.5802517109661
 20
-119.9382432425849
 30
0.0
 10
100.6467420538314
 20
-119.9320420707114
 30
0.0
 10
100.6467420538314
 20
-119.9320420707114
 30
0.0
 10
100.6467420538314
 20
-120.1139431123326
 30
0.0
 10
100.6467420538314
 20
-120.1139431123326
 30
0.0
 10
100.6302055955022
 20
-120.1139431123326
 30
0.0
 10
100.607812474848
 20
-120.1117038002672
 30
0.0
 10
100.4152316372226
 20
-120.1032633163284
 30
0.0
 10
100.3707899054629
 20
-120.1011962590372
 30
0.0
 10
100.1782090678374
 20
-120.0970621444549
 30
0.0
 10
100.1392794888541
 20
-120.0970621444549
 30
0.0
 10
100.1392794888541
 20
-120.0970621444549
 30
0.0
 10
99.95048825626239
 20
-120.0970621444549
 30
0.0
 10
99.95048825626239
 20
-120.0970621444549
 30
0.0
 10
99.95048825626239
 20
-120.0970621444549
 30
0.0
 10
99.95048825626239
 20
-120.2154011743732
 30
0.0
 10
99.95048825626239
 20
-120.2154011743732
 30
0.0
 10
99.95048825626239
 20
-120.2154011743732
 30
0.0
 10
100.1024169671619
 20
-120.2154011743732
 30
0.0
 10
100.1024169671619
 20
-120.2154011743732
 30
0.0
 10
100.2450439202512
 20
-120.2154011743732
 30
0.0
 10
100.4117865417373
 20
-120.2154011743732
 30
0.0
 10
100.5485568325018
 20
-120.2048936331432
 30
0.0
 10
100.5485568325018
 20
-120.2048936331432
 30
0.0
 10
100.5485568325018
 20
-120.3762871335344
 30
0.0
 10
100.5485568325018
 20
-120.3762871335344
 30
0.0
 10
100.3652777526865
 20
-120.3678466495955
 30
0.0
 10
100.193022978424
 20
-120.3656073375301
 30
0.0
 10
100.1024169671619
 20
-120.3656073375301
 30
0.0
 10
100.1024169671619
 20
-120.3656073375301
 30
0.0
 10
99.95048825626239
 20
-120.3656073375301
 30
0.0
 10
99.95048825626239
 20
-120.3656073375301
 30
0.0
 10
99.95048825626239
 20
-120.3656073375301
 30
0.0
 10
99.95048825626239
 20
-120.4736110809927
 30
0.0
 10
99.95048825626239
 20
-120.4736110809927
 30
0.0
 10
99.95048825626239
 20
-120.4736110809927
 30
0.0
 10
100.152370851698
 20
-120.4736110809927
 30
0.0
 10
100.152370851698
 20
-120.4736110809927
 30
0.0
 10
100.269159588648
 20
-120.4736110809927
 30
0.0
 10
100.5209960686198
 20
-120.4693047116362
 30
0.0
 10
100.704275148435
 20
-120.4629312849884
 30
0.0
 10
100.704275148435
 20
-120.4629312849884
 30
0.0
 10
100.704275148435
 20
-120.6406982120273
 30
0.0
 10
100.704275148435
 20
-120.6406982120273
 30
0.0
 10
100.5358099792063
 20
-120.6343247853796
 30
0.0
 10
100.2615803785804
 20
-120.6300184160231
 30
0.0
 10
100.152370851698
 20
-120.6300184160231
 30
0.0
  0
POLYLINE
  5
89
330
80
100
AcDbEntity
  8
_U+30EC_U+30A4_U+30E4_U+30FC 1
370
     0
100
AcDb2dPolyline
 66
     1
 10
0.0
 20
0.0
 30
0.0
  0
VERTEX
  5
8A
330
89
100
AcDbEntity
  8
_U+30EC_U+30A4_U+30E4_U+30FC 1
370
     0
100
AcDbVertex
100
AcDb2dVertex
 10
100.29672035253
 20
-120.8859890105771
 30
0.0
  0
VERTEX
  5
8B
330
89
100
AcDbEntity
  8
_U+30EC_U+30A4_U+30E4_U+30FC 1
370
     0
100
AcDbVertex
100
AcDb2dVertex
 10
99.67832571292764
 20
-120.8859890105771
 30
0.0
  0
VERTEX
  5
8C
330
89
100
AcDbEntity
  8
_U+30EC_U+30A4_U+30E4_U+30FC 1
370
     0
100
AcDbVertex
100
AcDb2dVertex
 10
99.67832571292764
 20
-120.9939927540397
 30
0.0
  0
VERTEX
  5
8D
330
89
100
AcDbEntity
  8
_U+30EC_U+30A4_U+30E4_U+30FC 1
370
     0
100
AcDbVertex
100
AcDb2dVertex
 10
100.29672035253
 20
-120.9939927540397
 30
0.0
  0
VERTEX
  5
8E
330
89
100
AcDbEntity
  8
_U+30EC_U+30A4_U+30E4_U+30FC 1
370
     0
100
AcDbVertex
100
AcDb2dVertex
 10
100.29672035253
 20
-120.8859890105771
 30
0.0
  0
SEQEND
  5
8F
330
89
100
AcDbEntity
  8
_U+30EC_U+30A4_U+30E4_U+30FC 1
370
     0
  0
POLYLINE
  5
90
330
80
100
AcDbEntity
  8
_U+30EC_U+30A4_U+30E4_U+30FC 1
370
     0
100
AcDb2dPolyline
 66
     1
 10
0.0
 20
0.0
 30
0.0
  0
VERTEX
  5
91
330
90
100
AcDbEntity
  8
_U+30EC_U+30A4_U+30E4_U+30FC 1
370
     0
100
AcDbVertex
100
AcDb2dVertex
 10
100.29672035253
 20
-121.1187052106057
 30
0.0
  0
VERTEX
  5
92
330
90
100
AcDbEntity
  8
_U+30EC_U+30A4_U+30E4_U+30FC 1
370
     0
100
AcDbVertex
100
AcDb2dVertex
 10
99.67832571292764
 20
-121.1187052106057
 30
0.0
  0
VERTEX
  5
93
330
90
100
AcDbEntity
  8
_U+30EC_U+30A4_U+30E4_U+30FC 1
370
     0
100
AcDbVertex
100
AcDb2dVertex
 10
99.67832571292764
 20
-121.233082380716
 30
0.0
  0
VERTEX
  5
94
330
90
100
AcDbEntity
  8
_U+30EC_U+30A4_U+30E4_U+30FC 1
370
     0
100
AcDbVertex
100
AcDb2dVertex
 10
100.29672035253
 20
-121.233082380716
 30
0.0
  0
VERTEX
  5
95
330
90
100
AcDbEntity
  8
_U+30EC_U+30A4_U+30E4_U+30FC 1
370
     0
100
AcDbVertex
100
AcDb2dVertex
 10
100.29672035253
 20
-121.1187052106057
 30
0.0
  0
SEQEND
  5
96
330
90
100
AcDbEntity
  8
_U+30EC_U+30A4_U+30E4_U+30FC 1
370
     0
  0
POLYLINE
  5
97
330
80
100
AcDbEntity
  8
_U+30EC_U+30A4_U+30E4_U+30FC 1
370
     0
100
AcDb2dPolyline
 66
     1
 10
0.0
 20
0.0
 30
0.0
  0
VERTEX
  5
98
330
97
100
AcDbEntity
  8
_U+30EC_U+30A4_U+30E4_U+30FC 1
370
     0
100
AcDbVertex
100
AcDb2dVertex
 10
100.29672035253
 20
-121.3621012066386
 30
0.0
  0
VERTEX
  5
99
330
97
100
AcDbEntity
  8
_U+30EC_U+30A4_U+30E4_U+30FC 1
370
     0
100
AcDbVertex
100
AcDb2dVertex
 10
99.67832571292764
 20
-121.3621012066386
 30
0.0
  0
VERTEX
  5
9A
330
97
100
AcDbEntity
  8
_U+30EC_U+30A4_U+30E4_U+30FC 1
370
     0
100
AcDbVertex
100
AcDb2dVertex
 10
99.67832571292764
 20
-121.4763061219747
 30
0.0
  0
VERTEX
  5
9B
330
97
100
AcDbEntity
  8
_U+30EC_U+30A4_U+30E4_U+30FC 1
370
     0
100
AcDbVertex
100
AcDb2dVertex
 10
100.29672035253
 20
-121.4763061219747
 30
0.0
  0
VERTEX
  5
9C
330
97
100
AcDbEntity
  8
_U+30EC_U+30A4_U+30E4_U+30FC 1
370
     0
100
AcDbVertex
100
AcDb2dVertex
 10
100.29672035253
 20
-121.3621012066386
 30
0.0
  0
SEQEND
  5
9D
330
97
100
AcDbEntity
  8
_U+30EC_U+30A4_U+30E4_U+30FC 1
370
     0
  0
HATCH
  5
9E
330
80
100
AcDbEntity
  8
_U+30EC_U+30A4_U+30E4_U+30FC 1
 62
   179
420
  2234388
100
AcDbHatch
 10
0.0
 20
0.0
 30
0.0
210
0.0
220
0.0
230
1.0
  2
SOLID
 70
     1
 71
     0
 91
        4
 92
        1
 93
        1
 72
     4
 94
        3
 73
     0
 74
     1
 95
      203
 96
      199
 40
0.0
 40
0.0
 40
0.0
 40
0.0
 40
1.0
 40
1.0
 40
1.0
 40
2.0
 40
2.0
 40
2.0
 40
3.0
 40
3.0
 40
3.0
 40
4.0
 40
4.0
 40
4.0
 40
5.0
 40
5.0
 40
5.0
 40
6.0
 40
6.0
 40
6.0
 40
7.0
 40
7.0
 40
7.0
 40
8.0
 40
8.0
 40
8.0
 40
9.0
 40
9.0
 40
9.0
 40
10.0
 40
10.0
 40
10.0
 40
11.0
 40
11.0
 40
11.0
 40
12.0
 40
12.0
 40
12.0
 40
13.0
 40
13.0
 40
13.0
 40
14.0
 40
14.0
 40
14.0
 40
15.0
 40
15.0
 40
15.0
 40
16.0
 40
16.0
 40
16.0
 40
17.0
 40
17.0
 40
17.0
 40
18.0
 40
18.0
 40
18.0
 40
19.0
 40
19.0
 40
19.0
 40
20.0
 40
20.0
 40
20.0
 40
21.0
 40
21.0
 40
21.0
 40
22.0
 40
22.0
 40
22.0
 40
23.0
 40
23.0
 40
23.0
 40
24.0
 40
24.0
 40
24.0
 40
25.0
 40
25.0
 40
25.0
 40
26.0
 40
26.0
 40
26.0
 40
27.0
 40
27.0
 40
27.0
 40
28.0
 40
28.0
 40
28.0
 40
29.0
 40
29.0
 40
29.0
 40
30.0
 40
30.0
 40
30.0
 40
31.0
 40
31.0
 40
31.0
 40
32.0
 40
32.0
 40
32.0
 40
33.0
 40
33.0
 40
33.0
 40
34.0
 40
34.0
 40
34.0
 40
35.0
 40
35.0
 40
35.0
 40
36.0
 40
36.0
 40
36.0
 40
37.0
 40
37.0
 40
37.0
 40
38.0
 40
38.0
 40
38.0
 40
39.0
 40
39.0
 40
39.0
 40
40.0
 40
40.0
 40
40.0
 40
41.0
 40
41.0
 40
41.0
 40
42.0
 40
42.0
 40
42.0
 40
43.0
 40
43.0
 40
43.0
 40
44.0
 40
44.0
 40
44.0
 40
45.0
 40
45.0
 40
45.0
 40
46.0
 40
46.0
 40
46.0
 40
47.0
 40
47.0
 40
47.0
 40
48.0
 40
48.0
 40
48.0
 40
49.0
 40
49.0
 40
49.0
 40
50.0
 40
50.0
 40
50.0
 40
51.0
 40
51.0
 40
51.0
 40
52.0
 40
52.0
 40
52.0
 40
53.0
 40
53.0
 40
53.0
 40
54.0
 40
54.0
 40
54.0
 40
55.0
 40
55.0
 40
55.0
 40
56.0
 40
56.0
 40
56.0
 40
57.0
 40
57.0
 40
57.0
 40
58.0
 40
58.0
 40
58.0
 40
59.0
 40
59.0
 40
59.0
 40
60.0
 40
60.0
 40
60.0
 40
61.0
 40
61.0
 40
61.0
 40
62.0
 40
62.0
 40
62.0
 40
63.0
 40
63.0
 40
63.0
 40
64.0
 40
64.0
 40
64.0
 40
65.0
 40
65.0
 40
65.0
 40
66.0
 40
66.0
 40
66.0
 40
66.0
 10
100.152370851698
 20
-120.6300184160231
 10
100.152370851698
 20
-120.6300184160231
 10
99.66351180234108
 20
-120.6300184160231
 10
99.66351180234108
 20
-120.6300184160231
 10
99.6542100445309
 20
-120.6744601477828
 10
99.64697534401188
 20
-120.7061550262471
 10
99.63560652891054
 20
-120.7443955861334
 10
99.65799964956467
 20
-120.7443955861334
 10
99.67109101240862
 20
-120.7464626434245
 10
99.67660316518501
 20
-120.7464626434245
 10
99.67660316518501
 20
-120.7464626434245
 10
99.84127872937997
 20
-120.7464626434245
 10
99.84127872937997
 20
-120.7464626434245
 10
99.84127872937997
 20
-120.7464626434245
 10
100.1689073100272
 20
-120.7464626434245
 10
100.1689073100272
 20
-120.7464626434245
 10
100.2136935513355
 20
-120.7464626434245
 10
100.4617404262735
 20
-120.7337157901291
 10
100.4893011901555
 20
-120.7337157901291
 10
100.4875786424128
 20
-120.7612765540111
 10
100.4858560946702
 20
-120.7802245791799
 10
100.4858560946702
 20
-120.8098524003531
 10
100.4837890373791
 20
-120.8415472788174
 10
100.4837890373791
 20
-120.9769395313877
 10
100.4837890373791
 20
-121.0045002952697
 10
100.4837890373791
 20
-121.0045002952697
 10
100.4837890373791
 20
-121.2499633485938
 10
100.4837890373791
 20
-121.2499633485938
 10
100.4837890373791
 20
-121.2944050803535
 10
100.4875786424128
 20
-121.4911200325613
 10
100.4913682474466
 20
-121.6433932530093
 10
100.4913682474466
 20
-121.6433932530093
 10
100.2932752570447
 20
-121.6433932530093
 10
100.2932752570447
 20
-121.6433932530093
 10
100.2932752570447
 20
-121.6433932530093
 10
100.2949978047874
 20
-121.6096313172538
 10
100.2949978047874
 20
-121.6096313172538
 10
100.2949978047874
 20
-121.6096313172538
 10
99.6803927702188
 20
-121.6096313172538
 10
99.6803927702188
 20
-121.6096313172538
 10
99.6803927702188
 20
-121.6096313172538
 10
99.68211531796142
 20
-121.6433932530093
 10
99.68211531796142
 20
-121.6433932530093
 10
99.68211531796142
 20
-121.6433932530093
 10
99.49125702807858
 20
-121.6433932530093
 10
99.49125702807858
 20
-121.6433932530093
 10
99.49504663311235
 20
-121.5884439800196
 10
99.49504663311235
 20
-121.5756971267241
 10
99.50055878588876
 20
-121.4614922113881
 10
99.5026258431799
 20
-121.4339314475061
 10
99.50434839092253
 20
-121.3007785070012
 10
99.50434839092253
 20
-121.2816582270581
 10
99.50434839092253
 20
-121.2816582270581
 10
99.50434839092253
 20
-121.0785698482026
 10
99.50434839092253
 20
-121.0785698482026
 10
99.38204750119615
 20
-121.3281670161089
 10
99.23390839533042
 20
-121.4594251540969
 10
99.14123532677719
 20
-121.5248819683167
 10
99.14123532677719
 20
-121.5248819683167
 10
98.9896511254262
 20
-121.3853556011641
 10
98.9896511254262
 20
-121.3853556011641
 10
99.06716577384432
 20
-121.3345404427566
 10
99.19325626860447
 20
-121.2477240365284
 10
99.31349010103969
 20
-121.053248396386
 10
99.39307180674896
 20
-120.9262966277545
 10
99.45060490135263
 20
-120.7824638912454
 10
99.48023272252578
 20
-120.6300184160231
 10
99.28007267483277
 20
-120.6322577280885
 10
99.12297632070538
 20
-120.6386311547362
 10
99.03960500996233
 20
-120.6406982120273
 10
99.03960500996233
 20
-120.6406982120273
 10
99.03960500996233
 20
-120.4629312849884
 10
99.03960500996233
 20
-120.4629312849884
 10
99.21185978422481
 20
-120.4693047116362
 10
99.45990665916281
 20
-120.4736110809927
 10
99.59150930669935
 20
-120.4736110809927
 10
99.59150930669935
 20
-120.4736110809927
 10
99.77823348199989
 20
-120.4736110809927
 10
99.77823348199989
 20
-120.4736110809927
 10
99.77823348199989
 20
-120.4736110809927
 10
99.77823348199989
 20
-120.3656073375301
 10
99.77823348199989
 20
-120.3656073375301
 10
99.77823348199989
 20
-120.3656073375301
 10
99.65076494904565
 20
-120.3656073375301
 10
99.65076494904565
 20
-120.3656073375301
 10
99.5026258431799
 20
-120.3656073375301
 10
99.35448673731416
 20
-120.3699137068867
 10
99.20807017919104
 20
-120.3762871335344
 10
99.20807017919104
 20
-120.3762871335344
 10
99.20807017919104
 20
-120.2048936331432
 10
99.20807017919104
 20
-120.2048936331432
 10
99.34311792221284
 20
-120.2154011743732
 10
99.50607093866515
 20
-120.2154011743732
 10
99.65076494904565
 20
-120.2154011743732
 10
99.65076494904565
 20
-120.2154011743732
 10
99.77823348199989
 20
-120.2154011743732
 10
99.77823348199989
 20
-120.2154011743732
 10
99.77823348199989
 20
-120.2154011743732
 10
99.77823348199989
 20
-120.0970621444549
 10
99.77823348199989
 20
-120.0970621444549
 10
99.77823348199989
 20
-120.0970621444549
 10
99.66351180234108
 20
-120.0970621444549
 10
99.66351180234108
 20
-120.0970621444549
 10
99.62285967561512
 20
-120.0970621444549
 10
99.44509274857623
 20
-120.1055026283938
 10
99.40788571733553
 20
-120.1055026283938
 10
99.23011879029664
 20
-120.1096367429761
 10
99.16362844743132
 20
-120.1117038002672
 10
99.09507104727484
 20
-120.1139431123326
 10
99.09507104727484
 20
-120.1139431123326
 10
99.09507104727484
 20
-119.929802758646
 10
99.09507104727484
 20
-119.929802758646
 10
99.19497881634709
 20
-119.9382432425849
 10
99.23390839533042
 20
-119.9382432425849
 10
99.56911618604522
 20
-119.946855981298
 10
99.51365014873271
 20
-119.8515990911309
 10
99.48953448033595
 20
-119.8240383272489
 10
99.45783960187165
 20
-119.788037079428
 10
99.45783960187165
 20
-119.788037079428
 10
99.61183537006232
 20
-119.7055270425563
 10
99.61183537006232
 20
-119.7055270425563
 10
99.64697534401188
 20
-119.7415282903771
 10
99.68590492299519
 20
-119.7839029648457
 10
99.7506727181179
 20
-119.8938015108252
 10
99.7506727181179
 20
-119.8938015108252
 10
99.65076494904565
 20
-119.9489230385892
 10
99.65076494904565
 20
-119.9489230385892
 10
99.65076494904565
 20
-119.9489230385892
 10
99.6597221973073
 20
-119.9489230385892
 10
99.6597221973073
 20
-119.9489230385892
 10
99.6597221973073
 20
-119.9489230385892
 10
100.1172308777485
 20
-119.9489230385892
 10
100.1172308777485
 20
-119.9489230385892
 10
100.1172308777485
 20
-119.9489230385892
 10
100.0338595670054
 20
-119.9044813068294
 10
100.0338595670054
 20
-119.9044813068294
 10
100.0579752354022
 20
-119.8664130017174
 10
100.1079291199383
 20
-119.7859700221369
 10
100.1210204827823
 20
-119.711900469204
 10
100.1210204827823
 20
-119.711900469204
 10
100.3080891676313
 20
-119.7754624809068
 10
100.3080891676313
 20
-119.7754624809068
 10
100.3153238681503
 20
-119.777529538198
 10
100.3339273837707
 20
-119.788037079428
 10
100.3339273837707
 20
-119.8092244166623
 10
100.3339273837707
 20
-119.8472927217743
 10
100.276394289167
 20
-119.8472927217743
 10
100.2598578308378
 20
-119.8472927217743
 10
100.2505560730276
 20
-119.8664130017174
 10
100.2302300096647
 20
-119.9065483641206
 10
100.2043917935253
 20
-119.946855981298
 10
100.5540689852781
 20
-119.9404825546503
 10
100.5802517109661
 20
-119.9382432425849
 10
100.6467420538314
 20
-119.9320420707114
 10
100.6467420538314
 20
-119.9320420707114
 10
100.6467420538314
 20
-120.1139431123326
 10
100.6467420538314
 20
-120.1139431123326
 10
100.6302055955022
 20
-120.1139431123326
 10
100.607812474848
 20
-120.1117038002672
 10
100.4152316372226
 20
-120.1032633163284
 10
100.3707899054629
 20
-120.1011962590372
 10
100.1782090678374
 20
-120.0970621444549
 10
100.1392794888541
 20
-120.0970621444549
 10
100.1392794888541
 20
-120.0970621444549
 10
99.95048825626239
 20
-120.0970621444549
 10
99.95048825626239
 20
-120.0970621444549
 10
99.95048825626239
 20
-120.0970621444549
 10
99.95048825626239
 20
-120.2154011743732
 10
99.95048825626239
 20
-120.2154011743732
 10
99.95048825626239
 20
-120.2154011743732
 10
100.1024169671619
 20
-120.2154011743732
 10
100.1024169671619
 20
-120.2154011743732
 10
100.2450439202512
 20
-120.2154011743732
 10
100.4117865417373
 20
-120.2154011743732
 10
100.5485568325018
 20
-120.2048936331432
 10
100.5485568325018
 20
-120.2048936331432
 10
100.5485568325018
 20
-120.3762871335344
 10
100.5485568325018
 20
-120.3762871335344
 10
100.3652777526865
 20
-120.3678466495955
 10
100.193022978424
 20
-120.3656073375301
 10
100.1024169671619
 20
-120.3656073375301
 10
100.1024169671619
 20
-120.3656073375301
 10
99.95048825626239
 20
-120.3656073375301
 10
99.95048825626239
 20
-120.3656073375301
 10
99.95048825626239
 20
-120.3656073375301
 10
99.95048825626239
 20
-120.4736110809927
 10
99.95048825626239
 20
-120.4736110809927
 10
99.95048825626239
 20
-120.4736110809927
 10
100.152370851698
 20
-120.4736110809927
 10
100.152370851698
 20
-120.4736110809927
 10
100.269159588648
 20
-120.4736110809927
 10
100.5209960686198
 20
-120.4693047116362
 10
100.704275148435
 20
-120.4629312849884
 10
100.704275148435
 20
-120.4629312849884
 10
100.704275148435
 20
-120.6406982120273
 10
100.704275148435
 20
-120.6406982120273
 10
100.5358099792063
 20
-120.6343247853796
 10
100.2615803785804
 20
-120.6300184160231
 10
100.152370851698
 20
-120.6300184160231
 97
        0
 97
        0
 92
        1
 93
        4
 72
     1
 10
100.29672035253
 20
-120.8859890105771
 11
99.67832571292764
 21
-120.8859890105771
 72
     1
 10
99.67832571292764
 20
-120.8859890105771
 11
99.67832571292764
 21
-120.9939927540397
 72
     1
 10
99.67832571292764
 20
-120.9939927540397
 11
100.29672035253
 21
-120.9939927540397
 72
     1
 10
100.29672035253
 20
-120.9939927540397
 11
100.29672035253
 21
-120.8859890105771
 97
        0
 92
        1
 93
        4
 72
     1
 10
100.29672035253
 20
-121.1187052106057
 11
99.67832571292764
 21
-121.1187052106057
 72
     1
 10
99.67832571292764
 20
-121.1187052106057
 11
99.67832571292764
 21
-121.233082380716
 72
     1
 10
99.67832571292764
 20
-121.233082380716
 11
100.29672035253
 21
-121.233082380716
 72
     1
 10
100.29672035253
 20
-121.233082380716
 11
100.29672035253
 21
-121.1187052106057
 97
        0
 92
        1
 93
        4
 72
     1
 10
100.29672035253
 20
-121.3621012066386
 11
99.67832571292764
 21
-121.3621012066386
 72
     1
 10
99.67832571292764
 20
-121.3621012066386
 11
99.67832571292764
 21
-121.4763061219747
 72
     1
 10
99.67832571292764
 20
-121.4763061219747
 11
100.29672035253
 21
-121.4763061219747
 72
     1
 10
100.29672035253
 20
-121.4763061219747
 11
100.29672035253
 21
-121.3621012066386
 97
        0
 75
     2
 76
     1
 98
        0
  0
SPLINE
  5
9F
330
80
100
AcDbEntity
  8
_U+30EC_U+30A4_U+30E4_U+30FC 1
370
     0
100
AcDbSpline
210
0.0
220
0.0
230
1.0
 70
    11
 71
     3
 72
    47
 73
    43
 74
     0
 42
0.0000000001
 43
0.0000000001
 12
1.0
 22
0.0
 32
0.0
 13
1.0
 23
0.0
 33
0.0
 40
0.0
 40
0.0
 40
0.0
 40
0.0
 40
1.0
 40
1.0
 40
1.0
 40
2.0
 40
2.0
 40
2.0
 40
3.0
 40
3.0
 40
3.0
 40
4.0
 40
4.0
 40
4.0
 40
5.0
 40
5.0
 40
5.0
 40
6.0
 40
6.0
 40
6.0
 40
7.0
 40
7.0
 40
7.0
 40
8.0
 40
8.0
 40
8.0
 40
9.0
 40
9.0
 40
9.0
 40
10.0
 40
10.0
 40
10.0
 40
11.0
 40
11.0
 40
11.0
 40
12.0
 40
12.0
 40
12.0
 40
13.0
 40
13.0
 40
13.0
 40
14.0
 40
14.0
 40
14.0
 40
14.0
 10
101.8842203521331
 20
-120.6067640214976
 30
0.0
 10
101.8842203521331
 20
-120.6067640214976
 30
0.0
 10
101.7953368886137
 20
-120.6067640214976
 30
0.0
 10
101.7953368886137
 20
-120.6067640214976
 30
0.0
 10
101.7953368886137
 20
-120.6935804277259
 30
0.0
 10
101.7767333729933
 20
-121.0828762175591
 30
0.0
 10
101.6044785987308
 20
-121.3028455642924
 30
0.0
 10
101.4711534034517
 20
-121.4719997526181
 30
0.0
 10
101.289596871379
 20
-121.5419351909687
 30
0.0
 10
101.2155273184461
 20
-121.5693237000764
 30
0.0
 10
101.2155273184461
 20
-121.5693237000764
 30
0.0
 10
101.0453396014748
 20
-121.4022365690418
 30
0.0
 10
101.0453396014748
 20
-121.4022365690418
 30
0.0
 10
101.1304334599605
 20
-121.3894897157464
 30
0.0
 10
101.2840847186026
 20
-121.3662353212209
 30
0.0
 10
101.4491047923461
 20
-121.177960852952
 30
0.0
 10
101.5138725874688
 20
-121.1061306120846
 30
0.0
 10
101.6044785987308
 20
-120.9664319901577
 30
0.0
 10
101.6044785987308
 20
-120.6067640214976
 30
0.0
 10
101.6044785987308
 20
-120.6067640214976
 30
0.0
 10
101.4025960032952
 20
-120.6067640214976
 30
0.0
 10
101.4025960032952
 20
-120.6067640214976
 30
0.0
 10
101.2396429868429
 20
-120.6067640214976
 30
0.0
 10
101.0766899703906
 20
-120.6110703908542
 30
0.0
 10
100.9137369539382
 20
-120.6258843014408
 30
0.0
 10
100.9137369539382
 20
-120.6258843014408
 30
0.0
 10
100.9137369539382
 20
-120.4059149547076
 30
0.0
 10
100.9137369539382
 20
-120.4059149547076
 30
0.0
 10
101.0784125181332
 20
-120.4207288652941
 30
0.0
 10
101.3285264503623
 20
-120.4248629798764
 30
0.0
 10
101.4025960032952
 20
-120.4248629798764
 30
0.0
 10
101.4025960032952
 20
-120.4248629798764
 30
0.0
 10
101.8842203521331
 20
-120.4248629798764
 30
0.0
 10
101.8842203521331
 20
-120.4248629798764
 30
0.0
 10
101.9007568104623
 20
-120.4248629798764
 30
0.0
 10
102.1784315065734
 20
-120.4248629798764
 30
0.0
 10
102.3785915542665
 20
-120.4059149547076
 30
0.0
 10
102.3785915542665
 20
-120.4059149547076
 30
0.0
 10
102.3785915542665
 20
-120.6258843014408
 30
0.0
 10
102.3785915542665
 20
-120.6258843014408
 30
0.0
 10
102.213571480523
 20
-120.6110703908542
 30
0.0
 10
102.0488959163281
 20
-120.6067640214976
 30
0.0
 10
101.8842203521331
 20
-120.6067640214976
 30
0.0
  0
SPLINE
  5
A0
330
80
100
AcDbEntity
  8
_U+30EC_U+30A4_U+30E4_U+30FC 1
370
     0
100
AcDbSpline
210
0.0
220
0.0
230
1.0
 70
    11
 71
     3
 72
    29
 73
    25
 74
     0
 42
0.0000000001
 43
0.0000000001
 12
1.0
 22
0.0
 32
0.0
 13
1.0
 23
0.0
 33
0.0
 40
0.0
 40
0.0
 40
0.0
 40
0.0
 40
1.0
 40
1.0
 40
1.0
 40
2.0
 40
2.0
 40
2.0
 40
3.0
 40
3.0
 40
3.0
 40
4.0
 40
4.0
 40
4.0
 40
5.0
 40
5.0
 40
5.0
 40
6.0
 40
6.0
 40
6.0
 40
7.0
 40
7.0
 40
7.0
 40
8.0
 40
8.0
 40
8.0
 40
8.0
 10
101.7953368886137
 20
-120.0779418645118
 30
0.0
 10
101.7953368886137
 20
-120.0779418645118
 30
0.0
 10
101.4859673140382
 20
-120.0779418645118
 30
0.0
 10
101.4859673140382
 20
-120.0779418645118
 30
0.0
 10
101.3877820927086
 20
-120.0779418645118
 30
0.0
 10
101.2654812029822
 20
-120.0843152911595
 30
0.0
 10
101.1710855866864
 20
-120.0970621444549
 30
0.0
 10
101.1710855866864
 20
-120.0970621444549
 30
0.0
 10
101.1710855866864
 20
-119.8621066323609
 30
0.0
 10
101.1710855866864
 20
-119.8621066323609
 30
0.0
 10
101.2747829607924
 20
-119.8769205429474
 30
0.0
 10
101.4360134295021
 20
-119.881226912304
 30
0.0
 10
101.4859673140382
 20
-119.881226912304
 30
0.0
 10
101.4859673140382
 20
-119.881226912304
 30
0.0
 10
101.7953368886137
 20
-119.881226912304
 30
0.0
 10
101.7953368886137
 20
-119.881226912304
 30
0.0
 10
101.8118733469429
 20
-119.881226912304
 30
0.0
 10
101.9896402739818
 20
-119.881226912304
 30
0.0
 10
102.1136637114508
 20
-119.8621066323609
 30
0.0
 10
102.1136637114508
 20
-119.8621066323609
 30
0.0
 10
102.1136637114508
 20
-120.0970621444549
 30
0.0
 10
102.1136637114508
 20
-120.0970621444549
 30
0.0
 10
101.9765489111378
 20
-120.0779418645118
 30
0.0
 10
101.8101507992002
 20
-120.0779418645118
 30
0.0
 10
101.7953368886137
 20
-120.0779418645118
 30
0.0
  0
HATCH
  5
A1
330
80
100
AcDbEntity
  8
_U+30EC_U+30A4_U+30E4_U+30FC 1
 62
   179
420
  2234388
100
AcDbHatch
 10
0.0
 20
0.0
 30
0.0
210
0.0
220
0.0
230
1.0
  2
SOLID
 70
     1
 71
     0
 91
        2
 92
        1
 93
        1
 72
     4
 94
        3
 73
     0
 74
     1
 95
       47
 96
       43
 40
0.0
 40
0.0
 40
0.0
 40
0.0
 40
1.0
 40
1.0
 40
1.0
 40
2.0
 40
2.0
 40
2.0
 40
3.0
 40
3.0
 40
3.0
 40
4.0
 40
4.0
 40
4.0
 40
5.0
 40
5.0
 40
5.0
 40
6.0
 40
6.0
 40
6.0
 40
7.0
 40
7.0
 40
7.0
 40
8.0
 40
8.0
 40
8.0
 40
9.0
 40
9.0
 40
9.0
 40
10.0
 40
10.0
 40
10.0
 40
11.0
 40
11.0
 40
11.0
 40
12.0
 40
12.0
 40
12.0
 40
13.0
 40
13.0
 40
13.0
 40
14.0
 40
14.0
 40
14.0
 40
14.0
 10
101.8842203521331
 20
-120.6067640214976
 10
101.8842203521331
 20
-120.6067640214976
 10
101.7953368886137
 20
-120.6067640214976
 10
101.7953368886137
 20
-120.6067640214976
 10
101.7953368886137
 20
-120.6935804277259
 10
101.7767333729933
 20
-121.0828762175591
 10
101.6044785987308
 20
-121.3028455642924
 10
101.4711534034517
 20
-121.4719997526181
 10
101.289596871379
 20
-121.5419351909687
 10
101.2155273184461
 20
-121.5693237000764
 10
101.2155273184461
 20
-121.5693237000764
 10
101.0453396014748
 20
-121.4022365690418
 10
101.0453396014748
 20
-121.4022365690418
 10
101.1304334599605
 20
-121.3894897157464
 10
101.2840847186026
 20
-121.3662353212209
 10
101.4491047923461
 20
-121.177960852952
 10
101.5138725874688
 20
-121.1061306120846
 10
101.6044785987308
 20
-120.9664319901577
 10
101.6044785987308
 20
-120.6067640214976
 10
101.6044785987308
 20
-120.6067640214976
 10
101.4025960032952
 20
-120.6067640214976
 10
101.4025960032952
 20
-120.6067640214976
 10
101.2396429868429
 20
-120.6067640214976
 10
101.0766899703906
 20
-120.6110703908542
 10
100.9137369539382
 20
-120.6258843014408
 10
100.9137369539382
 20
-120.6258843014408
 10
100.9137369539382
 20
-120.4059149547076
 10
100.9137369539382
 20
-120.4059149547076
 10
101.0784125181332
 20
-120.4207288652941
 10
101.3285264503623
 20
-120.4248629798764
 10
101.4025960032952
 20
-120.4248629798764
 10
101.4025960032952
 20
-120.4248629798764
 10
101.8842203521331
 20
-120.4248629798764
 10
101.8842203521331
 20
-120.4248629798764
 10
101.9007568104623
 20
-120.4248629798764
 10
102.1784315065734
 20
-120.4248629798764
 10
102.3785915542665
 20
-120.4059149547076
 10
102.3785915542665
 20
-120.4059149547076
 10
102.3785915542665
 20
-120.6258843014408
 10
102.3785915542665
 20
-120.6258843014408
 10
102.213571480523
 20
-120.6110703908542
 10
102.0488959163281
 20
-120.6067640214976
 10
101.8842203521331
 20
-120.6067640214976
 97
        0
 97
        0
 92
        1
 93
        1
 72
     4
 94
        3
 73
     0
 74
     1
 95
       29
 96
       25
 40
0.0
 40
0.0
 40
0.0
 40
0.0
 40
1.0
 40
1.0
 40
1.0
 40
2.0
 40
2.0
 40
2.0
 40
3.0
 40
3.0
 40
3.0
 40
4.0
 40
4.0
 40
4.0
 40
5.0
 40
5.0
 40
5.0
 40
6.0
 40
6.0
 40
6.0
 40
7.0
 40
7.0
 40
7.0
 40
8.0
 40
8.0
 40
8.0
 40
8.0
 10
101.7953368886137
 20
-120.0779418645118
 10
101.7953368886137
 20
-120.0779418645118
 10
101.4859673140382
 20
-120.0779418645118
 10
101.4859673140382
 20
-120.0779418645118
 10
101.3877820927086
 20
-120.0779418645118
 10
101.2654812029822
 20
-120.0843152911595
 10
101.1710855866864
 20
-120.0970621444549
 10
101.1710855866864
 20
-120.0970621444549
 10
101.1710855866864
 20
-119.8621066323609
 10
101.1710855866864
 20
-119.8621066323609
 10
101.2747829607924
 20
-119.8769205429474
 10
101.4360134295021
 20
-119.881226912304
 10
101.4859673140382
 20
-119.881226912304
 10
101.4859673140382
 20
-119.881226912304
 10
101.7953368886137
 20
-119.881226912304
 10
101.7953368886137
 20
-119.881226912304
 10
101.8118733469429
 20
-119.881226912304
 10
101.9896402739818
 20
-119.881226912304
 10
102.1136637114508
 20
-119.8621066323609
 10
102.1136637114508
 20
-119.8621066323609
 10
102.1136637114508
 20
-120.0970621444549
 10
102.1136637114508
 20
-120.0970621444549
 10
101.9765489111378
 20
-120.0779418645118
 10
101.8101507992002
 20
-120.0779418645118
 10
101.7953368886137
 20
-120.0779418645118
 97
        0
 97
        0
 75
     2
 76
     1
 98
        0
  0
SPLINE
  5
A2
330
80
100
AcDbEntity
  8
_U+30EC_U+30A4_U+30E4_U+30FC 1
370
     0
100
AcDbSpline
210
0.0
220
0.0
230
1.0
 70
    11
 71
     3
 72
    29
 73
    25
 74
     0
 42
0.0000000001
 43
0.0000000001
 12
1.0
 22
0.0
 32
0.0
 13
1.0
 23
0.0
 33
0.0
 40
0.0
 40
0.0
 40
0.0
 40
0.0
 40
1.0
 40
1.0
 40
1.0
 40
2.0
 40
2.0
 40
2.0
 40
3.0
 40
3.0
 40
3.0
 40
4.0
 40
4.0
 40
4.0
 40
5.0
 40
5.0
 40
5.0
 40
6.0
 40
6.0
 40
6.0
 40
7.0
 40
7.0
 40
7.0
 40
8.0
 40
8.0
 40
8.0
 40
8.0
 10
103.5010036633609
 20
-120.7697170379499
 30
0.0
 10
103.5010036633609
 20
-120.7697170379499
 30
0.0
 10
103.0769124091266
 20
-120.7697170379499
 30
0.0
 10
103.0769124091266
 20
-120.7697170379499
 30
0.0
 10
103.0527967407299
 20
-120.7697170379499
 30
0.0
 10
102.7747775350702
 20
-120.7697170379499
 30
0.0
 10
102.5897759075123
 20
-120.7950384897665
 30
0.0
 10
102.5897759075123
 20
-120.7950384897665
 30
0.0
 10
102.5897759075123
 20
-120.5645616018033
 30
0.0
 10
102.5897759075123
 20
-120.5645616018033
 30
0.0
 10
102.7286132555679
 20
-120.5878159963287
 30
0.0
 10
102.8953558770539
 20
-120.5898830536199
 30
0.0
 10
103.0769124091266
 20
-120.5898830536199
 30
0.0
 10
103.0769124091266
 20
-120.5898830536199
 30
0.0
 10
103.5010036633609
 20
-120.5898830536199
 30
0.0
 10
103.5010036633609
 20
-120.5898830536199
 30
0.0
 10
103.6636121702647
 20
-120.5898830536199
 30
0.0
 10
103.8269096962655
 20
-120.5878159963287
 30
0.0
 10
103.9877956554267
 20
-120.5645616018033
 30
0.0
 10
103.9877956554267
 20
-120.5645616018033
 30
0.0
 10
103.9877956554267
 20
-120.7950384897665
 30
0.0
 10
103.9877956554267
 20
-120.7950384897665
 30
0.0
 10
103.8269096962655
 20
-120.7717840952411
 30
0.0
 10
103.6102131902433
 20
-120.7697170379499
 30
0.0
 10
103.5010036633609
 20
-120.7697170379499
 30
0.0
  0
HATCH
  5
A3
330
80
100
AcDbEntity
  8
_U+30EC_U+30A4_U+30E4_U+30FC 1
 62
   179
420
  2234388
100
AcDbHatch
 10
0.0
 20
0.0
 30
0.0
210
0.0
220
0.0
230
1.0
  2
SOLID
 70
     1
 71
     0
 91
        1
 92
        1
 93
        1
 72
     4
 94
        3
 73
     0
 74
     1
 95
       29
 96
       25
 40
0.0
 40
0.0
 40
0.0
 40
0.0
 40
1.0
 40
1.0
 40
1.0
 40
2.0
 40
2.0
 40
2.0
 40
3.0
 40
3.0
 40
3.0
 40
4.0
 40
4.0
 40
4.0
 40
5.0
 40
5.0
 40
5.0
 40
6.0
 40
6.0
 40
6.0
 40
7.0
 40
7.0
 40
7.0
 40
8.0
 40
8.0
 40
8.0
 40
8.0
 10
103.5010036633609
 20
-120.7697170379499
 10
103.5010036633609
 20
-120.7697170379499
 10
103.0769124091266
 20
-120.7697170379499
 10
103.0769124091266
 20
-120.7697170379499
 10
103.0527967407299
 20
-120.7697170379499
 10
102.7747775350702
 20
-120.7697170379499
 10
102.5897759075123
 20
-120.7950384897665
 10
102.5897759075123
 20
-120.7950384897665
 10
102.5897759075123
 20
-120.5645616018033
 10
102.5897759075123
 20
-120.5645616018033
 10
102.7286132555679
 20
-120.5878159963287
 10
102.8953558770539
 20
-120.5898830536199
 10
103.0769124091266
 20
-120.5898830536199
 10
103.0769124091266
 20
-120.5898830536199
 10
103.5010036633609
 20
-120.5898830536199
 10
103.5010036633609
 20
-120.5898830536199
 10
103.6636121702647
 20
-120.5898830536199
 10
103.8269096962655
 20
-120.5878159963287
 10
103.9877956554267
 20
-120.5645616018033
 10
103.9877956554267
 20
-120.5645616018033
 10
103.9877956554267
 20
-120.7950384897665
 10
103.9877956554267
 20
-120.7950384897665
 10
103.8269096962655
 20
-120.7717840952411
 10
103.6102131902433
 20
-120.7697170379499
 10
103.5010036633609
 20
-120.7697170379499
 97
        0
 97
        0
 75
     2
 76
     1
 98
        0
  0
SPLINE
  5
A4
330
80
100
AcDbEntity
  8
_U+30EC_U+30A4_U+30E4_U+30FC 1
370
     0
100
AcDbSpline
210
0.0
220
0.0
230
1.0
 70
    11
 71
     3
 72
    44
 73
    40
 74
     0
 42
0.0000000001
 43
0.0000000001
 12
1.0
 22
0.0
 32
0.0
 13
1.0
 23
0.0
 33
0.0
 40
0.0
 40
0.0
 40
0.0
 40
0.0
 40
1.0
 40
1.0
 40
1.0
 40
2.0
 40
2.0
 40
2.0
 40
3.0
 40
3.0
 40
3.0
 40
4.0
 40
4.0
 40
4.0
 40
5.0
 40
5.0
 40
5.0
 40
6.0
 40
6.0
 40
6.0
 40
7.0
 40
7.0
 40
7.0
 40
8.0
 40
8.0
 40
8.0
 40
9.0
 40
9.0
 40
9.0
 40
10.0
 40
10.0
 40
10.0
 40
11.0
 40
11.0
 40
11.0
 40
12.0
 40
12.0
 40
12.0
 40
13.0
 40
13.0
 40
13.0
 40
13.0
 10
105.4378363451683
 20
-120.3318454017747
 30
0.0
 10
105.3396511238387
 20
-120.6999538543736
 30
0.0
 10
105.295209392079
 20
-120.8586005014694
 30
0.0
 10
105.1229546178165
 20
-121.1081976693757
 30
0.0
 10
104.9620686586553
 20
-121.3388468121132
 30
0.0
 10
104.7546739104433
 20
-121.5248819683167
 30
0.0
 10
104.5100721309905
 20
-121.6180718011927
 30
0.0
 10
104.5100721309905
 20
-121.6180718011927
 30
0.0
 10
104.3416069617618
 20
-121.4382378168627
 30
0.0
 10
104.3416069617618
 20
-121.4382378168627
 30
0.0
 10
104.902813016309
 20
-121.2859645964146
 30
0.0
 10
105.191512017973
 20
-120.7295816755468
 30
0.0
 10
105.2469780552855
 20
-120.2894707273061
 30
0.0
 10
105.2469780552855
 20
-120.2894707273061
 30
0.0
 10
104.5769069834044
 20
-120.2894707273061
 30
0.0
 10
104.5769069834044
 20
-120.2894707273061
 30
0.0
 10
104.495258220404
 20
-120.2894707273061
 30
0.0
 10
104.3343722612428
 20
-120.2937770966627
 30
0.0
 10
104.1972574609299
 20
-120.3127251218315
 30
0.0
 10
104.1972574609299
 20
-120.3127251218315
 30
0.0
 10
104.1972574609299
 20
-120.0927557750983
 30
0.0
 10
104.1972574609299
 20
-120.0927557750983
 30
0.0
 10
104.2730495616053
 20
-120.1139431123326
 30
0.0
 10
104.4935356726613
 20
-120.1139431123326
 30
0.0
 10
104.5806965884382
 20
-120.1139431123326
 30
0.0
 10
104.5806965884382
 20
-120.1139431123326
 30
0.0
 10
104.9582790536216
 20
-120.1139431123326
 30
0.0
 10
104.9582790536216
 20
-120.1139431123326
 30
0.0
 10
104.9954860848623
 20
-120.1139431123326
 30
0.0
 10
105.2008137757831
 20
-120.1117038002672
 30
0.0
 10
105.2342312019901
 20
-120.1055026283938
 30
0.0
 10
105.2710937236822
 20
-120.0991292017461
 30
0.0
 10
105.2731607809734
 20
-120.0970621444549
 30
0.0
 10
105.3269042705433
 20
-120.0567545272775
 30
0.0
 10
105.3269042705433
 20
-120.0567545272775
 30
0.0
 10
105.4915798347382
 20
-120.2112670597909
 30
0.0
 10
105.4915798347382
 20
-120.2112670597909
 30
0.0
 10
105.4657416185988
 20
-120.2408948809641
 30
0.0
 10
105.4526502557549
 20
-120.2725897594284
 30
0.0
 10
105.4378363451683
 20
-120.3318454017747
 30
0.0
  0
SPLINE
  5
A5
330
80
100
AcDbEntity
  8
_U+30EC_U+30A4_U+30E4_U+30FC 1
370
     0
100
AcDbSpline
210
0.0
220
0.0
230
1.0
 70
    11
 71
     3
 72
    17
 73
    13
 74
     0
 42
0.0000000001
 43
0.0000000001
 12
1.0
 22
0.0
 32
0.0
 13
1.0
 23
0.0
 33
0.0
 40
0.0
 40
0.0
 40
0.0
 40
0.0
 40
1.0
 40
1.0
 40
1.0
 40
2.0
 40
2.0
 40
2.0
 40
3.0
 40
3.0
 40
3.0
 40
4.0
 40
4.0
 40
4.0
 40
4.0
 10
105.6211154249836
 20
-120.1328911375015
 30
0.0
 10
105.5101833503586
 20
-120.1328911375015
 30
0.0
 10
105.4212998868391
 20
-120.0314330754609
 30
0.0
 10
105.4212998868391
 20
-119.9044813068294
 30
0.0
 10
105.4212998868391
 20
-119.777529538198
 30
0.0
 10
105.5101833503586
 20
-119.673832164092
 30
0.0
 10
105.6211154249836
 20
-119.673832164092
 30
0.0
 10
105.7323920091572
 20
-119.673832164092
 30
0.0
 10
105.8229980204192
 20
-119.777529538198
 30
0.0
 10
105.8229980204192
 20
-119.9044813068294
 30
0.0
 10
105.8229980204192
 20
-120.0314330754609
 30
0.0
 10
105.7323920091572
 20
-120.1328911375015
 30
0.0
 10
105.6211154249836
 20
-120.1328911375015
 30
0.0
  0
SPLINE
  5
A6
330
80
100
AcDbEntity
  8
_U+30EC_U+30A4_U+30E4_U+30FC 1
370
     0
100
AcDbSpline
210
0.0
220
0.0
230
1.0
 70
    11
 71
     3
 72
    17
 73
    13
 74
     0
 42
0.0000000001
 43
0.0000000001
 12
1.0
 22
0.0
 32
0.0
 13
1.0
 23
0.0
 33
0.0
 40
0.0
 40
0.0
 40
0.0
 40
0.0
 40
1.0
 40
1.0
 40
1.0
 40
2.0
 40
2.0
 40
2.0
 40
3.0
 40
3.0
 40
3.0
 40
4.0
 40
4.0
 40
4.0
 40
4.0
 10
105.619392877241
 20
-119.8028509900146
 30
0.0
 10
105.5711615404475
 20
-119.8028509900146
 30
0.0
 10
105.5322319614642
 20
-119.8472927217743
 30
0.0
 10
105.5322319614642
 20
-119.9024142495383
 30
0.0
 10
105.5322319614642
 20
-119.9594305798192
 30
0.0
 10
105.5711615404475
 20
-120.0081786809355
 30
0.0
 10
105.6231824822748
 20
-120.0081786809355
 30
0.0
 10
105.6748589145535
 20
-120.0081786809355
 30
0.0
 10
105.7099988885031
 20
-119.957363522528
 30
0.0
 10
105.7099988885031
 20
-119.9044813068294
 30
0.0
 10
105.7099988885031
 20
-119.8472927217743
 30
0.0
 10
105.6693467617771
 20
-119.8028509900146
 30
0.0
 10
105.619392877241
 20
-119.8028509900146
 30
0.0
  0
HATCH
  5
A7
330
80
100
AcDbEntity
  8
_U+30EC_U+30A4_U+30E4_U+30FC 1
 62
   179
420
  2234388
100
AcDbHatch
 10
0.0
 20
0.0
 30
0.0
210
0.0
220
0.0
230
1.0
  2
SOLID
 70
     1
 71
     0
 91
        3
 92
        1
 93
        1
 72
     4
 94
        3
 73
     0
 74
     1
 95
       44
 96
       40
 40
0.0
 40
0.0
 40
0.0
 40
0.0
 40
1.0
 40
1.0
 40
1.0
 40
2.0
 40
2.0
 40
2.0
 40
3.0
 40
3.0
 40
3.0
 40
4.0
 40
4.0
 40
4.0
 40
5.0
 40
5.0
 40
5.0
 40
6.0
 40
6.0
 40
6.0
 40
7.0
 40
7.0
 40
7.0
 40
8.0
 40
8.0
 40
8.0
 40
9.0
 40
9.0
 40
9.0
 40
10.0
 40
10.0
 40
10.0
 40
11.0
 40
11.0
 40
11.0
 40
12.0
 40
12.0
 40
12.0
 40
13.0
 40
13.0
 40
13.0
 40
13.0
 10
105.4378363451683
 20
-120.3318454017747
 10
105.3396511238387
 20
-120.6999538543736
 10
105.295209392079
 20
-120.8586005014694
 10
105.1229546178165
 20
-121.1081976693757
 10
104.9620686586553
 20
-121.3388468121132
 10
104.7546739104433
 20
-121.5248819683167
 10
104.5100721309905
 20
-121.6180718011927
 10
104.5100721309905
 20
-121.6180718011927
 10
104.3416069617618
 20
-121.4382378168627
 10
104.3416069617618
 20
-121.4382378168627
 10
104.902813016309
 20
-121.2859645964146
 10
105.191512017973
 20
-120.7295816755468
 10
105.2469780552855
 20
-120.2894707273061
 10
105.2469780552855
 20
-120.2894707273061
 10
104.5769069834044
 20
-120.2894707273061
 10
104.5769069834044
 20
-120.2894707273061
 10
104.495258220404
 20
-120.2894707273061
 10
104.3343722612428
 20
-120.2937770966627
 10
104.1972574609299
 20
-120.3127251218315
 10
104.1972574609299
 20
-120.3127251218315
 10
104.1972574609299
 20
-120.0927557750983
 10
104.1972574609299
 20
-120.0927557750983
 10
104.2730495616053
 20
-120.1139431123326
 10
104.4935356726613
 20
-120.1139431123326
 10
104.5806965884382
 20
-120.1139431123326
 10
104.5806965884382
 20
-120.1139431123326
 10
104.9582790536216
 20
-120.1139431123326
 10
104.9582790536216
 20
-120.1139431123326
 10
104.9954860848623
 20
-120.1139431123326
 10
105.2008137757831
 20
-120.1117038002672
 10
105.2342312019901
 20
-120.1055026283938
 10
105.2710937236822
 20
-120.0991292017461
 10
105.2731607809734
 20
-120.0970621444549
 10
105.3269042705433
 20
-120.0567545272775
 10
105.3269042705433
 20
-120.0567545272775
 10
105.4915798347382
 20
-120.2112670597909
 10
105.4915798347382
 20
-120.2112670597909
 10
105.4657416185988
 20
-120.2408948809641
 10
105.4526502557549
 20
-120.2725897594284
 10
105.4378363451683
 20
-120.3318454017747
 97
        0
 97
        0
 92
        1
 93
        1
 72
     4
 94
        3
 73
     0
 74
     1
 95
       17
 96
       13
 40
0.0
 40
0.0
 40
0.0
 40
0.0
 40
1.0
 40
1.0
 40
1.0
 40
2.0
 40
2.0
 40
2.0
 40
3.0
 40
3.0
 40
3.0
 40
4.0
 40
4.0
 40
4.0
 40
4.0
 10
105.6211154249836
 20
-120.1328911375015
 10
105.5101833503586
 20
-120.1328911375015
 10
105.4212998868391
 20
-120.0314330754609
 10
105.4212998868391
 20
-119.9044813068294
 10
105.4212998868391
 20
-119.777529538198
 10
105.5101833503586
 20
-119.673832164092
 10
105.6211154249836
 20
-119.673832164092
 10
105.7323920091572
 20
-119.673832164092
 10
105.8229980204192
 20
-119.777529538198
 10
105.8229980204192
 20
-119.9044813068294
 10
105.8229980204192
 20
-120.0314330754609
 10
105.7323920091572
 20
-120.1328911375015
 10
105.6211154249836
 20
-120.1328911375015
 97
        0
 97
        0
 92
        1
 93
        1
 72
     4
 94
        3
 73
     0
 74
     1
 95
       17
 96
       13
 40
0.0
 40
0.0
 40
0.0
 40
0.0
 40
1.0
 40
1.0
 40
1.0
 40
2.0
 40
2.0
 40
2.0
 40
3.0
 40
3.0
 40
3.0
 40
4.0
 40
4.0
 40
4.0
 40
4.0
 10
105.619392877241
 20
-119.8028509900146
 10
105.5711615404475
 20
-119.8028509900146
 10
105.5322319614642
 20
-119.8472927217743
 10
105.5322319614642
 20
-119.9024142495383
 10
105.5322319614642
 20
-119.9594305798192
 10
105.5711615404475
 20
-120.0081786809355
 10
105.6231824822748
 20
-120.0081786809355
 10
105.6748589145535
 20
-120.0081786809355
 10
105.7099988885031
 20
-119.957363522528
 10
105.7099988885031
 20
-119.9044813068294
 10
105.7099988885031
 20
-119.8472927217743
 10
105.6693467617771
 20
-119.8028509900146
 10
105.619392877241
 20
-119.8028509900146
 97
        0
 97
        0
 75
     2
 76
     1
 98
        0
  0
ENDBLK
  5
83
330
80
100
AcDbEntity
  8
0
100
AcDbBlockEnd
  0
BLOCK
  5
B6
330
B4
100
AcDbEntity
  8
0
100
AcDbBlockBegin
  2
block 3
 70
     0
 10
0.0
 20
0.0
 30
0.0
  3
block 3
  1

  0
SPLINE
  5
B8
330
B4
100
AcDbEntity
  8
_U+30EC_U+30A4_U+30E4_U+30FC 1
370
     0
100
AcDbSpline
210
0.0
220
0.0
230
1.0
 70
    11
 71
     3
 72
    62
 73
    58
 74
     0
 42
0.0000000001
 43
0.0000000001
 12
1.0
 22
0.0
 32
0.0
 13
1.0
 23
0.0
 33
0.0
 40
0.0
 40
0.0
 40
0.0
 40
0.0
 40
1.0
 40
1.0
 40
1.0
 40
2.0
 40
2.0
 40
2.0
 40
3.0
 40
3.0
 40
3.0
 40
4.0
 40
4.0
 40
4.0
 40
5.0
 40
5.0
 40
5.0
 40
6.0
 40
6.0
 40
6.0
 40
7.0
 40
7.0
 40
7.0
 40
8.0
 40
8.0
 40
8.0
 40
9.0
 40
9.0
 40
9.0
 40
10.0
 40
10.0
 40
10.0
 40
11.0
 40
11.0
 40
11.0
 40
12.0
 40
12.0
 40
12.0
 40
13.0
 40
13.0
 40
13.0
 40
14.0
 40
14.0
 40
14.0
 40
15.0
 40
15.0
 40
15.0
 40
16.0
 40
16.0
 40
16.0
 40
17.0
 40
17.0
 40
17.0
 40
18.0
 40
18.0
 40
18.0
 40
19.0
 40
19.0
 40
19.0
 40
19.0
 10
93.70039602692212
 20
-146.6928547810351
 30
0.0
 10
93.61702471617909
 20
-146.6928547810351
 30
0.0
 10
93.42616642629623
 20
-146.6718396985751
 30
0.0
 10
93.31695689941382
 20
-146.4858045423716
 30
0.0
 10
93.25218910429112
 20
-146.3734944295525
 30
0.0
 10
93.24839949925735
 20
-146.2742756795773
 30
0.0
 10
93.2449544037721
 20
-146.1895263306401
 30
0.0
 10
93.2449544037721
 20
-146.1895263306401
 30
0.0
 10
93.43719073184904
 20
-146.1895263306401
 30
0.0
 10
93.43719073184904
 20
-146.1895263306401
 30
0.0
 10
93.43925778914019
 20
-146.263595883573
 30
0.0
 10
93.44855954695036
 20
-146.4982068861185
 30
0.0
 10
93.69660642188835
 20
-146.4982068861185
 30
0.0
 10
93.81684025432357
 20
-146.4982068861185
 30
0.0
 10
93.95016544960274
 20
-146.4286159573165
 30
0.0
 10
93.95016544960274
 20
-146.2002061266444
 30
0.0
 10
93.95016544960274
 20
-146.0837618992429
 30
0.0
 10
93.91709253294434
 20
-146.0351860529009
 30
0.0
 10
93.88918725951382
 20
-146.0034911744366
 30
0.0
 10
93.82441946439113
 20
-145.9294216215038
 30
0.0
 10
93.72244463802772
 20
-145.9166747682083
 30
0.0
 10
93.67421330123423
 20
-145.9166747682083
 30
0.0
 10
93.65767684290503
 20
-145.9166747682083
 30
0.0
 10
93.62632647398925
 20
-145.9187418254995
 30
0.0
 10
93.6022108055925
 20
-145.9228759400818
 30
0.0
 10
93.6022108055925
 20
-145.9228759400818
 30
0.0
 10
93.6022108055925
 20
-145.7282280451652
 30
0.0
 10
93.6022108055925
 20
-145.7282280451652
 30
0.0
 10
93.63562823179943
 20
-145.7347737265872
 30
0.0
 10
93.6724907534916
 20
-145.7368407838783
 30
0.0
 10
93.678002906268
 20
-145.7368407838783
 30
0.0
 10
93.73553600087168
 20
-145.7368407838783
 30
0.0
 10
93.90951332287679
 20
-145.7154811918697
 30
0.0
 10
93.90951332287679
 20
-145.4788031320331
 30
0.0
 10
93.90951332287679
 20
-145.3010362049942
 30
0.0
 10
93.79479164321798
 20
-145.2459146772302
 30
0.0
 10
93.69832896963098
 20
-145.2459146772302
 30
0.0
 10
93.4668185530222
 20
-145.2459146772302
 30
0.0
 10
93.45958385250316
 20
-145.4788031320331
 30
0.0
 10
93.45579424746938
 20
-145.5504611181263
 30
0.0
 10
93.45579424746938
 20
-145.5504611181263
 30
0.0
 10
93.2780273204305
 20
-145.5504611181263
 30
0.0
 10
93.2780273204305
 20
-145.5504611181263
 30
0.0
 10
93.28560653049804
 20
-145.4257486615602
 30
0.0
 10
93.30972219889479
 20
-145.0491997250224
 30
0.0
 10
93.7096977847323
 20
-145.0491997250224
 30
0.0
 10
93.90572371784302
 20
-145.0491997250224
 30
0.0
 10
94.11690807108883
 20
-145.1763237484282
 30
0.0
 10
94.11690807108883
 20
-145.4722574506111
 30
0.0
 10
94.11690807108883
 20
-145.6586371163631
 30
0.0
 10
94.03353676034578
 20
-145.7409748984606
 30
0.0
 10
93.94672035411749
 20
-145.8022975980981
 30
0.0
 10
94.00011933413886
 20
-145.82985836198
 30
0.0
 10
94.15962725510593
 20
-145.9101290867864
 30
0.0
 10
94.15962725510593
 20
-146.187459273349
 30
0.0
 10
94.15962725510593
 20
-146.5257676500005
 30
0.0
 10
93.94293074908371
 20
-146.6928547810351
 30
0.0
 10
93.70039602692212
 20
-146.6928547810351
 30
0.0
  0
HATCH
  5
B9
330
B4
100
AcDbEntity
  8
_U+30EC_U+30A4_U+30E4_U+30FC 1
 62
   179
420
  2234388
100
AcDbHatch
 10
0.0
 20
0.0
 30
0.0
210
0.0
220
0.0
230
1.0
  2
SOLID
 70
     1
 71
     0
 91
        1
 92
        1
 93
        1
 72
     4
 94
        3
 73
     0
 74
     1
 95
       62
 96
       58
 40
0.0
 40
0.0
 40
0.0
 40
0.0
 40
1.0
 40
1.0
 40
1.0
 40
2.0
 40
2.0
 40
2.0
 40
3.0
 40
3.0
 40
3.0
 40
4.0
 40
4.0
 40
4.0
 40
5.0
 40
5.0
 40
5.0
 40
6.0
 40
6.0
 40
6.0
 40
7.0
 40
7.0
 40
7.0
 40
8.0
 40
8.0
 40
8.0
 40
9.0
 40
9.0
 40
9.0
 40
10.0
 40
10.0
 40
10.0
 40
11.0
 40
11.0
 40
11.0
 40
12.0
 40
12.0
 40
12.0
 40
13.0
 40
13.0
 40
13.0
 40
14.0
 40
14.0
 40
14.0
 40
15.0
 40
15.0
 40
15.0
 40
16.0
 40
16.0
 40
16.0
 40
17.0
 40
17.0
 40
17.0
 40
18.0
 40
18.0
 40
18.0
 40
19.0
 40
19.0
 40
19.0
 40
19.0
 10
93.70039602692212
 20
-146.6928547810351
 10
93.61702471617909
 20
-146.6928547810351
 10
93.42616642629623
 20
-146.6718396985751
 10
93.31695689941382
 20
-146.4858045423716
 10
93.25218910429112
 20
-146.3734944295525
 10
93.24839949925735
 20
-146.2742756795773
 10
93.2449544037721
 20
-146.1895263306401
 10
93.2449544037721
 20
-146.1895263306401
 10
93.43719073184904
 20
-146.1895263306401
 10
93.43719073184904
 20
-146.1895263306401
 10
93.43925778914019
 20
-146.263595883573
 10
93.44855954695036
 20
-146.4982068861185
 10
93.69660642188835
 20
-146.4982068861185
 10
93.81684025432357
 20
-146.4982068861185
 10
93.95016544960274
 20
-146.4286159573165
 10
93.95016544960274
 20
-146.2002061266444
 10
93.95016544960274
 20
-146.0837618992429
 10
93.91709253294434
 20
-146.0351860529009
 10
93.88918725951382
 20
-146.0034911744366
 10
93.82441946439113
 20
-145.9294216215038
 10
93.72244463802772
 20
-145.9166747682083
 10
93.67421330123423
 20
-145.9166747682083
 10
93.65767684290503
 20
-145.9166747682083
 10
93.62632647398925
 20
-145.9187418254995
 10
93.6022108055925
 20
-145.9228759400818
 10
93.6022108055925
 20
-145.9228759400818
 10
93.6022108055925
 20
-145.7282280451652
 10
93.6022108055925
 20
-145.7282280451652
 10
93.63562823179943
 20
-145.7347737265872
 10
93.6724907534916
 20
-145.7368407838783
 10
93.678002906268
 20
-145.7368407838783
 10
93.73553600087168
 20
-145.7368407838783
 10
93.90951332287679
 20
-145.7154811918697
 10
93.90951332287679
 20
-145.4788031320331
 10
93.90951332287679
 20
-145.3010362049942
 10
93.79479164321798
 20
-145.2459146772302
 10
93.69832896963098
 20
-145.2459146772302
 10
93.4668185530222
 20
-145.2459146772302
 10
93.45958385250316
 20
-145.4788031320331
 10
93.45579424746938
 20
-145.5504611181263
 10
93.45579424746938
 20
-145.5504611181263
 10
93.2780273204305
 20
-145.5504611181263
 10
93.2780273204305
 20
-145.5504611181263
 10
93.28560653049804
 20
-145.4257486615602
 10
93.30972219889479
 20
-145.0491997250224
 10
93.7096977847323
 20
-145.0491997250224
 10
93.90572371784302
 20
-145.0491997250224
 10
94.11690807108883
 20
-145.1763237484282
 10
94.11690807108883
 20
-145.4722574506111
 10
94.11690807108883
 20
-145.6586371163631
 10
94.03353676034578
 20
-145.7409748984606
 10
93.94672035411749
 20
-145.8022975980981
 10
94.00011933413886
 20
-145.82985836198
 10
94.15962725510593
 20
-145.9101290867864
 10
94.15962725510593
 20
-146.187459273349
 10
94.15962725510593
 20
-146.5257676500005
 10
93.94293074908371
 20
-146.6928547810351
 10
93.70039602692212
 20
-146.6928547810351
 97
        0
 97
        0
 75
     2
 76
     1
 98
        0
  0
SPLINE
  5
BA
330
B4
100
AcDbEntity
  8
_U+30EC_U+30A4_U+30E4_U+30FC 1
370
     0
100
AcDbSpline
210
0.0
220
0.0
230
1.0
 70
    11
 71
     3
 72
    53
 73
    49
 74
     0
 42
0.0000000001
 43
0.0000000001
 12
1.0
 22
0.0
 32
0.0
 13
1.0
 23
0.0
 33
0.0
 40
0.0
 40
0.0
 40
0.0
 40
0.0
 40
1.0
 40
1.0
 40
1.0
 40
2.0
 40
2.0
 40
2.0
 40
3.0
 40
3.0
 40
3.0
 40
4.0
 40
4.0
 40
4.0
 40
5.0
 40
5.0
 40
5.0
 40
6.0
 40
6.0
 40
6.0
 40
7.0
 40
7.0
 40
7.0
 40
8.0
 40
8.0
 40
8.0
 40
9.0
 40
9.0
 40
9.0
 40
10.0
 40
10.0
 40
10.0
 40
11.0
 40
11.0
 40
11.0
 40
12.0
 40
12.0
 40
12.0
 40
13.0
 40
13.0
 40
13.0
 40
14.0
 40
14.0
 40
14.0
 40
15.0
 40
15.0
 40
15.0
 40
16.0
 40
16.0
 40
16.0
 40
16.0
 10
94.72186683829871
 20
-146.6928547810351
 30
0.0
 10
94.65330943814223
 20
-146.6928547810351
 30
0.0
 10
94.5644259746228
 20
-146.6759738131574
 30
0.0
 10
94.47554251110334
 20
-146.6125840562288
 30
0.0
 10
94.32361380020382
 20
-146.5026855102493
 30
0.0
 10
94.305354794132
 20
-146.3714273722613
 30
0.0
 10
94.28847382625428
 20
-146.263595883573
 30
0.0
 10
94.28847382625428
 20
-146.263595883573
 30
0.0
 10
94.48312172117089
 20
-146.263595883573
 30
0.0
 10
94.48312172117089
 20
-146.263595883573
 30
0.0
 10
94.53100854841587
 20
-146.4623778930719
 30
0.0
 10
94.64228513258944
 20
-146.4920057142451
 30
0.0
 10
94.72358938604133
 20
-146.4920057142451
 30
0.0
 10
94.8458902757677
 20
-146.4920057142451
 30
0.0
 10
94.97921547104687
 20
-146.3924424547213
 30
0.0
 10
94.97921547104687
 20
-146.159898509467
 30
0.0
 10
94.97921547104687
 20
-145.9039279149129
 30
0.0
 10
94.82177460737095
 20
-145.8339924765623
 30
0.0
 10
94.7163546855223
 20
-145.8339924765623
 30
0.0
 10
94.68844941209179
 20
-145.8339924765623
 30
0.0
 10
94.5644259746228
 20
-145.8339924765623
 30
0.0
 10
94.48656681665614
 20
-145.9631835572592
 30
0.0
 10
94.48656681665614
 20
-145.9631835572592
 30
0.0
 10
94.332915558014
 20
-145.9442355320903
 30
0.0
 10
94.332915558014
 20
-145.9442355320903
 30
0.0
 10
94.332915558014
 20
-145.9442355320903
 30
0.0
 10
94.43833547986264
 20
-145.0977755713645
 30
0.0
 10
94.43833547986264
 20
-145.0977755713645
 30
0.0
 10
94.43833547986264
 20
-145.0977755713645
 30
0.0
 10
95.11977536684506
 20
-145.0977755713645
 30
0.0
 10
95.11977536684506
 20
-145.0977755713645
 30
0.0
 10
95.11977536684506
 20
-145.0977755713645
 30
0.0
 10
95.11977536684506
 20
-145.2924234662811
 30
0.0
 10
95.11977536684506
 20
-145.2924234662811
 30
0.0
 10
95.11977536684506
 20
-145.2924234662811
 30
0.0
 10
94.58096243295199
 20
-145.2924234662811
 30
0.0
 10
94.58096243295199
 20
-145.2924234662811
 30
0.0
 10
94.58096243295199
 20
-145.2924234662811
 30
0.0
 10
94.52377384789683
 20
-145.7154811918697
 30
0.0
 10
94.52377384789683
 20
-145.7154811918697
 30
0.0
 10
94.57751733746673
 20
-145.6817192561143
 30
0.0
 10
94.64951983310846
 20
-145.6414116389369
 30
0.0
 10
94.75321720721448
 20
-145.6414116389369
 30
0.0
 10
94.9754258660131
 20
-145.6414116389369
 30
0.0
 10
95.18282061422514
 20
-145.8277913046889
 30
0.0
 10
95.18282061422514
 20
-146.1409504842981
 30
0.0
 10
95.18282061422514
 20
-146.4582437784896
 30
0.0
 10
94.98679468111442
 20
-146.6928547810351
 30
0.0
 10
94.72186683829871
 20
-146.6928547810351
 30
0.0
  0
HATCH
  5
BB
330
B4
100
AcDbEntity
  8
_U+30EC_U+30A4_U+30E4_U+30FC 1
 62
   179
420
  2234388
100
AcDbHatch
 10
0.0
 20
0.0
 30
0.0
210
0.0
220
0.0
230
1.0
  2
SOLID
 70
     1
 71
     0
 91
        1
 92
        1
 93
        1
 72
     4
 94
        3
 73
     0
 74
     1
 95
       53
 96
       49
 40
0.0
 40
0.0
 40
0.0
 40
0.0
 40
1.0
 40
1.0
 40
1.0
 40
2.0
 40
2.0
 40
2.0
 40
3.0
 40
3.0
 40
3.0
 40
4.0
 40
4.0
 40
4.0
 40
5.0
 40
5.0
 40
5.0
 40
6.0
 40
6.0
 40
6.0
 40
7.0
 40
7.0
 40
7.0
 40
8.0
 40
8.0
 40
8.0
 40
9.0
 40
9.0
 40
9.0
 40
10.0
 40
10.0
 40
10.0
 40
11.0
 40
11.0
 40
11.0
 40
12.0
 40
12.0
 40
12.0
 40
13.0
 40
13.0
 40
13.0
 40
14.0
 40
14.0
 40
14.0
 40
15.0
 40
15.0
 40
15.0
 40
16.0
 40
16.0
 40
16.0
 40
16.0
 10
94.72186683829871
 20
-146.6928547810351
 10
94.65330943814223
 20
-146.6928547810351
 10
94.5644259746228
 20
-146.6759738131574
 10
94.47554251110334
 20
-146.6125840562288
 10
94.32361380020382
 20
-146.5026855102493
 10
94.305354794132
 20
-146.3714273722613
 10
94.28847382625428
 20
-146.263595883573
 10
94.28847382625428
 20
-146.263595883573
 10
94.48312172117089
 20
-146.263595883573
 10
94.48312172117089
 20
-146.263595883573
 10
94.53100854841587
 20
-146.4623778930719
 10
94.64228513258944
 20
-146.4920057142451
 10
94.72358938604133
 20
-146.4920057142451
 10
94.8458902757677
 20
-146.4920057142451
 10
94.97921547104687
 20
-146.3924424547213
 10
94.97921547104687
 20
-146.159898509467
 10
94.97921547104687
 20
-145.9039279149129
 10
94.82177460737095
 20
-145.8339924765623
 10
94.7163546855223
 20
-145.8339924765623
 10
94.68844941209179
 20
-145.8339924765623
 10
94.5644259746228
 20
-145.8339924765623
 10
94.48656681665614
 20
-145.9631835572592
 10
94.48656681665614
 20
-145.9631835572592
 10
94.332915558014
 20
-145.9442355320903
 10
94.332915558014
 20
-145.9442355320903
 10
94.332915558014
 20
-145.9442355320903
 10
94.43833547986264
 20
-145.0977755713645
 10
94.43833547986264
 20
-145.0977755713645
 10
94.43833547986264
 20
-145.0977755713645
 10
95.11977536684506
 20
-145.0977755713645
 10
95.11977536684506
 20
-145.0977755713645
 10
95.11977536684506
 20
-145.0977755713645
 10
95.11977536684506
 20
-145.2924234662811
 10
95.11977536684506
 20
-145.2924234662811
 10
95.11977536684506
 20
-145.2924234662811
 10
94.58096243295199
 20
-145.2924234662811
 10
94.58096243295199
 20
-145.2924234662811
 10
94.58096243295199
 20
-145.2924234662811
 10
94.52377384789683
 20
-145.7154811918697
 10
94.52377384789683
 20
-145.7154811918697
 10
94.57751733746673
 20
-145.6817192561143
 10
94.64951983310846
 20
-145.6414116389369
 10
94.75321720721448
 20
-145.6414116389369
 10
94.9754258660131
 20
-145.6414116389369
 10
95.18282061422514
 20
-145.8277913046889
 10
95.18282061422514
 20
-146.1409504842981
 10
95.18282061422514
 20
-146.4582437784896
 10
94.98679468111442
 20
-146.6928547810351
 10
94.72186683829871
 20
-146.6928547810351
 97
        0
 97
        0
 75
     2
 76
     1
 98
        0
  0
ENDBLK
  5
B7
330
B4
100
AcDbEntity
  8
0
100
AcDbBlockEnd
  0
BLOCK
  5
CA
330
C8
100
AcDbEntity
  8
0
100
AcDbBlockBegin
  2
block 4
 70
     0
 10
0.0
 20
0.0
 30
0.0
  3
block 4
  1

  0
SPLINE
  5
CC
330
C8
100
AcDbEntity
  8
_U+30EC_U+30A4_U+30E4_U+30FC 1
370
     0
100
AcDbSpline
210
0.0
220
0.0
230
1.0
 70
    11
 71
     3
 72
    62
 73
    58
 74
     0
 42
0.0000000001
 43
0.0000000001
 12
1.0
 22
0.0
 32
0.0
 13
1.0
 23
0.0
 33
0.0
 40
0.0
 40
0.0
 40
0.0
 40
0.0
 40
1.0
 40
1.0
 40
1.0
 40
2.0
 40
2.0
 40
2.0
 40
3.0
 40
3.0
 40
3.0
 40
4.0
 40
4.0
 40
4.0
 40
5.0
 40
5.0
 40
5.0
 40
6.0
 40
6.0
 40
6.0
 40
7.0
 40
7.0
 40
7.0
 40
8.0
 40
8.0
 40
8.0
 40
9.0
 40
9.0
 40
9.0
 40
10.0
 40
10.0
 40
10.0
 40
11.0
 40
11.0
 40
11.0
 40
12.0
 40
12.0
 40
12.0
 40
13.0
 40
13.0
 40
13.0
 40
14.0
 40
14.0
 40
14.0
 40
15.0
 40
15.0
 40
15.0
 40
16.0
 40
16.0
 40
16.0
 40
17.0
 40
17.0
 40
17.0
 40
18.0
 40
18.0
 40
18.0
 40
19.0
 40
19.0
 40
19.0
 40
19.0
 10
72.28292641422094
 20
-126.6007134015096
 30
0.0
 10
72.28292641422094
 20
-126.6840847122526
 30
0.0
 10
72.26173907698666
 20
-126.8749430021354
 30
0.0
 10
72.0755316660089
 20
-126.9841525290179
 30
0.0
 10
71.96339380796401
 20
-127.0489203241406
 30
0.0
 10
71.86400280321456
 20
-127.0527099291743
 30
0.0
 10
71.77942570905168
 20
-127.0564995342081
 30
0.0
 10
71.77942570905168
 20
-127.0564995342081
 30
0.0
 10
71.77942570905168
 20
-126.8635741870341
 30
0.0
 10
71.77942570905168
 20
-126.8635741870341
 30
0.0
 10
71.85349526198455
 20
-126.8618516392915
 30
0.0
 10
72.08827851930432
 20
-126.8525498814813
 30
0.0
 10
72.08827851930432
 20
-126.6045030065433
 30
0.0
 10
72.08827851930432
 20
-126.4842691741081
 30
0.0
 10
72.01851533572801
 20
-126.3509439788289
 30
0.0
 10
71.78993325028169
 20
-126.3509439788289
 30
0.0
 10
71.6736612776545
 20
-126.3509439788289
 30
0.0
 10
71.62491317653821
 20
-126.3840168954873
 30
0.0
 10
71.59321829807392
 20
-126.4119221689179
 30
0.0
 10
71.51914874514105
 20
-126.4766899640406
 30
0.0
 10
71.50657414661988
 20
-126.5786647904039
 30
0.0
 10
71.50657414661988
 20
-126.6265516176489
 30
0.0
 10
71.50657414661988
 20
-126.6434325855267
 30
0.0
 10
71.50864120391104
 20
-126.6747829544424
 30
0.0
 10
71.51277531849334
 20
-126.6988986228392
 30
0.0
 10
71.51277531849334
 20
-126.6988986228392
 30
0.0
 10
71.31829967835098
 20
-126.6988986228392
 30
0.0
 10
71.31829967835098
 20
-126.6988986228392
 30
0.0
 10
71.32450085022444
 20
-126.6654811966322
 30
0.0
 10
71.32674016228985
 20
-126.6286186749401
 30
0.0
 10
71.32674016228985
 20
-126.6231065221637
 30
0.0
 10
71.32674016228985
 20
-126.56557342756
 30
0.0
 10
71.30555282505556
 20
-126.3915961055549
 30
0.0
 10
71.06853025567037
 20
-126.3915961055549
 30
0.0
 10
70.89093558340574
 20
-126.3915961055549
 30
0.0
 10
70.83581405564175
 20
-126.5063177852137
 30
0.0
 10
70.83581405564175
 20
-126.6027804588007
 30
0.0
 10
70.83581405564175
 20
-126.833946365861
 30
0.0
 10
71.06853025567037
 20
-126.8415255759285
 30
0.0
 10
71.1405327513121
 20
-126.8453151809623
 30
0.0
 10
71.1405327513121
 20
-126.8453151809623
 30
0.0
 10
71.1405327513121
 20
-127.0230821080012
 30
0.0
 10
71.1405327513121
 20
-127.0230821080012
 30
0.0
 10
71.01564803997178
 20
-127.0155028979336
 30
0.0
 10
70.63909910343398
 20
-126.9913872295369
 30
0.0
 10
70.63909910343398
 20
-126.5914116436994
 30
0.0
 10
70.63909910343398
 20
-126.3953857105887
 30
0.0
 10
70.76605087206543
 20
-126.1842013573428
 30
0.0
 10
71.06215682902265
 20
-126.1842013573428
 30
0.0
 10
71.24836424000041
 20
-126.1842013573428
 30
0.0
 10
71.33087427687215
 20
-126.2675726680859
 30
0.0
 10
71.3921969765096
 20
-126.3543890743142
 30
0.0
 10
71.41975774039159
 20
-126.3006455847443
 30
0.0
 10
71.50020071997217
 20
-126.1414821733257
 30
0.0
 10
71.77735865176052
 20
-126.1414821733257
 30
0.0
 10
72.11583928318632
 20
-126.1414821733257
 30
0.0
 10
72.28292641422094
 20
-126.358178679348
 30
0.0
 10
72.28292641422094
 20
-126.6007134015096
 30
0.0
  0
HATCH
  5
CD
330
C8
100
AcDbEntity
  8
_U+30EC_U+30A4_U+30E4_U+30FC 1
 62
   179
420
  2234388
100
AcDbHatch
 10
0.0
 20
0.0
 30
0.0
210
0.0
220
0.0
230
1.0
  2
SOLID
 70
     1
 71
     0
 91
        1
 92
        1
 93
        1
 72
     4
 94
        3
 73
     0
 74
     1
 95
       62
 96
       58
 40
0.0
 40
0.0
 40
0.0
 40
0.0
 40
1.0
 40
1.0
 40
1.0
 40
2.0
 40
2.0
 40
2.0
 40
3.0
 40
3.0
 40
3.0
 40
4.0
 40
4.0
 40
4.0
 40
5.0
 40
5.0
 40
5.0
 40
6.0
 40
6.0
 40
6.0
 40
7.0
 40
7.0
 40
7.0
 40
8.0
 40
8.0
 40
8.0
 40
9.0
 40
9.0
 40
9.0
 40
10.0
 40
10.0
 40
10.0
 40
11.0
 40
11.0
 40
11.0
 40
12.0
 40
12.0
 40
12.0
 40
13.0
 40
13.0
 40
13.0
 40
14.0
 40
14.0
 40
14.0
 40
15.0
 40
15.0
 40
15.0
 40
16.0
 40
16.0
 40
16.0
 40
17.0
 40
17.0
 40
17.0
 40
18.0
 40
18.0
 40
18.0
 40
19.0
 40
19.0
 40
19.0
 40
19.0
 10
72.28292641422094
 20
-126.6007134015096
 10
72.28292641422094
 20
-126.6840847122526
 10
72.26173907698666
 20
-126.8749430021354
 10
72.0755316660089
 20
-126.9841525290179
 10
71.96339380796401
 20
-127.0489203241406
 10
71.86400280321456
 20
-127.0527099291743
 10
71.77942570905168
 20
-127.0564995342081
 10
71.77942570905168
 20
-127.0564995342081
 10
71.77942570905168
 20
-126.8635741870341
 10
71.77942570905168
 20
-126.8635741870341
 10
71.85349526198455
 20
-126.8618516392915
 10
72.08827851930432
 20
-126.8525498814813
 10
72.08827851930432
 20
-126.6045030065433
 10
72.08827851930432
 20
-126.4842691741081
 10
72.01851533572801
 20
-126.3509439788289
 10
71.78993325028169
 20
-126.3509439788289
 10
71.6736612776545
 20
-126.3509439788289
 10
71.62491317653821
 20
-126.3840168954873
 10
71.59321829807392
 20
-126.4119221689179
 10
71.51914874514105
 20
-126.4766899640406
 10
71.50657414661988
 20
-126.5786647904039
 10
71.50657414661988
 20
-126.6265516176489
 10
71.50657414661988
 20
-126.6434325855267
 10
71.50864120391104
 20
-126.6747829544424
 10
71.51277531849334
 20
-126.6988986228392
 10
71.51277531849334
 20
-126.6988986228392
 10
71.31829967835098
 20
-126.6988986228392
 10
71.31829967835098
 20
-126.6988986228392
 10
71.32450085022444
 20
-126.6654811966322
 10
71.32674016228985
 20
-126.6286186749401
 10
71.32674016228985
 20
-126.6231065221637
 10
71.32674016228985
 20
-126.56557342756
 10
71.30555282505556
 20
-126.3915961055549
 10
71.06853025567037
 20
-126.3915961055549
 10
70.89093558340574
 20
-126.3915961055549
 10
70.83581405564175
 20
-126.5063177852137
 10
70.83581405564175
 20
-126.6027804588007
 10
70.83581405564175
 20
-126.833946365861
 10
71.06853025567037
 20
-126.8415255759285
 10
71.1405327513121
 20
-126.8453151809623
 10
71.1405327513121
 20
-126.8453151809623
 10
71.1405327513121
 20
-127.0230821080012
 10
71.1405327513121
 20
-127.0230821080012
 10
71.01564803997178
 20
-127.0155028979336
 10
70.63909910343398
 20
-126.9913872295369
 10
70.63909910343398
 20
-126.5914116436994
 10
70.63909910343398
 20
-126.3953857105887
 10
70.76605087206543
 20
-126.1842013573428
 10
71.06215682902265
 20
-126.1842013573428
 10
71.24836424000041
 20
-126.1842013573428
 10
71.33087427687215
 20
-126.2675726680859
 10
71.3921969765096
 20
-126.3543890743142
 10
71.41975774039159
 20
-126.3006455847443
 10
71.50020071997217
 20
-126.1414821733257
 10
71.77735865176052
 20
-126.1414821733257
 10
72.11583928318632
 20
-126.1414821733257
 10
72.28292641422094
 20
-126.358178679348
 10
72.28292641422094
 20
-126.6007134015096
 97
        0
 97
        0
 75
     2
 76
     1
 98
        0
  0
SPLINE
  5
CE
330
C8
100
AcDbEntity
  8
_U+30EC_U+30A4_U+30E4_U+30FC 1
370
     0
100
AcDbSpline
210
0.0
220
0.0
230
1.0
 70
    11
 71
     3
 72
    53
 73
    49
 74
     0
 42
0.0000000001
 43
0.0000000001
 12
1.0
 22
0.0
 32
0.0
 13
1.0
 23
0.0
 33
0.0
 40
0.0
 40
0.0
 40
0.0
 40
0.0
 40
1.0
 40
1.0
 40
1.0
 40
2.0
 40
2.0
 40
2.0
 40
3.0
 40
3.0
 40
3.0
 40
4.0
 40
4.0
 40
4.0
 40
5.0
 40
5.0
 40
5.0
 40
6.0
 40
6.0
 40
6.0
 40
7.0
 40
7.0
 40
7.0
 40
8.0
 40
8.0
 40
8.0
 40
9.0
 40
9.0
 40
9.0
 40
10.0
 40
10.0
 40
10.0
 40
11.0
 40
11.0
 40
11.0
 40
12.0
 40
12.0
 40
12.0
 40
13.0
 40
13.0
 40
13.0
 40
14.0
 40
14.0
 40
14.0
 40
15.0
 40
15.0
 40
15.0
 40
16.0
 40
16.0
 40
16.0
 40
16.0
 10
72.28292641422094
 20
-125.579242590133
 30
0.0
 10
72.28292641422094
 20
-125.6477999902894
 30
0.0
 10
72.26604544634321
 20
-125.7366834538089
 30
0.0
 10
72.20248343464036
 20
-125.8255669173283
 30
0.0
 10
72.09241263388662
 20
-125.9774956282279
 30
0.0
 10
71.96132675067287
 20
-125.9960991438482
 30
0.0
 10
71.85349526198455
 20
-126.0126356021774
 30
0.0
 10
71.85349526198455
 20
-126.0126356021774
 30
0.0
 10
71.85349526198455
 20
-125.8183322168093
 30
0.0
 10
71.85349526198455
 20
-125.8183322168093
 30
0.0
 10
72.05227727148346
 20
-125.7701008800158
 30
0.0
 10
72.08190509265661
 20
-125.6588242958422
 30
0.0
 10
72.08190509265661
 20
-125.5775200423903
 30
0.0
 10
72.08190509265661
 20
-125.455219152664
 30
0.0
 10
71.98251408790715
 20
-125.3218939573848
 30
0.0
 10
71.74979788787853
 20
-125.3218939573848
 30
0.0
 10
71.49382729332446
 20
-125.3218939573848
 30
0.0
 10
71.42406410974816
 20
-125.4793348210607
 30
0.0
 10
71.42406410974816
 20
-125.5847547429094
 30
0.0
 10
71.42406410974816
 20
-125.6126600163399
 30
0.0
 10
71.42406410974816
 20
-125.7366834538089
 30
0.0
 10
71.55308293567076
 20
-125.8145426117755
 30
0.0
 10
71.55308293567076
 20
-125.8145426117755
 30
0.0
 10
71.53396265572762
 20
-125.9681938704177
 30
0.0
 10
71.53396265572762
 20
-125.9681938704177
 30
0.0
 10
71.53396265572762
 20
-125.9681938704177
 30
0.0
 10
70.68784720455027
 20
-125.8624294390205
 30
0.0
 10
70.68784720455027
 20
-125.8624294390205
 30
0.0
 10
70.68784720455027
 20
-125.8624294390205
 30
0.0
 10
70.68784720455027
 20
-125.1809895520381
 30
0.0
 10
70.68784720455027
 20
-125.1809895520381
 30
0.0
 10
70.68784720455027
 20
-125.1809895520381
 30
0.0
 10
70.88249509946688
 20
-125.1809895520381
 30
0.0
 10
70.88249509946688
 20
-125.1809895520381
 30
0.0
 10
70.88249509946688
 20
-125.1809895520381
 30
0.0
 10
70.88249509946688
 20
-125.7201469954797
 30
0.0
 10
70.88249509946688
 20
-125.7201469954797
 30
0.0
 10
70.88249509946688
 20
-125.7201469954797
 30
0.0
 10
71.30555282505556
 20
-125.7773355805348
 30
0.0
 10
71.30555282505556
 20
-125.7773355805348
 30
0.0
 10
71.27161863452585
 20
-125.7235920909649
 30
0.0
 10
71.23148327212269
 20
-125.6515895953232
 30
0.0
 10
71.23148327212269
 20
-125.5478922212172
 30
0.0
 10
71.23148327212269
 20
-125.3256835624186
 30
0.0
 10
71.41769068310045
 20
-125.1182888142066
 30
0.0
 10
71.73067760793539
 20
-125.1182888142066
 30
0.0
 10
72.04814315690116
 20
-125.1182888142066
 30
0.0
 10
72.28292641422094
 20
-125.3146592568658
 30
0.0
 10
72.28292641422094
 20
-125.579242590133
 30
0.0
  0
HATCH
  5
CF
330
C8
100
AcDbEntity
  8
_U+30EC_U+30A4_U+30E4_U+30FC 1
 62
   179
420
  2234388
100
AcDbHatch
 10
0.0
 20
0.0
 30
0.0
210
0.0
220
0.0
230
1.0
  2
SOLID
 70
     1
 71
     0
 91
        1
 92
        1
 93
        1
 72
     4
 94
        3
 73
     0
 74
     1
 95
       53
 96
       49
 40
0.0
 40
0.0
 40
0.0
 40
0.0
 40
1.0
 40
1.0
 40
1.0
 40
2.0
 40
2.0
 40
2.0
 40
3.0
 40
3.0
 40
3.0
 40
4.0
 40
4.0
 40
4.0
 40
5.0
 40
5.0
 40
5.0
 40
6.0
 40
6.0
 40
6.0
 40
7.0
 40
7.0
 40
7.0
 40
8.0
 40
8.0
 40
8.0
 40
9.0
 40
9.0
 40
9.0
 40
10.0
 40
10.0
 40
10.0
 40
11.0
 40
11.0
 40
11.0
 40
12.0
 40
12.0
 40
12.0
 40
13.0
 40
13.0
 40
13.0
 40
14.0
 40
14.0
 40
14.0
 40
15.0
 40
15.0
 40
15.0
 40
16.0
 40
16.0
 40
16.0
 40
16.0
 10
72.28292641422094
 20
-125.579242590133
 10
72.28292641422094
 20
-125.6477999902894
 10
72.26604544634321
 20
-125.7366834538089
 10
72.20248343464036
 20
-125.8255669173283
 10
72.09241263388662
 20
-125.9774956282279
 10
71.96132675067287
 20
-125.9960991438482
 10
71.85349526198455
 20
-126.0126356021774
 10
71.85349526198455
 20
-126.0126356021774
 10
71.85349526198455
 20
-125.8183322168093
 10
71.85349526198455
 20
-125.8183322168093
 10
72.05227727148346
 20
-125.7701008800158
 10
72.08190509265661
 20
-125.6588242958422
 10
72.08190509265661
 20
-125.5775200423903
 10
72.08190509265661
 20
-125.455219152664
 10
71.98251408790715
 20
-125.3218939573848
 10
71.74979788787853
 20
-125.3218939573848
 10
71.49382729332446
 20
-125.3218939573848
 10
71.42406410974816
 20
-125.4793348210607
 10
71.42406410974816
 20
-125.5847547429094
 10
71.42406410974816
 20
-125.6126600163399
 10
71.42406410974816
 20
-125.7366834538089
 10
71.55308293567076
 20
-125.8145426117755
 10
71.55308293567076
 20
-125.8145426117755
 10
71.53396265572762
 20
-125.9681938704177
 10
71.53396265572762
 20
-125.9681938704177
 10
71.53396265572762
 20
-125.9681938704177
 10
70.68784720455027
 20
-125.8624294390205
 10
70.68784720455027
 20
-125.8624294390205
 10
70.68784720455027
 20
-125.8624294390205
 10
70.68784720455027
 20
-125.1809895520381
 10
70.68784720455027
 20
-125.1809895520381
 10
70.68784720455027
 20
-125.1809895520381
 10
70.88249509946688
 20
-125.1809895520381
 10
70.88249509946688
 20
-125.1809895520381
 10
70.88249509946688
 20
-125.1809895520381
 10
70.88249509946688
 20
-125.7201469954797
 10
70.88249509946688
 20
-125.7201469954797
 10
70.88249509946688
 20
-125.7201469954797
 10
71.30555282505556
 20
-125.7773355805348
 10
71.30555282505556
 20
-125.7773355805348
 10
71.27161863452585
 20
-125.7235920909649
 10
71.23148327212269
 20
-125.6515895953232
 10
71.23148327212269
 20
-125.5478922212172
 10
71.23148327212269
 20
-125.3256835624186
 10
71.41769068310045
 20
-125.1182888142066
 10
71.73067760793539
 20
-125.1182888142066
 10
72.04814315690116
 20
-125.1182888142066
 10
72.28292641422094
 20
-125.3146592568658
 10
72.28292641422094
 20
-125.579242590133
 97
        0
 97
        0
 75
     2
 76
     1
 98
        0
  0
ENDBLK
  5
CB
330
C8
100
AcDbEntity
  8
0
100
AcDbBlockEnd
  0
ENDSEC
  0
SECTION
  2
ENTITIES
  0
POLYLINE
  5
41
330
1F
100
AcDbEntity
  8
_U+30EC_U+30A4_U+30E4_U+30FC 1
 62
   179
420
  2234388
370
    25
100
AcDb2dPolyline
 66
     1
 10
0.0
 20
0.0
 30
0.0
  0
VERTEX
  5
42
330
41
100
AcDbEntity
  8
_U+30EC_U+30A4_U+30E4_U+30FC 1
 62
   179
420
  2234388
370
    25
100
AcDbVertex
100
AcDb2dVertex
 10
77.94529551144984
 20
-108.3560119173553
 30
0.0
  0
VERTEX
  5
43
330
41
100
AcDbEntity
  8
_U+30EC_U+30A4_U+30E4_U+30FC 1
 62
   179
420
  2234388
370
    25
100
AcDbVertex
100
AcDb2dVertex
 10
77.94529551144984
 20
-142.3561696866333
 30
0.0
  0
SEQEND
  5
44
330
41
100
AcDbEntity
  8
_U+30EC_U+30A4_U+30E4_U+30FC 1
 62
   179
420
  2234388
370
    25
  0
POLYLINE
  5
45
330
1F
100
AcDbEntity
  8
_U+30EC_U+30A4_U+30E4_U+30FC 1
 62
   179
420
  2234388
370
    25
100
AcDb2dPolyline
 66
     1
 10
0.0
 20
0.0
 30
0.0
  0
VERTEX
  5
46
330
45
100
AcDbEntity
  8
_U+30EC_U+30A4_U+30E4_U+30FC 1
 62
   179
420
  2234388
370
    25
100
AcDbVertex
100
AcDb2dVertex
 10
77.94529551144984
 20
-142.3561696866333
 30
0.0
  0
VERTEX
  5
47
330
45
100
AcDbEntity
  8
_U+30EC_U+30A4_U+30E4_U+30FC 1
 62
   179
420
  2234388
370
    25
100
AcDbVertex
100
AcDb2dVertex
 10
111.9456288106957
 20
-142.3561696866333
 30
0.0
  0
SEQEND
  5
48
330
45
100
AcDbEntity
  8
_U+30EC_U+30A4_U+30E4_U+30FC 1
 62
   179
420
  2234388
370
    25
  0
POLYLINE
  5
49
330
1F
100
AcDbEntity
  8
_U+30EC_U+30A4_U+30E4_U+30FC 1
 62
   179
420
  2234388
370
    25
100
AcDb2dPolyline
 66
     1
 10
0.0
 20
0.0
 30
0.0
  0
VERTEX
  5
4A
330
49
100
AcDbEntity
  8
_U+30EC_U+30A4_U+30E4_U+30FC 1
 62
   179
420
  2234388
370
    25
100
AcDbVertex
100
AcDb2dVertex
 10
111.9456288106957
 20
-142.3561696866333
 30
0.0
  0
VERTEX
  5
4B
330
49
100
AcDbEntity
  8
_U+30EC_U+30A4_U+30E4_U+30FC 1
 62
   179
420
  2234388
370
    25
100
AcDbVertex
100
AcDb2dVertex
 10
111.9456288106957
 20
-142.9563152420386
 30
0.0
  0
SEQEND
  5
4C
330
49
100
AcDbEntity
  8
_U+30EC_U+30A4_U+30E4_U+30FC 1
 62
   179
420
  2234388
370
    25
  0
POLYLINE
  5
4D
330
1F
100
AcDbEntity
  8
_U+30EC_U+30A4_U+30E4_U+30FC 1
 62
   179
420
  2234388
370
    25
100
AcDb2dPolyline
 66
     1
 10
0.0
 20
0.0
 30
0.0
  0
VERTEX
  5
4E
330
4D
100
AcDbEntity
  8
_U+30EC_U+30A4_U+30E4_U+30FC 1
 62
   179
420
  2234388
370
    25
100
AcDbVertex
100
AcDb2dVertex
 10
77.34514997120527
 20
-108.3560119173553
 30
0.0
  0
VERTEX
  5
4F
330
4D
100
AcDbEntity
  8
_U+30EC_U+30A4_U+30E4_U+30FC 1
 62
   179
420
  2234388
370
    25
100
AcDbVertex
100
AcDb2dVertex
 10
77.94529551144984
 20
-108.3560119173553
 30
0.0
  0
SEQEND
  5
50
330
4D
100
AcDbEntity
  8
_U+30EC_U+30A4_U+30E4_U+30FC 1
 62
   179
420
  2234388
370
    25
  0
POLYLINE
  5
51
330
1F
100
AcDbEntity
  8
_U+30EC_U+30A4_U+30E4_U+30FC 1
  6
AI-Linetype-1
 62
   154
420
    23468
370
    25
100
AcDb2dPolyline
 66
     1
 10
0.0
 20
0.0
 30
0.0
  0
VERTEX
  5
52
330
51
100
AcDbEntity
  8
_U+30EC_U+30A4_U+30E4_U+30FC 1
  6
AI-Linetype-1
 62
   154
420
    23468
370
    25
100
AcDbVertex
100
AcDb2dVertex
 10
78.4454991097997
 20
-108.3560119173553
 30
0.0
  0
VERTEX
  5
53
330
51
100
AcDbEntity
  8
_U+30EC_U+30A4_U+30E4_U+30FC 1
  6
AI-Linetype-1
 62
   154
420
    23468
370
    25
100
AcDbVertex
100
AcDb2dVertex
 10
78.4454991097997
 20
-123.3559466358277
 30
0.0
  0
SEQEND
  5
55
330
51
100
AcDbEntity
  8
_U+30EC_U+30A4_U+30E4_U+30FC 1
  6
AI-Linetype-1
 62
   154
420
    23468
370
    25
  0
POLYLINE
  5
56
330
1F
100
AcDbEntity
  8
_U+30EC_U+30A4_U+30E4_U+30FC 1
  6
AI-Linetype-2
 62
   154
420
    23468
370
    25
100
AcDb2dPolyline
 66
     1
 10
0.0
 20
0.0
 30
0.0
  0
VERTEX
  5
57
330
56
100
AcDbEntity
  8
_U+30EC_U+30A4_U+30E4_U+30FC 1
  6
AI-Linetype-2
 62
   154
420
    23468
370
    25
100
AcDbVertex
100
AcDb2dVertex
 10
96.94498891561616
 20
-141.8559307978695
 30
0.0
  0
VERTEX
  5
58
330
56
100
AcDbEntity
  8
_U+30EC_U+30A4_U+30E4_U+30FC 1
  6
AI-Linetype-2
 62
   154
420
    23468
370
    25
100
AcDbVertex
100
AcDb2dVertex
 10
111.9456288106957
 20
-141.8559307978695
 30
0.0
  0
SEQEND
  5
5A
330
56
100
AcDbEntity
  8
_U+30EC_U+30A4_U+30E4_U+30FC 1
  6
AI-Linetype-2
 62
   154
420
    23468
370
    25
  0
POLYLINE
  5
5B
330
1F
100
AcDbEntity
  8
_U+30EC_U+30A4_U+30E4_U+30FC 1
 62
   179
420
  2234388
370
     9
100
AcDb2dPolyline
 66
     1
 10
0.0
 20
0.0
 30
0.0
  0
VERTEX
  5
5C
330
5B
100
AcDbEntity
  8
_U+30EC_U+30A4_U+30E4_U+30FC 1
 62
   179
420
  2234388
370
     9
100
AcDbVertex
100
AcDb2dVertex
 10
78.94506770816575
 20
-121.3560846918833
 30
0.0
  0
VERTEX
  5
5D
330
5B
100
AcDbEntity
  8
_U+30EC_U+30A4_U+30E4_U+30FC 1
 62
   179
420
  2234388
370
     9
100
AcDbVertex
100
AcDb2dVertex
 10
96.14090254724124
 20
-121.3560846918833
 30
0.0
  0
SEQEND
  5
5E
330
5B
100
AcDbEntity
  8
_U+30EC_U+30A4_U+30E4_U+30FC 1
 62
   179
420
  2234388
370
     9
  0
POLYLINE
  5
5F
330
1F
100
AcDbEntity
  8
_U+30EC_U+30A4_U+30E4_U+30FC 1
 62
   179
420
  2234388
370
     9
100
AcDb2dPolyline
 66
     1
 10
0.0
 20
0.0
 30
0.0
  0
VERTEX
  5
60
330
5F
100
AcDbEntity
  8
_U+30EC_U+30A4_U+30E4_U+30FC 1
 62
   179
420
  2234388
370
     9
100
AcDbVertex
100
AcDb2dVertex
 10
78.94506770816575
 20
-121.3560846918833
 30
0.0
  0
VERTEX
  5
61
330
5F
100
AcDbEntity
  8
_U+30EC_U+30A4_U+30E4_U+30FC 1
 62
   179
420
  2234388
370
     9
100
AcDbVertex
100
AcDb2dVertex
 10
79.91104379463276
 20
-121.0973574697258
 30
0.0
  0
SEQEND
  5
62
330
5F
100
AcDbEntity
  8
_U+30EC_U+30A4_U+30E4_U+30FC 1
 62
   179
420
  2234388
370
     9
  0
POLYLINE
  5
63
330
1F
100
AcDbEntity
  8
_U+30EC_U+30A4_U+30E4_U+30FC 1
 62
   179
420
  2234388
370
     9
100
AcDb2dPolyline
 66
     1
 10
0.0
 20
0.0
 30
0.0
  0
VERTEX
  5
64
330
63
100
AcDbEntity
  8
_U+30EC_U+30A4_U+30E4_U+30FC 1
 62
   179
420
  2234388
370
     9
100
AcDbVertex
100
AcDb2dVertex
 10
78.94506770816575
 20
-121.3560846918833
 30
0.0
  0
VERTEX
  5
65
330
63
100
AcDbEntity
  8
_U+30EC_U+30A4_U+30E4_U+30FC 1
 62
   179
420
  2234388
370
     9
100
AcDbVertex
100
AcDb2dVertex
 10
79.91104379463276
 20
-121.6148119140409
 30
0.0
  0
SEQEND
  5
66
330
63
100
AcDbEntity
  8
_U+30EC_U+30A4_U+30E4_U+30FC 1
 62
   179
420
  2234388
370
     9
  0
POLYLINE
  5
67
330
1F
100
AcDbEntity
  8
_U+30EC_U+30A4_U+30E4_U+30FC 1
 62
   179
420
  2234388
370
     9
100
AcDb2dPolyline
 66
     1
 10
0.0
 20
0.0
 30
0.0
  0
VERTEX
  5
68
330
67
100
AcDbEntity
  8
_U+30EC_U+30A4_U+30E4_U+30FC 1
 62
   179
420
  2234388
370
     9
100
AcDbVertex
100
AcDb2dVertex
 10
99.4454424629354
 20
-141.3557271868833
 30
0.0
  0
VERTEX
  5
69
330
67
100
AcDbEntity
  8
_U+30EC_U+30A4_U+30E4_U+30FC 1
 62
   179
420
  2234388
370
     9
100
AcDbVertex
100
AcDb2dVertex
 10
99.7038194195185
 20
-140.3897157982356
 30
0.0
  0
SEQEND
  5
6A
330
67
100
AcDbEntity
  8
_U+30EC_U+30A4_U+30E4_U+30FC 1
 62
   179
420
  2234388
370
     9
  0
POLYLINE
  5
6B
330
1F
100
AcDbEntity
  8
_U+30EC_U+30A4_U+30E4_U+30FC 1
 62
   179
420
  2234388
370
     9
100
AcDb2dPolyline
 66
     1
 10
0.0
 20
0.0
 30
0.0
  0
VERTEX
  5
6C
330
6B
100
AcDbEntity
  8
_U+30EC_U+30A4_U+30E4_U+30FC 1
 62
   179
420
  2234388
370
     9
100
AcDbVertex
100
AcDb2dVertex
 10
99.4454424629354
 20
-141.3557271868833
 30
0.0
  0
VERTEX
  5
6D
330
6B
100
AcDbEntity
  8
_U+30EC_U+30A4_U+30E4_U+30FC 1
 62
   179
420
  2234388
370
     9
100
AcDbVertex
100
AcDb2dVertex
 10
99.4454424629354
 20
-122.7351283026496
 30
0.0
  0
SEQEND
  5
6E
330
6B
100
AcDbEntity
  8
_U+30EC_U+30A4_U+30E4_U+30FC 1
 62
   179
420
  2234388
370
     9
  0
POLYLINE
  5
6F
330
1F
100
AcDbEntity
  8
_U+30EC_U+30A4_U+30E4_U+30FC 1
 62
   179
420
  2234388
370
     9
100
AcDb2dPolyline
 66
     1
 10
0.0
 20
0.0
 30
0.0
  0
VERTEX
  5
70
330
6F
100
AcDbEntity
  8
_U+30EC_U+30A4_U+30E4_U+30FC 1
 62
   179
420
  2234388
370
     9
100
AcDbVertex
100
AcDb2dVertex
 10
99.4454424629354
 20
-141.3557271868833
 30
0.0
  0
VERTEX
  5
71
330
6F
100
AcDbEntity
  8
_U+30EC_U+30A4_U+30E4_U+30FC 1
 62
   179
420
  2234388
370
     9
100
AcDbVertex
100
AcDb2dVertex
 10
99.18636246954507
 20
-140.3897157982356
 30
0.0
  0
SEQEND
  5
72
330
6F
100
AcDbEntity
  8
_U+30EC_U+30A4_U+30E4_U+30FC 1
 62
   179
420
  2234388
370
     9
  0
POLYLINE
  5
73
330
1F
100
AcDbEntity
  8
_U+30EC_U+30A4_U+30E4_U+30FC 1
 62
   179
420
  2234388
370
    25
100
AcDb2dPolyline
 66
     1
 10
0.0
 20
0.0
 30
0.0
  0
VERTEX
  5
74
330
73
100
AcDbEntity
  8
_U+30EC_U+30A4_U+30E4_U+30FC 1
 62
   179
420
  2234388
370
    25
100
AcDbVertex
100
AcDb2dVertex
 10
111.9456288106957
 20
-142.9563152420386
 30
0.0
  0
VERTEX
  5
75
330
73
100
AcDbEntity
  8
_U+30EC_U+30A4_U+30E4_U+30FC 1
 62
   179
420
  2234388
370
    25
100
AcDbVertex
100
AcDb2dVertex
 10
77.87706829096824
 20
-143.3559419086058
 30
0.0
  0
SEQEND
  5
76
330
73
100
AcDbEntity
  8
_U+30EC_U+30A4_U+30E4_U+30FC 1
 62
   179
420
  2234388
370
    25
  0
POLYLINE
  5
77
330
1F
100
AcDbEntity
  8
_U+30EC_U+30A4_U+30E4_U+30FC 1
 62
   179
420
  2234388
370
    25
100
AcDb2dPolyline
 66
     1
 10
0.0
 20
0.0
 30
0.0
  0
VERTEX
  5
78
330
77
100
AcDbEntity
  8
_U+30EC_U+30A4_U+30E4_U+30FC 1
 62
   179
420
  2234388
370
    25
100
AcDbVertex
100
AcDb2dVertex
 10
77.34514997120527
 20
-108.3560119173553
 30
0.0
  0
VERTEX
  5
79
330
77
100
AcDbEntity
  8
_U+30EC_U+30A4_U+30E4_U+30FC 1
 62
   179
420
  2234388
370
    25
100
AcDbVertex
100
AcDb2dVertex
 10
76.94552331473393
 20
-142.848823853177
 30
0.0
  0
SEQEND
  5
7A
330
77
100
AcDbEntity
  8
_U+30EC_U+30A4_U+30E4_U+30FC 1
 62
   179
420
  2234388
370
    25
  0
SPLINE
  5
7B
330
1F
100
AcDbEntity
  8
_U+30EC_U+30A4_U+30E4_U+30FC 1
 62
   179
420
  2234388
370
    25
100
AcDbSpline
210
0.0
220
0.0
230
1.0
 70
     8
 71
     3
 72
    11
 73
     7
 74
     0
 42
0.0000000001
 43
0.0000000001
 12
1.0
 22
0.0
 32
0.0
 13
1.0
 23
0.0
 33
0.0
 40
0.0
 40
0.0
 40
0.0
 40
0.0
 40
1.0
 40
1.0
 40
1.0
 40
2.0
 40
2.0
 40
2.0
 40
2.0
 10
76.94552331473393
 20
-142.848823853177
 30
0.0
 10
76.94139581483924
 20
-143.1802232975384
 30
0.0
 10
77.20735497472072
 20
-143.4523913530255
 30
0.0
 10
77.53875441071047
 20
-143.4558485752474
 30
0.0
 10
77.65866357431798
 20
-143.4572244085803
 30
0.0
 10
77.77649134908972
 20
-143.4227580196999
 30
0.0
 10
77.87706829096824
 20
-143.3559419086058
 30
0.0
  0
SPLINE
  5
7C
330
1F
100
AcDbEntity
  8
_U+30EC_U+30A4_U+30E4_U+30FC 1
 62
   179
420
  2234388
370
     9
100
AcDbSpline
210
0.0
220
0.0
230
1.0
 70
    11
 71
     3
 72
    17
 73
    13
 74
     0
 42
0.0000000001
 43
0.0000000001
 12
1.0
 22
0.0
 32
0.0
 13
1.0
 23
0.0
 33
0.0
 40
0.0
 40
0.0
 40
0.0
 40
0.0
 40
1.0
 40
1.0
 40
1.0
 40
2.0
 40
2.0
 40
2.0
 40
3.0
 40
3.0
 40
3.0
 40
4.0
 40
4.0
 40
4.0
 40
4.0
 10
73.04567091422746
 20
-108.3560119173553
 30
0.0
 10
73.04567091422746
 20
-108.3008727507026
 30
0.0
 10
73.00086813759269
 20
-108.2561052507137
 30
0.0
 10
72.94576425010962
 20
-108.2561052507137
 30
0.0
 10
72.889954807089
 20
-108.2561052507137
 30
0.0
 10
72.8458575859918
 20
-108.3008727507026
 30
0.0
 10
72.8458575859918
 20
-108.3560119173553
 30
0.0
 10
72.8458575859918
 20
-108.4111158062306
 30
0.0
 10
72.889954807089
 20
-108.4559185839973
 30
0.0
 10
72.94576425010962
 20
-108.4559185839973
 30
0.0
 10
73.00086813759269
 20
-108.4559185839973
 30
0.0
 10
73.04567091422746
 20
-108.4111158062306
 30
0.0
 10
73.04567091422746
 20
-108.3560119173553
 30
0.0
  0
SPLINE
  5
7D
330
1F
100
AcDbEntity
  8
_U+30EC_U+30A4_U+30E4_U+30FC 1
 62
   179
420
  2234388
370
     9
100
AcDbSpline
210
0.0
220
0.0
230
1.0
 70
    11
 71
     3
 72
    17
 73
    13
 74
     0
 42
0.0000000001
 43
0.0000000001
 12
1.0
 22
0.0
 32
0.0
 13
1.0
 23
0.0
 33
0.0
 40
0.0
 40
0.0
 40
0.0
 40
0.0
 40
1.0
 40
1.0
 40
1.0
 40
2.0
 40
2.0
 40
2.0
 40
3.0
 40
3.0
 40
3.0
 40
4.0
 40
4.0
 40
4.0
 40
4.0
 10
73.04567091422746
 20
-143.3559419086058
 30
0.0
 10
73.04567091422746
 20
-143.3008027419527
 30
0.0
 10
73.00086813759269
 20
-143.2560352419635
 30
0.0
 10
72.94576425010962
 20
-143.2560352419635
 30
0.0
 10
72.889954807089
 20
-143.2560352419635
 30
0.0
 10
72.8458575859918
 20
-143.3008027419527
 30
0.0
 10
72.8458575859918
 20
-143.3559419086058
 30
0.0
 10
72.8458575859918
 20
-143.4110457974807
 30
0.0
 10
72.889954807089
 20
-143.4558485752474
 30
0.0
 10
72.94576425010962
 20
-143.4558485752474
 30
0.0
 10
73.00086813759269
 20
-143.4558485752474
 30
0.0
 10
73.04567091422746
 20
-143.4110457974807
 30
0.0
 10
73.04567091422746
 20
-143.3559419086058
 30
0.0
  0
SPLINE
  5
7E
330
1F
100
AcDbEntity
  8
_U+30EC_U+30A4_U+30E4_U+30FC 1
 62
   179
420
  2234388
370
     9
100
AcDbSpline
210
0.0
220
0.0
230
1.0
 70
    11
 71
     3
 72
    17
 73
    13
 74
     0
 42
0.0000000001
 43
0.0000000001
 12
1.0
 22
0.0
 32
0.0
 13
1.0
 23
0.0
 33
0.0
 40
0.0
 40
0.0
 40
0.0
 40
0.0
 40
1.0
 40
1.0
 40
1.0
 40
2.0
 40
2.0
 40
2.0
 40
3.0
 40
3.0
 40
3.0
 40
4.0
 40
4.0
 40
4.0
 40
4.0
 10
77.04542997885177
 20
-147.355701074272
 30
0.0
 10
77.04542997885177
 20
-147.3005619076196
 30
0.0
 10
77.000627202217
 20
-147.2557944076304
 30
0.0
 10
76.94552331473393
 20
-147.2557944076304
 30
0.0
 10
76.89038609188863
 20
-147.2557944076304
 30
0.0
 10
76.8456166506161
 20
-147.3005619076196
 30
0.0
 10
76.8456166506161
 20
-147.355701074272
 30
0.0
 10
76.8456166506161
 20
-147.4115105187025
 30
0.0
 10
76.89038609188863
 20
-147.4562780186917
 30
0.0
 10
76.94552331473393
 20
-147.4562780186917
 30
0.0
 10
77.000627202217
 20
-147.4562780186917
 30
0.0
 10
77.04542997885177
 20
-147.4115105187025
 30
0.0
 10
77.04542997885177
 20
-147.355701074272
 30
0.0
  0
SPLINE
  5
7F
330
1F
100
AcDbEntity
  8
_U+30EC_U+30A4_U+30E4_U+30FC 1
 62
   179
420
  2234388
370
     9
100
AcDbSpline
210
0.0
220
0.0
230
1.0
 70
    11
 71
     3
 72
    17
 73
    13
 74
     0
 42
0.0000000001
 43
0.0000000001
 12
1.0
 22
0.0
 32
0.0
 13
1.0
 23
0.0
 33
0.0
 40
0.0
 40
0.0
 40
0.0
 40
0.0
 40
1.0
 40
1.0
 40
1.0
 40
2.0
 40
2.0
 40
2.0
 40
3.0
 40
3.0
 40
3.0
 40
4.0
 40
4.0
 40
4.0
 40
4.0
 10
112.0455354748136
 20
-147.355701074272
 30
0.0
 10
112.0455354748136
 20
-147.3005619076196
 30
0.0
 10
112.0007326981788
 20
-147.2557944076304
 30
0.0
 10
111.9456288106957
 20
-147.2557944076304
 30
0.0
 10
111.8898221942497
 20
-147.2557944076304
 30
0.0
 10
111.8450194164829
 20
-147.3005619076196
 30
0.0
 10
111.8450194164829
 20
-147.355701074272
 30
0.0
 10
111.8450194164829
 20
-147.4115105187025
 30
0.0
 10
111.8898221942497
 20
-147.4562780186917
 30
0.0
 10
111.9456288106957
 20
-147.4562780186917
 30
0.0
 10
112.0007326981788
 20
-147.4562780186917
 30
0.0
 10
112.0455354748136
 20
-147.4115105187025
 30
0.0
 10
112.0455354748136
 20
-147.355701074272
 30
0.0
  0
INSERT
  5
81
330
1F
100
AcDbEntity
  8
_U+30EC_U+30A4_U+30E4_U+30FC 1
100
AcDbBlockReference
  2
block 2
 10
0.0
 20
0.0
 30
0.0
  0
POLYLINE
  5
A8
330
1F
100
AcDbEntity
  8
_U+30EC_U+30A4_U+30E4_U+30FC 1
 62
   179
420
  2234388
370
     9
100
AcDb2dPolyline
 66
     1
 10
0.0
 20
0.0
 30
0.0
  0
VERTEX
  5
A9
330
A8
100
AcDbEntity
  8
_U+30EC_U+30A4_U+30E4_U+30FC 1
 62
   179
420
  2234388
370
     9
100
AcDbVertex
100
AcDb2dVertex
 10
76.94552331473393
 20
-147.355701074272
 30
0.0
  0
VERTEX
  5
AA
330
A8
100
AcDbEntity
  8
_U+30EC_U+30A4_U+30E4_U+30FC 1
 62
   179
420
  2234388
370
     9
100
AcDbVertex
100
AcDb2dVertex
 10
111.9456288106957
 20
-147.355701074272
 30
0.0
  0
SEQEND
  5
AB
330
A8
100
AcDbEntity
  8
_U+30EC_U+30A4_U+30E4_U+30FC 1
 62
   179
420
  2234388
370
     9
  0
POLYLINE
  5
AC
330
1F
100
AcDbEntity
  8
_U+30EC_U+30A4_U+30E4_U+30FC 1
 62
   179
420
  2234388
370
     9
100
AcDb2dPolyline
 66
     1
 10
0.0
 20
0.0
 30
0.0
  0
VERTEX
  5
AD
330
AC
100
AcDbEntity
  8
_U+30EC_U+30A4_U+30E4_U+30FC 1
 62
   179
420
  2234388
370
     9
100
AcDbVertex
100
AcDb2dVertex
 10
76.94552331473393
 20
-145.3961263525401
 30
0.0
  0
VERTEX
  5
AE
330
AC
100
AcDbEntity
  8
_U+30EC_U+30A4_U+30E4_U+30FC 1
 62
   179
420
  2234388
370
     9
100
AcDbVertex
100
AcDb2dVertex
 10
76.94552331473393
 20
-148.3561435740219
 30
0.0
  0
SEQEND
  5
AF
330
AC
100
AcDbEntity
  8
_U+30EC_U+30A4_U+30E4_U+30FC 1
 62
   179
420
  2234388
370
     9
  0
POLYLINE
  5
B0
330
1F
100
AcDbEntity
  8
_U+30EC_U+30A4_U+30E4_U+30FC 1
 62
   179
420
  2234388
370
     9
100
AcDb2dPolyline
 66
     1
 10
0.0
 20
0.0
 30
0.0
  0
VERTEX
  5
B1
330
B0
100
AcDbEntity
  8
_U+30EC_U+30A4_U+30E4_U+30FC 1
 62
   179
420
  2234388
370
     9
100
AcDbVertex
100
AcDb2dVertex
 10
111.9456288106957
 20
-145.4960330191818
 30
0.0
  0
VERTEX
  5
B2
330
B0
100
AcDbEntity
  8
_U+30EC_U+30A4_U+30E4_U+30FC 1
 62
   179
420
  2234388
370
     9
100
AcDbVertex
100
AcDb2dVertex
 10
111.9456288106957
 20
-148.3561435740219
 30
0.0
  0
SEQEND
  5
B3
330
B0
100
AcDbEntity
  8
_U+30EC_U+30A4_U+30E4_U+30FC 1
 62
   179
420
  2234388
370
     9
  0
INSERT
  5
B5
330
1F
100
AcDbEntity
  8
_U+30EC_U+30A4_U+30E4_U+30FC 1
100
AcDbBlockReference
  2
block 3
 10
0.0
 20
0.0
 30
0.0
  0
POLYLINE
  5
BC
330
1F
100
AcDbEntity
  8
_U+30EC_U+30A4_U+30E4_U+30FC 1
 62
   179
420
  2234388
370
     9
100
AcDb2dPolyline
 66
     1
 10
0.0
 20
0.0
 30
0.0
  0
VERTEX
  5
BD
330
BC
100
AcDbEntity
  8
_U+30EC_U+30A4_U+30E4_U+30FC 1
 62
   179
420
  2234388
370
     9
100
AcDbVertex
100
AcDb2dVertex
 10
72.94576425010962
 20
-143.3559419086058
 30
0.0
  0
VERTEX
  5
BE
330
BC
100
AcDbEntity
  8
_U+30EC_U+30A4_U+30E4_U+30FC 1
 62
   179
420
  2234388
370
     9
100
AcDbVertex
100
AcDb2dVertex
 10
72.94576425010962
 20
-108.3560119173553
 30
0.0
  0
SEQEND
  5
BF
330
BC
100
AcDbEntity
  8
_U+30EC_U+30A4_U+30E4_U+30FC 1
 62
   179
420
  2234388
370
     9
  0
POLYLINE
  5
C0
330
1F
100
AcDbEntity
  8
_U+30EC_U+30A4_U+30E4_U+30FC 1
 62
   179
420
  2234388
370
     9
100
AcDb2dPolyline
 66
     1
 10
0.0
 20
0.0
 30
0.0
  0
VERTEX
  5
C1
330
C0
100
AcDbEntity
  8
_U+30EC_U+30A4_U+30E4_U+30FC 1
 62
   179
420
  2234388
370
     9
100
AcDbVertex
100
AcDb2dVertex
 10
75.33735057798407
 20
-143.3559419086058
 30
0.0
  0
VERTEX
  5
C2
330
C0
100
AcDbEntity
  8
_U+30EC_U+30A4_U+30E4_U+30FC 1
 62
   179
420
  2234388
370
     9
100
AcDbVertex
100
AcDb2dVertex
 10
71.94532177563303
 20
-143.3559419086058
 30
0.0
  0
SEQEND
  5
C3
330
C0
100
AcDbEntity
  8
_U+30EC_U+30A4_U+30E4_U+30FC 1
 62
   179
420
  2234388
370
     9
  0
POLYLINE
  5
C4
330
1F
100
AcDbEntity
  8
_U+30EC_U+30A4_U+30E4_U+30FC 1
 62
   179
420
  2234388
370
     9
100
AcDb2dPolyline
 66
     1
 10
0.0
 20
0.0
 30
0.0
  0
VERTEX
  5
C5
330
C4
100
AcDbEntity
  8
_U+30EC_U+30A4_U+30E4_U+30FC 1
 62
   179
420
  2234388
370
     9
100
AcDbVertex
100
AcDb2dVertex
 10
74.80543225822109
 20
-108.3560119173553
 30
0.0
  0
VERTEX
  5
C6
330
C4
100
AcDbEntity
  8
_U+30EC_U+30A4_U+30E4_U+30FC 1
 62
   179
420
  2234388
370
     9
100
AcDbVertex
100
AcDb2dVertex
 10
71.94532177563303
 20
-108.3560119173553
 30
0.0
  0
SEQEND
  5
C7
330
C4
100
AcDbEntity
  8
_U+30EC_U+30A4_U+30E4_U+30FC 1
 62
   179
420
  2234388
370
     9
  0
INSERT
  5
C9
330
1F
100
AcDbEntity
  8
_U+30EC_U+30A4_U+30E4_U+30FC 1
100
AcDbBlockReference
  2
block 4
 10
0.0
 20
0.0
 30
0.0
  0
ENDSEC
  0
SECTION
  2
OBJECTS
  0
DICTIONARY
  5
C
330
0
100
AcDbDictionary
281
     1
  3
ACAD_GROUP
350
D
  3
ACAD_LAYOUT
350
1A
  3
ACAD_MATERIAL
350
3B
  3
ACAD_MLEADERSTYLE
350
D1
  3
ACAD_MLINESTYLE
350
17
  3
ACAD_PLOTSETTINGS
350
19
  3
ACAD_PLOTSTYLENAME
350
E
  3
ACAD_TABLESTYLE
350
D0
  3
ACAD_VISUALSTYLE
350
2A
  0
SUN
  5
3F
330
29
100
AcDbSun
 90
        1
290
     0
 63
     7
421
 16777215
 40
1.0
291
     1
 91
  2455826
 92
 54000000
292
     0
 70
     2
 71
   256
280
     1
  0
DICTIONARY
  5
D
102
{ACAD_REACTORS
330
C
102
}
330
C
100
AcDbDictionary
281
     1
  0
DICTIONARY
  5
1A
102
{ACAD_REACTORS
330
C
102
}
330
C
100
AcDbDictionary
281
     1
  3
Layout1
350
1E
  3
Layout2
350
26
  3
Model
350
22
  0
DICTIONARY
  5
3B
102
{ACAD_REACTORS
330
C
102
}
330
C
100
AcDbDictionary
281
     1
  3
ByBlock
350
3D
  3
ByLayer
350
3C
  3
Global
350
3E
  0
DICTIONARY
  5
D1
102
{ACAD_REACTORS
330
C
102
}
330
C
100
AcDbDictionary
281
     1
  0
DICTIONARY
  5
17
102
{ACAD_REACTORS
330
C
102
}
330
C
100
AcDbDictionary
281
     1
  3
Standard
350
18
  0
DICTIONARY
  5
19
102
{ACAD_REACTORS
330
C
102
}
330
C
100
AcDbDictionary
281
     1
  0
ACDBDICTIONARYWDFLT
  5
E
102
{ACAD_REACTORS
330
C
102
}
330
C
100
AcDbDictionary
281
     1
  3
Normal
350
F
100
AcDbDictionaryWithDefault
340
F
  0
DICTIONARY
  5
D0
102
{ACAD_REACTORS
330
C
102
}
330
C
100
AcDbDictionary
281
     1
  0
DICTIONARY
  5
2A
102
{ACAD_REACTORS
330
C
102
}
330
C
100
AcDbDictionary
281
     1
  3
2dWireframe
350
2F
  3
3D Hidden
350
31
  3
3dWireframe
350
30
  3
Basic
350
32
  3
Brighten
350
36
  3
ColorChange
350
3A
  3
Conceptual
350
34
  3
Dim
350
35
  3
Facepattern
350
39
  3
Flat
350
2B
  3
FlatWithEdges
350
2C
  3
Gouraud
350
2D
  3
GouraudWithEdges
350
2E
  3
Linepattern
350
38
  3
Realistic
350
33
  3
Thicken
350
37
  0
LAYOUT
  5
1E
102
{ACAD_REACTORS
330
1A
102
}
330
1A
100
AcDbPlotSettings
  1

  2
none_device
  4

  6

 40
0.0
 41
0.0
 42
0.0
 43
0.0
 44
0.0
 45
0.0
 46
0.0
 47
0.0
 48
0.0
 49
0.0
140
0.0
141
0.0
142
1.0
143
1.0
 70
   688
 72
     0
 73
     0
 74
     5
  7

 75
    16
 76
     0
 77
     2
 78
   300
147
1.0
148
0.0
149
0.0
100
AcDbLayout
  1
Layout1
 70
     1
 71
     1
 10
0.0
 20
0.0
 11
12.0
 21
9.0
 12
0.0
 22
0.0
 32
0.0
 14
1.000000000000000E+20
 24
1.000000000000000E+20
 34
1.000000000000000E+20
 15
-1.000000000000000E+20
 25
-1.000000000000000E+20
 35
-1.000000000000000E+20
146
0.0
 13
0.0
 23
0.0
 33
0.0
 16
1.0
 26
0.0
 36
0.0
 17
0.0
 27
1.0
 37
0.0
 76
     0
330
1B
  0
LAYOUT
  5
26
102
{ACAD_REACTORS
330
1A
102
}
330
1A
100
AcDbPlotSettings
  1

  2
none_device
  4

  6

 40
0.0
 41
0.0
 42
0.0
 43
0.0
 44
0.0
 45
0.0
 46
0.0
 47
0.0
 48
0.0
 49
0.0
140
0.0
141
0.0
142
1.0
143
1.0
 70
   688
 72
     0
 73
     0
 74
     5
  7

 75
    16
 76
     0
 77
     2
 78
   300
147
1.0
148
0.0
149
0.0
100
AcDbLayout
  1
Layout2
 70
     1
 71
     2
 10
0.0
 20
0.0
 11
0.0
 21
0.0
 12
0.0
 22
0.0
 32
0.0
 14
0.0
 24
0.0
 34
0.0
 15
0.0
 25
0.0
 35
0.0
146
0.0
 13
0.0
 23
0.0
 33
0.0
 16
1.0
 26
0.0
 36
0.0
 17
0.0
 27
1.0
 37
0.0
 76
     0
330
23
  0
LAYOUT
  5
22
102
{ACAD_REACTORS
330
1A
102
}
330
1A
100
AcDbPlotSettings
  1

  2
none_device
  4

  6

 40
0.0
 41
0.0
 42
0.0
 43
0.0
 44
0.0
 45
0.0
 46
0.0
 47
0.0
 48
0.0
 49
0.0
140
0.0
141
0.0
142
1.0
143
1.0
 70
  1712
 72
     0
 73
     0
 74
     0
  7

 75
     0
 76
     0
 77
     2
 78
   300
147
1.0
148
0.0
149
0.0
100
AcDbLayout
  1
Model
 70
     1
 71
     0
 10
0.0
 20
0.0
 11
12.0
 21
9.0
 12
0.0
 22
0.0
 32
0.0
 14
1.000000000000000E+20
 24
1.000000000000000E+20
 34
1.000000000000000E+20
 15
-1.000000000000000E+20
 25
-1.000000000000000E+20
 35
-1.000000000000000E+20
146
0.0
 13
0.0
 23
0.0
 33
0.0
 16
1.0
 26
0.0
 36
0.0
 17
0.0
 27
1.0
 37
0.0
 76
     0
330
1F
331
29
  0
MATERIAL
  5
3D
102
{ACAD_REACTORS
330
3B
102
}
330
3B
100
AcDbMaterial
  1
ByBlock
 72
     1
 94
      127
  0
MATERIAL
  5
3C
102
{ACAD_REACTORS
330
3B
102
}
330
3B
100
AcDbMaterial
  1
ByLayer
 72
     1
 94
      127
  0
MATERIAL
  5
3E
102
{ACAD_REACTORS
330
3B
102
}
330
3B
100
AcDbMaterial
  1
Global
 72
     1
 94
      127
  0
MLINESTYLE
  5
18
102
{ACAD_REACTORS
330
17
102
}
330
17
100
AcDbMlineStyle
  2
Standard
 70
     0
  3

 62
   256
 51
90.0
 52
90.0
 71
     2
 49
0.5
 62
   256
  6
BYLAYER
 49
-0.5
 62
   256
  6
BYLAYER
  0
ACDBPLACEHOLDER
  5
F
102
{ACAD_REACTORS
330
E
102
}
330
E
  0
VISUALSTYLE
  5
2F
102
{ACAD_REACTORS
330
2A
102
}
330
2A
100
AcDbVisualStyle
  2
2dWireframe
 70
     4
177
     2
291
     0
 71
     0
176
     1
 72
     2
176
     1
 73
     0
176
     1
 90
        0
176
     1
 40
-0.6
176
     1
 41
-30.0
176
     1
 62
     5
 63
     7
421
 16777215
176
     1
 74
     1
176
     1
 91
        4
176
     1
 64
     7
176
     1
 65
   257
176
     1
 75
     1
176
     1
175
     1
176
     1
 42
1.0
176
     1
 92
        0
176
     1
 66
   257
176
     1
 43
1.0
176
     1
 76
     1
176
     1
 77
     6
176
     1
 78
     2
176
     1
 67
     7
176
     1
 79
     5
176
     1
170
     0
176
     1
171
     0
176
     1
290
     0
176
     1
 93
        1
176
     1
 44
0.0
176
     1
173
     0
176
     1
  0
VISUALSTYLE
  5
31
102
{ACAD_REACTORS
330
2A
102
}
330
2A
100
AcDbVisualStyle
  2
3D Hidden
 70
     6
177
     2
291
     0
 71
     1
176
     1
 72
     2
176
     1
 73
     2
176
     1
 90
        0
176
     1
 40
-0.6
176
     1
 41
-30.0
176
     1
 62
     5
 63
     7
421
 16777215
176
     1
 74
     2
176
     1
 91
        2
176
     1
 64
     7
176
     1
 65
   257
176
     1
 75
     2
176
     1
175
     1
176
     1
 42
40.0
176
     1
 92
        0
176
     1
 66
   257
176
     1
 43
1.0
176
     1
 76
     1
176
     1
 77
     6
176
     1
 78
     2
176
     1
 67
     7
176
     1
 79
     3
176
     1
170
     0
176
     1
171
     0
176
     1
290
     0
176
     1
 93
        1
176
     1
 44
0.0
176
     1
173
     0
176
     1
  0
VISUALSTYLE
  5
30
102
{ACAD_REACTORS
330
2A
102
}
330
2A
100
AcDbVisualStyle
  2
3dWireframe
 70
     5
177
     2
291
     0
 71
     0
176
     1
 72
     2
176
     1
 73
     0
176
     1
 90
        0
176
     1
 40
-0.6
176
     1
 41
-30.0
176
     1
 62
     5
 63
     7
421
 16777215
176
     1
 74
     1
176
     1
 91
        4
176
     1
 64
     7
176
     1
 65
   257
176
     1
 75
     1
176
     1
175
     1
176
     1
 42
1.0
176
     1
 92
        0
176
     1
 66
   257
176
     1
 43
1.0
176
     1
 76
     1
176
     1
 77
     6
176
     1
 78
     2
176
     1
 67
     7
176
     1
 79
     5
176
     1
170
     0
176
     1
171
     0
176
     1
290
     0
176
     1
 93
        1
176
     1
 44
0.0
176
     1
173
     0
176
     1
  0
VISUALSTYLE
  5
32
102
{ACAD_REACTORS
330
2A
102
}
330
2A
100
AcDbVisualStyle
  2
Basic
 70
     7
177
     2
291
     1
 71
     1
176
     1
 72
     0
176
     1
 73
     1
176
     1
 90
        0
176
     1
 40
-0.6
176
     1
 41
-30.0
176
     1
 62
     5
 63
     7
421
 16777215
176
     1
 74
     0
176
     1
 91
        4
176
     1
 64
     7
176
     1
 65
   257
176
     1
 75
     1
176
     1
175
     1
176
     1
 42
1.0
176
     1
 92
        8
176
     1
 66
     7
176
     1
 43
1.0
176
     1
 76
     1
176
     1
 77
     6
176
     1
 78
     2
176
     1
 67
     7
176
     1
 79
     5
176
     1
170
     0
176
     1
171
     0
176
     1
290
     0
176
     1
 93
        1
176
     1
 44
0.0
176
     1
173
     0
176
     1
  0
VISUALSTYLE
  5
36
102
{ACAD_REACTORS
330
2A
102
}
330
2A
100
AcDbVisualStyle
  2
Brighten
 70
    12
177
     2
291
     1
 71
     2
176
     1
 72
     2
176
     1
 73
     0
176
     1
 90
        0
176
     1
 40
-0.6
176
     1
 41
-30.0
176
     1
 62
     5
 63
     7
421
 16777215
176
     1
 74
     1
176
     1
 91
        4
176
     1
 64
     7
176
     1
 65
   257
176
     1
 75
     1
176
     1
175
     1
176
     1
 42
1.0
176
     1
 92
        8
176
     1
 66
     7
176
     1
 43
1.0
176
     1
 76
     1
176
     1
 77
     6
176
     1
 78
     2
176
     1
 67
     7
176
     1
 79
     5
176
     1
170
     0
176
     1
171
     0
176
     1
290
     0
176
     1
 93
        1
176
     1
 44
50.0
176
     1
173
     0
176
     1
  0
VISUALSTYLE
  5
3A
102
{ACAD_REACTORS
330
2A
102
}
330
2A
100
AcDbVisualStyle
  2
ColorChange
 70
    16
177
     2
291
     1
 71
     2
176
     1
 72
     2
176
     1
 73
     3
176
     1
 90
        0
176
     1
 40
-0.6
176
     1
 41
-30.0
176
     1
 62
     5
 63
     8
421
  8421504
176
     1
 74
     1
176
     1
 91
        4
176
     1
 64
     7
176
     1
 65
   257
176
     1
 75
     1
176
     1
175
     1
176
     1
 42
1.0
176
     1
 92
        8
176
     1
 66
     8
424
  8421504
176
     1
 43
1.0
176
     1
 76
     1
176
     1
 77
     6
176
     1
 78
     2
176
     1
 67
     7
176
     1
 79
     5
176
     1
170
     0
176
     1
171
     0
176
     1
290
     0
176
     1
 93
        1
176
     1
 44
0.0
176
     1
173
     0
176
     1
  0
VISUALSTYLE
  5
34
102
{ACAD_REACTORS
330
2A
102
}
330
2A
100
AcDbVisualStyle
  2
Conceptual
 70
     9
177
     2
291
     0
 71
     3
176
     1
 72
     2
176
     1
 73
     0
176
     1
 90
        0
176
     1
 40
-0.6
176
     1
 41
-30.0
176
     1
 62
     5
 63
     7
421
 16777215
176
     1
 74
     2
176
     1
 91
        2
176
     1
 64
     7
176
     1
 65
   257
176
     1
 75
     1
176
     1
175
     1
176
     1
 42
40.0
176
     1
 92
        8
176
     1
 66
     7
176
     1
 43
1.0
176
     1
 76
     1
176
     1
 77
     6
176
     1
 78
     2
176
     1
 67
     7
176
     1
 79
     3
176
     1
170
     0
176
     1
171
     0
176
     1
290
     0
176
     1
 93
        1
176
     1
 44
0.0
176
     1
173
     0
176
     1
  0
VISUALSTYLE
  5
35
102
{ACAD_REACTORS
330
2A
102
}
330
2A
100
AcDbVisualStyle
  2
Dim
 70
    11
177
     2
291
     1
 71
     2
176
     1
 72
     2
176
     1
 73
     0
176
     1
 90
        0
176
     1
 40
-0.6
176
     1
 41
-30.0
176
     1
 62
     5
 63
     7
421
 16777215
176
     1
 74
     1
176
     1
 91
        4
176
     1
 64
     7
176
     1
 65
   257
176
     1
 75
     1
176
     1
175
     1
176
     1
 42
1.0
176
     1
 92
        8
176
     1
 66
     7
176
     1
 43
1.0
176
     1
 76
     1
176
     1
 77
     6
176
     1
 78
     2
176
     1
 67
     7
176
     1
 79
     5
176
     1
170
     0
176
     1
171
     0
176
     1
290
     0
176
     1
 93
        1
176
     1
 44
-50.0
176
     1
173
     0
176
     1
  0
VISUALSTYLE
  5
39
102
{ACAD_REACTORS
330
2A
102
}
330
2A
100
AcDbVisualStyle
  2
Facepattern
 70
    15
177
     2
291
     1
 71
     2
176
     1
 72
     2
176
     1
 73
     0
176
     1
 90
        0
176
     1
 40
-0.6
176
     1
 41
-30.0
176
     1
 62
     5
 63
     7
421
 16777215
176
     1
 74
     1
176
     1
 91
        4
176
     1
 64
     7
176
     1
 65
   257
176
     1
 75
     1
176
     1
175
     1
176
     1
 42
1.0
176
     1
 92
        8
176
     1
 66
     7
176
     1
 43
1.0
176
     1
 76
     1
176
     1
 77
     6
176
     1
 78
     2
176
     1
 67
     7
176
     1
 79
     5
176
     1
170
     0
176
     1
171
     0
176
     1
290
     0
176
     1
 93
        1
176
     1
 44
0.0
176
     1
173
     0
176
     1
  0
VISUALSTYLE
  5
2B
102
{ACAD_REACTORS
330
2A
102
}
330
2A
100
AcDbVisualStyle
  2
Flat
 70
     0
177
     2
291
     1
 71
     2
176
     1
 72
     1
176
     1
 73
     1
176
     1
 90
        2
176
     1
 40
-0.6
176
     1
 41
30.0
176
     1
 62
     5
 63
     7
421
 16777215
176
     1
 74
     0
176
     1
 91
        4
176
     1
 64
     7
176
     1
 65
   257
176
     1
 75
     1
176
     1
175
     1
176
     1
 42
1.0
176
     1
 92
        8
176
     1
 66
     7
176
     1
 43
1.0
176
     1
 76
     1
176
     1
 77
     6
176
     1
 78
     2
176
     1
 67
     7
176
     1
 79
     5
176
     1
170
     0
176
     1
171
     0
176
     1
290
     0
176
     1
 93
       13
176
     1
 44
0.0
176
     1
173
     0
176
     1
  0
VISUALSTYLE
  5
2C
102
{ACAD_REACTORS
330
2A
102
}
330
2A
100
AcDbVisualStyle
  2
FlatWithEdges
 70
     1
177
     2
291
     1
 71
     2
176
     1
 72
     1
176
     1
 73
     1
176
     1
 90
        2
176
     1
 40
-0.6
176
     1
 41
30.0
176
     1
 62
     5
 63
     7
421
 16777215
176
     1
 74
     1
176
     1
 91
        4
176
     1
 64
     7
176
     1
 65
   257
176
     1
 75
     1
176
     1
175
     1
176
     1
 42
1.0
176
     1
 92
        0
176
     1
 66
   257
176
     1
 43
1.0
176
     1
 76
     1
176
     1
 77
     6
176
     1
 78
     2
176
     1
 67
     7
176
     1
 79
     5
176
     1
170
     0
176
     1
171
     0
176
     1
290
     0
176
     1
 93
       13
176
     1
 44
0.0
176
     1
173
     0
176
     1
  0
VISUALSTYLE
  5
2D
102
{ACAD_REACTORS
330
2A
102
}
330
2A
100
AcDbVisualStyle
  2
Gouraud
 70
     2
177
     2
291
     1
 71
     2
176
     1
 72
     2
176
     1
 73
     1
176
     1
 90
        2
176
     1
 40
-0.6
176
     1
 41
30.0
176
     1
 62
     5
 63
     7
421
 16777215
176
     1
 74
     0
176
     1
 91
        4
176
     1
 64
     7
176
     1
 65
   257
176
     1
 75
     1
176
     1
175
     1
176
     1
 42
1.0
176
     1
 92
        0
176
     1
 66
     7
176
     1
 43
1.0
176
     1
 76
     1
176
     1
 77
     6
176
     1
 78
     2
176
     1
 67
     7
176
     1
 79
     5
176
     1
170
     0
176
     1
171
     0
176
     1
290
     0
176
     1
 93
       13
176
     1
 44
0.0
176
     1
173
     0
176
     1
  0
VISUALSTYLE
  5
2E
102
{ACAD_REACTORS
330
2A
102
}
330
2A
100
AcDbVisualStyle
  2
GouraudWithEdges
 70
     3
177
     2
291
     1
 71
     2
176
     1
 72
     2
176
     1
 73
     1
176
     1
 90
        2
176
     1
 40
-0.6
176
     1
 41
30.0
176
     1
 62
     5
 63
     7
421
 16777215
176
     1
 74
     1
176
     1
 91
        4
176
     1
 64
     7
176
     1
 65
   257
176
     1
 75
     1
176
     1
175
     1
176
     1
 42
1.0
176
     1
 92
        0
176
     1
 66
   257
176
     1
 43
1.0
176
     1
 76
     1
176
     1
 77
     6
176
     1
 78
     2
176
     1
 67
     7
176
     1
 79
     5
176
     1
170
     0
176
     1
171
     0
176
     1
290
     0
176
     1
 93
       13
176
     1
 44
0.0
176
     1
173
     0
176
     1
  0
VISUALSTYLE
  5
38
102
{ACAD_REACTORS
330
2A
102
}
330
2A
100
AcDbVisualStyle
  2
Linepattern
 70
    14
177
     2
291
     1
 71
     2
176
     1
 72
     2
176
     1
 73
     0
176
     1
 90
        0
176
     1
 40
-0.6
176
     1
 41
-30.0
176
     1
 62
     5
 63
     7
421
 16777215
176
     1
 74
     1
176
     1
 91
        4
176
     1
 64
     7
176
     1
 65
   257
176
     1
 75
     7
176
     1
175
     7
176
     1
 42
1.0
176
     1
 92
        8
176
     1
 66
     7
176
     1
 43
1.0
176
     1
 76
     1
176
     1
 77
     6
176
     1
 78
     2
176
     1
 67
     7
176
     1
 79
     5
176
     1
170
     0
176
     1
171
     0
176
     1
290
     0
176
     1
 93
        1
176
     1
 44
0.0
176
     1
173
     0
176
     1
  0
VISUALSTYLE
  5
33
102
{ACAD_REACTORS
330
2A
102
}
330
2A
100
AcDbVisualStyle
  2
Realistic
 70
     8
177
     2
291
     0
 71
     2
176
     1
 72
     2
176
     1
 73
     0
176
     1
 90
        0
176
     1
 40
-0.6
176
     1
 41
-30.0
176
     1
 62
     5
 63
     7
421
 16777215
176
     1
 74
     1
176
     1
 91
        0
176
     1
 64
     7
176
     1
 65
   257
176
     1
 75
     1
176
     1
175
     1
176
     1
 42
1.0
176
     1
 92
        8
176
     1
 66
     8
424
  7895160
176
     1
 43
1.0
176
     1
 76
     1
176
     1
 77
     6
176
     1
 78
     2
176
     1
 67
     7
176
     1
 79
     5
176
     1
170
     0
176
     1
171
     0
176
     1
290
     0
176
     1
 93
       13
176
     1
 44
0.0
176
     1
173
     0
176
     1
  0
VISUALSTYLE
  5
37
102
{ACAD_REACTORS
330
2A
102
}
330
2A
100
AcDbVisualStyle
  2
Thicken
 70
    13
177
     2
291
     1
 71
     2
176
     1
 72
     2
176
     1
 73
     0
176
     1
 90
        0
176
     1
 40
-0.6
176
     1
 41
-30.0
176
     1
 62
     5
 63
     7
421
 16777215
176
     1
 74
     1
176
     1
 91
        4
176
     1
 64
     7
176
     1
 65
   257
176
     1
 75
     1
176
     1
175
     1
176
     1
 42
1.0
176
     1
 92
       12
176
     1
 66
     7
176
     1
 43
1.0
176
     1
 76
     1
176
     1
 77
     6
176
     1
 78
     2
176
     1
 67
     7
176
     1
 79
     5
176
     1
170
     0
176
     1
171
     0
176
     1
290
     0
176
     1
 93
        1
176
     1
 44
0.0
176
     1
173
     0
176
     1
  0
ENDSEC
  0
EOF
