  0
SECTION
  2
HEADER
  9
$ACADVER
  1
AC1024
  9
$ACADMAINTVER
 70
     6
  9
$DWGCODEPAGE
  3
UNDEFINED
  9
$INSBASE
 10
0.0
 20
0.0
 30
0.0
  9
$EXTMIN
 10
1.000000000000000E+20
 20
1.000000000000000E+20
 30
1.000000000000000E+20
  9
$EXTMAX
 10
-1.000000000000000E+20
 20
-1.000000000000000E+20
 30
-1.000000000000000E+20
  9
$LIMMIN
 10
0.0
 20
0.0
  9
$LIMMAX
 10
12.0
 20
9.0
  9
$ORTHOMODE
 70
     0
  9
$REGENMODE
 70
     1
  9
$FILLMODE
 70
     1
  9
$QTEXTMODE
 70
     0
  9
$MIRRTEXT
 70
     1
  9
$LTSCALE
 40
1.0
  9
$ATTMODE
 70
     1
  9
$TEXTSIZE
 40
0.2
  9
$TRACEWID
 40
0.05
  9
$TEXTSTYLE
  7
Standard
  9
$CLAYER
  8
0
  9
$CELTYPE
  6
ByLayer
  9
$CECOLOR
 62
   256
  9
$CELTSCALE
 40
1.0
  9
$DISPSILH
 70
     0
  9
$DIMSCALE
 40
1.0
  9
$DIMASZ
 40
0.18
  9
$DIMEXO
 40
0.0625
  9
$DIMDLI
 40
0.38
  9
$DIMRND
 40
0.0
  9
$DIMDLE
 40
0.0
  9
$DIMEXE
 40
0.18
  9
$DIMTP
 40
0.0
  9
$DIMTM
 40
0.0
  9
$DIMTXT
 40
0.18
  9
$DIMCEN
 40
0.09
  9
$DIMTSZ
 40
0.0
  9
$DIMTOL
 70
     0
  9
$DIMLIM
 70
     0
  9
$DIMTIH
 70
     1
  9
$DIMTOH
 70
     1
  9
$DIMSE1
 70
     0
  9
$DIMSE2
 70
     0
  9
$DIMTAD
 70
     0
  9
$DIMZIN
 70
     0
  9
$DIMBLK
  1

  9
$DIMASO
 70
     1
  9
$DIMSHO
 70
     1
  9
$DIMPOST
  1

  9
$DIMAPOST
  1

  9
$DIMALT
 70
     0
  9
$DIMALTD
 70
     2
  9
$DIMALTF
 40
25.4
  9
$DIMLFAC
 40
1.0
  9
$DIMTOFL
 70
     0
  9
$DIMTVP
 40
0.0
  9
$DIMTIX
 70
     0
  9
$DIMSOXD
 70
     0
  9
$DIMSAH
 70
     0
  9
$DIMBLK1
  1

  9
$DIMBLK2
  1

  9
$DIMSTYLE
  2
Standard
  9
$DIMCLRD
 70
     0
  9
$DIMCLRE
 70
     0
  9
$DIMCLRT
 70
     0
  9
$DIMTFAC
 40
1.0
  9
$DIMGAP
 40
0.09
  9
$DIMJUST
 70
     0
  9
$DIMSD1
 70
     0
  9
$DIMSD2
 70
     0
  9
$DIMTOLJ
 70
     1
  9
$DIMTZIN
 70
     0
  9
$DIMALTZ
 70
     0
  9
$DIMALTTZ
 70
     0
  9
$DIMUPT
 70
     0
  9
$DIMDEC
 70
     4
  9
$DIMTDEC
 70
     4
  9
$DIMALTU
 70
     2
  9
$DIMALTTD
 70
     2
  9
$DIMTXSTY
  7
Standard
  9
$DIMAUNIT
 70
     0
  9
$DIMADEC
 70
     0
  9
$DIMALTRND
 40
0.0
  9
$DIMAZIN
 70
     0
  9
$DIMDSEP
 70
    46
  9
$DIMATFIT
 70
     3
  9
$DIMFRAC
 70
     0
  9
$DIMLDRBLK
  1

  9
$DIMLUNIT
 70
     2
  9
$DIMLWD
 70
    -2
  9
$DIMLWE
 70
    -2
  9
$DIMTMOVE
 70
     0
  9
$DIMFXL
 40
1.0
  9
$DIMFXLON
 70
     0
  9
$DIMJOGANG
 40
0.7853981633974483
  9
$DIMTFILL
 70
     0
  9
$DIMTFILLCLR
 70
     0
  9
$DIMARCSYM
 70
     0
  9
$DIMLTYPE
  6

  9
$DIMLTEX1
  6

  9
$DIMLTEX2
  6

  9
$DIMTXTDIRECTION
 70
     0
  9
$LUNITS
 70
     2
  9
$LUPREC
 70
     4
  9
$SKETCHINC
 40
0.1
  9
$FILLETRAD
 40
0.5
  9
$AUNITS
 70
     0
  9
$AUPREC
 70
     0
  9
$MENU
  1
.
  9
$ELEVATION
 40
0.0
  9
$PELEVATION
 40
0.0
  9
$THICKNESS
 40
0.0
  9
$LIMCHECK
 70
     0
  9
$CHAMFERA
 40
0.5
  9
$CHAMFERB
 40
0.5
  9
$CHAMFERC
 40
1.0
  9
$CHAMFERD
 40
0.0
  9
$SKPOLY
 70
     0
  9
$TDCREATE
 40
2457917.583773148
  9
$TDUCREATE
 40
2457917.208773148
  9
$TDUPDATE
 40
2457917.583773148
  9
$TDUUPDATE
 40
2457917.208773148
  9
$TDINDWG
 40
0.0000000116
  9
$TDUSRTIMER
 40
0.0000000116
  9
$USRTIMER
 70
     1
  9
$ANGBASE
 50
0.0
  9
$ANGDIR
 70
     0
  9
$PDMODE
 70
     0
  9
$PDSIZE
 40
0.0
  9
$PLINEWID
 40
0.0
  9
$SPLFRAME
 70
     0
  9
$SPLINETYPE
 70
     6
  9
$SPLINESEGS
 70
     8
  9
$HANDSEED
  5
FA
  9
$SURFTAB1
 70
     6
  9
$SURFTAB2
 70
     6
  9
$SURFTYPE
 70
     6
  9
$SURFU
 70
     6
  9
$SURFV
 70
     6
  9
$UCSBASE
  2

  9
$UCSNAME
  2

  9
$UCSORG
 10
0.0
 20
0.0
 30
0.0
  9
$UCSXDIR
 10
1.0
 20
0.0
 30
0.0
  9
$UCSYDIR
 10
0.0
 20
1.0
 30
0.0
  9
$UCSORTHOREF
  2

  9
$UCSORTHOVIEW
 70
     0
  9
$UCSORGTOP
 10
0.0
 20
0.0
 30
0.0
  9
$UCSORGBOTTOM
 10
0.0
 20
0.0
 30
0.0
  9
$UCSORGLEFT
 10
0.0
 20
0.0
 30
0.0
  9
$UCSORGRIGHT
 10
0.0
 20
0.0
 30
0.0
  9
$UCSORGFRONT
 10
0.0
 20
0.0
 30
0.0
  9
$UCSORGBACK
 10
0.0
 20
0.0
 30
0.0
  9
$PUCSBASE
  2

  9
$PUCSNAME
  2

  9
$PUCSORG
 10
0.0
 20
0.0
 30
0.0
  9
$PUCSXDIR
 10
1.0
 20
0.0
 30
0.0
  9
$PUCSYDIR
 10
0.0
 20
1.0
 30
0.0
  9
$PUCSORTHOREF
  2

  9
$PUCSORTHOVIEW
 70
     0
  9
$PUCSORGTOP
 10
0.0
 20
0.0
 30
0.0
  9
$PUCSORGBOTTOM
 10
0.0
 20
0.0
 30
0.0
  9
$PUCSORGLEFT
 10
0.0
 20
0.0
 30
0.0
  9
$PUCSORGRIGHT
 10
0.0
 20
0.0
 30
0.0
  9
$PUCSORGFRONT
 10
0.0
 20
0.0
 30
0.0
  9
$PUCSORGBACK
 10
0.0
 20
0.0
 30
0.0
  9
$USERI1
 70
     0
  9
$USERI2
 70
     0
  9
$USERI3
 70
     0
  9
$USERI4
 70
     0
  9
$USERI5
 70
     0
  9
$USERR1
 40
0.0
  9
$USERR2
 40
0.0
  9
$USERR3
 40
0.0
  9
$USERR4
 40
0.0
  9
$USERR5
 40
0.0
  9
$WORLDVIEW
 70
     1
  9
$SHADEDGE
 70
     3
  9
$SHADEDIF
 70
    70
  9
$TILEMODE
 70
     1
  9
$MAXACTVP
 70
    64
  9
$PINSBASE
 10
0.0
 20
0.0
 30
0.0
  9
$PLIMCHECK
 70
     0
  9
$PEXTMIN
 10
1.000000000000000E+20
 20
1.000000000000000E+20
 30
1.000000000000000E+20
  9
$PEXTMAX
 10
-1.000000000000000E+20
 20
-1.000000000000000E+20
 30
-1.000000000000000E+20
  9
$PLIMMIN
 10
0.0
 20
0.0
  9
$PLIMMAX
 10
12.0
 20
9.0
  9
$UNITMODE
 70
     0
  9
$VISRETAIN
 70
     1
  9
$PLINEGEN
 70
     0
  9
$PSLTSCALE
 70
     1
  9
$TREEDEPTH
 70
  3020
  9
$CMLSTYLE
  2
Standard
  9
$CMLJUST
 70
     0
  9
$CMLSCALE
 40
1.0
  9
$PROXYGRAPHICS
 70
     1
  9
$MEASUREMENT
 70
     0
  9
$CELWEIGHT
370
    -1
  9
$ENDCAPS
280
     0
  9
$JOINSTYLE
280
     0
  9
$LWDISPLAY
290
     1
  9
$INSUNITS
 70
     1
  9
$HYPERLINKBASE
  1

  9
$STYLESHEET
  1

  9
$XEDIT
290
     1
  9
$CEPSNTYPE
380
     0
  9
$PSTYLEMODE
290
     1
  9
$FINGERPRINTGUID
  2
{81F2486B-0BC7-4898-BCFF-6245667FD673}
  9
$VERSIONGUID
  2
{FAEB1C32-E019-11D5-929B-00C0DF256EC4}
  9
$EXTNAMES
290
     1
  9
$PSVPSCALE
 40
0.0
  9
$OLESTARTUP
290
     0
  9
$SORTENTS
280
   127
  9
$INDEXCTL
280
     0
  9
$HIDETEXT
280
     1
  9
$XCLIPFRAME
280
     2
  9
$HALOGAP
280
     0
  9
$OBSCOLOR
 70
   257
  9
$OBSLTYPE
280
     0
  9
$INTERSECTIONDISPLAY
280
     0
  9
$INTERSECTIONCOLOR
 70
   257
  9
$DIMASSOC
280
     2
  9
$PROJECTNAME
  1

  9
$CAMERADISPLAY
290
     0
  9
$LENSLENGTH
 40
50.0
  9
$CAMERAHEIGHT
 40
0.0
  9
$STEPSPERSEC
 40
2.0
  9
$STEPSIZE
 40
6.0
  9
$3DDWFPREC
 40
2.0
  9
$PSOLWIDTH
 40
0.25
  9
$PSOLHEIGHT
 40
4.0
  9
$LOFTANG1
 40
1.570796326794897
  9
$LOFTANG2
 40
1.570796326794897
  9
$LOFTMAG1
 40
0.0
  9
$LOFTMAG2
 40
0.0
  9
$LOFTPARAM
 70
     7
  9
$LOFTNORMALS
280
     1
  9
$LATITUDE
 40
37.795
  9
$LONGITUDE
 40
-122.394
  9
$NORTHDIRECTION
 40
0.0
  9
$TIMEZONE
 70
 -8000
  9
$LIGHTGLYPHDISPLAY
280
     1
  9
$TILEMODELIGHTSYNCH
280
     1
  9
$CMATERIAL
347
3C
  9
$SOLIDHIST
280
     1
  9
$SHOWHIST
280
     1
  9
$DWFFRAME
280
     2
  9
$DGNFRAME
280
     2
  9
$REALWORLDSCALE
290
     1
  9
$INTERFERECOLOR
 62
   256
  9
$CSHADOW
280
     0
  9
$SHADOWPLANELOCATION
 40
0.0
  0
ENDSEC
  0
SECTION
  2
CLASSES
  0
CLASS
  1
ACDBDICTIONARYWDFLT
  2
AcDbDictionaryWithDefault
  3
ObjectDBX Classes
 90
        0
 91
        4
280
     0
281
     0
  0
CLASS
  1
VISUALSTYLE
  2
AcDbVisualStyle
  3
ObjectDBX Classes
 90
     4095
 91
        4
280
     0
281
     0
  0
CLASS
  1
MATERIAL
  2
AcDbMaterial
  3
ObjectDBX Classes
 90
     1153
 91
        4
280
     0
281
     0
  0
CLASS
  1
SUN
  2
AcDbSun
  3
SCENEOE
 90
     1024
 91
        4
280
     0
281
     0
  0
ENDSEC
  0
SECTION
  2
TABLES
  0
TABLE
  2
VPORT
  5
8
330
0
100
AcDbSymbolTable
 70
     1
  0
VPORT
  5
29
330
8
100
AcDbSymbolTableRecord
100
AcDbViewportTableRecord
  2
*Active
 70
     0
 10
0.0
 20
0.0
 11
1.0
 21
1.0
 12
0.0
 22
0.0
 13
0.0
 23
0.0
 14
0.5
 24
0.5
 15
0.5
 25
0.5
 16
0.0
 26
0.0
 36
1.0
 17
91.00082462281999
 27
-128.4993055234307
 37
0.0
 40
256.9986110468615
 41
0.7081814508812795
 42
50.0
 43
0.0
 44
0.0
 50
0.0
 51
0.0
 71
     0
 72
   100
 73
     1
 74
     3
 75
     0
 76
     0
 77
     0
 78
     0
281
     0
 65
     1
110
0.0
120
0.0
130
0.0
111
1.0
121
0.0
131
0.0
112
0.0
122
1.0
132
0.0
 79
     0
146
0.0
 60
     3
 61
     5
292
     1
282
     1
141
0.0
142
0.0
 63
   250
361
3F
  0
ENDTAB
  0
TABLE
  2
LTYPE
  5
5
330
0
100
AcDbSymbolTable
 70
     3
  0
LTYPE
  5
14
330
5
100
AcDbSymbolTableRecord
100
AcDbLinetypeTableRecord
  2
ByBlock
 70
     0
  3

 72
    65
 73
     0
 40
0.0
  0
LTYPE
  5
15
330
5
100
AcDbSymbolTableRecord
100
AcDbLinetypeTableRecord
  2
ByLayer
 70
     0
  3

 72
    65
 73
     0
 40
0.0
  0
LTYPE
  5
16
330
5
100
AcDbSymbolTableRecord
100
AcDbLinetypeTableRecord
  2
Continuous
 70
     0
  3
Solid line
 72
    65
 73
     0
 40
0.0
  0
LTYPE
  5
54
330
5
100
AcDbSymbolTableRecord
100
AcDbLinetypeTableRecord
  2
AI-Linetype-1
 70
     0
  3
Adobe Illustrator Linetype No. 1
 72
    65
 73
     2
 40
1.411111110758333
 49
0.7055555553791667
 74
     0
 49
-0.7055555553791667
 74
     0
  0
LTYPE
  5
59
330
5
100
AcDbSymbolTableRecord
100
AcDbLinetypeTableRecord
  2
AI-Linetype-2
 70
     0
  3
Adobe Illustrator Linetype No. 2
 72
    65
 73
     2
 40
1.411111110758333
 49
0.7055555553791667
 74
     0
 49
-0.7055555553791667
 74
     0
  0
ENDTAB
  0
TABLE
  2
LAYER
  5
2
330
0
100
AcDbSymbolTable
 70
     2
  0
LAYER
  5
10
330
2
100
AcDbSymbolTableRecord
100
AcDbLayerTableRecord
  2
0
 70
     0
 62
     7
  6
Continuous
370
    -3
390
F
347
3E
  0
LAYER
  5
40
330
2
100
AcDbSymbolTableRecord
100
AcDbLayerTableRecord
  2
_U+30EC_U+30A4_U+30E4_U+30FC 1
 70
     0
 62
     7
  6
Continuous
370
    -3
390
F
347
3E
  0
ENDTAB
  0
TABLE
  2
STYLE
  5
3
330
0
100
AcDbSymbolTable
 70
     1
  0
STYLE
  5
11
330
3
100
AcDbSymbolTableRecord
100
AcDbTextStyleTableRecord
  2
Standard
 70
     0
 40
0.0
 41
1.0
 50
0.0
 71
     0
 42
0.2
  3
txt
  4

  0
ENDTAB
  0
TABLE
  2
VIEW
  5
6
330
0
100
AcDbSymbolTable
 70
     0
  0
ENDTAB
  0
TABLE
  2
UCS
  5
7
330
0
100
AcDbSymbolTable
 70
     0
  0
ENDTAB
  0
TABLE
  2
APPID
  5
9
330
0
100
AcDbSymbolTable
 70
     1
  0
APPID
  5
12
330
9
100
AcDbSymbolTableRecord
100
AcDbRegAppTableRecord
  2
ACAD
 70
     0
  0
ENDTAB
  0
TABLE
  2
DIMSTYLE
  5
A
330
0
100
AcDbSymbolTable
 70
     1
100
AcDbDimStyleTable
  0
DIMSTYLE
105
27
330
A
100
AcDbSymbolTableRecord
100
AcDbDimStyleTableRecord
  2
Standard
 70
     0
178
     0
340
11
  0
ENDTAB
  0
TABLE
  2
BLOCK_RECORD
  5
1
330
0
100
AcDbSymbolTable
 70
     4
  0
BLOCK_RECORD
  5
1F
330
1
100
AcDbSymbolTableRecord
100
AcDbBlockTableRecord
  2
*Model_Space
340
22
 70
     0
280
     1
281
     0
  0
BLOCK_RECORD
  5
1B
330
1
100
AcDbSymbolTableRecord
100
AcDbBlockTableRecord
  2
*Paper_Space
340
1E
 70
     0
280
     1
281
     0
  0
BLOCK_RECORD
  5
23
330
1
100
AcDbSymbolTableRecord
100
AcDbBlockTableRecord
  2
*Paper_Space0
340
26
 70
     0
280
     1
281
     0
  0
BLOCK_RECORD
  5
80
330
1
100
AcDbSymbolTableRecord
100
AcDbBlockTableRecord
  2
block 2
340
0
102
{BLKREFS
331
81
102
}
 70
     0
280
     1
281
     0
  0
BLOCK_RECORD
  5
B4
330
1
100
AcDbSymbolTableRecord
100
AcDbBlockTableRecord
  2
block 3
340
0
102
{BLKREFS
331
B5
102
}
 70
     0
280
     1
281
     0
  0
BLOCK_RECORD
  5
DC
330
1
100
AcDbSymbolTableRecord
100
AcDbBlockTableRecord
  2
block 4
340
0
102
{BLKREFS
331
DD
102
}
 70
     0
280
     1
281
     0
  0
ENDTAB
  0
ENDSEC
  0
SECTION
  2
BLOCKS
  0
BLOCK
  5
20
330
1F
100
AcDbEntity
  8
0
100
AcDbBlockBegin
  2
*Model_Space
 70
     0
 10
0.0
 20
0.0
 30
0.0
  3
*Model_Space
  1

  0
ENDBLK
  5
21
330
1F
100
AcDbEntity
  8
0
100
AcDbBlockEnd
  0
BLOCK
  5
1C
330
1B
100
AcDbEntity
 67
     1
  8
0
100
AcDbBlockBegin
  2
*Paper_Space
 70
     0
 10
0.0
 20
0.0
 30
0.0
  3
*Paper_Space
  1

  0
ENDBLK
  5
1D
330
1B
100
AcDbEntity
 67
     1
  8
0
100
AcDbBlockEnd
  0
BLOCK
  5
24
330
23
100
AcDbEntity
  8
0
100
AcDbBlockBegin
  2
*Paper_Space0
 70
     0
 10
0.0
 20
0.0
 30
0.0
  3
*Paper_Space0
  1

  0
ENDBLK
  5
25
330
23
100
AcDbEntity
  8
0
100
AcDbBlockEnd
  0
BLOCK
  5
82
330
80
100
AcDbEntity
  8
0
100
AcDbBlockBegin
  2
block 2
 70
     0
 10
0.0
 20
0.0
 30
0.0
  3
block 2
  1

  0
SPLINE
  5
84
330
80
100
AcDbEntity
  8
_U+30EC_U+30A4_U+30E4_U+30FC 1
370
     0
100
AcDbSpline
210
0.0
220
0.0
230
1.0
 70
    11
 71
     3
 72
   242
 73
   238
 74
     0
 42
0.0000000001
 43
0.0000000001
 12
1.0
 22
0.0
 32
0.0
 13
1.0
 23
0.0
 33
0.0
 40
0.0
 40
0.0
 40
0.0
 40
0.0
 40
1.0
 40
1.0
 40
1.0
 40
2.0
 40
2.0
 40
2.0
 40
3.0
 40
3.0
 40
3.0
 40
4.0
 40
4.0
 40
4.0
 40
5.0
 40
5.0
 40
5.0
 40
6.0
 40
6.0
 40
6.0
 40
7.0
 40
7.0
 40
7.0
 40
8.0
 40
8.0
 40
8.0
 40
9.0
 40
9.0
 40
9.0
 40
10.0
 40
10.0
 40
10.0
 40
11.0
 40
11.0
 40
11.0
 40
12.0
 40
12.0
 40
12.0
 40
13.0
 40
13.0
 40
13.0
 40
14.0
 40
14.0
 40
14.0
 40
15.0
 40
15.0
 40
15.0
 40
16.0
 40
16.0
 40
16.0
 40
17.0
 40
17.0
 40
17.0
 40
18.0
 40
18.0
 40
18.0
 40
19.0
 40
19.0
 40
19.0
 40
20.0
 40
20.0
 40
20.0
 40
21.0
 40
21.0
 40
21.0
 40
22.0
 40
22.0
 40
22.0
 40
23.0
 40
23.0
 40
23.0
 40
24.0
 40
24.0
 40
24.0
 40
25.0
 40
25.0
 40
25.0
 40
26.0
 40
26.0
 40
26.0
 40
27.0
 40
27.0
 40
27.0
 40
28.0
 40
28.0
 40
28.0
 40
29.0
 40
29.0
 40
29.0
 40
30.0
 40
30.0
 40
30.0
 40
31.0
 40
31.0
 40
31.0
 40
32.0
 40
32.0
 40
32.0
 40
33.0
 40
33.0
 40
33.0
 40
34.0
 40
34.0
 40
34.0
 40
35.0
 40
35.0
 40
35.0
 40
36.0
 40
36.0
 40
36.0
 40
37.0
 40
37.0
 40
37.0
 40
38.0
 40
38.0
 40
38.0
 40
39.0
 40
39.0
 40
39.0
 40
40.0
 40
40.0
 40
40.0
 40
41.0
 40
41.0
 40
41.0
 40
42.0
 40
42.0
 40
42.0
 40
43.0
 40
43.0
 40
43.0
 40
44.0
 40
44.0
 40
44.0
 40
45.0
 40
45.0
 40
45.0
 40
46.0
 40
46.0
 40
46.0
 40
47.0
 40
47.0
 40
47.0
 40
48.0
 40
48.0
 40
48.0
 40
49.0
 40
49.0
 40
49.0
 40
50.0
 40
50.0
 40
50.0
 40
51.0
 40
51.0
 40
51.0
 40
52.0
 40
52.0
 40
52.0
 40
53.0
 40
53.0
 40
53.0
 40
54.0
 40
54.0
 40
54.0
 40
55.0
 40
55.0
 40
55.0
 40
56.0
 40
56.0
 40
56.0
 40
57.0
 40
57.0
 40
57.0
 40
58.0
 40
58.0
 40
58.0
 40
59.0
 40
59.0
 40
59.0
 40
60.0
 40
60.0
 40
60.0
 40
61.0
 40
61.0
 40
61.0
 40
62.0
 40
62.0
 40
62.0
 40
63.0
 40
63.0
 40
63.0
 40
64.0
 40
64.0
 40
64.0
 40
65.0
 40
65.0
 40
65.0
 40
66.0
 40
66.0
 40
66.0
 40
67.0
 40
67.0
 40
67.0
 40
68.0
 40
68.0
 40
68.0
 40
69.0
 40
69.0
 40
69.0
 40
70.0
 40
70.0
 40
70.0
 40
71.0
 40
71.0
 40
71.0
 40
72.0
 40
72.0
 40
72.0
 40
73.0
 40
73.0
 40
73.0
 40
74.0
 40
74.0
 40
74.0
 40
75.0
 40
75.0
 40
75.0
 40
76.0
 40
76.0
 40
76.0
 40
77.0
 40
77.0
 40
77.0
 40
78.0
 40
78.0
 40
78.0
 40
79.0
 40
79.0
 40
79.0
 40
79.0
 10
98.4587619111492
 20
-120.5854044294891
 30
0.0
 10
98.4587619111492
 20
-120.5854044294891
 30
0.0
 10
98.23689776189912
 20
-120.5854044294891
 30
0.0
 10
98.23689776189912
 20
-120.5854044294891
 30
0.0
 10
98.23689776189912
 20
-120.5854044294891
 30
0.0
 10
97.994018530189
 20
-120.5854044294891
 30
0.0
 10
97.994018530189
 20
-120.5854044294891
 30
0.0
 10
97.994018530189
 20
-120.5854044294891
 30
0.0
 10
98.10529511436258
 20
-120.6277791039576
 30
0.0
 10
98.10529511436258
 20
-120.6277791039576
 30
0.0
 10
98.11459687217274
 20
-120.6320854733142
 30
0.0
 10
98.12562117772555
 20
-120.6382866451877
 30
0.0
 10
98.12562117772555
 20
-120.6510334984831
 30
0.0
 10
98.12562117772555
 20
-120.6722208357174
 30
0.0
 10
98.09771590429501
 20
-120.6785942623651
 30
0.0
 10
98.0794568982232
 20
-120.6827283769474
 30
0.0
 10
98.07015514041302
 20
-120.7059827714728
 30
0.0
 10
98.04397241472512
 20
-120.7716118404668
 30
0.0
 10
98.02743595639592
 20
-120.8160535722266
 30
0.0
 10
98.02743595639592
 20
-120.8160535722266
 30
0.0
 10
98.26445852578111
 20
-120.8160535722266
 30
0.0
 10
98.26445852578111
 20
-120.8160535722266
 30
0.0
 10
98.34404023149038
 20
-120.8160535722266
 30
0.0
 10
98.51629500575288
 20
-120.81174720287
 30
0.0
 10
98.64031844322187
 20
-120.8033067189311
 30
0.0
 10
98.64031844322187
 20
-120.8033067189311
 30
0.0
 10
98.64031844322187
 20
-120.98107364597
 30
0.0
 10
98.64031844322187
 20
-120.98107364597
 30
0.0
 10
98.56831594758015
 20
-120.9767672766135
 30
0.0
 10
98.5497124319598
 20
-120.9767672766135
 30
0.0
 10
98.39227156828387
 20
-120.9726331620312
 30
0.0
 10
98.36436629485335
 20
-121.1269734397703
 30
0.0
 10
98.32578122541855
 20
-121.2074164193509
 30
0.0
 10
98.28685164643524
 20
-121.2771796029272
 30
0.0
 10
98.39227156828387
 20
-121.3364352452735
 30
0.0
 10
98.4849446368371
 20
-121.4041313715587
 30
0.0
 10
98.57555064809917
 20
-121.4866414084304
 30
0.0
 10
98.57555064809917
 20
-121.4866414084304
 30
0.0
 10
98.47185327399315
 20
-121.653728539465
 30
0.0
 10
98.47185327399315
 20
-121.653728539465
 30
0.0
 10
98.45152721063018
 20
-121.6347805142962
 30
0.0
 10
98.44050290507738
 20
-121.6263400303573
 30
0.0
 10
98.34231768374777
 20
-121.5415906814202
 30
0.0
 10
98.29959849973066
 20
-121.5035223763082
 30
0.0
 10
98.24792206745191
 20
-121.4676933832615
 30
0.0
 10
98.17764211955281
 20
-121.4232516515018
 30
0.0
 10
97.99229598244638
 20
-121.6094590624796
 30
0.0
 10
97.81280650766486
 20
-121.632713457005
 30
0.0
 10
97.55890297040195
 20
-121.6623412781782
 30
0.0
 10
97.55890297040195
 20
-121.6623412781782
 30
0.0
 10
97.46829695913988
 20
-121.4825072938481
 30
0.0
 10
97.46829695913988
 20
-121.4825072938481
 30
0.0
 10
97.74597165525101
 20
-121.4782009244916
 30
0.0
 10
97.89962291389315
 20
-121.452879472675
 30
0.0
 10
98.03294810917232
 20
-121.3428086719212
 30
0.0
 10
97.9292507350663
 20
-121.2919935135138
 30
0.0
 10
97.85173608664819
 20
-121.2646050044061
 30
0.0
 10
97.82004120818388
 20
-121.2518581511107
 30
0.0
 10
97.80350474985468
 20
-121.2794189149926
 30
0.0
 10
97.79041338701073
 20
-121.2983669401615
 30
0.0
 10
97.76629771861398
 20
-121.3323011306912
 30
0.0
 10
97.76629771861398
 20
-121.3323011306912
 30
0.0
 10
97.5940429443515
 20
-121.2497910938195
 30
0.0
 10
97.5940429443515
 20
-121.2497910938195
 30
0.0
 10
97.66638994954174
 20
-121.1693481142389
 30
0.0
 10
97.72013343911163
 20
-121.0740912240718
 30
0.0
 10
97.77008732364776
 20
-120.9726331620312
 30
0.0
 10
97.60334470216166
 20
-120.9767672766135
 30
0.0
 10
97.58508569608985
 20
-120.9767672766135
 30
0.0
 10
97.5127386908996
 20
-120.98107364597
 30
0.0
 10
97.5127386908996
 20
-120.98107364597
 30
0.0
 10
97.5127386908996
 20
-120.8033067189311
 30
0.0
 10
97.5127386908996
 20
-120.8033067189311
 30
0.0
 10
97.63503958062597
 20
-120.8096801455788
 30
0.0
 10
97.81831866044126
 20
-120.8139865149354
 30
0.0
 10
97.84036727154685
 20
-120.8139865149354
 30
0.0
 10
97.85518118213344
 20
-120.7800523244057
 30
0.0
 10
97.90341251892693
 20
-120.6594739824219
 30
0.0
 10
97.91994897725613
 20
-120.5854044294891
 30
0.0
 10
97.90341251892693
 20
-120.5854044294891
 30
0.0
 10
97.74769420299364
 20
-120.5917778561368
 30
0.0
 10
97.5775064860223
 20
-120.6045247094322
 30
0.0
 10
97.5775064860223
 20
-120.6045247094322
 30
0.0
 10
97.5775064860223
 20
-120.7378499047114
 30
0.0
 10
97.5775064860223
 20
-120.7378499047114
 30
0.0
 10
97.5347873020052
 20
-120.763171356528
 30
0.0
 10
97.48311086972645
 20
-120.7948662349923
 30
0.0
 10
97.36632213277647
 20
-120.8604953039863
 30
0.0
 10
97.36632213277647
 20
-120.8604953039863
 30
0.0
 10
97.36632213277647
 20
-121.0063950977866
 30
0.0
 10
97.36632213277647
 20
-121.0063950977866
 30
0.0
 10
97.36632213277647
 20
-121.0063950977866
 30
0.0
 10
97.36632213277647
 20
-121.4740668099093
 30
0.0
 10
97.36632213277647
 20
-121.4740668099093
 30
0.0
 10
97.36632213277647
 20
-121.6008463237665
 30
0.0
 10
97.33497176386071
 20
-121.6601019661128
 30
0.0
 10
97.08692488892272
 20
-121.6516614821739
 30
0.0
 10
97.08692488892272
 20
-121.6516614821739
 30
0.0
 10
96.99597436811212
 20
-121.4444389887361
 30
0.0
 10
96.99597436811212
 20
-121.4444389887361
 30
0.0
 10
97.05178491497317
 20
-121.4570135872573
 30
0.0
 10
97.09415958944174
 20
-121.4613199566138
 30
0.0
 10
97.12929956339129
 20
-121.4613199566138
 30
0.0
 10
97.19613441580513
 20
-121.4613199566138
 30
0.0
 10
97.20543617361531
 20
-121.4380655620884
 30
0.0
 10
97.20543617361531
 20
-121.3724364930944
 30
0.0
 10
97.20543617361531
 20
-121.3724364930944
 30
0.0
 10
97.20543617361531
 20
-120.943005340858
 30
0.0
 10
97.20543617361531
 20
-120.943005340858
 30
0.0
 10
97.11999780558112
 20
-120.9831407032612
 30
0.0
 10
97.10518389499454
 20
-120.9895141299089
 30
0.0
 10
97.0645317682686
 20
-121.008634409852
 30
0.0
 10
97.06074216323482
 20
-121.029649492312
 30
0.0
 10
97.05729706774957
 20
-121.0592773134852
 30
0.0
 10
97.04041609987185
 20
-121.0592773134852
 30
0.0
 10
97.03318139935283
 20
-121.0592773134852
 30
0.0
 10
97.02387964154265
 20
-121.0551431989029
 30
0.0
 10
97.01836748876624
 20
-121.0318888043774
 30
0.0
 10
97.01836748876624
 20
-121.0318888043774
 30
0.0
 10
96.97185869971537
 20
-120.839307966752
 30
0.0
 10
96.97185869971537
 20
-120.839307966752
 30
0.0
 10
97.09967174221815
 20
-120.7927991777011
 30
0.0
 10
97.15720483682182
 20
-120.7695447831757
 30
0.0
 10
97.20543617361531
 20
-120.7483574459414
 30
0.0
 10
97.20543617361531
 20
-120.7483574459414
 30
0.0
 10
97.20543617361531
 20
-120.3358072615827
 30
0.0
 10
97.20543617361531
 20
-120.3358072615827
 30
0.0
 10
97.20543617361531
 20
-120.3358072615827
 30
0.0
 10
97.15892738456444
 20
-120.3358072615827
 30
0.0
 10
97.15892738456444
 20
-120.3358072615827
 30
0.0
 10
97.15892738456444
 20
-120.3358072615827
 30
0.0
 10
97.09036998440797
 20
-120.3358072615827
 30
0.0
 10
97.09036998440797
 20
-120.3358072615827
 30
0.0
 10
97.03111434206167
 20
-120.3358072615827
 30
0.0
 10
97.02387964154265
 20
-120.3358072615827
 30
0.0
 10
96.99252927262687
 20
-120.3421806882304
 30
0.0
 10
96.99252927262687
 20
-120.3421806882304
 30
0.0
 10
96.99252927262687
 20
-120.1475327933138
 30
0.0
 10
96.99252927262687
 20
-120.1475327933138
 30
0.0
 10
97.0163004314751
 20
-120.1539062199615
 30
0.0
 10
97.02387964154265
 20
-120.1539062199615
 30
0.0
 10
97.08485783163157
 20
-120.1539062199615
 30
0.0
 10
97.08485783163157
 20
-120.1539062199615
 30
0.0
 10
97.20164656858154
 20
-120.1539062199615
 30
0.0
 10
97.20164656858154
 20
-120.1539062199615
 30
0.0
 10
97.20164656858154
 20
-120.0841430363852
 30
0.0
 10
97.20164656858154
 20
-120.0016329995135
 30
0.0
 10
97.1999240208389
 20
-119.9973266301569
 30
0.0
 10
97.19234481077136
 20
-119.8174926458269
 30
0.0
 10
97.19234481077136
 20
-119.798544620658
 30
0.0
 10
97.19062226302874
 20
-119.7520358316071
 30
0.0
 10
97.19062226302874
 20
-119.7520358316071
 30
0.0
 10
97.37941349562043
 20
-119.760476315546
 30
0.0
 10
97.37941349562043
 20
-119.760476315546
 30
0.0
 10
97.3887152534306
 20
-119.760476315546
 30
0.0
 10
97.40731876905095
 20
-119.7625433728371
 30
0.0
 10
97.40731876905095
 20
-119.7794243407149
 30
0.0
 10
97.40731876905095
 20
-119.798544620658
 30
0.0
 10
97.39422740620701
 20
-119.809052161888
 30
0.0
 10
97.37183428555288
 20
-119.8281724418312
 30
0.0
 10
97.37183428555288
 20
-119.8788153454643
 30
0.0
 10
97.36632213277647
 20
-120.1073974309107
 30
0.0
 10
97.36838919006763
 20
-120.1539062199615
 30
0.0
 10
97.4810438124353
 20
-120.1539062199615
 30
0.0
 10
97.49241262753662
 20
-120.1539062199615
 30
0.0
 10
97.5775064860223
 20
-120.1454657360227
 30
0.0
 10
97.5775064860223
 20
-120.1454657360227
 30
0.0
 10
97.5775064860223
 20
-120.3401136309393
 30
0.0
 10
97.5775064860223
 20
-120.3401136309393
 30
0.0
 10
97.54408905981538
 20
-120.3378743188739
 30
0.0
 10
97.48483341746908
 20
-120.3337402042916
 30
0.0
 10
97.36632213277647
 20
-120.3358072615827
 30
0.0
 10
97.36632213277647
 20
-120.3358072615827
 30
0.0
 10
97.36632213277647
 20
-120.6742878930085
 30
0.0
 10
97.36632213277647
 20
-120.6742878930085
 30
0.0
 10
97.41455346956998
 20
-120.6510334984831
 30
0.0
 10
97.47208656417365
 20
-120.6234727346011
 30
0.0
 10
97.51446123864223
 20
-120.6002183400756
 30
0.0
 10
97.51446123864223
 20
-120.6002183400756
 30
0.0
 10
97.51446123864223
 20
-120.422623667811
 30
0.0
 10
97.51446123864223
 20
-120.422623667811
 30
0.0
 10
97.614713517263
 20
-120.4351982663322
 30
0.0
 10
97.71806638182049
 20
-120.4351982663322
 30
0.0
 10
97.82004120818388
 20
-120.4351982663322
 30
0.0
 10
97.79971514482091
 20
-120.3401136309393
 30
0.0
 10
97.77559947642416
 20
-120.2576035940675
 30
0.0
 10
97.72013343911163
 20
-120.1242783987884
 30
0.0
 10
97.68120386012832
 20
-120.1263454560795
 30
0.0
 10
97.60885685493807
 20
-120.1306518254361
 30
0.0
 10
97.57578393827967
 20
-120.1327188827272
 30
0.0
 10
97.57578393827967
 20
-120.1327188827272
 30
0.0
 10
97.57578393827967
 20
-119.9528848983972
 30
0.0
 10
97.57578393827967
 20
-119.9528848983972
 30
0.0
 10
97.6849934651621
 20
-119.9613253823361
 30
0.0
 10
97.83657766651308
 20
-119.9656317516926
 30
0.0
 10
97.90892467170333
 20
-119.9656317516926
 30
0.0
 10
97.90892467170333
 20
-119.9656317516926
 30
0.0
 10
97.98127167689357
 20
-119.9656317516926
 30
0.0
 10
97.98127167689357
 20
-119.9656317516926
 30
0.0
 10
97.98127167689357
 20
-119.8026787352403
 30
0.0
 10
97.98127167689357
 20
-119.7921711940103
 30
0.0
 10
97.97920461960243
 20
-119.7372219210206
 30
0.0
 10
97.97920461960243
 20
-119.7372219210206
 30
0.0
 10
98.17557506226167
 20
-119.7625433728371
 30
0.0
 10
98.17557506226167
 20
-119.7625433728371
 30
0.0
 10
98.17936466729545
 20
-119.7625433728371
 30
0.0
 10
98.19796818291579
 20
-119.7646104301283
 30
0.0
 10
98.19796818291579
 20
-119.781491398006
 30
0.0
 10
98.19796818291579
 20
-119.7963053085926
 30
0.0
 10
98.18866642510561
 20
-119.8049180473057
 30
0.0
 10
98.16455075670886
 20
-119.8197319578923
 30
0.0
 10
98.15903860393247
 20
-119.885188772112
 30
0.0
 10
98.15697154664132
 20
-119.9063761093463
 30
0.0
 10
98.15697154664132
 20
-119.9656317516926
 30
0.0
 10
98.15697154664132
 20
-119.9656317516926
 30
0.0
 10
98.24034285738436
 20
-119.9656317516926
 30
0.0
 10
98.24034285738436
 20
-119.9656317516926
 30
0.0
 10
98.31268986257462
 20
-119.9656317516926
 30
0.0
 10
98.46461857347413
 20
-119.9613253823361
 30
0.0
 10
98.57382810035655
 20
-119.9528848983972
 30
0.0
 10
98.57382810035655
 20
-119.9528848983972
 30
0.0
 10
98.57382810035655
 20
-120.1327188827272
 30
0.0
 10
98.57382810035655
 20
-120.1327188827272
 30
0.0
 10
98.54764537466865
 20
-120.1306518254361
 30
0.0
 10
98.44429251011115
 20
-120.1263454560795
 30
0.0
 10
98.40880802661309
 20
-120.1242783987884
 30
0.0
 10
98.39606117331766
 20
-120.1750935571958
 30
0.0
 10
98.36643335214451
 20
-120.2872314152407
 30
0.0
 10
98.30890025754084
 20
-120.4267577823933
 30
0.0
 10
98.34610728878154
 20
-120.4267577823933
 30
0.0
 10
98.58864201094312
 20
-120.4078097572244
 30
0.0
 10
98.64238550051302
 20
-120.405570445159
 30
0.0
 10
98.64238550051302
 20
-120.405570445159
 30
0.0
 10
98.64238550051302
 20
-120.5897107988456
 30
0.0
 10
98.64238550051302
 20
-120.5897107988456
 30
0.0
 10
98.61620277482513
 20
-120.5897107988456
 30
0.0
 10
98.60138886423854
 20
-120.5854044294891
 30
0.0
 10
98.4587619111492
 20
-120.5854044294891
 30
0.0
  0
SPLINE
  5
85
330
80
100
AcDbEntity
  8
_U+30EC_U+30A4_U+30E4_U+30FC 1
370
     0
100
AcDbSpline
210
0.0
220
0.0
230
1.0
 70
    11
 71
     3
 72
    20
 73
    16
 74
     0
 42
0.0000000001
 43
0.0000000001
 12
1.0
 22
0.0
 32
0.0
 13
1.0
 23
0.0
 33
0.0
 40
0.0
 40
0.0
 40
0.0
 40
0.0
 40
1.0
 40
1.0
 40
1.0
 40
2.0
 40
2.0
 40
2.0
 40
3.0
 40
3.0
 40
3.0
 40
4.0
 40
4.0
 40
4.0
 40
5.0
 40
5.0
 40
5.0
 40
5.0
 10
97.90892467170333
 20
-120.1201442842061
 30
0.0
 10
97.90892467170333
 20
-120.1201442842061
 30
0.0
 10
97.88136390782132
 20
-120.1201442842061
 30
0.0
 10
97.88136390782132
 20
-120.1201442842061
 30
0.0
 10
97.92201603454728
 20
-120.2195352889555
 30
0.0
 10
97.94957679842928
 20
-120.2998060137619
 30
0.0
 10
97.97920461960243
 20
-120.4267577823933
 30
0.0
 10
97.97920461960243
 20
-120.4267577823933
 30
0.0
 10
98.16076115167509
 20
-120.4267577823933
 30
0.0
 10
98.16076115167509
 20
-120.4267577823933
 30
0.0
 10
98.18866642510561
 20
-120.3337402042916
 30
0.0
 10
98.2089924884686
 20
-120.2491631101287
 30
0.0
 10
98.22931855183157
 20
-120.1201442842061
 30
0.0
 10
98.22931855183157
 20
-120.1201442842061
 30
0.0
 10
97.90892467170333
 20
-120.1201442842061
 30
0.0
 10
97.90892467170333
 20
-120.1201442842061
 30
0.0
  0
SPLINE
  5
86
330
80
100
AcDbEntity
  8
_U+30EC_U+30A4_U+30E4_U+30FC 1
370
     0
100
AcDbSpline
210
0.0
220
0.0
230
1.0
 70
    11
 71
     3
 72
    17
 73
    13
 74
     0
 42
0.0000000001
 43
0.0000000001
 12
1.0
 22
0.0
 32
0.0
 13
1.0
 23
0.0
 33
0.0
 40
0.0
 40
0.0
 40
0.0
 40
0.0
 40
1.0
 40
1.0
 40
1.0
 40
2.0
 40
2.0
 40
2.0
 40
3.0
 40
3.0
 40
3.0
 40
4.0
 40
4.0
 40
4.0
 40
4.0
 10
97.96439070901585
 20
-120.97056610474
 30
0.0
 10
97.94957679842928
 20
-121.0000216711389
 30
0.0
 10
97.90513506666956
 20
-121.0932115040149
 30
0.0
 10
97.89583330885938
 20
-121.1121595291838
 30
0.0
 10
98.06257593034547
 20
-121.1714151715301
 30
0.0
 10
98.08117944596582
 20
-121.1777885981778
 30
0.0
 10
98.14422469334589
 20
-121.2053493620598
 30
0.0
 10
98.19211152059087
 20
-121.1185329558315
 30
0.0
 10
98.21278209350237
 20
-121.0444634028986
 30
0.0
 10
98.2255289467978
 20
-120.97056610474
 30
0.0
 10
98.2255289467978
 20
-120.97056610474
 30
0.0
 10
97.96439070901585
 20
-120.97056610474
 30
0.0
 10
97.96439070901585
 20
-120.97056610474
 30
0.0
  0
HATCH
  5
87
330
80
100
AcDbEntity
  8
_U+30EC_U+30A4_U+30E4_U+30FC 1
 62
   179
420
  2234388
100
AcDbHatch
 10
0.0
 20
0.0
 30
0.0
210
0.0
220
0.0
230
1.0
  2
SOLID
 70
     1
 71
     0
 91
        3
 92
        1
 93
        1
 72
     4
 94
        3
 73
     0
 74
     1
 95
      242
 96
      238
 40
0.0
 40
0.0
 40
0.0
 40
0.0
 40
1.0
 40
1.0
 40
1.0
 40
2.0
 40
2.0
 40
2.0
 40
3.0
 40
3.0
 40
3.0
 40
4.0
 40
4.0
 40
4.0
 40
5.0
 40
5.0
 40
5.0
 40
6.0
 40
6.0
 40
6.0
 40
7.0
 40
7.0
 40
7.0
 40
8.0
 40
8.0
 40
8.0
 40
9.0
 40
9.0
 40
9.0
 40
10.0
 40
10.0
 40
10.0
 40
11.0
 40
11.0
 40
11.0
 40
12.0
 40
12.0
 40
12.0
 40
13.0
 40
13.0
 40
13.0
 40
14.0
 40
14.0
 40
14.0
 40
15.0
 40
15.0
 40
15.0
 40
16.0
 40
16.0
 40
16.0
 40
17.0
 40
17.0
 40
17.0
 40
18.0
 40
18.0
 40
18.0
 40
19.0
 40
19.0
 40
19.0
 40
20.0
 40
20.0
 40
20.0
 40
21.0
 40
21.0
 40
21.0
 40
22.0
 40
22.0
 40
22.0
 40
23.0
 40
23.0
 40
23.0
 40
24.0
 40
24.0
 40
24.0
 40
25.0
 40
25.0
 40
25.0
 40
26.0
 40
26.0
 40
26.0
 40
27.0
 40
27.0
 40
27.0
 40
28.0
 40
28.0
 40
28.0
 40
29.0
 40
29.0
 40
29.0
 40
30.0
 40
30.0
 40
30.0
 40
31.0
 40
31.0
 40
31.0
 40
32.0
 40
32.0
 40
32.0
 40
33.0
 40
33.0
 40
33.0
 40
34.0
 40
34.0
 40
34.0
 40
35.0
 40
35.0
 40
35.0
 40
36.0
 40
36.0
 40
36.0
 40
37.0
 40
37.0
 40
37.0
 40
38.0
 40
38.0
 40
38.0
 40
39.0
 40
39.0
 40
39.0
 40
40.0
 40
40.0
 40
40.0
 40
41.0
 40
41.0
 40
41.0
 40
42.0
 40
42.0
 40
42.0
 40
43.0
 40
43.0
 40
43.0
 40
44.0
 40
44.0
 40
44.0
 40
45.0
 40
45.0
 40
45.0
 40
46.0
 40
46.0
 40
46.0
 40
47.0
 40
47.0
 40
47.0
 40
48.0
 40
48.0
 40
48.0
 40
49.0
 40
49.0
 40
49.0
 40
50.0
 40
50.0
 40
50.0
 40
51.0
 40
51.0
 40
51.0
 40
52.0
 40
52.0
 40
52.0
 40
53.0
 40
53.0
 40
53.0
 40
54.0
 40
54.0
 40
54.0
 40
55.0
 40
55.0
 40
55.0
 40
56.0
 40
56.0
 40
56.0
 40
57.0
 40
57.0
 40
57.0
 40
58.0
 40
58.0
 40
58.0
 40
59.0
 40
59.0
 40
59.0
 40
60.0
 40
60.0
 40
60.0
 40
61.0
 40
61.0
 40
61.0
 40
62.0
 40
62.0
 40
62.0
 40
63.0
 40
63.0
 40
63.0
 40
64.0
 40
64.0
 40
64.0
 40
65.0
 40
65.0
 40
65.0
 40
66.0
 40
66.0
 40
66.0
 40
67.0
 40
67.0
 40
67.0
 40
68.0
 40
68.0
 40
68.0
 40
69.0
 40
69.0
 40
69.0
 40
70.0
 40
70.0
 40
70.0
 40
71.0
 40
71.0
 40
71.0
 40
72.0
 40
72.0
 40
72.0
 40
73.0
 40
73.0
 40
73.0
 40
74.0
 40
74.0
 40
74.0
 40
75.0
 40
75.0
 40
75.0
 40
76.0
 40
76.0
 40
76.0
 40
77.0
 40
77.0
 40
77.0
 40
78.0
 40
78.0
 40
78.0
 40
79.0
 40
79.0
 40
79.0
 40
79.0
 10
98.4587619111492
 20
-120.5854044294891
 10
98.4587619111492
 20
-120.5854044294891
 10
98.23689776189912
 20
-120.5854044294891
 10
98.23689776189912
 20
-120.5854044294891
 10
98.23689776189912
 20
-120.5854044294891
 10
97.994018530189
 20
-120.5854044294891
 10
97.994018530189
 20
-120.5854044294891
 10
97.994018530189
 20
-120.5854044294891
 10
98.10529511436258
 20
-120.6277791039576
 10
98.10529511436258
 20
-120.6277791039576
 10
98.11459687217274
 20
-120.6320854733142
 10
98.12562117772555
 20
-120.6382866451877
 10
98.12562117772555
 20
-120.6510334984831
 10
98.12562117772555
 20
-120.6722208357174
 10
98.09771590429501
 20
-120.6785942623651
 10
98.0794568982232
 20
-120.6827283769474
 10
98.07015514041302
 20
-120.7059827714728
 10
98.04397241472512
 20
-120.7716118404668
 10
98.02743595639592
 20
-120.8160535722266
 10
98.02743595639592
 20
-120.8160535722266
 10
98.26445852578111
 20
-120.8160535722266
 10
98.26445852578111
 20
-120.8160535722266
 10
98.34404023149038
 20
-120.8160535722266
 10
98.51629500575288
 20
-120.81174720287
 10
98.64031844322187
 20
-120.8033067189311
 10
98.64031844322187
 20
-120.8033067189311
 10
98.64031844322187
 20
-120.98107364597
 10
98.64031844322187
 20
-120.98107364597
 10
98.56831594758015
 20
-120.9767672766135
 10
98.5497124319598
 20
-120.9767672766135
 10
98.39227156828387
 20
-120.9726331620312
 10
98.36436629485335
 20
-121.1269734397703
 10
98.32578122541855
 20
-121.2074164193509
 10
98.28685164643524
 20
-121.2771796029272
 10
98.39227156828387
 20
-121.3364352452735
 10
98.4849446368371
 20
-121.4041313715587
 10
98.57555064809917
 20
-121.4866414084304
 10
98.57555064809917
 20
-121.4866414084304
 10
98.47185327399315
 20
-121.653728539465
 10
98.47185327399315
 20
-121.653728539465
 10
98.45152721063018
 20
-121.6347805142962
 10
98.44050290507738
 20
-121.6263400303573
 10
98.34231768374777
 20
-121.5415906814202
 10
98.29959849973066
 20
-121.5035223763082
 10
98.24792206745191
 20
-121.4676933832615
 10
98.17764211955281
 20
-121.4232516515018
 10
97.99229598244638
 20
-121.6094590624796
 10
97.81280650766486
 20
-121.632713457005
 10
97.55890297040195
 20
-121.6623412781782
 10
97.55890297040195
 20
-121.6623412781782
 10
97.46829695913988
 20
-121.4825072938481
 10
97.46829695913988
 20
-121.4825072938481
 10
97.74597165525101
 20
-121.4782009244916
 10
97.89962291389315
 20
-121.452879472675
 10
98.03294810917232
 20
-121.3428086719212
 10
97.9292507350663
 20
-121.2919935135138
 10
97.85173608664819
 20
-121.2646050044061
 10
97.82004120818388
 20
-121.2518581511107
 10
97.80350474985468
 20
-121.2794189149926
 10
97.79041338701073
 20
-121.2983669401615
 10
97.76629771861398
 20
-121.3323011306912
 10
97.76629771861398
 20
-121.3323011306912
 10
97.5940429443515
 20
-121.2497910938195
 10
97.5940429443515
 20
-121.2497910938195
 10
97.66638994954174
 20
-121.1693481142389
 10
97.72013343911163
 20
-121.0740912240718
 10
97.77008732364776
 20
-120.9726331620312
 10
97.60334470216166
 20
-120.9767672766135
 10
97.58508569608985
 20
-120.9767672766135
 10
97.5127386908996
 20
-120.98107364597
 10
97.5127386908996
 20
-120.98107364597
 10
97.5127386908996
 20
-120.8033067189311
 10
97.5127386908996
 20
-120.8033067189311
 10
97.63503958062597
 20
-120.8096801455788
 10
97.81831866044126
 20
-120.8139865149354
 10
97.84036727154685
 20
-120.8139865149354
 10
97.85518118213344
 20
-120.7800523244057
 10
97.90341251892693
 20
-120.6594739824219
 10
97.91994897725613
 20
-120.5854044294891
 10
97.90341251892693
 20
-120.5854044294891
 10
97.74769420299364
 20
-120.5917778561368
 10
97.5775064860223
 20
-120.6045247094322
 10
97.5775064860223
 20
-120.6045247094322
 10
97.5775064860223
 20
-120.7378499047114
 10
97.5775064860223
 20
-120.7378499047114
 10
97.5347873020052
 20
-120.763171356528
 10
97.48311086972645
 20
-120.7948662349923
 10
97.36632213277647
 20
-120.8604953039863
 10
97.36632213277647
 20
-120.8604953039863
 10
97.36632213277647
 20
-121.0063950977866
 10
97.36632213277647
 20
-121.0063950977866
 10
97.36632213277647
 20
-121.0063950977866
 10
97.36632213277647
 20
-121.4740668099093
 10
97.36632213277647
 20
-121.4740668099093
 10
97.36632213277647
 20
-121.6008463237665
 10
97.33497176386071
 20
-121.6601019661128
 10
97.08692488892272
 20
-121.6516614821739
 10
97.08692488892272
 20
-121.6516614821739
 10
96.99597436811212
 20
-121.4444389887361
 10
96.99597436811212
 20
-121.4444389887361
 10
97.05178491497317
 20
-121.4570135872573
 10
97.09415958944174
 20
-121.4613199566138
 10
97.12929956339129
 20
-121.4613199566138
 10
97.19613441580513
 20
-121.4613199566138
 10
97.20543617361531
 20
-121.4380655620884
 10
97.20543617361531
 20
-121.3724364930944
 10
97.20543617361531
 20
-121.3724364930944
 10
97.20543617361531
 20
-120.943005340858
 10
97.20543617361531
 20
-120.943005340858
 10
97.11999780558112
 20
-120.9831407032612
 10
97.10518389499454
 20
-120.9895141299089
 10
97.0645317682686
 20
-121.008634409852
 10
97.06074216323482
 20
-121.029649492312
 10
97.05729706774957
 20
-121.0592773134852
 10
97.04041609987185
 20
-121.0592773134852
 10
97.03318139935283
 20
-121.0592773134852
 10
97.02387964154265
 20
-121.0551431989029
 10
97.01836748876624
 20
-121.0318888043774
 10
97.01836748876624
 20
-121.0318888043774
 10
96.97185869971537
 20
-120.839307966752
 10
96.97185869971537
 20
-120.839307966752
 10
97.09967174221815
 20
-120.7927991777011
 10
97.15720483682182
 20
-120.7695447831757
 10
97.20543617361531
 20
-120.7483574459414
 10
97.20543617361531
 20
-120.7483574459414
 10
97.20543617361531
 20
-120.3358072615827
 10
97.20543617361531
 20
-120.3358072615827
 10
97.20543617361531
 20
-120.3358072615827
 10
97.15892738456444
 20
-120.3358072615827
 10
97.15892738456444
 20
-120.3358072615827
 10
97.15892738456444
 20
-120.3358072615827
 10
97.09036998440797
 20
-120.3358072615827
 10
97.09036998440797
 20
-120.3358072615827
 10
97.03111434206167
 20
-120.3358072615827
 10
97.02387964154265
 20
-120.3358072615827
 10
96.99252927262687
 20
-120.3421806882304
 10
96.99252927262687
 20
-120.3421806882304
 10
96.99252927262687
 20
-120.1475327933138
 10
96.99252927262687
 20
-120.1475327933138
 10
97.0163004314751
 20
-120.1539062199615
 10
97.02387964154265
 20
-120.1539062199615
 10
97.08485783163157
 20
-120.1539062199615
 10
97.08485783163157
 20
-120.1539062199615
 10
97.20164656858154
 20
-120.1539062199615
 10
97.20164656858154
 20
-120.1539062199615
 10
97.20164656858154
 20
-120.0841430363852
 10
97.20164656858154
 20
-120.0016329995135
 10
97.1999240208389
 20
-119.9973266301569
 10
97.19234481077136
 20
-119.8174926458269
 10
97.19234481077136
 20
-119.798544620658
 10
97.19062226302874
 20
-119.7520358316071
 10
97.19062226302874
 20
-119.7520358316071
 10
97.37941349562043
 20
-119.760476315546
 10
97.37941349562043
 20
-119.760476315546
 10
97.3887152534306
 20
-119.760476315546
 10
97.40731876905095
 20
-119.7625433728371
 10
97.40731876905095
 20
-119.7794243407149
 10
97.40731876905095
 20
-119.798544620658
 10
97.39422740620701
 20
-119.809052161888
 10
97.37183428555288
 20
-119.8281724418312
 10
97.37183428555288
 20
-119.8788153454643
 10
97.36632213277647
 20
-120.1073974309107
 10
97.36838919006763
 20
-120.1539062199615
 10
97.4810438124353
 20
-120.1539062199615
 10
97.49241262753662
 20
-120.1539062199615
 10
97.5775064860223
 20
-120.1454657360227
 10
97.5775064860223
 20
-120.1454657360227
 10
97.5775064860223
 20
-120.3401136309393
 10
97.5775064860223
 20
-120.3401136309393
 10
97.54408905981538
 20
-120.3378743188739
 10
97.48483341746908
 20
-120.3337402042916
 10
97.36632213277647
 20
-120.3358072615827
 10
97.36632213277647
 20
-120.3358072615827
 10
97.36632213277647
 20
-120.6742878930085
 10
97.36632213277647
 20
-120.6742878930085
 10
97.41455346956998
 20
-120.6510334984831
 10
97.47208656417365
 20
-120.6234727346011
 10
97.51446123864223
 20
-120.6002183400756
 10
97.51446123864223
 20
-120.6002183400756
 10
97.51446123864223
 20
-120.422623667811
 10
97.51446123864223
 20
-120.422623667811
 10
97.614713517263
 20
-120.4351982663322
 10
97.71806638182049
 20
-120.4351982663322
 10
97.82004120818388
 20
-120.4351982663322
 10
97.79971514482091
 20
-120.3401136309393
 10
97.77559947642416
 20
-120.2576035940675
 10
97.72013343911163
 20
-120.1242783987884
 10
97.68120386012832
 20
-120.1263454560795
 10
97.60885685493807
 20
-120.1306518254361
 10
97.57578393827967
 20
-120.1327188827272
 10
97.57578393827967
 20
-120.1327188827272
 10
97.57578393827967
 20
-119.9528848983972
 10
97.57578393827967
 20
-119.9528848983972
 10
97.6849934651621
 20
-119.9613253823361
 10
97.83657766651308
 20
-119.9656317516926
 10
97.90892467170333
 20
-119.9656317516926
 10
97.90892467170333
 20
-119.9656317516926
 10
97.98127167689357
 20
-119.9656317516926
 10
97.98127167689357
 20
-119.9656317516926
 10
97.98127167689357
 20
-119.8026787352403
 10
97.98127167689357
 20
-119.7921711940103
 10
97.97920461960243
 20
-119.7372219210206
 10
97.97920461960243
 20
-119.7372219210206
 10
98.17557506226167
 20
-119.7625433728371
 10
98.17557506226167
 20
-119.7625433728371
 10
98.17936466729545
 20
-119.7625433728371
 10
98.19796818291579
 20
-119.7646104301283
 10
98.19796818291579
 20
-119.781491398006
 10
98.19796818291579
 20
-119.7963053085926
 10
98.18866642510561
 20
-119.8049180473057
 10
98.16455075670886
 20
-119.8197319578923
 10
98.15903860393247
 20
-119.885188772112
 10
98.15697154664132
 20
-119.9063761093463
 10
98.15697154664132
 20
-119.9656317516926
 10
98.15697154664132
 20
-119.9656317516926
 10
98.24034285738436
 20
-119.9656317516926
 10
98.24034285738436
 20
-119.9656317516926
 10
98.31268986257462
 20
-119.9656317516926
 10
98.46461857347413
 20
-119.9613253823361
 10
98.57382810035655
 20
-119.9528848983972
 10
98.57382810035655
 20
-119.9528848983972
 10
98.57382810035655
 20
-120.1327188827272
 10
98.57382810035655
 20
-120.1327188827272
 10
98.54764537466865
 20
-120.1306518254361
 10
98.44429251011115
 20
-120.1263454560795
 10
98.40880802661309
 20
-120.1242783987884
 10
98.39606117331766
 20
-120.1750935571958
 10
98.36643335214451
 20
-120.2872314152407
 10
98.30890025754084
 20
-120.4267577823933
 10
98.34610728878154
 20
-120.4267577823933
 10
98.58864201094312
 20
-120.4078097572244
 10
98.64238550051302
 20
-120.405570445159
 10
98.64238550051302
 20
-120.405570445159
 10
98.64238550051302
 20
-120.5897107988456
 10
98.64238550051302
 20
-120.5897107988456
 10
98.61620277482513
 20
-120.5897107988456
 10
98.60138886423854
 20
-120.5854044294891
 10
98.4587619111492
 20
-120.5854044294891
 97
        0
 97
        0
 92
        1
 93
        1
 72
     4
 94
        3
 73
     0
 74
     1
 95
       20
 96
       16
 40
0.0
 40
0.0
 40
0.0
 40
0.0
 40
1.0
 40
1.0
 40
1.0
 40
2.0
 40
2.0
 40
2.0
 40
3.0
 40
3.0
 40
3.0
 40
4.0
 40
4.0
 40
4.0
 40
5.0
 40
5.0
 40
5.0
 40
5.0
 10
97.90892467170333
 20
-120.1201442842061
 10
97.90892467170333
 20
-120.1201442842061
 10
97.88136390782132
 20
-120.1201442842061
 10
97.88136390782132
 20
-120.1201442842061
 10
97.92201603454728
 20
-120.2195352889555
 10
97.94957679842928
 20
-120.2998060137619
 10
97.97920461960243
 20
-120.4267577823933
 10
97.97920461960243
 20
-120.4267577823933
 10
98.16076115167509
 20
-120.4267577823933
 10
98.16076115167509
 20
-120.4267577823933
 10
98.18866642510561
 20
-120.3337402042916
 10
98.2089924884686
 20
-120.2491631101287
 10
98.22931855183157
 20
-120.1201442842061
 10
98.22931855183157
 20
-120.1201442842061
 10
97.90892467170333
 20
-120.1201442842061
 10
97.90892467170333
 20
-120.1201442842061
 97
        0
 97
        0
 92
        1
 93
        1
 72
     4
 94
        3
 73
     0
 74
     1
 95
       17
 96
       13
 40
0.0
 40
0.0
 40
0.0
 40
0.0
 40
1.0
 40
1.0
 40
1.0
 40
2.0
 40
2.0
 40
2.0
 40
3.0
 40
3.0
 40
3.0
 40
4.0
 40
4.0
 40
4.0
 40
4.0
 10
97.96439070901585
 20
-120.97056610474
 10
97.94957679842928
 20
-121.0000216711389
 10
97.90513506666956
 20
-121.0932115040149
 10
97.89583330885938
 20
-121.1121595291838
 10
98.06257593034547
 20
-121.1714151715301
 10
98.08117944596582
 20
-121.1777885981778
 10
98.14422469334589
 20
-121.2053493620598
 10
98.19211152059087
 20
-121.1185329558315
 10
98.21278209350237
 20
-121.0444634028986
 10
98.2255289467978
 20
-120.97056610474
 10
98.2255289467978
 20
-120.97056610474
 10
97.96439070901585
 20
-120.97056610474
 10
97.96439070901585
 20
-120.97056610474
 97
        0
 97
        0
 75
     2
 76
     1
 98
        0
  0
SPLINE
  5
88
330
80
100
AcDbEntity
  8
_U+30EC_U+30A4_U+30E4_U+30FC 1
370
     0
100
AcDbSpline
210
0.0
220
0.0
230
1.0
 70
    11
 71
     3
 72
   203
 73
   199
 74
     0
 42
0.0000000001
 43
0.0000000001
 12
1.0
 22
0.0
 32
0.0
 13
1.0
 23
0.0
 33
0.0
 40
0.0
 40
0.0
 40
0.0
 40
0.0
 40
1.0
 40
1.0
 40
1.0
 40
2.0
 40
2.0
 40
2.0
 40
3.0
 40
3.0
 40
3.0
 40
4.0
 40
4.0
 40
4.0
 40
5.0
 40
5.0
 40
5.0
 40
6.0
 40
6.0
 40
6.0
 40
7.0
 40
7.0
 40
7.0
 40
8.0
 40
8.0
 40
8.0
 40
9.0
 40
9.0
 40
9.0
 40
10.0
 40
10.0
 40
10.0
 40
11.0
 40
11.0
 40
11.0
 40
12.0
 40
12.0
 40
12.0
 40
13.0
 40
13.0
 40
13.0
 40
14.0
 40
14.0
 40
14.0
 40
15.0
 40
15.0
 40
15.0
 40
16.0
 40
16.0
 40
16.0
 40
17.0
 40
17.0
 40
17.0
 40
18.0
 40
18.0
 40
18.0
 40
19.0
 40
19.0
 40
19.0
 40
20.0
 40
20.0
 40
20.0
 40
21.0
 40
21.0
 40
21.0
 40
22.0
 40
22.0
 40
22.0
 40
23.0
 40
23.0
 40
23.0
 40
24.0
 40
24.0
 40
24.0
 40
25.0
 40
25.0
 40
25.0
 40
26.0
 40
26.0
 40
26.0
 40
27.0
 40
27.0
 40
27.0
 40
28.0
 40
28.0
 40
28.0
 40
29.0
 40
29.0
 40
29.0
 40
30.0
 40
30.0
 40
30.0
 40
31.0
 40
31.0
 40
31.0
 40
32.0
 40
32.0
 40
32.0
 40
33.0
 40
33.0
 40
33.0
 40
34.0
 40
34.0
 40
34.0
 40
35.0
 40
35.0
 40
35.0
 40
36.0
 40
36.0
 40
36.0
 40
37.0
 40
37.0
 40
37.0
 40
38.0
 40
38.0
 40
38.0
 40
39.0
 40
39.0
 40
39.0
 40
40.0
 40
40.0
 40
40.0
 40
41.0
 40
41.0
 40
41.0
 40
42.0
 40
42.0
 40
42.0
 40
43.0
 40
43.0
 40
43.0
 40
44.0
 40
44.0
 40
44.0
 40
45.0
 40
45.0
 40
45.0
 40
46.0
 40
46.0
 40
46.0
 40
47.0
 40
47.0
 40
47.0
 40
48.0
 40
48.0
 40
48.0
 40
49.0
 40
49.0
 40
49.0
 40
50.0
 40
50.0
 40
50.0
 40
51.0
 40
51.0
 40
51.0
 40
52.0
 40
52.0
 40
52.0
 40
53.0
 40
53.0
 40
53.0
 40
54.0
 40
54.0
 40
54.0
 40
55.0
 40
55.0
 40
55.0
 40
56.0
 40
56.0
 40
56.0
 40
57.0
 40
57.0
 40
57.0
 40
58.0
 40
58.0
 40
58.0
 40
59.0
 40
59.0
 40
59.0
 40
60.0
 40
60.0
 40
60.0
 40
61.0
 40
61.0
 40
61.0
 40
62.0
 40
62.0
 40
62.0
 40
63.0
 40
63.0
 40
63.0
 40
64.0
 40
64.0
 40
64.0
 40
65.0
 40
65.0
 40
65.0
 40
66.0
 40
66.0
 40
66.0
 40
66.0
 10
99.94084198890368
 20
-120.6531005557742
 30
0.0
 10
99.94084198890368
 20
-120.6531005557742
 30
0.0
 10
99.45198293954672
 20
-120.6531005557742
 30
0.0
 10
99.45198293954672
 20
-120.6531005557742
 30
0.0
 10
99.44268118173656
 20
-120.6975422875339
 30
0.0
 10
99.43544648121753
 20
-120.7292371659983
 30
0.0
 10
99.4240776661162
 20
-120.7674777258845
 30
0.0
 10
99.44647078677033
 20
-120.7674777258845
 30
0.0
 10
99.45956214961429
 20
-120.7695447831757
 30
0.0
 10
99.46507430239068
 20
-120.7695447831757
 30
0.0
 10
99.46507430239068
 20
-120.7695447831757
 30
0.0
 10
99.62974986658563
 20
-120.7695447831757
 30
0.0
 10
99.62974986658563
 20
-120.7695447831757
 30
0.0
 10
99.62974986658563
 20
-120.7695447831757
 30
0.0
 10
99.95737844723288
 20
-120.7695447831757
 30
0.0
 10
99.95737844723288
 20
-120.7695447831757
 30
0.0
 10
100.0021646885411
 20
-120.7695447831757
 30
0.0
 10
100.2502115634791
 20
-120.7567979298802
 30
0.0
 10
100.2777723273611
 20
-120.7567979298802
 30
0.0
 10
100.2760497796185
 20
-120.7843586937622
 30
0.0
 10
100.2743272318759
 20
-120.8033067189311
 30
0.0
 10
100.2743272318759
 20
-120.8329345401043
 30
0.0
 10
100.2722601745847
 20
-120.8646294185686
 30
0.0
 10
100.2722601745847
 20
-121.0000216711389
 30
0.0
 10
100.2722601745847
 20
-121.0275824350209
 30
0.0
 10
100.2722601745847
 20
-121.0275824350209
 30
0.0
 10
100.2722601745847
 20
-121.2730454883449
 30
0.0
 10
100.2722601745847
 20
-121.2730454883449
 30
0.0
 10
100.2722601745847
 20
-121.3174872201047
 30
0.0
 10
100.2760497796185
 20
-121.5142021723124
 30
0.0
 10
100.2798393846523
 20
-121.6664753927605
 30
0.0
 10
100.2798393846523
 20
-121.6664753927605
 30
0.0
 10
100.0817463942504
 20
-121.6664753927605
 30
0.0
 10
100.0817463942504
 20
-121.6664753927605
 30
0.0
 10
100.0817463942504
 20
-121.6664753927605
 30
0.0
 10
100.083468941993
 20
-121.632713457005
 30
0.0
 10
100.083468941993
 20
-121.632713457005
 30
0.0
 10
100.083468941993
 20
-121.632713457005
 30
0.0
 10
99.46886390742445
 20
-121.632713457005
 30
0.0
 10
99.46886390742445
 20
-121.632713457005
 30
0.0
 10
99.46886390742445
 20
-121.632713457005
 30
0.0
 10
99.47058645516708
 20
-121.6664753927605
 30
0.0
 10
99.47058645516708
 20
-121.6664753927605
 30
0.0
 10
99.47058645516708
 20
-121.6664753927605
 30
0.0
 10
99.27972816528424
 20
-121.6664753927605
 30
0.0
 10
99.27972816528424
 20
-121.6664753927605
 30
0.0
 10
99.28351777031801
 20
-121.6115261197707
 30
0.0
 10
99.28351777031801
 20
-121.5987792664753
 30
0.0
 10
99.28902992309442
 20
-121.4845743511393
 30
0.0
 10
99.29109698038556
 20
-121.4570135872573
 30
0.0
 10
99.29281952812819
 20
-121.3238606467524
 30
0.0
 10
99.29281952812819
 20
-121.3047403668092
 30
0.0
 10
99.29281952812819
 20
-121.3047403668092
 30
0.0
 10
99.29281952812819
 20
-121.1016519879538
 30
0.0
 10
99.29281952812819
 20
-121.1016519879538
 30
0.0
 10
99.17051863840182
 20
-121.3512491558601
 30
0.0
 10
99.02237953253608
 20
-121.4825072938481
 30
0.0
 10
98.92970646398285
 20
-121.5479641080679
 30
0.0
 10
98.92970646398285
 20
-121.5479641080679
 30
0.0
 10
98.77812226263187
 20
-121.4084377409153
 30
0.0
 10
98.77812226263187
 20
-121.4084377409153
 30
0.0
 10
98.85563691104998
 20
-121.3576225825078
 30
0.0
 10
98.98172740581013
 20
-121.2708061762795
 30
0.0
 10
99.10196123824535
 20
-121.0763305361372
 30
0.0
 10
99.18154294395463
 20
-120.9493787675057
 30
0.0
 10
99.2390760385583
 20
-120.8055460309965
 30
0.0
 10
99.26870385973145
 20
-120.6531005557742
 30
0.0
 10
99.06854381203843
 20
-120.6553398678396
 30
0.0
 10
98.91144745791104
 20
-120.6617132944874
 30
0.0
 10
98.82807614716799
 20
-120.6637803517785
 30
0.0
 10
98.82807614716799
 20
-120.6637803517785
 30
0.0
 10
98.82807614716799
 20
-120.4860134247396
 30
0.0
 10
98.82807614716799
 20
-120.4860134247396
 30
0.0
 10
99.00033092143047
 20
-120.4923868513873
 30
0.0
 10
99.24837779636846
 20
-120.4966932207439
 30
0.0
 10
99.37998044390501
 20
-120.4966932207439
 30
0.0
 10
99.37998044390501
 20
-120.4966932207439
 30
0.0
 10
99.56670461920555
 20
-120.4966932207439
 30
0.0
 10
99.56670461920555
 20
-120.4966932207439
 30
0.0
 10
99.56670461920555
 20
-120.4966932207439
 30
0.0
 10
99.56670461920555
 20
-120.3886894772813
 30
0.0
 10
99.56670461920555
 20
-120.3886894772813
 30
0.0
 10
99.56670461920555
 20
-120.3886894772813
 30
0.0
 10
99.43923608625131
 20
-120.3886894772813
 30
0.0
 10
99.43923608625131
 20
-120.3886894772813
 30
0.0
 10
99.29109698038556
 20
-120.3886894772813
 30
0.0
 10
99.14295787451982
 20
-120.3929958466379
 30
0.0
 10
98.9965413163967
 20
-120.3993692732856
 30
0.0
 10
98.9965413163967
 20
-120.3993692732856
 30
0.0
 10
98.9965413163967
 20
-120.2279757728944
 30
0.0
 10
98.9965413163967
 20
-120.2279757728944
 30
0.0
 10
99.1315890594185
 20
-120.2384833141244
 30
0.0
 10
99.29454207587081
 20
-120.2384833141244
 30
0.0
 10
99.43923608625131
 20
-120.2384833141244
 30
0.0
 10
99.43923608625131
 20
-120.2384833141244
 30
0.0
 10
99.56670461920555
 20
-120.2384833141244
 30
0.0
 10
99.56670461920555
 20
-120.2384833141244
 30
0.0
 10
99.56670461920555
 20
-120.2384833141244
 30
0.0
 10
99.56670461920555
 20
-120.1201442842061
 30
0.0
 10
99.56670461920555
 20
-120.1201442842061
 30
0.0
 10
99.56670461920555
 20
-120.1201442842061
 30
0.0
 10
99.45198293954672
 20
-120.1201442842061
 30
0.0
 10
99.45198293954672
 20
-120.1201442842061
 30
0.0
 10
99.41133081282078
 20
-120.1201442842061
 30
0.0
 10
99.23356388578189
 20
-120.1285847681449
 30
0.0
 10
99.1963568545412
 20
-120.1285847681449
 30
0.0
 10
99.0185899275023
 20
-120.1327188827272
 30
0.0
 10
98.95209958463698
 20
-120.1347859400184
 30
0.0
 10
98.8835421844805
 20
-120.1370252520838
 30
0.0
 10
98.8835421844805
 20
-120.1370252520838
 30
0.0
 10
98.8835421844805
 20
-119.9528848983972
 30
0.0
 10
98.8835421844805
 20
-119.9528848983972
 30
0.0
 10
98.98344995355275
 20
-119.9613253823361
 30
0.0
 10
99.02237953253608
 20
-119.9613253823361
 30
0.0
 10
99.35758732325088
 20
-119.9699381210492
 30
0.0
 10
99.30212128593837
 20
-119.874681230882
 30
0.0
 10
99.27800561754161
 20
-119.847120467
 30
0.0
 10
99.24631073907732
 20
-119.8111192191792
 30
0.0
 10
99.24631073907732
 20
-119.8111192191792
 30
0.0
 10
99.40030650726798
 20
-119.7286091823074
 30
0.0
 10
99.40030650726798
 20
-119.7286091823074
 30
0.0
 10
99.43544648121753
 20
-119.7646104301283
 30
0.0
 10
99.47437606020085
 20
-119.8069851045969
 30
0.0
 10
99.53914385532356
 20
-119.9168836505763
 30
0.0
 10
99.53914385532356
 20
-119.9168836505763
 30
0.0
 10
99.43923608625131
 20
-119.9720051783403
 30
0.0
 10
99.43923608625131
 20
-119.9720051783403
 30
0.0
 10
99.43923608625131
 20
-119.9720051783403
 30
0.0
 10
99.44819333451295
 20
-119.9720051783403
 30
0.0
 10
99.44819333451295
 20
-119.9720051783403
 30
0.0
 10
99.44819333451295
 20
-119.9720051783403
 30
0.0
 10
99.90570201495413
 20
-119.9720051783403
 30
0.0
 10
99.90570201495413
 20
-119.9720051783403
 30
0.0
 10
99.90570201495413
 20
-119.9720051783403
 30
0.0
 10
99.82233070421108
 20
-119.9275634465806
 30
0.0
 10
99.82233070421108
 20
-119.9275634465806
 30
0.0
 10
99.84644637260784
 20
-119.8894951414686
 30
0.0
 10
99.89640025714397
 20
-119.809052161888
 30
0.0
 10
99.9094916199879
 20
-119.7349826089551
 30
0.0
 10
99.9094916199879
 20
-119.7349826089551
 30
0.0
 10
100.096560304837
 20
-119.798544620658
 30
0.0
 10
100.096560304837
 20
-119.798544620658
 30
0.0
 10
100.103795005356
 20
-119.8006116779492
 30
0.0
 10
100.1223985209763
 20
-119.8111192191792
 30
0.0
 10
100.1223985209763
 20
-119.8323065564135
 30
0.0
 10
100.1223985209763
 20
-119.8703748615255
 30
0.0
 10
100.0648654263727
 20
-119.8703748615255
 30
0.0
 10
100.0483289680435
 20
-119.8703748615255
 30
0.0
 10
100.0390272102333
 20
-119.8894951414686
 30
0.0
 10
100.0187011468703
 20
-119.9296305038718
 30
0.0
 10
99.99286293073095
 20
-119.9699381210492
 30
0.0
 10
100.3425401224838
 20
-119.9635646944015
 30
0.0
 10
100.3687228481717
 20
-119.9613253823361
 30
0.0
 10
100.435213191037
 20
-119.9551242104626
 30
0.0
 10
100.435213191037
 20
-119.9551242104626
 30
0.0
 10
100.435213191037
 20
-120.1370252520838
 30
0.0
 10
100.435213191037
 20
-120.1370252520838
 30
0.0
 10
100.4186767327078
 20
-120.1370252520838
 30
0.0
 10
100.3962836120537
 20
-120.1347859400184
 30
0.0
 10
100.2037027744283
 20
-120.1263454560795
 30
0.0
 10
100.1592610426685
 20
-120.1242783987884
 30
0.0
 10
99.96668020504306
 20
-120.1201442842061
 30
0.0
 10
99.92775062605973
 20
-120.1201442842061
 30
0.0
 10
99.92775062605973
 20
-120.1201442842061
 30
0.0
 10
99.73895939346804
 20
-120.1201442842061
 30
0.0
 10
99.73895939346804
 20
-120.1201442842061
 30
0.0
 10
99.73895939346804
 20
-120.1201442842061
 30
0.0
 10
99.73895939346804
 20
-120.2384833141244
 30
0.0
 10
99.73895939346804
 20
-120.2384833141244
 30
0.0
 10
99.73895939346804
 20
-120.2384833141244
 30
0.0
 10
99.89088810436756
 20
-120.2384833141244
 30
0.0
 10
99.89088810436756
 20
-120.2384833141244
 30
0.0
 10
100.0335150574569
 20
-120.2384833141244
 30
0.0
 10
100.200257678943
 20
-120.2384833141244
 30
0.0
 10
100.3370279697074
 20
-120.2279757728944
 30
0.0
 10
100.3370279697074
 20
-120.2279757728944
 30
0.0
 10
100.3370279697074
 20
-120.3993692732856
 30
0.0
 10
100.3370279697074
 20
-120.3993692732856
 30
0.0
 10
100.1537488898921
 20
-120.3909287893467
 30
0.0
 10
99.98149411562963
 20
-120.3886894772813
 30
0.0
 10
99.89088810436756
 20
-120.3886894772813
 30
0.0
 10
99.89088810436756
 20
-120.3886894772813
 30
0.0
 10
99.73895939346804
 20
-120.3886894772813
 30
0.0
 10
99.73895939346804
 20
-120.3886894772813
 30
0.0
 10
99.73895939346804
 20
-120.3886894772813
 30
0.0
 10
99.73895939346804
 20
-120.4966932207439
 30
0.0
 10
99.73895939346804
 20
-120.4966932207439
 30
0.0
 10
99.73895939346804
 20
-120.4966932207439
 30
0.0
 10
99.94084198890368
 20
-120.4966932207439
 30
0.0
 10
99.94084198890368
 20
-120.4966932207439
 30
0.0
 10
100.0576307258537
 20
-120.4966932207439
 30
0.0
 10
100.3094672058254
 20
-120.4923868513873
 30
0.0
 10
100.4927462856407
 20
-120.4860134247396
 30
0.0
 10
100.4927462856407
 20
-120.4860134247396
 30
0.0
 10
100.4927462856407
 20
-120.6637803517785
 30
0.0
 10
100.4927462856407
 20
-120.6637803517785
 30
0.0
 10
100.324281116412
 20
-120.6574069251308
 30
0.0
 10
100.0500515157861
 20
-120.6531005557742
 30
0.0
 10
99.94084198890368
 20
-120.6531005557742
 30
0.0
  0
POLYLINE
  5
89
330
80
100
AcDbEntity
  8
_U+30EC_U+30A4_U+30E4_U+30FC 1
370
     0
100
AcDb2dPolyline
 66
     1
 10
0.0
 20
0.0
 30
0.0
  0
VERTEX
  5
8A
330
89
100
AcDbEntity
  8
_U+30EC_U+30A4_U+30E4_U+30FC 1
370
     0
100
AcDbVertex
100
AcDb2dVertex
 10
100.0851914897356
 20
-120.9090711503283
 30
0.0
  0
VERTEX
  5
8B
330
89
100
AcDbEntity
  8
_U+30EC_U+30A4_U+30E4_U+30FC 1
370
     0
100
AcDbVertex
100
AcDb2dVertex
 10
99.4667968501333
 20
-120.9090711503283
 30
0.0
  0
VERTEX
  5
8C
330
89
100
AcDbEntity
  8
_U+30EC_U+30A4_U+30E4_U+30FC 1
370
     0
100
AcDbVertex
100
AcDb2dVertex
 10
99.4667968501333
 20
-121.0170748937909
 30
0.0
  0
VERTEX
  5
8D
330
89
100
AcDbEntity
  8
_U+30EC_U+30A4_U+30E4_U+30FC 1
370
     0
100
AcDbVertex
100
AcDb2dVertex
 10
100.0851914897356
 20
-121.0170748937909
 30
0.0
  0
VERTEX
  5
8E
330
89
100
AcDbEntity
  8
_U+30EC_U+30A4_U+30E4_U+30FC 1
370
     0
100
AcDbVertex
100
AcDb2dVertex
 10
100.0851914897356
 20
-120.9090711503283
 30
0.0
  0
SEQEND
  5
8F
330
89
100
AcDbEntity
  8
_U+30EC_U+30A4_U+30E4_U+30FC 1
370
     0
  0
POLYLINE
  5
90
330
80
100
AcDbEntity
  8
_U+30EC_U+30A4_U+30E4_U+30FC 1
370
     0
100
AcDb2dPolyline
 66
     1
 10
0.0
 20
0.0
 30
0.0
  0
VERTEX
  5
91
330
90
100
AcDbEntity
  8
_U+30EC_U+30A4_U+30E4_U+30FC 1
370
     0
100
AcDbVertex
100
AcDb2dVertex
 10
100.0851914897356
 20
-121.1417873503569
 30
0.0
  0
VERTEX
  5
92
330
90
100
AcDbEntity
  8
_U+30EC_U+30A4_U+30E4_U+30FC 1
370
     0
100
AcDbVertex
100
AcDb2dVertex
 10
99.4667968501333
 20
-121.1417873503569
 30
0.0
  0
VERTEX
  5
93
330
90
100
AcDbEntity
  8
_U+30EC_U+30A4_U+30E4_U+30FC 1
370
     0
100
AcDbVertex
100
AcDb2dVertex
 10
99.4667968501333
 20
-121.2561645204672
 30
0.0
  0
VERTEX
  5
94
330
90
100
AcDbEntity
  8
_U+30EC_U+30A4_U+30E4_U+30FC 1
370
     0
100
AcDbVertex
100
AcDb2dVertex
 10
100.0851914897356
 20
-121.2561645204672
 30
0.0
  0
VERTEX
  5
95
330
90
100
AcDbEntity
  8
_U+30EC_U+30A4_U+30E4_U+30FC 1
370
     0
100
AcDbVertex
100
AcDb2dVertex
 10
100.0851914897356
 20
-121.1417873503569
 30
0.0
  0
SEQEND
  5
96
330
90
100
AcDbEntity
  8
_U+30EC_U+30A4_U+30E4_U+30FC 1
370
     0
  0
POLYLINE
  5
97
330
80
100
AcDbEntity
  8
_U+30EC_U+30A4_U+30E4_U+30FC 1
370
     0
100
AcDb2dPolyline
 66
     1
 10
0.0
 20
0.0
 30
0.0
  0
VERTEX
  5
98
330
97
100
AcDbEntity
  8
_U+30EC_U+30A4_U+30E4_U+30FC 1
370
     0
100
AcDbVertex
100
AcDb2dVertex
 10
100.0851914897356
 20
-121.3851833463898
 30
0.0
  0
VERTEX
  5
99
330
97
100
AcDbEntity
  8
_U+30EC_U+30A4_U+30E4_U+30FC 1
370
     0
100
AcDbVertex
100
AcDb2dVertex
 10
99.4667968501333
 20
-121.3851833463898
 30
0.0
  0
VERTEX
  5
9A
330
97
100
AcDbEntity
  8
_U+30EC_U+30A4_U+30E4_U+30FC 1
370
     0
100
AcDbVertex
100
AcDb2dVertex
 10
99.4667968501333
 20
-121.4993882617259
 30
0.0
  0
VERTEX
  5
9B
330
97
100
AcDbEntity
  8
_U+30EC_U+30A4_U+30E4_U+30FC 1
370
     0
100
AcDbVertex
100
AcDb2dVertex
 10
100.0851914897356
 20
-121.4993882617259
 30
0.0
  0
VERTEX
  5
9C
330
97
100
AcDbEntity
  8
_U+30EC_U+30A4_U+30E4_U+30FC 1
370
     0
100
AcDbVertex
100
AcDb2dVertex
 10
100.0851914897356
 20
-121.3851833463898
 30
0.0
  0
SEQEND
  5
9D
330
97
100
AcDbEntity
  8
_U+30EC_U+30A4_U+30E4_U+30FC 1
370
     0
  0
HATCH
  5
9E
330
80
100
AcDbEntity
  8
_U+30EC_U+30A4_U+30E4_U+30FC 1
 62
   179
420
  2234388
100
AcDbHatch
 10
0.0
 20
0.0
 30
0.0
210
0.0
220
0.0
230
1.0
  2
SOLID
 70
     1
 71
     0
 91
        4
 92
        1
 93
        1
 72
     4
 94
        3
 73
     0
 74
     1
 95
      203
 96
      199
 40
0.0
 40
0.0
 40
0.0
 40
0.0
 40
1.0
 40
1.0
 40
1.0
 40
2.0
 40
2.0
 40
2.0
 40
3.0
 40
3.0
 40
3.0
 40
4.0
 40
4.0
 40
4.0
 40
5.0
 40
5.0
 40
5.0
 40
6.0
 40
6.0
 40
6.0
 40
7.0
 40
7.0
 40
7.0
 40
8.0
 40
8.0
 40
8.0
 40
9.0
 40
9.0
 40
9.0
 40
10.0
 40
10.0
 40
10.0
 40
11.0
 40
11.0
 40
11.0
 40
12.0
 40
12.0
 40
12.0
 40
13.0
 40
13.0
 40
13.0
 40
14.0
 40
14.0
 40
14.0
 40
15.0
 40
15.0
 40
15.0
 40
16.0
 40
16.0
 40
16.0
 40
17.0
 40
17.0
 40
17.0
 40
18.0
 40
18.0
 40
18.0
 40
19.0
 40
19.0
 40
19.0
 40
20.0
 40
20.0
 40
20.0
 40
21.0
 40
21.0
 40
21.0
 40
22.0
 40
22.0
 40
22.0
 40
23.0
 40
23.0
 40
23.0
 40
24.0
 40
24.0
 40
24.0
 40
25.0
 40
25.0
 40
25.0
 40
26.0
 40
26.0
 40
26.0
 40
27.0
 40
27.0
 40
27.0
 40
28.0
 40
28.0
 40
28.0
 40
29.0
 40
29.0
 40
29.0
 40
30.0
 40
30.0
 40
30.0
 40
31.0
 40
31.0
 40
31.0
 40
32.0
 40
32.0
 40
32.0
 40
33.0
 40
33.0
 40
33.0
 40
34.0
 40
34.0
 40
34.0
 40
35.0
 40
35.0
 40
35.0
 40
36.0
 40
36.0
 40
36.0
 40
37.0
 40
37.0
 40
37.0
 40
38.0
 40
38.0
 40
38.0
 40
39.0
 40
39.0
 40
39.0
 40
40.0
 40
40.0
 40
40.0
 40
41.0
 40
41.0
 40
41.0
 40
42.0
 40
42.0
 40
42.0
 40
43.0
 40
43.0
 40
43.0
 40
44.0
 40
44.0
 40
44.0
 40
45.0
 40
45.0
 40
45.0
 40
46.0
 40
46.0
 40
46.0
 40
47.0
 40
47.0
 40
47.0
 40
48.0
 40
48.0
 40
48.0
 40
49.0
 40
49.0
 40
49.0
 40
50.0
 40
50.0
 40
50.0
 40
51.0
 40
51.0
 40
51.0
 40
52.0
 40
52.0
 40
52.0
 40
53.0
 40
53.0
 40
53.0
 40
54.0
 40
54.0
 40
54.0
 40
55.0
 40
55.0
 40
55.0
 40
56.0
 40
56.0
 40
56.0
 40
57.0
 40
57.0
 40
57.0
 40
58.0
 40
58.0
 40
58.0
 40
59.0
 40
59.0
 40
59.0
 40
60.0
 40
60.0
 40
60.0
 40
61.0
 40
61.0
 40
61.0
 40
62.0
 40
62.0
 40
62.0
 40
63.0
 40
63.0
 40
63.0
 40
64.0
 40
64.0
 40
64.0
 40
65.0
 40
65.0
 40
65.0
 40
66.0
 40
66.0
 40
66.0
 40
66.0
 10
99.94084198890368
 20
-120.6531005557742
 10
99.94084198890368
 20
-120.6531005557742
 10
99.45198293954672
 20
-120.6531005557742
 10
99.45198293954672
 20
-120.6531005557742
 10
99.44268118173656
 20
-120.6975422875339
 10
99.43544648121753
 20
-120.7292371659983
 10
99.4240776661162
 20
-120.7674777258845
 10
99.44647078677033
 20
-120.7674777258845
 10
99.45956214961429
 20
-120.7695447831757
 10
99.46507430239068
 20
-120.7695447831757
 10
99.46507430239068
 20
-120.7695447831757
 10
99.62974986658563
 20
-120.7695447831757
 10
99.62974986658563
 20
-120.7695447831757
 10
99.62974986658563
 20
-120.7695447831757
 10
99.95737844723288
 20
-120.7695447831757
 10
99.95737844723288
 20
-120.7695447831757
 10
100.0021646885411
 20
-120.7695447831757
 10
100.2502115634791
 20
-120.7567979298802
 10
100.2777723273611
 20
-120.7567979298802
 10
100.2760497796185
 20
-120.7843586937622
 10
100.2743272318759
 20
-120.8033067189311
 10
100.2743272318759
 20
-120.8329345401043
 10
100.2722601745847
 20
-120.8646294185686
 10
100.2722601745847
 20
-121.0000216711389
 10
100.2722601745847
 20
-121.0275824350209
 10
100.2722601745847
 20
-121.0275824350209
 10
100.2722601745847
 20
-121.2730454883449
 10
100.2722601745847
 20
-121.2730454883449
 10
100.2722601745847
 20
-121.3174872201047
 10
100.2760497796185
 20
-121.5142021723124
 10
100.2798393846523
 20
-121.6664753927605
 10
100.2798393846523
 20
-121.6664753927605
 10
100.0817463942504
 20
-121.6664753927605
 10
100.0817463942504
 20
-121.6664753927605
 10
100.0817463942504
 20
-121.6664753927605
 10
100.083468941993
 20
-121.632713457005
 10
100.083468941993
 20
-121.632713457005
 10
100.083468941993
 20
-121.632713457005
 10
99.46886390742445
 20
-121.632713457005
 10
99.46886390742445
 20
-121.632713457005
 10
99.46886390742445
 20
-121.632713457005
 10
99.47058645516708
 20
-121.6664753927605
 10
99.47058645516708
 20
-121.6664753927605
 10
99.47058645516708
 20
-121.6664753927605
 10
99.27972816528424
 20
-121.6664753927605
 10
99.27972816528424
 20
-121.6664753927605
 10
99.28351777031801
 20
-121.6115261197707
 10
99.28351777031801
 20
-121.5987792664753
 10
99.28902992309442
 20
-121.4845743511393
 10
99.29109698038556
 20
-121.4570135872573
 10
99.29281952812819
 20
-121.3238606467524
 10
99.29281952812819
 20
-121.3047403668092
 10
99.29281952812819
 20
-121.3047403668092
 10
99.29281952812819
 20
-121.1016519879538
 10
99.29281952812819
 20
-121.1016519879538
 10
99.17051863840182
 20
-121.3512491558601
 10
99.02237953253608
 20
-121.4825072938481
 10
98.92970646398285
 20
-121.5479641080679
 10
98.92970646398285
 20
-121.5479641080679
 10
98.77812226263187
 20
-121.4084377409153
 10
98.77812226263187
 20
-121.4084377409153
 10
98.85563691104998
 20
-121.3576225825078
 10
98.98172740581013
 20
-121.2708061762795
 10
99.10196123824535
 20
-121.0763305361372
 10
99.18154294395463
 20
-120.9493787675057
 10
99.2390760385583
 20
-120.8055460309965
 10
99.26870385973145
 20
-120.6531005557742
 10
99.06854381203843
 20
-120.6553398678396
 10
98.91144745791104
 20
-120.6617132944874
 10
98.82807614716799
 20
-120.6637803517785
 10
98.82807614716799
 20
-120.6637803517785
 10
98.82807614716799
 20
-120.4860134247396
 10
98.82807614716799
 20
-120.4860134247396
 10
99.00033092143047
 20
-120.4923868513873
 10
99.24837779636846
 20
-120.4966932207439
 10
99.37998044390501
 20
-120.4966932207439
 10
99.37998044390501
 20
-120.4966932207439
 10
99.56670461920555
 20
-120.4966932207439
 10
99.56670461920555
 20
-120.4966932207439
 10
99.56670461920555
 20
-120.4966932207439
 10
99.56670461920555
 20
-120.3886894772813
 10
99.56670461920555
 20
-120.3886894772813
 10
99.56670461920555
 20
-120.3886894772813
 10
99.43923608625131
 20
-120.3886894772813
 10
99.43923608625131
 20
-120.3886894772813
 10
99.29109698038556
 20
-120.3886894772813
 10
99.14295787451982
 20
-120.3929958466379
 10
98.9965413163967
 20
-120.3993692732856
 10
98.9965413163967
 20
-120.3993692732856
 10
98.9965413163967
 20
-120.2279757728944
 10
98.9965413163967
 20
-120.2279757728944
 10
99.1315890594185
 20
-120.2384833141244
 10
99.29454207587081
 20
-120.2384833141244
 10
99.43923608625131
 20
-120.2384833141244
 10
99.43923608625131
 20
-120.2384833141244
 10
99.56670461920555
 20
-120.2384833141244
 10
99.56670461920555
 20
-120.2384833141244
 10
99.56670461920555
 20
-120.2384833141244
 10
99.56670461920555
 20
-120.1201442842061
 10
99.56670461920555
 20
-120.1201442842061
 10
99.56670461920555
 20
-120.1201442842061
 10
99.45198293954672
 20
-120.1201442842061
 10
99.45198293954672
 20
-120.1201442842061
 10
99.41133081282078
 20
-120.1201442842061
 10
99.23356388578189
 20
-120.1285847681449
 10
99.1963568545412
 20
-120.1285847681449
 10
99.0185899275023
 20
-120.1327188827272
 10
98.95209958463698
 20
-120.1347859400184
 10
98.8835421844805
 20
-120.1370252520838
 10
98.8835421844805
 20
-120.1370252520838
 10
98.8835421844805
 20
-119.9528848983972
 10
98.8835421844805
 20
-119.9528848983972
 10
98.98344995355275
 20
-119.9613253823361
 10
99.02237953253608
 20
-119.9613253823361
 10
99.35758732325088
 20
-119.9699381210492
 10
99.30212128593837
 20
-119.874681230882
 10
99.27800561754161
 20
-119.847120467
 10
99.24631073907732
 20
-119.8111192191792
 10
99.24631073907732
 20
-119.8111192191792
 10
99.40030650726798
 20
-119.7286091823074
 10
99.40030650726798
 20
-119.7286091823074
 10
99.43544648121753
 20
-119.7646104301283
 10
99.47437606020085
 20
-119.8069851045969
 10
99.53914385532356
 20
-119.9168836505763
 10
99.53914385532356
 20
-119.9168836505763
 10
99.43923608625131
 20
-119.9720051783403
 10
99.43923608625131
 20
-119.9720051783403
 10
99.43923608625131
 20
-119.9720051783403
 10
99.44819333451295
 20
-119.9720051783403
 10
99.44819333451295
 20
-119.9720051783403
 10
99.44819333451295
 20
-119.9720051783403
 10
99.90570201495413
 20
-119.9720051783403
 10
99.90570201495413
 20
-119.9720051783403
 10
99.90570201495413
 20
-119.9720051783403
 10
99.82233070421108
 20
-119.9275634465806
 10
99.82233070421108
 20
-119.9275634465806
 10
99.84644637260784
 20
-119.8894951414686
 10
99.89640025714397
 20
-119.809052161888
 10
99.9094916199879
 20
-119.7349826089551
 10
99.9094916199879
 20
-119.7349826089551
 10
100.096560304837
 20
-119.798544620658
 10
100.096560304837
 20
-119.798544620658
 10
100.103795005356
 20
-119.8006116779492
 10
100.1223985209763
 20
-119.8111192191792
 10
100.1223985209763
 20
-119.8323065564135
 10
100.1223985209763
 20
-119.8703748615255
 10
100.0648654263727
 20
-119.8703748615255
 10
100.0483289680435
 20
-119.8703748615255
 10
100.0390272102333
 20
-119.8894951414686
 10
100.0187011468703
 20
-119.9296305038718
 10
99.99286293073095
 20
-119.9699381210492
 10
100.3425401224838
 20
-119.9635646944015
 10
100.3687228481717
 20
-119.9613253823361
 10
100.435213191037
 20
-119.9551242104626
 10
100.435213191037
 20
-119.9551242104626
 10
100.435213191037
 20
-120.1370252520838
 10
100.435213191037
 20
-120.1370252520838
 10
100.4186767327078
 20
-120.1370252520838
 10
100.3962836120537
 20
-120.1347859400184
 10
100.2037027744283
 20
-120.1263454560795
 10
100.1592610426685
 20
-120.1242783987884
 10
99.96668020504306
 20
-120.1201442842061
 10
99.92775062605973
 20
-120.1201442842061
 10
99.92775062605973
 20
-120.1201442842061
 10
99.73895939346804
 20
-120.1201442842061
 10
99.73895939346804
 20
-120.1201442842061
 10
99.73895939346804
 20
-120.1201442842061
 10
99.73895939346804
 20
-120.2384833141244
 10
99.73895939346804
 20
-120.2384833141244
 10
99.73895939346804
 20
-120.2384833141244
 10
99.89088810436756
 20
-120.2384833141244
 10
99.89088810436756
 20
-120.2384833141244
 10
100.0335150574569
 20
-120.2384833141244
 10
100.200257678943
 20
-120.2384833141244
 10
100.3370279697074
 20
-120.2279757728944
 10
100.3370279697074
 20
-120.2279757728944
 10
100.3370279697074
 20
-120.3993692732856
 10
100.3370279697074
 20
-120.3993692732856
 10
100.1537488898921
 20
-120.3909287893467
 10
99.98149411562963
 20
-120.3886894772813
 10
99.89088810436756
 20
-120.3886894772813
 10
99.89088810436756
 20
-120.3886894772813
 10
99.73895939346804
 20
-120.3886894772813
 10
99.73895939346804
 20
-120.3886894772813
 10
99.73895939346804
 20
-120.3886894772813
 10
99.73895939346804
 20
-120.4966932207439
 10
99.73895939346804
 20
-120.4966932207439
 10
99.73895939346804
 20
-120.4966932207439
 10
99.94084198890368
 20
-120.4966932207439
 10
99.94084198890368
 20
-120.4966932207439
 10
100.0576307258537
 20
-120.4966932207439
 10
100.3094672058254
 20
-120.4923868513873
 10
100.4927462856407
 20
-120.4860134247396
 10
100.4927462856407
 20
-120.4860134247396
 10
100.4927462856407
 20
-120.6637803517785
 10
100.4927462856407
 20
-120.6637803517785
 10
100.324281116412
 20
-120.6574069251308
 10
100.0500515157861
 20
-120.6531005557742
 10
99.94084198890368
 20
-120.6531005557742
 97
        0
 97
        0
 92
        1
 93
        4
 72
     1
 10
100.0851914897356
 20
-120.9090711503283
 11
99.4667968501333
 21
-120.9090711503283
 72
     1
 10
99.4667968501333
 20
-120.9090711503283
 11
99.4667968501333
 21
-121.0170748937909
 72
     1
 10
99.4667968501333
 20
-121.0170748937909
 11
100.0851914897356
 21
-121.0170748937909
 72
     1
 10
100.0851914897356
 20
-121.0170748937909
 11
100.0851914897356
 21
-120.9090711503283
 97
        0
 92
        1
 93
        4
 72
     1
 10
100.0851914897356
 20
-121.1417873503569
 11
99.4667968501333
 21
-121.1417873503569
 72
     1
 10
99.4667968501333
 20
-121.1417873503569
 11
99.4667968501333
 21
-121.2561645204672
 72
     1
 10
99.4667968501333
 20
-121.2561645204672
 11
100.0851914897356
 21
-121.2561645204672
 72
     1
 10
100.0851914897356
 20
-121.2561645204672
 11
100.0851914897356
 21
-121.1417873503569
 97
        0
 92
        1
 93
        4
 72
     1
 10
100.0851914897356
 20
-121.3851833463898
 11
99.4667968501333
 21
-121.3851833463898
 72
     1
 10
99.4667968501333
 20
-121.3851833463898
 11
99.4667968501333
 21
-121.4993882617259
 72
     1
 10
99.4667968501333
 20
-121.4993882617259
 11
100.0851914897356
 21
-121.4993882617259
 72
     1
 10
100.0851914897356
 20
-121.4993882617259
 11
100.0851914897356
 21
-121.3851833463898
 97
        0
 75
     2
 76
     1
 98
        0
  0
SPLINE
  5
9F
330
80
100
AcDbEntity
  8
_U+30EC_U+30A4_U+30E4_U+30FC 1
370
     0
100
AcDbSpline
210
0.0
220
0.0
230
1.0
 70
    11
 71
     3
 72
    47
 73
    43
 74
     0
 42
0.0000000001
 43
0.0000000001
 12
1.0
 22
0.0
 32
0.0
 13
1.0
 23
0.0
 33
0.0
 40
0.0
 40
0.0
 40
0.0
 40
0.0
 40
1.0
 40
1.0
 40
1.0
 40
2.0
 40
2.0
 40
2.0
 40
3.0
 40
3.0
 40
3.0
 40
4.0
 40
4.0
 40
4.0
 40
5.0
 40
5.0
 40
5.0
 40
6.0
 40
6.0
 40
6.0
 40
7.0
 40
7.0
 40
7.0
 40
8.0
 40
8.0
 40
8.0
 40
9.0
 40
9.0
 40
9.0
 40
10.0
 40
10.0
 40
10.0
 40
11.0
 40
11.0
 40
11.0
 40
12.0
 40
12.0
 40
12.0
 40
13.0
 40
13.0
 40
13.0
 40
14.0
 40
14.0
 40
14.0
 40
14.0
 10
101.6726914893388
 20
-120.6298461612488
 30
0.0
 10
101.6726914893388
 20
-120.6298461612488
 30
0.0
 10
101.5838080258193
 20
-120.6298461612488
 30
0.0
 10
101.5838080258193
 20
-120.6298461612488
 30
0.0
 10
101.5838080258193
 20
-120.7166625674771
 30
0.0
 10
101.565204510199
 20
-121.1059583573103
 30
0.0
 10
101.3929497359365
 20
-121.3259277040435
 30
0.0
 10
101.2596245406573
 20
-121.4950818923693
 30
0.0
 10
101.0780680085847
 20
-121.5650173307199
 30
0.0
 10
101.0039984556518
 20
-121.5924058398276
 30
0.0
 10
101.0039984556518
 20
-121.5924058398276
 30
0.0
 10
100.8338107386804
 20
-121.425318708793
 30
0.0
 10
100.8338107386804
 20
-121.425318708793
 30
0.0
 10
100.9189045971661
 20
-121.4125718554976
 30
0.0
 10
101.0725558558083
 20
-121.3893174609721
 30
0.0
 10
101.2375759295517
 20
-121.2010429927032
 30
0.0
 10
101.3023437246744
 20
-121.1292127518358
 30
0.0
 10
101.3929497359365
 20
-120.9895141299089
 30
0.0
 10
101.3929497359365
 20
-120.6298461612488
 30
0.0
 10
101.3929497359365
 20
-120.6298461612488
 30
0.0
 10
101.1910671405008
 20
-120.6298461612488
 30
0.0
 10
101.1910671405008
 20
-120.6298461612488
 30
0.0
 10
101.0281141240485
 20
-120.6298461612488
 30
0.0
 10
100.8651611075962
 20
-120.6341525306054
 30
0.0
 10
100.7022080911439
 20
-120.6489664411919
 30
0.0
 10
100.7022080911439
 20
-120.6489664411919
 30
0.0
 10
100.7022080911439
 20
-120.4289970944587
 30
0.0
 10
100.7022080911439
 20
-120.4289970944587
 30
0.0
 10
100.8668836553388
 20
-120.4438110050453
 30
0.0
 10
101.116997587568
 20
-120.4479451196276
 30
0.0
 10
101.1910671405008
 20
-120.4479451196276
 30
0.0
 10
101.1910671405008
 20
-120.4479451196276
 30
0.0
 10
101.6726914893388
 20
-120.4479451196276
 30
0.0
 10
101.6726914893388
 20
-120.4479451196276
 30
0.0
 10
101.689227947668
 20
-120.4479451196276
 30
0.0
 10
101.9669026437791
 20
-120.4479451196276
 30
0.0
 10
102.1670626914721
 20
-120.4289970944587
 30
0.0
 10
102.1670626914721
 20
-120.4289970944587
 30
0.0
 10
102.1670626914721
 20
-120.6489664411919
 30
0.0
 10
102.1670626914721
 20
-120.6489664411919
 30
0.0
 10
102.0020426177287
 20
-120.6341525306054
 30
0.0
 10
101.8373670535337
 20
-120.6298461612488
 30
0.0
 10
101.6726914893388
 20
-120.6298461612488
 30
0.0
  0
SPLINE
  5
A0
330
80
100
AcDbEntity
  8
_U+30EC_U+30A4_U+30E4_U+30FC 1
370
     0
100
AcDbSpline
210
0.0
220
0.0
230
1.0
 70
    11
 71
     3
 72
    29
 73
    25
 74
     0
 42
0.0000000001
 43
0.0000000001
 12
1.0
 22
0.0
 32
0.0
 13
1.0
 23
0.0
 33
0.0
 40
0.0
 40
0.0
 40
0.0
 40
0.0
 40
1.0
 40
1.0
 40
1.0
 40
2.0
 40
2.0
 40
2.0
 40
3.0
 40
3.0
 40
3.0
 40
4.0
 40
4.0
 40
4.0
 40
5.0
 40
5.0
 40
5.0
 40
6.0
 40
6.0
 40
6.0
 40
7.0
 40
7.0
 40
7.0
 40
8.0
 40
8.0
 40
8.0
 40
8.0
 10
101.5838080258193
 20
-120.1010240042629
 30
0.0
 10
101.5838080258193
 20
-120.1010240042629
 30
0.0
 10
101.2744384512439
 20
-120.1010240042629
 30
0.0
 10
101.2744384512439
 20
-120.1010240042629
 30
0.0
 10
101.1762532299143
 20
-120.1010240042629
 30
0.0
 10
101.0539523401879
 20
-120.1073974309107
 30
0.0
 10
100.9595567238921
 20
-120.1201442842061
 30
0.0
 10
100.9595567238921
 20
-120.1201442842061
 30
0.0
 10
100.9595567238921
 20
-119.885188772112
 30
0.0
 10
100.9595567238921
 20
-119.885188772112
 30
0.0
 10
101.0632540979981
 20
-119.9000026826986
 30
0.0
 10
101.2244845667078
 20
-119.9043090520552
 30
0.0
 10
101.2744384512439
 20
-119.9043090520552
 30
0.0
 10
101.2744384512439
 20
-119.9043090520552
 30
0.0
 10
101.5838080258193
 20
-119.9043090520552
 30
0.0
 10
101.5838080258193
 20
-119.9043090520552
 30
0.0
 10
101.6003444841485
 20
-119.9043090520552
 30
0.0
 10
101.7781114111874
 20
-119.9043090520552
 30
0.0
 10
101.9021348486564
 20
-119.885188772112
 30
0.0
 10
101.9021348486564
 20
-119.885188772112
 30
0.0
 10
101.9021348486564
 20
-120.1201442842061
 30
0.0
 10
101.9021348486564
 20
-120.1201442842061
 30
0.0
 10
101.7650200483435
 20
-120.1010240042629
 30
0.0
 10
101.5986219364059
 20
-120.1010240042629
 30
0.0
 10
101.5838080258193
 20
-120.1010240042629
 30
0.0
  0
HATCH
  5
A1
330
80
100
AcDbEntity
  8
_U+30EC_U+30A4_U+30E4_U+30FC 1
 62
   179
420
  2234388
100
AcDbHatch
 10
0.0
 20
0.0
 30
0.0
210
0.0
220
0.0
230
1.0
  2
SOLID
 70
     1
 71
     0
 91
        2
 92
        1
 93
        1
 72
     4
 94
        3
 73
     0
 74
     1
 95
       47
 96
       43
 40
0.0
 40
0.0
 40
0.0
 40
0.0
 40
1.0
 40
1.0
 40
1.0
 40
2.0
 40
2.0
 40
2.0
 40
3.0
 40
3.0
 40
3.0
 40
4.0
 40
4.0
 40
4.0
 40
5.0
 40
5.0
 40
5.0
 40
6.0
 40
6.0
 40
6.0
 40
7.0
 40
7.0
 40
7.0
 40
8.0
 40
8.0
 40
8.0
 40
9.0
 40
9.0
 40
9.0
 40
10.0
 40
10.0
 40
10.0
 40
11.0
 40
11.0
 40
11.0
 40
12.0
 40
12.0
 40
12.0
 40
13.0
 40
13.0
 40
13.0
 40
14.0
 40
14.0
 40
14.0
 40
14.0
 10
101.6726914893388
 20
-120.6298461612488
 10
101.6726914893388
 20
-120.6298461612488
 10
101.5838080258193
 20
-120.6298461612488
 10
101.5838080258193
 20
-120.6298461612488
 10
101.5838080258193
 20
-120.7166625674771
 10
101.565204510199
 20
-121.1059583573103
 10
101.3929497359365
 20
-121.3259277040435
 10
101.2596245406573
 20
-121.4950818923693
 10
101.0780680085847
 20
-121.5650173307199
 10
101.0039984556518
 20
-121.5924058398276
 10
101.0039984556518
 20
-121.5924058398276
 10
100.8338107386804
 20
-121.425318708793
 10
100.8338107386804
 20
-121.425318708793
 10
100.9189045971661
 20
-121.4125718554976
 10
101.0725558558083
 20
-121.3893174609721
 10
101.2375759295517
 20
-121.2010429927032
 10
101.3023437246744
 20
-121.1292127518358
 10
101.3929497359365
 20
-120.9895141299089
 10
101.3929497359365
 20
-120.6298461612488
 10
101.3929497359365
 20
-120.6298461612488
 10
101.1910671405008
 20
-120.6298461612488
 10
101.1910671405008
 20
-120.6298461612488
 10
101.0281141240485
 20
-120.6298461612488
 10
100.8651611075962
 20
-120.6341525306054
 10
100.7022080911439
 20
-120.6489664411919
 10
100.7022080911439
 20
-120.6489664411919
 10
100.7022080911439
 20
-120.4289970944587
 10
100.7022080911439
 20
-120.4289970944587
 10
100.8668836553388
 20
-120.4438110050453
 10
101.116997587568
 20
-120.4479451196276
 10
101.1910671405008
 20
-120.4479451196276
 10
101.1910671405008
 20
-120.4479451196276
 10
101.6726914893388
 20
-120.4479451196276
 10
101.6726914893388
 20
-120.4479451196276
 10
101.689227947668
 20
-120.4479451196276
 10
101.9669026437791
 20
-120.4479451196276
 10
102.1670626914721
 20
-120.4289970944587
 10
102.1670626914721
 20
-120.4289970944587
 10
102.1670626914721
 20
-120.6489664411919
 10
102.1670626914721
 20
-120.6489664411919
 10
102.0020426177287
 20
-120.6341525306054
 10
101.8373670535337
 20
-120.6298461612488
 10
101.6726914893388
 20
-120.6298461612488
 97
        0
 97
        0
 92
        1
 93
        1
 72
     4
 94
        3
 73
     0
 74
     1
 95
       29
 96
       25
 40
0.0
 40
0.0
 40
0.0
 40
0.0
 40
1.0
 40
1.0
 40
1.0
 40
2.0
 40
2.0
 40
2.0
 40
3.0
 40
3.0
 40
3.0
 40
4.0
 40
4.0
 40
4.0
 40
5.0
 40
5.0
 40
5.0
 40
6.0
 40
6.0
 40
6.0
 40
7.0
 40
7.0
 40
7.0
 40
8.0
 40
8.0
 40
8.0
 40
8.0
 10
101.5838080258193
 20
-120.1010240042629
 10
101.5838080258193
 20
-120.1010240042629
 10
101.2744384512439
 20
-120.1010240042629
 10
101.2744384512439
 20
-120.1010240042629
 10
101.1762532299143
 20
-120.1010240042629
 10
101.0539523401879
 20
-120.1073974309107
 10
100.9595567238921
 20
-120.1201442842061
 10
100.9595567238921
 20
-120.1201442842061
 10
100.9595567238921
 20
-119.885188772112
 10
100.9595567238921
 20
-119.885188772112
 10
101.0632540979981
 20
-119.9000026826986
 10
101.2244845667078
 20
-119.9043090520552
 10
101.2744384512439
 20
-119.9043090520552
 10
101.2744384512439
 20
-119.9043090520552
 10
101.5838080258193
 20
-119.9043090520552
 10
101.5838080258193
 20
-119.9043090520552
 10
101.6003444841485
 20
-119.9043090520552
 10
101.7781114111874
 20
-119.9043090520552
 10
101.9021348486564
 20
-119.885188772112
 10
101.9021348486564
 20
-119.885188772112
 10
101.9021348486564
 20
-120.1201442842061
 10
101.9021348486564
 20
-120.1201442842061
 10
101.7650200483435
 20
-120.1010240042629
 10
101.5986219364059
 20
-120.1010240042629
 10
101.5838080258193
 20
-120.1010240042629
 97
        0
 97
        0
 75
     2
 76
     1
 98
        0
  0
SPLINE
  5
A2
330
80
100
AcDbEntity
  8
_U+30EC_U+30A4_U+30E4_U+30FC 1
370
     0
100
AcDbSpline
210
0.0
220
0.0
230
1.0
 70
    11
 71
     3
 72
    29
 73
    25
 74
     0
 42
0.0000000001
 43
0.0000000001
 12
1.0
 22
0.0
 32
0.0
 13
1.0
 23
0.0
 33
0.0
 40
0.0
 40
0.0
 40
0.0
 40
0.0
 40
1.0
 40
1.0
 40
1.0
 40
2.0
 40
2.0
 40
2.0
 40
3.0
 40
3.0
 40
3.0
 40
4.0
 40
4.0
 40
4.0
 40
5.0
 40
5.0
 40
5.0
 40
6.0
 40
6.0
 40
6.0
 40
7.0
 40
7.0
 40
7.0
 40
8.0
 40
8.0
 40
8.0
 40
8.0
 10
103.2894748005665
 20
-120.7927991777011
 30
0.0
 10
103.2894748005665
 20
-120.7927991777011
 30
0.0
 10
102.8653835463323
 20
-120.7927991777011
 30
0.0
 10
102.8653835463323
 20
-120.7927991777011
 30
0.0
 10
102.8412678779355
 20
-120.7927991777011
 30
0.0
 10
102.5632486722759
 20
-120.7927991777011
 30
0.0
 10
102.3782470447179
 20
-120.8181206295177
 30
0.0
 10
102.3782470447179
 20
-120.8181206295177
 30
0.0
 10
102.3782470447179
 20
-120.5876437415545
 30
0.0
 10
102.3782470447179
 20
-120.5876437415545
 30
0.0
 10
102.5170843927735
 20
-120.6108981360799
 30
0.0
 10
102.6838270142596
 20
-120.6129651933711
 30
0.0
 10
102.8653835463323
 20
-120.6129651933711
 30
0.0
 10
102.8653835463323
 20
-120.6129651933711
 30
0.0
 10
103.2894748005665
 20
-120.6129651933711
 30
0.0
 10
103.2894748005665
 20
-120.6129651933711
 30
0.0
 10
103.4520833074703
 20
-120.6129651933711
 30
0.0
 10
103.6153808334712
 20
-120.6108981360799
 30
0.0
 10
103.7762667926323
 20
-120.5876437415545
 30
0.0
 10
103.7762667926323
 20
-120.5876437415545
 30
0.0
 10
103.7762667926323
 20
-120.8181206295177
 30
0.0
 10
103.7762667926323
 20
-120.8181206295177
 30
0.0
 10
103.6153808334712
 20
-120.7948662349923
 30
0.0
 10
103.3986843274489
 20
-120.7927991777011
 30
0.0
 10
103.2894748005665
 20
-120.7927991777011
 30
0.0
  0
HATCH
  5
A3
330
80
100
AcDbEntity
  8
_U+30EC_U+30A4_U+30E4_U+30FC 1
 62
   179
420
  2234388
100
AcDbHatch
 10
0.0
 20
0.0
 30
0.0
210
0.0
220
0.0
230
1.0
  2
SOLID
 70
     1
 71
     0
 91
        1
 92
        1
 93
        1
 72
     4
 94
        3
 73
     0
 74
     1
 95
       29
 96
       25
 40
0.0
 40
0.0
 40
0.0
 40
0.0
 40
1.0
 40
1.0
 40
1.0
 40
2.0
 40
2.0
 40
2.0
 40
3.0
 40
3.0
 40
3.0
 40
4.0
 40
4.0
 40
4.0
 40
5.0
 40
5.0
 40
5.0
 40
6.0
 40
6.0
 40
6.0
 40
7.0
 40
7.0
 40
7.0
 40
8.0
 40
8.0
 40
8.0
 40
8.0
 10
103.2894748005665
 20
-120.7927991777011
 10
103.2894748005665
 20
-120.7927991777011
 10
102.8653835463323
 20
-120.7927991777011
 10
102.8653835463323
 20
-120.7927991777011
 10
102.8412678779355
 20
-120.7927991777011
 10
102.5632486722759
 20
-120.7927991777011
 10
102.3782470447179
 20
-120.8181206295177
 10
102.3782470447179
 20
-120.8181206295177
 10
102.3782470447179
 20
-120.5876437415545
 10
102.3782470447179
 20
-120.5876437415545
 10
102.5170843927735
 20
-120.6108981360799
 10
102.6838270142596
 20
-120.6129651933711
 10
102.8653835463323
 20
-120.6129651933711
 10
102.8653835463323
 20
-120.6129651933711
 10
103.2894748005665
 20
-120.6129651933711
 10
103.2894748005665
 20
-120.6129651933711
 10
103.4520833074703
 20
-120.6129651933711
 10
103.6153808334712
 20
-120.6108981360799
 10
103.7762667926323
 20
-120.5876437415545
 10
103.7762667926323
 20
-120.5876437415545
 10
103.7762667926323
 20
-120.8181206295177
 10
103.7762667926323
 20
-120.8181206295177
 10
103.6153808334712
 20
-120.7948662349923
 10
103.3986843274489
 20
-120.7927991777011
 10
103.2894748005665
 20
-120.7927991777011
 97
        0
 97
        0
 75
     2
 76
     1
 98
        0
  0
SPLINE
  5
A4
330
80
100
AcDbEntity
  8
_U+30EC_U+30A4_U+30E4_U+30FC 1
370
     0
100
AcDbSpline
210
0.0
220
0.0
230
1.0
 70
    11
 71
     3
 72
    44
 73
    40
 74
     0
 42
0.0000000001
 43
0.0000000001
 12
1.0
 22
0.0
 32
0.0
 13
1.0
 23
0.0
 33
0.0
 40
0.0
 40
0.0
 40
0.0
 40
0.0
 40
1.0
 40
1.0
 40
1.0
 40
2.0
 40
2.0
 40
2.0
 40
3.0
 40
3.0
 40
3.0
 40
4.0
 40
4.0
 40
4.0
 40
5.0
 40
5.0
 40
5.0
 40
6.0
 40
6.0
 40
6.0
 40
7.0
 40
7.0
 40
7.0
 40
8.0
 40
8.0
 40
8.0
 40
9.0
 40
9.0
 40
9.0
 40
10.0
 40
10.0
 40
10.0
 40
11.0
 40
11.0
 40
11.0
 40
12.0
 40
12.0
 40
12.0
 40
13.0
 40
13.0
 40
13.0
 40
13.0
 10
105.226307482374
 20
-120.3549275415259
 30
0.0
 10
105.1281222610444
 20
-120.7230359941248
 30
0.0
 10
105.0836805292846
 20
-120.8816826412206
 30
0.0
 10
104.9114257550222
 20
-121.1312798091269
 30
0.0
 10
104.750539795861
 20
-121.3619289518644
 30
0.0
 10
104.5431450476489
 20
-121.5479641080679
 30
0.0
 10
104.2985432681962
 20
-121.6411539409439
 30
0.0
 10
104.2985432681962
 20
-121.6411539409439
 30
0.0
 10
104.1300780989675
 20
-121.4613199566138
 30
0.0
 10
104.1300780989675
 20
-121.4613199566138
 30
0.0
 10
104.6912841535147
 20
-121.3090467361658
 30
0.0
 10
104.9799831551786
 20
-120.752663815298
 30
0.0
 10
105.0354491924911
 20
-120.3125528670573
 30
0.0
 10
105.0354491924911
 20
-120.3125528670573
 30
0.0
 10
104.36537812061
 20
-120.3125528670573
 30
0.0
 10
104.36537812061
 20
-120.3125528670573
 30
0.0
 10
104.2837293576096
 20
-120.3125528670573
 30
0.0
 10
104.1228433984485
 20
-120.3168592364138
 30
0.0
 10
103.9857285981355
 20
-120.3358072615827
 30
0.0
 10
103.9857285981355
 20
-120.3358072615827
 30
0.0
 10
103.9857285981355
 20
-120.1158379148495
 30
0.0
 10
103.9857285981355
 20
-120.1158379148495
 30
0.0
 10
104.061520698811
 20
-120.1370252520838
 30
0.0
 10
104.282006809867
 20
-120.1370252520838
 30
0.0
 10
104.3691677256438
 20
-120.1370252520838
 30
0.0
 10
104.3691677256438
 20
-120.1370252520838
 30
0.0
 10
104.7467501908272
 20
-120.1370252520838
 30
0.0
 10
104.7467501908272
 20
-120.1370252520838
 30
0.0
 10
104.7839572220679
 20
-120.1370252520838
 30
0.0
 10
104.9892849129888
 20
-120.1347859400184
 30
0.0
 10
105.0227023391957
 20
-120.1285847681449
 30
0.0
 10
105.0595648608879
 20
-120.1222113414972
 30
0.0
 10
105.061631918179
 20
-120.1201442842061
 30
0.0
 10
105.1153754077489
 20
-120.0798366670287
 30
0.0
 10
105.1153754077489
 20
-120.0798366670287
 30
0.0
 10
105.2800509719439
 20
-120.2343491995421
 30
0.0
 10
105.2800509719439
 20
-120.2343491995421
 30
0.0
 10
105.2542127558045
 20
-120.2639770207153
 30
0.0
 10
105.2411213929606
 20
-120.2956718991796
 30
0.0
 10
105.226307482374
 20
-120.3549275415259
 30
0.0
  0
SPLINE
  5
A5
330
80
100
AcDbEntity
  8
_U+30EC_U+30A4_U+30E4_U+30FC 1
370
     0
100
AcDbSpline
210
0.0
220
0.0
230
1.0
 70
    11
 71
     3
 72
    17
 73
    13
 74
     0
 42
0.0000000001
 43
0.0000000001
 12
1.0
 22
0.0
 32
0.0
 13
1.0
 23
0.0
 33
0.0
 40
0.0
 40
0.0
 40
0.0
 40
0.0
 40
1.0
 40
1.0
 40
1.0
 40
2.0
 40
2.0
 40
2.0
 40
3.0
 40
3.0
 40
3.0
 40
4.0
 40
4.0
 40
4.0
 40
4.0
 10
105.4095865621893
 20
-120.1559732772527
 30
0.0
 10
105.2986544875642
 20
-120.1559732772527
 30
0.0
 10
105.2097710240448
 20
-120.0545152152121
 30
0.0
 10
105.2097710240448
 20
-119.9275634465806
 30
0.0
 10
105.2097710240448
 20
-119.8006116779492
 30
0.0
 10
105.2986544875642
 20
-119.6969143038431
 30
0.0
 10
105.4095865621893
 20
-119.6969143038431
 30
0.0
 10
105.5208631463628
 20
-119.6969143038431
 30
0.0
 10
105.6114691576249
 20
-119.8006116779492
 30
0.0
 10
105.6114691576249
 20
-119.9275634465806
 30
0.0
 10
105.6114691576249
 20
-120.0545152152121
 30
0.0
 10
105.5208631463628
 20
-120.1559732772527
 30
0.0
 10
105.4095865621893
 20
-120.1559732772527
 30
0.0
  0
SPLINE
  5
A6
330
80
100
AcDbEntity
  8
_U+30EC_U+30A4_U+30E4_U+30FC 1
370
     0
100
AcDbSpline
210
0.0
220
0.0
230
1.0
 70
    11
 71
     3
 72
    17
 73
    13
 74
     0
 42
0.0000000001
 43
0.0000000001
 12
1.0
 22
0.0
 32
0.0
 13
1.0
 23
0.0
 33
0.0
 40
0.0
 40
0.0
 40
0.0
 40
0.0
 40
1.0
 40
1.0
 40
1.0
 40
2.0
 40
2.0
 40
2.0
 40
3.0
 40
3.0
 40
3.0
 40
4.0
 40
4.0
 40
4.0
 40
4.0
 10
105.4078640144466
 20
-119.8259331297657
 30
0.0
 10
105.3596326776532
 20
-119.8259331297657
 30
0.0
 10
105.3207030986698
 20
-119.8703748615255
 30
0.0
 10
105.3207030986698
 20
-119.9254963892895
 30
0.0
 10
105.3207030986698
 20
-119.9825127195704
 30
0.0
 10
105.3596326776532
 20
-120.0312608206866
 30
0.0
 10
105.4116536194804
 20
-120.0312608206866
 30
0.0
 10
105.4633300517592
 20
-120.0312608206866
 30
0.0
 10
105.4984700257087
 20
-119.9804456622792
 30
0.0
 10
105.4984700257087
 20
-119.9275634465806
 30
0.0
 10
105.4984700257087
 20
-119.8703748615255
 30
0.0
 10
105.4578178989828
 20
-119.8259331297657
 30
0.0
 10
105.4078640144466
 20
-119.8259331297657
 30
0.0
  0
HATCH
  5
A7
330
80
100
AcDbEntity
  8
_U+30EC_U+30A4_U+30E4_U+30FC 1
 62
   179
420
  2234388
100
AcDbHatch
 10
0.0
 20
0.0
 30
0.0
210
0.0
220
0.0
230
1.0
  2
SOLID
 70
     1
 71
     0
 91
        3
 92
        1
 93
        1
 72
     4
 94
        3
 73
     0
 74
     1
 95
       44
 96
       40
 40
0.0
 40
0.0
 40
0.0
 40
0.0
 40
1.0
 40
1.0
 40
1.0
 40
2.0
 40
2.0
 40
2.0
 40
3.0
 40
3.0
 40
3.0
 40
4.0
 40
4.0
 40
4.0
 40
5.0
 40
5.0
 40
5.0
 40
6.0
 40
6.0
 40
6.0
 40
7.0
 40
7.0
 40
7.0
 40
8.0
 40
8.0
 40
8.0
 40
9.0
 40
9.0
 40
9.0
 40
10.0
 40
10.0
 40
10.0
 40
11.0
 40
11.0
 40
11.0
 40
12.0
 40
12.0
 40
12.0
 40
13.0
 40
13.0
 40
13.0
 40
13.0
 10
105.226307482374
 20
-120.3549275415259
 10
105.1281222610444
 20
-120.7230359941248
 10
105.0836805292846
 20
-120.8816826412206
 10
104.9114257550222
 20
-121.1312798091269
 10
104.750539795861
 20
-121.3619289518644
 10
104.5431450476489
 20
-121.5479641080679
 10
104.2985432681962
 20
-121.6411539409439
 10
104.2985432681962
 20
-121.6411539409439
 10
104.1300780989675
 20
-121.4613199566138
 10
104.1300780989675
 20
-121.4613199566138
 10
104.6912841535147
 20
-121.3090467361658
 10
104.9799831551786
 20
-120.752663815298
 10
105.0354491924911
 20
-120.3125528670573
 10
105.0354491924911
 20
-120.3125528670573
 10
104.36537812061
 20
-120.3125528670573
 10
104.36537812061
 20
-120.3125528670573
 10
104.2837293576096
 20
-120.3125528670573
 10
104.1228433984485
 20
-120.3168592364138
 10
103.9857285981355
 20
-120.3358072615827
 10
103.9857285981355
 20
-120.3358072615827
 10
103.9857285981355
 20
-120.1158379148495
 10
103.9857285981355
 20
-120.1158379148495
 10
104.061520698811
 20
-120.1370252520838
 10
104.282006809867
 20
-120.1370252520838
 10
104.3691677256438
 20
-120.1370252520838
 10
104.3691677256438
 20
-120.1370252520838
 10
104.7467501908272
 20
-120.1370252520838
 10
104.7467501908272
 20
-120.1370252520838
 10
104.7839572220679
 20
-120.1370252520838
 10
104.9892849129888
 20
-120.1347859400184
 10
105.0227023391957
 20
-120.1285847681449
 10
105.0595648608879
 20
-120.1222113414972
 10
105.061631918179
 20
-120.1201442842061
 10
105.1153754077489
 20
-120.0798366670287
 10
105.1153754077489
 20
-120.0798366670287
 10
105.2800509719439
 20
-120.2343491995421
 10
105.2800509719439
 20
-120.2343491995421
 10
105.2542127558045
 20
-120.2639770207153
 10
105.2411213929606
 20
-120.2956718991796
 10
105.226307482374
 20
-120.3549275415259
 97
        0
 97
        0
 92
        1
 93
        1
 72
     4
 94
        3
 73
     0
 74
     1
 95
       17
 96
       13
 40
0.0
 40
0.0
 40
0.0
 40
0.0
 40
1.0
 40
1.0
 40
1.0
 40
2.0
 40
2.0
 40
2.0
 40
3.0
 40
3.0
 40
3.0
 40
4.0
 40
4.0
 40
4.0
 40
4.0
 10
105.4095865621893
 20
-120.1559732772527
 10
105.2986544875642
 20
-120.1559732772527
 10
105.2097710240448
 20
-120.0545152152121
 10
105.2097710240448
 20
-119.9275634465806
 10
105.2097710240448
 20
-119.8006116779492
 10
105.2986544875642
 20
-119.6969143038431
 10
105.4095865621893
 20
-119.6969143038431
 10
105.5208631463628
 20
-119.6969143038431
 10
105.6114691576249
 20
-119.8006116779492
 10
105.6114691576249
 20
-119.9275634465806
 10
105.6114691576249
 20
-120.0545152152121
 10
105.5208631463628
 20
-120.1559732772527
 10
105.4095865621893
 20
-120.1559732772527
 97
        0
 97
        0
 92
        1
 93
        1
 72
     4
 94
        3
 73
     0
 74
     1
 95
       17
 96
       13
 40
0.0
 40
0.0
 40
0.0
 40
0.0
 40
1.0
 40
1.0
 40
1.0
 40
2.0
 40
2.0
 40
2.0
 40
3.0
 40
3.0
 40
3.0
 40
4.0
 40
4.0
 40
4.0
 40
4.0
 10
105.4078640144466
 20
-119.8259331297657
 10
105.3596326776532
 20
-119.8259331297657
 10
105.3207030986698
 20
-119.8703748615255
 10
105.3207030986698
 20
-119.9254963892895
 10
105.3207030986698
 20
-119.9825127195704
 10
105.3596326776532
 20
-120.0312608206866
 10
105.4116536194804
 20
-120.0312608206866
 10
105.4633300517592
 20
-120.0312608206866
 10
105.4984700257087
 20
-119.9804456622792
 10
105.4984700257087
 20
-119.9275634465806
 10
105.4984700257087
 20
-119.8703748615255
 10
105.4578178989828
 20
-119.8259331297657
 10
105.4078640144466
 20
-119.8259331297657
 97
        0
 97
        0
 75
     2
 76
     1
 98
        0
  0
ENDBLK
  5
83
330
80
100
AcDbEntity
  8
0
100
AcDbBlockEnd
  0
BLOCK
  5
B6
330
B4
100
AcDbEntity
  8
0
100
AcDbBlockBegin
  2
block 3
 70
     0
 10
0.0
 20
0.0
 30
0.0
  3
block 3
  1

  0
POLYLINE
  5
B8
330
B4
100
AcDbEntity
  8
_U+30EC_U+30A4_U+30E4_U+30FC 1
370
     0
100
AcDb2dPolyline
 66
     1
 10
0.0
 20
0.0
 30
0.0
  0
VERTEX
  5
B9
330
B8
100
AcDbEntity
  8
_U+30EC_U+30A4_U+30E4_U+30FC 1
370
     0
100
AcDbVertex
100
AcDb2dVertex
 10
69.17407224833148
 20
-126.3259670365609
 30
0.0
  0
VERTEX
  5
BA
330
B8
100
AcDbEntity
  8
_U+30EC_U+30A4_U+30E4_U+30FC 1
370
     0
100
AcDbVertex
100
AcDb2dVertex
 10
69.52099336369615
 20
-126.3259670365609
 30
0.0
  0
VERTEX
  5
BB
330
B8
100
AcDbEntity
  8
_U+30EC_U+30A4_U+30E4_U+30FC 1
370
     0
100
AcDbVertex
100
AcDb2dVertex
 10
69.52099336369615
 20
-126.5166530716695
 30
0.0
  0
VERTEX
  5
BC
330
B8
100
AcDbEntity
  8
_U+30EC_U+30A4_U+30E4_U+30FC 1
370
     0
100
AcDbVertex
100
AcDb2dVertex
 10
69.17407224833148
 20
-126.5166530716695
 30
0.0
  0
VERTEX
  5
BD
330
B8
100
AcDbEntity
  8
_U+30EC_U+30A4_U+30E4_U+30FC 1
370
     0
100
AcDbVertex
100
AcDb2dVertex
 10
69.17407224833148
 20
-127.0906059795121
 30
0.0
  0
VERTEX
  5
BE
330
B8
100
AcDbEntity
  8
_U+30EC_U+30A4_U+30E4_U+30FC 1
370
     0
100
AcDbVertex
100
AcDb2dVertex
 10
68.94979653224172
 20
-127.0906059795121
 30
0.0
  0
VERTEX
  5
BF
330
B8
100
AcDbEntity
  8
_U+30EC_U+30A4_U+30E4_U+30FC 1
370
     0
100
AcDbVertex
100
AcDb2dVertex
 10
67.97672931243291
 20
-126.4963270083065
 30
0.0
  0
VERTEX
  5
C0
330
B8
100
AcDbEntity
  8
_U+30EC_U+30A4_U+30E4_U+30FC 1
370
     0
100
AcDbVertex
100
AcDb2dVertex
 10
67.97672931243291
 20
-126.3259670365609
 30
0.0
  0
VERTEX
  5
C1
330
B8
100
AcDbEntity
  8
_U+30EC_U+30A4_U+30E4_U+30FC 1
370
     0
100
AcDbVertex
100
AcDb2dVertex
 10
68.9751179840583
 20
-126.3259670365609
 30
0.0
  0
VERTEX
  5
C2
330
B8
100
AcDbEntity
  8
_U+30EC_U+30A4_U+30E4_U+30FC 1
370
     0
100
AcDbVertex
100
AcDb2dVertex
 10
68.9751179840583
 20
-126.1444105044882
 30
0.0
  0
VERTEX
  5
C3
330
B8
100
AcDbEntity
  8
_U+30EC_U+30A4_U+30E4_U+30FC 1
370
     0
100
AcDbVertex
100
AcDb2dVertex
 10
69.17407224833148
 20
-126.1444105044882
 30
0.0
  0
VERTEX
  5
C4
330
B8
100
AcDbEntity
  8
_U+30EC_U+30A4_U+30E4_U+30FC 1
370
     0
100
AcDbVertex
100
AcDb2dVertex
 10
69.17407224833148
 20
-126.3259670365609
 30
0.0
  0
SEQEND
  5
C5
330
B8
100
AcDbEntity
  8
_U+30EC_U+30A4_U+30E4_U+30FC 1
370
     0
  0
POLYLINE
  5
C6
330
B4
100
AcDbEntity
  8
_U+30EC_U+30A4_U+30E4_U+30FC 1
370
     0
100
AcDb2dPolyline
 66
     1
 10
0.0
 20
0.0
 30
0.0
  0
VERTEX
  5
C7
330
C6
100
AcDbEntity
  8
_U+30EC_U+30A4_U+30E4_U+30FC 1
370
     0
100
AcDbVertex
100
AcDb2dVertex
 10
68.319344058441
 20
-126.5166530716695
 30
0.0
  0
VERTEX
  5
C8
330
C6
100
AcDbEntity
  8
_U+30EC_U+30A4_U+30E4_U+30FC 1
370
     0
100
AcDbVertex
100
AcDb2dVertex
 10
68.9751179840583
 20
-126.916628657507
 30
0.0
  0
VERTEX
  5
C9
330
C6
100
AcDbEntity
  8
_U+30EC_U+30A4_U+30E4_U+30FC 1
370
     0
100
AcDbVertex
100
AcDb2dVertex
 10
68.9751179840583
 20
-126.5166530716695
 30
0.0
  0
VERTEX
  5
CA
330
C6
100
AcDbEntity
  8
_U+30EC_U+30A4_U+30E4_U+30FC 1
370
     0
100
AcDbVertex
100
AcDb2dVertex
 10
68.319344058441
 20
-126.5166530716695
 30
0.0
  0
SEQEND
  5
CB
330
C6
100
AcDbEntity
  8
_U+30EC_U+30A4_U+30E4_U+30FC 1
370
     0
  0
HATCH
  5
CC
330
B4
100
AcDbEntity
  8
_U+30EC_U+30A4_U+30E4_U+30FC 1
 62
   179
420
  2234388
100
AcDbHatch
 10
0.0
 20
0.0
 30
0.0
210
0.0
220
0.0
230
1.0
  2
SOLID
 70
     1
 71
     0
 91
        2
 92
        1
 93
       11
 72
     1
 10
69.17407224833148
 20
-126.3259670365609
 11
69.52099336369615
 21
-126.3259670365609
 72
     1
 10
69.52099336369615
 20
-126.3259670365609
 11
69.52099336369615
 21
-126.5166530716695
 72
     1
 10
69.52099336369615
 20
-126.5166530716695
 11
69.17407224833148
 21
-126.5166530716695
 72
     1
 10
69.17407224833148
 20
-126.5166530716695
 11
69.17407224833148
 21
-127.0906059795121
 72
     1
 10
69.17407224833148
 20
-127.0906059795121
 11
68.94979653224172
 21
-127.0906059795121
 72
     1
 10
68.94979653224172
 20
-127.0906059795121
 11
67.97672931243291
 21
-126.4963270083065
 72
     1
 10
67.97672931243291
 20
-126.4963270083065
 11
67.97672931243291
 21
-126.3259670365609
 72
     1
 10
67.97672931243291
 20
-126.3259670365609
 11
68.9751179840583
 21
-126.3259670365609
 72
     1
 10
68.9751179840583
 20
-126.3259670365609
 11
68.9751179840583
 21
-126.1444105044882
 72
     1
 10
68.9751179840583
 20
-126.1444105044882
 11
69.17407224833148
 21
-126.1444105044882
 72
     1
 10
69.17407224833148
 20
-126.1444105044882
 11
69.17407224833148
 21
-126.3259670365609
 97
        0
 92
        1
 93
        3
 72
     1
 10
68.319344058441
 20
-126.5166530716695
 11
68.9751179840583
 21
-126.916628657507
 72
     1
 10
68.9751179840583
 20
-126.916628657507
 11
68.9751179840583
 21
-126.5166530716695
 72
     1
 10
68.9751179840583
 20
-126.5166530716695
 11
68.319344058441
 21
-126.5166530716695
 97
        0
 75
     2
 76
     1
 98
        0
  0
SPLINE
  5
CD
330
B4
100
AcDbEntity
  8
_U+30EC_U+30A4_U+30E4_U+30FC 1
370
     0
100
AcDbSpline
210
0.0
220
0.0
230
1.0
 70
    11
 71
     3
 72
    29
 73
    25
 74
     0
 42
0.0000000001
 43
0.0000000001
 12
1.0
 22
0.0
 32
0.0
 13
1.0
 23
0.0
 33
0.0
 40
0.0
 40
0.0
 40
0.0
 40
0.0
 40
1.0
 40
1.0
 40
1.0
 40
2.0
 40
2.0
 40
2.0
 40
3.0
 40
3.0
 40
3.0
 40
4.0
 40
4.0
 40
4.0
 40
5.0
 40
5.0
 40
5.0
 40
6.0
 40
6.0
 40
6.0
 40
7.0
 40
7.0
 40
7.0
 40
8.0
 40
8.0
 40
8.0
 40
8.0
 10
69.34322643665725
 20
-125.2378336275447
 30
0.0
 10
69.55268824216044
 20
-125.3322292438406
 30
0.0
 10
69.57180852210358
 20
-125.4839856999658
 30
0.0
 10
69.57180852210358
 20
-125.5857882715549
 30
0.0
 10
69.57180852210358
 20
-125.7266926769017
 30
0.0
 10
69.5252997330527
 20
-125.8507161143707
 30
0.0
 10
69.34322643665725
 20
-125.9340874251137
 30
0.0
 10
69.14857854174063
 20
-126.0246934363758
 30
0.0
 10
68.91172822712971
 20
-126.0414021494792
 30
0.0
 10
68.7487752106774
 20
-126.0414021494792
 30
0.0
 10
68.60494247416821
 20
-126.0414021494792
 30
0.0
 10
68.35327824897071
 20
-126.0265882388927
 30
0.0
 10
68.15432398469753
 20
-125.9340874251137
 30
0.0
 10
67.95123560584206
 20
-125.8395195540436
 30
0.0
 10
67.92798121131662
 20
-125.6987874034711
 30
0.0
 10
67.92798121131662
 20
-125.5857882715549
 30
0.0
 10
67.92798121131662
 20
-125.4469509234994
 30
0.0
 10
67.97242294307634
 20
-125.3210326835135
 30
0.0
 10
68.15432398469753
 20
-125.2378336275447
 30
0.0
 10
68.346904822323
 20
-125.1506727117679
 30
0.0
 10
68.57531465299506
 20
-125.1303466484049
 30
0.0
 10
68.7487752106774
 20
-125.1303466484049
 30
0.0
 10
68.92016871106857
 20
-125.1303466484049
 30
0.0
 10
69.15081785380605
 20
-125.1489501640253
 30
0.0
 10
69.34322643665725
 20
-125.2378336275447
 30
0.0
  0
SPLINE
  5
CE
330
B4
100
AcDbEntity
  8
_U+30EC_U+30A4_U+30E4_U+30FC 1
370
     0
100
AcDbSpline
210
0.0
220
0.0
230
1.0
 70
    11
 71
     3
 72
    17
 73
    13
 74
     0
 42
0.0000000001
 43
0.0000000001
 12
1.0
 22
0.0
 32
0.0
 13
1.0
 23
0.0
 33
0.0
 40
0.0
 40
0.0
 40
0.0
 40
0.0
 40
1.0
 40
1.0
 40
1.0
 40
2.0
 40
2.0
 40
2.0
 40
3.0
 40
3.0
 40
3.0
 40
4.0
 40
4.0
 40
4.0
 40
4.0
 10
68.12056204894209
 20
-125.5857882715549
 30
0.0
 10
68.12056204894209
 20
-125.8043795800941
 30
0.0
 10
68.40409340737814
 20
-125.8452039615943
 30
0.0
 10
68.7487752106774
 20
-125.8452039615943
 30
0.0
 10
69.06830781693432
 20
-125.8452039615943
 30
0.0
 10
69.37716062718697
 20
-125.8136813379042
 30
0.0
 10
69.37716062718697
 20
-125.5857882715549
 30
0.0
 10
69.37716062718697
 20
-125.369264020307
 30
0.0
 10
69.09569632604205
 20
-125.3267170910642
 30
0.0
 10
68.7487752106774
 20
-125.3267170910642
 30
0.0
 10
68.42941485919474
 20
-125.3267170910642
 30
0.0
 10
68.12056204894209
 20
-125.3599622624968
 30
0.0
 10
68.12056204894209
 20
-125.5857882715549
 30
0.0
  0
HATCH
  5
CF
330
B4
100
AcDbEntity
  8
_U+30EC_U+30A4_U+30E4_U+30FC 1
 62
   179
420
  2234388
100
AcDbHatch
 10
0.0
 20
0.0
 30
0.0
210
0.0
220
0.0
230
1.0
  2
SOLID
 70
     1
 71
     0
 91
        2
 92
        1
 93
        1
 72
     4
 94
        3
 73
     0
 74
     1
 95
       29
 96
       25
 40
0.0
 40
0.0
 40
0.0
 40
0.0
 40
1.0
 40
1.0
 40
1.0
 40
2.0
 40
2.0
 40
2.0
 40
3.0
 40
3.0
 40
3.0
 40
4.0
 40
4.0
 40
4.0
 40
5.0
 40
5.0
 40
5.0
 40
6.0
 40
6.0
 40
6.0
 40
7.0
 40
7.0
 40
7.0
 40
8.0
 40
8.0
 40
8.0
 40
8.0
 10
69.34322643665725
 20
-125.2378336275447
 10
69.55268824216044
 20
-125.3322292438406
 10
69.57180852210358
 20
-125.4839856999658
 10
69.57180852210358
 20
-125.5857882715549
 10
69.57180852210358
 20
-125.7266926769017
 10
69.5252997330527
 20
-125.8507161143707
 10
69.34322643665725
 20
-125.9340874251137
 10
69.14857854174063
 20
-126.0246934363758
 10
68.91172822712971
 20
-126.0414021494792
 10
68.7487752106774
 20
-126.0414021494792
 10
68.60494247416821
 20
-126.0414021494792
 10
68.35327824897071
 20
-126.0265882388927
 10
68.15432398469753
 20
-125.9340874251137
 10
67.95123560584206
 20
-125.8395195540436
 10
67.92798121131662
 20
-125.6987874034711
 10
67.92798121131662
 20
-125.5857882715549
 10
67.92798121131662
 20
-125.4469509234994
 10
67.97242294307634
 20
-125.3210326835135
 10
68.15432398469753
 20
-125.2378336275447
 10
68.346904822323
 20
-125.1506727117679
 10
68.57531465299506
 20
-125.1303466484049
 10
68.7487752106774
 20
-125.1303466484049
 10
68.92016871106857
 20
-125.1303466484049
 10
69.15081785380605
 20
-125.1489501640253
 10
69.34322643665725
 20
-125.2378336275447
 97
        0
 97
        0
 92
        1
 93
        1
 72
     4
 94
        3
 73
     0
 74
     1
 95
       17
 96
       13
 40
0.0
 40
0.0
 40
0.0
 40
0.0
 40
1.0
 40
1.0
 40
1.0
 40
2.0
 40
2.0
 40
2.0
 40
3.0
 40
3.0
 40
3.0
 40
4.0
 40
4.0
 40
4.0
 40
4.0
 10
68.12056204894209
 20
-125.5857882715549
 10
68.12056204894209
 20
-125.8043795800941
 10
68.40409340737814
 20
-125.8452039615943
 10
68.7487752106774
 20
-125.8452039615943
 10
69.06830781693432
 20
-125.8452039615943
 10
69.37716062718697
 20
-125.8136813379042
 10
69.37716062718697
 20
-125.5857882715549
 10
69.37716062718697
 20
-125.369264020307
 10
69.09569632604205
 20
-125.3267170910642
 10
68.7487752106774
 20
-125.3267170910642
 10
68.42941485919474
 20
-125.3267170910642
 10
68.12056204894209
 20
-125.3599622624968
 10
68.12056204894209
 20
-125.5857882715549
 97
        0
 97
        0
 75
     2
 76
     1
 98
        0
  0
ENDBLK
  5
B7
330
B4
100
AcDbEntity
  8
0
100
AcDbBlockEnd
  0
BLOCK
  5
DE
330
DC
100
AcDbEntity
  8
0
100
AcDbBlockBegin
  2
block 4
 70
     0
 10
0.0
 20
0.0
 30
0.0
  3
block 4
  1

  0
POLYLINE
  5
E0
330
DC
100
AcDbEntity
  8
_U+30EC_U+30A4_U+30E4_U+30FC 1
370
     0
100
AcDb2dPolyline
 66
     1
 10
0.0
 20
0.0
 30
0.0
  0
VERTEX
  5
E1
330
E0
100
AcDbEntity
  8
_U+30EC_U+30A4_U+30E4_U+30FC 1
370
     0
100
AcDbVertex
100
AcDb2dVertex
 10
93.7868679236019
 20
-148.8191677145313
 30
0.0
  0
VERTEX
  5
E2
330
E0
100
AcDbEntity
  8
_U+30EC_U+30A4_U+30E4_U+30FC 1
370
     0
100
AcDbVertex
100
AcDb2dVertex
 10
93.7868679236019
 20
-149.166088829896
 30
0.0
  0
VERTEX
  5
E3
330
E0
100
AcDbEntity
  8
_U+30EC_U+30A4_U+30E4_U+30FC 1
370
     0
100
AcDbVertex
100
AcDb2dVertex
 10
93.59635414326758
 20
-149.166088829896
 30
0.0
  0
VERTEX
  5
E4
330
E0
100
AcDbEntity
  8
_U+30EC_U+30A4_U+30E4_U+30FC 1
370
     0
100
AcDbVertex
100
AcDb2dVertex
 10
93.59635414326758
 20
-148.8191677145313
 30
0.0
  0
VERTEX
  5
E5
330
E0
100
AcDbEntity
  8
_U+30EC_U+30A4_U+30E4_U+30FC 1
370
     0
100
AcDbVertex
100
AcDb2dVertex
 10
93.02205672587644
 20
-148.8191677145313
 30
0.0
  0
VERTEX
  5
E6
330
E0
100
AcDbEntity
  8
_U+30EC_U+30A4_U+30E4_U+30FC 1
370
     0
100
AcDbVertex
100
AcDb2dVertex
 10
93.02205672587644
 20
-148.5948919984416
 30
0.0
  0
VERTEX
  5
E7
330
E0
100
AcDbEntity
  8
_U+30EC_U+30A4_U+30E4_U+30FC 1
370
     0
100
AcDbVertex
100
AcDb2dVertex
 10
93.61668020663056
 20
-147.6216525238585
 30
0.0
  0
VERTEX
  5
E8
330
E0
100
AcDbEntity
  8
_U+30EC_U+30A4_U+30E4_U+30FC 1
370
     0
100
AcDbVertex
100
AcDb2dVertex
 10
93.7868679236019
 20
-147.6216525238585
 30
0.0
  0
VERTEX
  5
E9
330
E0
100
AcDbEntity
  8
_U+30EC_U+30A4_U+30E4_U+30FC 1
370
     0
100
AcDbVertex
100
AcDb2dVertex
 10
93.7868679236019
 20
-148.6203857050324
 30
0.0
  0
VERTEX
  5
EA
330
E0
100
AcDbEntity
  8
_U+30EC_U+30A4_U+30E4_U+30FC 1
370
     0
100
AcDbVertex
100
AcDb2dVertex
 10
93.96842445567457
 20
-148.6203857050324
 30
0.0
  0
VERTEX
  5
EB
330
E0
100
AcDbEntity
  8
_U+30EC_U+30A4_U+30E4_U+30FC 1
370
     0
100
AcDbVertex
100
AcDb2dVertex
 10
93.96842445567457
 20
-148.8191677145313
 30
0.0
  0
VERTEX
  5
EC
330
E0
100
AcDbEntity
  8
_U+30EC_U+30A4_U+30E4_U+30FC 1
370
     0
100
AcDbVertex
100
AcDb2dVertex
 10
93.7868679236019
 20
-148.8191677145313
 30
0.0
  0
SEQEND
  5
ED
330
E0
100
AcDbEntity
  8
_U+30EC_U+30A4_U+30E4_U+30FC 1
370
     0
  0
POLYLINE
  5
EE
330
DC
100
AcDbEntity
  8
_U+30EC_U+30A4_U+30E4_U+30FC 1
370
     0
100
AcDb2dPolyline
 66
     1
 10
0.0
 20
0.0
 30
0.0
  0
VERTEX
  5
EF
330
EE
100
AcDbEntity
  8
_U+30EC_U+30A4_U+30E4_U+30FC 1
370
     0
100
AcDbVertex
100
AcDb2dVertex
 10
93.59635414326758
 20
-147.9644395246409
 30
0.0
  0
VERTEX
  5
F0
330
EE
100
AcDbEntity
  8
_U+30EC_U+30A4_U+30E4_U+30FC 1
370
     0
100
AcDbVertex
100
AcDb2dVertex
 10
93.19603404788155
 20
-148.6203857050324
 30
0.0
  0
VERTEX
  5
F1
330
EE
100
AcDbEntity
  8
_U+30EC_U+30A4_U+30E4_U+30FC 1
370
     0
100
AcDbVertex
100
AcDb2dVertex
 10
93.59635414326758
 20
-148.6203857050324
 30
0.0
  0
VERTEX
  5
F2
330
EE
100
AcDbEntity
  8
_U+30EC_U+30A4_U+30E4_U+30FC 1
370
     0
100
AcDbVertex
100
AcDb2dVertex
 10
93.59635414326758
 20
-147.9644395246409
 30
0.0
  0
SEQEND
  5
F3
330
EE
100
AcDbEntity
  8
_U+30EC_U+30A4_U+30E4_U+30FC 1
370
     0
  0
HATCH
  5
F4
330
DC
100
AcDbEntity
  8
_U+30EC_U+30A4_U+30E4_U+30FC 1
 62
   179
420
  2234388
100
AcDbHatch
 10
0.0
 20
0.0
 30
0.0
210
0.0
220
0.0
230
1.0
  2
SOLID
 70
     1
 71
     0
 91
        2
 92
        1
 93
       11
 72
     1
 10
93.7868679236019
 20
-148.8191677145313
 11
93.7868679236019
 21
-149.166088829896
 72
     1
 10
93.7868679236019
 20
-149.166088829896
 11
93.59635414326758
 21
-149.166088829896
 72
     1
 10
93.59635414326758
 20
-149.166088829896
 11
93.59635414326758
 21
-148.8191677145313
 72
     1
 10
93.59635414326758
 20
-148.8191677145313
 11
93.02205672587644
 21
-148.8191677145313
 72
     1
 10
93.02205672587644
 20
-148.8191677145313
 11
93.02205672587644
 21
-148.5948919984416
 72
     1
 10
93.02205672587644
 20
-148.5948919984416
 11
93.61668020663056
 21
-147.6216525238585
 72
     1
 10
93.61668020663056
 20
-147.6216525238585
 11
93.7868679236019
 21
-147.6216525238585
 72
     1
 10
93.7868679236019
 20
-147.6216525238585
 11
93.7868679236019
 21
-148.6203857050324
 72
     1
 10
93.7868679236019
 20
-148.6203857050324
 11
93.96842445567457
 21
-148.6203857050324
 72
     1
 10
93.96842445567457
 20
-148.6203857050324
 11
93.96842445567457
 21
-148.8191677145313
 72
     1
 10
93.96842445567457
 20
-148.8191677145313
 11
93.7868679236019
 21
-148.8191677145313
 97
        0
 92
        1
 93
        3
 72
     1
 10
93.59635414326758
 20
-147.9644395246409
 11
93.19603404788155
 21
-148.6203857050324
 72
     1
 10
93.19603404788155
 20
-148.6203857050324
 11
93.59635414326758
 21
-148.6203857050324
 72
     1
 10
93.59635414326758
 20
-148.6203857050324
 11
93.59635414326758
 21
-147.9644395246409
 97
        0
 75
     2
 76
     1
 98
        0
  0
SPLINE
  5
F5
330
DC
100
AcDbEntity
  8
_U+30EC_U+30A4_U+30E4_U+30FC 1
370
     0
100
AcDbSpline
210
0.0
220
0.0
230
1.0
 70
    11
 71
     3
 72
    29
 73
    25
 74
     0
 42
0.0000000001
 43
0.0000000001
 12
1.0
 22
0.0
 32
0.0
 13
1.0
 23
0.0
 33
0.0
 40
0.0
 40
0.0
 40
0.0
 40
0.0
 40
1.0
 40
1.0
 40
1.0
 40
2.0
 40
2.0
 40
2.0
 40
3.0
 40
3.0
 40
3.0
 40
4.0
 40
4.0
 40
4.0
 40
5.0
 40
5.0
 40
5.0
 40
6.0
 40
6.0
 40
6.0
 40
7.0
 40
7.0
 40
7.0
 40
8.0
 40
8.0
 40
8.0
 40
8.0
 10
94.87517358739233
 20
-148.9883219028571
 30
0.0
 10
94.78077797109647
 20
-149.1977837083603
 30
0.0
 10
94.62884926019696
 20
-149.2167317335291
 30
0.0
 10
94.52687443383357
 20
-149.2167317335291
 30
0.0
 10
94.38631453803536
 20
-149.2167317335291
 30
0.0
 10
94.26229110056637
 20
-149.1702229444783
 30
0.0
 10
94.17891978982333
 20
-148.9883219028571
 30
0.0
 10
94.08796926901273
 20
-148.7936740079405
 30
0.0
 10
94.07143281068353
 20
-148.5566514385553
 30
0.0
 10
94.07143281068353
 20
-148.3940429316515
 30
0.0
 10
94.07143281068353
 20
-148.2500379403681
 30
0.0
 10
94.08624672127011
 20
-147.9982014603963
 30
0.0
 10
94.17891978982333
 20
-147.7994194508974
 30
0.0
 10
94.27331540611918
 20
-147.5965033268162
 30
0.0
 10
94.41387530191737
 20
-147.5730766775165
 30
0.0
 10
94.52687443383357
 20
-147.5730766775165
 30
0.0
 10
94.66571178188913
 20
-147.5730766775165
 30
0.0
 10
94.79180227664928
 20
-147.6175184092762
 30
0.0
 10
94.87517358739233
 20
-147.7994194508974
 30
0.0
 10
94.96198999362062
 20
-147.9920002885228
 30
0.0
 10
94.98266056653212
 20
-148.2204101191949
 30
0.0
 10
94.98266056653212
 20
-148.3940429316515
 30
0.0
 10
94.98266056653212
 20
-148.5652641772684
 30
0.0
 10
94.96405705091176
 20
-148.7957410652316
 30
0.0
 10
94.87517358739233
 20
-148.9883219028571
 30
0.0
  0
SPLINE
  5
F6
330
DC
100
AcDbEntity
  8
_U+30EC_U+30A4_U+30E4_U+30FC 1
370
     0
100
AcDbSpline
210
0.0
220
0.0
230
1.0
 70
    11
 71
     3
 72
    17
 73
    13
 74
     0
 42
0.0000000001
 43
0.0000000001
 12
1.0
 22
0.0
 32
0.0
 13
1.0
 23
0.0
 33
0.0
 40
0.0
 40
0.0
 40
0.0
 40
0.0
 40
1.0
 40
1.0
 40
1.0
 40
2.0
 40
2.0
 40
2.0
 40
3.0
 40
3.0
 40
3.0
 40
4.0
 40
4.0
 40
4.0
 40
4.0
 10
94.52687443383357
 20
-147.7656575151419
 30
0.0
 10
94.30845538006872
 20
-147.7656575151419
 30
0.0
 10
94.26780325334278
 20
-148.049188873578
 30
0.0
 10
94.26780325334278
 20
-148.3940429316515
 30
0.0
 10
94.26780325334278
 20
-148.7134032831342
 30
0.0
 10
94.29915362225854
 20
-149.0220838386125
 30
0.0
 10
94.52687443383357
 20
-149.0220838386125
 30
0.0
 10
94.74357093985577
 20
-149.0220838386125
 30
0.0
 10
94.78629012387287
 20
-148.7409640470161
 30
0.0
 10
94.78629012387287
 20
-148.3940429316515
 30
0.0
 10
94.78629012387287
 20
-148.0743380706203
 30
0.0
 10
94.75287269766595
 20
-147.7656575151419
 30
0.0
 10
94.52687443383357
 20
-147.7656575151419
 30
0.0
  0
HATCH
  5
F7
330
DC
100
AcDbEntity
  8
_U+30EC_U+30A4_U+30E4_U+30FC 1
 62
   179
420
  2234388
100
AcDbHatch
 10
0.0
 20
0.0
 30
0.0
210
0.0
220
0.0
230
1.0
  2
SOLID
 70
     1
 71
     0
 91
        2
 92
        1
 93
        1
 72
     4
 94
        3
 73
     0
 74
     1
 95
       29
 96
       25
 40
0.0
 40
0.0
 40
0.0
 40
0.0
 40
1.0
 40
1.0
 40
1.0
 40
2.0
 40
2.0
 40
2.0
 40
3.0
 40
3.0
 40
3.0
 40
4.0
 40
4.0
 40
4.0
 40
5.0
 40
5.0
 40
5.0
 40
6.0
 40
6.0
 40
6.0
 40
7.0
 40
7.0
 40
7.0
 40
8.0
 40
8.0
 40
8.0
 40
8.0
 10
94.87517358739233
 20
-148.9883219028571
 10
94.78077797109647
 20
-149.1977837083603
 10
94.62884926019696
 20
-149.2167317335291
 10
94.52687443383357
 20
-149.2167317335291
 10
94.38631453803536
 20
-149.2167317335291
 10
94.26229110056637
 20
-149.1702229444783
 10
94.17891978982333
 20
-148.9883219028571
 10
94.08796926901273
 20
-148.7936740079405
 10
94.07143281068353
 20
-148.5566514385553
 10
94.07143281068353
 20
-148.3940429316515
 10
94.07143281068353
 20
-148.2500379403681
 10
94.08624672127011
 20
-147.9982014603963
 10
94.17891978982333
 20
-147.7994194508974
 10
94.27331540611918
 20
-147.5965033268162
 10
94.41387530191737
 20
-147.5730766775165
 10
94.52687443383357
 20
-147.5730766775165
 10
94.66571178188913
 20
-147.5730766775165
 10
94.79180227664928
 20
-147.6175184092762
 10
94.87517358739233
 20
-147.7994194508974
 10
94.96198999362062
 20
-147.9920002885228
 10
94.98266056653212
 20
-148.2204101191949
 10
94.98266056653212
 20
-148.3940429316515
 10
94.98266056653212
 20
-148.5652641772684
 10
94.96405705091176
 20
-148.7957410652316
 10
94.87517358739233
 20
-148.9883219028571
 97
        0
 97
        0
 92
        1
 93
        1
 72
     4
 94
        3
 73
     0
 74
     1
 95
       17
 96
       13
 40
0.0
 40
0.0
 40
0.0
 40
0.0
 40
1.0
 40
1.0
 40
1.0
 40
2.0
 40
2.0
 40
2.0
 40
3.0
 40
3.0
 40
3.0
 40
4.0
 40
4.0
 40
4.0
 40
4.0
 10
94.52687443383357
 20
-147.7656575151419
 10
94.30845538006872
 20
-147.7656575151419
 10
94.26780325334278
 20
-148.049188873578
 10
94.26780325334278
 20
-148.3940429316515
 10
94.26780325334278
 20
-148.7134032831342
 10
94.29915362225854
 20
-149.0220838386125
 10
94.52687443383357
 20
-149.0220838386125
 10
94.74357093985577
 20
-149.0220838386125
 10
94.78629012387287
 20
-148.7409640470161
 10
94.78629012387287
 20
-148.3940429316515
 10
94.78629012387287
 20
-148.0743380706203
 10
94.75287269766595
 20
-147.7656575151419
 10
94.52687443383357
 20
-147.7656575151419
 97
        0
 97
        0
 75
     2
 76
     1
 98
        0
  0
ENDBLK
  5
DF
330
DC
100
AcDbEntity
  8
0
100
AcDbBlockEnd
  0
ENDSEC
  0
SECTION
  2
ENTITIES
  0
POLYLINE
  5
41
330
1F
100
AcDbEntity
  8
_U+30EC_U+30A4_U+30E4_U+30FC 1
 62
   179
420
  2234388
370
    25
100
AcDb2dPolyline
 66
     1
 10
0.0
 20
0.0
 30
0.0
  0
VERTEX
  5
42
330
41
100
AcDbEntity
  8
_U+30EC_U+30A4_U+30E4_U+30FC 1
 62
   179
420
  2234388
370
    25
100
AcDbVertex
100
AcDb2dVertex
 10
75.23469224726976
 20
-105.878982751308
 30
0.0
  0
VERTEX
  5
43
330
41
100
AcDbEntity
  8
_U+30EC_U+30A4_U+30E4_U+30FC 1
 62
   179
420
  2234388
370
    25
100
AcDbVertex
100
AcDb2dVertex
 10
75.23469224726976
 20
-144.8790246860028
 30
0.0
  0
SEQEND
  5
44
330
41
100
AcDbEntity
  8
_U+30EC_U+30A4_U+30E4_U+30FC 1
 62
   179
420
  2234388
370
    25
  0
POLYLINE
  5
45
330
1F
100
AcDbEntity
  8
_U+30EC_U+30A4_U+30E4_U+30FC 1
 62
   179
420
  2234388
370
    25
100
AcDb2dPolyline
 66
     1
 10
0.0
 20
0.0
 30
0.0
  0
VERTEX
  5
46
330
45
100
AcDbEntity
  8
_U+30EC_U+30A4_U+30E4_U+30FC 1
 62
   179
420
  2234388
370
    25
100
AcDbVertex
100
AcDb2dVertex
 10
75.23469224726976
 20
-144.8790246860028
 30
0.0
  0
VERTEX
  5
47
330
45
100
AcDbEntity
  8
_U+30EC_U+30A4_U+30E4_U+30FC 1
 62
   179
420
  2234388
370
    25
100
AcDbVertex
100
AcDb2dVertex
 10
114.2345568078559
 20
-144.8790246860028
 30
0.0
  0
SEQEND
  5
48
330
45
100
AcDbEntity
  8
_U+30EC_U+30A4_U+30E4_U+30FC 1
 62
   179
420
  2234388
370
    25
  0
POLYLINE
  5
49
330
1F
100
AcDbEntity
  8
_U+30EC_U+30A4_U+30E4_U+30FC 1
 62
   179
420
  2234388
370
    25
100
AcDb2dPolyline
 66
     1
 10
0.0
 20
0.0
 30
0.0
  0
VERTEX
  5
4A
330
49
100
AcDbEntity
  8
_U+30EC_U+30A4_U+30E4_U+30FC 1
 62
   179
420
  2234388
370
    25
100
AcDbVertex
100
AcDb2dVertex
 10
114.2345568078559
 20
-144.8790246860028
 30
0.0
  0
VERTEX
  5
4B
330
49
100
AcDbEntity
  8
_U+30EC_U+30A4_U+30E4_U+30FC 1
 62
   179
420
  2234388
370
    25
100
AcDbVertex
100
AcDb2dVertex
 10
114.2345568078559
 20
-145.4791349636299
 30
0.0
  0
SEQEND
  5
4C
330
49
100
AcDbEntity
  8
_U+30EC_U+30A4_U+30E4_U+30FC 1
 62
   179
420
  2234388
370
    25
  0
POLYLINE
  5
4D
330
1F
100
AcDbEntity
  8
_U+30EC_U+30A4_U+30E4_U+30FC 1
 62
   179
420
  2234388
370
    25
100
AcDb2dPolyline
 66
     1
 10
0.0
 20
0.0
 30
0.0
  0
VERTEX
  5
4E
330
4D
100
AcDbEntity
  8
_U+30EC_U+30A4_U+30E4_U+30FC 1
 62
   179
420
  2234388
370
    25
100
AcDbVertex
100
AcDb2dVertex
 10
74.6345467070252
 20
-105.878982751308
 30
0.0
  0
VERTEX
  5
4F
330
4D
100
AcDbEntity
  8
_U+30EC_U+30A4_U+30E4_U+30FC 1
 62
   179
420
  2234388
370
    25
100
AcDbVertex
100
AcDb2dVertex
 10
75.23469224726976
 20
-105.878982751308
 30
0.0
  0
SEQEND
  5
50
330
4D
100
AcDbEntity
  8
_U+30EC_U+30A4_U+30E4_U+30FC 1
 62
   179
420
  2234388
370
    25
  0
POLYLINE
  5
51
330
1F
100
AcDbEntity
  8
_U+30EC_U+30A4_U+30E4_U+30FC 1
  6
AI-Linetype-1
 62
   154
420
    23468
370
    25
100
AcDb2dPolyline
 66
     1
 10
0.0
 20
0.0
 30
0.0
  0
VERTEX
  5
52
330
51
100
AcDbEntity
  8
_U+30EC_U+30A4_U+30E4_U+30FC 1
  6
AI-Linetype-1
 62
   154
420
    23468
370
    25
100
AcDbVertex
100
AcDb2dVertex
 10
75.73422556785894
 20
-105.878982751308
 30
0.0
  0
VERTEX
  5
53
330
51
100
AcDbEntity
  8
_U+30EC_U+30A4_U+30E4_U+30FC 1
  6
AI-Linetype-1
 62
   154
420
    23468
370
    25
100
AcDbVertex
100
AcDb2dVertex
 10
75.73422556785894
 20
-125.8789780240858
 30
0.0
  0
SEQEND
  5
55
330
51
100
AcDbEntity
  8
_U+30EC_U+30A4_U+30E4_U+30FC 1
  6
AI-Linetype-1
 62
   154
420
    23468
370
    25
  0
POLYLINE
  5
56
330
1F
100
AcDbEntity
  8
_U+30EC_U+30A4_U+30E4_U+30FC 1
  6
AI-Linetype-2
 62
   154
420
    23468
370
    25
100
AcDb2dPolyline
 66
     1
 10
0.0
 20
0.0
 30
0.0
  0
VERTEX
  5
57
330
56
100
AcDbEntity
  8
_U+30EC_U+30A4_U+30E4_U+30FC 1
  6
AI-Linetype-2
 62
   154
420
    23468
370
    25
100
AcDbVertex
100
AcDb2dVertex
 10
94.23438565143609
 20
-144.3791385750162
 30
0.0
  0
VERTEX
  5
58
330
56
100
AcDbEntity
  8
_U+30EC_U+30A4_U+30E4_U+30FC 1
  6
AI-Linetype-2
 62
   154
420
    23468
370
    25
100
AcDbVertex
100
AcDb2dVertex
 10
114.2345568078559
 20
-144.3791385750162
 30
0.0
  0
SEQEND
  5
5A
330
56
100
AcDbEntity
  8
_U+30EC_U+30A4_U+30E4_U+30FC 1
  6
AI-Linetype-2
 62
   154
420
    23468
370
    25
  0
POLYLINE
  5
5B
330
1F
100
AcDbEntity
  8
_U+30EC_U+30A4_U+30E4_U+30FC 1
 62
   179
420
  2234388
370
     9
100
AcDb2dPolyline
 66
     1
 10
0.0
 20
0.0
 30
0.0
  0
VERTEX
  5
5C
330
5B
100
AcDbEntity
  8
_U+30EC_U+30A4_U+30E4_U+30FC 1
 62
   179
420
  2234388
370
     9
100
AcDbVertex
100
AcDb2dVertex
 10
76.23446444398567
 20
-121.3789799696552
 30
0.0
  0
VERTEX
  5
5D
330
5B
100
AcDbEntity
  8
_U+30EC_U+30A4_U+30E4_U+30FC 1
 62
   179
420
  2234388
370
     9
100
AcDbVertex
100
AcDb2dVertex
 10
95.92937699708214
 20
-121.3789799696552
 30
0.0
  0
SEQEND
  5
5E
330
5B
100
AcDbEntity
  8
_U+30EC_U+30A4_U+30E4_U+30FC 1
 62
   179
420
  2234388
370
     9
  0
POLYLINE
  5
5F
330
1F
100
AcDbEntity
  8
_U+30EC_U+30A4_U+30E4_U+30FC 1
 62
   179
420
  2234388
370
     9
100
AcDb2dPolyline
 66
     1
 10
0.0
 20
0.0
 30
0.0
  0
VERTEX
  5
60
330
5F
100
AcDbEntity
  8
_U+30EC_U+30A4_U+30E4_U+30FC 1
 62
   179
420
  2234388
370
     9
100
AcDbVertex
100
AcDb2dVertex
 10
76.23446444398567
 20
-121.3789799696552
 30
0.0
  0
VERTEX
  5
61
330
5F
100
AcDbEntity
  8
_U+30EC_U+30A4_U+30E4_U+30FC 1
 62
   179
420
  2234388
370
     9
100
AcDbVertex
100
AcDb2dVertex
 10
77.20044053045268
 20
-121.1202527474976
 30
0.0
  0
SEQEND
  5
62
330
5F
100
AcDbEntity
  8
_U+30EC_U+30A4_U+30E4_U+30FC 1
 62
   179
420
  2234388
370
     9
  0
POLYLINE
  5
63
330
1F
100
AcDbEntity
  8
_U+30EC_U+30A4_U+30E4_U+30FC 1
 62
   179
420
  2234388
370
     9
100
AcDb2dPolyline
 66
     1
 10
0.0
 20
0.0
 30
0.0
  0
VERTEX
  5
64
330
63
100
AcDbEntity
  8
_U+30EC_U+30A4_U+30E4_U+30FC 1
 62
   179
420
  2234388
370
     9
100
AcDbVertex
100
AcDb2dVertex
 10
76.23446444398567
 20
-121.3789799696552
 30
0.0
  0
VERTEX
  5
65
330
63
100
AcDbEntity
  8
_U+30EC_U+30A4_U+30E4_U+30FC 1
 62
   179
420
  2234388
370
     9
100
AcDbVertex
100
AcDb2dVertex
 10
77.20044053045268
 20
-121.6378835807016
 30
0.0
  0
SEQEND
  5
66
330
63
100
AcDbEntity
  8
_U+30EC_U+30A4_U+30E4_U+30FC 1
 62
   179
420
  2234388
370
     9
  0
POLYLINE
  5
67
330
1F
100
AcDbEntity
  8
_U+30EC_U+30A4_U+30E4_U+30FC 1
 62
   179
420
  2234388
370
     9
100
AcDb2dPolyline
 66
     1
 10
0.0
 20
0.0
 30
0.0
  0
VERTEX
  5
68
330
67
100
AcDbEntity
  8
_U+30EC_U+30A4_U+30E4_U+30FC 1
 62
   179
420
  2234388
370
     9
100
AcDbVertex
100
AcDb2dVertex
 10
99.23458719053698
 20
-143.8788996862525
 30
0.0
  0
VERTEX
  5
69
330
67
100
AcDbEntity
  8
_U+30EC_U+30A4_U+30E4_U+30FC 1
 62
   179
420
  2234388
370
     9
100
AcDbVertex
100
AcDb2dVertex
 10
99.49296162838975
 20
-142.9128882976054
 30
0.0
  0
SEQEND
  5
6A
330
67
100
AcDbEntity
  8
_U+30EC_U+30A4_U+30E4_U+30FC 1
 62
   179
420
  2234388
370
     9
  0
POLYLINE
  5
6B
330
1F
100
AcDbEntity
  8
_U+30EC_U+30A4_U+30E4_U+30FC 1
 62
   179
420
  2234388
370
     9
100
AcDb2dPolyline
 66
     1
 10
0.0
 20
0.0
 30
0.0
  0
VERTEX
  5
6C
330
6B
100
AcDbEntity
  8
_U+30EC_U+30A4_U+30E4_U+30FC 1
 62
   179
420
  2234388
370
     9
100
AcDbVertex
100
AcDb2dVertex
 10
99.23458719053698
 20
-143.8788996862525
 30
0.0
  0
VERTEX
  5
6D
330
6B
100
AcDbEntity
  8
_U+30EC_U+30A4_U+30E4_U+30FC 1
 62
   179
420
  2234388
370
     9
100
AcDbVertex
100
AcDb2dVertex
 10
99.23458719053698
 20
-122.7580588581993
 30
0.0
  0
SEQEND
  5
6E
330
6B
100
AcDbEntity
  8
_U+30EC_U+30A4_U+30E4_U+30FC 1
 62
   179
420
  2234388
370
     9
  0
POLYLINE
  5
6F
330
1F
100
AcDbEntity
  8
_U+30EC_U+30A4_U+30E4_U+30FC 1
 62
   179
420
  2234388
370
     9
100
AcDb2dPolyline
 66
     1
 10
0.0
 20
0.0
 30
0.0
  0
VERTEX
  5
70
330
6F
100
AcDbEntity
  8
_U+30EC_U+30A4_U+30E4_U+30FC 1
 62
   179
420
  2234388
370
     9
100
AcDbVertex
100
AcDb2dVertex
 10
99.23458719053698
 20
-143.8788996862525
 30
0.0
  0
VERTEX
  5
71
330
6F
100
AcDbEntity
  8
_U+30EC_U+30A4_U+30E4_U+30FC 1
 62
   179
420
  2234388
370
     9
100
AcDbVertex
100
AcDb2dVertex
 10
98.97550719714667
 20
-142.9128882976054
 30
0.0
  0
SEQEND
  5
72
330
6F
100
AcDbEntity
  8
_U+30EC_U+30A4_U+30E4_U+30FC 1
 62
   179
420
  2234388
370
     9
  0
POLYLINE
  5
73
330
1F
100
AcDbEntity
  8
_U+30EC_U+30A4_U+30E4_U+30FC 1
 62
   179
420
  2234388
370
    25
100
AcDb2dPolyline
 66
     1
 10
0.0
 20
0.0
 30
0.0
  0
VERTEX
  5
74
330
73
100
AcDbEntity
  8
_U+30EC_U+30A4_U+30E4_U+30FC 1
 62
   179
420
  2234388
370
    25
100
AcDbVertex
100
AcDb2dVertex
 10
75.16579474902748
 20
-145.8791144079749
 30
0.0
  0
VERTEX
  5
75
330
73
100
AcDbEntity
  8
_U+30EC_U+30A4_U+30E4_U+30FC 1
 62
   179
420
  2234388
370
    25
100
AcDbVertex
100
AcDb2dVertex
 10
114.2345568078559
 20
-145.4791349636299
 30
0.0
  0
SEQEND
  5
76
330
73
100
AcDbEntity
  8
_U+30EC_U+30A4_U+30E4_U+30FC 1
 62
   179
420
  2234388
370
    25
  0
POLYLINE
  5
77
330
1F
100
AcDbEntity
  8
_U+30EC_U+30A4_U+30E4_U+30FC 1
 62
   179
420
  2234388
370
    25
100
AcDb2dPolyline
 66
     1
 10
0.0
 20
0.0
 30
0.0
  0
VERTEX
  5
78
330
77
100
AcDbEntity
  8
_U+30EC_U+30A4_U+30E4_U+30FC 1
 62
   179
420
  2234388
370
    25
100
AcDbVertex
100
AcDb2dVertex
 10
74.6345467070252
 20
-105.878982751308
 30
0.0
  0
VERTEX
  5
79
330
77
100
AcDbEntity
  8
_U+30EC_U+30A4_U+30E4_U+30FC 1
 62
   179
420
  2234388
370
    25
100
AcDbVertex
100
AcDb2dVertex
 10
74.2342144950163
 20
-145.3730546858788
 30
0.0
  0
SEQEND
  5
7A
330
77
100
AcDbEntity
  8
_U+30EC_U+30A4_U+30E4_U+30FC 1
 62
   179
420
  2234388
370
    25
  0
SPLINE
  5
7B
330
1F
100
AcDbEntity
  8
_U+30EC_U+30A4_U+30E4_U+30FC 1
 62
   179
420
  2234388
370
    25
100
AcDbSpline
210
0.0
220
0.0
230
1.0
 70
     8
 71
     3
 72
    11
 73
     7
 74
     0
 42
0.0000000001
 43
0.0000000001
 12
1.0
 22
0.0
 32
0.0
 13
1.0
 23
0.0
 33
0.0
 40
0.0
 40
0.0
 40
0.0
 40
0.0
 40
1.0
 40
1.0
 40
1.0
 40
2.0
 40
2.0
 40
2.0
 40
2.0
 10
74.2342144950163
 20
-145.3730546858788
 30
0.0
 10
74.23146282841984
 20
-145.7044541302407
 30
0.0
 10
74.49675171054064
 20
-145.9755991301728
 30
0.0
 10
74.82815114653037
 20
-145.9790210746165
 30
0.0
 10
74.94873058789858
 20
-145.9800794079492
 30
0.0
 10
75.06588808490964
 20
-145.9452602412917
 30
0.0
 10
75.16579474902748
 20
-145.8791144079749
 30
0.0
  0
SPLINE
  5
7C
330
1F
100
AcDbEntity
  8
_U+30EC_U+30A4_U+30E4_U+30FC 1
 62
   179
420
  2234388
370
     9
100
AcDbSpline
210
0.0
220
0.0
230
1.0
 70
    11
 71
     3
 72
    17
 73
    13
 74
     0
 42
0.0000000001
 43
0.0000000001
 12
1.0
 22
0.0
 32
0.0
 13
1.0
 23
0.0
 33
0.0
 40
0.0
 40
0.0
 40
0.0
 40
0.0
 40
1.0
 40
1.0
 40
1.0
 40
2.0
 40
2.0
 40
2.0
 40
3.0
 40
3.0
 40
3.0
 40
4.0
 40
4.0
 40
4.0
 40
4.0
 10
70.33436387130516
 20
-105.878982751308
 30
0.0
 10
70.33436387130516
 20
-105.8238435846552
 30
0.0
 10
70.28959459565193
 20
-105.7790760846663
 30
0.0
 10
70.23445543039199
 20
-105.7790760846663
 30
0.0
 10
70.17935154290892
 20
-105.7790760846663
 30
0.0
 10
70.13454876627415
 20
-105.8238435846552
 30
0.0
 10
70.13454876627415
 20
-105.878982751308
 30
0.0
 10
70.13454876627415
 20
-105.9342630290721
 30
0.0
 10
70.17935154290892
 20
-105.9790658068385
 30
0.0
 10
70.23445543039199
 20
-105.9790658068385
 30
0.0
 10
70.28959459565193
 20
-105.9790658068385
 30
0.0
 10
70.33436387130516
 20
-105.9342630290721
 30
0.0
 10
70.33436387130516
 20
-105.878982751308
 30
0.0
  0
SPLINE
  5
7D
330
1F
100
AcDbEntity
  8
_U+30EC_U+30A4_U+30E4_U+30FC 1
 62
   179
420
  2234388
370
     9
100
AcDbSpline
210
0.0
220
0.0
230
1.0
 70
    11
 71
     3
 72
    17
 73
    13
 74
     0
 42
0.0000000001
 43
0.0000000001
 12
1.0
 22
0.0
 32
0.0
 13
1.0
 23
0.0
 33
0.0
 40
0.0
 40
0.0
 40
0.0
 40
0.0
 40
1.0
 40
1.0
 40
1.0
 40
2.0
 40
2.0
 40
2.0
 40
3.0
 40
3.0
 40
3.0
 40
4.0
 40
4.0
 40
4.0
 40
4.0
 10
70.33436387130516
 20
-145.8791144079749
 30
0.0
 10
70.33436387130516
 20
-145.8236577413216
 30
0.0
 10
70.28959459565193
 20
-145.7788549635555
 30
0.0
 10
70.23445543039199
 20
-145.7788549635555
 30
0.0
 10
70.17935154290892
 20
-145.7788549635555
 30
0.0
 10
70.13454876627415
 20
-145.8236577413216
 30
0.0
 10
70.13454876627415
 20
-145.8791144079749
 30
0.0
 10
70.13454876627415
 20
-145.9342535746273
 30
0.0
 10
70.17935154290892
 20
-145.9790210746165
 30
0.0
 10
70.23445543039199
 20
-145.9790210746165
 30
0.0
 10
70.28959459565193
 20
-145.9790210746165
 30
0.0
 10
70.33436387130516
 20
-145.9342535746273
 30
0.0
 10
70.33436387130516
 20
-145.8791144079749
 30
0.0
  0
SPLINE
  5
7E
330
1F
100
AcDbEntity
  8
_U+30EC_U+30A4_U+30E4_U+30FC 1
 62
   179
420
  2234388
370
     9
100
AcDbSpline
210
0.0
220
0.0
230
1.0
 70
    11
 71
     3
 72
    17
 73
    13
 74
     0
 42
0.0000000001
 43
0.0000000001
 12
1.0
 22
0.0
 32
0.0
 13
1.0
 23
0.0
 33
0.0
 40
0.0
 40
0.0
 40
0.0
 40
0.0
 40
1.0
 40
1.0
 40
1.0
 40
2.0
 40
2.0
 40
2.0
 40
3.0
 40
3.0
 40
3.0
 40
4.0
 40
4.0
 40
4.0
 40
4.0
 10
74.33412115913413
 20
-149.8788735736411
 30
0.0
 10
74.33412115913413
 20
-149.8237696847662
 30
0.0
 10
74.28935553698317
 20
-149.7789669069995
 30
0.0
 10
74.2342144950163
 20
-149.7789669069995
 30
0.0
 10
74.17911060753323
 20
-149.7789669069995
 30
0.0
 10
74.13430783089846
 20
-149.8237696847662
 30
0.0
 10
74.13430783089846
 20
-149.8788735736411
 30
0.0
 10
74.13430783089846
 20
-149.9343302402945
 30
0.0
 10
74.17911060753323
 20
-149.9791330180605
 30
0.0
 10
74.2342144950163
 20
-149.9791330180605
 30
0.0
 10
74.28935553698317
 20
-149.9791330180605
 30
0.0
 10
74.33412115913413
 20
-149.9343302402945
 30
0.0
 10
74.33412115913413
 20
-149.8788735736411
 30
0.0
  0
SPLINE
  5
7F
330
1F
100
AcDbEntity
  8
_U+30EC_U+30A4_U+30E4_U+30FC 1
 62
   179
420
  2234388
370
     9
100
AcDbSpline
210
0.0
220
0.0
230
1.0
 70
    11
 71
     3
 72
    17
 73
    13
 74
     0
 42
0.0000000001
 43
0.0000000001
 12
1.0
 22
0.0
 32
0.0
 13
1.0
 23
0.0
 33
0.0
 40
0.0
 40
0.0
 40
0.0
 40
0.0
 40
1.0
 40
1.0
 40
1.0
 40
2.0
 40
2.0
 40
2.0
 40
3.0
 40
3.0
 40
3.0
 40
4.0
 40
4.0
 40
4.0
 40
4.0
 10
114.3344634719737
 20
-149.8788735736411
 30
0.0
 10
114.3344634719737
 20
-149.8237696847662
 30
0.0
 10
114.289660695339
 20
-149.7789669069995
 30
0.0
 10
114.2345568078559
 20
-149.7789669069995
 30
0.0
 10
114.1794176425959
 20
-149.7789669069995
 30
0.0
 10
114.134650143738
 20
-149.8237696847662
 30
0.0
 10
114.134650143738
 20
-149.8788735736411
 30
0.0
 10
114.134650143738
 20
-149.9343302402945
 30
0.0
 10
114.1794176425959
 20
-149.9791330180605
 30
0.0
 10
114.2345568078559
 20
-149.9791330180605
 30
0.0
 10
114.289660695339
 20
-149.9791330180605
 30
0.0
 10
114.3344634719737
 20
-149.9343302402945
 30
0.0
 10
114.3344634719737
 20
-149.8788735736411
 30
0.0
  0
INSERT
  5
81
330
1F
100
AcDbEntity
  8
_U+30EC_U+30A4_U+30E4_U+30FC 1
100
AcDbBlockReference
  2
block 2
 10
0.0
 20
0.0
 30
0.0
  0
POLYLINE
  5
A8
330
1F
100
AcDbEntity
  8
_U+30EC_U+30A4_U+30E4_U+30FC 1
 62
   179
420
  2234388
370
     9
100
AcDb2dPolyline
 66
     1
 10
0.0
 20
0.0
 30
0.0
  0
VERTEX
  5
A9
330
A8
100
AcDbEntity
  8
_U+30EC_U+30A4_U+30E4_U+30FC 1
 62
   179
420
  2234388
370
     9
100
AcDbVertex
100
AcDb2dVertex
 10
70.23445543039199
 20
-145.8791144079749
 30
0.0
  0
VERTEX
  5
AA
330
A8
100
AcDbEntity
  8
_U+30EC_U+30A4_U+30E4_U+30FC 1
 62
   179
420
  2234388
370
     9
100
AcDbVertex
100
AcDb2dVertex
 10
70.23445543039199
 20
-105.878982751308
 30
0.0
  0
SEQEND
  5
AB
330
A8
100
AcDbEntity
  8
_U+30EC_U+30A4_U+30E4_U+30FC 1
 62
   179
420
  2234388
370
     9
  0
POLYLINE
  5
AC
330
1F
100
AcDbEntity
  8
_U+30EC_U+30A4_U+30E4_U+30FC 1
 62
   179
420
  2234388
370
     9
100
AcDb2dPolyline
 66
     1
 10
0.0
 20
0.0
 30
0.0
  0
VERTEX
  5
AD
330
AC
100
AcDbEntity
  8
_U+30EC_U+30A4_U+30E4_U+30FC 1
 62
   179
420
  2234388
370
     9
100
AcDbVertex
100
AcDb2dVertex
 10
72.62604175826642
 20
-145.8791144079749
 30
0.0
  0
VERTEX
  5
AE
330
AC
100
AcDbEntity
  8
_U+30EC_U+30A4_U+30E4_U+30FC 1
 62
   179
420
  2234388
370
     9
100
AcDbVertex
100
AcDb2dVertex
 10
69.23471851145295
 20
-145.8791144079749
 30
0.0
  0
SEQEND
  5
AF
330
AC
100
AcDbEntity
  8
_U+30EC_U+30A4_U+30E4_U+30FC 1
 62
   179
420
  2234388
370
     9
  0
POLYLINE
  5
B0
330
1F
100
AcDbEntity
  8
_U+30EC_U+30A4_U+30E4_U+30FC 1
 62
   179
420
  2234388
370
     9
100
AcDb2dPolyline
 66
     1
 10
0.0
 20
0.0
 30
0.0
  0
VERTEX
  5
B1
330
B0
100
AcDbEntity
  8
_U+30EC_U+30A4_U+30E4_U+30FC 1
 62
   179
420
  2234388
370
     9
100
AcDbVertex
100
AcDb2dVertex
 10
72.09412343850346
 20
-105.878982751308
 30
0.0
  0
VERTEX
  5
B2
330
B0
100
AcDbEntity
  8
_U+30EC_U+30A4_U+30E4_U+30FC 1
 62
   179
420
  2234388
370
     9
100
AcDbVertex
100
AcDb2dVertex
 10
69.23471851145295
 20
-105.878982751308
 30
0.0
  0
SEQEND
  5
B3
330
B0
100
AcDbEntity
  8
_U+30EC_U+30A4_U+30E4_U+30FC 1
 62
   179
420
  2234388
370
     9
  0
INSERT
  5
B5
330
1F
100
AcDbEntity
  8
_U+30EC_U+30A4_U+30E4_U+30FC 1
100
AcDbBlockReference
  2
block 3
 10
0.0
 20
0.0
 30
0.0
  0
POLYLINE
  5
D0
330
1F
100
AcDbEntity
  8
_U+30EC_U+30A4_U+30E4_U+30FC 1
 62
   179
420
  2234388
370
     9
100
AcDb2dPolyline
 66
     1
 10
0.0
 20
0.0
 30
0.0
  0
VERTEX
  5
D1
330
D0
100
AcDbEntity
  8
_U+30EC_U+30A4_U+30E4_U+30FC 1
 62
   179
420
  2234388
370
     9
100
AcDbVertex
100
AcDb2dVertex
 10
74.2342144950163
 20
-149.8788735736411
 30
0.0
  0
VERTEX
  5
D2
330
D0
100
AcDbEntity
  8
_U+30EC_U+30A4_U+30E4_U+30FC 1
 62
   179
420
  2234388
370
     9
100
AcDbVertex
100
AcDb2dVertex
 10
114.2345568078559
 20
-149.8788735736411
 30
0.0
  0
SEQEND
  5
D3
330
D0
100
AcDbEntity
  8
_U+30EC_U+30A4_U+30E4_U+30FC 1
 62
   179
420
  2234388
370
     9
  0
POLYLINE
  5
D4
330
1F
100
AcDbEntity
  8
_U+30EC_U+30A4_U+30E4_U+30FC 1
 62
   179
420
  2234388
370
     9
100
AcDb2dPolyline
 66
     1
 10
0.0
 20
0.0
 30
0.0
  0
VERTEX
  5
D5
330
D4
100
AcDbEntity
  8
_U+30EC_U+30A4_U+30E4_U+30FC 1
 62
   179
420
  2234388
370
     9
100
AcDbVertex
100
AcDb2dVertex
 10
74.2342144950163
 20
-147.918981351909
 30
0.0
  0
VERTEX
  5
D6
330
D4
100
AcDbEntity
  8
_U+30EC_U+30A4_U+30E4_U+30FC 1
 62
   179
420
  2234388
370
     9
100
AcDbVertex
100
AcDb2dVertex
 10
74.2342144950163
 20
-150.8789985733914
 30
0.0
  0
SEQEND
  5
D7
330
D4
100
AcDbEntity
  8
_U+30EC_U+30A4_U+30E4_U+30FC 1
 62
   179
420
  2234388
370
     9
  0
POLYLINE
  5
D8
330
1F
100
AcDbEntity
  8
_U+30EC_U+30A4_U+30E4_U+30FC 1
 62
   179
420
  2234388
370
     9
100
AcDb2dPolyline
 66
     1
 10
0.0
 20
0.0
 30
0.0
  0
VERTEX
  5
D9
330
D8
100
AcDbEntity
  8
_U+30EC_U+30A4_U+30E4_U+30FC 1
 62
   179
420
  2234388
370
     9
100
AcDbVertex
100
AcDb2dVertex
 10
114.2345568078559
 20
-148.0188880185506
 30
0.0
  0
VERTEX
  5
DA
330
D8
100
AcDbEntity
  8
_U+30EC_U+30A4_U+30E4_U+30FC 1
 62
   179
420
  2234388
370
     9
100
AcDbVertex
100
AcDb2dVertex
 10
114.2345568078559
 20
-150.8789985733914
 30
0.0
  0
SEQEND
  5
DB
330
D8
100
AcDbEntity
  8
_U+30EC_U+30A4_U+30E4_U+30FC 1
 62
   179
420
  2234388
370
     9
  0
INSERT
  5
DD
330
1F
100
AcDbEntity
  8
_U+30EC_U+30A4_U+30E4_U+30FC 1
100
AcDbBlockReference
  2
block 4
 10
0.0
 20
0.0
 30
0.0
  0
ENDSEC
  0
SECTION
  2
OBJECTS
  0
DICTIONARY
  5
C
330
0
100
AcDbDictionary
281
     1
  3
ACAD_GROUP
350
D
  3
ACAD_LAYOUT
350
1A
  3
ACAD_MATERIAL
350
3B
  3
ACAD_MLEADERSTYLE
350
F9
  3
ACAD_MLINESTYLE
350
17
  3
ACAD_PLOTSETTINGS
350
19
  3
ACAD_PLOTSTYLENAME
350
E
  3
ACAD_TABLESTYLE
350
F8
  3
ACAD_VISUALSTYLE
350
2A
  0
SUN
  5
3F
330
29
100
AcDbSun
 90
        1
290
     0
 63
     7
421
 16777215
 40
1.0
291
     1
 91
  2455826
 92
 54000000
292
     0
 70
     2
 71
   256
280
     1
  0
DICTIONARY
  5
D
102
{ACAD_REACTORS
330
C
102
}
330
C
100
AcDbDictionary
281
     1
  0
DICTIONARY
  5
1A
102
{ACAD_REACTORS
330
C
102
}
330
C
100
AcDbDictionary
281
     1
  3
Layout1
350
1E
  3
Layout2
350
26
  3
Model
350
22
  0
DICTIONARY
  5
3B
102
{ACAD_REACTORS
330
C
102
}
330
C
100
AcDbDictionary
281
     1
  3
ByBlock
350
3D
  3
ByLayer
350
3C
  3
Global
350
3E
  0
DICTIONARY
  5
F9
102
{ACAD_REACTORS
330
C
102
}
330
C
100
AcDbDictionary
281
     1
  0
DICTIONARY
  5
17
102
{ACAD_REACTORS
330
C
102
}
330
C
100
AcDbDictionary
281
     1
  3
Standard
350
18
  0
DICTIONARY
  5
19
102
{ACAD_REACTORS
330
C
102
}
330
C
100
AcDbDictionary
281
     1
  0
ACDBDICTIONARYWDFLT
  5
E
102
{ACAD_REACTORS
330
C
102
}
330
C
100
AcDbDictionary
281
     1
  3
Normal
350
F
100
AcDbDictionaryWithDefault
340
F
  0
DICTIONARY
  5
F8
102
{ACAD_REACTORS
330
C
102
}
330
C
100
AcDbDictionary
281
     1
  0
DICTIONARY
  5
2A
102
{ACAD_REACTORS
330
C
102
}
330
C
100
AcDbDictionary
281
     1
  3
2dWireframe
350
2F
  3
3D Hidden
350
31
  3
3dWireframe
350
30
  3
Basic
350
32
  3
Brighten
350
36
  3
ColorChange
350
3A
  3
Conceptual
350
34
  3
Dim
350
35
  3
Facepattern
350
39
  3
Flat
350
2B
  3
FlatWithEdges
350
2C
  3
Gouraud
350
2D
  3
GouraudWithEdges
350
2E
  3
Linepattern
350
38
  3
Realistic
350
33
  3
Thicken
350
37
  0
LAYOUT
  5
1E
102
{ACAD_REACTORS
330
1A
102
}
330
1A
100
AcDbPlotSettings
  1

  2
none_device
  4

  6

 40
0.0
 41
0.0
 42
0.0
 43
0.0
 44
0.0
 45
0.0
 46
0.0
 47
0.0
 48
0.0
 49
0.0
140
0.0
141
0.0
142
1.0
143
1.0
 70
   688
 72
     0
 73
     0
 74
     5
  7

 75
    16
 76
     0
 77
     2
 78
   300
147
1.0
148
0.0
149
0.0
100
AcDbLayout
  1
Layout1
 70
     1
 71
     1
 10
0.0
 20
0.0
 11
12.0
 21
9.0
 12
0.0
 22
0.0
 32
0.0
 14
1.000000000000000E+20
 24
1.000000000000000E+20
 34
1.000000000000000E+20
 15
-1.000000000000000E+20
 25
-1.000000000000000E+20
 35
-1.000000000000000E+20
146
0.0
 13
0.0
 23
0.0
 33
0.0
 16
1.0
 26
0.0
 36
0.0
 17
0.0
 27
1.0
 37
0.0
 76
     0
330
1B
  0
LAYOUT
  5
26
102
{ACAD_REACTORS
330
1A
102
}
330
1A
100
AcDbPlotSettings
  1

  2
none_device
  4

  6

 40
0.0
 41
0.0
 42
0.0
 43
0.0
 44
0.0
 45
0.0
 46
0.0
 47
0.0
 48
0.0
 49
0.0
140
0.0
141
0.0
142
1.0
143
1.0
 70
   688
 72
     0
 73
     0
 74
     5
  7

 75
    16
 76
     0
 77
     2
 78
   300
147
1.0
148
0.0
149
0.0
100
AcDbLayout
  1
Layout2
 70
     1
 71
     2
 10
0.0
 20
0.0
 11
0.0
 21
0.0
 12
0.0
 22
0.0
 32
0.0
 14
0.0
 24
0.0
 34
0.0
 15
0.0
 25
0.0
 35
0.0
146
0.0
 13
0.0
 23
0.0
 33
0.0
 16
1.0
 26
0.0
 36
0.0
 17
0.0
 27
1.0
 37
0.0
 76
     0
330
23
  0
LAYOUT
  5
22
102
{ACAD_REACTORS
330
1A
102
}
330
1A
100
AcDbPlotSettings
  1

  2
none_device
  4

  6

 40
0.0
 41
0.0
 42
0.0
 43
0.0
 44
0.0
 45
0.0
 46
0.0
 47
0.0
 48
0.0
 49
0.0
140
0.0
141
0.0
142
1.0
143
1.0
 70
  1712
 72
     0
 73
     0
 74
     0
  7

 75
     0
 76
     0
 77
     2
 78
   300
147
1.0
148
0.0
149
0.0
100
AcDbLayout
  1
Model
 70
     1
 71
     0
 10
0.0
 20
0.0
 11
12.0
 21
9.0
 12
0.0
 22
0.0
 32
0.0
 14
1.000000000000000E+20
 24
1.000000000000000E+20
 34
1.000000000000000E+20
 15
-1.000000000000000E+20
 25
-1.000000000000000E+20
 35
-1.000000000000000E+20
146
0.0
 13
0.0
 23
0.0
 33
0.0
 16
1.0
 26
0.0
 36
0.0
 17
0.0
 27
1.0
 37
0.0
 76
     0
330
1F
331
29
  0
MATERIAL
  5
3D
102
{ACAD_REACTORS
330
3B
102
}
330
3B
100
AcDbMaterial
  1
ByBlock
 72
     1
 94
      127
  0
MATERIAL
  5
3C
102
{ACAD_REACTORS
330
3B
102
}
330
3B
100
AcDbMaterial
  1
ByLayer
 72
     1
 94
      127
  0
MATERIAL
  5
3E
102
{ACAD_REACTORS
330
3B
102
}
330
3B
100
AcDbMaterial
  1
Global
 72
     1
 94
      127
  0
MLINESTYLE
  5
18
102
{ACAD_REACTORS
330
17
102
}
330
17
100
AcDbMlineStyle
  2
Standard
 70
     0
  3

 62
   256
 51
90.0
 52
90.0
 71
     2
 49
0.5
 62
   256
  6
BYLAYER
 49
-0.5
 62
   256
  6
BYLAYER
  0
ACDBPLACEHOLDER
  5
F
102
{ACAD_REACTORS
330
E
102
}
330
E
  0
VISUALSTYLE
  5
2F
102
{ACAD_REACTORS
330
2A
102
}
330
2A
100
AcDbVisualStyle
  2
2dWireframe
 70
     4
177
     2
291
     0
 71
     0
176
     1
 72
     2
176
     1
 73
     0
176
     1
 90
        0
176
     1
 40
-0.6
176
     1
 41
-30.0
176
     1
 62
     5
 63
     7
421
 16777215
176
     1
 74
     1
176
     1
 91
        4
176
     1
 64
     7
176
     1
 65
   257
176
     1
 75
     1
176
     1
175
     1
176
     1
 42
1.0
176
     1
 92
        0
176
     1
 66
   257
176
     1
 43
1.0
176
     1
 76
     1
176
     1
 77
     6
176
     1
 78
     2
176
     1
 67
     7
176
     1
 79
     5
176
     1
170
     0
176
     1
171
     0
176
     1
290
     0
176
     1
 93
        1
176
     1
 44
0.0
176
     1
173
     0
176
     1
  0
VISUALSTYLE
  5
31
102
{ACAD_REACTORS
330
2A
102
}
330
2A
100
AcDbVisualStyle
  2
3D Hidden
 70
     6
177
     2
291
     0
 71
     1
176
     1
 72
     2
176
     1
 73
     2
176
     1
 90
        0
176
     1
 40
-0.6
176
     1
 41
-30.0
176
     1
 62
     5
 63
     7
421
 16777215
176
     1
 74
     2
176
     1
 91
        2
176
     1
 64
     7
176
     1
 65
   257
176
     1
 75
     2
176
     1
175
     1
176
     1
 42
40.0
176
     1
 92
        0
176
     1
 66
   257
176
     1
 43
1.0
176
     1
 76
     1
176
     1
 77
     6
176
     1
 78
     2
176
     1
 67
     7
176
     1
 79
     3
176
     1
170
     0
176
     1
171
     0
176
     1
290
     0
176
     1
 93
        1
176
     1
 44
0.0
176
     1
173
     0
176
     1
  0
VISUALSTYLE
  5
30
102
{ACAD_REACTORS
330
2A
102
}
330
2A
100
AcDbVisualStyle
  2
3dWireframe
 70
     5
177
     2
291
     0
 71
     0
176
     1
 72
     2
176
     1
 73
     0
176
     1
 90
        0
176
     1
 40
-0.6
176
     1
 41
-30.0
176
     1
 62
     5
 63
     7
421
 16777215
176
     1
 74
     1
176
     1
 91
        4
176
     1
 64
     7
176
     1
 65
   257
176
     1
 75
     1
176
     1
175
     1
176
     1
 42
1.0
176
     1
 92
        0
176
     1
 66
   257
176
     1
 43
1.0
176
     1
 76
     1
176
     1
 77
     6
176
     1
 78
     2
176
     1
 67
     7
176
     1
 79
     5
176
     1
170
     0
176
     1
171
     0
176
     1
290
     0
176
     1
 93
        1
176
     1
 44
0.0
176
     1
173
     0
176
     1
  0
VISUALSTYLE
  5
32
102
{ACAD_REACTORS
330
2A
102
}
330
2A
100
AcDbVisualStyle
  2
Basic
 70
     7
177
     2
291
     1
 71
     1
176
     1
 72
     0
176
     1
 73
     1
176
     1
 90
        0
176
     1
 40
-0.6
176
     1
 41
-30.0
176
     1
 62
     5
 63
     7
421
 16777215
176
     1
 74
     0
176
     1
 91
        4
176
     1
 64
     7
176
     1
 65
   257
176
     1
 75
     1
176
     1
175
     1
176
     1
 42
1.0
176
     1
 92
        8
176
     1
 66
     7
176
     1
 43
1.0
176
     1
 76
     1
176
     1
 77
     6
176
     1
 78
     2
176
     1
 67
     7
176
     1
 79
     5
176
     1
170
     0
176
     1
171
     0
176
     1
290
     0
176
     1
 93
        1
176
     1
 44
0.0
176
     1
173
     0
176
     1
  0
VISUALSTYLE
  5
36
102
{ACAD_REACTORS
330
2A
102
}
330
2A
100
AcDbVisualStyle
  2
Brighten
 70
    12
177
     2
291
     1
 71
     2
176
     1
 72
     2
176
     1
 73
     0
176
     1
 90
        0
176
     1
 40
-0.6
176
     1
 41
-30.0
176
     1
 62
     5
 63
     7
421
 16777215
176
     1
 74
     1
176
     1
 91
        4
176
     1
 64
     7
176
     1
 65
   257
176
     1
 75
     1
176
     1
175
     1
176
     1
 42
1.0
176
     1
 92
        8
176
     1
 66
     7
176
     1
 43
1.0
176
     1
 76
     1
176
     1
 77
     6
176
     1
 78
     2
176
     1
 67
     7
176
     1
 79
     5
176
     1
170
     0
176
     1
171
     0
176
     1
290
     0
176
     1
 93
        1
176
     1
 44
50.0
176
     1
173
     0
176
     1
  0
VISUALSTYLE
  5
3A
102
{ACAD_REACTORS
330
2A
102
}
330
2A
100
AcDbVisualStyle
  2
ColorChange
 70
    16
177
     2
291
     1
 71
     2
176
     1
 72
     2
176
     1
 73
     3
176
     1
 90
        0
176
     1
 40
-0.6
176
     1
 41
-30.0
176
     1
 62
     5
 63
     8
421
  8421504
176
     1
 74
     1
176
     1
 91
        4
176
     1
 64
     7
176
     1
 65
   257
176
     1
 75
     1
176
     1
175
     1
176
     1
 42
1.0
176
     1
 92
        8
176
     1
 66
     8
424
  8421504
176
     1
 43
1.0
176
     1
 76
     1
176
     1
 77
     6
176
     1
 78
     2
176
     1
 67
     7
176
     1
 79
     5
176
     1
170
     0
176
     1
171
     0
176
     1
290
     0
176
     1
 93
        1
176
     1
 44
0.0
176
     1
173
     0
176
     1
  0
VISUALSTYLE
  5
34
102
{ACAD_REACTORS
330
2A
102
}
330
2A
100
AcDbVisualStyle
  2
Conceptual
 70
     9
177
     2
291
     0
 71
     3
176
     1
 72
     2
176
     1
 73
     0
176
     1
 90
        0
176
     1
 40
-0.6
176
     1
 41
-30.0
176
     1
 62
     5
 63
     7
421
 16777215
176
     1
 74
     2
176
     1
 91
        2
176
     1
 64
     7
176
     1
 65
   257
176
     1
 75
     1
176
     1
175
     1
176
     1
 42
40.0
176
     1
 92
        8
176
     1
 66
     7
176
     1
 43
1.0
176
     1
 76
     1
176
     1
 77
     6
176
     1
 78
     2
176
     1
 67
     7
176
     1
 79
     3
176
     1
170
     0
176
     1
171
     0
176
     1
290
     0
176
     1
 93
        1
176
     1
 44
0.0
176
     1
173
     0
176
     1
  0
VISUALSTYLE
  5
35
102
{ACAD_REACTORS
330
2A
102
}
330
2A
100
AcDbVisualStyle
  2
Dim
 70
    11
177
     2
291
     1
 71
     2
176
     1
 72
     2
176
     1
 73
     0
176
     1
 90
        0
176
     1
 40
-0.6
176
     1
 41
-30.0
176
     1
 62
     5
 63
     7
421
 16777215
176
     1
 74
     1
176
     1
 91
        4
176
     1
 64
     7
176
     1
 65
   257
176
     1
 75
     1
176
     1
175
     1
176
     1
 42
1.0
176
     1
 92
        8
176
     1
 66
     7
176
     1
 43
1.0
176
     1
 76
     1
176
     1
 77
     6
176
     1
 78
     2
176
     1
 67
     7
176
     1
 79
     5
176
     1
170
     0
176
     1
171
     0
176
     1
290
     0
176
     1
 93
        1
176
     1
 44
-50.0
176
     1
173
     0
176
     1
  0
VISUALSTYLE
  5
39
102
{ACAD_REACTORS
330
2A
102
}
330
2A
100
AcDbVisualStyle
  2
Facepattern
 70
    15
177
     2
291
     1
 71
     2
176
     1
 72
     2
176
     1
 73
     0
176
     1
 90
        0
176
     1
 40
-0.6
176
     1
 41
-30.0
176
     1
 62
     5
 63
     7
421
 16777215
176
     1
 74
     1
176
     1
 91
        4
176
     1
 64
     7
176
     1
 65
   257
176
     1
 75
     1
176
     1
175
     1
176
     1
 42
1.0
176
     1
 92
        8
176
     1
 66
     7
176
     1
 43
1.0
176
     1
 76
     1
176
     1
 77
     6
176
     1
 78
     2
176
     1
 67
     7
176
     1
 79
     5
176
     1
170
     0
176
     1
171
     0
176
     1
290
     0
176
     1
 93
        1
176
     1
 44
0.0
176
     1
173
     0
176
     1
  0
VISUALSTYLE
  5
2B
102
{ACAD_REACTORS
330
2A
102
}
330
2A
100
AcDbVisualStyle
  2
Flat
 70
     0
177
     2
291
     1
 71
     2
176
     1
 72
     1
176
     1
 73
     1
176
     1
 90
        2
176
     1
 40
-0.6
176
     1
 41
30.0
176
     1
 62
     5
 63
     7
421
 16777215
176
     1
 74
     0
176
     1
 91
        4
176
     1
 64
     7
176
     1
 65
   257
176
     1
 75
     1
176
     1
175
     1
176
     1
 42
1.0
176
     1
 92
        8
176
     1
 66
     7
176
     1
 43
1.0
176
     1
 76
     1
176
     1
 77
     6
176
     1
 78
     2
176
     1
 67
     7
176
     1
 79
     5
176
     1
170
     0
176
     1
171
     0
176
     1
290
     0
176
     1
 93
       13
176
     1
 44
0.0
176
     1
173
     0
176
     1
  0
VISUALSTYLE
  5
2C
102
{ACAD_REACTORS
330
2A
102
}
330
2A
100
AcDbVisualStyle
  2
FlatWithEdges
 70
     1
177
     2
291
     1
 71
     2
176
     1
 72
     1
176
     1
 73
     1
176
     1
 90
        2
176
     1
 40
-0.6
176
     1
 41
30.0
176
     1
 62
     5
 63
     7
421
 16777215
176
     1
 74
     1
176
     1
 91
        4
176
     1
 64
     7
176
     1
 65
   257
176
     1
 75
     1
176
     1
175
     1
176
     1
 42
1.0
176
     1
 92
        0
176
     1
 66
   257
176
     1
 43
1.0
176
     1
 76
     1
176
     1
 77
     6
176
     1
 78
     2
176
     1
 67
     7
176
     1
 79
     5
176
     1
170
     0
176
     1
171
     0
176
     1
290
     0
176
     1
 93
       13
176
     1
 44
0.0
176
     1
173
     0
176
     1
  0
VISUALSTYLE
  5
2D
102
{ACAD_REACTORS
330
2A
102
}
330
2A
100
AcDbVisualStyle
  2
Gouraud
 70
     2
177
     2
291
     1
 71
     2
176
     1
 72
     2
176
     1
 73
     1
176
     1
 90
        2
176
     1
 40
-0.6
176
     1
 41
30.0
176
     1
 62
     5
 63
     7
421
 16777215
176
     1
 74
     0
176
     1
 91
        4
176
     1
 64
     7
176
     1
 65
   257
176
     1
 75
     1
176
     1
175
     1
176
     1
 42
1.0
176
     1
 92
        0
176
     1
 66
     7
176
     1
 43
1.0
176
     1
 76
     1
176
     1
 77
     6
176
     1
 78
     2
176
     1
 67
     7
176
     1
 79
     5
176
     1
170
     0
176
     1
171
     0
176
     1
290
     0
176
     1
 93
       13
176
     1
 44
0.0
176
     1
173
     0
176
     1
  0
VISUALSTYLE
  5
2E
102
{ACAD_REACTORS
330
2A
102
}
330
2A
100
AcDbVisualStyle
  2
GouraudWithEdges
 70
     3
177
     2
291
     1
 71
     2
176
     1
 72
     2
176
     1
 73
     1
176
     1
 90
        2
176
     1
 40
-0.6
176
     1
 41
30.0
176
     1
 62
     5
 63
     7
421
 16777215
176
     1
 74
     1
176
     1
 91
        4
176
     1
 64
     7
176
     1
 65
   257
176
     1
 75
     1
176
     1
175
     1
176
     1
 42
1.0
176
     1
 92
        0
176
     1
 66
   257
176
     1
 43
1.0
176
     1
 76
     1
176
     1
 77
     6
176
     1
 78
     2
176
     1
 67
     7
176
     1
 79
     5
176
     1
170
     0
176
     1
171
     0
176
     1
290
     0
176
     1
 93
       13
176
     1
 44
0.0
176
     1
173
     0
176
     1
  0
VISUALSTYLE
  5
38
102
{ACAD_REACTORS
330
2A
102
}
330
2A
100
AcDbVisualStyle
  2
Linepattern
 70
    14
177
     2
291
     1
 71
     2
176
     1
 72
     2
176
     1
 73
     0
176
     1
 90
        0
176
     1
 40
-0.6
176
     1
 41
-30.0
176
     1
 62
     5
 63
     7
421
 16777215
176
     1
 74
     1
176
     1
 91
        4
176
     1
 64
     7
176
     1
 65
   257
176
     1
 75
     7
176
     1
175
     7
176
     1
 42
1.0
176
     1
 92
        8
176
     1
 66
     7
176
     1
 43
1.0
176
     1
 76
     1
176
     1
 77
     6
176
     1
 78
     2
176
     1
 67
     7
176
     1
 79
     5
176
     1
170
     0
176
     1
171
     0
176
     1
290
     0
176
     1
 93
        1
176
     1
 44
0.0
176
     1
173
     0
176
     1
  0
VISUALSTYLE
  5
33
102
{ACAD_REACTORS
330
2A
102
}
330
2A
100
AcDbVisualStyle
  2
Realistic
 70
     8
177
     2
291
     0
 71
     2
176
     1
 72
     2
176
     1
 73
     0
176
     1
 90
        0
176
     1
 40
-0.6
176
     1
 41
-30.0
176
     1
 62
     5
 63
     7
421
 16777215
176
     1
 74
     1
176
     1
 91
        0
176
     1
 64
     7
176
     1
 65
   257
176
     1
 75
     1
176
     1
175
     1
176
     1
 42
1.0
176
     1
 92
        8
176
     1
 66
     8
424
  7895160
176
     1
 43
1.0
176
     1
 76
     1
176
     1
 77
     6
176
     1
 78
     2
176
     1
 67
     7
176
     1
 79
     5
176
     1
170
     0
176
     1
171
     0
176
     1
290
     0
176
     1
 93
       13
176
     1
 44
0.0
176
     1
173
     0
176
     1
  0
VISUALSTYLE
  5
37
102
{ACAD_REACTORS
330
2A
102
}
330
2A
100
AcDbVisualStyle
  2
Thicken
 70
    13
177
     2
291
     1
 71
     2
176
     1
 72
     2
176
     1
 73
     0
176
     1
 90
        0
176
     1
 40
-0.6
176
     1
 41
-30.0
176
     1
 62
     5
 63
     7
421
 16777215
176
     1
 74
     1
176
     1
 91
        4
176
     1
 64
     7
176
     1
 65
   257
176
     1
 75
     1
176
     1
175
     1
176
     1
 42
1.0
176
     1
 92
       12
176
     1
 66
     7
176
     1
 43
1.0
176
     1
 76
     1
176
     1
 77
     6
176
     1
 78
     2
176
     1
 67
     7
176
     1
 79
     5
176
     1
170
     0
176
     1
171
     0
176
     1
290
     0
176
     1
 93
        1
176
     1
 44
0.0
176
     1
173
     0
176
     1
  0
ENDSEC
  0
EOF
