  0
SECTION
  2
HEADER
  9
$ACADVER
  1
AC1024
  9
$ACADMAINTVER
 70
     6
  9
$DWGCODEPAGE
  3
UNDEFINED
  9
$INSBASE
 10
0.0
 20
0.0
 30
0.0
  9
$EXTMIN
 10
1.000000000000000E+20
 20
1.000000000000000E+20
 30
1.000000000000000E+20
  9
$EXTMAX
 10
-1.000000000000000E+20
 20
-1.000000000000000E+20
 30
-1.000000000000000E+20
  9
$LIMMIN
 10
0.0
 20
0.0
  9
$LIMMAX
 10
12.0
 20
9.0
  9
$ORTHOMODE
 70
     0
  9
$REGENMODE
 70
     1
  9
$FILLMODE
 70
     1
  9
$QTEXTMODE
 70
     0
  9
$MIRRTEXT
 70
     1
  9
$LTSCALE
 40
1.0
  9
$ATTMODE
 70
     1
  9
$TEXTSIZE
 40
0.2
  9
$TRACEWID
 40
0.05
  9
$TEXTSTYLE
  7
Standard
  9
$CLAYER
  8
0
  9
$CELTYPE
  6
ByLayer
  9
$CECOLOR
 62
   256
  9
$CELTSCALE
 40
1.0
  9
$DISPSILH
 70
     0
  9
$DIMSCALE
 40
1.0
  9
$DIMASZ
 40
0.18
  9
$DIMEXO
 40
0.0625
  9
$DIMDLI
 40
0.38
  9
$DIMRND
 40
0.0
  9
$DIMDLE
 40
0.0
  9
$DIMEXE
 40
0.18
  9
$DIMTP
 40
0.0
  9
$DIMTM
 40
0.0
  9
$DIMTXT
 40
0.18
  9
$DIMCEN
 40
0.09
  9
$DIMTSZ
 40
0.0
  9
$DIMTOL
 70
     0
  9
$DIMLIM
 70
     0
  9
$DIMTIH
 70
     1
  9
$DIMTOH
 70
     1
  9
$DIMSE1
 70
     0
  9
$DIMSE2
 70
     0
  9
$DIMTAD
 70
     0
  9
$DIMZIN
 70
     0
  9
$DIMBLK
  1

  9
$DIMASO
 70
     1
  9
$DIMSHO
 70
     1
  9
$DIMPOST
  1

  9
$DIMAPOST
  1

  9
$DIMALT
 70
     0
  9
$DIMALTD
 70
     2
  9
$DIMALTF
 40
25.4
  9
$DIMLFAC
 40
1.0
  9
$DIMTOFL
 70
     0
  9
$DIMTVP
 40
0.0
  9
$DIMTIX
 70
     0
  9
$DIMSOXD
 70
     0
  9
$DIMSAH
 70
     0
  9
$DIMBLK1
  1

  9
$DIMBLK2
  1

  9
$DIMSTYLE
  2
Standard
  9
$DIMCLRD
 70
     0
  9
$DIMCLRE
 70
     0
  9
$DIMCLRT
 70
     0
  9
$DIMTFAC
 40
1.0
  9
$DIMGAP
 40
0.09
  9
$DIMJUST
 70
     0
  9
$DIMSD1
 70
     0
  9
$DIMSD2
 70
     0
  9
$DIMTOLJ
 70
     1
  9
$DIMTZIN
 70
     0
  9
$DIMALTZ
 70
     0
  9
$DIMALTTZ
 70
     0
  9
$DIMUPT
 70
     0
  9
$DIMDEC
 70
     4
  9
$DIMTDEC
 70
     4
  9
$DIMALTU
 70
     2
  9
$DIMALTTD
 70
     2
  9
$DIMTXSTY
  7
Standard
  9
$DIMAUNIT
 70
     0
  9
$DIMADEC
 70
     0
  9
$DIMALTRND
 40
0.0
  9
$DIMAZIN
 70
     0
  9
$DIMDSEP
 70
    46
  9
$DIMATFIT
 70
     3
  9
$DIMFRAC
 70
     0
  9
$DIMLDRBLK
  1

  9
$DIMLUNIT
 70
     2
  9
$DIMLWD
 70
    -2
  9
$DIMLWE
 70
    -2
  9
$DIMTMOVE
 70
     0
  9
$DIMFXL
 40
1.0
  9
$DIMFXLON
 70
     0
  9
$DIMJOGANG
 40
0.7853981633974483
  9
$DIMTFILL
 70
     0
  9
$DIMTFILLCLR
 70
     0
  9
$DIMARCSYM
 70
     0
  9
$DIMLTYPE
  6

  9
$DIMLTEX1
  6

  9
$DIMLTEX2
  6

  9
$DIMTXTDIRECTION
 70
     0
  9
$LUNITS
 70
     2
  9
$LUPREC
 70
     4
  9
$SKETCHINC
 40
0.1
  9
$FILLETRAD
 40
0.5
  9
$AUNITS
 70
     0
  9
$AUPREC
 70
     0
  9
$MENU
  1
.
  9
$ELEVATION
 40
0.0
  9
$PELEVATION
 40
0.0
  9
$THICKNESS
 40
0.0
  9
$LIMCHECK
 70
     0
  9
$CHAMFERA
 40
0.5
  9
$CHAMFERB
 40
0.5
  9
$CHAMFERC
 40
1.0
  9
$CHAMFERD
 40
0.0
  9
$SKPOLY
 70
     0
  9
$TDCREATE
 40
2458263.574143519
  9
$TDUCREATE
 40
2458263.199143519
  9
$TDUPDATE
 40
2458263.574143519
  9
$TDUUPDATE
 40
2458263.199143519
  9
$TDINDWG
 40
0.0000000116
  9
$TDUSRTIMER
 40
0.0000000116
  9
$USRTIMER
 70
     1
  9
$ANGBASE
 50
0.0
  9
$ANGDIR
 70
     0
  9
$PDMODE
 70
     0
  9
$PDSIZE
 40
0.0
  9
$PLINEWID
 40
0.0
  9
$SPLFRAME
 70
     0
  9
$SPLINETYPE
 70
     6
  9
$SPLINESEGS
 70
     8
  9
$HANDSEED
  5
29C
  9
$SURFTAB1
 70
     6
  9
$SURFTAB2
 70
     6
  9
$SURFTYPE
 70
     6
  9
$SURFU
 70
     6
  9
$SURFV
 70
     6
  9
$UCSBASE
  2

  9
$UCSNAME
  2

  9
$UCSORG
 10
0.0
 20
0.0
 30
0.0
  9
$UCSXDIR
 10
1.0
 20
0.0
 30
0.0
  9
$UCSYDIR
 10
0.0
 20
1.0
 30
0.0
  9
$UCSORTHOREF
  2

  9
$UCSORTHOVIEW
 70
     0
  9
$UCSORGTOP
 10
0.0
 20
0.0
 30
0.0
  9
$UCSORGBOTTOM
 10
0.0
 20
0.0
 30
0.0
  9
$UCSORGLEFT
 10
0.0
 20
0.0
 30
0.0
  9
$UCSORGRIGHT
 10
0.0
 20
0.0
 30
0.0
  9
$UCSORGFRONT
 10
0.0
 20
0.0
 30
0.0
  9
$UCSORGBACK
 10
0.0
 20
0.0
 30
0.0
  9
$PUCSBASE
  2

  9
$PUCSNAME
  2

  9
$PUCSORG
 10
0.0
 20
0.0
 30
0.0
  9
$PUCSXDIR
 10
1.0
 20
0.0
 30
0.0
  9
$PUCSYDIR
 10
0.0
 20
1.0
 30
0.0
  9
$PUCSORTHOREF
  2

  9
$PUCSORTHOVIEW
 70
     0
  9
$PUCSORGTOP
 10
0.0
 20
0.0
 30
0.0
  9
$PUCSORGBOTTOM
 10
0.0
 20
0.0
 30
0.0
  9
$PUCSORGLEFT
 10
0.0
 20
0.0
 30
0.0
  9
$PUCSORGRIGHT
 10
0.0
 20
0.0
 30
0.0
  9
$PUCSORGFRONT
 10
0.0
 20
0.0
 30
0.0
  9
$PUCSORGBACK
 10
0.0
 20
0.0
 30
0.0
  9
$USERI1
 70
     0
  9
$USERI2
 70
     0
  9
$USERI3
 70
     0
  9
$USERI4
 70
     0
  9
$USERI5
 70
     0
  9
$USERR1
 40
0.0
  9
$USERR2
 40
0.0
  9
$USERR3
 40
0.0
  9
$USERR4
 40
0.0
  9
$USERR5
 40
0.0
  9
$WORLDVIEW
 70
     1
  9
$SHADEDGE
 70
     3
  9
$SHADEDIF
 70
    70
  9
$TILEMODE
 70
     1
  9
$MAXACTVP
 70
    64
  9
$PINSBASE
 10
0.0
 20
0.0
 30
0.0
  9
$PLIMCHECK
 70
     0
  9
$PEXTMIN
 10
1.000000000000000E+20
 20
1.000000000000000E+20
 30
1.000000000000000E+20
  9
$PEXTMAX
 10
-1.000000000000000E+20
 20
-1.000000000000000E+20
 30
-1.000000000000000E+20
  9
$PLIMMIN
 10
0.0
 20
0.0
  9
$PLIMMAX
 10
12.0
 20
9.0
  9
$UNITMODE
 70
     0
  9
$VISRETAIN
 70
     1
  9
$PLINEGEN
 70
     0
  9
$PSLTSCALE
 70
     1
  9
$TREEDEPTH
 70
  3020
  9
$CMLSTYLE
  2
Standard
  9
$CMLJUST
 70
     0
  9
$CMLSCALE
 40
1.0
  9
$PROXYGRAPHICS
 70
     1
  9
$MEASUREMENT
 70
     0
  9
$CELWEIGHT
370
    -1
  9
$ENDCAPS
280
     0
  9
$JOINSTYLE
280
     0
  9
$LWDISPLAY
290
     1
  9
$INSUNITS
 70
     1
  9
$HYPERLINKBASE
  1

  9
$STYLESHEET
  1

  9
$XEDIT
290
     1
  9
$CEPSNTYPE
380
     0
  9
$PSTYLEMODE
290
     1
  9
$FINGERPRINTGUID
  2
{50DD3EDD-F324-B592-21CF-00B765CAF987}
  9
$VERSIONGUID
  2
{FAEB1C32-E019-11D5-929B-00C0DF256EC4}
  9
$EXTNAMES
290
     1
  9
$PSVPSCALE
 40
0.0
  9
$OLESTARTUP
290
     0
  9
$SORTENTS
280
   127
  9
$INDEXCTL
280
     0
  9
$HIDETEXT
280
     1
  9
$XCLIPFRAME
280
     2
  9
$HALOGAP
280
     0
  9
$OBSCOLOR
 70
   257
  9
$OBSLTYPE
280
     0
  9
$INTERSECTIONDISPLAY
280
     0
  9
$INTERSECTIONCOLOR
 70
   257
  9
$DIMASSOC
280
     2
  9
$PROJECTNAME
  1

  9
$CAMERADISPLAY
290
     0
  9
$LENSLENGTH
 40
50.0
  9
$CAMERAHEIGHT
 40
0.0
  9
$STEPSPERSEC
 40
2.0
  9
$STEPSIZE
 40
6.0
  9
$3DDWFPREC
 40
2.0
  9
$PSOLWIDTH
 40
0.25
  9
$PSOLHEIGHT
 40
4.0
  9
$LOFTANG1
 40
1.570796326794897
  9
$LOFTANG2
 40
1.570796326794897
  9
$LOFTMAG1
 40
0.0
  9
$LOFTMAG2
 40
0.0
  9
$LOFTPARAM
 70
     7
  9
$LOFTNORMALS
280
     1
  9
$LATITUDE
 40
37.795
  9
$LONGITUDE
 40
-122.394
  9
$NORTHDIRECTION
 40
0.0
  9
$TIMEZONE
 70
 -8000
  9
$LIGHTGLYPHDISPLAY
280
     1
  9
$TILEMODELIGHTSYNCH
280
     1
  9
$CMATERIAL
347
3C
  9
$SOLIDHIST
280
     1
  9
$SHOWHIST
280
     1
  9
$DWFFRAME
280
     2
  9
$DGNFRAME
280
     2
  9
$REALWORLDSCALE
290
     1
  9
$INTERFERECOLOR
 62
   256
  9
$CSHADOW
280
     0
  9
$SHADOWPLANELOCATION
 40
0.0
  0
ENDSEC
  0
SECTION
  2
CLASSES
  0
CLASS
  1
ACDBDICTIONARYWDFLT
  2
AcDbDictionaryWithDefault
  3
ObjectDBX Classes
 90
        0
 91
        4
280
     0
281
     0
  0
CLASS
  1
VISUALSTYLE
  2
AcDbVisualStyle
  3
ObjectDBX Classes
 90
     4095
 91
        4
280
     0
281
     0
  0
CLASS
  1
MATERIAL
  2
AcDbMaterial
  3
ObjectDBX Classes
 90
     1153
 91
        4
280
     0
281
     0
  0
CLASS
  1
SUN
  2
AcDbSun
  3
SCENEOE
 90
     1024
 91
        4
280
     0
281
     0
  0
ENDSEC
  0
SECTION
  2
TABLES
  0
TABLE
  2
VPORT
  5
8
330
0
100
AcDbSymbolTable
 70
     1
  0
VPORT
  5
29
330
8
100
AcDbSymbolTableRecord
100
AcDbViewportTableRecord
  2
*Active
 70
     0
 10
0.0
 20
0.0
 11
1.0
 21
1.0
 12
0.0
 22
0.0
 13
0.0
 23
0.0
 14
0.5
 24
0.5
 15
0.5
 25
0.5
 16
0.0
 26
0.0
 36
1.0
 17
105.0007777515277
 27
-148.5000416295416
 37
0.0
 40
297.0000832590831
 41
0.7070757462376333
 42
50.0
 43
0.0
 44
0.0
 50
0.0
 51
0.0
 71
     0
 72
   100
 73
     1
 74
     3
 75
     0
 76
     0
 77
     0
 78
     0
281
     0
 65
     1
110
0.0
120
0.0
130
0.0
111
1.0
121
0.0
131
0.0
112
0.0
122
1.0
132
0.0
 79
     0
146
0.0
 60
     3
 61
     5
292
     1
282
     1
141
0.0
142
0.0
 63
   250
361
3F
  0
ENDTAB
  0
TABLE
  2
LTYPE
  5
5
330
0
100
AcDbSymbolTable
 70
     3
  0
LTYPE
  5
14
330
5
100
AcDbSymbolTableRecord
100
AcDbLinetypeTableRecord
  2
ByBlock
 70
     0
  3

 72
    65
 73
     0
 40
0.0
  0
LTYPE
  5
15
330
5
100
AcDbSymbolTableRecord
100
AcDbLinetypeTableRecord
  2
ByLayer
 70
     0
  3

 72
    65
 73
     0
 40
0.0
  0
LTYPE
  5
16
330
5
100
AcDbSymbolTableRecord
100
AcDbLinetypeTableRecord
  2
Continuous
 70
     0
  3
Solid line
 72
    65
 73
     0
 40
0.0
  0
LTYPE
  5
146
330
5
100
AcDbSymbolTableRecord
100
AcDbLinetypeTableRecord
  2
AI-Linetype-1
 70
     0
  3
Adobe Illustrator Linetype No. 1
 72
    65
 73
     2
 40
1.411111110758333
 49
0.7055555553791667
 74
     0
 49
-0.7055555553791667
 74
     0
  0
LTYPE
  5
14B
330
5
100
AcDbSymbolTableRecord
100
AcDbLinetypeTableRecord
  2
AI-Linetype-2
 70
     0
  3
Adobe Illustrator Linetype No. 2
 72
    65
 73
     2
 40
1.411111110758333
 49
0.7055555553791667
 74
     0
 49
-0.7055555553791667
 74
     0
  0
ENDTAB
  0
TABLE
  2
LAYER
  5
2
330
0
100
AcDbSymbolTable
 70
     2
  0
LAYER
  5
10
330
2
100
AcDbSymbolTableRecord
100
AcDbLayerTableRecord
  2
0
 70
     0
 62
     7
  6
Continuous
370
    -3
390
F
347
3E
  0
LAYER
  5
40
330
2
100
AcDbSymbolTableRecord
100
AcDbLayerTableRecord
  2
_U+30EC_U+30A4_U+30E4_U+30FC 1
 70
     0
 62
     7
  6
Continuous
370
    -3
390
F
347
3E
  0
ENDTAB
  0
TABLE
  2
STYLE
  5
3
330
0
100
AcDbSymbolTable
 70
     1
  0
STYLE
  5
11
330
3
100
AcDbSymbolTableRecord
100
AcDbTextStyleTableRecord
  2
Standard
 70
     0
 40
0.0
 41
1.0
 50
0.0
 71
     0
 42
0.2
  3
txt
  4

  0
ENDTAB
  0
TABLE
  2
VIEW
  5
6
330
0
100
AcDbSymbolTable
 70
     0
  0
ENDTAB
  0
TABLE
  2
UCS
  5
7
330
0
100
AcDbSymbolTable
 70
     0
  0
ENDTAB
  0
TABLE
  2
APPID
  5
9
330
0
100
AcDbSymbolTable
 70
     1
  0
APPID
  5
12
330
9
100
AcDbSymbolTableRecord
100
AcDbRegAppTableRecord
  2
ACAD
 70
     0
  0
ENDTAB
  0
TABLE
  2
DIMSTYLE
  5
A
330
0
100
AcDbSymbolTable
 70
     1
100
AcDbDimStyleTable
  0
DIMSTYLE
105
27
330
A
100
AcDbSymbolTableRecord
100
AcDbDimStyleTableRecord
  2
Standard
 70
     0
178
     0
340
11
  0
ENDTAB
  0
TABLE
  2
BLOCK_RECORD
  5
1
330
0
100
AcDbSymbolTable
 70
     4
  0
BLOCK_RECORD
  5
1F
330
1
100
AcDbSymbolTableRecord
100
AcDbBlockTableRecord
  2
*Model_Space
340
22
 70
     0
280
     1
281
     0
  0
BLOCK_RECORD
  5
1B
330
1
100
AcDbSymbolTableRecord
100
AcDbBlockTableRecord
  2
*Paper_Space
340
1E
 70
     0
280
     1
281
     0
  0
BLOCK_RECORD
  5
23
330
1
100
AcDbSymbolTableRecord
100
AcDbBlockTableRecord
  2
*Paper_Space0
340
26
 70
     0
280
     1
281
     0
  0
BLOCK_RECORD
  5
55
330
1
100
AcDbSymbolTableRecord
100
AcDbBlockTableRecord
  2
block 2
340
0
102
{BLKREFS
331
56
102
}
 70
     0
280
     1
281
     0
  0
BLOCK_RECORD
  5
11B
330
1
100
AcDbSymbolTableRecord
100
AcDbBlockTableRecord
  2
block 3
340
0
102
{BLKREFS
331
11C
102
}
 70
     0
280
     1
281
     0
  0
BLOCK_RECORD
  5
12F
330
1
100
AcDbSymbolTableRecord
100
AcDbBlockTableRecord
  2
block 4
340
0
102
{BLKREFS
331
130
102
}
 70
     0
280
     1
281
     0
  0
ENDTAB
  0
ENDSEC
  0
SECTION
  2
BLOCKS
  0
BLOCK
  5
20
330
1F
100
AcDbEntity
  8
0
100
AcDbBlockBegin
  2
*Model_Space
 70
     0
 10
0.0
 20
0.0
 30
0.0
  3
*Model_Space
  1

  0
ENDBLK
  5
21
330
1F
100
AcDbEntity
  8
0
100
AcDbBlockEnd
  0
BLOCK
  5
1C
330
1B
100
AcDbEntity
 67
     1
  8
0
100
AcDbBlockBegin
  2
*Paper_Space
 70
     0
 10
0.0
 20
0.0
 30
0.0
  3
*Paper_Space
  1

  0
ENDBLK
  5
1D
330
1B
100
AcDbEntity
 67
     1
  8
0
100
AcDbBlockEnd
  0
BLOCK
  5
24
330
23
100
AcDbEntity
  8
0
100
AcDbBlockBegin
  2
*Paper_Space0
 70
     0
 10
0.0
 20
0.0
 30
0.0
  3
*Paper_Space0
  1

  0
ENDBLK
  5
25
330
23
100
AcDbEntity
  8
0
100
AcDbBlockEnd
  0
BLOCK
  5
57
330
55
100
AcDbEntity
  8
0
100
AcDbBlockBegin
  2
block 2
 70
     0
 10
0.0
 20
0.0
 30
0.0
  3
block 2
  1

  0
SPLINE
  5
59
330
55
100
AcDbEntity
  8
_U+30EC_U+30A4_U+30E4_U+30FC 1
370
     0
100
AcDbSpline
210
0.0
220
0.0
230
1.0
 70
    11
 71
     3
 72
   242
 73
   238
 74
     0
 42
0.0000000001
 43
0.0000000001
 12
1.0
 22
0.0
 32
0.0
 13
1.0
 23
0.0
 33
0.0
 40
0.0
 40
0.0
 40
0.0
 40
0.0
 40
1.0
 40
1.0
 40
1.0
 40
2.0
 40
2.0
 40
2.0
 40
3.0
 40
3.0
 40
3.0
 40
4.0
 40
4.0
 40
4.0
 40
5.0
 40
5.0
 40
5.0
 40
6.0
 40
6.0
 40
6.0
 40
7.0
 40
7.0
 40
7.0
 40
8.0
 40
8.0
 40
8.0
 40
9.0
 40
9.0
 40
9.0
 40
10.0
 40
10.0
 40
10.0
 40
11.0
 40
11.0
 40
11.0
 40
12.0
 40
12.0
 40
12.0
 40
13.0
 40
13.0
 40
13.0
 40
14.0
 40
14.0
 40
14.0
 40
15.0
 40
15.0
 40
15.0
 40
16.0
 40
16.0
 40
16.0
 40
17.0
 40
17.0
 40
17.0
 40
18.0
 40
18.0
 40
18.0
 40
19.0
 40
19.0
 40
19.0
 40
20.0
 40
20.0
 40
20.0
 40
21.0
 40
21.0
 40
21.0
 40
22.0
 40
22.0
 40
22.0
 40
23.0
 40
23.0
 40
23.0
 40
24.0
 40
24.0
 40
24.0
 40
25.0
 40
25.0
 40
25.0
 40
26.0
 40
26.0
 40
26.0
 40
27.0
 40
27.0
 40
27.0
 40
28.0
 40
28.0
 40
28.0
 40
29.0
 40
29.0
 40
29.0
 40
30.0
 40
30.0
 40
30.0
 40
31.0
 40
31.0
 40
31.0
 40
32.0
 40
32.0
 40
32.0
 40
33.0
 40
33.0
 40
33.0
 40
34.0
 40
34.0
 40
34.0
 40
35.0
 40
35.0
 40
35.0
 40
36.0
 40
36.0
 40
36.0
 40
37.0
 40
37.0
 40
37.0
 40
38.0
 40
38.0
 40
38.0
 40
39.0
 40
39.0
 40
39.0
 40
40.0
 40
40.0
 40
40.0
 40
41.0
 40
41.0
 40
41.0
 40
42.0
 40
42.0
 40
42.0
 40
43.0
 40
43.0
 40
43.0
 40
44.0
 40
44.0
 40
44.0
 40
45.0
 40
45.0
 40
45.0
 40
46.0
 40
46.0
 40
46.0
 40
47.0
 40
47.0
 40
47.0
 40
48.0
 40
48.0
 40
48.0
 40
49.0
 40
49.0
 40
49.0
 40
50.0
 40
50.0
 40
50.0
 40
51.0
 40
51.0
 40
51.0
 40
52.0
 40
52.0
 40
52.0
 40
53.0
 40
53.0
 40
53.0
 40
54.0
 40
54.0
 40
54.0
 40
55.0
 40
55.0
 40
55.0
 40
56.0
 40
56.0
 40
56.0
 40
57.0
 40
57.0
 40
57.0
 40
58.0
 40
58.0
 40
58.0
 40
59.0
 40
59.0
 40
59.0
 40
60.0
 40
60.0
 40
60.0
 40
61.0
 40
61.0
 40
61.0
 40
62.0
 40
62.0
 40
62.0
 40
63.0
 40
63.0
 40
63.0
 40
64.0
 40
64.0
 40
64.0
 40
65.0
 40
65.0
 40
65.0
 40
66.0
 40
66.0
 40
66.0
 40
67.0
 40
67.0
 40
67.0
 40
68.0
 40
68.0
 40
68.0
 40
69.0
 40
69.0
 40
69.0
 40
70.0
 40
70.0
 40
70.0
 40
71.0
 40
71.0
 40
71.0
 40
72.0
 40
72.0
 40
72.0
 40
73.0
 40
73.0
 40
73.0
 40
74.0
 40
74.0
 40
74.0
 40
75.0
 40
75.0
 40
75.0
 40
76.0
 40
76.0
 40
76.0
 40
77.0
 40
77.0
 40
77.0
 40
78.0
 40
78.0
 40
78.0
 40
79.0
 40
79.0
 40
79.0
 40
79.0
 10
102.4431870946149
 20
-151.8746229003994
 30
0.0
 10
102.4431870946149
 20
-151.8746229003994
 30
0.0
 10
102.2209784358163
 20
-151.8746229003994
 30
0.0
 10
102.2209784358163
 20
-151.8746229003994
 30
0.0
 10
102.2209784358163
 20
-151.8746229003994
 30
0.0
 10
101.9784437136547
 20
-151.8746229003994
 30
0.0
 10
101.9784437136547
 20
-151.8746229003994
 30
0.0
 10
101.9784437136547
 20
-151.8746229003994
 30
0.0
 10
102.089548043054
 20
-151.916997574868
 30
0.0
 10
102.089548043054
 20
-151.916997574868
 30
0.0
 10
102.0988498008642
 20
-151.9211316894503
 30
0.0
 10
102.109874106417
 20
-151.9273328613237
 30
0.0
 10
102.109874106417
 20
-151.9400797146191
 30
0.0
 10
102.109874106417
 20
-151.9610947970792
 30
0.0
 10
102.0821410877607
 20
-151.9676404785012
 30
0.0
 10
102.0635375721404
 20
-151.9717745930834
 30
0.0
 10
102.0544080691045
 20
-151.9952012423832
 30
0.0
 10
102.0283975981908
 20
-152.0606580566029
 30
0.0
 10
102.0116888850874
 20
-152.1050997883626
 30
0.0
 10
102.0116888850874
 20
-152.1050997883626
 30
0.0
 10
102.2487114544726
 20
-152.1050997883626
 30
0.0
 10
102.2487114544726
 20
-152.1050997883626
 30
0.0
 10
102.3282931601818
 20
-152.1050997883626
 30
0.0
 10
102.5005479344443
 20
-152.1009656737803
 30
0.0
 10
102.6245713719133
 20
-152.0923529350672
 30
0.0
 10
102.6245713719133
 20
-152.0923529350672
 30
0.0
 10
102.6245713719133
 20
-152.2701198621061
 30
0.0
 10
102.6245713719133
 20
-152.2701198621061
 30
0.0
 10
102.5523966214973
 20
-152.2659857475238
 30
0.0
 10
102.5339653606512
 20
-152.2659857475238
 30
0.0
 10
102.3765244969753
 20
-152.261507123393
 30
0.0
 10
102.3487914783191
 20
-152.4161919106807
 30
0.0
 10
102.3098618993357
 20
-152.496462635487
 30
0.0
 10
102.2709323203524
 20
-152.5663980738376
 30
0.0
 10
102.3765244969753
 20
-152.6256537161839
 30
0.0
 10
102.4691975655285
 20
-152.6931775876948
 30
0.0
 10
102.5598035767906
 20
-152.7758598793408
 30
0.0
 10
102.5598035767906
 20
-152.7758598793408
 30
0.0
 10
102.4561062026846
 20
-152.9429470103754
 30
0.0
 10
102.4561062026846
 20
-152.9429470103754
 30
0.0
 10
102.4357801393216
 20
-152.923654475658
 30
0.0
 10
102.4247558337688
 20
-152.9153862464934
 30
0.0
 10
102.3265706124392
 20
-152.8306368975562
 30
0.0
 10
102.2838514284221
 20
-152.7927408472185
 30
0.0
 10
102.2321749961434
 20
-152.7565673446234
 30
0.0
 10
102.16172279347
 20
-152.7121256128636
 30
0.0
 10
101.9765489111378
 20
-152.8985052786157
 30
0.0
 10
101.796887181582
 20
-152.9215874183668
 30
0.0
 10
101.5431558990934
 20
-152.95121523954
 30
0.0
 10
101.5431558990934
 20
-152.95121523954
 30
0.0
 10
101.4525498878313
 20
-152.7713812552099
 30
0.0
 10
101.4525498878313
 20
-152.7713812552099
 30
0.0
 10
101.7302245839424
 20
-152.7672471406276
 30
0.0
 10
101.8838758425846
 20
-152.7417534340368
 30
0.0
 10
102.0172010378638
 20
-152.6318548880573
 30
0.0
 10
101.9135036637577
 20
-152.5812119844242
 30
0.0
 10
101.8358167605654
 20
-152.5536512205422
 30
0.0
 10
101.8042941368753
 20
-152.5409043672467
 30
0.0
 10
101.7877576785461
 20
-152.5684651311287
 30
0.0
 10
101.7746663157022
 20
-152.5874131562976
 30
0.0
 10
101.7505506473054
 20
-152.6211750920531
 30
0.0
 10
101.7505506473054
 20
-152.6211750920531
 30
0.0
 10
101.5784681278172
 20
-152.5388373099556
 30
0.0
 10
101.5784681278172
 20
-152.5388373099556
 30
0.0
 10
101.6506428782332
 20
-152.4585665851492
 30
0.0
 10
101.7043863678031
 20
-152.3631374402078
 30
0.0
 10
101.7543402523392
 20
-152.261507123393
 30
0.0
 10
101.5875976308531
 20
-152.2659857475238
 30
0.0
 10
101.569166370007
 20
-152.2659857475238
 30
0.0
 10
101.496991619591
 20
-152.2701198621061
 30
0.0
 10
101.496991619591
 20
-152.2701198621061
 30
0.0
 10
101.496991619591
 20
-152.0923529350672
 30
0.0
 10
101.496991619591
 20
-152.0923529350672
 30
0.0
 10
101.6191202545431
 20
-152.0988986164892
 30
0.0
 10
101.8025715891327
 20
-152.1030327310715
 30
0.0
 10
101.8246202002383
 20
-152.1030327310715
 30
0.0
 10
101.8394341108249
 20
-152.069270795316
 30
0.0
 10
101.8876654476184
 20
-151.9486924533323
 30
0.0
 10
101.9043741607218
 20
-151.8746229003994
 30
0.0
 10
101.8876654476184
 20
-151.8746229003994
 30
0.0
 10
101.7321193864593
 20
-151.8808240722728
 30
0.0
 10
101.5617594147137
 20
-151.8935709255683
 30
0.0
 10
101.5617594147137
 20
-151.8935709255683
 30
0.0
 10
101.5617594147137
 20
-152.0268961208475
 30
0.0
 10
101.5617594147137
 20
-152.0268961208475
 30
0.0
 10
101.5192124854709
 20
-152.0520453178898
 30
0.0
 10
101.4673637984179
 20
-152.0840847059026
 30
0.0
 10
101.3505750614679
 20
-152.1495415201223
 30
0.0
 10
101.3505750614679
 20
-152.1495415201223
 30
0.0
 10
101.3505750614679
 20
-152.295613568697
 30
0.0
 10
101.3505750614679
 20
-152.295613568697
 30
0.0
 10
101.3505750614679
 20
-152.295613568697
 30
0.0
 10
101.3505750614679
 20
-152.7631130260453
 30
0.0
 10
101.3505750614679
 20
-152.7631130260453
 30
0.0
 10
101.3505750614679
 20
-152.8898925399025
 30
0.0
 10
101.3192246925521
 20
-152.9491481822488
 30
0.0
 10
101.0710055628399
 20
-152.9408799530842
 30
0.0
 10
101.0710055628399
 20
-152.9408799530842
 30
0.0
 10
100.9802272968036
 20
-152.7334852048722
 30
0.0
 10
100.9802272968036
 20
-152.7334852048722
 30
0.0
 10
101.0358655888903
 20
-152.7462320581676
 30
0.0
 10
101.0784125181332
 20
-152.7503661727499
 30
0.0
 10
101.1135524920827
 20
-152.7503661727499
 30
0.0
 10
101.1803873444966
 20
-152.7503661727499
 30
0.0
 10
101.1895168475325
 20
-152.7269395234502
 30
0.0
 10
101.1895168475325
 20
-152.6614827092305
 30
0.0
 10
101.1895168475325
 20
-152.6614827092305
 30
0.0
 10
101.1895168475325
 20
-152.2318793022198
 30
0.0
 10
101.1895168475325
 20
-152.2318793022198
 30
0.0
 10
101.1044229890468
 20
-152.2721869193972
 30
0.0
 10
101.0896090784602
 20
-152.2787326008192
 30
0.0
 10
101.04878469696
 20
-152.2976806259881
 30
0.0
 10
101.0451673467005
 20
-152.3186957084481
 30
0.0
 10
101.0413777416668
 20
-152.3483235296213
 30
0.0
 10
101.0246690285633
 20
-152.3483235296213
 30
0.0
 10
101.0174343280443
 20
-152.3483235296213
 30
0.0
 10
101.0081325702341
 20
-152.344189415039
 30
0.0
 10
101.0026204174577
 20
-152.3207627657393
 30
0.0
 10
101.0026204174577
 20
-152.3207627657393
 30
0.0
 10
100.9562838831811
 20
-152.1285264376623
 30
0.0
 10
100.9562838831811
 20
-152.1285264376623
 30
0.0
 10
101.0839246709096
 20
-152.0816731390629
 30
0.0
 10
101.1414577655133
 20
-152.0585909993117
 30
0.0
 10
101.1895168475325
 20
-152.0375759168517
 30
0.0
 10
101.1895168475325
 20
-152.0375759168517
 30
0.0
 10
101.1895168475325
 20
-151.6248534777188
 30
0.0
 10
101.1895168475325
 20
-151.6248534777188
 30
0.0
 10
101.1895168475325
 20
-151.6248534777188
 30
0.0
 10
101.1431803132559
 20
-151.6248534777188
 30
0.0
 10
101.1431803132559
 20
-151.6248534777188
 30
0.0
 10
101.1431803132559
 20
-151.6248534777188
 30
0.0
 10
101.0747951678737
 20
-151.6248534777188
 30
0.0
 10
101.0747951678737
 20
-151.6248534777188
 30
0.0
 10
101.0155395255274
 20
-151.6248534777188
 30
0.0
 10
101.0081325702341
 20
-151.6248534777188
 30
0.0
 10
100.976609946544
 20
-151.6313991591408
 30
0.0
 10
100.976609946544
 20
-151.6313991591408
 30
0.0
 10
100.976609946544
 20
-151.4367512642241
 30
0.0
 10
100.976609946544
 20
-151.4367512642241
 30
0.0
 10
101.0007256149408
 20
-151.4429524360976
 30
0.0
 10
101.0081325702341
 20
-151.4429524360976
 30
0.0
 10
101.069110760323
 20
-151.4429524360976
 30
0.0
 10
101.069110760323
 20
-151.4429524360976
 30
0.0
 10
101.185899497273
 20
-151.4429524360976
 30
0.0
 10
101.185899497273
 20
-151.4429524360976
 30
0.0
 10
101.185899497273
 20
-151.373016997747
 30
0.0
 10
101.185899497273
 20
-151.2906792156496
 30
0.0
 10
101.1840046947561
 20
-151.2865451010672
 30
0.0
 10
101.1765977394628
 20
-151.1067111167372
 30
0.0
 10
101.1765977394628
 20
-151.0874185820198
 30
0.0
 10
101.1747029369459
 20
-151.0409097929689
 30
0.0
 10
101.1747029369459
 20
-151.0409097929689
 30
0.0
 10
101.3636664243119
 20
-151.0495225316821
 30
0.0
 10
101.3636664243119
 20
-151.0495225316821
 30
0.0
 10
101.372968182122
 20
-151.0495225316821
 30
0.0
 10
101.3913994429681
 20
-151.0515895889732
 30
0.0
 10
101.3913994429681
 20
-151.0684705568509
 30
0.0
 10
101.3913994429681
 20
-151.0874185820198
 30
0.0
 10
101.3784803348984
 20
-151.0980983780241
 30
0.0
 10
101.3562594690186
 20
-151.117046403193
 30
0.0
 10
101.3562594690186
 20
-151.1680338163747
 30
0.0
 10
101.3505750614679
 20
-151.3964436470467
 30
0.0
 10
101.3524698639848
 20
-151.4429524360976
 30
0.0
 10
101.465468995901
 20
-151.4429524360976
 30
0.0
 10
101.4766655562281
 20
-151.4429524360976
 30
0.0
 10
101.5617594147137
 20
-151.4343396973845
 30
0.0
 10
101.5617594147137
 20
-151.4343396973845
 30
0.0
 10
101.5617594147137
 20
-151.6289875923011
 30
0.0
 10
101.5617594147137
 20
-151.6289875923011
 30
0.0
 10
101.5283419885068
 20
-151.6269205350099
 30
0.0
 10
101.4690863461605
 20
-151.6227864204276
 30
0.0
 10
101.3505750614679
 20
-151.6248534777188
 30
0.0
 10
101.3505750614679
 20
-151.6248534777188
 30
0.0
 10
101.3505750614679
 20
-151.9635063639188
 30
0.0
 10
101.3505750614679
 20
-151.9635063639188
 30
0.0
 10
101.3988063982614
 20
-151.9400797146191
 30
0.0
 10
101.4561672380908
 20
-151.9125189507372
 30
0.0
 10
101.4987141673337
 20
-151.889436810986
 30
0.0
 10
101.4987141673337
 20
-151.889436810986
 30
0.0
 10
101.4987141673337
 20
-151.7116698839471
 30
0.0
 10
101.4987141673337
 20
-151.7116698839471
 30
0.0
 10
101.5987941911802
 20
-151.7244167372425
 30
0.0
 10
101.7024915652862
 20
-151.7244167372425
 30
0.0
 10
101.8042941368753
 20
-151.7244167372425
 30
0.0
 10
101.7839680735123
 20
-151.6289875923011
 30
0.0
 10
101.7598524051156
 20
-151.5466498102036
 30
0.0
 10
101.7043863678031
 20
-151.4133246149244
 30
0.0
 10
101.6654567888198
 20
-151.4153916722156
 30
0.0
 10
101.5932820384038
 20
-151.4195257867979
 30
0.0
 10
101.5598646121968
 20
-151.4219373536376
 30
0.0
 10
101.5598646121968
 20
-151.4219373536376
 30
0.0
 10
101.5598646121968
 20
-151.2421033693075
 30
0.0
 10
101.5598646121968
 20
-151.2421033693075
 30
0.0
 10
101.6692463938535
 20
-151.2503715984721
 30
0.0
 10
101.8210028499788
 20
-151.2545057130544
 30
0.0
 10
101.8931776003948
 20
-151.2545057130544
 30
0.0
 10
101.8931776003948
 20
-151.2545057130544
 30
0.0
 10
101.965524605585
 20
-151.2545057130544
 30
0.0
 10
101.965524605585
 20
-151.2545057130544
 30
0.0
 10
101.965524605585
 20
-151.0918972061506
 30
0.0
 10
101.965524605585
 20
-151.0812174101464
 30
0.0
 10
101.9636298030681
 20
-151.0260958823824
 30
0.0
 10
101.9636298030681
 20
-151.0260958823824
 30
0.0
 10
102.1598279909531
 20
-151.0515895889732
 30
0.0
 10
102.1598279909531
 20
-151.0515895889732
 30
0.0
 10
102.1636175959869
 20
-151.0515895889732
 30
0.0
 10
102.182048856833
 20
-151.0536566462644
 30
0.0
 10
102.182048856833
 20
-151.0705376141421
 30
0.0
 10
102.182048856833
 20
-151.0853515247287
 30
0.0
 10
102.1729193537971
 20
-151.0939642634418
 30
0.0
 10
102.1488036854003
 20
-151.1087781740284
 30
0.0
 10
102.1432915326239
 20
-151.1742349882481
 30
0.0
 10
102.141396730107
 20
-151.1955945802567
 30
0.0
 10
102.141396730107
 20
-151.2545057130544
 30
0.0
 10
102.141396730107
 20
-151.2545057130544
 30
0.0
 10
102.2245957860758
 20
-151.2545057130544
 30
0.0
 10
102.2245957860758
 20
-151.2545057130544
 30
0.0
 10
102.296942791266
 20
-151.2545057130544
 30
0.0
 10
102.4486992473913
 20
-151.2503715984721
 30
0.0
 10
102.558081029048
 20
-151.2421033693075
 30
0.0
 10
102.558081029048
 20
-151.2421033693075
 30
0.0
 10
102.558081029048
 20
-151.4219373536376
 30
0.0
 10
102.558081029048
 20
-151.4219373536376
 30
0.0
 10
102.5320705581344
 20
-151.4195257867979
 30
0.0
 10
102.4283731840283
 20
-151.4153916722156
 30
0.0
 10
102.3932332100788
 20
-151.4133246149244
 30
0.0
 10
102.3803141020091
 20
-151.4639675185576
 30
0.0
 10
102.3506862808359
 20
-151.5762776313768
 30
0.0
 10
102.2931531862323
 20
-151.7158039985294
 30
0.0
 10
102.3301879626987
 20
-151.7158039985294
 30
0.0
 10
102.5728949396346
 20
-151.6968559733605
 30
0.0
 10
102.6264661744302
 20
-151.6947889160694
 30
0.0
 10
102.6264661744302
 20
-151.6947889160694
 30
0.0
 10
102.6264661744302
 20
-151.8787570149817
 30
0.0
 10
102.6264661744302
 20
-151.8787570149817
 30
0.0
 10
102.6006279582908
 20
-151.8787570149817
 30
0.0
 10
102.5858140477042
 20
-151.8746229003994
 30
0.0
 10
102.4431870946149
 20
-151.8746229003994
 30
0.0
  0
SPLINE
  5
5A
330
55
100
AcDbEntity
  8
_U+30EC_U+30A4_U+30E4_U+30FC 1
370
     0
100
AcDbSpline
210
0.0
220
0.0
230
1.0
 70
    11
 71
     3
 72
    20
 73
    16
 74
     0
 42
0.0000000001
 43
0.0000000001
 12
1.0
 22
0.0
 32
0.0
 13
1.0
 23
0.0
 33
0.0
 40
0.0
 40
0.0
 40
0.0
 40
0.0
 40
1.0
 40
1.0
 40
1.0
 40
2.0
 40
2.0
 40
2.0
 40
3.0
 40
3.0
 40
3.0
 40
4.0
 40
4.0
 40
4.0
 40
5.0
 40
5.0
 40
5.0
 40
5.0
 10
101.8931776003948
 20
-151.4091905003422
 30
0.0
 10
101.8931776003948
 20
-151.4091905003422
 30
0.0
 10
101.8654445817385
 20
-151.4091905003422
 30
0.0
 10
101.8654445817385
 20
-151.4091905003422
 30
0.0
 10
101.9062689632387
 20
-151.5084092503174
 30
0.0
 10
101.934001981895
 20
-151.5890244846722
 30
0.0
 10
101.9636298030681
 20
-151.7158039985294
 30
0.0
 10
101.9636298030681
 20
-151.7158039985294
 30
0.0
 10
102.1450140803665
 20
-151.7158039985294
 30
0.0
 10
102.1450140803665
 20
-151.7158039985294
 30
0.0
 10
102.1729193537971
 20
-151.6227864204276
 30
0.0
 10
102.19324541716
 20
-151.5380370714905
 30
0.0
 10
102.213571480523
 20
-151.4091905003422
 30
0.0
 10
102.213571480523
 20
-151.4091905003422
 30
0.0
 10
101.8931776003948
 20
-151.4091905003422
 30
0.0
 10
101.8931776003948
 20
-151.4091905003422
 30
0.0
  0
SPLINE
  5
5B
330
55
100
AcDbEntity
  8
_U+30EC_U+30A4_U+30E4_U+30FC 1
370
     0
100
AcDbSpline
210
0.0
220
0.0
230
1.0
 70
    11
 71
     3
 72
    17
 73
    13
 74
     0
 42
0.0000000001
 43
0.0000000001
 12
1.0
 22
0.0
 32
0.0
 13
1.0
 23
0.0
 33
0.0
 40
0.0
 40
0.0
 40
0.0
 40
0.0
 40
1.0
 40
1.0
 40
1.0
 40
2.0
 40
2.0
 40
2.0
 40
3.0
 40
3.0
 40
3.0
 40
4.0
 40
4.0
 40
4.0
 40
4.0
 10
101.9488158924815
 20
-152.2594400661018
 30
0.0
 10
101.934001981895
 20
-152.289067887275
 30
0.0
 10
101.8895602501352
 20
-152.3820854653767
 30
0.0
 10
101.8802584923251
 20
-152.4013780000941
 30
0.0
 10
102.0468288590369
 20
-152.4606336424404
 30
0.0
 10
102.0654323746573
 20
-152.4668348143138
 30
0.0
 10
102.1284776220373
 20
-152.4943955781958
 30
0.0
 10
102.1765367040566
 20
-152.4075791719676
 30
0.0
 10
102.1968627674195
 20
-152.3335096190347
 30
0.0
 10
102.2097818754892
 20
-152.2594400661018
 30
0.0
 10
102.2097818754892
 20
-152.2594400661018
 30
0.0
 10
101.9488158924815
 20
-152.2594400661018
 30
0.0
 10
101.9488158924815
 20
-152.2594400661018
 30
0.0
  0
HATCH
  5
5C
330
55
100
AcDbEntity
  8
_U+30EC_U+30A4_U+30E4_U+30FC 1
 62
   179
420
  2234388
100
AcDbHatch
 10
0.0
 20
0.0
 30
0.0
210
0.0
220
0.0
230
1.0
  2
SOLID
 70
     1
 71
     0
 91
        3
 92
        1
 93
        1
 72
     4
 94
        3
 73
     0
 74
     1
 95
      242
 96
      238
 40
0.0
 40
0.0
 40
0.0
 40
0.0
 40
1.0
 40
1.0
 40
1.0
 40
2.0
 40
2.0
 40
2.0
 40
3.0
 40
3.0
 40
3.0
 40
4.0
 40
4.0
 40
4.0
 40
5.0
 40
5.0
 40
5.0
 40
6.0
 40
6.0
 40
6.0
 40
7.0
 40
7.0
 40
7.0
 40
8.0
 40
8.0
 40
8.0
 40
9.0
 40
9.0
 40
9.0
 40
10.0
 40
10.0
 40
10.0
 40
11.0
 40
11.0
 40
11.0
 40
12.0
 40
12.0
 40
12.0
 40
13.0
 40
13.0
 40
13.0
 40
14.0
 40
14.0
 40
14.0
 40
15.0
 40
15.0
 40
15.0
 40
16.0
 40
16.0
 40
16.0
 40
17.0
 40
17.0
 40
17.0
 40
18.0
 40
18.0
 40
18.0
 40
19.0
 40
19.0
 40
19.0
 40
20.0
 40
20.0
 40
20.0
 40
21.0
 40
21.0
 40
21.0
 40
22.0
 40
22.0
 40
22.0
 40
23.0
 40
23.0
 40
23.0
 40
24.0
 40
24.0
 40
24.0
 40
25.0
 40
25.0
 40
25.0
 40
26.0
 40
26.0
 40
26.0
 40
27.0
 40
27.0
 40
27.0
 40
28.0
 40
28.0
 40
28.0
 40
29.0
 40
29.0
 40
29.0
 40
30.0
 40
30.0
 40
30.0
 40
31.0
 40
31.0
 40
31.0
 40
32.0
 40
32.0
 40
32.0
 40
33.0
 40
33.0
 40
33.0
 40
34.0
 40
34.0
 40
34.0
 40
35.0
 40
35.0
 40
35.0
 40
36.0
 40
36.0
 40
36.0
 40
37.0
 40
37.0
 40
37.0
 40
38.0
 40
38.0
 40
38.0
 40
39.0
 40
39.0
 40
39.0
 40
40.0
 40
40.0
 40
40.0
 40
41.0
 40
41.0
 40
41.0
 40
42.0
 40
42.0
 40
42.0
 40
43.0
 40
43.0
 40
43.0
 40
44.0
 40
44.0
 40
44.0
 40
45.0
 40
45.0
 40
45.0
 40
46.0
 40
46.0
 40
46.0
 40
47.0
 40
47.0
 40
47.0
 40
48.0
 40
48.0
 40
48.0
 40
49.0
 40
49.0
 40
49.0
 40
50.0
 40
50.0
 40
50.0
 40
51.0
 40
51.0
 40
51.0
 40
52.0
 40
52.0
 40
52.0
 40
53.0
 40
53.0
 40
53.0
 40
54.0
 40
54.0
 40
54.0
 40
55.0
 40
55.0
 40
55.0
 40
56.0
 40
56.0
 40
56.0
 40
57.0
 40
57.0
 40
57.0
 40
58.0
 40
58.0
 40
58.0
 40
59.0
 40
59.0
 40
59.0
 40
60.0
 40
60.0
 40
60.0
 40
61.0
 40
61.0
 40
61.0
 40
62.0
 40
62.0
 40
62.0
 40
63.0
 40
63.0
 40
63.0
 40
64.0
 40
64.0
 40
64.0
 40
65.0
 40
65.0
 40
65.0
 40
66.0
 40
66.0
 40
66.0
 40
67.0
 40
67.0
 40
67.0
 40
68.0
 40
68.0
 40
68.0
 40
69.0
 40
69.0
 40
69.0
 40
70.0
 40
70.0
 40
70.0
 40
71.0
 40
71.0
 40
71.0
 40
72.0
 40
72.0
 40
72.0
 40
73.0
 40
73.0
 40
73.0
 40
74.0
 40
74.0
 40
74.0
 40
75.0
 40
75.0
 40
75.0
 40
76.0
 40
76.0
 40
76.0
 40
77.0
 40
77.0
 40
77.0
 40
78.0
 40
78.0
 40
78.0
 40
79.0
 40
79.0
 40
79.0
 40
79.0
 10
102.4431870946149
 20
-151.8746229003994
 10
102.4431870946149
 20
-151.8746229003994
 10
102.2209784358163
 20
-151.8746229003994
 10
102.2209784358163
 20
-151.8746229003994
 10
102.2209784358163
 20
-151.8746229003994
 10
101.9784437136547
 20
-151.8746229003994
 10
101.9784437136547
 20
-151.8746229003994
 10
101.9784437136547
 20
-151.8746229003994
 10
102.089548043054
 20
-151.916997574868
 10
102.089548043054
 20
-151.916997574868
 10
102.0988498008642
 20
-151.9211316894503
 10
102.109874106417
 20
-151.9273328613237
 10
102.109874106417
 20
-151.9400797146191
 10
102.109874106417
 20
-151.9610947970792
 10
102.0821410877607
 20
-151.9676404785012
 10
102.0635375721404
 20
-151.9717745930834
 10
102.0544080691045
 20
-151.9952012423832
 10
102.0283975981908
 20
-152.0606580566029
 10
102.0116888850874
 20
-152.1050997883626
 10
102.0116888850874
 20
-152.1050997883626
 10
102.2487114544726
 20
-152.1050997883626
 10
102.2487114544726
 20
-152.1050997883626
 10
102.3282931601818
 20
-152.1050997883626
 10
102.5005479344443
 20
-152.1009656737803
 10
102.6245713719133
 20
-152.0923529350672
 10
102.6245713719133
 20
-152.0923529350672
 10
102.6245713719133
 20
-152.2701198621061
 10
102.6245713719133
 20
-152.2701198621061
 10
102.5523966214973
 20
-152.2659857475238
 10
102.5339653606512
 20
-152.2659857475238
 10
102.3765244969753
 20
-152.261507123393
 10
102.3487914783191
 20
-152.4161919106807
 10
102.3098618993357
 20
-152.496462635487
 10
102.2709323203524
 20
-152.5663980738376
 10
102.3765244969753
 20
-152.6256537161839
 10
102.4691975655285
 20
-152.6931775876948
 10
102.5598035767906
 20
-152.7758598793408
 10
102.5598035767906
 20
-152.7758598793408
 10
102.4561062026846
 20
-152.9429470103754
 10
102.4561062026846
 20
-152.9429470103754
 10
102.4357801393216
 20
-152.923654475658
 10
102.4247558337688
 20
-152.9153862464934
 10
102.3265706124392
 20
-152.8306368975562
 10
102.2838514284221
 20
-152.7927408472185
 10
102.2321749961434
 20
-152.7565673446234
 10
102.16172279347
 20
-152.7121256128636
 10
101.9765489111378
 20
-152.8985052786157
 10
101.796887181582
 20
-152.9215874183668
 10
101.5431558990934
 20
-152.95121523954
 10
101.5431558990934
 20
-152.95121523954
 10
101.4525498878313
 20
-152.7713812552099
 10
101.4525498878313
 20
-152.7713812552099
 10
101.7302245839424
 20
-152.7672471406276
 10
101.8838758425846
 20
-152.7417534340368
 10
102.0172010378638
 20
-152.6318548880573
 10
101.9135036637577
 20
-152.5812119844242
 10
101.8358167605654
 20
-152.5536512205422
 10
101.8042941368753
 20
-152.5409043672467
 10
101.7877576785461
 20
-152.5684651311287
 10
101.7746663157022
 20
-152.5874131562976
 10
101.7505506473054
 20
-152.6211750920531
 10
101.7505506473054
 20
-152.6211750920531
 10
101.5784681278172
 20
-152.5388373099556
 10
101.5784681278172
 20
-152.5388373099556
 10
101.6506428782332
 20
-152.4585665851492
 10
101.7043863678031
 20
-152.3631374402078
 10
101.7543402523392
 20
-152.261507123393
 10
101.5875976308531
 20
-152.2659857475238
 10
101.569166370007
 20
-152.2659857475238
 10
101.496991619591
 20
-152.2701198621061
 10
101.496991619591
 20
-152.2701198621061
 10
101.496991619591
 20
-152.0923529350672
 10
101.496991619591
 20
-152.0923529350672
 10
101.6191202545431
 20
-152.0988986164892
 10
101.8025715891327
 20
-152.1030327310715
 10
101.8246202002383
 20
-152.1030327310715
 10
101.8394341108249
 20
-152.069270795316
 10
101.8876654476184
 20
-151.9486924533323
 10
101.9043741607218
 20
-151.8746229003994
 10
101.8876654476184
 20
-151.8746229003994
 10
101.7321193864593
 20
-151.8808240722728
 10
101.5617594147137
 20
-151.8935709255683
 10
101.5617594147137
 20
-151.8935709255683
 10
101.5617594147137
 20
-152.0268961208475
 10
101.5617594147137
 20
-152.0268961208475
 10
101.5192124854709
 20
-152.0520453178898
 10
101.4673637984179
 20
-152.0840847059026
 10
101.3505750614679
 20
-152.1495415201223
 10
101.3505750614679
 20
-152.1495415201223
 10
101.3505750614679
 20
-152.295613568697
 10
101.3505750614679
 20
-152.295613568697
 10
101.3505750614679
 20
-152.295613568697
 10
101.3505750614679
 20
-152.7631130260453
 10
101.3505750614679
 20
-152.7631130260453
 10
101.3505750614679
 20
-152.8898925399025
 10
101.3192246925521
 20
-152.9491481822488
 10
101.0710055628399
 20
-152.9408799530842
 10
101.0710055628399
 20
-152.9408799530842
 10
100.9802272968036
 20
-152.7334852048722
 10
100.9802272968036
 20
-152.7334852048722
 10
101.0358655888903
 20
-152.7462320581676
 10
101.0784125181332
 20
-152.7503661727499
 10
101.1135524920827
 20
-152.7503661727499
 10
101.1803873444966
 20
-152.7503661727499
 10
101.1895168475325
 20
-152.7269395234502
 10
101.1895168475325
 20
-152.6614827092305
 10
101.1895168475325
 20
-152.6614827092305
 10
101.1895168475325
 20
-152.2318793022198
 10
101.1895168475325
 20
-152.2318793022198
 10
101.1044229890468
 20
-152.2721869193972
 10
101.0896090784602
 20
-152.2787326008192
 10
101.04878469696
 20
-152.2976806259881
 10
101.0451673467005
 20
-152.3186957084481
 10
101.0413777416668
 20
-152.3483235296213
 10
101.0246690285633
 20
-152.3483235296213
 10
101.0174343280443
 20
-152.3483235296213
 10
101.0081325702341
 20
-152.344189415039
 10
101.0026204174577
 20
-152.3207627657393
 10
101.0026204174577
 20
-152.3207627657393
 10
100.9562838831811
 20
-152.1285264376623
 10
100.9562838831811
 20
-152.1285264376623
 10
101.0839246709096
 20
-152.0816731390629
 10
101.1414577655133
 20
-152.0585909993117
 10
101.1895168475325
 20
-152.0375759168517
 10
101.1895168475325
 20
-152.0375759168517
 10
101.1895168475325
 20
-151.6248534777188
 10
101.1895168475325
 20
-151.6248534777188
 10
101.1895168475325
 20
-151.6248534777188
 10
101.1431803132559
 20
-151.6248534777188
 10
101.1431803132559
 20
-151.6248534777188
 10
101.1431803132559
 20
-151.6248534777188
 10
101.0747951678737
 20
-151.6248534777188
 10
101.0747951678737
 20
-151.6248534777188
 10
101.0155395255274
 20
-151.6248534777188
 10
101.0081325702341
 20
-151.6248534777188
 10
100.976609946544
 20
-151.6313991591408
 10
100.976609946544
 20
-151.6313991591408
 10
100.976609946544
 20
-151.4367512642241
 10
100.976609946544
 20
-151.4367512642241
 10
101.0007256149408
 20
-151.4429524360976
 10
101.0081325702341
 20
-151.4429524360976
 10
101.069110760323
 20
-151.4429524360976
 10
101.069110760323
 20
-151.4429524360976
 10
101.185899497273
 20
-151.4429524360976
 10
101.185899497273
 20
-151.4429524360976
 10
101.185899497273
 20
-151.373016997747
 10
101.185899497273
 20
-151.2906792156496
 10
101.1840046947561
 20
-151.2865451010672
 10
101.1765977394628
 20
-151.1067111167372
 10
101.1765977394628
 20
-151.0874185820198
 10
101.1747029369459
 20
-151.0409097929689
 10
101.1747029369459
 20
-151.0409097929689
 10
101.3636664243119
 20
-151.0495225316821
 10
101.3636664243119
 20
-151.0495225316821
 10
101.372968182122
 20
-151.0495225316821
 10
101.3913994429681
 20
-151.0515895889732
 10
101.3913994429681
 20
-151.0684705568509
 10
101.3913994429681
 20
-151.0874185820198
 10
101.3784803348984
 20
-151.0980983780241
 10
101.3562594690186
 20
-151.117046403193
 10
101.3562594690186
 20
-151.1680338163747
 10
101.3505750614679
 20
-151.3964436470467
 10
101.3524698639848
 20
-151.4429524360976
 10
101.465468995901
 20
-151.4429524360976
 10
101.4766655562281
 20
-151.4429524360976
 10
101.5617594147137
 20
-151.4343396973845
 10
101.5617594147137
 20
-151.4343396973845
 10
101.5617594147137
 20
-151.6289875923011
 10
101.5617594147137
 20
-151.6289875923011
 10
101.5283419885068
 20
-151.6269205350099
 10
101.4690863461605
 20
-151.6227864204276
 10
101.3505750614679
 20
-151.6248534777188
 10
101.3505750614679
 20
-151.6248534777188
 10
101.3505750614679
 20
-151.9635063639188
 10
101.3505750614679
 20
-151.9635063639188
 10
101.3988063982614
 20
-151.9400797146191
 10
101.4561672380908
 20
-151.9125189507372
 10
101.4987141673337
 20
-151.889436810986
 10
101.4987141673337
 20
-151.889436810986
 10
101.4987141673337
 20
-151.7116698839471
 10
101.4987141673337
 20
-151.7116698839471
 10
101.5987941911802
 20
-151.7244167372425
 10
101.7024915652862
 20
-151.7244167372425
 10
101.8042941368753
 20
-151.7244167372425
 10
101.7839680735123
 20
-151.6289875923011
 10
101.7598524051156
 20
-151.5466498102036
 10
101.7043863678031
 20
-151.4133246149244
 10
101.6654567888198
 20
-151.4153916722156
 10
101.5932820384038
 20
-151.4195257867979
 10
101.5598646121968
 20
-151.4219373536376
 10
101.5598646121968
 20
-151.4219373536376
 10
101.5598646121968
 20
-151.2421033693075
 10
101.5598646121968
 20
-151.2421033693075
 10
101.6692463938535
 20
-151.2503715984721
 10
101.8210028499788
 20
-151.2545057130544
 10
101.8931776003948
 20
-151.2545057130544
 10
101.8931776003948
 20
-151.2545057130544
 10
101.965524605585
 20
-151.2545057130544
 10
101.965524605585
 20
-151.2545057130544
 10
101.965524605585
 20
-151.0918972061506
 10
101.965524605585
 20
-151.0812174101464
 10
101.9636298030681
 20
-151.0260958823824
 10
101.9636298030681
 20
-151.0260958823824
 10
102.1598279909531
 20
-151.0515895889732
 10
102.1598279909531
 20
-151.0515895889732
 10
102.1636175959869
 20
-151.0515895889732
 10
102.182048856833
 20
-151.0536566462644
 10
102.182048856833
 20
-151.0705376141421
 10
102.182048856833
 20
-151.0853515247287
 10
102.1729193537971
 20
-151.0939642634418
 10
102.1488036854003
 20
-151.1087781740284
 10
102.1432915326239
 20
-151.1742349882481
 10
102.141396730107
 20
-151.1955945802567
 10
102.141396730107
 20
-151.2545057130544
 10
102.141396730107
 20
-151.2545057130544
 10
102.2245957860758
 20
-151.2545057130544
 10
102.2245957860758
 20
-151.2545057130544
 10
102.296942791266
 20
-151.2545057130544
 10
102.4486992473913
 20
-151.2503715984721
 10
102.558081029048
 20
-151.2421033693075
 10
102.558081029048
 20
-151.2421033693075
 10
102.558081029048
 20
-151.4219373536376
 10
102.558081029048
 20
-151.4219373536376
 10
102.5320705581344
 20
-151.4195257867979
 10
102.4283731840283
 20
-151.4153916722156
 10
102.3932332100788
 20
-151.4133246149244
 10
102.3803141020091
 20
-151.4639675185576
 10
102.3506862808359
 20
-151.5762776313768
 10
102.2931531862323
 20
-151.7158039985294
 10
102.3301879626987
 20
-151.7158039985294
 10
102.5728949396346
 20
-151.6968559733605
 10
102.6264661744302
 20
-151.6947889160694
 10
102.6264661744302
 20
-151.6947889160694
 10
102.6264661744302
 20
-151.8787570149817
 10
102.6264661744302
 20
-151.8787570149817
 10
102.6006279582908
 20
-151.8787570149817
 10
102.5858140477042
 20
-151.8746229003994
 10
102.4431870946149
 20
-151.8746229003994
 97
        0
 97
        0
 92
        1
 93
        1
 72
     4
 94
        3
 73
     0
 74
     1
 95
       20
 96
       16
 40
0.0
 40
0.0
 40
0.0
 40
0.0
 40
1.0
 40
1.0
 40
1.0
 40
2.0
 40
2.0
 40
2.0
 40
3.0
 40
3.0
 40
3.0
 40
4.0
 40
4.0
 40
4.0
 40
5.0
 40
5.0
 40
5.0
 40
5.0
 10
101.8931776003948
 20
-151.4091905003422
 10
101.8931776003948
 20
-151.4091905003422
 10
101.8654445817385
 20
-151.4091905003422
 10
101.8654445817385
 20
-151.4091905003422
 10
101.9062689632387
 20
-151.5084092503174
 10
101.934001981895
 20
-151.5890244846722
 10
101.9636298030681
 20
-151.7158039985294
 10
101.9636298030681
 20
-151.7158039985294
 10
102.1450140803665
 20
-151.7158039985294
 10
102.1450140803665
 20
-151.7158039985294
 10
102.1729193537971
 20
-151.6227864204276
 10
102.19324541716
 20
-151.5380370714905
 10
102.213571480523
 20
-151.4091905003422
 10
102.213571480523
 20
-151.4091905003422
 10
101.8931776003948
 20
-151.4091905003422
 10
101.8931776003948
 20
-151.4091905003422
 97
        0
 97
        0
 92
        1
 93
        1
 72
     4
 94
        3
 73
     0
 74
     1
 95
       17
 96
       13
 40
0.0
 40
0.0
 40
0.0
 40
0.0
 40
1.0
 40
1.0
 40
1.0
 40
2.0
 40
2.0
 40
2.0
 40
3.0
 40
3.0
 40
3.0
 40
4.0
 40
4.0
 40
4.0
 40
4.0
 10
101.9488158924815
 20
-152.2594400661018
 10
101.934001981895
 20
-152.289067887275
 10
101.8895602501352
 20
-152.3820854653767
 10
101.8802584923251
 20
-152.4013780000941
 10
102.0468288590369
 20
-152.4606336424404
 10
102.0654323746573
 20
-152.4668348143138
 10
102.1284776220373
 20
-152.4943955781958
 10
102.1765367040566
 20
-152.4075791719676
 10
102.1968627674195
 20
-152.3335096190347
 10
102.2097818754892
 20
-152.2594400661018
 10
102.2097818754892
 20
-152.2594400661018
 10
101.9488158924815
 20
-152.2594400661018
 10
101.9488158924815
 20
-152.2594400661018
 97
        0
 97
        0
 75
     2
 76
     1
 98
        0
  0
SPLINE
  5
5D
330
55
100
AcDbEntity
  8
_U+30EC_U+30A4_U+30E4_U+30FC 1
370
     0
100
AcDbSpline
210
0.0
220
0.0
230
1.0
 70
    11
 71
     3
 72
   203
 73
   199
 74
     0
 42
0.0000000001
 43
0.0000000001
 12
1.0
 22
0.0
 32
0.0
 13
1.0
 23
0.0
 33
0.0
 40
0.0
 40
0.0
 40
0.0
 40
0.0
 40
1.0
 40
1.0
 40
1.0
 40
2.0
 40
2.0
 40
2.0
 40
3.0
 40
3.0
 40
3.0
 40
4.0
 40
4.0
 40
4.0
 40
5.0
 40
5.0
 40
5.0
 40
6.0
 40
6.0
 40
6.0
 40
7.0
 40
7.0
 40
7.0
 40
8.0
 40
8.0
 40
8.0
 40
9.0
 40
9.0
 40
9.0
 40
10.0
 40
10.0
 40
10.0
 40
11.0
 40
11.0
 40
11.0
 40
12.0
 40
12.0
 40
12.0
 40
13.0
 40
13.0
 40
13.0
 40
14.0
 40
14.0
 40
14.0
 40
15.0
 40
15.0
 40
15.0
 40
16.0
 40
16.0
 40
16.0
 40
17.0
 40
17.0
 40
17.0
 40
18.0
 40
18.0
 40
18.0
 40
19.0
 40
19.0
 40
19.0
 40
20.0
 40
20.0
 40
20.0
 40
21.0
 40
21.0
 40
21.0
 40
22.0
 40
22.0
 40
22.0
 40
23.0
 40
23.0
 40
23.0
 40
24.0
 40
24.0
 40
24.0
 40
25.0
 40
25.0
 40
25.0
 40
26.0
 40
26.0
 40
26.0
 40
27.0
 40
27.0
 40
27.0
 40
28.0
 40
28.0
 40
28.0
 40
29.0
 40
29.0
 40
29.0
 40
30.0
 40
30.0
 40
30.0
 40
31.0
 40
31.0
 40
31.0
 40
32.0
 40
32.0
 40
32.0
 40
33.0
 40
33.0
 40
33.0
 40
34.0
 40
34.0
 40
34.0
 40
35.0
 40
35.0
 40
35.0
 40
36.0
 40
36.0
 40
36.0
 40
37.0
 40
37.0
 40
37.0
 40
38.0
 40
38.0
 40
38.0
 40
39.0
 40
39.0
 40
39.0
 40
40.0
 40
40.0
 40
40.0
 40
41.0
 40
41.0
 40
41.0
 40
42.0
 40
42.0
 40
42.0
 40
43.0
 40
43.0
 40
43.0
 40
44.0
 40
44.0
 40
44.0
 40
45.0
 40
45.0
 40
45.0
 40
46.0
 40
46.0
 40
46.0
 40
47.0
 40
47.0
 40
47.0
 40
48.0
 40
48.0
 40
48.0
 40
49.0
 40
49.0
 40
49.0
 40
50.0
 40
50.0
 40
50.0
 40
51.0
 40
51.0
 40
51.0
 40
52.0
 40
52.0
 40
52.0
 40
53.0
 40
53.0
 40
53.0
 40
54.0
 40
54.0
 40
54.0
 40
55.0
 40
55.0
 40
55.0
 40
56.0
 40
56.0
 40
56.0
 40
57.0
 40
57.0
 40
57.0
 40
58.0
 40
58.0
 40
58.0
 40
59.0
 40
59.0
 40
59.0
 40
60.0
 40
60.0
 40
60.0
 40
61.0
 40
61.0
 40
61.0
 40
62.0
 40
62.0
 40
62.0
 40
63.0
 40
63.0
 40
63.0
 40
64.0
 40
64.0
 40
64.0
 40
65.0
 40
65.0
 40
65.0
 40
66.0
 40
66.0
 40
66.0
 40
66.0
 10
103.9249226628209
 20
-151.9421467719103
 30
0.0
 10
103.9249226628209
 20
-151.9421467719103
 30
0.0
 10
103.4360636134639
 20
-151.9421467719103
 30
0.0
 10
103.4360636134639
 20
-151.9421467719103
 30
0.0
 10
103.426934110428
 20
-151.98658850367
 30
0.0
 10
103.4193549003604
 20
-152.0182833821343
 30
0.0
 10
103.4083305948076
 20
-152.0565239420206
 30
0.0
 10
103.4305514606875
 20
-152.0565239420206
 30
0.0
 10
103.4434705687572
 20
-152.0585909993117
 30
0.0
 10
103.4489827215336
 20
-152.0585909993117
 30
0.0
 10
103.4489827215336
 20
-152.0585909993117
 30
0.0
 10
103.6138305405028
 20
-152.0585909993117
 30
0.0
 10
103.6138305405028
 20
-152.0585909993117
 30
0.0
 10
103.6138305405028
 20
-152.0585909993117
 30
0.0
 10
103.9416313759243
 20
-152.0585909993117
 30
0.0
 10
103.9416313759243
 20
-152.0585909993117
 30
0.0
 10
103.986073107684
 20
-152.0585909993117
 30
0.0
 10
104.234119982622
 20
-152.0458441460163
 30
0.0
 10
104.2620252560526
 20
-152.0458441460163
 30
0.0
 10
104.2601304535357
 20
-152.0734049098983
 30
0.0
 10
104.2582356510188
 20
-152.0923529350672
 30
0.0
 10
104.2582356510188
 20
-152.1219807562403
 30
0.0
 10
104.2565131032761
 20
-152.1536756347047
 30
0.0
 10
104.2565131032761
 20
-152.289067887275
 30
0.0
 10
104.2565131032761
 20
-152.3166286511569
 30
0.0
 10
104.2565131032761
 20
-152.3166286511569
 30
0.0
 10
104.2565131032761
 20
-152.5619194497067
 30
0.0
 10
104.2565131032761
 20
-152.5619194497067
 30
0.0
 10
104.2565131032761
 20
-152.6063611814665
 30
0.0
 10
104.2601304535357
 20
-152.8030761336742
 30
0.0
 10
104.2637478037952
 20
-152.9556938636708
 30
0.0
 10
104.2637478037952
 20
-152.9556938636708
 30
0.0
 10
104.0656548133933
 20
-152.9556938636708
 30
0.0
 10
104.0656548133933
 20
-152.9556938636708
 30
0.0
 10
104.0656548133933
 20
-152.9556938636708
 30
0.0
 10
104.0675496159102
 20
-152.9215874183668
 30
0.0
 10
104.0675496159102
 20
-152.9215874183668
 30
0.0
 10
104.0675496159102
 20
-152.9215874183668
 30
0.0
 10
103.4527723265674
 20
-152.9215874183668
 30
0.0
 10
103.4527723265674
 20
-152.9215874183668
 30
0.0
 10
103.4527723265674
 20
-152.9215874183668
 30
0.0
 10
103.4546671290843
 20
-152.9556938636708
 30
0.0
 10
103.4546671290843
 20
-152.9556938636708
 30
0.0
 10
103.4546671290843
 20
-152.9556938636708
 30
0.0
 10
103.2639810939757
 20
-152.9556938636708
 30
0.0
 10
103.2639810939757
 20
-152.9556938636708
 30
0.0
 10
103.2675984442352
 20
-152.9005723359068
 30
0.0
 10
103.2675984442352
 20
-152.8878254826114
 30
0.0
 10
103.2731105970116
 20
-152.7734483125011
 30
0.0
 10
103.2750053995285
 20
-152.7462320581676
 30
0.0
 10
103.2769002020454
 20
-152.6129068628885
 30
0.0
 10
103.2769002020454
 20
-152.593614328171
 30
0.0
 10
103.2769002020454
 20
-152.593614328171
 30
0.0
 10
103.2769002020454
 20
-152.3906982040898
 30
0.0
 10
103.2769002020454
 20
-152.3906982040898
 30
0.0
 10
103.154599312319
 20
-152.6404676267705
 30
0.0
 10
103.0064602064533
 20
-152.7713812552099
 30
0.0
 10
102.9139593926743
 20
-152.8371825789782
 30
0.0
 10
102.9139593926743
 20
-152.8371825789782
 30
0.0
 10
102.7620306817748
 20
-152.6973117022771
 30
0.0
 10
102.7620306817748
 20
-152.6973117022771
 30
0.0
 10
102.8398898397414
 20
-152.6466687986439
 30
0.0
 10
102.9658080797273
 20
-152.5598523924156
 30
0.0
 10
103.0862141669368
 20
-152.365204497499
 30
0.0
 10
103.1657958726461
 20
-152.2384249836418
 30
0.0
 10
103.2231567124755
 20
-152.0944199923584
 30
0.0
 10
103.2527845336486
 20
-151.9421467719103
 30
0.0
 10
103.0527967407299
 20
-151.9442138292015
 30
0.0
 10
102.8953558770539
 20
-151.9507595106234
 30
0.0
 10
102.8119845663109
 20
-151.9528265679146
 30
0.0
 10
102.8119845663109
 20
-151.9528265679146
 30
0.0
 10
102.8119845663109
 20
-151.7750596408757
 30
0.0
 10
102.8119845663109
 20
-151.7750596408757
 30
0.0
 10
102.9842393405734
 20
-151.7812608127491
 30
0.0
 10
103.2324584702856
 20
-151.78573943688
 30
0.0
 10
103.3638888630479
 20
-151.78573943688
 30
0.0
 10
103.3638888630479
 20
-151.78573943688
 30
0.0
 10
103.550957547897
 20
-151.78573943688
 30
0.0
 10
103.550957547897
 20
-151.78573943688
 30
0.0
 10
103.550957547897
 20
-151.78573943688
 30
0.0
 10
103.550957547897
 20
-151.6779079481916
 30
0.0
 10
103.550957547897
 20
-151.6779079481916
 30
0.0
 10
103.550957547897
 20
-151.6779079481916
 30
0.0
 10
103.4231445053942
 20
-151.6779079481916
 30
0.0
 10
103.4231445053942
 20
-151.6779079481916
 30
0.0
 10
103.2750053995285
 20
-151.6779079481916
 30
0.0
 10
103.1268662936627
 20
-151.6820420627739
 30
0.0
 10
102.9806219903139
 20
-151.6882432346474
 30
0.0
 10
102.9806219903139
 20
-151.6882432346474
 30
0.0
 10
102.9806219903139
 20
-151.5170219890305
 30
0.0
 10
102.9806219903139
 20
-151.5170219890305
 30
0.0
 10
103.1158419881099
 20
-151.5277017850347
 30
0.0
 10
103.2787950045623
 20
-151.5277017850347
 30
0.0
 10
103.4231445053942
 20
-151.5277017850347
 30
0.0
 10
103.4231445053942
 20
-151.5277017850347
 30
0.0
 10
103.550957547897
 20
-151.5277017850347
 30
0.0
 10
103.550957547897
 20
-151.5277017850347
 30
0.0
 10
103.550957547897
 20
-151.5277017850347
 30
0.0
 10
103.550957547897
 20
-151.4091905003422
 30
0.0
 10
103.550957547897
 20
-151.4091905003422
 30
0.0
 10
103.550957547897
 20
-151.4091905003422
 30
0.0
 10
103.4360636134639
 20
-151.4091905003422
 30
0.0
 10
103.4360636134639
 20
-151.4091905003422
 30
0.0
 10
103.395411486738
 20
-151.4091905003422
 30
0.0
 10
103.2176445596991
 20
-151.4174587295068
 30
0.0
 10
103.1806097832326
 20
-151.4174587295068
 30
0.0
 10
103.0028428561937
 20
-151.4219373536376
 30
0.0
 10
102.9361802585542
 20
-151.4240044109287
 30
0.0
 10
102.8676228583977
 20
-151.4260714682199
 30
0.0
 10
102.8676228583977
 20
-151.4260714682199
 30
0.0
 10
102.8676228583977
 20
-151.2421033693075
 30
0.0
 10
102.8676228583977
 20
-151.2421033693075
 30
0.0
 10
102.9677028822442
 20
-151.2503715984721
 30
0.0
 10
103.0064602064533
 20
-151.2503715984721
 30
0.0
 10
103.3416679971681
 20
-151.2589843371853
 30
0.0
 10
103.2860297050813
 20
-151.1635551922438
 30
0.0
 10
103.2620862914588
 20
-151.1363389379104
 30
0.0
 10
103.2305636677687
 20
-151.1001654353152
 30
0.0
 10
103.2305636677687
 20
-151.1001654353152
 30
0.0
 10
103.3842149264109
 20
-151.0178276532178
 30
0.0
 10
103.3842149264109
 20
-151.0178276532178
 30
0.0
 10
103.4193549003604
 20
-151.0536566462644
 30
0.0
 10
103.4582844793438
 20
-151.0960313207329
 30
0.0
 10
103.5230522744665
 20
-151.2059298667124
 30
0.0
 10
103.5230522744665
 20
-151.2059298667124
 30
0.0
 10
103.4231445053942
 20
-151.2610513944764
 30
0.0
 10
103.4231445053942
 20
-151.2610513944764
 30
0.0
 10
103.4231445053942
 20
-151.2610513944764
 30
0.0
 10
103.4324462632044
 20
-151.2610513944764
 30
0.0
 10
103.4324462632044
 20
-151.2610513944764
 30
0.0
 10
103.4324462632044
 20
-151.2610513944764
 30
0.0
 10
103.8897826888713
 20
-151.2610513944764
 30
0.0
 10
103.8897826888713
 20
-151.2610513944764
 30
0.0
 10
103.8897826888713
 20
-151.2610513944764
 30
0.0
 10
103.8064113781283
 20
-151.2166096627167
 30
0.0
 10
103.8064113781283
 20
-151.2166096627167
 30
0.0
 10
103.830527046525
 20
-151.1783691028304
 30
0.0
 10
103.8804809310611
 20
-151.0980983780241
 30
0.0
 10
103.8934000391308
 20
-151.0240288250912
 30
0.0
 10
103.8934000391308
 20
-151.0240288250912
 30
0.0
 10
104.0804687239799
 20
-151.0874185820198
 30
0.0
 10
104.0804687239799
 20
-151.0874185820198
 30
0.0
 10
104.0878756792732
 20
-151.0898301488595
 30
0.0
 10
104.1064791948935
 20
-151.1001654353152
 30
0.0
 10
104.1064791948935
 20
-151.1215250273238
 30
0.0
 10
104.1064791948935
 20
-151.1594210776615
 30
0.0
 10
104.0491183550641
 20
-151.1594210776615
 30
0.0
 10
104.0324096419607
 20
-151.1594210776615
 30
0.0
 10
104.0231078841505
 20
-151.1783691028304
 30
0.0
 10
104.0027818207875
 20
-151.2186767200078
 30
0.0
 10
103.9767713498739
 20
-151.2589843371853
 30
0.0
 10
104.3267930511752
 20
-151.2524386557633
 30
0.0
 10
104.3526312673146
 20
-151.2503715984721
 30
0.0
 10
104.4194661197285
 20
-151.2441704265987
 30
0.0
 10
104.4194661197285
 20
-151.2441704265987
 30
0.0
 10
104.4194661197285
 20
-151.4260714682199
 30
0.0
 10
104.4194661197285
 20
-151.4260714682199
 30
0.0
 10
104.402757406625
 20
-151.4260714682199
 30
0.0
 10
104.3805365407452
 20
-151.4240044109287
 30
0.0
 10
104.1879557031197
 20
-151.4153916722156
 30
0.0
 10
104.14351397136
 20
-151.4133246149244
 30
0.0
 10
103.9509331337345
 20
-151.4091905003422
 30
0.0
 10
103.9120035547512
 20
-151.4091905003422
 30
0.0
 10
103.9120035547512
 20
-151.4091905003422
 30
0.0
 10
103.7232123221595
 20
-151.4091905003422
 30
0.0
 10
103.7232123221595
 20
-151.4091905003422
 30
0.0
 10
103.7232123221595
 20
-151.4091905003422
 30
0.0
 10
103.7232123221595
 20
-151.5277017850347
 30
0.0
 10
103.7232123221595
 20
-151.5277017850347
 30
0.0
 10
103.7232123221595
 20
-151.5277017850347
 30
0.0
 10
103.8749687782847
 20
-151.5277017850347
 30
0.0
 10
103.8749687782847
 20
-151.5277017850347
 30
0.0
 10
104.0175957313741
 20
-151.5277017850347
 30
0.0
 10
104.1841660980859
 20
-151.5277017850347
 30
0.0
 10
104.3212808983989
 20
-151.5170219890305
 30
0.0
 10
104.3212808983989
 20
-151.5170219890305
 30
0.0
 10
104.3212808983989
 20
-151.6882432346474
 30
0.0
 10
104.3212808983989
 20
-151.6882432346474
 30
0.0
 10
104.1380018185836
 20
-151.6799750054828
 30
0.0
 10
103.9657470443211
 20
-151.6779079481916
 30
0.0
 10
103.8749687782847
 20
-151.6779079481916
 30
0.0
 10
103.8749687782847
 20
-151.6779079481916
 30
0.0
 10
103.7232123221595
 20
-151.6779079481916
 30
0.0
 10
103.7232123221595
 20
-151.6779079481916
 30
0.0
 10
103.7232123221595
 20
-151.6779079481916
 30
0.0
 10
103.7232123221595
 20
-151.78573943688
 30
0.0
 10
103.7232123221595
 20
-151.78573943688
 30
0.0
 10
103.7232123221595
 20
-151.78573943688
 30
0.0
 10
103.9249226628209
 20
-151.78573943688
 30
0.0
 10
103.9249226628209
 20
-151.78573943688
 30
0.0
 10
104.0415391449966
 20
-151.78573943688
 30
0.0
 10
104.2933756249683
 20
-151.7812608127491
 30
0.0
 10
104.4768269595579
 20
-151.7750596408757
 30
0.0
 10
104.4768269595579
 20
-151.7750596408757
 30
0.0
 10
104.4768269595579
 20
-151.9528265679146
 30
0.0
 10
104.4768269595579
 20
-151.9528265679146
 30
0.0
 10
104.3081895355549
 20
-151.9462808864926
 30
0.0
 10
104.0343044444775
 20
-151.9421467719103
 30
0.0
 10
103.9249226628209
 20
-151.9421467719103
 30
0.0
  0
POLYLINE
  5
5E
330
55
100
AcDbEntity
  8
_U+30EC_U+30A4_U+30E4_U+30FC 1
370
     0
100
AcDb2dPolyline
 66
     1
 10
0.0
 20
0.0
 30
0.0
  0
VERTEX
  5
5F
330
5E
100
AcDbEntity
  8
_U+30EC_U+30A4_U+30E4_U+30FC 1
370
     0
100
AcDbVertex
100
AcDb2dVertex
 10
104.0694444184271
 20
-152.1981173664644
 30
0.0
  0
VERTEX
  5
60
330
5E
100
AcDbEntity
  8
_U+30EC_U+30A4_U+30E4_U+30FC 1
370
     0
100
AcDbVertex
100
AcDb2dVertex
 10
103.4508775240505
 20
-152.1981173664644
 30
0.0
  0
VERTEX
  5
61
330
5E
100
AcDbEntity
  8
_U+30EC_U+30A4_U+30E4_U+30FC 1
370
     0
100
AcDbVertex
100
AcDb2dVertex
 10
103.4508775240505
 20
-152.3059488551527
 30
0.0
  0
VERTEX
  5
62
330
5E
100
AcDbEntity
  8
_U+30EC_U+30A4_U+30E4_U+30FC 1
370
     0
100
AcDbVertex
100
AcDb2dVertex
 10
104.0694444184271
 20
-152.3059488551527
 30
0.0
  0
VERTEX
  5
63
330
5E
100
AcDbEntity
  8
_U+30EC_U+30A4_U+30E4_U+30FC 1
370
     0
100
AcDbVertex
100
AcDb2dVertex
 10
104.0694444184271
 20
-152.1981173664644
 30
0.0
  0
SEQEND
  5
64
330
5E
100
AcDbEntity
  8
_U+30EC_U+30A4_U+30E4_U+30FC 1
370
     0
  0
POLYLINE
  5
65
330
55
100
AcDbEntity
  8
_U+30EC_U+30A4_U+30E4_U+30FC 1
370
     0
100
AcDb2dPolyline
 66
     1
 10
0.0
 20
0.0
 30
0.0
  0
VERTEX
  5
66
330
65
100
AcDbEntity
  8
_U+30EC_U+30A4_U+30E4_U+30FC 1
370
     0
100
AcDbVertex
100
AcDb2dVertex
 10
104.0694444184271
 20
-152.4310058212673
 30
0.0
  0
VERTEX
  5
67
330
65
100
AcDbEntity
  8
_U+30EC_U+30A4_U+30E4_U+30FC 1
370
     0
100
AcDbVertex
100
AcDb2dVertex
 10
103.4508775240505
 20
-152.4310058212673
 30
0.0
  0
VERTEX
  5
68
330
65
100
AcDbEntity
  8
_U+30EC_U+30A4_U+30E4_U+30FC 1
370
     0
100
AcDbVertex
100
AcDb2dVertex
 10
103.4508775240505
 20
-152.545038481829
 30
0.0
  0
VERTEX
  5
69
330
65
100
AcDbEntity
  8
_U+30EC_U+30A4_U+30E4_U+30FC 1
370
     0
100
AcDbVertex
100
AcDb2dVertex
 10
104.0694444184271
 20
-152.545038481829
 30
0.0
  0
VERTEX
  5
6A
330
65
100
AcDbEntity
  8
_U+30EC_U+30A4_U+30E4_U+30FC 1
370
     0
100
AcDbVertex
100
AcDb2dVertex
 10
104.0694444184271
 20
-152.4310058212673
 30
0.0
  0
SEQEND
  5
6B
330
65
100
AcDbEntity
  8
_U+30EC_U+30A4_U+30E4_U+30FC 1
370
     0
  0
POLYLINE
  5
6C
330
55
100
AcDbEntity
  8
_U+30EC_U+30A4_U+30E4_U+30FC 1
370
     0
100
AcDb2dPolyline
 66
     1
 10
0.0
 20
0.0
 30
0.0
  0
VERTEX
  5
6D
330
6C
100
AcDbEntity
  8
_U+30EC_U+30A4_U+30E4_U+30FC 1
370
     0
100
AcDbVertex
100
AcDb2dVertex
 10
104.0694444184271
 20
-152.6742295625259
 30
0.0
  0
VERTEX
  5
6E
330
6C
100
AcDbEntity
  8
_U+30EC_U+30A4_U+30E4_U+30FC 1
370
     0
100
AcDbVertex
100
AcDb2dVertex
 10
103.4508775240505
 20
-152.6742295625259
 30
0.0
  0
VERTEX
  5
6F
330
6C
100
AcDbEntity
  8
_U+30EC_U+30A4_U+30E4_U+30FC 1
370
     0
100
AcDbVertex
100
AcDb2dVertex
 10
103.4508775240505
 20
-152.7882622230877
 30
0.0
  0
VERTEX
  5
70
330
6C
100
AcDbEntity
  8
_U+30EC_U+30A4_U+30E4_U+30FC 1
370
     0
100
AcDbVertex
100
AcDb2dVertex
 10
104.0694444184271
 20
-152.7882622230877
 30
0.0
  0
VERTEX
  5
71
330
6C
100
AcDbEntity
  8
_U+30EC_U+30A4_U+30E4_U+30FC 1
370
     0
100
AcDbVertex
100
AcDb2dVertex
 10
104.0694444184271
 20
-152.6742295625259
 30
0.0
  0
SEQEND
  5
72
330
6C
100
AcDbEntity
  8
_U+30EC_U+30A4_U+30E4_U+30FC 1
370
     0
  0
HATCH
  5
73
330
55
100
AcDbEntity
  8
_U+30EC_U+30A4_U+30E4_U+30FC 1
 62
   179
420
  2234388
100
AcDbHatch
 10
0.0
 20
0.0
 30
0.0
210
0.0
220
0.0
230
1.0
  2
SOLID
 70
     1
 71
     0
 91
        4
 92
        1
 93
        1
 72
     4
 94
        3
 73
     0
 74
     1
 95
      203
 96
      199
 40
0.0
 40
0.0
 40
0.0
 40
0.0
 40
1.0
 40
1.0
 40
1.0
 40
2.0
 40
2.0
 40
2.0
 40
3.0
 40
3.0
 40
3.0
 40
4.0
 40
4.0
 40
4.0
 40
5.0
 40
5.0
 40
5.0
 40
6.0
 40
6.0
 40
6.0
 40
7.0
 40
7.0
 40
7.0
 40
8.0
 40
8.0
 40
8.0
 40
9.0
 40
9.0
 40
9.0
 40
10.0
 40
10.0
 40
10.0
 40
11.0
 40
11.0
 40
11.0
 40
12.0
 40
12.0
 40
12.0
 40
13.0
 40
13.0
 40
13.0
 40
14.0
 40
14.0
 40
14.0
 40
15.0
 40
15.0
 40
15.0
 40
16.0
 40
16.0
 40
16.0
 40
17.0
 40
17.0
 40
17.0
 40
18.0
 40
18.0
 40
18.0
 40
19.0
 40
19.0
 40
19.0
 40
20.0
 40
20.0
 40
20.0
 40
21.0
 40
21.0
 40
21.0
 40
22.0
 40
22.0
 40
22.0
 40
23.0
 40
23.0
 40
23.0
 40
24.0
 40
24.0
 40
24.0
 40
25.0
 40
25.0
 40
25.0
 40
26.0
 40
26.0
 40
26.0
 40
27.0
 40
27.0
 40
27.0
 40
28.0
 40
28.0
 40
28.0
 40
29.0
 40
29.0
 40
29.0
 40
30.0
 40
30.0
 40
30.0
 40
31.0
 40
31.0
 40
31.0
 40
32.0
 40
32.0
 40
32.0
 40
33.0
 40
33.0
 40
33.0
 40
34.0
 40
34.0
 40
34.0
 40
35.0
 40
35.0
 40
35.0
 40
36.0
 40
36.0
 40
36.0
 40
37.0
 40
37.0
 40
37.0
 40
38.0
 40
38.0
 40
38.0
 40
39.0
 40
39.0
 40
39.0
 40
40.0
 40
40.0
 40
40.0
 40
41.0
 40
41.0
 40
41.0
 40
42.0
 40
42.0
 40
42.0
 40
43.0
 40
43.0
 40
43.0
 40
44.0
 40
44.0
 40
44.0
 40
45.0
 40
45.0
 40
45.0
 40
46.0
 40
46.0
 40
46.0
 40
47.0
 40
47.0
 40
47.0
 40
48.0
 40
48.0
 40
48.0
 40
49.0
 40
49.0
 40
49.0
 40
50.0
 40
50.0
 40
50.0
 40
51.0
 40
51.0
 40
51.0
 40
52.0
 40
52.0
 40
52.0
 40
53.0
 40
53.0
 40
53.0
 40
54.0
 40
54.0
 40
54.0
 40
55.0
 40
55.0
 40
55.0
 40
56.0
 40
56.0
 40
56.0
 40
57.0
 40
57.0
 40
57.0
 40
58.0
 40
58.0
 40
58.0
 40
59.0
 40
59.0
 40
59.0
 40
60.0
 40
60.0
 40
60.0
 40
61.0
 40
61.0
 40
61.0
 40
62.0
 40
62.0
 40
62.0
 40
63.0
 40
63.0
 40
63.0
 40
64.0
 40
64.0
 40
64.0
 40
65.0
 40
65.0
 40
65.0
 40
66.0
 40
66.0
 40
66.0
 40
66.0
 10
103.9249226628209
 20
-151.9421467719103
 10
103.9249226628209
 20
-151.9421467719103
 10
103.4360636134639
 20
-151.9421467719103
 10
103.4360636134639
 20
-151.9421467719103
 10
103.426934110428
 20
-151.98658850367
 10
103.4193549003604
 20
-152.0182833821343
 10
103.4083305948076
 20
-152.0565239420206
 10
103.4305514606875
 20
-152.0565239420206
 10
103.4434705687572
 20
-152.0585909993117
 10
103.4489827215336
 20
-152.0585909993117
 10
103.4489827215336
 20
-152.0585909993117
 10
103.6138305405028
 20
-152.0585909993117
 10
103.6138305405028
 20
-152.0585909993117
 10
103.6138305405028
 20
-152.0585909993117
 10
103.9416313759243
 20
-152.0585909993117
 10
103.9416313759243
 20
-152.0585909993117
 10
103.986073107684
 20
-152.0585909993117
 10
104.234119982622
 20
-152.0458441460163
 10
104.2620252560526
 20
-152.0458441460163
 10
104.2601304535357
 20
-152.0734049098983
 10
104.2582356510188
 20
-152.0923529350672
 10
104.2582356510188
 20
-152.1219807562403
 10
104.2565131032761
 20
-152.1536756347047
 10
104.2565131032761
 20
-152.289067887275
 10
104.2565131032761
 20
-152.3166286511569
 10
104.2565131032761
 20
-152.3166286511569
 10
104.2565131032761
 20
-152.5619194497067
 10
104.2565131032761
 20
-152.5619194497067
 10
104.2565131032761
 20
-152.6063611814665
 10
104.2601304535357
 20
-152.8030761336742
 10
104.2637478037952
 20
-152.9556938636708
 10
104.2637478037952
 20
-152.9556938636708
 10
104.0656548133933
 20
-152.9556938636708
 10
104.0656548133933
 20
-152.9556938636708
 10
104.0656548133933
 20
-152.9556938636708
 10
104.0675496159102
 20
-152.9215874183668
 10
104.0675496159102
 20
-152.9215874183668
 10
104.0675496159102
 20
-152.9215874183668
 10
103.4527723265674
 20
-152.9215874183668
 10
103.4527723265674
 20
-152.9215874183668
 10
103.4527723265674
 20
-152.9215874183668
 10
103.4546671290843
 20
-152.9556938636708
 10
103.4546671290843
 20
-152.9556938636708
 10
103.4546671290843
 20
-152.9556938636708
 10
103.2639810939757
 20
-152.9556938636708
 10
103.2639810939757
 20
-152.9556938636708
 10
103.2675984442352
 20
-152.9005723359068
 10
103.2675984442352
 20
-152.8878254826114
 10
103.2731105970116
 20
-152.7734483125011
 10
103.2750053995285
 20
-152.7462320581676
 10
103.2769002020454
 20
-152.6129068628885
 10
103.2769002020454
 20
-152.593614328171
 10
103.2769002020454
 20
-152.593614328171
 10
103.2769002020454
 20
-152.3906982040898
 10
103.2769002020454
 20
-152.3906982040898
 10
103.154599312319
 20
-152.6404676267705
 10
103.0064602064533
 20
-152.7713812552099
 10
102.9139593926743
 20
-152.8371825789782
 10
102.9139593926743
 20
-152.8371825789782
 10
102.7620306817748
 20
-152.6973117022771
 10
102.7620306817748
 20
-152.6973117022771
 10
102.8398898397414
 20
-152.6466687986439
 10
102.9658080797273
 20
-152.5598523924156
 10
103.0862141669368
 20
-152.365204497499
 10
103.1657958726461
 20
-152.2384249836418
 10
103.2231567124755
 20
-152.0944199923584
 10
103.2527845336486
 20
-151.9421467719103
 10
103.0527967407299
 20
-151.9442138292015
 10
102.8953558770539
 20
-151.9507595106234
 10
102.8119845663109
 20
-151.9528265679146
 10
102.8119845663109
 20
-151.9528265679146
 10
102.8119845663109
 20
-151.7750596408757
 10
102.8119845663109
 20
-151.7750596408757
 10
102.9842393405734
 20
-151.7812608127491
 10
103.2324584702856
 20
-151.78573943688
 10
103.3638888630479
 20
-151.78573943688
 10
103.3638888630479
 20
-151.78573943688
 10
103.550957547897
 20
-151.78573943688
 10
103.550957547897
 20
-151.78573943688
 10
103.550957547897
 20
-151.78573943688
 10
103.550957547897
 20
-151.6779079481916
 10
103.550957547897
 20
-151.6779079481916
 10
103.550957547897
 20
-151.6779079481916
 10
103.4231445053942
 20
-151.6779079481916
 10
103.4231445053942
 20
-151.6779079481916
 10
103.2750053995285
 20
-151.6779079481916
 10
103.1268662936627
 20
-151.6820420627739
 10
102.9806219903139
 20
-151.6882432346474
 10
102.9806219903139
 20
-151.6882432346474
 10
102.9806219903139
 20
-151.5170219890305
 10
102.9806219903139
 20
-151.5170219890305
 10
103.1158419881099
 20
-151.5277017850347
 10
103.2787950045623
 20
-151.5277017850347
 10
103.4231445053942
 20
-151.5277017850347
 10
103.4231445053942
 20
-151.5277017850347
 10
103.550957547897
 20
-151.5277017850347
 10
103.550957547897
 20
-151.5277017850347
 10
103.550957547897
 20
-151.5277017850347
 10
103.550957547897
 20
-151.4091905003422
 10
103.550957547897
 20
-151.4091905003422
 10
103.550957547897
 20
-151.4091905003422
 10
103.4360636134639
 20
-151.4091905003422
 10
103.4360636134639
 20
-151.4091905003422
 10
103.395411486738
 20
-151.4091905003422
 10
103.2176445596991
 20
-151.4174587295068
 10
103.1806097832326
 20
-151.4174587295068
 10
103.0028428561937
 20
-151.4219373536376
 10
102.9361802585542
 20
-151.4240044109287
 10
102.8676228583977
 20
-151.4260714682199
 10
102.8676228583977
 20
-151.4260714682199
 10
102.8676228583977
 20
-151.2421033693075
 10
102.8676228583977
 20
-151.2421033693075
 10
102.9677028822442
 20
-151.2503715984721
 10
103.0064602064533
 20
-151.2503715984721
 10
103.3416679971681
 20
-151.2589843371853
 10
103.2860297050813
 20
-151.1635551922438
 10
103.2620862914588
 20
-151.1363389379104
 10
103.2305636677687
 20
-151.1001654353152
 10
103.2305636677687
 20
-151.1001654353152
 10
103.3842149264109
 20
-151.0178276532178
 10
103.3842149264109
 20
-151.0178276532178
 10
103.4193549003604
 20
-151.0536566462644
 10
103.4582844793438
 20
-151.0960313207329
 10
103.5230522744665
 20
-151.2059298667124
 10
103.5230522744665
 20
-151.2059298667124
 10
103.4231445053942
 20
-151.2610513944764
 10
103.4231445053942
 20
-151.2610513944764
 10
103.4231445053942
 20
-151.2610513944764
 10
103.4324462632044
 20
-151.2610513944764
 10
103.4324462632044
 20
-151.2610513944764
 10
103.4324462632044
 20
-151.2610513944764
 10
103.8897826888713
 20
-151.2610513944764
 10
103.8897826888713
 20
-151.2610513944764
 10
103.8897826888713
 20
-151.2610513944764
 10
103.8064113781283
 20
-151.2166096627167
 10
103.8064113781283
 20
-151.2166096627167
 10
103.830527046525
 20
-151.1783691028304
 10
103.8804809310611
 20
-151.0980983780241
 10
103.8934000391308
 20
-151.0240288250912
 10
103.8934000391308
 20
-151.0240288250912
 10
104.0804687239799
 20
-151.0874185820198
 10
104.0804687239799
 20
-151.0874185820198
 10
104.0878756792732
 20
-151.0898301488595
 10
104.1064791948935
 20
-151.1001654353152
 10
104.1064791948935
 20
-151.1215250273238
 10
104.1064791948935
 20
-151.1594210776615
 10
104.0491183550641
 20
-151.1594210776615
 10
104.0324096419607
 20
-151.1594210776615
 10
104.0231078841505
 20
-151.1783691028304
 10
104.0027818207875
 20
-151.2186767200078
 10
103.9767713498739
 20
-151.2589843371853
 10
104.3267930511752
 20
-151.2524386557633
 10
104.3526312673146
 20
-151.2503715984721
 10
104.4194661197285
 20
-151.2441704265987
 10
104.4194661197285
 20
-151.2441704265987
 10
104.4194661197285
 20
-151.4260714682199
 10
104.4194661197285
 20
-151.4260714682199
 10
104.402757406625
 20
-151.4260714682199
 10
104.3805365407452
 20
-151.4240044109287
 10
104.1879557031197
 20
-151.4153916722156
 10
104.14351397136
 20
-151.4133246149244
 10
103.9509331337345
 20
-151.4091905003422
 10
103.9120035547512
 20
-151.4091905003422
 10
103.9120035547512
 20
-151.4091905003422
 10
103.7232123221595
 20
-151.4091905003422
 10
103.7232123221595
 20
-151.4091905003422
 10
103.7232123221595
 20
-151.4091905003422
 10
103.7232123221595
 20
-151.5277017850347
 10
103.7232123221595
 20
-151.5277017850347
 10
103.7232123221595
 20
-151.5277017850347
 10
103.8749687782847
 20
-151.5277017850347
 10
103.8749687782847
 20
-151.5277017850347
 10
104.0175957313741
 20
-151.5277017850347
 10
104.1841660980859
 20
-151.5277017850347
 10
104.3212808983989
 20
-151.5170219890305
 10
104.3212808983989
 20
-151.5170219890305
 10
104.3212808983989
 20
-151.6882432346474
 10
104.3212808983989
 20
-151.6882432346474
 10
104.1380018185836
 20
-151.6799750054828
 10
103.9657470443211
 20
-151.6779079481916
 10
103.8749687782847
 20
-151.6779079481916
 10
103.8749687782847
 20
-151.6779079481916
 10
103.7232123221595
 20
-151.6779079481916
 10
103.7232123221595
 20
-151.6779079481916
 10
103.7232123221595
 20
-151.6779079481916
 10
103.7232123221595
 20
-151.78573943688
 10
103.7232123221595
 20
-151.78573943688
 10
103.7232123221595
 20
-151.78573943688
 10
103.9249226628209
 20
-151.78573943688
 10
103.9249226628209
 20
-151.78573943688
 10
104.0415391449966
 20
-151.78573943688
 10
104.2933756249683
 20
-151.7812608127491
 10
104.4768269595579
 20
-151.7750596408757
 10
104.4768269595579
 20
-151.7750596408757
 10
104.4768269595579
 20
-151.9528265679146
 10
104.4768269595579
 20
-151.9528265679146
 10
104.3081895355549
 20
-151.9462808864926
 10
104.0343044444775
 20
-151.9421467719103
 10
103.9249226628209
 20
-151.9421467719103
 97
        0
 97
        0
 92
        1
 93
        4
 72
     1
 10
104.0694444184271
 20
-152.1981173664644
 11
103.4508775240505
 21
-152.1981173664644
 72
     1
 10
103.4508775240505
 20
-152.1981173664644
 11
103.4508775240505
 21
-152.3059488551527
 72
     1
 10
103.4508775240505
 20
-152.3059488551527
 11
104.0694444184271
 21
-152.3059488551527
 72
     1
 10
104.0694444184271
 20
-152.3059488551527
 11
104.0694444184271
 21
-152.1981173664644
 97
        0
 92
        1
 93
        4
 72
     1
 10
104.0694444184271
 20
-152.4310058212673
 11
103.4508775240505
 21
-152.4310058212673
 72
     1
 10
103.4508775240505
 20
-152.4310058212673
 11
103.4508775240505
 21
-152.545038481829
 72
     1
 10
103.4508775240505
 20
-152.545038481829
 11
104.0694444184271
 21
-152.545038481829
 72
     1
 10
104.0694444184271
 20
-152.545038481829
 11
104.0694444184271
 21
-152.4310058212673
 97
        0
 92
        1
 93
        4
 72
     1
 10
104.0694444184271
 20
-152.6742295625259
 11
103.4508775240505
 21
-152.6742295625259
 72
     1
 10
103.4508775240505
 20
-152.6742295625259
 11
103.4508775240505
 21
-152.7882622230877
 72
     1
 10
103.4508775240505
 20
-152.7882622230877
 11
104.0694444184271
 21
-152.7882622230877
 72
     1
 10
104.0694444184271
 20
-152.7882622230877
 11
104.0694444184271
 21
-152.6742295625259
 97
        0
 75
     2
 76
     1
 98
        0
  0
SPLINE
  5
74
330
55
100
AcDbEntity
  8
_U+30EC_U+30A4_U+30E4_U+30FC 1
370
     0
100
AcDbSpline
210
0.0
220
0.0
230
1.0
 70
    11
 71
     3
 72
    47
 73
    43
 74
     0
 42
0.0000000001
 43
0.0000000001
 12
1.0
 22
0.0
 32
0.0
 13
1.0
 23
0.0
 33
0.0
 40
0.0
 40
0.0
 40
0.0
 40
0.0
 40
1.0
 40
1.0
 40
1.0
 40
2.0
 40
2.0
 40
2.0
 40
3.0
 40
3.0
 40
3.0
 40
4.0
 40
4.0
 40
4.0
 40
5.0
 40
5.0
 40
5.0
 40
6.0
 40
6.0
 40
6.0
 40
7.0
 40
7.0
 40
7.0
 40
8.0
 40
8.0
 40
8.0
 40
9.0
 40
9.0
 40
9.0
 40
10.0
 40
10.0
 40
10.0
 40
11.0
 40
11.0
 40
11.0
 40
12.0
 40
12.0
 40
12.0
 40
13.0
 40
13.0
 40
13.0
 40
14.0
 40
14.0
 40
14.0
 40
14.0
 10
105.6565999084817
 20
-151.9190646321591
 30
0.0
 10
105.6565999084817
 20
-151.9190646321591
 30
0.0
 10
105.5677164449622
 20
-151.9190646321591
 30
0.0
 10
105.5677164449622
 20
-151.9190646321591
 30
0.0
 10
105.5677164449622
 20
-152.0055365288389
 30
0.0
 10
105.5494574388904
 20
-152.3948323186721
 30
0.0
 10
105.3770304098537
 20
-152.6149739201796
 30
0.0
 10
105.2437052145745
 20
-152.7841281085054
 30
0.0
 10
105.0623209372761
 20
-152.8540635468559
 30
0.0
 10
104.9882513843432
 20
-152.8816243107379
 30
0.0
 10
104.9882513843432
 20
-152.8816243107379
 30
0.0
 10
104.8177191578233
 20
-152.7145371797033
 30
0.0
 10
104.8177191578233
 20
-152.7145371797033
 30
0.0
 10
104.9029852710833
 20
-152.7017903264079
 30
0.0
 10
105.0566365297254
 20
-152.6783636771082
 30
0.0
 10
105.2214843486946
 20
-152.4902614636136
 30
0.0
 10
105.2862521438173
 20
-152.4182589679718
 30
0.0
 10
105.3770304098537
 20
-152.2787326008192
 30
0.0
 10
105.3770304098537
 20
-151.9190646321591
 30
0.0
 10
105.3770304098537
 20
-151.9190646321591
 30
0.0
 10
105.175147814418
 20
-151.9190646321591
 30
0.0
 10
105.175147814418
 20
-151.9190646321591
 30
0.0
 10
105.0121947979657
 20
-151.9190646321591
 30
0.0
 10
104.8492417815134
 20
-151.9231987467414
 30
0.0
 10
104.6862887650611
 20
-151.938012657328
 30
0.0
 10
104.6862887650611
 20
-151.938012657328
 30
0.0
 10
104.6862887650611
 20
-151.7178710558206
 30
0.0
 10
104.6862887650611
 20
-151.7178710558206
 30
0.0
 10
104.8511365840303
 20
-151.7326849664071
 30
0.0
 10
105.1010782614852
 20
-151.7371635905379
 30
0.0
 10
105.175147814418
 20
-151.7371635905379
 30
0.0
 10
105.175147814418
 20
-151.7371635905379
 30
0.0
 10
105.6565999084817
 20
-151.7371635905379
 30
0.0
 10
105.6565999084817
 20
-151.7371635905379
 30
0.0
 10
105.6734808763594
 20
-151.7371635905379
 30
0.0
 10
105.9511555724706
 20
-151.7371635905379
 30
0.0
 10
106.150971110615
 20
-151.7178710558206
 30
0.0
 10
106.150971110615
 20
-151.7178710558206
 30
0.0
 10
106.150971110615
 20
-151.938012657328
 30
0.0
 10
106.150971110615
 20
-151.938012657328
 30
0.0
 10
105.9862955464201
 20
-151.9231987467414
 30
0.0
 10
105.8216199822252
 20
-151.9190646321591
 30
0.0
 10
105.6565999084817
 20
-151.9190646321591
 30
0.0
  0
SPLINE
  5
75
330
55
100
AcDbEntity
  8
_U+30EC_U+30A4_U+30E4_U+30FC 1
370
     0
100
AcDbSpline
210
0.0
220
0.0
230
1.0
 70
    11
 71
     3
 72
    29
 73
    25
 74
     0
 42
0.0000000001
 43
0.0000000001
 12
1.0
 22
0.0
 32
0.0
 13
1.0
 23
0.0
 33
0.0
 40
0.0
 40
0.0
 40
0.0
 40
0.0
 40
1.0
 40
1.0
 40
1.0
 40
2.0
 40
2.0
 40
2.0
 40
3.0
 40
3.0
 40
3.0
 40
4.0
 40
4.0
 40
4.0
 40
5.0
 40
5.0
 40
5.0
 40
6.0
 40
6.0
 40
6.0
 40
7.0
 40
7.0
 40
7.0
 40
8.0
 40
8.0
 40
8.0
 40
8.0
 10
105.5677164449622
 20
-151.3898979656248
 30
0.0
 10
105.5677164449622
 20
-151.3898979656248
 30
0.0
 10
105.2585191251611
 20
-151.3898979656248
 30
0.0
 10
105.2585191251611
 20
-151.3898979656248
 30
0.0
 10
105.1603339038314
 20
-151.3898979656248
 30
0.0
 10
105.0382052688793
 20
-151.3964436470467
 30
0.0
 10
104.9438096525835
 20
-151.4091905003422
 30
0.0
 10
104.9438096525835
 20
-151.4091905003422
 30
0.0
 10
104.9438096525835
 20
-151.1742349882481
 30
0.0
 10
104.9438096525835
 20
-151.1742349882481
 30
0.0
 10
105.0475070266895
 20
-151.1890488988347
 30
0.0
 10
105.2085652406249
 20
-151.193183013417
 30
0.0
 10
105.2585191251611
 20
-151.193183013417
 30
0.0
 10
105.2585191251611
 20
-151.193183013417
 30
0.0
 10
105.5677164449622
 20
-151.193183013417
 30
0.0
 10
105.5677164449622
 20
-151.193183013417
 30
0.0
 10
105.58459741284
 20
-151.193183013417
 30
0.0
 10
105.7623643398789
 20
-151.193183013417
 30
0.0
 10
105.8863877773478
 20
-151.1742349882481
 30
0.0
 10
105.8863877773478
 20
-151.1742349882481
 30
0.0
 10
105.8863877773478
 20
-151.4091905003422
 30
0.0
 10
105.8863877773478
 20
-151.4091905003422
 30
0.0
 10
105.7492729770349
 20
-151.3898979656248
 30
0.0
 10
105.5825303555488
 20
-151.3898979656248
 30
0.0
 10
105.5677164449622
 20
-151.3898979656248
 30
0.0
  0
HATCH
  5
76
330
55
100
AcDbEntity
  8
_U+30EC_U+30A4_U+30E4_U+30FC 1
 62
   179
420
  2234388
100
AcDbHatch
 10
0.0
 20
0.0
 30
0.0
210
0.0
220
0.0
230
1.0
  2
SOLID
 70
     1
 71
     0
 91
        2
 92
        1
 93
        1
 72
     4
 94
        3
 73
     0
 74
     1
 95
       47
 96
       43
 40
0.0
 40
0.0
 40
0.0
 40
0.0
 40
1.0
 40
1.0
 40
1.0
 40
2.0
 40
2.0
 40
2.0
 40
3.0
 40
3.0
 40
3.0
 40
4.0
 40
4.0
 40
4.0
 40
5.0
 40
5.0
 40
5.0
 40
6.0
 40
6.0
 40
6.0
 40
7.0
 40
7.0
 40
7.0
 40
8.0
 40
8.0
 40
8.0
 40
9.0
 40
9.0
 40
9.0
 40
10.0
 40
10.0
 40
10.0
 40
11.0
 40
11.0
 40
11.0
 40
12.0
 40
12.0
 40
12.0
 40
13.0
 40
13.0
 40
13.0
 40
14.0
 40
14.0
 40
14.0
 40
14.0
 10
105.6565999084817
 20
-151.9190646321591
 10
105.6565999084817
 20
-151.9190646321591
 10
105.5677164449622
 20
-151.9190646321591
 10
105.5677164449622
 20
-151.9190646321591
 10
105.5677164449622
 20
-152.0055365288389
 10
105.5494574388904
 20
-152.3948323186721
 10
105.3770304098537
 20
-152.6149739201796
 10
105.2437052145745
 20
-152.7841281085054
 10
105.0623209372761
 20
-152.8540635468559
 10
104.9882513843432
 20
-152.8816243107379
 10
104.9882513843432
 20
-152.8816243107379
 10
104.8177191578233
 20
-152.7145371797033
 10
104.8177191578233
 20
-152.7145371797033
 10
104.9029852710833
 20
-152.7017903264079
 10
105.0566365297254
 20
-152.6783636771082
 10
105.2214843486946
 20
-152.4902614636136
 10
105.2862521438173
 20
-152.4182589679718
 10
105.3770304098537
 20
-152.2787326008192
 10
105.3770304098537
 20
-151.9190646321591
 10
105.3770304098537
 20
-151.9190646321591
 10
105.175147814418
 20
-151.9190646321591
 10
105.175147814418
 20
-151.9190646321591
 10
105.0121947979657
 20
-151.9190646321591
 10
104.8492417815134
 20
-151.9231987467414
 10
104.6862887650611
 20
-151.938012657328
 10
104.6862887650611
 20
-151.938012657328
 10
104.6862887650611
 20
-151.7178710558206
 10
104.6862887650611
 20
-151.7178710558206
 10
104.8511365840303
 20
-151.7326849664071
 10
105.1010782614852
 20
-151.7371635905379
 10
105.175147814418
 20
-151.7371635905379
 10
105.175147814418
 20
-151.7371635905379
 10
105.6565999084817
 20
-151.7371635905379
 10
105.6565999084817
 20
-151.7371635905379
 10
105.6734808763594
 20
-151.7371635905379
 10
105.9511555724706
 20
-151.7371635905379
 10
106.150971110615
 20
-151.7178710558206
 10
106.150971110615
 20
-151.7178710558206
 10
106.150971110615
 20
-151.938012657328
 10
106.150971110615
 20
-151.938012657328
 10
105.9862955464201
 20
-151.9231987467414
 10
105.8216199822252
 20
-151.9190646321591
 10
105.6565999084817
 20
-151.9190646321591
 97
        0
 97
        0
 92
        1
 93
        1
 72
     4
 94
        3
 73
     0
 74
     1
 95
       29
 96
       25
 40
0.0
 40
0.0
 40
0.0
 40
0.0
 40
1.0
 40
1.0
 40
1.0
 40
2.0
 40
2.0
 40
2.0
 40
3.0
 40
3.0
 40
3.0
 40
4.0
 40
4.0
 40
4.0
 40
5.0
 40
5.0
 40
5.0
 40
6.0
 40
6.0
 40
6.0
 40
7.0
 40
7.0
 40
7.0
 40
8.0
 40
8.0
 40
8.0
 40
8.0
 10
105.5677164449622
 20
-151.3898979656248
 10
105.5677164449622
 20
-151.3898979656248
 10
105.2585191251611
 20
-151.3898979656248
 10
105.2585191251611
 20
-151.3898979656248
 10
105.1603339038314
 20
-151.3898979656248
 10
105.0382052688793
 20
-151.3964436470467
 10
104.9438096525835
 20
-151.4091905003422
 10
104.9438096525835
 20
-151.4091905003422
 10
104.9438096525835
 20
-151.1742349882481
 10
104.9438096525835
 20
-151.1742349882481
 10
105.0475070266895
 20
-151.1890488988347
 10
105.2085652406249
 20
-151.193183013417
 10
105.2585191251611
 20
-151.193183013417
 10
105.2585191251611
 20
-151.193183013417
 10
105.5677164449622
 20
-151.193183013417
 10
105.5677164449622
 20
-151.193183013417
 10
105.58459741284
 20
-151.193183013417
 10
105.7623643398789
 20
-151.193183013417
 10
105.8863877773478
 20
-151.1742349882481
 10
105.8863877773478
 20
-151.1742349882481
 10
105.8863877773478
 20
-151.4091905003422
 10
105.8863877773478
 20
-151.4091905003422
 10
105.7492729770349
 20
-151.3898979656248
 10
105.5825303555488
 20
-151.3898979656248
 10
105.5677164449622
 20
-151.3898979656248
 97
        0
 97
        0
 75
     2
 76
     1
 98
        0
  0
SPLINE
  5
77
330
55
100
AcDbEntity
  8
_U+30EC_U+30A4_U+30E4_U+30FC 1
370
     0
100
AcDbSpline
210
0.0
220
0.0
230
1.0
 70
    11
 71
     3
 72
    29
 73
    25
 74
     0
 42
0.0000000001
 43
0.0000000001
 12
1.0
 22
0.0
 32
0.0
 13
1.0
 23
0.0
 33
0.0
 40
0.0
 40
0.0
 40
0.0
 40
0.0
 40
1.0
 40
1.0
 40
1.0
 40
2.0
 40
2.0
 40
2.0
 40
3.0
 40
3.0
 40
3.0
 40
4.0
 40
4.0
 40
4.0
 40
5.0
 40
5.0
 40
5.0
 40
6.0
 40
6.0
 40
6.0
 40
7.0
 40
7.0
 40
7.0
 40
8.0
 40
8.0
 40
8.0
 40
8.0
 10
107.2754502770006
 20
-152.0816731390629
 30
0.0
 10
107.2754502770006
 20
-152.0816731390629
 30
0.0
 10
106.8510145132178
 20
-152.0816731390629
 30
0.0
 10
106.8510145132178
 20
-152.0816731390629
 30
0.0
 10
106.8272433543696
 20
-152.0816731390629
 30
0.0
 10
106.5492241487099
 20
-152.0816731390629
 30
0.0
 10
106.364222521152
 20
-152.1071668456538
 30
0.0
 10
106.364222521152
 20
-152.1071668456538
 30
0.0
 10
106.364222521152
 20
-151.8766899576906
 30
0.0
 10
106.364222521152
 20
-151.8766899576906
 30
0.0
 10
106.5030598692076
 20
-151.8997720974417
 30
0.0
 10
106.6698024906937
 20
-151.9021836642814
 30
0.0
 10
106.8510145132178
 20
-151.9021836642814
 30
0.0
 10
106.8510145132178
 20
-151.9021836642814
 30
0.0
 10
107.2754502770006
 20
-151.9021836642814
 30
0.0
 10
107.2754502770006
 20
-151.9021836642814
 30
0.0
 10
107.4380587839044
 20
-151.9021836642814
 30
0.0
 10
107.6013563099052
 20
-151.8997720974417
 30
0.0
 10
107.7622422690664
 20
-151.8766899576906
 30
0.0
 10
107.7622422690664
 20
-151.8766899576906
 30
0.0
 10
107.7622422690664
 20
-152.1071668456538
 30
0.0
 10
107.7622422690664
 20
-152.1071668456538
 30
0.0
 10
107.6013563099052
 20
-152.0840847059026
 30
0.0
 10
107.3843152943345
 20
-152.0816731390629
 30
0.0
 10
107.2754502770006
 20
-152.0816731390629
 30
0.0
  0
HATCH
  5
78
330
55
100
AcDbEntity
  8
_U+30EC_U+30A4_U+30E4_U+30FC 1
 62
   179
420
  2234388
100
AcDbHatch
 10
0.0
 20
0.0
 30
0.0
210
0.0
220
0.0
230
1.0
  2
SOLID
 70
     1
 71
     0
 91
        1
 92
        1
 93
        1
 72
     4
 94
        3
 73
     0
 74
     1
 95
       29
 96
       25
 40
0.0
 40
0.0
 40
0.0
 40
0.0
 40
1.0
 40
1.0
 40
1.0
 40
2.0
 40
2.0
 40
2.0
 40
3.0
 40
3.0
 40
3.0
 40
4.0
 40
4.0
 40
4.0
 40
5.0
 40
5.0
 40
5.0
 40
6.0
 40
6.0
 40
6.0
 40
7.0
 40
7.0
 40
7.0
 40
8.0
 40
8.0
 40
8.0
 40
8.0
 10
107.2754502770006
 20
-152.0816731390629
 10
107.2754502770006
 20
-152.0816731390629
 10
106.8510145132178
 20
-152.0816731390629
 10
106.8510145132178
 20
-152.0816731390629
 10
106.8272433543696
 20
-152.0816731390629
 10
106.5492241487099
 20
-152.0816731390629
 10
106.364222521152
 20
-152.1071668456538
 10
106.364222521152
 20
-152.1071668456538
 10
106.364222521152
 20
-151.8766899576906
 10
106.364222521152
 20
-151.8766899576906
 10
106.5030598692076
 20
-151.8997720974417
 10
106.6698024906937
 20
-151.9021836642814
 10
106.8510145132178
 20
-151.9021836642814
 10
106.8510145132178
 20
-151.9021836642814
 10
107.2754502770006
 20
-151.9021836642814
 10
107.2754502770006
 20
-151.9021836642814
 10
107.4380587839044
 20
-151.9021836642814
 10
107.6013563099052
 20
-151.8997720974417
 10
107.7622422690664
 20
-151.8766899576906
 10
107.7622422690664
 20
-151.8766899576906
 10
107.7622422690664
 20
-152.1071668456538
 10
107.7622422690664
 20
-152.1071668456538
 10
107.6013563099052
 20
-152.0840847059026
 10
107.3843152943345
 20
-152.0816731390629
 10
107.2754502770006
 20
-152.0816731390629
 97
        0
 97
        0
 75
     2
 76
     1
 98
        0
  0
SPLINE
  5
79
330
55
100
AcDbEntity
  8
_U+30EC_U+30A4_U+30E4_U+30FC 1
370
     0
100
AcDbSpline
210
0.0
220
0.0
230
1.0
 70
    11
 71
     3
 72
    47
 73
    43
 74
     0
 42
0.0000000001
 43
0.0000000001
 12
1.0
 22
0.0
 32
0.0
 13
1.0
 23
0.0
 33
0.0
 40
0.0
 40
0.0
 40
0.0
 40
0.0
 40
1.0
 40
1.0
 40
1.0
 40
2.0
 40
2.0
 40
2.0
 40
3.0
 40
3.0
 40
3.0
 40
4.0
 40
4.0
 40
4.0
 40
5.0
 40
5.0
 40
5.0
 40
6.0
 40
6.0
 40
6.0
 40
7.0
 40
7.0
 40
7.0
 40
8.0
 40
8.0
 40
8.0
 40
9.0
 40
9.0
 40
9.0
 40
10.0
 40
10.0
 40
10.0
 40
11.0
 40
11.0
 40
11.0
 40
12.0
 40
12.0
 40
12.0
 40
13.0
 40
13.0
 40
13.0
 40
14.0
 40
14.0
 40
14.0
 40
14.0
 10
109.2198621688756
 20
-151.4873941678573
 30
0.0
 10
109.1585394692381
 20
-151.7667914117111
 30
0.0
 10
109.0917046168243
 20
-152.0713378526072
 30
0.0
 10
108.8178195257469
 20
-152.4034450573853
 30
0.0
 10
108.6104247775349
 20
-152.6528699705173
 30
0.0
 10
108.3957953288038
 20
-152.7524332300411
 30
0.0
 10
108.3031222602506
 20
-152.7948079045096
 30
0.0
 10
108.3031222602506
 20
-152.7948079045096
 30
0.0
 10
108.1325900337308
 20
-152.6129068628885
 30
0.0
 10
108.1325900337308
 20
-152.6129068628885
 30
0.0
 10
108.2955430501831
 20
-152.5663980738376
 30
0.0
 10
108.6121473252775
 20
-152.4730359861873
 30
0.0
 10
108.8715630153168
 20
-151.9783202745054
 30
0.0
 10
109.0124674206636
 20
-151.7116698839471
 30
0.0
 10
109.0234917262163
 20
-151.5380370714905
 30
0.0
 10
109.0307264267354
 20
-151.4470865506799
 30
0.0
 10
109.0307264267354
 20
-151.4470865506799
 30
0.0
 10
108.5880316568808
 20
-151.4470865506799
 30
0.0
 10
108.5880316568808
 20
-151.4470865506799
 30
0.0
 10
108.4846787923233
 20
-151.4470865506799
 30
0.0
 10
108.1160535754016
 20
-151.4663790853973
 30
0.0
 10
107.9827283801224
 20
-151.4767143718531
 30
0.0
 10
107.9827283801224
 20
-151.4767143718531
 30
0.0
 10
107.9827283801224
 20
-151.2672525663499
 30
0.0
 10
107.9827283801224
 20
-151.2672525663499
 30
0.0
 10
108.1067518175914
 20
-151.2799994196453
 30
0.0
 10
108.349286539753
 20
-151.2841335342276
 30
0.0
 10
108.4512613661164
 20
-151.2841335342276
 30
0.0
 10
108.4512613661164
 20
-151.2841335342276
 30
0.0
 10
108.7623534884344
 20
-151.2841335342276
 30
0.0
 10
108.7623534884344
 20
-151.2841335342276
 30
0.0
 10
108.7864691568312
 20
-151.2841335342276
 30
0.0
 10
108.9270290526294
 20
-151.2820664769364
 30
0.0
 10
109.0234917262163
 20
-151.2672525663499
 30
0.0
 10
109.0734456107525
 20
-151.2610513944764
 30
0.0
 10
109.0882595213391
 20
-151.2421033693075
 30
0.0
 10
109.108585584702
 20
-151.2186767200078
 30
0.0
 10
109.108585584702
 20
-151.2186767200078
 30
0.0
 10
109.273261148897
 20
-151.3688828831647
 30
0.0
 10
109.273261148897
 20
-151.3688828831647
 30
0.0
 10
109.2605142956015
 20
-151.3985107043379
 30
0.0
 10
109.2512125377914
 20
-151.4174587295068
 30
0.0
 10
109.2198621688756
 20
-151.4873941678573
 30
0.0
  0
HATCH
  5
7A
330
55
100
AcDbEntity
  8
_U+30EC_U+30A4_U+30E4_U+30FC 1
 62
   179
420
  2234388
100
AcDbHatch
 10
0.0
 20
0.0
 30
0.0
210
0.0
220
0.0
230
1.0
  2
SOLID
 70
     1
 71
     0
 91
        1
 92
        1
 93
        1
 72
     4
 94
        3
 73
     0
 74
     1
 95
       47
 96
       43
 40
0.0
 40
0.0
 40
0.0
 40
0.0
 40
1.0
 40
1.0
 40
1.0
 40
2.0
 40
2.0
 40
2.0
 40
3.0
 40
3.0
 40
3.0
 40
4.0
 40
4.0
 40
4.0
 40
5.0
 40
5.0
 40
5.0
 40
6.0
 40
6.0
 40
6.0
 40
7.0
 40
7.0
 40
7.0
 40
8.0
 40
8.0
 40
8.0
 40
9.0
 40
9.0
 40
9.0
 40
10.0
 40
10.0
 40
10.0
 40
11.0
 40
11.0
 40
11.0
 40
12.0
 40
12.0
 40
12.0
 40
13.0
 40
13.0
 40
13.0
 40
14.0
 40
14.0
 40
14.0
 40
14.0
 10
109.2198621688756
 20
-151.4873941678573
 10
109.1585394692381
 20
-151.7667914117111
 10
109.0917046168243
 20
-152.0713378526072
 10
108.8178195257469
 20
-152.4034450573853
 10
108.6104247775349
 20
-152.6528699705173
 10
108.3957953288038
 20
-152.7524332300411
 10
108.3031222602506
 20
-152.7948079045096
 10
108.3031222602506
 20
-152.7948079045096
 10
108.1325900337308
 20
-152.6129068628885
 10
108.1325900337308
 20
-152.6129068628885
 10
108.2955430501831
 20
-152.5663980738376
 10
108.6121473252775
 20
-152.4730359861873
 10
108.8715630153168
 20
-151.9783202745054
 10
109.0124674206636
 20
-151.7116698839471
 10
109.0234917262163
 20
-151.5380370714905
 10
109.0307264267354
 20
-151.4470865506799
 10
109.0307264267354
 20
-151.4470865506799
 10
108.5880316568808
 20
-151.4470865506799
 10
108.5880316568808
 20
-151.4470865506799
 10
108.4846787923233
 20
-151.4470865506799
 10
108.1160535754016
 20
-151.4663790853973
 10
107.9827283801224
 20
-151.4767143718531
 10
107.9827283801224
 20
-151.4767143718531
 10
107.9827283801224
 20
-151.2672525663499
 10
107.9827283801224
 20
-151.2672525663499
 10
108.1067518175914
 20
-151.2799994196453
 10
108.349286539753
 20
-151.2841335342276
 10
108.4512613661164
 20
-151.2841335342276
 10
108.4512613661164
 20
-151.2841335342276
 10
108.7623534884344
 20
-151.2841335342276
 10
108.7623534884344
 20
-151.2841335342276
 10
108.7864691568312
 20
-151.2841335342276
 10
108.9270290526294
 20
-151.2820664769364
 10
109.0234917262163
 20
-151.2672525663499
 10
109.0734456107525
 20
-151.2610513944764
 10
109.0882595213391
 20
-151.2421033693075
 10
109.108585584702
 20
-151.2186767200078
 10
109.108585584702
 20
-151.2186767200078
 10
109.273261148897
 20
-151.3688828831647
 10
109.273261148897
 20
-151.3688828831647
 10
109.2605142956015
 20
-151.3985107043379
 10
109.2512125377914
 20
-151.4174587295068
 10
109.2198621688756
 20
-151.4873941678573
 97
        0
 97
        0
 75
     2
 76
     1
 98
        0
  0
SPLINE
  5
7B
330
55
100
AcDbEntity
  8
_U+30EC_U+30A4_U+30E4_U+30FC 1
370
     0
100
AcDbSpline
210
0.0
220
0.0
230
1.0
 70
    11
 71
     3
 72
    17
 73
    13
 74
     0
 42
0.0000000001
 43
0.0000000001
 12
1.0
 22
0.0
 32
0.0
 13
1.0
 23
0.0
 33
0.0
 40
0.0
 40
0.0
 40
0.0
 40
0.0
 40
1.0
 40
1.0
 40
1.0
 40
2.0
 40
2.0
 40
2.0
 40
3.0
 40
3.0
 40
3.0
 40
4.0
 40
4.0
 40
4.0
 40
4.0
 10
109.8399793562206
 20
-151.269319623641
 30
0.0
 10
109.8399793562206
 20
-151.3836967937513
 30
0.0
 10
109.7586751027687
 20
-151.4787814291442
 30
0.0
 10
109.6567002764053
 20
-151.4787814291442
 30
0.0
 10
109.556792507333
 20
-151.4787814291442
 30
0.0
 10
109.47342119659
 20
-151.3836967937513
 30
0.0
 10
109.47342119659
 20
-151.269319623641
 30
0.0
 10
109.47342119659
 20
-151.1532199057881
 30
0.0
 10
109.556792507333
 20
-151.0602023276863
 30
0.0
 10
109.6567002764053
 20
-151.0602023276863
 30
0.0
 10
109.7566080454775
 20
-151.0602023276863
 30
0.0
 10
109.8399793562206
 20
-151.1532199057881
 30
0.0
 10
109.8399793562206
 20
-151.269319623641
 30
0.0
  0
SPLINE
  5
7C
330
55
100
AcDbEntity
  8
_U+30EC_U+30A4_U+30E4_U+30FC 1
370
     0
100
AcDbSpline
210
0.0
220
0.0
230
1.0
 70
    11
 71
     3
 72
    17
 73
    13
 74
     0
 42
0.0000000001
 43
0.0000000001
 12
1.0
 22
0.0
 32
0.0
 13
1.0
 23
0.0
 33
0.0
 40
0.0
 40
0.0
 40
0.0
 40
0.0
 40
1.0
 40
1.0
 40
1.0
 40
2.0
 40
2.0
 40
2.0
 40
3.0
 40
3.0
 40
3.0
 40
4.0
 40
4.0
 40
4.0
 40
4.0
 10
109.564027207852
 20
-151.269319623641
 30
0.0
 10
109.564027207852
 20
-151.3285752659873
 30
0.0
 10
109.6050238441265
 20
-151.3754285645867
 30
0.0
 10
109.6567002764053
 20
-151.3754285645867
 30
0.0
 10
109.708376708684
 20
-151.3754285645867
 30
0.0
 10
109.7510958927011
 20
-151.3285752659873
 30
0.0
 10
109.7510958927011
 20
-151.269319623641
 30
0.0
 10
109.7510958927011
 20
-151.2104084908432
 30
0.0
 10
109.708376708684
 20
-151.1614881349527
 30
0.0
 10
109.6567002764053
 20
-151.1614881349527
 30
0.0
 10
109.6050238441265
 20
-151.1614881349527
 30
0.0
 10
109.564027207852
 20
-151.2104084908432
 30
0.0
 10
109.564027207852
 20
-151.269319623641
 30
0.0
  0
HATCH
  5
7D
330
55
100
AcDbEntity
  8
_U+30EC_U+30A4_U+30E4_U+30FC 1
 62
   179
420
  2234388
100
AcDbHatch
 10
0.0
 20
0.0
 30
0.0
210
0.0
220
0.0
230
1.0
  2
SOLID
 70
     1
 71
     0
 91
        2
 92
        1
 93
        1
 72
     4
 94
        3
 73
     0
 74
     1
 95
       17
 96
       13
 40
0.0
 40
0.0
 40
0.0
 40
0.0
 40
1.0
 40
1.0
 40
1.0
 40
2.0
 40
2.0
 40
2.0
 40
3.0
 40
3.0
 40
3.0
 40
4.0
 40
4.0
 40
4.0
 40
4.0
 10
109.8399793562206
 20
-151.269319623641
 10
109.8399793562206
 20
-151.3836967937513
 10
109.7586751027687
 20
-151.4787814291442
 10
109.6567002764053
 20
-151.4787814291442
 10
109.556792507333
 20
-151.4787814291442
 10
109.47342119659
 20
-151.3836967937513
 10
109.47342119659
 20
-151.269319623641
 10
109.47342119659
 20
-151.1532199057881
 10
109.556792507333
 20
-151.0602023276863
 10
109.6567002764053
 20
-151.0602023276863
 10
109.7566080454775
 20
-151.0602023276863
 10
109.8399793562206
 20
-151.1532199057881
 10
109.8399793562206
 20
-151.269319623641
 97
        0
 97
        0
 92
        1
 93
        1
 72
     4
 94
        3
 73
     0
 74
     1
 95
       17
 96
       13
 40
0.0
 40
0.0
 40
0.0
 40
0.0
 40
1.0
 40
1.0
 40
1.0
 40
2.0
 40
2.0
 40
2.0
 40
3.0
 40
3.0
 40
3.0
 40
4.0
 40
4.0
 40
4.0
 40
4.0
 10
109.564027207852
 20
-151.269319623641
 10
109.564027207852
 20
-151.3285752659873
 10
109.6050238441265
 20
-151.3754285645867
 10
109.6567002764053
 20
-151.3754285645867
 10
109.708376708684
 20
-151.3754285645867
 10
109.7510958927011
 20
-151.3285752659873
 10
109.7510958927011
 20
-151.269319623641
 10
109.7510958927011
 20
-151.2104084908432
 10
109.708376708684
 20
-151.1614881349527
 10
109.6567002764053
 20
-151.1614881349527
 10
109.6050238441265
 20
-151.1614881349527
 10
109.564027207852
 20
-151.2104084908432
 10
109.564027207852
 20
-151.269319623641
 97
        0
 97
        0
 75
     2
 76
     1
 98
        0
  0
ENDBLK
  5
58
330
55
100
AcDbEntity
  8
0
100
AcDbBlockEnd
  0
BLOCK
  5
11D
330
11B
100
AcDbEntity
  8
0
100
AcDbBlockBegin
  2
block 3
 70
     0
 10
0.0
 20
0.0
 30
0.0
  3
block 3
  1

  0
SPLINE
  5
11F
330
11B
100
AcDbEntity
  8
_U+30EC_U+30A4_U+30E4_U+30FC 1
370
     0
100
AcDbSpline
210
0.0
220
0.0
230
1.0
 70
    11
 71
     3
 72
    44
 73
    40
 74
     0
 42
0.0000000001
 43
0.0000000001
 12
1.0
 22
0.0
 32
0.0
 13
1.0
 23
0.0
 33
0.0
 40
0.0
 40
0.0
 40
0.0
 40
0.0
 40
1.0
 40
1.0
 40
1.0
 40
2.0
 40
2.0
 40
2.0
 40
3.0
 40
3.0
 40
3.0
 40
4.0
 40
4.0
 40
4.0
 40
5.0
 40
5.0
 40
5.0
 40
6.0
 40
6.0
 40
6.0
 40
7.0
 40
7.0
 40
7.0
 40
8.0
 40
8.0
 40
8.0
 40
9.0
 40
9.0
 40
9.0
 40
10.0
 40
10.0
 40
10.0
 40
11.0
 40
11.0
 40
11.0
 40
12.0
 40
12.0
 40
12.0
 40
13.0
 40
13.0
 40
13.0
 40
13.0
 10
90.77206486445976
 20
-147.566875505643
 30
0.0
 10
90.93088376632979
 20
-147.7575615407516
 30
0.0
 10
91.00495331926265
 20
-147.8390380489778
 30
0.0
 10
91.14861380099757
 20
-147.8815849782206
 30
0.0
 10
91.14861380099757
 20
-147.8815849782206
 30
0.0
 10
91.14861380099757
 20
-147.2001450912382
 30
0.0
 10
91.14861380099757
 20
-147.2001450912382
 30
0.0
 10
91.14861380099757
 20
-147.2001450912382
 30
0.0
 10
91.35394149191846
 20
-147.2001450912382
 30
0.0
 10
91.35394149191846
 20
-147.2001450912382
 30
0.0
 10
91.35394149191846
 20
-147.2001450912382
 30
0.0
 10
91.35394149191846
 20
-148.1001762867597
 30
0.0
 10
91.35394149191846
 20
-148.1001762867597
 30
0.0
 10
90.99634058054953
 20
-148.0722710133292
 30
0.0
 10
90.91813691303436
 20
-148.0149101734997
 30
0.0
 10
90.61979164401173
 20
-147.6778075802681
 30
0.0
 10
90.42100963451281
 20
-147.4538763737268
 30
0.0
 10
90.35314125345339
 20
-147.3963432791231
 30
0.0
 10
90.21568194359192
 20
-147.3963432791231
 30
0.0
 10
90.09717065889932
 20
-147.3963432791231
 30
0.0
 10
89.96625703045983
 20
-147.4593885265032
 30
0.0
 10
89.96625703045983
 20
-147.6316433007657
 30
0.0
 10
89.96625703045983
 20
-147.8593641123407
 30
0.0
 10
90.19673391842305
 20
-147.866771067634
 30
0.0
 10
90.3131781458245
 20
-147.8703884178935
 30
0.0
 10
90.3131781458245
 20
-147.8703884178935
 30
0.0
 10
90.3131781458245
 20
-148.0667588605528
 30
0.0
 10
90.3131781458245
 20
-148.0667588605528
 30
0.0
 10
90.18605412241877
 20
-148.0593519052595
 30
0.0
 10
90.07408851914815
 20
-148.0500501474493
 30
0.0
 10
89.95557723445556
 20
-147.9797701995502
 30
0.0
 10
89.79469127529438
 20
-147.8834797807375
 30
0.0
 10
89.76092933953893
 20
-147.7205267642852
 30
0.0
 10
89.76092933953893
 20
-147.6185519379218
 30
0.0
 10
89.76092933953893
 20
-147.3760172157602
 30
0.0
 10
89.94489743845128
 20
-147.1946329384618
 30
0.0
 10
90.21774900088306
 20
-147.1946329384618
 30
0.0
 10
90.44650334110365
 20
-147.1946329384618
 30
0.0
 10
90.54572209107886
 20
-147.2964355100509
 30
0.0
 10
90.77206486445976
 20
-147.566875505643
 30
0.0
  0
HATCH
  5
120
330
11B
100
AcDbEntity
  8
_U+30EC_U+30A4_U+30E4_U+30FC 1
 62
   179
420
  2234388
100
AcDbHatch
 10
0.0
 20
0.0
 30
0.0
210
0.0
220
0.0
230
1.0
  2
SOLID
 70
     1
 71
     0
 91
        1
 92
        1
 93
        1
 72
     4
 94
        3
 73
     0
 74
     1
 95
       44
 96
       40
 40
0.0
 40
0.0
 40
0.0
 40
0.0
 40
1.0
 40
1.0
 40
1.0
 40
2.0
 40
2.0
 40
2.0
 40
3.0
 40
3.0
 40
3.0
 40
4.0
 40
4.0
 40
4.0
 40
5.0
 40
5.0
 40
5.0
 40
6.0
 40
6.0
 40
6.0
 40
7.0
 40
7.0
 40
7.0
 40
8.0
 40
8.0
 40
8.0
 40
9.0
 40
9.0
 40
9.0
 40
10.0
 40
10.0
 40
10.0
 40
11.0
 40
11.0
 40
11.0
 40
12.0
 40
12.0
 40
12.0
 40
13.0
 40
13.0
 40
13.0
 40
13.0
 10
90.77206486445976
 20
-147.566875505643
 10
90.93088376632979
 20
-147.7575615407516
 10
91.00495331926265
 20
-147.8390380489778
 10
91.14861380099757
 20
-147.8815849782206
 10
91.14861380099757
 20
-147.8815849782206
 10
91.14861380099757
 20
-147.2001450912382
 10
91.14861380099757
 20
-147.2001450912382
 10
91.14861380099757
 20
-147.2001450912382
 10
91.35394149191846
 20
-147.2001450912382
 10
91.35394149191846
 20
-147.2001450912382
 10
91.35394149191846
 20
-147.2001450912382
 10
91.35394149191846
 20
-148.1001762867597
 10
91.35394149191846
 20
-148.1001762867597
 10
90.99634058054953
 20
-148.0722710133292
 10
90.91813691303436
 20
-148.0149101734997
 10
90.61979164401173
 20
-147.6778075802681
 10
90.42100963451281
 20
-147.4538763737268
 10
90.35314125345339
 20
-147.3963432791231
 10
90.21568194359192
 20
-147.3963432791231
 10
90.09717065889932
 20
-147.3963432791231
 10
89.96625703045983
 20
-147.4593885265032
 10
89.96625703045983
 20
-147.6316433007657
 10
89.96625703045983
 20
-147.8593641123407
 10
90.19673391842305
 20
-147.866771067634
 10
90.3131781458245
 20
-147.8703884178935
 10
90.3131781458245
 20
-147.8703884178935
 10
90.3131781458245
 20
-148.0667588605528
 10
90.3131781458245
 20
-148.0667588605528
 10
90.18605412241877
 20
-148.0593519052595
 10
90.07408851914815
 20
-148.0500501474493
 10
89.95557723445556
 20
-147.9797701995502
 10
89.79469127529438
 20
-147.8834797807375
 10
89.76092933953893
 20
-147.7205267642852
 10
89.76092933953893
 20
-147.6185519379218
 10
89.76092933953893
 20
-147.3760172157602
 10
89.94489743845128
 20
-147.1946329384618
 10
90.21774900088306
 20
-147.1946329384618
 10
90.44650334110365
 20
-147.1946329384618
 10
90.54572209107886
 20
-147.2964355100509
 10
90.77206486445976
 20
-147.566875505643
 97
        0
 97
        0
 75
     2
 76
     1
 98
        0
  0
SPLINE
  5
121
330
11B
100
AcDbEntity
  8
_U+30EC_U+30A4_U+30E4_U+30FC 1
370
     0
100
AcDbSpline
210
0.0
220
0.0
230
1.0
 70
    11
 71
     3
 72
    53
 73
    49
 74
     0
 42
0.0000000001
 43
0.0000000001
 12
1.0
 22
0.0
 32
0.0
 13
1.0
 23
0.0
 33
0.0
 40
0.0
 40
0.0
 40
0.0
 40
0.0
 40
1.0
 40
1.0
 40
1.0
 40
2.0
 40
2.0
 40
2.0
 40
3.0
 40
3.0
 40
3.0
 40
4.0
 40
4.0
 40
4.0
 40
5.0
 40
5.0
 40
5.0
 40
6.0
 40
6.0
 40
6.0
 40
7.0
 40
7.0
 40
7.0
 40
8.0
 40
8.0
 40
8.0
 40
9.0
 40
9.0
 40
9.0
 40
10.0
 40
10.0
 40
10.0
 40
11.0
 40
11.0
 40
11.0
 40
12.0
 40
12.0
 40
12.0
 40
13.0
 40
13.0
 40
13.0
 40
14.0
 40
14.0
 40
14.0
 40
15.0
 40
15.0
 40
15.0
 40
16.0
 40
16.0
 40
16.0
 40
16.0
 10
91.40458439555164
 20
-146.6341159030116
 30
0.0
 10
91.40458439555164
 20
-146.7026733031681
 30
0.0
 10
91.38770342767391
 20
-146.7915567666875
 30
0.0
 10
91.32431367074531
 20
-146.880440230207
 30
0.0
 10
91.21441512476585
 20
-147.0321966863322
 30
0.0
 10
91.08315698677782
 20
-147.0508002019526
 30
0.0
 10
90.9753254980895
 20
-147.067508915056
 30
0.0
 10
90.9753254980895
 20
-147.067508915056
 30
0.0
 10
90.9753254980895
 20
-146.8730332749137
 30
0.0
 10
90.9753254980895
 20
-146.8730332749137
 30
0.0
 10
91.17410750758842
 20
-146.8248019381202
 30
0.0
 10
91.20373532876157
 20
-146.7138698634951
 30
0.0
 10
91.20373532876157
 20
-146.6322211004947
 30
0.0
 10
91.20373532876157
 20
-146.5100924655426
 30
0.0
 10
91.10417206923785
 20
-146.3767672702635
 30
0.0
 10
90.87162812398348
 20
-146.3767672702635
 30
0.0
 10
90.61565752942943
 20
-146.3767672702635
 30
0.0
 10
90.54572209107886
 20
-146.5342081339394
 30
0.0
 10
90.54572209107886
 20
-146.6398003105623
 30
0.0
 10
90.54572209107886
 20
-146.6675333292185
 30
0.0
 10
90.54572209107886
 20
-146.7915567666875
 30
0.0
 10
90.67491317177571
 20
-146.8692436698799
 30
0.0
 10
90.67491317177571
 20
-146.8692436698799
 30
0.0
 10
90.65596514660685
 20
-147.0230671832963
 30
0.0
 10
90.65596514660685
 20
-147.0230671832963
 30
0.0
 10
90.65596514660685
 20
-147.0230671832963
 30
0.0
 10
89.80950518588097
 20
-146.9174750066734
 30
0.0
 10
89.80950518588097
 20
-146.9174750066734
 30
0.0
 10
89.80950518588097
 20
-146.9174750066734
 30
0.0
 10
89.80950518588097
 20
-146.236035119691
 30
0.0
 10
89.80950518588097
 20
-146.236035119691
 30
0.0
 10
89.80950518588097
 20
-146.236035119691
 30
0.0
 10
90.00415308079758
 20
-146.236035119691
 30
0.0
 10
90.00415308079758
 20
-146.236035119691
 30
0.0
 10
90.00415308079758
 20
-146.236035119691
 30
0.0
 10
90.00415308079758
 20
-146.7748480535841
 30
0.0
 10
90.00415308079758
 20
-146.7748480535841
 30
0.0
 10
90.00415308079758
 20
-146.7748480535841
 30
0.0
 10
90.42721080638626
 20
-146.8323811481877
 30
0.0
 10
90.42721080638626
 20
-146.8323811481877
 30
0.0
 10
90.3934488706308
 20
-146.7786376586178
 30
0.0
 10
90.35314125345339
 20
-146.7062906534276
 30
0.0
 10
90.35314125345339
 20
-146.6025932793216
 30
0.0
 10
90.35314125345339
 20
-146.380384620523
 30
0.0
 10
90.5395209192054
 20
-146.1729898723109
 30
0.0
 10
90.85268009881462
 20
-146.1729898723109
 30
0.0
 10
91.16997339300612
 20
-146.1729898723109
 30
0.0
 10
91.40458439555164
 20
-146.3693603149702
 30
0.0
 10
91.40458439555164
 20
-146.6341159030116
 30
0.0
  0
HATCH
  5
122
330
11B
100
AcDbEntity
  8
_U+30EC_U+30A4_U+30E4_U+30FC 1
 62
   179
420
  2234388
100
AcDbHatch
 10
0.0
 20
0.0
 30
0.0
210
0.0
220
0.0
230
1.0
  2
SOLID
 70
     1
 71
     0
 91
        1
 92
        1
 93
        1
 72
     4
 94
        3
 73
     0
 74
     1
 95
       53
 96
       49
 40
0.0
 40
0.0
 40
0.0
 40
0.0
 40
1.0
 40
1.0
 40
1.0
 40
2.0
 40
2.0
 40
2.0
 40
3.0
 40
3.0
 40
3.0
 40
4.0
 40
4.0
 40
4.0
 40
5.0
 40
5.0
 40
5.0
 40
6.0
 40
6.0
 40
6.0
 40
7.0
 40
7.0
 40
7.0
 40
8.0
 40
8.0
 40
8.0
 40
9.0
 40
9.0
 40
9.0
 40
10.0
 40
10.0
 40
10.0
 40
11.0
 40
11.0
 40
11.0
 40
12.0
 40
12.0
 40
12.0
 40
13.0
 40
13.0
 40
13.0
 40
14.0
 40
14.0
 40
14.0
 40
15.0
 40
15.0
 40
15.0
 40
16.0
 40
16.0
 40
16.0
 40
16.0
 10
91.40458439555164
 20
-146.6341159030116
 10
91.40458439555164
 20
-146.7026733031681
 10
91.38770342767391
 20
-146.7915567666875
 10
91.32431367074531
 20
-146.880440230207
 10
91.21441512476585
 20
-147.0321966863322
 10
91.08315698677782
 20
-147.0508002019526
 10
90.9753254980895
 20
-147.067508915056
 10
90.9753254980895
 20
-147.067508915056
 10
90.9753254980895
 20
-146.8730332749137
 10
90.9753254980895
 20
-146.8730332749137
 10
91.17410750758842
 20
-146.8248019381202
 10
91.20373532876157
 20
-146.7138698634951
 10
91.20373532876157
 20
-146.6322211004947
 10
91.20373532876157
 20
-146.5100924655426
 10
91.10417206923785
 20
-146.3767672702635
 10
90.87162812398348
 20
-146.3767672702635
 10
90.61565752942943
 20
-146.3767672702635
 10
90.54572209107886
 20
-146.5342081339394
 10
90.54572209107886
 20
-146.6398003105623
 10
90.54572209107886
 20
-146.6675333292185
 10
90.54572209107886
 20
-146.7915567666875
 10
90.67491317177571
 20
-146.8692436698799
 10
90.67491317177571
 20
-146.8692436698799
 10
90.65596514660685
 20
-147.0230671832963
 10
90.65596514660685
 20
-147.0230671832963
 10
90.65596514660685
 20
-147.0230671832963
 10
89.80950518588097
 20
-146.9174750066734
 10
89.80950518588097
 20
-146.9174750066734
 10
89.80950518588097
 20
-146.9174750066734
 10
89.80950518588097
 20
-146.236035119691
 10
89.80950518588097
 20
-146.236035119691
 10
89.80950518588097
 20
-146.236035119691
 10
90.00415308079758
 20
-146.236035119691
 10
90.00415308079758
 20
-146.236035119691
 10
90.00415308079758
 20
-146.236035119691
 10
90.00415308079758
 20
-146.7748480535841
 10
90.00415308079758
 20
-146.7748480535841
 10
90.00415308079758
 20
-146.7748480535841
 10
90.42721080638626
 20
-146.8323811481877
 10
90.42721080638626
 20
-146.8323811481877
 10
90.3934488706308
 20
-146.7786376586178
 10
90.35314125345339
 20
-146.7062906534276
 10
90.35314125345339
 20
-146.6025932793216
 10
90.35314125345339
 20
-146.380384620523
 10
90.5395209192054
 20
-146.1729898723109
 10
90.85268009881462
 20
-146.1729898723109
 10
91.16997339300612
 20
-146.1729898723109
 10
91.40458439555164
 20
-146.3693603149702
 10
91.40458439555164
 20
-146.6341159030116
 97
        0
 97
        0
 75
     2
 76
     1
 98
        0
  0
ENDBLK
  5
11E
330
11B
100
AcDbEntity
  8
0
100
AcDbBlockEnd
  0
BLOCK
  5
131
330
12F
100
AcDbEntity
  8
0
100
AcDbBlockBegin
  2
block 4
 70
     0
 10
0.0
 20
0.0
 30
0.0
  3
block 4
  1

  0
SPLINE
  5
133
330
12F
100
AcDbEntity
  8
_U+30EC_U+30A4_U+30E4_U+30FC 1
370
     0
100
AcDbSpline
210
0.0
220
0.0
230
1.0
 70
    11
 71
     3
 72
    44
 73
    40
 74
     0
 42
0.0000000001
 43
0.0000000001
 12
1.0
 22
0.0
 32
0.0
 13
1.0
 23
0.0
 33
0.0
 40
0.0
 40
0.0
 40
0.0
 40
0.0
 40
1.0
 40
1.0
 40
1.0
 40
2.0
 40
2.0
 40
2.0
 40
3.0
 40
3.0
 40
3.0
 40
4.0
 40
4.0
 40
4.0
 40
5.0
 40
5.0
 40
5.0
 40
6.0
 40
6.0
 40
6.0
 40
7.0
 40
7.0
 40
7.0
 40
8.0
 40
8.0
 40
8.0
 40
9.0
 40
9.0
 40
9.0
 40
10.0
 40
10.0
 40
10.0
 40
11.0
 40
11.0
 40
11.0
 40
12.0
 40
12.0
 40
12.0
 40
13.0
 40
13.0
 40
13.0
 40
13.0
 10
107.853192789877
 20
-162.1096570775281
 30
0.0
 10
107.6623344999941
 20
-162.2684759793982
 30
0.0
 10
107.5806857369937
 20
-162.342545532331
 30
0.0
 10
107.5383110625252
 20
-162.4862060140659
 30
0.0
 10
107.5383110625252
 20
-162.4862060140659
 30
0.0
 10
108.2197509495076
 20
-162.4862060140659
 30
0.0
 10
108.2197509495076
 20
-162.4862060140659
 30
0.0
 10
108.2197509495076
 20
-162.4862060140659
 30
0.0
 10
108.2197509495076
 20
-162.6915337049869
 30
0.0
 10
108.2197509495076
 20
-162.6915337049869
 30
0.0
 10
108.2197509495076
 20
-162.6915337049869
 30
0.0
 10
107.3198920087603
 20
-162.6915337049869
 30
0.0
 10
107.3198920087603
 20
-162.6915337049869
 30
0.0
 10
107.3477972821908
 20
-162.3339327936179
 30
0.0
 10
107.404985867246
 20
-162.2557291261028
 30
0.0
 10
107.7419162057034
 20
-161.9573838570801
 30
0.0
 10
107.9658474122447
 20
-161.7586018475812
 30
0.0
 10
108.0233805068483
 20
-161.6907334665218
 30
0.0
 10
108.0233805068483
 20
-161.5532741566603
 30
0.0
 10
108.0233805068483
 20
-161.4347628719677
 30
0.0
 10
107.9603352594683
 20
-161.3038492435282
 30
0.0
 10
107.7880804852058
 20
-161.3038492435282
 30
0.0
 10
107.5607041831793
 20
-161.3038492435282
 30
0.0
 10
107.5531249731117
 20
-161.5343261314914
 30
0.0
 10
107.5493353680779
 20
-161.6507703588929
 30
0.0
 10
107.5493353680779
 20
-161.6507703588929
 30
0.0
 10
107.3533094349672
 20
-161.6507703588929
 30
0.0
 10
107.3533094349672
 20
-161.6507703588929
 30
0.0
 10
107.3605441354863
 20
-161.5236463354871
 30
0.0
 10
107.3698458932964
 20
-161.4116807322165
 30
0.0
 10
107.4401258411955
 20
-161.293169447524
 30
0.0
 10
107.5365885147825
 20
-161.1322834883628
 30
0.0
 10
107.6991970216863
 20
-161.0985215526073
 30
0.0
 10
107.8011718480497
 20
-161.0985215526073
 30
0.0
 10
108.0437065702113
 20
-161.0985215526073
 30
0.0
 10
108.225263102284
 20
-161.2824896515197
 30
0.0
 10
108.225263102284
 20
-161.5553412139514
 30
0.0
 10
108.225263102284
 20
-161.784095554172
 30
0.0
 10
108.1236327854691
 20
-161.8833143041472
 30
0.0
 10
107.853192789877
 20
-162.1096570775281
 30
0.0
  0
HATCH
  5
134
330
12F
100
AcDbEntity
  8
_U+30EC_U+30A4_U+30E4_U+30FC 1
 62
   179
420
  2234388
100
AcDbHatch
 10
0.0
 20
0.0
 30
0.0
210
0.0
220
0.0
230
1.0
  2
SOLID
 70
     1
 71
     0
 91
        1
 92
        1
 93
        1
 72
     4
 94
        3
 73
     0
 74
     1
 95
       44
 96
       40
 40
0.0
 40
0.0
 40
0.0
 40
0.0
 40
1.0
 40
1.0
 40
1.0
 40
2.0
 40
2.0
 40
2.0
 40
3.0
 40
3.0
 40
3.0
 40
4.0
 40
4.0
 40
4.0
 40
5.0
 40
5.0
 40
5.0
 40
6.0
 40
6.0
 40
6.0
 40
7.0
 40
7.0
 40
7.0
 40
8.0
 40
8.0
 40
8.0
 40
9.0
 40
9.0
 40
9.0
 40
10.0
 40
10.0
 40
10.0
 40
11.0
 40
11.0
 40
11.0
 40
12.0
 40
12.0
 40
12.0
 40
13.0
 40
13.0
 40
13.0
 40
13.0
 10
107.853192789877
 20
-162.1096570775281
 10
107.6623344999941
 20
-162.2684759793982
 10
107.5806857369937
 20
-162.342545532331
 10
107.5383110625252
 20
-162.4862060140659
 10
107.5383110625252
 20
-162.4862060140659
 10
108.2197509495076
 20
-162.4862060140659
 10
108.2197509495076
 20
-162.4862060140659
 10
108.2197509495076
 20
-162.4862060140659
 10
108.2197509495076
 20
-162.6915337049869
 10
108.2197509495076
 20
-162.6915337049869
 10
108.2197509495076
 20
-162.6915337049869
 10
107.3198920087603
 20
-162.6915337049869
 10
107.3198920087603
 20
-162.6915337049869
 10
107.3477972821908
 20
-162.3339327936179
 10
107.404985867246
 20
-162.2557291261028
 10
107.7419162057034
 20
-161.9573838570801
 10
107.9658474122447
 20
-161.7586018475812
 10
108.0233805068483
 20
-161.6907334665218
 10
108.0233805068483
 20
-161.5532741566603
 10
108.0233805068483
 20
-161.4347628719677
 10
107.9603352594683
 20
-161.3038492435282
 10
107.7880804852058
 20
-161.3038492435282
 10
107.5607041831793
 20
-161.3038492435282
 10
107.5531249731117
 20
-161.5343261314914
 10
107.5493353680779
 20
-161.6507703588929
 10
107.5493353680779
 20
-161.6507703588929
 10
107.3533094349672
 20
-161.6507703588929
 10
107.3533094349672
 20
-161.6507703588929
 10
107.3605441354863
 20
-161.5236463354871
 10
107.3698458932964
 20
-161.4116807322165
 10
107.4401258411955
 20
-161.293169447524
 10
107.5365885147825
 20
-161.1322834883628
 10
107.6991970216863
 20
-161.0985215526073
 10
107.8011718480497
 20
-161.0985215526073
 10
108.0437065702113
 20
-161.0985215526073
 10
108.225263102284
 20
-161.2824896515197
 10
108.225263102284
 20
-161.5553412139514
 10
108.225263102284
 20
-161.784095554172
 10
108.1236327854691
 20
-161.8833143041472
 10
107.853192789877
 20
-162.1096570775281
 97
        0
 97
        0
 75
     2
 76
     1
 98
        0
  0
SPLINE
  5
135
330
12F
100
AcDbEntity
  8
_U+30EC_U+30A4_U+30E4_U+30FC 1
370
     0
100
AcDbSpline
210
0.0
220
0.0
230
1.0
 70
    11
 71
     3
 72
    53
 73
    49
 74
     0
 42
0.0000000001
 43
0.0000000001
 12
1.0
 22
0.0
 32
0.0
 13
1.0
 23
0.0
 33
0.0
 40
0.0
 40
0.0
 40
0.0
 40
0.0
 40
1.0
 40
1.0
 40
1.0
 40
2.0
 40
2.0
 40
2.0
 40
3.0
 40
3.0
 40
3.0
 40
4.0
 40
4.0
 40
4.0
 40
5.0
 40
5.0
 40
5.0
 40
6.0
 40
6.0
 40
6.0
 40
7.0
 40
7.0
 40
7.0
 40
8.0
 40
8.0
 40
8.0
 40
9.0
 40
9.0
 40
9.0
 40
10.0
 40
10.0
 40
10.0
 40
11.0
 40
11.0
 40
11.0
 40
12.0
 40
12.0
 40
12.0
 40
13.0
 40
13.0
 40
13.0
 40
14.0
 40
14.0
 40
14.0
 40
15.0
 40
15.0
 40
15.0
 40
16.0
 40
16.0
 40
16.0
 40
16.0
 10
108.7857801377341
 20
-162.74217660862
 30
0.0
 10
108.7172227375776
 20
-162.74217660862
 30
0.0
 10
108.6283392740582
 20
-162.7252956407423
 30
0.0
 10
108.5394558105388
 20
-162.6619058838137
 30
0.0
 10
108.3875270996392
 20
-162.5520073378342
 30
0.0
 10
108.3689235840189
 20
-162.4207491998462
 30
0.0
 10
108.3523871256897
 20
-162.3129177111579
 30
0.0
 10
108.3523871256897
 20
-162.3129177111579
 30
0.0
 10
108.5466905110578
 20
-162.3129177111579
 30
0.0
 10
108.5466905110578
 20
-162.3129177111579
 30
0.0
 10
108.5949218478513
 20
-162.5116997206568
 30
0.0
 10
108.7061984320248
 20
-162.54132754183
 30
0.0
 10
108.7875026854767
 20
-162.54132754183
 30
0.0
 10
108.9098035752031
 20
-162.54132754183
 30
0.0
 10
109.0431287704823
 20
-162.4417642823062
 30
0.0
 10
109.0431287704823
 20
-162.2092203370519
 30
0.0
 10
109.0431287704823
 20
-161.9532497424978
 30
0.0
 10
108.8856879068064
 20
-161.8833143041472
 30
0.0
 10
108.7802679849577
 20
-161.8833143041472
 30
0.0
 10
108.7523627115272
 20
-161.8833143041472
 30
0.0
 10
108.6283392740582
 20
-161.8833143041472
 30
0.0
 10
108.5504801160915
 20
-162.0125053848441
 30
0.0
 10
108.5504801160915
 20
-162.0125053848441
 30
0.0
 10
108.3968288574494
 20
-161.9935573596752
 30
0.0
 10
108.3968288574494
 20
-161.9935573596752
 30
0.0
 10
108.3968288574494
 20
-161.9935573596752
 30
0.0
 10
108.5025932888466
 20
-161.1470973989493
 30
0.0
 10
108.5025932888466
 20
-161.1470973989493
 30
0.0
 10
108.5025932888466
 20
-161.1470973989493
 30
0.0
 10
109.184033175829
 20
-161.1470973989493
 30
0.0
 10
109.184033175829
 20
-161.1470973989493
 30
0.0
 10
109.184033175829
 20
-161.1470973989493
 30
0.0
 10
109.184033175829
 20
-161.341745293866
 30
0.0
 10
109.184033175829
 20
-161.341745293866
 30
0.0
 10
109.184033175829
 20
-161.341745293866
 30
0.0
 10
108.6452202419359
 20
-161.341745293866
 30
0.0
 10
108.6452202419359
 20
-161.341745293866
 30
0.0
 10
108.6452202419359
 20
-161.341745293866
 30
0.0
 10
108.5876871473322
 20
-161.7648030194546
 30
0.0
 10
108.5876871473322
 20
-161.7648030194546
 30
0.0
 10
108.6410861273536
 20
-161.7310410836992
 30
0.0
 10
108.7134331325439
 20
-161.6907334665218
 30
0.0
 10
108.8171305066499
 20
-161.6907334665218
 30
0.0
 10
109.0393391654485
 20
-161.6907334665218
 30
0.0
 10
109.2467339136605
 20
-161.8771131322738
 30
0.0
 10
109.2467339136605
 20
-162.190272311883
 30
0.0
 10
109.2467339136605
 20
-162.5075656060745
 30
0.0
 10
109.0503634710013
 20
-162.74217660862
 30
0.0
 10
108.7857801377341
 20
-162.74217660862
 30
0.0
  0
HATCH
  5
136
330
12F
100
AcDbEntity
  8
_U+30EC_U+30A4_U+30E4_U+30FC 1
 62
   179
420
  2234388
100
AcDbHatch
 10
0.0
 20
0.0
 30
0.0
210
0.0
220
0.0
230
1.0
  2
SOLID
 70
     1
 71
     0
 91
        1
 92
        1
 93
        1
 72
     4
 94
        3
 73
     0
 74
     1
 95
       53
 96
       49
 40
0.0
 40
0.0
 40
0.0
 40
0.0
 40
1.0
 40
1.0
 40
1.0
 40
2.0
 40
2.0
 40
2.0
 40
3.0
 40
3.0
 40
3.0
 40
4.0
 40
4.0
 40
4.0
 40
5.0
 40
5.0
 40
5.0
 40
6.0
 40
6.0
 40
6.0
 40
7.0
 40
7.0
 40
7.0
 40
8.0
 40
8.0
 40
8.0
 40
9.0
 40
9.0
 40
9.0
 40
10.0
 40
10.0
 40
10.0
 40
11.0
 40
11.0
 40
11.0
 40
12.0
 40
12.0
 40
12.0
 40
13.0
 40
13.0
 40
13.0
 40
14.0
 40
14.0
 40
14.0
 40
15.0
 40
15.0
 40
15.0
 40
16.0
 40
16.0
 40
16.0
 40
16.0
 10
108.7857801377341
 20
-162.74217660862
 10
108.7172227375776
 20
-162.74217660862
 10
108.6283392740582
 20
-162.7252956407423
 10
108.5394558105388
 20
-162.6619058838137
 10
108.3875270996392
 20
-162.5520073378342
 10
108.3689235840189
 20
-162.4207491998462
 10
108.3523871256897
 20
-162.3129177111579
 10
108.3523871256897
 20
-162.3129177111579
 10
108.5466905110578
 20
-162.3129177111579
 10
108.5466905110578
 20
-162.3129177111579
 10
108.5949218478513
 20
-162.5116997206568
 10
108.7061984320248
 20
-162.54132754183
 10
108.7875026854767
 20
-162.54132754183
 10
108.9098035752031
 20
-162.54132754183
 10
109.0431287704823
 20
-162.4417642823062
 10
109.0431287704823
 20
-162.2092203370519
 10
109.0431287704823
 20
-161.9532497424978
 10
108.8856879068064
 20
-161.8833143041472
 10
108.7802679849577
 20
-161.8833143041472
 10
108.7523627115272
 20
-161.8833143041472
 10
108.6283392740582
 20
-161.8833143041472
 10
108.5504801160915
 20
-162.0125053848441
 10
108.5504801160915
 20
-162.0125053848441
 10
108.3968288574494
 20
-161.9935573596752
 10
108.3968288574494
 20
-161.9935573596752
 10
108.3968288574494
 20
-161.9935573596752
 10
108.5025932888466
 20
-161.1470973989493
 10
108.5025932888466
 20
-161.1470973989493
 10
108.5025932888466
 20
-161.1470973989493
 10
109.184033175829
 20
-161.1470973989493
 10
109.184033175829
 20
-161.1470973989493
 10
109.184033175829
 20
-161.1470973989493
 10
109.184033175829
 20
-161.341745293866
 10
109.184033175829
 20
-161.341745293866
 10
109.184033175829
 20
-161.341745293866
 10
108.6452202419359
 20
-161.341745293866
 10
108.6452202419359
 20
-161.341745293866
 10
108.6452202419359
 20
-161.341745293866
 10
108.5876871473322
 20
-161.7648030194546
 10
108.5876871473322
 20
-161.7648030194546
 10
108.6410861273536
 20
-161.7310410836992
 10
108.7134331325439
 20
-161.6907334665218
 10
108.8171305066499
 20
-161.6907334665218
 10
109.0393391654485
 20
-161.6907334665218
 10
109.2467339136605
 20
-161.8771131322738
 10
109.2467339136605
 20
-162.190272311883
 10
109.2467339136605
 20
-162.5075656060745
 10
109.0503634710013
 20
-162.74217660862
 10
108.7857801377341
 20
-162.74217660862
 97
        0
 97
        0
 75
     2
 76
     1
 98
        0
  0
ENDBLK
  5
132
330
12F
100
AcDbEntity
  8
0
100
AcDbBlockEnd
  0
ENDSEC
  0
SECTION
  2
ENTITIES
  0
POLYLINE
  5
41
330
1F
100
AcDbEntity
  8
_U+30EC_U+30A4_U+30E4_U+30FC 1
 62
   179
420
  2234388
370
     9
100
AcDb2dPolyline
 66
     1
 10
0.0
 20
0.0
 30
0.0
  0
VERTEX
  5
42
330
41
100
AcDbEntity
  8
_U+30EC_U+30A4_U+30E4_U+30FC 1
 62
   179
420
  2234388
370
     9
100
AcDbVertex
100
AcDb2dVertex
 10
98.04823572038843
 20
-142.4082433556469
 30
0.0
  0
VERTEX
  5
43
330
41
100
AcDbEntity
  8
_U+30EC_U+30A4_U+30E4_U+30FC 1
 62
   179
420
  2234388
370
     9
100
AcDbVertex
100
AcDb2dVertex
 10
98.81446802000124
 20
-143.0510120458073
 30
0.0
  0
SEQEND
  5
44
330
41
100
AcDbEntity
  8
_U+30EC_U+30A4_U+30E4_U+30FC 1
 62
   179
420
  2234388
370
     9
  0
POLYLINE
  5
45
330
1F
100
AcDbEntity
  8
_U+30EC_U+30A4_U+30E4_U+30FC 1
 62
   179
420
  2234388
370
     9
100
AcDb2dPolyline
 66
     1
 10
0.0
 20
0.0
 30
0.0
  0
VERTEX
  5
46
330
45
100
AcDbEntity
  8
_U+30EC_U+30A4_U+30E4_U+30FC 1
 62
   179
420
  2234388
370
     9
100
AcDbVertex
100
AcDb2dVertex
 10
98.04823572038843
 20
-142.4082433556469
 30
0.0
  0
VERTEX
  5
47
330
45
100
AcDbEntity
  8
_U+30EC_U+30A4_U+30E4_U+30FC 1
 62
   179
420
  2234388
370
     9
100
AcDbVertex
100
AcDb2dVertex
 10
103.723363045087
 20
-150.5133149512497
 30
0.0
  0
SEQEND
  5
48
330
45
100
AcDbEntity
  8
_U+30EC_U+30A4_U+30E4_U+30FC 1
 62
   179
420
  2234388
370
     9
  0
POLYLINE
  5
49
330
1F
100
AcDbEntity
  8
_U+30EC_U+30A4_U+30E4_U+30FC 1
 62
   179
420
  2234388
370
     9
100
AcDb2dPolyline
 66
     1
 10
0.0
 20
0.0
 30
0.0
  0
VERTEX
  5
4A
330
49
100
AcDbEntity
  8
_U+30EC_U+30A4_U+30E4_U+30FC 1
 62
   179
420
  2234388
370
     9
100
AcDbVertex
100
AcDb2dVertex
 10
113.0493980125091
 20
-157.4027092434184
 30
0.0
  0
VERTEX
  5
4B
330
49
100
AcDbEntity
  8
_U+30EC_U+30A4_U+30E4_U+30FC 1
 62
   179
420
  2234388
370
     9
100
AcDbVertex
100
AcDb2dVertex
 10
112.4066293223486
 20
-156.6364769438053
 30
0.0
  0
SEQEND
  5
4C
330
49
100
AcDbEntity
  8
_U+30EC_U+30A4_U+30E4_U+30FC 1
 62
   179
420
  2234388
370
     9
  0
POLYLINE
  5
4D
330
1F
100
AcDbEntity
  8
_U+30EC_U+30A4_U+30E4_U+30FC 1
 62
   179
420
  2234388
370
     9
100
AcDb2dPolyline
 66
     1
 10
0.0
 20
0.0
 30
0.0
  0
VERTEX
  5
4E
330
4D
100
AcDbEntity
  8
_U+30EC_U+30A4_U+30E4_U+30FC 1
 62
   179
420
  2234388
370
     9
100
AcDbVertex
100
AcDb2dVertex
 10
113.0493980125091
 20
-157.4027092434184
 30
0.0
  0
VERTEX
  5
4F
330
4D
100
AcDbEntity
  8
_U+30EC_U+30A4_U+30E4_U+30FC 1
 62
   179
420
  2234388
370
     9
100
AcDbVertex
100
AcDb2dVertex
 10
107.2091537207563
 20
-153.3133163068865
 30
0.0
  0
SEQEND
  5
50
330
4D
100
AcDbEntity
  8
_U+30EC_U+30A4_U+30E4_U+30FC 1
 62
   179
420
  2234388
370
     9
  0
POLYLINE
  5
51
330
1F
100
AcDbEntity
  8
_U+30EC_U+30A4_U+30E4_U+30FC 1
 62
   179
420
  2234388
370
     9
100
AcDb2dPolyline
 66
     1
 10
0.0
 20
0.0
 30
0.0
  0
VERTEX
  5
52
330
51
100
AcDbEntity
  8
_U+30EC_U+30A4_U+30E4_U+30FC 1
 62
   179
420
  2234388
370
     9
100
AcDbVertex
100
AcDb2dVertex
 10
113.0493980125091
 20
-157.4027092434184
 30
0.0
  0
VERTEX
  5
53
330
51
100
AcDbEntity
  8
_U+30EC_U+30A4_U+30E4_U+30FC 1
 62
   179
420
  2234388
370
     9
100
AcDbVertex
100
AcDb2dVertex
 10
112.1095974959798
 20
-157.0608696438945
 30
0.0
  0
SEQEND
  5
54
330
51
100
AcDbEntity
  8
_U+30EC_U+30A4_U+30E4_U+30FC 1
 62
   179
420
  2234388
370
     9
  0
INSERT
  5
56
330
1F
100
AcDbEntity
  8
_U+30EC_U+30A4_U+30E4_U+30FC 1
100
AcDbBlockReference
  2
block 2
 10
0.0
 20
0.0
 30
0.0
  0
POLYLINE
  5
7E
330
1F
100
AcDbEntity
  8
_U+30EC_U+30A4_U+30E4_U+30FC 1
 62
   179
420
  2234388
370
    25
100
AcDb2dPolyline
 66
     1
 10
0.0
 20
0.0
 30
0.0
  0
VERTEX
  5
7F
330
7E
100
AcDbEntity
  8
_U+30EC_U+30A4_U+30E4_U+30FC 1
 62
   179
420
  2234388
370
    25
100
AcDbVertex
100
AcDb2dVertex
 10
103.8406685463597
 20
-140.8972675395098
 30
0.0
  0
VERTEX
  5
80
330
7E
100
AcDbEntity
  8
_U+30EC_U+30A4_U+30E4_U+30FC 1
 62
   179
420
  2234388
370
    25
100
AcDbVertex
100
AcDb2dVertex
 10
111.3241372571896
 20
-133.41379882868
 30
0.0
  0
SEQEND
  5
81
330
7E
100
AcDbEntity
  8
_U+30EC_U+30A4_U+30E4_U+30FC 1
 62
   179
420
  2234388
370
    25
  0
POLYLINE
  5
82
330
1F
100
AcDbEntity
  8
_U+30EC_U+30A4_U+30E4_U+30FC 1
 62
   179
420
  2234388
370
    25
100
AcDb2dPolyline
 66
     1
 10
0.0
 20
0.0
 30
0.0
  0
VERTEX
  5
83
330
82
100
AcDbEntity
  8
_U+30EC_U+30A4_U+30E4_U+30FC 1
 62
   179
420
  2234388
370
    25
100
AcDbVertex
100
AcDb2dVertex
 10
112.3259279606067
 20
-149.3824838900632
 30
0.0
  0
VERTEX
  5
84
330
82
100
AcDbEntity
  8
_U+30EC_U+30A4_U+30E4_U+30FC 1
 62
   179
420
  2234388
370
    25
100
AcDbVertex
100
AcDb2dVertex
 10
119.8093966714365
 20
-141.8990151792334
 30
0.0
  0
SEQEND
  5
85
330
82
100
AcDbEntity
  8
_U+30EC_U+30A4_U+30E4_U+30FC 1
 62
   179
420
  2234388
370
    25
  0
POLYLINE
  5
86
330
1F
100
AcDbEntity
  8
_U+30EC_U+30A4_U+30E4_U+30FC 1
 62
   179
420
  2234388
370
    25
100
AcDb2dPolyline
 66
     1
 10
0.0
 20
0.0
 30
0.0
  0
VERTEX
  5
87
330
86
100
AcDbEntity
  8
_U+30EC_U+30A4_U+30E4_U+30FC 1
 62
   179
420
  2234388
370
    25
100
AcDbVertex
100
AcDb2dVertex
 10
106.1681535243477
 20
-147.0550312098454
 30
0.0
  0
VERTEX
  5
88
330
86
100
AcDbEntity
  8
_U+30EC_U+30A4_U+30E4_U+30FC 1
 62
   179
420
  2234388
370
    25
100
AcDbVertex
100
AcDb2dVertex
 10
117.4817286727509
 20
-135.7414560614426
 30
0.0
  0
SEQEND
  5
89
330
86
100
AcDbEntity
  8
_U+30EC_U+30A4_U+30E4_U+30FC 1
 62
   179
420
  2234388
370
    25
  0
POLYLINE
  5
8A
330
1F
100
AcDbEntity
  8
_U+30EC_U+30A4_U+30E4_U+30FC 1
 62
   179
420
  2234388
370
    25
100
AcDb2dPolyline
 66
     1
 10
0.0
 20
0.0
 30
0.0
  0
VERTEX
  5
8B
330
8A
100
AcDbEntity
  8
_U+30EC_U+30A4_U+30E4_U+30FC 1
 62
   179
420
  2234388
370
    25
100
AcDbVertex
100
AcDb2dVertex
 10
108.7023657632975
 20
-148.7637878046059
 30
0.0
  0
VERTEX
  5
8C
330
8A
100
AcDbEntity
  8
_U+30EC_U+30A4_U+30E4_U+30FC 1
 62
   179
420
  2234388
370
    25
100
AcDbVertex
100
AcDb2dVertex
 10
119.1907974792898
 20
-138.2757113640856
 30
0.0
  0
SEQEND
  5
8D
330
8A
100
AcDbEntity
  8
_U+30EC_U+30A4_U+30E4_U+30FC 1
 62
   179
420
  2234388
370
    25
  0
POLYLINE
  5
8E
330
1F
100
AcDbEntity
  8
_U+30EC_U+30A4_U+30E4_U+30FC 1
 62
   179
420
  2234388
370
    25
100
AcDb2dPolyline
 66
     1
 10
0.0
 20
0.0
 30
0.0
  0
VERTEX
  5
8F
330
8E
100
AcDbEntity
  8
_U+30EC_U+30A4_U+30E4_U+30FC 1
 62
   179
420
  2234388
370
    25
100
AcDbVertex
100
AcDb2dVertex
 10
110.3298396364529
 20
-149.2571470099405
 30
0.0
  0
VERTEX
  5
90
330
8E
100
AcDbEntity
  8
_U+30EC_U+30A4_U+30E4_U+30FC 1
 62
   179
420
  2234388
370
    25
100
AcDbVertex
100
AcDb2dVertex
 10
119.6847918741044
 20
-139.9028945573095
 30
0.0
  0
SEQEND
  5
91
330
8E
100
AcDbEntity
  8
_U+30EC_U+30A4_U+30E4_U+30FC 1
 62
   179
420
  2234388
370
    25
  0
POLYLINE
  5
92
330
1F
100
AcDbEntity
  8
_U+30EC_U+30A4_U+30E4_U+30FC 1
 62
   179
420
  2234388
370
    25
100
AcDb2dPolyline
 66
     1
 10
0.0
 20
0.0
 30
0.0
  0
VERTEX
  5
93
330
92
100
AcDbEntity
  8
_U+30EC_U+30A4_U+30E4_U+30FC 1
 62
   179
420
  2234388
370
    25
100
AcDbVertex
100
AcDb2dVertex
 10
111.268972665732
 20
-149.3791033901183
 30
0.0
  0
VERTEX
  5
94
330
92
100
AcDbEntity
  8
_U+30EC_U+30A4_U+30E4_U+30FC 1
 62
   179
420
  2234388
370
    25
100
AcDbVertex
100
AcDb2dVertex
 10
119.8061884262659
 20
-140.8422429050564
 30
0.0
  0
SEQEND
  5
95
330
92
100
AcDbEntity
  8
_U+30EC_U+30A4_U+30E4_U+30FC 1
 62
   179
420
  2234388
370
    25
  0
POLYLINE
  5
96
330
1F
100
AcDbEntity
  8
_U+30EC_U+30A4_U+30E4_U+30FC 1
 62
   179
420
  2234388
370
    25
100
AcDb2dPolyline
 66
     1
 10
0.0
 20
0.0
 30
0.0
  0
VERTEX
  5
97
330
96
100
AcDbEntity
  8
_U+30EC_U+30A4_U+30E4_U+30FC 1
 62
   179
420
  2234388
370
    25
100
AcDbVertex
100
AcDb2dVertex
 10
109.4802790897903
 20
-149.0469961853402
 30
0.0
  0
VERTEX
  5
98
330
96
100
AcDbEntity
  8
_U+30EC_U+30A4_U+30E4_U+30FC 1
 62
   179
420
  2234388
370
    25
100
AcDbVertex
100
AcDb2dVertex
 10
119.474113519258
 20
-139.0528064804006
 30
0.0
  0
SEQEND
  5
99
330
96
100
AcDbEntity
  8
_U+30EC_U+30A4_U+30E4_U+30FC 1
 62
   179
420
  2234388
370
    25
  0
POLYLINE
  5
9A
330
1F
100
AcDbEntity
  8
_U+30EC_U+30A4_U+30E4_U+30FC 1
 62
   179
420
  2234388
370
    25
100
AcDb2dPolyline
 66
     1
 10
0.0
 20
0.0
 30
0.0
  0
VERTEX
  5
9B
330
9A
100
AcDbEntity
  8
_U+30EC_U+30A4_U+30E4_U+30FC 1
 62
   179
420
  2234388
370
    25
100
AcDbVertex
100
AcDb2dVertex
 10
107.3291507028769
 20
-148.0154700015164
 30
0.0
  0
VERTEX
  5
9C
330
9A
100
AcDbEntity
  8
_U+30EC_U+30A4_U+30E4_U+30FC 1
 62
   179
420
  2234388
370
    25
100
AcDbVertex
100
AcDb2dVertex
 10
108.1186589288623
 20
-147.2259617755307
 30
0.0
  0
SEQEND
  5
9D
330
9A
100
AcDbEntity
  8
_U+30EC_U+30A4_U+30E4_U+30FC 1
 62
   179
420
  2234388
370
    25
  0
POLYLINE
  5
9E
330
1F
100
AcDbEntity
  8
_U+30EC_U+30A4_U+30E4_U+30FC 1
 62
   179
420
  2234388
370
    25
100
AcDb2dPolyline
 66
     1
 10
0.0
 20
0.0
 30
0.0
  0
VERTEX
  5
9F
330
9E
100
AcDbEntity
  8
_U+30EC_U+30A4_U+30E4_U+30FC 1
 62
   179
420
  2234388
370
    25
100
AcDbVertex
100
AcDb2dVertex
 10
107.9878529596567
 20
-148.4179217497336
 30
0.0
  0
VERTEX
  5
A0
330
9E
100
AcDbEntity
  8
_U+30EC_U+30A4_U+30E4_U+30FC 1
 62
   179
420
  2234388
370
    25
100
AcDbVertex
100
AcDb2dVertex
 10
118.8449314244175
 20
-137.5611877945214
 30
0.0
  0
SEQEND
  5
A1
330
9E
100
AcDbEntity
  8
_U+30EC_U+30A4_U+30E4_U+30FC 1
 62
   179
420
  2234388
370
    25
  0
POLYLINE
  5
A2
330
1F
100
AcDbEntity
  8
_U+30EC_U+30A4_U+30E4_U+30FC 1
 62
   179
420
  2234388
370
    25
100
AcDb2dPolyline
 66
     1
 10
0.0
 20
0.0
 30
0.0
  0
VERTEX
  5
A3
330
A2
100
AcDbEntity
  8
_U+30EC_U+30A4_U+30E4_U+30FC 1
 62
   179
420
  2234388
370
    25
100
AcDbVertex
100
AcDb2dVertex
 10
106.7234921506466
 20
-147.5607389293099
 30
0.0
  0
VERTEX
  5
A4
330
A2
100
AcDbEntity
  8
_U+30EC_U+30A4_U+30E4_U+30FC 1
 62
   179
420
  2234388
370
    25
100
AcDbVertex
100
AcDb2dVertex
 10
107.6452920432655
 20
-146.638939036691
 30
0.0
  0
SEQEND
  5
A5
330
A2
100
AcDbEntity
  8
_U+30EC_U+30A4_U+30E4_U+30FC 1
 62
   179
420
  2234388
370
    25
  0
POLYLINE
  5
A6
330
1F
100
AcDbEntity
  8
_U+30EC_U+30A4_U+30E4_U+30FC 1
 62
   179
420
  2234388
370
    25
100
AcDb2dPolyline
 66
     1
 10
0.0
 20
0.0
 30
0.0
  0
VERTEX
  5
A7
330
A6
100
AcDbEntity
  8
_U+30EC_U+30A4_U+30E4_U+30FC 1
 62
   179
420
  2234388
370
    25
100
AcDbVertex
100
AcDb2dVertex
 10
104.4600751827612
 20
-144.5208189708956
 30
0.0
  0
VERTEX
  5
A8
330
A6
100
AcDbEntity
  8
_U+30EC_U+30A4_U+30E4_U+30FC 1
 62
   179
420
  2234388
370
    25
100
AcDbVertex
100
AcDb2dVertex
 10
104.9133851530794
 20
-144.0675090005771
 30
0.0
  0
SEQEND
  5
A9
330
A6
100
AcDbEntity
  8
_U+30EC_U+30A4_U+30E4_U+30FC 1
 62
   179
420
  2234388
370
    25
  0
POLYLINE
  5
AA
330
1F
100
AcDbEntity
  8
_U+30EC_U+30A4_U+30E4_U+30FC 1
 62
   179
420
  2234388
370
    25
100
AcDb2dPolyline
 66
     1
 10
0.0
 20
0.0
 30
0.0
  0
VERTEX
  5
AB
330
AA
100
AcDbEntity
  8
_U+30EC_U+30A4_U+30E4_U+30FC 1
 62
   179
420
  2234388
370
    25
100
AcDbVertex
100
AcDb2dVertex
 10
103.9660484901763
 20
-142.89331279997
 30
0.0
  0
VERTEX
  5
AC
330
AA
100
AcDbEntity
  8
_U+30EC_U+30A4_U+30E4_U+30FC 1
 62
   179
420
  2234388
370
    25
100
AcDbVertex
100
AcDb2dVertex
 10
113.3203009428071
 20
-133.539060347339
 30
0.0
  0
SEQEND
  5
AD
330
AA
100
AcDbEntity
  8
_U+30EC_U+30A4_U+30E4_U+30FC 1
 62
   179
420
  2234388
370
    25
  0
POLYLINE
  5
AE
330
1F
100
AcDbEntity
  8
_U+30EC_U+30A4_U+30E4_U+30FC 1
 62
   179
420
  2234388
370
    25
100
AcDb2dPolyline
 66
     1
 10
0.0
 20
0.0
 30
0.0
  0
VERTEX
  5
AF
330
AE
100
AcDbEntity
  8
_U+30EC_U+30A4_U+30E4_U+30FC 1
 62
   179
420
  2234388
370
    25
100
AcDbVertex
100
AcDb2dVertex
 10
103.8447918950186
 20
-141.9542228343845
 30
0.0
  0
VERTEX
  5
B0
330
AE
100
AcDbEntity
  8
_U+30EC_U+30A4_U+30E4_U+30FC 1
 62
   179
420
  2234388
370
    25
100
AcDbVertex
100
AcDb2dVertex
 10
112.3809525950602
 20
-133.4173623493225
 30
0.0
  0
SEQEND
  5
B1
330
AE
100
AcDbEntity
  8
_U+30EC_U+30A4_U+30E4_U+30FC 1
 62
   179
420
  2234388
370
    25
  0
POLYLINE
  5
B2
330
1F
100
AcDbEntity
  8
_U+30EC_U+30A4_U+30E4_U+30FC 1
 62
   179
420
  2234388
370
    25
100
AcDb2dPolyline
 66
     1
 10
0.0
 20
0.0
 30
0.0
  0
VERTEX
  5
B3
330
B2
100
AcDbEntity
  8
_U+30EC_U+30A4_U+30E4_U+30FC 1
 62
   179
420
  2234388
370
    25
100
AcDbVertex
100
AcDb2dVertex
 10
104.1768990997967
 20
-143.7436161953466
 30
0.0
  0
VERTEX
  5
B4
330
B2
100
AcDbEntity
  8
_U+30EC_U+30A4_U+30E4_U+30FC 1
 62
   179
420
  2234388
370
    25
100
AcDbVertex
100
AcDb2dVertex
 10
114.1703782537925
 20
-133.749426490407
 30
0.0
  0
SEQEND
  5
B5
330
B2
100
AcDbEntity
  8
_U+30EC_U+30A4_U+30E4_U+30FC 1
 62
   179
420
  2234388
370
    25
  0
POLYLINE
  5
B6
330
1F
100
AcDbEntity
  8
_U+30EC_U+30A4_U+30E4_U+30FC 1
 62
   179
420
  2234388
370
    25
100
AcDb2dPolyline
 66
     1
 10
0.0
 20
0.0
 30
0.0
  0
VERTEX
  5
B7
330
B6
100
AcDbEntity
  8
_U+30EC_U+30A4_U+30E4_U+30FC 1
 62
   179
420
  2234388
370
    25
100
AcDbVertex
100
AcDb2dVertex
 10
105.2083499221574
 20
-145.8940447972396
 30
0.0
  0
VERTEX
  5
B8
330
B6
100
AcDbEntity
  8
_U+30EC_U+30A4_U+30E4_U+30FC 1
 62
   179
420
  2234388
370
    25
100
AcDbVertex
100
AcDb2dVertex
 10
108.1187665880962
 20
-142.9836281313005
 30
0.0
  0
SEQEND
  5
B9
330
B6
100
AcDbEntity
  8
_U+30EC_U+30A4_U+30E4_U+30FC 1
 62
   179
420
  2234388
370
    25
  0
POLYLINE
  5
BA
330
1F
100
AcDbEntity
  8
_U+30EC_U+30A4_U+30E4_U+30FC 1
 62
   179
420
  2234388
370
    25
100
AcDb2dPolyline
 66
     1
 10
0.0
 20
0.0
 30
0.0
  0
VERTEX
  5
BB
330
BA
100
AcDbEntity
  8
_U+30EC_U+30A4_U+30E4_U+30FC 1
 62
   179
420
  2234388
370
    25
100
AcDbVertex
100
AcDb2dVertex
 10
105.6631132921335
 20
-146.4996925835465
 30
0.0
  0
VERTEX
  5
BC
330
BA
100
AcDbEntity
  8
_U+30EC_U+30A4_U+30E4_U+30FC 1
 62
   179
420
  2234388
370
    25
100
AcDbVertex
100
AcDb2dVertex
 10
108.7058216247061
 20
-143.4569842509739
 30
0.0
  0
SEQEND
  5
BD
330
BA
100
AcDbEntity
  8
_U+30EC_U+30A4_U+30E4_U+30FC 1
 62
   179
420
  2234388
370
    25
  0
POLYLINE
  5
BE
330
1F
100
AcDbEntity
  8
_U+30EC_U+30A4_U+30E4_U+30FC 1
 62
   179
420
  2234388
370
    25
100
AcDb2dPolyline
 66
     1
 10
0.0
 20
0.0
 30
0.0
  0
VERTEX
  5
BF
330
BE
100
AcDbEntity
  8
_U+30EC_U+30A4_U+30E4_U+30FC 1
 62
   179
420
  2234388
370
    25
100
AcDbVertex
100
AcDb2dVertex
 10
104.8059735354033
 20
-145.2360100277101
 30
0.0
  0
VERTEX
  5
C0
330
BE
100
AcDbEntity
  8
_U+30EC_U+30A4_U+30E4_U+30FC 1
 62
   179
420
  2234388
370
    25
100
AcDbVertex
100
AcDb2dVertex
 10
105.581023126274
 20
-144.4609604368394
 30
0.0
  0
SEQEND
  5
C1
330
BE
100
AcDbEntity
  8
_U+30EC_U+30A4_U+30E4_U+30FC 1
 62
   179
420
  2234388
370
    25
  0
POLYLINE
  5
C2
330
1F
100
AcDbEntity
  8
_U+30EC_U+30A4_U+30E4_U+30FC 1
 62
   179
420
  2234388
370
    25
100
AcDb2dPolyline
 66
     1
 10
0.0
 20
0.0
 30
0.0
  0
VERTEX
  5
C3
330
C2
100
AcDbEntity
  8
_U+30EC_U+30A4_U+30E4_U+30FC 1
 62
   179
420
  2234388
370
    25
100
AcDbVertex
100
AcDb2dVertex
 10
114.4942710590229
 20
-134.4866230946336
 30
0.0
  0
VERTEX
  5
C4
330
C2
100
AcDbEntity
  8
_U+30EC_U+30A4_U+30E4_U+30FC 1
 62
   179
420
  2234388
370
    25
100
AcDbVertex
100
AcDb2dVertex
 10
114.9475810293414
 20
-134.0326025733715
 30
0.0
  0
SEQEND
  5
C5
330
C2
100
AcDbEntity
  8
_U+30EC_U+30A4_U+30E4_U+30FC 1
 62
   179
420
  2234388
370
    25
  0
POLYLINE
  5
C6
330
1F
100
AcDbEntity
  8
_U+30EC_U+30A4_U+30E4_U+30FC 1
 62
   179
420
  2234388
370
    25
100
AcDb2dPolyline
 66
     1
 10
0.0
 20
0.0
 30
0.0
  0
VERTEX
  5
C7
330
C6
100
AcDbEntity
  8
_U+30EC_U+30A4_U+30E4_U+30FC 1
 62
   179
420
  2234388
370
    25
100
AcDbVertex
100
AcDb2dVertex
 10
110.2519804784863
 20
-138.7289136751702
 30
0.0
  0
VERTEX
  5
C8
330
C6
100
AcDbEntity
  8
_U+30EC_U+30A4_U+30E4_U+30FC 1
 62
   179
420
  2234388
370
    25
100
AcDbVertex
100
AcDb2dVertex
 10
113.3987522265603
 20
-135.5821419270962
 30
0.0
  0
SEQEND
  5
C9
330
C6
100
AcDbEntity
  8
_U+30EC_U+30A4_U+30E4_U+30FC 1
 62
   179
420
  2234388
370
    25
  0
POLYLINE
  5
CA
330
1F
100
AcDbEntity
  8
_U+30EC_U+30A4_U+30E4_U+30FC 1
 62
   179
420
  2234388
370
    25
100
AcDb2dPolyline
 66
     1
 10
0.0
 20
0.0
 30
0.0
  0
VERTEX
  5
CB
330
CA
100
AcDbEntity
  8
_U+30EC_U+30A4_U+30E4_U+30FC 1
 62
   179
420
  2234388
370
    25
100
AcDbVertex
100
AcDb2dVertex
 10
106.0089793470058
 20
-142.9719148066507
 30
0.0
  0
VERTEX
  5
CC
330
CA
100
AcDbEntity
  8
_U+30EC_U+30A4_U+30E4_U+30FC 1
 62
   179
420
  2234388
370
    25
100
AcDbVertex
100
AcDb2dVertex
 10
109.1564616460236
 20
-139.8244325076329
 30
0.0
  0
SEQEND
  5
CD
330
CA
100
AcDbEntity
  8
_U+30EC_U+30A4_U+30E4_U+30FC 1
 62
   179
420
  2234388
370
    25
  0
POLYLINE
  5
CE
330
1F
100
AcDbEntity
  8
_U+30EC_U+30A4_U+30E4_U+30FC 1
 62
   179
420
  2234388
370
    25
100
AcDb2dPolyline
 66
     1
 10
0.0
 20
0.0
 30
0.0
  0
VERTEX
  5
CF
330
CE
100
AcDbEntity
  8
_U+30EC_U+30A4_U+30E4_U+30FC 1
 62
   179
420
  2234388
370
    25
100
AcDbVertex
100
AcDb2dVertex
 10
106.4024307832681
 20
-143.6388745266717
 30
0.0
  0
VERTEX
  5
D0
330
CE
100
AcDbEntity
  8
_U+30EC_U+30A4_U+30E4_U+30FC 1
 62
   179
420
  2234388
370
    25
100
AcDbVertex
100
AcDb2dVertex
 10
109.8233137068107
 20
-140.2179916031291
 30
0.0
  0
SEQEND
  5
D1
330
CE
100
AcDbEntity
  8
_U+30EC_U+30A4_U+30E4_U+30FC 1
 62
   179
420
  2234388
370
    25
  0
POLYLINE
  5
D2
330
1F
100
AcDbEntity
  8
_U+30EC_U+30A4_U+30E4_U+30FC 1
 62
   179
420
  2234388
370
    25
100
AcDb2dPolyline
 66
     1
 10
0.0
 20
0.0
 30
0.0
  0
VERTEX
  5
D3
330
D2
100
AcDbEntity
  8
_U+30EC_U+30A4_U+30E4_U+30FC 1
 62
   179
420
  2234388
370
    25
100
AcDbVertex
100
AcDb2dVertex
 10
110.6453996169784
 20
-139.396583946135
 30
0.0
  0
VERTEX
  5
D4
330
D2
100
AcDbEntity
  8
_U+30EC_U+30A4_U+30E4_U+30FC 1
 62
   179
420
  2234388
370
    25
100
AcDbVertex
100
AcDb2dVertex
 10
114.066282540521
 20
-135.9757010225925
 30
0.0
  0
SEQEND
  5
D5
330
D2
100
AcDbEntity
  8
_U+30EC_U+30A4_U+30E4_U+30FC 1
 62
   179
420
  2234388
370
    25
  0
POLYLINE
  5
D6
330
1F
100
AcDbEntity
  8
_U+30EC_U+30A4_U+30E4_U+30FC 1
 62
   179
420
  2234388
370
    25
100
AcDb2dPolyline
 66
     1
 10
0.0
 20
0.0
 30
0.0
  0
VERTEX
  5
D7
330
D6
100
AcDbEntity
  8
_U+30EC_U+30A4_U+30E4_U+30FC 1
 62
   179
420
  2234388
370
    25
100
AcDbVertex
100
AcDb2dVertex
 10
114.8876901975151
 20
-135.1536151124247
 30
0.0
  0
VERTEX
  5
D8
330
D6
100
AcDbEntity
  8
_U+30EC_U+30A4_U+30E4_U+30FC 1
 62
   179
420
  2234388
370
    25
100
AcDbVertex
100
AcDb2dVertex
 10
115.6627397883857
 20
-134.378565521554
 30
0.0
  0
SEQEND
  5
D9
330
D6
100
AcDbEntity
  8
_U+30EC_U+30A4_U+30E4_U+30FC 1
 62
   179
420
  2234388
370
    25
  0
POLYLINE
  5
DA
330
1F
100
AcDbEntity
  8
_U+30EC_U+30A4_U+30E4_U+30FC 1
 62
   179
420
  2234388
370
    25
100
AcDb2dPolyline
 66
     1
 10
0.0
 20
0.0
 30
0.0
  0
VERTEX
  5
DB
330
DA
100
AcDbEntity
  8
_U+30EC_U+30A4_U+30E4_U+30FC 1
 62
   179
420
  2234388
370
    25
100
AcDbVertex
100
AcDb2dVertex
 10
113.4104332534399
 20
-137.6919614659568
 30
0.0
  0
VERTEX
  5
DC
330
DA
100
AcDbEntity
  8
_U+30EC_U+30A4_U+30E4_U+30FC 1
 62
   179
420
  2234388
370
    25
100
AcDbVertex
100
AcDb2dVertex
 10
116.320849919379
 20
-134.7808450149973
 30
0.0
  0
SEQEND
  5
DD
330
DA
100
AcDbEntity
  8
_U+30EC_U+30A4_U+30E4_U+30FC 1
 62
   179
420
  2234388
370
    25
  0
POLYLINE
  5
DE
330
1F
100
AcDbEntity
  8
_U+30EC_U+30A4_U+30E4_U+30FC 1
 62
   179
420
  2234388
370
    25
100
AcDb2dPolyline
 66
     1
 10
0.0
 20
0.0
 30
0.0
  0
VERTEX
  5
DF
330
DE
100
AcDbEntity
  8
_U+30EC_U+30A4_U+30E4_U+30FC 1
 62
   179
420
  2234388
370
    25
100
AcDbVertex
100
AcDb2dVertex
 10
113.8837893731133
 20
-138.2789842047966
 30
0.0
  0
VERTEX
  5
E0
330
DE
100
AcDbEntity
  8
_U+30EC_U+30A4_U+30E4_U+30FC 1
 62
   179
420
  2234388
370
    25
100
AcDbVertex
100
AcDb2dVertex
 10
116.9271974907064
 20
-135.2362758722239
 30
0.0
  0
SEQEND
  5
E1
330
DE
100
AcDbEntity
  8
_U+30EC_U+30A4_U+30E4_U+30FC 1
 62
   179
420
  2234388
370
    25
  0
POLYLINE
  5
E2
330
1F
100
AcDbEntity
  8
_U+30EC_U+30A4_U+30E4_U+30FC 1
 62
   179
420
  2234388
370
    25
100
AcDb2dPolyline
 66
     1
 10
0.0
 20
0.0
 30
0.0
  0
VERTEX
  5
E3
330
E2
100
AcDbEntity
  8
_U+30EC_U+30A4_U+30E4_U+30FC 1
 62
   179
420
  2234388
370
    25
100
AcDbVertex
100
AcDb2dVertex
 10
109.167475185653
 20
-141.9342520464934
 30
0.0
  0
VERTEX
  5
E4
330
E2
100
AcDbEntity
  8
_U+30EC_U+30A4_U+30E4_U+30FC 1
 62
   179
420
  2234388
370
    25
100
AcDbVertex
100
AcDb2dVertex
 10
112.3618753788106
 20
-138.7405624042797
 30
0.0
  0
SEQEND
  5
E5
330
E2
100
AcDbEntity
  8
_U+30EC_U+30A4_U+30E4_U+30FC 1
 62
   179
420
  2234388
370
    25
  0
POLYLINE
  5
E6
330
1F
100
AcDbEntity
  8
_U+30EC_U+30A4_U+30E4_U+30FC 1
 62
   179
420
  2234388
370
    25
100
AcDb2dPolyline
 66
     1
 10
0.0
 20
0.0
 30
0.0
  0
VERTEX
  5
E7
330
E6
100
AcDbEntity
  8
_U+30EC_U+30A4_U+30E4_U+30FC 1
 62
   179
420
  2234388
370
    25
100
AcDbVertex
100
AcDb2dVertex
 10
109.6414987925766
 20
-142.5212747853332
 30
0.0
  0
VERTEX
  5
E8
330
E6
100
AcDbEntity
  8
_U+30EC_U+30A4_U+30E4_U+30FC 1
 62
   179
420
  2234388
370
    25
100
AcDbVertex
100
AcDb2dVertex
 10
112.9487904584165
 20
-139.2139831194934
 30
0.0
  0
SEQEND
  5
E9
330
E6
100
AcDbEntity
  8
_U+30EC_U+30A4_U+30E4_U+30FC 1
 62
   179
420
  2234388
370
    25
  0
POLYLINE
  5
EA
330
1F
100
AcDbEntity
  8
_U+30EC_U+30A4_U+30E4_U+30FC 1
 62
   179
420
  2234388
370
    25
100
AcDb2dPolyline
 66
     1
 10
0.0
 20
0.0
 30
0.0
  0
VERTEX
  5
EB
330
EA
100
AcDbEntity
  8
_U+30EC_U+30A4_U+30E4_U+30FC 1
 62
   179
420
  2234388
370
    25
100
AcDbVertex
100
AcDb2dVertex
 10
112.82337821683
 20
-141.4608959268201
 30
0.0
  0
VERTEX
  5
EC
330
EA
100
AcDbEntity
  8
_U+30EC_U+30A4_U+30E4_U+30FC 1
 62
   179
420
  2234388
370
    25
100
AcDbVertex
100
AcDb2dVertex
 10
116.1306698826698
 20
-138.1536042609803
 30
0.0
  0
SEQEND
  5
ED
330
EA
100
AcDbEntity
  8
_U+30EC_U+30A4_U+30E4_U+30FC 1
 62
   179
420
  2234388
370
    25
  0
POLYLINE
  5
EE
330
1F
100
AcDbEntity
  8
_U+30EC_U+30A4_U+30E4_U+30FC 1
 62
   179
420
  2234388
370
    25
100
AcDb2dPolyline
 66
     1
 10
0.0
 20
0.0
 30
0.0
  0
VERTEX
  5
EF
330
EE
100
AcDbEntity
  8
_U+30EC_U+30A4_U+30E4_U+30FC 1
 62
   179
420
  2234388
370
    25
100
AcDbVertex
100
AcDb2dVertex
 10
113.4104332534399
 20
-141.9342520464934
 30
0.0
  0
VERTEX
  5
F0
330
EE
100
AcDbEntity
  8
_U+30EC_U+30A4_U+30E4_U+30FC 1
 62
   179
420
  2234388
370
    25
100
AcDbVertex
100
AcDb2dVertex
 10
116.6041228956537
 20
-138.7405624042797
 30
0.0
  0
SEQEND
  5
F1
330
EE
100
AcDbEntity
  8
_U+30EC_U+30A4_U+30E4_U+30FC 1
 62
   179
420
  2234388
370
    25
  0
POLYLINE
  5
F2
330
1F
100
AcDbEntity
  8
_U+30EC_U+30A4_U+30E4_U+30FC 1
 62
   179
420
  2234388
370
    25
100
AcDb2dPolyline
 66
     1
 10
0.0
 20
0.0
 30
0.0
  0
VERTEX
  5
F3
330
F2
100
AcDbEntity
  8
_U+30EC_U+30A4_U+30E4_U+30FC 1
 62
   179
420
  2234388
370
    25
100
AcDbVertex
100
AcDb2dVertex
 10
117.0656687973666
 20
-137.2178947953396
 30
0.0
  0
VERTEX
  5
F4
330
F2
100
AcDbEntity
  8
_U+30EC_U+30A4_U+30E4_U+30FC 1
 62
   179
420
  2234388
370
    25
100
AcDbVertex
100
AcDb2dVertex
 10
117.9878239654575
 20
-136.2967946877411
 30
0.0
  0
SEQEND
  5
F5
330
F2
100
AcDbEntity
  8
_U+30EC_U+30A4_U+30E4_U+30FC 1
 62
   179
420
  2234388
370
    25
  0
POLYLINE
  5
F6
330
1F
100
AcDbEntity
  8
_U+30EC_U+30A4_U+30E4_U+30FC 1
 62
   179
420
  2234388
370
    25
100
AcDb2dPolyline
 66
     1
 10
0.0
 20
0.0
 30
0.0
  0
VERTEX
  5
F7
330
F6
100
AcDbEntity
  8
_U+30EC_U+30A4_U+30E4_U+30FC 1
 62
   179
420
  2234388
370
    25
100
AcDbVertex
100
AcDb2dVertex
 10
117.6527345999
 20
-137.6919614659568
 30
0.0
  0
VERTEX
  5
F8
330
F6
100
AcDbEntity
  8
_U+30EC_U+30A4_U+30E4_U+30FC 1
 62
   179
420
  2234388
370
    25
100
AcDbVertex
100
AcDb2dVertex
 10
118.4425981013572
 20
-136.9024532399717
 30
0.0
  0
SEQEND
  5
F9
330
F6
100
AcDbEntity
  8
_U+30EC_U+30A4_U+30E4_U+30FC 1
 62
   179
420
  2234388
370
    25
  0
POLYLINE
  5
FA
330
1F
100
AcDbEntity
  8
_U+30EC_U+30A4_U+30E4_U+30FC 1
 62
   179
420
  2234388
370
    25
100
AcDb2dPolyline
 66
     1
 10
0.0
 20
0.0
 30
0.0
  0
VERTEX
  5
FB
330
FA
100
AcDbEntity
  8
_U+30EC_U+30A4_U+30E4_U+30FC 1
 62
   179
420
  2234388
370
    25
100
AcDbVertex
100
AcDb2dVertex
 10
108.5804093831197
 20
-145.7031972732802
 30
0.0
  0
VERTEX
  5
FC
330
FA
100
AcDbEntity
  8
_U+30EC_U+30A4_U+30E4_U+30FC 1
 62
   179
420
  2234388
370
    25
100
AcDbVertex
100
AcDb2dVertex
 10
111.8877010489595
 20
-142.3966161583841
 30
0.0
  0
SEQEND
  5
FD
330
FA
100
AcDbEntity
  8
_U+30EC_U+30A4_U+30E4_U+30FC 1
 62
   179
420
  2234388
370
    25
  0
POLYLINE
  5
FE
330
1F
100
AcDbEntity
  8
_U+30EC_U+30A4_U+30E4_U+30FC 1
 62
   179
420
  2234388
370
    25
100
AcDb2dPolyline
 66
     1
 10
0.0
 20
0.0
 30
0.0
  0
VERTEX
  5
FF
330
FE
100
AcDbEntity
  8
_U+30EC_U+30A4_U+30E4_U+30FC 1
 62
   179
420
  2234388
370
    25
100
AcDbVertex
100
AcDb2dVertex
 10
109.167475185653
 20
-146.1772208802037
 30
0.0
  0
VERTEX
  5
100
330
FE
100
AcDbEntity
  8
_U+30EC_U+30A4_U+30E4_U+30FC 1
 62
   179
420
  2234388
370
    25
100
AcDbVertex
100
AcDb2dVertex
 10
112.3618753788106
 20
-142.98353123799
 30
0.0
  0
SEQEND
  5
101
330
FE
100
AcDbEntity
  8
_U+30EC_U+30A4_U+30E4_U+30FC 1
 62
   179
420
  2234388
370
    25
  0
SPLINE
  5
102
330
1F
100
AcDbEntity
  8
_U+30EC_U+30A4_U+30E4_U+30FC 1
 62
   179
420
  2234388
370
    25
100
AcDbSpline
210
0.0
220
0.0
230
1.0
 70
    11
 71
     3
 72
    17
 73
    13
 74
     0
 42
0.0000000001
 43
0.0000000001
 12
1.0
 22
0.0
 32
0.0
 13
1.0
 23
0.0
 33
0.0
 40
0.0
 40
0.0
 40
0.0
 40
0.0
 40
1.0
 40
1.0
 40
1.0
 40
2.0
 40
2.0
 40
2.0
 40
3.0
 40
3.0
 40
3.0
 40
4.0
 40
4.0
 40
4.0
 40
4.0
 10
119.8253840676728
 20
-141.3981736571418
 30
0.0
 10
119.8253840676728
 20
-136.9803446957083
 30
0.0
 10
116.2436259508924
 20
-133.3978867939075
 30
0.0
 10
111.8250864385151
 20
-133.3978867939075
 30
0.0
 10
107.4068914356863
 20
-133.3978867939075
 30
0.0
 10
103.8254993603012
 20
-136.9803446957083
 30
0.0
 10
103.8254993603012
 20
-141.3981736571418
 30
0.0
 10
103.8254993603012
 20
-145.8160133844987
 30
0.0
 10
107.4068914356863
 20
-149.3984712862995
 30
0.0
 10
111.8250864385151
 20
-149.3984712862995
 30
0.0
 10
116.2436259508924
 20
-149.3984712862995
 30
0.0
 10
119.8253840676728
 20
-145.8160133844987
 30
0.0
 10
119.8253840676728
 20
-141.3981736571418
 30
0.0
  0
SPLINE
  5
103
330
1F
100
AcDbEntity
  8
_U+30EC_U+30A4_U+30E4_U+30FC 1
 62
   179
420
  2234388
370
    25
100
AcDbSpline
210
0.0
220
0.0
230
1.0
 70
    11
 71
     3
 72
    17
 73
    13
 74
     0
 42
0.0000000001
 43
0.0000000001
 12
1.0
 22
0.0
 32
0.0
 13
1.0
 23
0.0
 33
0.0
 40
0.0
 40
0.0
 40
0.0
 40
0.0
 40
1.0
 40
1.0
 40
1.0
 40
2.0
 40
2.0
 40
2.0
 40
3.0
 40
3.0
 40
3.0
 40
4.0
 40
4.0
 40
4.0
 40
4.0
 10
109.655289940441
 20
-142.6708242271633
 30
0.0
 10
109.655289940441
 20
-142.2291522200308
 30
0.0
 10
109.2968600529709
 20
-141.8707330984842
 30
0.0
 10
108.8551880458385
 20
-141.8707330984842
 30
0.0
 10
108.4135052727827
 20
-141.8707330984842
 30
0.0
 10
108.0554414267079
 20
-142.2291522200308
 30
0.0
 10
108.0554414267079
 20
-142.6708242271633
 30
0.0
 10
108.0554414267079
 20
-143.1132175511629
 30
0.0
 10
108.4135052727827
 20
-143.4709261217657
 30
0.0
 10
108.8551880458385
 20
-143.4709261217657
 30
0.0
 10
109.2968600529709
 20
-143.4709261217657
 30
0.0
 10
109.655289940441
 20
-143.1132175511629
 30
0.0
 10
109.655289940441
 20
-142.6708242271633
 30
0.0
  0
SPLINE
  5
104
330
1F
100
AcDbEntity
  8
_U+30EC_U+30A4_U+30E4_U+30FC 1
 62
   179
420
  2234388
370
    25
100
AcDbSpline
210
0.0
220
0.0
230
1.0
 70
    11
 71
     3
 72
    17
 73
    13
 74
     0
 42
0.0000000001
 43
0.0000000001
 12
1.0
 22
0.0
 32
0.0
 13
1.0
 23
0.0
 33
0.0
 40
0.0
 40
0.0
 40
0.0
 40
0.0
 40
1.0
 40
1.0
 40
1.0
 40
2.0
 40
2.0
 40
2.0
 40
3.0
 40
3.0
 40
3.0
 40
4.0
 40
4.0
 40
4.0
 40
4.0
 10
113.8982587741513
 20
-138.4285228807032
 30
0.0
 10
113.8982587741513
 20
-137.9868508735708
 30
0.0
 10
113.5398288866812
 20
-137.6284317520241
 30
0.0
 10
113.0981568795488
 20
-137.6284317520241
 30
0.0
 10
112.6561188310211
 20
-137.6284317520241
 30
0.0
 10
112.2984102604182
 20
-137.9868508735708
 30
0.0
 10
112.2984102604182
 20
-138.4285228807032
 30
0.0
 10
112.2984102604182
 20
-138.8702056537593
 30
0.0
 10
112.6561188310211
 20
-139.2286247753057
 30
0.0
 10
113.0981568795488
 20
-139.2286247753057
 30
0.0
 10
113.5398288866812
 20
-139.2286247753057
 30
0.0
 10
113.8982587741513
 20
-138.8702056537593
 30
0.0
 10
113.8982587741513
 20
-138.4285228807032
 30
0.0
  0
SPLINE
  5
105
330
1F
100
AcDbEntity
  8
_U+30EC_U+30A4_U+30E4_U+30FC 1
 62
   179
420
  2234388
370
    25
100
AcDbSpline
210
0.0
220
0.0
230
1.0
 70
    11
 71
     3
 72
    17
 73
    13
 74
     0
 42
0.0000000001
 43
0.0000000001
 12
1.0
 22
0.0
 32
0.0
 13
1.0
 23
0.0
 33
0.0
 40
0.0
 40
0.0
 40
0.0
 40
0.0
 40
1.0
 40
1.0
 40
1.0
 40
2.0
 40
2.0
 40
2.0
 40
3.0
 40
3.0
 40
3.0
 40
4.0
 40
4.0
 40
4.0
 40
4.0
 10
106.4024307832681
 20
-143.6609231377773
 30
0.0
 10
106.4024307832681
 20
-143.2192511306448
 30
0.0
 10
106.0447114467419
 20
-142.8608320090985
 30
0.0
 10
105.6023288886656
 20
-142.8608320090985
 30
0.0
 10
105.1606461156098
 20
-142.8608320090985
 30
0.0
 10
104.802582269535
 20
-143.2192511306448
 30
0.0
 10
104.802582269535
 20
-143.6609231377773
 30
0.0
 10
104.802582269535
 20
-144.1026059108331
 30
0.0
 10
105.1606461156098
 20
-144.4610250323798
 30
0.0
 10
105.6023288886656
 20
-144.4610250323798
 30
0.0
 10
106.0447114467419
 20
-144.4610250323798
 30
0.0
 10
106.4024307832681
 20
-144.1026059108331
 30
0.0
 10
106.4024307832681
 20
-143.6609231377773
 30
0.0
  0
SPLINE
  5
106
330
1F
100
AcDbEntity
  8
_U+30EC_U+30A4_U+30E4_U+30FC 1
 62
   179
420
  2234388
370
    25
100
AcDbSpline
210
0.0
220
0.0
230
1.0
 70
    11
 71
     3
 72
    17
 73
    13
 74
     0
 42
0.0000000001
 43
0.0000000001
 12
1.0
 22
0.0
 32
0.0
 13
1.0
 23
0.0
 33
0.0
 40
0.0
 40
0.0
 40
0.0
 40
0.0
 40
1.0
 40
1.0
 40
1.0
 40
2.0
 40
2.0
 40
2.0
 40
3.0
 40
3.0
 40
3.0
 40
4.0
 40
4.0
 40
4.0
 40
4.0
 10
110.6453996169784
 20
-139.4186325572406
 30
0.0
 10
110.6453996169784
 20
-138.9762499991644
 30
0.0
 10
110.2869697295083
 20
-138.6185414285618
 30
0.0
 10
109.8452977223759
 20
-138.6185414285618
 30
0.0
 10
109.4036149493201
 20
-138.6185414285618
 30
0.0
 10
109.0455511032453
 20
-138.9762499991644
 30
0.0
 10
109.0455511032453
 20
-139.4186325572406
 30
0.0
 10
109.0455511032453
 20
-139.8603153302964
 30
0.0
 10
109.4036149493201
 20
-140.2187344518431
 30
0.0
 10
109.8452977223759
 20
-140.2187344518431
 30
0.0
 10
110.2869697295083
 20
-140.2187344518431
 30
0.0
 10
110.6453996169784
 20
-139.8603153302964
 30
0.0
 10
110.6453996169784
 20
-139.4186325572406
 30
0.0
  0
SPLINE
  5
107
330
1F
100
AcDbEntity
  8
_U+30EC_U+30A4_U+30E4_U+30FC 1
 62
   179
420
  2234388
370
    25
100
AcDbSpline
210
0.0
220
0.0
230
1.0
 70
    11
 71
     3
 72
    17
 73
    13
 74
     0
 42
0.0000000001
 43
0.0000000001
 12
1.0
 22
0.0
 32
0.0
 13
1.0
 23
0.0
 33
0.0
 40
0.0
 40
0.0
 40
0.0
 40
0.0
 40
1.0
 40
1.0
 40
1.0
 40
2.0
 40
2.0
 40
2.0
 40
3.0
 40
3.0
 40
3.0
 40
4.0
 40
4.0
 40
4.0
 40
4.0
 10
114.8876901975151
 20
-135.1756637235303
 30
0.0
 10
114.8876901975151
 20
-134.7339917163979
 30
0.0
 10
114.5299708609888
 20
-134.3755725948512
 30
0.0
 10
114.0875883029126
 20
-134.3755725948512
 30
0.0
 10
113.6459055298568
 20
-134.3755725948512
 30
0.0
 10
113.287841683782
 20
-134.7339917163979
 30
0.0
 10
113.287841683782
 20
-135.1756637235303
 30
0.0
 10
113.287841683782
 20
-135.6173464965864
 30
0.0
 10
113.6459055298568
 20
-135.9757656181328
 30
0.0
 10
114.0875883029126
 20
-135.9757656181328
 30
0.0
 10
114.5299708609888
 20
-135.9757656181328
 30
0.0
 10
114.8876901975151
 20
-135.6173464965864
 30
0.0
 10
114.8876901975151
 20
-135.1756637235303
 30
0.0
  0
SPLINE
  5
108
330
1F
100
AcDbEntity
  8
_U+30EC_U+30A4_U+30E4_U+30FC 1
 62
   179
420
  2234388
370
    25
100
AcDbSpline
210
0.0
220
0.0
230
1.0
 70
    11
 71
     3
 72
    17
 73
    13
 74
     0
 42
0.0000000001
 43
0.0000000001
 12
1.0
 22
0.0
 32
0.0
 13
1.0
 23
0.0
 33
0.0
 40
0.0
 40
0.0
 40
0.0
 40
0.0
 40
1.0
 40
1.0
 40
1.0
 40
2.0
 40
2.0
 40
2.0
 40
3.0
 40
3.0
 40
3.0
 40
4.0
 40
4.0
 40
4.0
 40
4.0
 10
109.2308649425816
 20
-146.4893572970908
 30
0.0
 10
109.2308649425816
 20
-146.0476852899584
 30
0.0
 10
108.8731456060554
 20
-145.6892661684117
 30
0.0
 10
108.4307630479791
 20
-145.6892661684117
 30
0.0
 10
107.9890802749233
 20
-145.6892661684117
 30
0.0
 10
107.6310164288485
 20
-146.0476852899584
 30
0.0
 10
107.6310164288485
 20
-146.4893572970908
 30
0.0
 10
107.6310164288485
 20
-146.9310400701469
 30
0.0
 10
107.9890802749233
 20
-147.2894591916933
 30
0.0
 10
108.4307630479791
 20
-147.2894591916933
 30
0.0
 10
108.8731456060554
 20
-147.2894591916933
 30
0.0
 10
109.2308649425816
 20
-146.9310400701469
 30
0.0
 10
109.2308649425816
 20
-146.4893572970908
 30
0.0
  0
SPLINE
  5
109
330
1F
100
AcDbEntity
  8
_U+30EC_U+30A4_U+30E4_U+30FC 1
 62
   179
420
  2234388
370
    25
100
AcDbSpline
210
0.0
220
0.0
230
1.0
 70
    11
 71
     3
 72
    17
 73
    13
 74
     0
 42
0.0000000001
 43
0.0000000001
 12
1.0
 22
0.0
 32
0.0
 13
1.0
 23
0.0
 33
0.0
 40
0.0
 40
0.0
 40
0.0
 40
0.0
 40
1.0
 40
1.0
 40
1.0
 40
2.0
 40
2.0
 40
2.0
 40
3.0
 40
3.0
 40
3.0
 40
4.0
 40
4.0
 40
4.0
 40
4.0
 10
113.4738337762919
 20
-142.2470236528605
 30
0.0
 10
113.4738337762919
 20
-141.8046410947843
 30
0.0
 10
113.1154038888218
 20
-141.4469325241814
 30
0.0
 10
112.6737318816894
 20
-141.4469325241814
 30
0.0
 10
112.2320491086336
 20
-141.4469325241814
 30
0.0
 10
111.8739852625588
 20
-141.8046410947843
 30
0.0
 10
111.8739852625588
 20
-142.2470236528605
 30
0.0
 10
111.8739852625588
 20
-142.6887064259164
 30
0.0
 10
112.2320491086336
 20
-143.0471255474634
 30
0.0
 10
112.6737318816894
 20
-143.0471255474634
 30
0.0
 10
113.1154038888218
 20
-143.0471255474634
 30
0.0
 10
113.4738337762919
 20
-142.6887064259164
 30
0.0
 10
113.4738337762919
 20
-142.2470236528605
 30
0.0
  0
SPLINE
  5
10A
330
1F
100
AcDbEntity
  8
_U+30EC_U+30A4_U+30E4_U+30FC 1
 62
   179
420
  2234388
370
    25
100
AcDbSpline
210
0.0
220
0.0
230
1.0
 70
    11
 71
     3
 72
    17
 73
    13
 74
     0
 42
0.0000000001
 43
0.0000000001
 12
1.0
 22
0.0
 32
0.0
 13
1.0
 23
0.0
 33
0.0
 40
0.0
 40
0.0
 40
0.0
 40
0.0
 40
1.0
 40
1.0
 40
1.0
 40
2.0
 40
2.0
 40
2.0
 40
3.0
 40
3.0
 40
3.0
 40
4.0
 40
4.0
 40
4.0
 40
4.0
 10
117.7161243568286
 20
-138.0040655850736
 30
0.0
 10
117.7161243568286
 20
-137.5623935779412
 30
0.0
 10
117.3584050203023
 20
-137.2039744563945
 30
0.0
 10
116.9160224622261
 20
-137.2039744563945
 30
0.0
 10
116.4743396891703
 20
-137.2039744563945
 30
0.0
 10
116.1162758430955
 20
-137.5623935779412
 30
0.0
 10
116.1162758430955
 20
-138.0040655850736
 30
0.0
 10
116.1162758430955
 20
-138.4457483581295
 30
0.0
 10
116.4743396891703
 20
-138.8041674796761
 30
0.0
 10
116.9160224622261
 20
-138.8041674796761
 30
0.0
 10
117.3584050203023
 20
-138.8041674796761
 30
0.0
 10
117.7161243568286
 20
-138.4457483581295
 30
0.0
 10
117.7161243568286
 20
-138.0040655850736
 30
0.0
  0
SPLINE
  5
10B
330
1F
100
AcDbEntity
  8
_U+30EC_U+30A4_U+30E4_U+30FC 1
 62
   179
420
  2234388
370
     9
100
AcDbSpline
210
0.0
220
0.0
230
1.0
 70
    11
 71
     3
 72
    17
 73
    13
 74
     0
 42
0.0000000001
 43
0.0000000001
 12
1.0
 22
0.0
 32
0.0
 13
1.0
 23
0.0
 33
0.0
 40
0.0
 40
0.0
 40
0.0
 40
0.0
 40
1.0
 40
1.0
 40
1.0
 40
2.0
 40
2.0
 40
2.0
 40
3.0
 40
3.0
 40
3.0
 40
4.0
 40
4.0
 40
4.0
 40
4.0
 10
121.1124609750387
 20
-163.4044208541956
 30
0.0
 10
121.1124609750387
 20
-163.3493962197421
 30
0.0
 10
121.0676532018837
 20
-163.304588446587
 30
0.0
 10
121.0126178015068
 20
-163.304588446587
 30
0.0
 10
120.95758240113
 20
-163.304588446587
 30
0.0
 10
120.9127853938983
 20
-163.3493962197421
 30
0.0
 10
120.9127853938983
 20
-163.4044208541956
 30
0.0
 10
120.9127853938983
 20
-163.4594562545724
 30
0.0
 10
120.95758240113
 20
-163.5042640277275
 30
0.0
 10
121.0126178015068
 20
-163.5042640277275
 30
0.0
 10
121.0676532018837
 20
-163.5042640277275
 30
0.0
 10
121.1124609750387
 20
-163.4594562545724
 30
0.0
 10
121.1124609750387
 20
-163.4044208541956
 30
0.0
  0
SPLINE
  5
10C
330
1F
100
AcDbEntity
  8
_U+30EC_U+30A4_U+30E4_U+30FC 1
 62
   179
420
  2234388
370
     9
100
AcDbSpline
210
0.0
220
0.0
230
1.0
 70
    11
 71
     3
 72
    17
 73
    13
 74
     0
 42
0.0000000001
 43
0.0000000001
 12
1.0
 22
0.0
 32
0.0
 13
1.0
 23
0.0
 33
0.0
 40
0.0
 40
0.0
 40
0.0
 40
0.0
 40
1.0
 40
1.0
 40
1.0
 40
2.0
 40
2.0
 40
2.0
 40
3.0
 40
3.0
 40
3.0
 40
4.0
 40
4.0
 40
4.0
 40
4.0
 10
92.17074133370103
 20
-159.4094881294999
 30
0.0
 10
92.17074133370103
 20
-159.3544634950464
 30
0.0
 10
92.12593356054599
 20
-159.3096557218913
 30
0.0
 10
92.07089816016912
 20
-159.3096557218913
 30
0.0
 10
92.01586275979226
 20
-159.3096557218913
 30
0.0
 10
91.97106575256062
 20
-159.3544634950464
 30
0.0
 10
91.97106575256062
 20
-159.4094881294999
 30
0.0
 10
91.97106575256062
 20
-159.4652340808206
 30
0.0
 10
92.01586275979226
 20
-159.5100310880522
 30
0.0
 10
92.07089816016912
 20
-159.5100310880522
 30
0.0
 10
92.12593356054599
 20
-159.5100310880522
 30
0.0
 10
92.17074133370103
 20
-159.4652340808206
 30
0.0
 10
92.17074133370103
 20
-159.4094881294999
 30
0.0
  0
SPLINE
  5
10D
330
1F
100
AcDbEntity
  8
_U+30EC_U+30A4_U+30E4_U+30FC 1
 62
   179
420
  2234388
370
     9
100
AcDbSpline
210
0.0
220
0.0
230
1.0
 70
    11
 71
     3
 72
    17
 73
    13
 74
     0
 42
0.0000000001
 43
0.0000000001
 12
1.0
 22
0.0
 32
0.0
 13
1.0
 23
0.0
 33
0.0
 40
0.0
 40
0.0
 40
0.0
 40
0.0
 40
1.0
 40
1.0
 40
1.0
 40
2.0
 40
2.0
 40
2.0
 40
3.0
 40
3.0
 40
3.0
 40
4.0
 40
4.0
 40
4.0
 40
4.0
 10
96.11296409747241
 20
-163.4044208541956
 30
0.0
 10
96.11296409747241
 20
-163.3493962197421
 30
0.0
 10
96.06815632431739
 20
-163.304588446587
 30
0.0
 10
96.01312092394052
 20
-163.304588446587
 30
0.0
 10
95.95738573854321
 20
-163.304588446587
 30
0.0
 10
95.91257796538818
 20
-163.3493962197421
 30
0.0
 10
95.91257796538818
 20
-163.4044208541956
 30
0.0
 10
95.91257796538818
 20
-163.4594562545724
 30
0.0
 10
95.95738573854321
 20
-163.5042640277275
 30
0.0
 10
96.01312092394052
 20
-163.5042640277275
 30
0.0
 10
96.06815632431739
 20
-163.5042640277275
 30
0.0
 10
96.11296409747241
 20
-163.4594562545724
 30
0.0
 10
96.11296409747241
 20
-163.4044208541956
 30
0.0
  0
SPLINE
  5
10E
330
1F
100
AcDbEntity
  8
_U+30EC_U+30A4_U+30E4_U+30FC 1
 62
   179
420
  2234388
370
     9
100
AcDbSpline
210
0.0
220
0.0
230
1.0
 70
    11
 71
     3
 72
    17
 73
    13
 74
     0
 42
0.0000000001
 43
0.0000000001
 12
1.0
 22
0.0
 32
0.0
 13
1.0
 23
0.0
 33
0.0
 40
0.0
 40
0.0
 40
0.0
 40
0.0
 40
1.0
 40
1.0
 40
1.0
 40
2.0
 40
2.0
 40
2.0
 40
3.0
 40
3.0
 40
3.0
 40
4.0
 40
4.0
 40
4.0
 40
4.0
 10
92.17074133370103
 20
-134.4104972503329
 30
0.0
 10
92.17074133370103
 20
-134.3554726158794
 30
0.0
 10
92.12593356054599
 20
-134.3106648427244
 30
0.0
 10
92.07089816016912
 20
-134.3106648427244
 30
0.0
 10
92.01586275979226
 20
-134.3106648427244
 30
0.0
 10
91.97106575256062
 20
-134.3554726158794
 30
0.0
 10
91.97106575256062
 20
-134.4104972503329
 30
0.0
 10
91.97106575256062
 20
-134.4655326507098
 30
0.0
 10
92.01586275979226
 20
-134.5103404238648
 30
0.0
 10
92.07089816016912
 20
-134.5103404238648
 30
0.0
 10
92.12593356054599
 20
-134.5103404238648
 30
0.0
 10
92.17074133370103
 20
-134.4655326507098
 30
0.0
 10
92.17074133370103
 20
-134.4104972503329
 30
0.0
  0
POLYLINE
  5
10F
330
1F
100
AcDbEntity
  8
_U+30EC_U+30A4_U+30E4_U+30FC 1
 62
   179
420
  2234388
370
     9
100
AcDb2dPolyline
 66
     1
 10
0.0
 20
0.0
 30
0.0
  0
VERTEX
  5
110
330
10F
100
AcDbEntity
  8
_U+30EC_U+30A4_U+30E4_U+30FC 1
 62
   179
420
  2234388
370
     9
100
AcDbVertex
100
AcDb2dVertex
 10
92.07083356462878
 20
-159.4094881294999
 30
0.0
  0
VERTEX
  5
111
330
10F
100
AcDbEntity
  8
_U+30EC_U+30A4_U+30E4_U+30FC 1
 62
   179
420
  2234388
370
     9
100
AcDbVertex
100
AcDb2dVertex
 10
92.07083356462878
 20
-134.4106049095668
 30
0.0
  0
SEQEND
  5
112
330
10F
100
AcDbEntity
  8
_U+30EC_U+30A4_U+30E4_U+30FC 1
 62
   179
420
  2234388
370
     9
  0
POLYLINE
  5
113
330
1F
100
AcDbEntity
  8
_U+30EC_U+30A4_U+30E4_U+30FC 1
 62
   179
420
  2234388
370
     9
100
AcDb2dPolyline
 66
     1
 10
0.0
 20
0.0
 30
0.0
  0
VERTEX
  5
114
330
113
100
AcDbEntity
  8
_U+30EC_U+30A4_U+30E4_U+30FC 1
 62
   179
420
  2234388
370
     9
100
AcDbVertex
100
AcDb2dVertex
 10
94.13236793707921
 20
-159.4094881294999
 30
0.0
  0
VERTEX
  5
115
330
113
100
AcDbEntity
  8
_U+30EC_U+30A4_U+30E4_U+30FC 1
 62
   179
420
  2234388
370
     9
100
AcDbVertex
100
AcDb2dVertex
 10
91.07095919557537
 20
-159.4094881294999
 30
0.0
  0
SEQEND
  5
116
330
113
100
AcDbEntity
  8
_U+30EC_U+30A4_U+30E4_U+30FC 1
 62
   179
420
  2234388
370
     9
  0
POLYLINE
  5
117
330
1F
100
AcDbEntity
  8
_U+30EC_U+30A4_U+30E4_U+30FC 1
 62
   179
420
  2234388
370
     9
100
AcDb2dPolyline
 66
     1
 10
0.0
 20
0.0
 30
0.0
  0
VERTEX
  5
118
330
117
100
AcDbEntity
  8
_U+30EC_U+30A4_U+30E4_U+30FC 1
 62
   179
420
  2234388
370
     9
100
AcDbVertex
100
AcDb2dVertex
 10
93.93050687349003
 20
-134.4104972503329
 30
0.0
  0
VERTEX
  5
119
330
117
100
AcDbEntity
  8
_U+30EC_U+30A4_U+30E4_U+30FC 1
 62
   179
420
  2234388
370
     9
100
AcDbVertex
100
AcDb2dVertex
 10
91.07123910958354
 20
-134.4104972503329
 30
0.0
  0
SEQEND
  5
11A
330
117
100
AcDbEntity
  8
_U+30EC_U+30A4_U+30E4_U+30FC 1
 62
   179
420
  2234388
370
     9
  0
INSERT
  5
11C
330
1F
100
AcDbEntity
  8
_U+30EC_U+30A4_U+30E4_U+30FC 1
100
AcDbBlockReference
  2
block 3
 10
0.0
 20
0.0
 30
0.0
  0
POLYLINE
  5
123
330
1F
100
AcDbEntity
  8
_U+30EC_U+30A4_U+30E4_U+30FC 1
 62
   179
420
  2234388
370
     9
100
AcDb2dPolyline
 66
     1
 10
0.0
 20
0.0
 30
0.0
  0
VERTEX
  5
124
330
123
100
AcDbEntity
  8
_U+30EC_U+30A4_U+30E4_U+30FC 1
 62
   179
420
  2234388
370
     9
100
AcDbVertex
100
AcDb2dVertex
 10
96.01305632840017
 20
-163.4044208541956
 30
0.0
  0
VERTEX
  5
125
330
123
100
AcDbEntity
  8
_U+30EC_U+30A4_U+30E4_U+30FC 1
 62
   179
420
  2234388
370
     9
100
AcDbVertex
100
AcDb2dVertex
 10
121.012650099277
 20
-163.4044208541956
 30
0.0
  0
SEQEND
  5
126
330
123
100
AcDbEntity
  8
_U+30EC_U+30A4_U+30E4_U+30FC 1
 62
   179
420
  2234388
370
     9
  0
POLYLINE
  5
127
330
1F
100
AcDbEntity
  8
_U+30EC_U+30A4_U+30E4_U+30FC 1
 62
   179
420
  2234388
370
     9
100
AcDb2dPolyline
 66
     1
 10
0.0
 20
0.0
 30
0.0
  0
VERTEX
  5
128
330
127
100
AcDbEntity
  8
_U+30EC_U+30A4_U+30E4_U+30FC 1
 62
   179
420
  2234388
370
     9
100
AcDbVertex
100
AcDb2dVertex
 10
96.01305632840017
 20
-161.3497659067926
 30
0.0
  0
VERTEX
  5
129
330
127
100
AcDbEntity
  8
_U+30EC_U+30A4_U+30E4_U+30FC 1
 62
   179
420
  2234388
370
     9
100
AcDbVertex
100
AcDb2dVertex
 10
96.01305632840017
 20
-164.4041229684747
 30
0.0
  0
SEQEND
  5
12A
330
127
100
AcDbEntity
  8
_U+30EC_U+30A4_U+30E4_U+30FC 1
 62
   179
420
  2234388
370
     9
  0
POLYLINE
  5
12B
330
1F
100
AcDbEntity
  8
_U+30EC_U+30A4_U+30E4_U+30FC 1
 62
   179
420
  2234388
370
     9
100
AcDb2dPolyline
 66
     1
 10
0.0
 20
0.0
 30
0.0
  0
VERTEX
  5
12C
330
12B
100
AcDbEntity
  8
_U+30EC_U+30A4_U+30E4_U+30FC 1
 62
   179
420
  2234388
370
     9
100
AcDbVertex
100
AcDb2dVertex
 10
121.0125532059665
 20
-161.544080058084
 30
0.0
  0
VERTEX
  5
12D
330
12B
100
AcDbEntity
  8
_U+30EC_U+30A4_U+30E4_U+30FC 1
 62
   179
420
  2234388
370
     9
100
AcDbVertex
100
AcDb2dVertex
 10
121.0125532059665
 20
-164.4040583729344
 30
0.0
  0
SEQEND
  5
12E
330
12B
100
AcDbEntity
  8
_U+30EC_U+30A4_U+30E4_U+30FC 1
 62
   179
420
  2234388
370
     9
  0
INSERT
  5
130
330
1F
100
AcDbEntity
  8
_U+30EC_U+30A4_U+30E4_U+30FC 1
100
AcDbBlockReference
  2
block 4
 10
0.0
 20
0.0
 30
0.0
  0
POLYLINE
  5
137
330
1F
100
AcDbEntity
  8
_U+30EC_U+30A4_U+30E4_U+30FC 1
 62
   179
420
  2234388
370
     9
100
AcDb2dPolyline
 66
     1
 10
0.0
 20
0.0
 30
0.0
  0
VERTEX
  5
138
330
137
100
AcDbEntity
  8
_U+30EC_U+30A4_U+30E4_U+30FC 1
 62
   179
420
  2234388
370
     9
100
AcDbVertex
100
AcDb2dVertex
 10
98.04823572038843
 20
-142.4082433556469
 30
0.0
  0
VERTEX
  5
139
330
137
100
AcDbEntity
  8
_U+30EC_U+30A4_U+30E4_U+30FC 1
 62
   179
420
  2234388
370
     9
100
AcDbVertex
100
AcDb2dVertex
 10
98.39007531991236
 20
-143.3480438721762
 30
0.0
  0
SEQEND
  5
13A
330
137
100
AcDbEntity
  8
_U+30EC_U+30A4_U+30E4_U+30FC 1
 62
   179
420
  2234388
370
     9
  0
POLYLINE
  5
13B
330
1F
100
AcDbEntity
  8
_U+30EC_U+30A4_U+30E4_U+30FC 1
 62
   179
420
  2234388
370
    25
100
AcDb2dPolyline
 66
     1
 10
0.0
 20
0.0
 30
0.0
  0
VERTEX
  5
13C
330
13B
100
AcDbEntity
  8
_U+30EC_U+30A4_U+30E4_U+30FC 1
 62
   179
420
  2234388
370
    25
100
AcDbVertex
100
AcDb2dVertex
 10
97.01021768475896
 20
-134.4125750735475
 30
0.0
  0
VERTEX
  5
13D
330
13B
100
AcDbEntity
  8
_U+30EC_U+30A4_U+30E4_U+30FC 1
 62
   179
420
  2234388
370
    25
100
AcDbVertex
100
AcDb2dVertex
 10
97.01021768475896
 20
-158.4117023495844
 30
0.0
  0
SEQEND
  5
13E
330
13B
100
AcDbEntity
  8
_U+30EC_U+30A4_U+30E4_U+30FC 1
 62
   179
420
  2234388
370
    25
  0
POLYLINE
  5
13F
330
1F
100
AcDbEntity
  8
_U+30EC_U+30A4_U+30E4_U+30FC 1
 62
   179
420
  2234388
370
    25
100
AcDb2dPolyline
 66
     1
 10
0.0
 20
0.0
 30
0.0
  0
VERTEX
  5
140
330
13F
100
AcDbEntity
  8
_U+30EC_U+30A4_U+30E4_U+30FC 1
 62
   179
420
  2234388
370
    25
100
AcDbVertex
100
AcDb2dVertex
 10
97.01159572295305
 20
-158.4062655582717
 30
0.0
  0
VERTEX
  5
141
330
13F
100
AcDbEntity
  8
_U+30EC_U+30A4_U+30E4_U+30FC 1
 62
   179
420
  2234388
370
    25
100
AcDbVertex
100
AcDb2dVertex
 10
121.0107122330666
 20
-158.4062655582717
 30
0.0
  0
SEQEND
  5
142
330
13F
100
AcDbEntity
  8
_U+30EC_U+30A4_U+30E4_U+30FC 1
 62
   179
420
  2234388
370
    25
  0
POLYLINE
  5
143
330
1F
100
AcDbEntity
  8
_U+30EC_U+30A4_U+30E4_U+30FC 1
  6
AI-Linetype-1
 62
   154
420
    23468
370
    25
100
AcDb2dPolyline
 66
     1
 10
0.0
 20
0.0
 30
0.0
  0
VERTEX
  5
144
330
143
100
AcDbEntity
  8
_U+30EC_U+30A4_U+30E4_U+30FC 1
  6
AI-Linetype-1
 62
   154
420
    23468
370
    25
100
AcDbVertex
100
AcDb2dVertex
 10
97.50978882789035
 20
-134.4125750735475
 30
0.0
  0
VERTEX
  5
145
330
143
100
AcDbEntity
  8
_U+30EC_U+30A4_U+30E4_U+30FC 1
  6
AI-Linetype-1
 62
   154
420
    23468
370
    25
100
AcDbVertex
100
AcDb2dVertex
 10
97.50978882789035
 20
-144.4117171032471
 30
0.0
  0
SEQEND
  5
147
330
143
100
AcDbEntity
  8
_U+30EC_U+30A4_U+30E4_U+30FC 1
  6
AI-Linetype-1
 62
   154
420
    23468
370
    25
  0
POLYLINE
  5
148
330
1F
100
AcDbEntity
  8
_U+30EC_U+30A4_U+30E4_U+30FC 1
  6
AI-Linetype-2
 62
   154
420
    23468
370
    25
100
AcDb2dPolyline
 66
     1
 10
0.0
 20
0.0
 30
0.0
  0
VERTEX
  5
149
330
148
100
AcDbEntity
  8
_U+30EC_U+30A4_U+30E4_U+30FC 1
  6
AI-Linetype-2
 62
   154
420
    23468
370
    25
100
AcDbVertex
100
AcDb2dVertex
 10
111.0117962877581
 20
-157.9067267129105
 30
0.0
  0
VERTEX
  5
14A
330
148
100
AcDbEntity
  8
_U+30EC_U+30A4_U+30E4_U+30FC 1
  6
AI-Linetype-2
 62
   154
420
    23468
370
    25
100
AcDbVertex
100
AcDb2dVertex
 10
121.0109275515344
 20
-157.9067267129105
 30
0.0
  0
SEQEND
  5
14C
330
148
100
AcDbEntity
  8
_U+30EC_U+30A4_U+30E4_U+30FC 1
  6
AI-Linetype-2
 62
   154
420
    23468
370
    25
  0
POLYLINE
  5
14D
330
1F
100
AcDbEntity
  8
_U+30EC_U+30A4_U+30E4_U+30FC 1
 62
   179
420
  2234388
370
    25
100
AcDb2dPolyline
 66
     1
 10
0.0
 20
0.0
 30
0.0
  0
VERTEX
  5
14E
330
14D
100
AcDbEntity
  8
_U+30EC_U+30A4_U+30E4_U+30FC 1
 62
   179
420
  2234388
370
    25
100
AcDbVertex
100
AcDb2dVertex
 10
121.0108198923005
 20
-158.8065533558876
 30
0.0
  0
VERTEX
  5
14F
330
14D
100
AcDbEntity
  8
_U+30EC_U+30A4_U+30E4_U+30FC 1
 62
   179
420
  2234388
370
    25
100
AcDbVertex
100
AcDb2dVertex
 10
121.0108198923005
 20
-158.4061578990378
 30
0.0
  0
SEQEND
  5
150
330
14D
100
AcDbEntity
  8
_U+30EC_U+30A4_U+30E4_U+30FC 1
 62
   179
420
  2234388
370
    25
  0
POLYLINE
  5
151
330
1F
100
AcDbEntity
  8
_U+30EC_U+30A4_U+30E4_U+30FC 1
 62
   179
420
  2234388
370
    25
100
AcDb2dPolyline
 66
     1
 10
0.0
 20
0.0
 30
0.0
  0
VERTEX
  5
152
330
151
100
AcDbEntity
  8
_U+30EC_U+30A4_U+30E4_U+30FC 1
 62
   179
420
  2234388
370
    25
100
AcDbVertex
100
AcDb2dVertex
 10
118.0094634714742
 20
-159.0559675030963
 30
0.0
  0
VERTEX
  5
153
330
151
100
AcDbEntity
  8
_U+30EC_U+30A4_U+30E4_U+30FC 1
 62
   179
420
  2234388
370
    25
100
AcDbVertex
100
AcDb2dVertex
 10
118.5026396561111
 20
-158.6481650909532
 30
0.0
  0
VERTEX
  5
154
330
151
100
AcDbEntity
  8
_U+30EC_U+30A4_U+30E4_U+30FC 1
 62
   179
420
  2234388
370
    25
100
AcDbVertex
100
AcDb2dVertex
 10
118.5114569473687
 20
-158.8686512020092
 30
0.0
  0
VERTEX
  5
155
330
151
100
AcDbEntity
  8
_U+30EC_U+30A4_U+30E4_U+30FC 1
 62
   179
420
  2234388
370
    25
100
AcDbVertex
100
AcDb2dVertex
 10
121.0108952537642
 20
-158.806564121811
 30
0.0
  0
SEQEND
  5
156
330
151
100
AcDbEntity
  8
_U+30EC_U+30A4_U+30E4_U+30FC 1
 62
   179
420
  2234388
370
    25
  0
POLYLINE
  5
157
330
1F
100
AcDbEntity
  8
_U+30EC_U+30A4_U+30E4_U+30FC 1
 62
   179
420
  2234388
370
    25
100
AcDb2dPolyline
 66
     1
 10
0.0
 20
0.0
 30
0.0
  0
VERTEX
  5
158
330
157
100
AcDbEntity
  8
_U+30EC_U+30A4_U+30E4_U+30FC 1
 62
   179
420
  2234388
370
    25
100
AcDbVertex
100
AcDb2dVertex
 10
117.009373783953
 20
-159.0732575760628
 30
0.0
  0
VERTEX
  5
159
330
157
100
AcDbEntity
  8
_U+30EC_U+30A4_U+30E4_U+30FC 1
 62
   179
420
  2234388
370
    25
100
AcDbVertex
100
AcDb2dVertex
 10
117.5021946931179
 20
-158.664744612976
 30
0.0
  0
SEQEND
  5
15A
330
157
100
AcDbEntity
  8
_U+30EC_U+30A4_U+30E4_U+30FC 1
 62
   179
420
  2234388
370
    25
  0
POLYLINE
  5
15B
330
1F
100
AcDbEntity
  8
_U+30EC_U+30A4_U+30E4_U+30FC 1
 62
   179
420
  2234388
370
    25
100
AcDb2dPolyline
 66
     1
 10
0.0
 20
0.0
 30
0.0
  0
VERTEX
  5
15C
330
15B
100
AcDbEntity
  8
_U+30EC_U+30A4_U+30E4_U+30FC 1
 62
   179
420
  2234388
370
    25
100
AcDbVertex
100
AcDb2dVertex
 10
117.5023454160454
 20
-158.6646692515122
 30
0.0
  0
VERTEX
  5
15D
330
15B
100
AcDbEntity
  8
_U+30EC_U+30A4_U+30E4_U+30FC 1
 62
   179
420
  2234388
370
    25
100
AcDbVertex
100
AcDb2dVertex
 10
118.0096357262485
 20
-159.0559029075559
 30
0.0
  0
SEQEND
  5
15E
330
15B
100
AcDbEntity
  8
_U+30EC_U+30A4_U+30E4_U+30FC 1
 62
   179
420
  2234388
370
    25
  0
POLYLINE
  5
15F
330
1F
100
AcDbEntity
  8
_U+30EC_U+30A4_U+30E4_U+30FC 1
 62
   179
420
  2234388
370
    25
100
AcDb2dPolyline
 66
     1
 10
0.0
 20
0.0
 30
0.0
  0
VERTEX
  5
160
330
15F
100
AcDbEntity
  8
_U+30EC_U+30A4_U+30E4_U+30FC 1
 62
   179
420
  2234388
370
    25
100
AcDbVertex
100
AcDb2dVertex
 10
116.0088857572662
 20
-159.0897725025453
 30
0.0
  0
VERTEX
  5
161
330
15F
100
AcDbEntity
  8
_U+30EC_U+30A4_U+30E4_U+30FC 1
 62
   179
420
  2234388
370
    25
100
AcDbVertex
100
AcDb2dVertex
 10
116.5020619419031
 20
-158.6812595394584
 30
0.0
  0
SEQEND
  5
162
330
15F
100
AcDbEntity
  8
_U+30EC_U+30A4_U+30E4_U+30FC 1
 62
   179
420
  2234388
370
    25
  0
POLYLINE
  5
163
330
1F
100
AcDbEntity
  8
_U+30EC_U+30A4_U+30E4_U+30FC 1
 62
   179
420
  2234388
370
    25
100
AcDb2dPolyline
 66
     1
 10
0.0
 20
0.0
 30
0.0
  0
VERTEX
  5
164
330
163
100
AcDbEntity
  8
_U+30EC_U+30A4_U+30E4_U+30FC 1
 62
   179
420
  2234388
370
    25
100
AcDbVertex
100
AcDb2dVertex
 10
116.5022557285242
 20
-158.6811411143011
 30
0.0
  0
VERTEX
  5
165
330
163
100
AcDbEntity
  8
_U+30EC_U+30A4_U+30E4_U+30FC 1
 62
   179
420
  2234388
370
    25
100
AcDbVertex
100
AcDb2dVertex
 10
117.0095460387272
 20
-159.0730853212886
 30
0.0
  0
SEQEND
  5
166
330
163
100
AcDbEntity
  8
_U+30EC_U+30A4_U+30E4_U+30FC 1
 62
   179
420
  2234388
370
    25
  0
POLYLINE
  5
167
330
1F
100
AcDbEntity
  8
_U+30EC_U+30A4_U+30E4_U+30FC 1
 62
   179
420
  2234388
370
    25
100
AcDb2dPolyline
 66
     1
 10
0.0
 20
0.0
 30
0.0
  0
VERTEX
  5
168
330
167
100
AcDbEntity
  8
_U+30EC_U+30A4_U+30E4_U+30FC 1
 62
   179
420
  2234388
370
    25
100
AcDbVertex
100
AcDb2dVertex
 10
115.0084515601965
 20
-159.1063089608745
 30
0.0
  0
VERTEX
  5
169
330
167
100
AcDbEntity
  8
_U+30EC_U+30A4_U+30E4_U+30FC 1
 62
   179
420
  2234388
370
    25
100
AcDbVertex
100
AcDb2dVertex
 10
115.5023382957772
 20
-158.6977959977876
 30
0.0
  0
SEQEND
  5
16A
330
167
100
AcDbEntity
  8
_U+30EC_U+30A4_U+30E4_U+30FC 1
 62
   179
420
  2234388
370
    25
  0
POLYLINE
  5
16B
330
1F
100
AcDbEntity
  8
_U+30EC_U+30A4_U+30E4_U+30FC 1
 62
   179
420
  2234388
370
    25
100
AcDb2dPolyline
 66
     1
 10
0.0
 20
0.0
 30
0.0
  0
VERTEX
  5
16C
330
16B
100
AcDbEntity
  8
_U+30EC_U+30A4_U+30E4_U+30FC 1
 62
   179
420
  2234388
370
    25
100
AcDbVertex
100
AcDb2dVertex
 10
115.5024782527813
 20
-158.6977314022472
 30
0.0
  0
VERTEX
  5
16D
330
16B
100
AcDbEntity
  8
_U+30EC_U+30A4_U+30E4_U+30FC 1
 62
   179
420
  2234388
370
    25
100
AcDbVertex
100
AcDb2dVertex
 10
116.0090580120405
 20
-159.0896756092347
 30
0.0
  0
SEQEND
  5
16E
330
16B
100
AcDbEntity
  8
_U+30EC_U+30A4_U+30E4_U+30FC 1
 62
   179
420
  2234388
370
    25
  0
POLYLINE
  5
16F
330
1F
100
AcDbEntity
  8
_U+30EC_U+30A4_U+30E4_U+30FC 1
 62
   179
420
  2234388
370
    25
100
AcDb2dPolyline
 66
     1
 10
0.0
 20
0.0
 30
0.0
  0
VERTEX
  5
170
330
16F
100
AcDbEntity
  8
_U+30EC_U+30A4_U+30E4_U+30FC 1
 62
   179
420
  2234388
370
    25
100
AcDbVertex
100
AcDb2dVertex
 10
114.0080065972033
 20
-159.1228561851271
 30
0.0
  0
VERTEX
  5
171
330
16F
100
AcDbEntity
  8
_U+30EC_U+30A4_U+30E4_U+30FC 1
 62
   179
420
  2234388
370
    25
100
AcDbVertex
100
AcDb2dVertex
 10
114.501893332784
 20
-158.7143432220402
 30
0.0
  0
SEQEND
  5
172
330
16F
100
AcDbEntity
  8
_U+30EC_U+30A4_U+30E4_U+30FC 1
 62
   179
420
  2234388
370
    25
  0
POLYLINE
  5
173
330
1F
100
AcDbEntity
  8
_U+30EC_U+30A4_U+30E4_U+30FC 1
 62
   179
420
  2234388
370
    25
100
AcDb2dPolyline
 66
     1
 10
0.0
 20
0.0
 30
0.0
  0
VERTEX
  5
174
330
173
100
AcDbEntity
  8
_U+30EC_U+30A4_U+30E4_U+30FC 1
 62
   179
420
  2234388
370
    25
100
AcDbVertex
100
AcDb2dVertex
 10
114.5020332897881
 20
-158.7142678605764
 30
0.0
  0
VERTEX
  5
175
330
173
100
AcDbEntity
  8
_U+30EC_U+30A4_U+30E4_U+30FC 1
 62
   179
420
  2234388
370
    25
100
AcDbVertex
100
AcDb2dVertex
 10
115.0086130490473
 20
-159.1062120675639
 30
0.0
  0
SEQEND
  5
176
330
173
100
AcDbEntity
  8
_U+30EC_U+30A4_U+30E4_U+30FC 1
 62
   179
420
  2234388
370
    25
  0
POLYLINE
  5
177
330
1F
100
AcDbEntity
  8
_U+30EC_U+30A4_U+30E4_U+30FC 1
 62
   179
420
  2234388
370
    25
100
AcDb2dPolyline
 66
     1
 10
0.0
 20
0.0
 30
0.0
  0
VERTEX
  5
178
330
177
100
AcDbEntity
  8
_U+30EC_U+30A4_U+30E4_U+30FC 1
 62
   179
420
  2234388
370
    25
100
AcDbVertex
100
AcDb2dVertex
 10
113.0078846119119
 20
-159.1394034093796
 30
0.0
  0
VERTEX
  5
179
330
177
100
AcDbEntity
  8
_U+30EC_U+30A4_U+30E4_U+30FC 1
 62
   179
420
  2234388
370
    25
100
AcDbVertex
100
AcDb2dVertex
 10
113.5017713474926
 20
-158.7316009972366
 30
0.0
  0
SEQEND
  5
17A
330
177
100
AcDbEntity
  8
_U+30EC_U+30A4_U+30E4_U+30FC 1
 62
   179
420
  2234388
370
    25
  0
POLYLINE
  5
17B
330
1F
100
AcDbEntity
  8
_U+30EC_U+30A4_U+30E4_U+30FC 1
 62
   179
420
  2234388
370
    25
100
AcDb2dPolyline
 66
     1
 10
0.0
 20
0.0
 30
0.0
  0
VERTEX
  5
17C
330
17B
100
AcDbEntity
  8
_U+30EC_U+30A4_U+30E4_U+30FC 1
 62
   179
420
  2234388
370
    25
100
AcDbVertex
100
AcDb2dVertex
 10
113.5019113044967
 20
-158.7314825720793
 30
0.0
  0
VERTEX
  5
17D
330
17B
100
AcDbEntity
  8
_U+30EC_U+30A4_U+30E4_U+30FC 1
 62
   179
420
  2234388
370
    25
100
AcDbVertex
100
AcDb2dVertex
 10
114.0081465542074
 20
-159.122716228123
 30
0.0
  0
SEQEND
  5
17E
330
17B
100
AcDbEntity
  8
_U+30EC_U+30A4_U+30E4_U+30FC 1
 62
   179
420
  2234388
370
    25
  0
POLYLINE
  5
17F
330
1F
100
AcDbEntity
  8
_U+30EC_U+30A4_U+30E4_U+30FC 1
 62
   179
420
  2234388
370
    25
100
AcDb2dPolyline
 66
     1
 10
0.0
 20
0.0
 30
0.0
  0
VERTEX
  5
180
330
17F
100
AcDbEntity
  8
_U+30EC_U+30A4_U+30E4_U+30FC 1
 62
   179
420
  2234388
370
    25
100
AcDbVertex
100
AcDb2dVertex
 10
112.0074396489187
 20
-159.1559183358621
 30
0.0
  0
VERTEX
  5
181
330
17F
100
AcDbEntity
  8
_U+30EC_U+30A4_U+30E4_U+30FC 1
 62
   179
420
  2234388
370
    25
100
AcDbVertex
100
AcDb2dVertex
 10
112.5013263844994
 20
-158.748115923719
 30
0.0
  0
SEQEND
  5
182
330
17F
100
AcDbEntity
  8
_U+30EC_U+30A4_U+30E4_U+30FC 1
 62
   179
420
  2234388
370
    25
  0
POLYLINE
  5
183
330
1F
100
AcDbEntity
  8
_U+30EC_U+30A4_U+30E4_U+30FC 1
 62
   179
420
  2234388
370
    25
100
AcDb2dPolyline
 66
     1
 10
0.0
 20
0.0
 30
0.0
  0
VERTEX
  5
184
330
183
100
AcDbEntity
  8
_U+30EC_U+30A4_U+30E4_U+30FC 1
 62
   179
420
  2234388
370
    25
100
AcDbVertex
100
AcDb2dVertex
 10
112.5014663415035
 20
-158.7480297963319
 30
0.0
  0
VERTEX
  5
185
330
183
100
AcDbEntity
  8
_U+30EC_U+30A4_U+30E4_U+30FC 1
 62
   179
420
  2234388
370
    25
100
AcDbVertex
100
AcDb2dVertex
 10
113.0080461007628
 20
-159.1392634523756
 30
0.0
  0
SEQEND
  5
186
330
183
100
AcDbEntity
  8
_U+30EC_U+30A4_U+30E4_U+30FC 1
 62
   179
420
  2234388
370
    25
  0
POLYLINE
  5
187
330
1F
100
AcDbEntity
  8
_U+30EC_U+30A4_U+30E4_U+30FC 1
 62
   179
420
  2234388
370
    25
100
AcDb2dPolyline
 66
     1
 10
0.0
 20
0.0
 30
0.0
  0
VERTEX
  5
188
330
187
100
AcDbEntity
  8
_U+30EC_U+30A4_U+30E4_U+30FC 1
 62
   179
420
  2234388
370
    25
100
AcDbVertex
100
AcDb2dVertex
 10
111.0069623881554
 20
-159.1724547941913
 30
0.0
  0
VERTEX
  5
189
330
187
100
AcDbEntity
  8
_U+30EC_U+30A4_U+30E4_U+30FC 1
 62
   179
420
  2234388
370
    25
100
AcDbVertex
100
AcDb2dVertex
 10
111.5008491237361
 20
-158.7646523820482
 30
0.0
  0
SEQEND
  5
18A
330
187
100
AcDbEntity
  8
_U+30EC_U+30A4_U+30E4_U+30FC 1
 62
   179
420
  2234388
370
    25
  0
POLYLINE
  5
18B
330
1F
100
AcDbEntity
  8
_U+30EC_U+30A4_U+30E4_U+30FC 1
 62
   179
420
  2234388
370
    25
100
AcDb2dPolyline
 66
     1
 10
0.0
 20
0.0
 30
0.0
  0
VERTEX
  5
18C
330
18B
100
AcDbEntity
  8
_U+30EC_U+30A4_U+30E4_U+30FC 1
 62
   179
420
  2234388
370
    25
100
AcDbVertex
100
AcDb2dVertex
 10
111.5009890807402
 20
-158.7645770205845
 30
0.0
  0
VERTEX
  5
18D
330
18B
100
AcDbEntity
  8
_U+30EC_U+30A4_U+30E4_U+30FC 1
 62
   179
420
  2234388
370
    25
100
AcDbVertex
100
AcDb2dVertex
 10
112.0075688399994
 20
-159.1558106766282
 30
0.0
  0
SEQEND
  5
18E
330
18B
100
AcDbEntity
  8
_U+30EC_U+30A4_U+30E4_U+30FC 1
 62
   179
420
  2234388
370
    25
  0
POLYLINE
  5
18F
330
1F
100
AcDbEntity
  8
_U+30EC_U+30A4_U+30E4_U+30FC 1
 62
   179
420
  2234388
370
    25
100
AcDb2dPolyline
 66
     1
 10
0.0
 20
0.0
 30
0.0
  0
VERTEX
  5
190
330
18F
100
AcDbEntity
  8
_U+30EC_U+30A4_U+30E4_U+30FC 1
 62
   179
420
  2234388
370
    25
100
AcDbVertex
100
AcDb2dVertex
 10
110.0065174251622
 20
-159.1890020184439
 30
0.0
  0
VERTEX
  5
191
330
18F
100
AcDbEntity
  8
_U+30EC_U+30A4_U+30E4_U+30FC 1
 62
   179
420
  2234388
370
    25
100
AcDbVertex
100
AcDb2dVertex
 10
110.500404160743
 20
-158.7811996063008
 30
0.0
  0
SEQEND
  5
192
330
18F
100
AcDbEntity
  8
_U+30EC_U+30A4_U+30E4_U+30FC 1
 62
   179
420
  2234388
370
    25
  0
POLYLINE
  5
193
330
1F
100
AcDbEntity
  8
_U+30EC_U+30A4_U+30E4_U+30FC 1
 62
   179
420
  2234388
370
    25
100
AcDb2dPolyline
 66
     1
 10
0.0
 20
0.0
 30
0.0
  0
VERTEX
  5
194
330
193
100
AcDbEntity
  8
_U+30EC_U+30A4_U+30E4_U+30FC 1
 62
   179
420
  2234388
370
    25
100
AcDbVertex
100
AcDb2dVertex
 10
110.5005441177471
 20
-158.7810919470669
 30
0.0
  0
VERTEX
  5
195
330
193
100
AcDbEntity
  8
_U+30EC_U+30A4_U+30E4_U+30FC 1
 62
   179
420
  2234388
370
    25
100
AcDbVertex
100
AcDb2dVertex
 10
111.0071238770063
 20
-159.1723256031106
 30
0.0
  0
SEQEND
  5
196
330
193
100
AcDbEntity
  8
_U+30EC_U+30A4_U+30E4_U+30FC 1
 62
   179
420
  2234388
370
    25
  0
POLYLINE
  5
197
330
1F
100
AcDbEntity
  8
_U+30EC_U+30A4_U+30E4_U+30FC 1
 62
   179
420
  2234388
370
    25
100
AcDb2dPolyline
 66
     1
 10
0.0
 20
0.0
 30
0.0
  0
VERTEX
  5
198
330
197
100
AcDbEntity
  8
_U+30EC_U+30A4_U+30E4_U+30FC 1
 62
   179
420
  2234388
370
    25
100
AcDbVertex
100
AcDb2dVertex
 10
109.0060401643989
 20
-159.2062167299467
 30
0.0
  0
VERTEX
  5
199
330
197
100
AcDbEntity
  8
_U+30EC_U+30A4_U+30E4_U+30FC 1
 62
   179
420
  2234388
370
    25
100
AcDbVertex
100
AcDb2dVertex
 10
109.4999268999796
 20
-158.7977037668598
 30
0.0
  0
SEQEND
  5
19A
330
197
100
AcDbEntity
  8
_U+30EC_U+30A4_U+30E4_U+30FC 1
 62
   179
420
  2234388
370
    25
  0
POLYLINE
  5
19B
330
1F
100
AcDbEntity
  8
_U+30EC_U+30A4_U+30E4_U+30FC 1
 62
   179
420
  2234388
370
    25
100
AcDb2dPolyline
 66
     1
 10
0.0
 20
0.0
 30
0.0
  0
VERTEX
  5
19C
330
19B
100
AcDbEntity
  8
_U+30EC_U+30A4_U+30E4_U+30FC 1
 62
   179
420
  2234388
370
    25
100
AcDbVertex
100
AcDb2dVertex
 10
109.5000668569837
 20
-158.7976284053961
 30
0.0
  0
VERTEX
  5
19D
330
19B
100
AcDbEntity
  8
_U+30EC_U+30A4_U+30E4_U+30FC 1
 62
   179
420
  2234388
370
    25
100
AcDbVertex
100
AcDb2dVertex
 10
110.0066466162429
 20
-159.1888620614398
 30
0.0
  0
SEQEND
  5
19E
330
19B
100
AcDbEntity
  8
_U+30EC_U+30A4_U+30E4_U+30FC 1
 62
   179
420
  2234388
370
    25
  0
POLYLINE
  5
19F
330
1F
100
AcDbEntity
  8
_U+30EC_U+30A4_U+30E4_U+30FC 1
 62
   179
420
  2234388
370
    25
100
AcDb2dPolyline
 66
     1
 10
0.0
 20
0.0
 30
0.0
  0
VERTEX
  5
1A0
330
19F
100
AcDbEntity
  8
_U+30EC_U+30A4_U+30E4_U+30FC 1
 62
   179
420
  2234388
370
    25
100
AcDbVertex
100
AcDb2dVertex
 10
108.0063057523496
 20
-159.2227639541993
 30
0.0
  0
VERTEX
  5
1A1
330
19F
100
AcDbEntity
  8
_U+30EC_U+30A4_U+30E4_U+30FC 1
 62
   179
420
  2234388
370
    25
100
AcDbVertex
100
AcDb2dVertex
 10
108.4994819369865
 20
-158.8142509911124
 30
0.0
  0
SEQEND
  5
1A2
330
19F
100
AcDbEntity
  8
_U+30EC_U+30A4_U+30E4_U+30FC 1
 62
   179
420
  2234388
370
    25
  0
POLYLINE
  5
1A3
330
1F
100
AcDbEntity
  8
_U+30EC_U+30A4_U+30E4_U+30FC 1
 62
   179
420
  2234388
370
    25
100
AcDb2dPolyline
 66
     1
 10
0.0
 20
0.0
 30
0.0
  0
VERTEX
  5
1A4
330
1A3
100
AcDbEntity
  8
_U+30EC_U+30A4_U+30E4_U+30FC 1
 62
   179
420
  2234388
370
    25
100
AcDbVertex
100
AcDb2dVertex
 10
108.4996326599139
 20
-158.8141756296487
 30
0.0
  0
VERTEX
  5
1A5
330
1A3
100
AcDbEntity
  8
_U+30EC_U+30A4_U+30E4_U+30FC 1
 62
   179
420
  2234388
370
    25
100
AcDbVertex
100
AcDb2dVertex
 10
109.0062124191732
 20
-159.2061198366362
 30
0.0
  0
SEQEND
  5
1A6
330
1A3
100
AcDbEntity
  8
_U+30EC_U+30A4_U+30E4_U+30FC 1
 62
   179
420
  2234388
370
    25
  0
POLYLINE
  5
1A7
330
1F
100
AcDbEntity
  8
_U+30EC_U+30A4_U+30E4_U+30FC 1
 62
   179
420
  2234388
370
    25
100
AcDb2dPolyline
 66
     1
 10
0.0
 20
0.0
 30
0.0
  0
VERTEX
  5
1A8
330
1A7
100
AcDbEntity
  8
_U+30EC_U+30A4_U+30E4_U+30FC 1
 62
   179
420
  2234388
370
    25
100
AcDbVertex
100
AcDb2dVertex
 10
107.0058284915862
 20
-159.2393111784519
 30
0.0
  0
VERTEX
  5
1A9
330
1A7
100
AcDbEntity
  8
_U+30EC_U+30A4_U+30E4_U+30FC 1
 62
   179
420
  2234388
370
    25
100
AcDbVertex
100
AcDb2dVertex
 10
107.4990046762231
 20
-158.830798215365
 30
0.0
  0
SEQEND
  5
1AA
330
1A7
100
AcDbEntity
  8
_U+30EC_U+30A4_U+30E4_U+30FC 1
 62
   179
420
  2234388
370
    25
  0
POLYLINE
  5
1AB
330
1F
100
AcDbEntity
  8
_U+30EC_U+30A4_U+30E4_U+30FC 1
 62
   179
420
  2234388
370
    25
100
AcDb2dPolyline
 66
     1
 10
0.0
 20
0.0
 30
0.0
  0
VERTEX
  5
1AC
330
1AB
100
AcDbEntity
  8
_U+30EC_U+30A4_U+30E4_U+30FC 1
 62
   179
420
  2234388
370
    25
100
AcDbVertex
100
AcDb2dVertex
 10
107.4991876969208
 20
-158.8307228539013
 30
0.0
  0
VERTEX
  5
1AD
330
1AB
100
AcDbEntity
  8
_U+30EC_U+30A4_U+30E4_U+30FC 1
 62
   179
420
  2234388
370
    25
100
AcDbVertex
100
AcDb2dVertex
 10
108.0064780071238
 20
-159.2226670608888
 30
0.0
  0
SEQEND
  5
1AE
330
1AB
100
AcDbEntity
  8
_U+30EC_U+30A4_U+30E4_U+30FC 1
 62
   179
420
  2234388
370
    25
  0
POLYLINE
  5
1AF
330
1F
100
AcDbEntity
  8
_U+30EC_U+30A4_U+30E4_U+30FC 1
 62
   179
420
  2234388
370
    25
100
AcDb2dPolyline
 66
     1
 10
0.0
 20
0.0
 30
0.0
  0
VERTEX
  5
1B0
330
1AF
100
AcDbEntity
  8
_U+30EC_U+30A4_U+30E4_U+30FC 1
 62
   179
420
  2234388
370
    25
100
AcDbVertex
100
AcDb2dVertex
 10
106.0053835285931
 20
-159.2558584027045
 30
0.0
  0
VERTEX
  5
1B1
330
1AF
100
AcDbEntity
  8
_U+30EC_U+30A4_U+30E4_U+30FC 1
 62
   179
420
  2234388
370
    25
100
AcDbVertex
100
AcDb2dVertex
 10
106.49855971323
 20
-158.8473454396176
 30
0.0
  0
SEQEND
  5
1B2
330
1AF
100
AcDbEntity
  8
_U+30EC_U+30A4_U+30E4_U+30FC 1
 62
   179
420
  2234388
370
    25
  0
POLYLINE
  5
1B3
330
1F
100
AcDbEntity
  8
_U+30EC_U+30A4_U+30E4_U+30FC 1
 62
   179
420
  2234388
370
    25
100
AcDb2dPolyline
 66
     1
 10
0.0
 20
0.0
 30
0.0
  0
VERTEX
  5
1B4
330
1B3
100
AcDbEntity
  8
_U+30EC_U+30A4_U+30E4_U+30FC 1
 62
   179
420
  2234388
370
    25
100
AcDbVertex
100
AcDb2dVertex
 10
106.4987104361575
 20
-158.8472377803837
 30
0.0
  0
VERTEX
  5
1B5
330
1B3
100
AcDbEntity
  8
_U+30EC_U+30A4_U+30E4_U+30FC 1
 62
   179
420
  2234388
370
    25
100
AcDbVertex
100
AcDb2dVertex
 10
107.0060007463605
 20
-159.2391819873712
 30
0.0
  0
SEQEND
  5
1B6
330
1B3
100
AcDbEntity
  8
_U+30EC_U+30A4_U+30E4_U+30FC 1
 62
   179
420
  2234388
370
    25
  0
POLYLINE
  5
1B7
330
1F
100
AcDbEntity
  8
_U+30EC_U+30A4_U+30E4_U+30FC 1
 62
   179
420
  2234388
370
    25
100
AcDb2dPolyline
 66
     1
 10
0.0
 20
0.0
 30
0.0
  0
VERTEX
  5
1B8
330
1B7
100
AcDbEntity
  8
_U+30EC_U+30A4_U+30E4_U+30FC 1
 62
   179
420
  2234388
370
    25
100
AcDbVertex
100
AcDb2dVertex
 10
105.0049385655999
 20
-159.2723625632635
 30
0.0
  0
VERTEX
  5
1B9
330
1B7
100
AcDbEntity
  8
_U+30EC_U+30A4_U+30E4_U+30FC 1
 62
   179
420
  2234388
370
    25
100
AcDbVertex
100
AcDb2dVertex
 10
105.4981147502368
 20
-158.8638496001766
 30
0.0
  0
SEQEND
  5
1BA
330
1B7
100
AcDbEntity
  8
_U+30EC_U+30A4_U+30E4_U+30FC 1
 62
   179
420
  2234388
370
    25
  0
POLYLINE
  5
1BB
330
1F
100
AcDbEntity
  8
_U+30EC_U+30A4_U+30E4_U+30FC 1
 62
   179
420
  2234388
370
    25
100
AcDb2dPolyline
 66
     1
 10
0.0
 20
0.0
 30
0.0
  0
VERTEX
  5
1BC
330
1BB
100
AcDbEntity
  8
_U+30EC_U+30A4_U+30E4_U+30FC 1
 62
   179
420
  2234388
370
    25
100
AcDbVertex
100
AcDb2dVertex
 10
105.4982654731643
 20
-158.8637742387129
 30
0.0
  0
VERTEX
  5
1BD
330
1BB
100
AcDbEntity
  8
_U+30EC_U+30A4_U+30E4_U+30FC 1
 62
   179
420
  2234388
370
    25
100
AcDbVertex
100
AcDb2dVertex
 10
106.0055557833673
 20
-159.2557184457004
 30
0.0
  0
SEQEND
  5
1BE
330
1BB
100
AcDbEntity
  8
_U+30EC_U+30A4_U+30E4_U+30FC 1
 62
   179
420
  2234388
370
    25
  0
POLYLINE
  5
1BF
330
1F
100
AcDbEntity
  8
_U+30EC_U+30A4_U+30E4_U+30FC 1
 62
   179
420
  2234388
370
    25
100
AcDb2dPolyline
 66
     1
 10
0.0
 20
0.0
 30
0.0
  0
VERTEX
  5
1C0
330
1BF
100
AcDbEntity
  8
_U+30EC_U+30A4_U+30E4_U+30FC 1
 62
   179
420
  2234388
370
    25
100
AcDbVertex
100
AcDb2dVertex
 10
104.0044613048369
 20
-159.2889097875161
 30
0.0
  0
VERTEX
  5
1C1
330
1BF
100
AcDbEntity
  8
_U+30EC_U+30A4_U+30E4_U+30FC 1
 62
   179
420
  2234388
370
    25
100
AcDbVertex
100
AcDb2dVertex
 10
104.4976374894735
 20
-158.8803968244292
 30
0.0
  0
SEQEND
  5
1C2
330
1BF
100
AcDbEntity
  8
_U+30EC_U+30A4_U+30E4_U+30FC 1
 62
   179
420
  2234388
370
    25
  0
POLYLINE
  5
1C3
330
1F
100
AcDbEntity
  8
_U+30EC_U+30A4_U+30E4_U+30FC 1
 62
   179
420
  2234388
370
    25
100
AcDb2dPolyline
 66
     1
 10
0.0
 20
0.0
 30
0.0
  0
VERTEX
  5
1C4
330
1C3
100
AcDbEntity
  8
_U+30EC_U+30A4_U+30E4_U+30FC 1
 62
   179
420
  2234388
370
    25
100
AcDbVertex
100
AcDb2dVertex
 10
104.4978205101711
 20
-158.8803214629655
 30
0.0
  0
VERTEX
  5
1C5
330
1C3
100
AcDbEntity
  8
_U+30EC_U+30A4_U+30E4_U+30FC 1
 62
   179
420
  2234388
370
    25
100
AcDbVertex
100
AcDb2dVertex
 10
105.0051108203742
 20
-159.272265669953
 30
0.0
  0
SEQEND
  5
1C6
330
1C3
100
AcDbEntity
  8
_U+30EC_U+30A4_U+30E4_U+30FC 1
 62
   179
420
  2234388
370
    25
  0
POLYLINE
  5
1C7
330
1F
100
AcDbEntity
  8
_U+30EC_U+30A4_U+30E4_U+30FC 1
 62
   179
420
  2234388
370
    25
100
AcDb2dPolyline
 66
     1
 10
0.0
 20
0.0
 30
0.0
  0
VERTEX
  5
1C8
330
1C7
100
AcDbEntity
  8
_U+30EC_U+30A4_U+30E4_U+30FC 1
 62
   179
420
  2234388
370
    25
100
AcDbVertex
100
AcDb2dVertex
 10
103.0040163418434
 20
-159.3054570117687
 30
0.0
  0
VERTEX
  5
1C9
330
1C7
100
AcDbEntity
  8
_U+30EC_U+30A4_U+30E4_U+30FC 1
 62
   179
420
  2234388
370
    25
100
AcDbVertex
100
AcDb2dVertex
 10
103.4971925264803
 20
-158.8969440486818
 30
0.0
  0
SEQEND
  5
1CA
330
1C7
100
AcDbEntity
  8
_U+30EC_U+30A4_U+30E4_U+30FC 1
 62
   179
420
  2234388
370
    25
  0
POLYLINE
  5
1CB
330
1F
100
AcDbEntity
  8
_U+30EC_U+30A4_U+30E4_U+30FC 1
 62
   179
420
  2234388
370
    25
100
AcDb2dPolyline
 66
     1
 10
0.0
 20
0.0
 30
0.0
  0
VERTEX
  5
1CC
330
1CB
100
AcDbEntity
  8
_U+30EC_U+30A4_U+30E4_U+30FC 1
 62
   179
420
  2234388
370
    25
100
AcDbVertex
100
AcDb2dVertex
 10
103.4973432494081
 20
-158.8968686872181
 30
0.0
  0
VERTEX
  5
1CD
330
1CB
100
AcDbEntity
  8
_U+30EC_U+30A4_U+30E4_U+30FC 1
 62
   179
420
  2234388
370
    25
100
AcDbVertex
100
AcDb2dVertex
 10
104.0046335596112
 20
-159.2888128942056
 30
0.0
  0
SEQEND
  5
1CE
330
1CB
100
AcDbEntity
  8
_U+30EC_U+30A4_U+30E4_U+30FC 1
 62
   179
420
  2234388
370
    25
  0
POLYLINE
  5
1CF
330
1F
100
AcDbEntity
  8
_U+30EC_U+30A4_U+30E4_U+30FC 1
 62
   179
420
  2234388
370
    25
100
AcDb2dPolyline
 66
     1
 10
0.0
 20
0.0
 30
0.0
  0
VERTEX
  5
1D0
330
1CF
100
AcDbEntity
  8
_U+30EC_U+30A4_U+30E4_U+30FC 1
 62
   179
420
  2234388
370
    25
100
AcDbVertex
100
AcDb2dVertex
 10
102.0035390810801
 20
-159.3220042360213
 30
0.0
  0
VERTEX
  5
1D1
330
1CF
100
AcDbEntity
  8
_U+30EC_U+30A4_U+30E4_U+30FC 1
 62
   179
420
  2234388
370
    25
100
AcDbVertex
100
AcDb2dVertex
 10
102.4967152657173
 20
-158.9134912729344
 30
0.0
  0
SEQEND
  5
1D2
330
1CF
100
AcDbEntity
  8
_U+30EC_U+30A4_U+30E4_U+30FC 1
 62
   179
420
  2234388
370
    25
  0
POLYLINE
  5
1D3
330
1F
100
AcDbEntity
  8
_U+30EC_U+30A4_U+30E4_U+30FC 1
 62
   179
420
  2234388
370
    25
100
AcDb2dPolyline
 66
     1
 10
0.0
 20
0.0
 30
0.0
  0
VERTEX
  5
1D4
330
1D3
100
AcDbEntity
  8
_U+30EC_U+30A4_U+30E4_U+30FC 1
 62
   179
420
  2234388
370
    25
100
AcDbVertex
100
AcDb2dVertex
 10
102.4968982864146
 20
-158.9133836137005
 30
0.0
  0
VERTEX
  5
1D5
330
1D3
100
AcDbEntity
  8
_U+30EC_U+30A4_U+30E4_U+30FC 1
 62
   179
420
  2234388
370
    25
100
AcDbVertex
100
AcDb2dVertex
 10
103.0041885966177
 20
-159.305327820688
 30
0.0
  0
SEQEND
  5
1D6
330
1D3
100
AcDbEntity
  8
_U+30EC_U+30A4_U+30E4_U+30FC 1
 62
   179
420
  2234388
370
    25
  0
POLYLINE
  5
1D7
330
1F
100
AcDbEntity
  8
_U+30EC_U+30A4_U+30E4_U+30FC 1
 62
   179
420
  2234388
370
    25
100
AcDb2dPolyline
 66
     1
 10
0.0
 20
0.0
 30
0.0
  0
VERTEX
  5
1D8
330
1D7
100
AcDbEntity
  8
_U+30EC_U+30A4_U+30E4_U+30FC 1
 62
   179
420
  2234388
370
    25
100
AcDbVertex
100
AcDb2dVertex
 10
101.0031048840103
 20
-159.3385083965803
 30
0.0
  0
VERTEX
  5
1D9
330
1D7
100
AcDbEntity
  8
_U+30EC_U+30A4_U+30E4_U+30FC 1
 62
   179
420
  2234388
370
    25
100
AcDbVertex
100
AcDb2dVertex
 10
101.4962810686472
 20
-158.9299954334934
 30
0.0
  0
SEQEND
  5
1DA
330
1D7
100
AcDbEntity
  8
_U+30EC_U+30A4_U+30E4_U+30FC 1
 62
   179
420
  2234388
370
    25
  0
POLYLINE
  5
1DB
330
1F
100
AcDbEntity
  8
_U+30EC_U+30A4_U+30E4_U+30FC 1
 62
   179
420
  2234388
370
    25
100
AcDb2dPolyline
 66
     1
 10
0.0
 20
0.0
 30
0.0
  0
VERTEX
  5
1DC
330
1DB
100
AcDbEntity
  8
_U+30EC_U+30A4_U+30E4_U+30FC 1
 62
   179
420
  2234388
370
    25
100
AcDbVertex
100
AcDb2dVertex
 10
101.4964210256513
 20
-158.9299200720297
 30
0.0
  0
VERTEX
  5
1DD
330
1DB
100
AcDbEntity
  8
_U+30EC_U+30A4_U+30E4_U+30FC 1
 62
   179
420
  2234388
370
    25
100
AcDbVertex
100
AcDb2dVertex
 10
102.0037113358543
 20
-159.3218642790172
 30
0.0
  0
SEQEND
  5
1DE
330
1DB
100
AcDbEntity
  8
_U+30EC_U+30A4_U+30E4_U+30FC 1
 62
   179
420
  2234388
370
    25
  0
POLYLINE
  5
1DF
330
1F
100
AcDbEntity
  8
_U+30EC_U+30A4_U+30E4_U+30FC 1
 62
   179
420
  2234388
370
    25
100
AcDb2dPolyline
 66
     1
 10
0.0
 20
0.0
 30
0.0
  0
VERTEX
  5
1E0
330
1DF
100
AcDbEntity
  8
_U+30EC_U+30A4_U+30E4_U+30FC 1
 62
   179
420
  2234388
370
    25
100
AcDbVertex
100
AcDb2dVertex
 10
100.4959868285815
 20
-158.9464672962823
 30
0.0
  0
VERTEX
  5
1E1
330
1DF
100
AcDbEntity
  8
_U+30EC_U+30A4_U+30E4_U+30FC 1
 62
   179
420
  2234388
370
    25
100
AcDbVertex
100
AcDb2dVertex
 10
101.0032771387846
 20
-159.3384115032698
 30
0.0
  0
SEQEND
  5
1E2
330
1DF
100
AcDbEntity
  8
_U+30EC_U+30A4_U+30E4_U+30FC 1
 62
   179
420
  2234388
370
    25
  0
POLYLINE
  5
1E3
330
1F
100
AcDbEntity
  8
_U+30EC_U+30A4_U+30E4_U+30FC 1
 62
   179
420
  2234388
370
    25
100
AcDb2dPolyline
 66
     1
 10
0.0
 20
0.0
 30
0.0
  0
VERTEX
  5
1E4
330
1E3
100
AcDbEntity
  8
_U+30EC_U+30A4_U+30E4_U+30FC 1
 62
   179
420
  2234388
370
    25
100
AcDbVertex
100
AcDb2dVertex
 10
100.0009266073511
 20
-159.3529777976184
 30
0.0
  0
VERTEX
  5
1E5
330
1E3
100
AcDbEntity
  8
_U+30EC_U+30A4_U+30E4_U+30FC 1
 62
   179
420
  2234388
370
    25
100
AcDbVertex
100
AcDb2dVertex
 10
100.494102791988
 20
-158.9444648345315
 30
0.0
  0
SEQEND
  5
1E6
330
1E3
100
AcDbEntity
  8
_U+30EC_U+30A4_U+30E4_U+30FC 1
 62
   179
420
  2234388
370
    25
  0
POLYLINE
  5
1E7
330
1F
100
AcDbEntity
  8
_U+30EC_U+30A4_U+30E4_U+30FC 1
 62
   179
420
  2234388
370
    25
100
AcDb2dPolyline
 66
     1
 10
0.0
 20
0.0
 30
0.0
  0
VERTEX
  5
1E8
330
1E7
100
AcDbEntity
  8
_U+30EC_U+30A4_U+30E4_U+30FC 1
 62
   179
420
  2234388
370
    25
100
AcDbVertex
100
AcDb2dVertex
 10
99.00044934658779
 20
-159.3695250218709
 30
0.0
  0
VERTEX
  5
1E9
330
1E7
100
AcDbEntity
  8
_U+30EC_U+30A4_U+30E4_U+30FC 1
 62
   179
420
  2234388
370
    25
100
AcDbVertex
100
AcDb2dVertex
 10
99.493625531225
 20
-158.9610120587841
 30
0.0
  0
SEQEND
  5
1EA
330
1E7
100
AcDbEntity
  8
_U+30EC_U+30A4_U+30E4_U+30FC 1
 62
   179
420
  2234388
370
    25
  0
POLYLINE
  5
1EB
330
1F
100
AcDbEntity
  8
_U+30EC_U+30A4_U+30E4_U+30FC 1
 62
   179
420
  2234388
370
    25
100
AcDb2dPolyline
 66
     1
 10
0.0
 20
0.0
 30
0.0
  0
VERTEX
  5
1EC
330
1EB
100
AcDbEntity
  8
_U+30EC_U+30A4_U+30E4_U+30FC 1
 62
   179
420
  2234388
370
    25
100
AcDbVertex
100
AcDb2dVertex
 10
99.49380855192234
 20
-158.9608936336268
 30
0.0
  0
VERTEX
  5
1ED
330
1EB
100
AcDbEntity
  8
_U+30EC_U+30A4_U+30E4_U+30FC 1
 62
   179
420
  2234388
370
    25
100
AcDbVertex
100
AcDb2dVertex
 10
100.0010988621254
 20
-159.3528378406143
 30
0.0
  0
SEQEND
  5
1EE
330
1EB
100
AcDbEntity
  8
_U+30EC_U+30A4_U+30E4_U+30FC 1
 62
   179
420
  2234388
370
    25
  0
POLYLINE
  5
1EF
330
1F
100
AcDbEntity
  8
_U+30EC_U+30A4_U+30E4_U+30FC 1
 62
   179
420
  2234388
370
    25
100
AcDb2dPolyline
 66
     1
 10
0.0
 20
0.0
 30
0.0
  0
VERTEX
  5
1F0
330
1EF
100
AcDbEntity
  8
_U+30EC_U+30A4_U+30E4_U+30FC 1
 62
   179
420
  2234388
370
    25
100
AcDbVertex
100
AcDb2dVertex
 10
98.49333129115901
 20
-158.9774839215729
 30
0.0
  0
VERTEX
  5
1F1
330
1EF
100
AcDbEntity
  8
_U+30EC_U+30A4_U+30E4_U+30FC 1
 62
   179
420
  2234388
370
    25
100
AcDbVertex
100
AcDb2dVertex
 10
99.00062160136204
 20
-159.3694281285604
 30
0.0
  0
SEQEND
  5
1F2
330
1EF
100
AcDbEntity
  8
_U+30EC_U+30A4_U+30E4_U+30FC 1
 62
   179
420
  2234388
370
    25
  0
POLYLINE
  5
1F3
330
1F
100
AcDbEntity
  8
_U+30EC_U+30A4_U+30E4_U+30FC 1
 62
   179
420
  2234388
370
    25
100
AcDb2dPolyline
 66
     1
 10
0.0
 20
0.0
 30
0.0
  0
VERTEX
  5
1F4
330
1F3
100
AcDbEntity
  8
_U+30EC_U+30A4_U+30E4_U+30FC 1
 62
   179
420
  2234388
370
    25
100
AcDbVertex
100
AcDb2dVertex
 10
96.6264663454723
 20
-134.4125750735475
 30
0.0
  0
VERTEX
  5
1F5
330
1F3
100
AcDbEntity
  8
_U+30EC_U+30A4_U+30E4_U+30FC 1
 62
   179
420
  2234388
370
    25
100
AcDbVertex
100
AcDb2dVertex
 10
97.0102822802993
 20
-134.4125750735475
 30
0.0
  0
SEQEND
  5
1F6
330
1F3
100
AcDbEntity
  8
_U+30EC_U+30A4_U+30E4_U+30FC 1
 62
   179
420
  2234388
370
    25
  0
POLYLINE
  5
1F7
330
1F
100
AcDbEntity
  8
_U+30EC_U+30A4_U+30E4_U+30FC 1
 62
   179
420
  2234388
370
    25
100
AcDb2dPolyline
 66
     1
 10
0.0
 20
0.0
 30
0.0
  0
VERTEX
  5
1F8
330
1F7
100
AcDbEntity
  8
_U+30EC_U+30A4_U+30E4_U+30FC 1
 62
   179
420
  2234388
370
    25
100
AcDbVertex
100
AcDb2dVertex
 10
96.34463600293239
 20
-138.4140642455885
 30
0.0
  0
VERTEX
  5
1F9
330
1F7
100
AcDbEntity
  8
_U+30EC_U+30A4_U+30E4_U+30FC 1
 62
   179
420
  2234388
370
    25
100
AcDbVertex
100
AcDb2dVertex
 10
96.75243841507513
 20
-137.9208880609517
 30
0.0
  0
SEQEND
  5
1FA
330
1F7
100
AcDbEntity
  8
_U+30EC_U+30A4_U+30E4_U+30FC 1
 62
   179
420
  2234388
370
    25
  0
POLYLINE
  5
1FB
330
1F
100
AcDbEntity
  8
_U+30EC_U+30A4_U+30E4_U+30FC 1
 62
   179
420
  2234388
370
    25
100
AcDb2dPolyline
 66
     1
 10
0.0
 20
0.0
 30
0.0
  0
VERTEX
  5
1FC
330
1FB
100
AcDbEntity
  8
_U+30EC_U+30A4_U+30E4_U+30FC 1
 62
   179
420
  2234388
370
    25
100
AcDbVertex
100
AcDb2dVertex
 10
96.75254607430905
 20
-137.920705040254
 30
0.0
  0
VERTEX
  5
1FD
330
1FB
100
AcDbEntity
  8
_U+30EC_U+30A4_U+30E4_U+30FC 1
 62
   179
420
  2234388
370
    25
100
AcDbVertex
100
AcDb2dVertex
 10
96.36131241826536
 20
-137.413414730051
 30
0.0
  0
SEQEND
  5
1FE
330
1FB
100
AcDbEntity
  8
_U+30EC_U+30A4_U+30E4_U+30FC 1
 62
   179
420
  2234388
370
    25
  0
POLYLINE
  5
1FF
330
1F
100
AcDbEntity
  8
_U+30EC_U+30A4_U+30E4_U+30FC 1
 62
   179
420
  2234388
370
    25
100
AcDb2dPolyline
 66
     1
 10
0.0
 20
0.0
 30
0.0
  0
VERTEX
  5
200
330
1FF
100
AcDbEntity
  8
_U+30EC_U+30A4_U+30E4_U+30FC 1
 62
   179
420
  2234388
370
    25
100
AcDbVertex
100
AcDb2dVertex
 10
96.32808877867949
 20
-139.4145092085817
 30
0.0
  0
VERTEX
  5
201
330
1FF
100
AcDbEntity
  8
_U+30EC_U+30A4_U+30E4_U+30FC 1
 62
   179
420
  2234388
370
    25
100
AcDbVertex
100
AcDb2dVertex
 10
96.73660174176669
 20
-138.920622473001
 30
0.0
  0
SEQEND
  5
202
330
1FF
100
AcDbEntity
  8
_U+30EC_U+30A4_U+30E4_U+30FC 1
 62
   179
420
  2234388
370
    25
  0
POLYLINE
  5
203
330
1F
100
AcDbEntity
  8
_U+30EC_U+30A4_U+30E4_U+30FC 1
 62
   179
420
  2234388
370
    25
100
AcDb2dPolyline
 66
     1
 10
0.0
 20
0.0
 30
0.0
  0
VERTEX
  5
204
330
203
100
AcDbEntity
  8
_U+30EC_U+30A4_U+30E4_U+30FC 1
 62
   179
420
  2234388
370
    25
100
AcDbVertex
100
AcDb2dVertex
 10
96.73670940100028
 20
-138.9204717500735
 30
0.0
  0
VERTEX
  5
205
330
203
100
AcDbEntity
  8
_U+30EC_U+30A4_U+30E4_U+30FC 1
 62
   179
420
  2234388
370
    25
100
AcDbVertex
100
AcDb2dVertex
 10
96.34476519401277
 20
-138.4138919908143
 30
0.0
  0
SEQEND
  5
206
330
203
100
AcDbEntity
  8
_U+30EC_U+30A4_U+30E4_U+30FC 1
 62
   179
420
  2234388
370
    25
  0
POLYLINE
  5
207
330
1F
100
AcDbEntity
  8
_U+30EC_U+30A4_U+30E4_U+30FC 1
 62
   179
420
  2234388
370
    25
100
AcDb2dPolyline
 66
     1
 10
0.0
 20
0.0
 30
0.0
  0
VERTEX
  5
208
330
207
100
AcDbEntity
  8
_U+30EC_U+30A4_U+30E4_U+30FC 1
 62
   179
420
  2234388
370
    25
100
AcDbVertex
100
AcDb2dVertex
 10
96.31225210537104
 20
-140.4149434056515
 30
0.0
  0
VERTEX
  5
209
330
207
100
AcDbEntity
  8
_U+30EC_U+30A4_U+30E4_U+30FC 1
 62
   179
420
  2234388
370
    25
100
AcDbVertex
100
AcDb2dVertex
 10
96.72005451751379
 20
-139.9210566700708
 30
0.0
  0
SEQEND
  5
20A
330
207
100
AcDbEntity
  8
_U+30EC_U+30A4_U+30E4_U+30FC 1
 62
   179
420
  2234388
370
    25
  0
POLYLINE
  5
20B
330
1F
100
AcDbEntity
  8
_U+30EC_U+30A4_U+30E4_U+30FC 1
 62
   179
420
  2234388
370
    25
100
AcDb2dPolyline
 66
     1
 10
0.0
 20
0.0
 30
0.0
  0
VERTEX
  5
20C
330
20B
100
AcDbEntity
  8
_U+30EC_U+30A4_U+30E4_U+30FC 1
 62
   179
420
  2234388
370
    25
100
AcDbVertex
100
AcDb2dVertex
 10
96.72016217674769
 20
-139.9209167130666
 30
0.0
  0
VERTEX
  5
20D
330
20B
100
AcDbEntity
  8
_U+30EC_U+30A4_U+30E4_U+30FC 1
 62
   179
420
  2234388
370
    25
100
AcDbVertex
100
AcDb2dVertex
 10
96.32821796976017
 20
-139.4143369538074
 30
0.0
  0
SEQEND
  5
20E
330
20B
100
AcDbEntity
  8
_U+30EC_U+30A4_U+30E4_U+30FC 1
 62
   179
420
  2234388
370
    25
  0
POLYLINE
  5
20F
330
1F
100
AcDbEntity
  8
_U+30EC_U+30A4_U+30E4_U+30FC 1
 62
   179
420
  2234388
370
    25
100
AcDb2dPolyline
 66
     1
 10
0.0
 20
0.0
 30
0.0
  0
VERTEX
  5
210
330
20F
100
AcDbEntity
  8
_U+30EC_U+30A4_U+30E4_U+30FC 1
 62
   179
420
  2234388
370
    25
100
AcDbVertex
100
AcDb2dVertex
 10
96.29573717888832
 20
-141.4154206664148
 30
0.0
  0
VERTEX
  5
211
330
20F
100
AcDbEntity
  8
_U+30EC_U+30A4_U+30E4_U+30FC 1
 62
   179
420
  2234388
370
    25
100
AcDbVertex
100
AcDb2dVertex
 10
96.70353959103137
 20
-140.9215339308341
 30
0.0
  0
SEQEND
  5
212
330
20F
100
AcDbEntity
  8
_U+30EC_U+30A4_U+30E4_U+30FC 1
 62
   179
420
  2234388
370
    25
  0
POLYLINE
  5
213
330
1F
100
AcDbEntity
  8
_U+30EC_U+30A4_U+30E4_U+30FC 1
 62
   179
420
  2234388
370
    25
100
AcDb2dPolyline
 66
     1
 10
0.0
 20
0.0
 30
0.0
  0
VERTEX
  5
214
330
213
100
AcDbEntity
  8
_U+30EC_U+30A4_U+30E4_U+30FC 1
 62
   179
420
  2234388
370
    25
100
AcDbVertex
100
AcDb2dVertex
 10
96.7036257184185
 20
-140.92139397383
 30
0.0
  0
VERTEX
  5
215
330
213
100
AcDbEntity
  8
_U+30EC_U+30A4_U+30E4_U+30FC 1
 62
   179
420
  2234388
370
    25
100
AcDbVertex
100
AcDb2dVertex
 10
96.31239206237481
 20
-140.4148142145711
 30
0.0
  0
SEQEND
  5
216
330
213
100
AcDbEntity
  8
_U+30EC_U+30A4_U+30E4_U+30FC 1
 62
   179
420
  2234388
370
    25
  0
POLYLINE
  5
217
330
1F
100
AcDbEntity
  8
_U+30EC_U+30A4_U+30E4_U+30FC 1
 62
   179
420
  2234388
370
    25
100
AcDb2dPolyline
 66
     1
 10
0.0
 20
0.0
 30
0.0
  0
VERTEX
  5
218
330
217
100
AcDbEntity
  8
_U+30EC_U+30A4_U+30E4_U+30FC 1
 62
   179
420
  2234388
370
    25
100
AcDbVertex
100
AcDb2dVertex
 10
96.27918995463573
 20
-142.415865629408
 30
0.0
  0
VERTEX
  5
219
330
217
100
AcDbEntity
  8
_U+30EC_U+30A4_U+30E4_U+30FC 1
 62
   179
420
  2234388
370
    25
100
AcDbVertex
100
AcDb2dVertex
 10
96.6869923667791
 20
-141.9219788938272
 30
0.0
  0
SEQEND
  5
21A
330
217
100
AcDbEntity
  8
_U+30EC_U+30A4_U+30E4_U+30FC 1
 62
   179
420
  2234388
370
    25
  0
POLYLINE
  5
21B
330
1F
100
AcDbEntity
  8
_U+30EC_U+30A4_U+30E4_U+30FC 1
 62
   179
420
  2234388
370
    25
100
AcDb2dPolyline
 66
     1
 10
0.0
 20
0.0
 30
0.0
  0
VERTEX
  5
21C
330
21B
100
AcDbEntity
  8
_U+30EC_U+30A4_U+30E4_U+30FC 1
 62
   179
420
  2234388
370
    25
100
AcDbVertex
100
AcDb2dVertex
 10
96.68707849416623
 20
-141.9218389368231
 30
0.0
  0
VERTEX
  5
21D
330
21B
100
AcDbEntity
  8
_U+30EC_U+30A4_U+30E4_U+30FC 1
 62
   179
420
  2234388
370
    25
100
AcDbVertex
100
AcDb2dVertex
 10
96.29584483812222
 20
-141.4152591775639
 30
0.0
  0
SEQEND
  5
21E
330
21B
100
AcDbEntity
  8
_U+30EC_U+30A4_U+30E4_U+30FC 1
 62
   179
420
  2234388
370
    25
  0
POLYLINE
  5
21F
330
1F
100
AcDbEntity
  8
_U+30EC_U+30A4_U+30E4_U+30FC 1
 62
   179
420
  2234388
370
    25
100
AcDb2dPolyline
 66
     1
 10
0.0
 20
0.0
 30
0.0
  0
VERTEX
  5
220
330
21F
100
AcDbEntity
  8
_U+30EC_U+30A4_U+30E4_U+30FC 1
 62
   179
420
  2234388
370
    25
100
AcDbVertex
100
AcDb2dVertex
 10
96.26265349630653
 20
-143.4159876146994
 30
0.0
  0
VERTEX
  5
221
330
21F
100
AcDbEntity
  8
_U+30EC_U+30A4_U+30E4_U+30FC 1
 62
   179
420
  2234388
370
    25
100
AcDbVertex
100
AcDb2dVertex
 10
96.6711664593934
 20
-142.9221008791187
 30
0.0
  0
SEQEND
  5
222
330
21F
100
AcDbEntity
  8
_U+30EC_U+30A4_U+30E4_U+30FC 1
 62
   179
420
  2234388
370
    25
  0
POLYLINE
  5
223
330
1F
100
AcDbEntity
  8
_U+30EC_U+30A4_U+30E4_U+30FC 1
 62
   179
420
  2234388
370
    25
100
AcDb2dPolyline
 66
     1
 10
0.0
 20
0.0
 30
0.0
  0
VERTEX
  5
224
330
223
100
AcDbEntity
  8
_U+30EC_U+30A4_U+30E4_U+30FC 1
 62
   179
420
  2234388
370
    25
100
AcDbVertex
100
AcDb2dVertex
 10
96.67123105493408
 20
-142.9219609221146
 30
0.0
  0
VERTEX
  5
225
330
223
100
AcDbEntity
  8
_U+30EC_U+30A4_U+30E4_U+30FC 1
 62
   179
420
  2234388
370
    25
100
AcDbVertex
100
AcDb2dVertex
 10
96.27928684794624
 20
-142.4157256724042
 30
0.0
  0
SEQEND
  5
226
330
223
100
AcDbEntity
  8
_U+30EC_U+30A4_U+30E4_U+30FC 1
 62
   179
420
  2234388
370
    25
  0
POLYLINE
  5
227
330
1F
100
AcDbEntity
  8
_U+30EC_U+30A4_U+30E4_U+30FC 1
 62
   179
420
  2234388
370
    25
100
AcDb2dPolyline
 66
     1
 10
0.0
 20
0.0
 30
0.0
  0
VERTEX
  5
228
330
227
100
AcDbEntity
  8
_U+30EC_U+30A4_U+30E4_U+30FC 1
 62
   179
420
  2234388
370
    25
100
AcDbVertex
100
AcDb2dVertex
 10
96.24680605707437
 20
-144.4164325776925
 30
0.0
  0
VERTEX
  5
229
330
227
100
AcDbEntity
  8
_U+30EC_U+30A4_U+30E4_U+30FC 1
 62
   179
420
  2234388
370
    25
100
AcDbVertex
100
AcDb2dVertex
 10
96.65460846921775
 20
-143.9225458421118
 30
0.0
  0
SEQEND
  5
22A
330
227
100
AcDbEntity
  8
_U+30EC_U+30A4_U+30E4_U+30FC 1
 62
   179
420
  2234388
370
    25
  0
POLYLINE
  5
22B
330
1F
100
AcDbEntity
  8
_U+30EC_U+30A4_U+30E4_U+30FC 1
 62
   179
420
  2234388
370
    25
100
AcDb2dPolyline
 66
     1
 10
0.0
 20
0.0
 30
0.0
  0
VERTEX
  5
22C
330
22B
100
AcDbEntity
  8
_U+30EC_U+30A4_U+30E4_U+30FC 1
 62
   179
420
  2234388
370
    25
100
AcDbVertex
100
AcDb2dVertex
 10
96.65469459660488
 20
-143.9224058851077
 30
0.0
  0
VERTEX
  5
22D
330
22B
100
AcDbEntity
  8
_U+30EC_U+30A4_U+30E4_U+30FC 1
 62
   179
420
  2234388
370
    25
100
AcDbVertex
100
AcDb2dVertex
 10
96.26275038961704
 20
-143.4158261258485
 30
0.0
  0
SEQEND
  5
22E
330
22B
100
AcDbEntity
  8
_U+30EC_U+30A4_U+30E4_U+30FC 1
 62
   179
420
  2234388
370
    25
  0
POLYLINE
  5
22F
330
1F
100
AcDbEntity
  8
_U+30EC_U+30A4_U+30E4_U+30FC 1
 62
   179
420
  2234388
370
    25
100
AcDb2dPolyline
 66
     1
 10
0.0
 20
0.0
 30
0.0
  0
VERTEX
  5
230
330
22F
100
AcDbEntity
  8
_U+30EC_U+30A4_U+30E4_U+30FC 1
 62
   179
420
  2234388
370
    25
100
AcDbVertex
100
AcDb2dVertex
 10
96.2302588328221
 20
-145.4168775406857
 30
0.0
  0
VERTEX
  5
231
330
22F
100
AcDbEntity
  8
_U+30EC_U+30A4_U+30E4_U+30FC 1
 62
   179
420
  2234388
370
    25
100
AcDbVertex
100
AcDb2dVertex
 10
96.63806124496483
 20
-144.922990805105
 30
0.0
  0
SEQEND
  5
232
330
22F
100
AcDbEntity
  8
_U+30EC_U+30A4_U+30E4_U+30FC 1
 62
   179
420
  2234388
370
    25
  0
POLYLINE
  5
233
330
1F
100
AcDbEntity
  8
_U+30EC_U+30A4_U+30E4_U+30FC 1
 62
   179
420
  2234388
370
    25
100
AcDb2dPolyline
 66
     1
 10
0.0
 20
0.0
 30
0.0
  0
VERTEX
  5
234
330
233
100
AcDbEntity
  8
_U+30EC_U+30A4_U+30E4_U+30FC 1
 62
   179
420
  2234388
370
    25
100
AcDbVertex
100
AcDb2dVertex
 10
96.63817967012214
 20
-144.9228077844076
 30
0.0
  0
VERTEX
  5
235
330
233
100
AcDbEntity
  8
_U+30EC_U+30A4_U+30E4_U+30FC 1
 62
   179
420
  2234388
370
    25
100
AcDbVertex
100
AcDb2dVertex
 10
96.24694601407846
 20
-144.4162280251481
 30
0.0
  0
SEQEND
  5
236
330
233
100
AcDbEntity
  8
_U+30EC_U+30A4_U+30E4_U+30FC 1
 62
   179
420
  2234388
370
    25
  0
POLYLINE
  5
237
330
1F
100
AcDbEntity
  8
_U+30EC_U+30A4_U+30E4_U+30FC 1
 62
   179
420
  2234388
370
    25
100
AcDb2dPolyline
 66
     1
 10
0.0
 20
0.0
 30
0.0
  0
VERTEX
  5
238
330
237
100
AcDbEntity
  8
_U+30EC_U+30A4_U+30E4_U+30FC 1
 62
   179
420
  2234388
370
    25
100
AcDbVertex
100
AcDb2dVertex
 10
96.2137223744929
 20
-146.4173548014491
 30
0.0
  0
VERTEX
  5
239
330
237
100
AcDbEntity
  8
_U+30EC_U+30A4_U+30E4_U+30FC 1
 62
   179
420
  2234388
370
    25
100
AcDbVertex
100
AcDb2dVertex
 10
96.62223533757947
 20
-145.9234680658683
 30
0.0
  0
SEQEND
  5
23A
330
237
100
AcDbEntity
  8
_U+30EC_U+30A4_U+30E4_U+30FC 1
 62
   179
420
  2234388
370
    25
  0
POLYLINE
  5
23B
330
1F
100
AcDbEntity
  8
_U+30EC_U+30A4_U+30E4_U+30FC 1
 62
   179
420
  2234388
370
    25
100
AcDb2dPolyline
 66
     1
 10
0.0
 20
0.0
 30
0.0
  0
VERTEX
  5
23C
330
23B
100
AcDbEntity
  8
_U+30EC_U+30A4_U+30E4_U+30FC 1
 62
   179
420
  2234388
370
    25
100
AcDbVertex
100
AcDb2dVertex
 10
96.62231069904354
 20
-145.9233281088642
 30
0.0
  0
VERTEX
  5
23D
330
23B
100
AcDbEntity
  8
_U+30EC_U+30A4_U+30E4_U+30FC 1
 62
   179
420
  2234388
370
    25
100
AcDbVertex
100
AcDb2dVertex
 10
96.2303664920557
 20
-145.4167483496053
 30
0.0
  0
SEQEND
  5
23E
330
23B
100
AcDbEntity
  8
_U+30EC_U+30A4_U+30E4_U+30FC 1
 62
   179
420
  2234388
370
    25
  0
POLYLINE
  5
23F
330
1F
100
AcDbEntity
  8
_U+30EC_U+30A4_U+30E4_U+30FC 1
 62
   179
420
  2234388
370
    25
100
AcDb2dPolyline
 66
     1
 10
0.0
 20
0.0
 30
0.0
  0
VERTEX
  5
240
330
23F
100
AcDbEntity
  8
_U+30EC_U+30A4_U+30E4_U+30FC 1
 62
   179
420
  2234388
370
    25
100
AcDbVertex
100
AcDb2dVertex
 10
96.19787493526076
 20
-147.4177997644422
 30
0.0
  0
VERTEX
  5
241
330
23F
100
AcDbEntity
  8
_U+30EC_U+30A4_U+30E4_U+30FC 1
 62
   179
420
  2234388
370
    25
100
AcDbVertex
100
AcDb2dVertex
 10
96.60567734740349
 20
-146.9239130288615
 30
0.0
  0
SEQEND
  5
242
330
23F
100
AcDbEntity
  8
_U+30EC_U+30A4_U+30E4_U+30FC 1
 62
   179
420
  2234388
370
    25
  0
POLYLINE
  5
243
330
1F
100
AcDbEntity
  8
_U+30EC_U+30A4_U+30E4_U+30FC 1
 62
   179
420
  2234388
370
    25
100
AcDb2dPolyline
 66
     1
 10
0.0
 20
0.0
 30
0.0
  0
VERTEX
  5
244
330
243
100
AcDbEntity
  8
_U+30EC_U+30A4_U+30E4_U+30FC 1
 62
   179
420
  2234388
370
    25
100
AcDbVertex
100
AcDb2dVertex
 10
96.6057957725608
 20
-146.9237730718574
 30
0.0
  0
VERTEX
  5
245
330
243
100
AcDbEntity
  8
_U+30EC_U+30A4_U+30E4_U+30FC 1
 62
   179
420
  2234388
370
    25
100
AcDbVertex
100
AcDb2dVertex
 10
96.21385156557328
 20
-146.4171933125982
 30
0.0
  0
SEQEND
  5
246
330
243
100
AcDbEntity
  8
_U+30EC_U+30A4_U+30E4_U+30FC 1
 62
   179
420
  2234388
370
    25
  0
POLYLINE
  5
247
330
1F
100
AcDbEntity
  8
_U+30EC_U+30A4_U+30E4_U+30FC 1
 62
   179
420
  2234388
370
    25
100
AcDb2dPolyline
 66
     1
 10
0.0
 20
0.0
 30
0.0
  0
VERTEX
  5
248
330
247
100
AcDbEntity
  8
_U+30EC_U+30A4_U+30E4_U+30FC 1
 62
   179
420
  2234388
370
    25
100
AcDbVertex
100
AcDb2dVertex
 10
96.18133847693156
 20
-148.4182447274354
 30
0.0
  0
VERTEX
  5
249
330
247
100
AcDbEntity
  8
_U+30EC_U+30A4_U+30E4_U+30FC 1
 62
   179
420
  2234388
370
    25
100
AcDbVertex
100
AcDb2dVertex
 10
96.58914088907429
 20
-147.9243579918546
 30
0.0
  0
SEQEND
  5
24A
330
247
100
AcDbEntity
  8
_U+30EC_U+30A4_U+30E4_U+30FC 1
 62
   179
420
  2234388
370
    25
  0
POLYLINE
  5
24B
330
1F
100
AcDbEntity
  8
_U+30EC_U+30A4_U+30E4_U+30FC 1
 62
   179
420
  2234388
370
    25
100
AcDb2dPolyline
 66
     1
 10
0.0
 20
0.0
 30
0.0
  0
VERTEX
  5
24C
330
24B
100
AcDbEntity
  8
_U+30EC_U+30A4_U+30E4_U+30FC 1
 62
   179
420
  2234388
370
    25
100
AcDbVertex
100
AcDb2dVertex
 10
96.5892485483082
 20
-147.9242503326207
 30
0.0
  0
VERTEX
  5
24D
330
24B
100
AcDbEntity
  8
_U+30EC_U+30A4_U+30E4_U+30FC 1
 62
   179
420
  2234388
370
    25
100
AcDbVertex
100
AcDb2dVertex
 10
96.19801489226452
 20
-147.4176705733615
 30
0.0
  0
SEQEND
  5
24E
330
24B
100
AcDbEntity
  8
_U+30EC_U+30A4_U+30E4_U+30FC 1
 62
   179
420
  2234388
370
    25
  0
POLYLINE
  5
24F
330
1F
100
AcDbEntity
  8
_U+30EC_U+30A4_U+30E4_U+30FC 1
 62
   179
420
  2234388
370
    25
100
AcDb2dPolyline
 66
     1
 10
0.0
 20
0.0
 30
0.0
  0
VERTEX
  5
250
330
24F
100
AcDbEntity
  8
_U+30EC_U+30A4_U+30E4_U+30FC 1
 62
   179
420
  2234388
370
    25
100
AcDbVertex
100
AcDb2dVertex
 10
96.1654910376994
 20
-149.4186789245051
 30
0.0
  0
VERTEX
  5
251
330
24F
100
AcDbEntity
  8
_U+30EC_U+30A4_U+30E4_U+30FC 1
 62
   179
420
  2234388
370
    25
100
AcDbVertex
100
AcDb2dVertex
 10
96.57329344984214
 20
-148.9247921889244
 30
0.0
  0
SEQEND
  5
252
330
24F
100
AcDbEntity
  8
_U+30EC_U+30A4_U+30E4_U+30FC 1
 62
   179
420
  2234388
370
    25
  0
POLYLINE
  5
253
330
1F
100
AcDbEntity
  8
_U+30EC_U+30A4_U+30E4_U+30FC 1
 62
   179
420
  2234388
370
    25
100
AcDb2dPolyline
 66
     1
 10
0.0
 20
0.0
 30
0.0
  0
VERTEX
  5
254
330
253
100
AcDbEntity
  8
_U+30EC_U+30A4_U+30E4_U+30FC 1
 62
   179
420
  2234388
370
    25
100
AcDbVertex
100
AcDb2dVertex
 10
96.57341187499945
 20
-148.9246845296905
 30
0.0
  0
VERTEX
  5
255
330
253
100
AcDbEntity
  8
_U+30EC_U+30A4_U+30E4_U+30FC 1
 62
   179
420
  2234388
370
    25
100
AcDbVertex
100
AcDb2dVertex
 10
96.18146766801193
 20
-148.4181047704313
 30
0.0
  0
SEQEND
  5
256
330
253
100
AcDbEntity
  8
_U+30EC_U+30A4_U+30E4_U+30FC 1
 62
   179
420
  2234388
370
    25
  0
POLYLINE
  5
257
330
1F
100
AcDbEntity
  8
_U+30EC_U+30A4_U+30E4_U+30FC 1
 62
   179
420
  2234388
370
    25
100
AcDb2dPolyline
 66
     1
 10
0.0
 20
0.0
 30
0.0
  0
VERTEX
  5
258
330
257
100
AcDbEntity
  8
_U+30EC_U+30A4_U+30E4_U+30FC 1
 62
   179
420
  2234388
370
    25
100
AcDbVertex
100
AcDb2dVertex
 10
96.1489438134465
 20
-150.4191561852685
 30
0.0
  0
VERTEX
  5
259
330
257
100
AcDbEntity
  8
_U+30EC_U+30A4_U+30E4_U+30FC 1
 62
   179
420
  2234388
370
    25
100
AcDbVertex
100
AcDb2dVertex
 10
96.55674622558955
 20
-149.9252694496877
 30
0.0
  0
SEQEND
  5
25A
330
257
100
AcDbEntity
  8
_U+30EC_U+30A4_U+30E4_U+30FC 1
 62
   179
420
  2234388
370
    25
  0
POLYLINE
  5
25B
330
1F
100
AcDbEntity
  8
_U+30EC_U+30A4_U+30E4_U+30FC 1
 62
   179
420
  2234388
370
    25
100
AcDb2dPolyline
 66
     1
 10
0.0
 20
0.0
 30
0.0
  0
VERTEX
  5
25C
330
25B
100
AcDbEntity
  8
_U+30EC_U+30A4_U+30E4_U+30FC 1
 62
   179
420
  2234388
370
    25
100
AcDbVertex
100
AcDb2dVertex
 10
96.55686465074686
 20
-149.9251294926837
 30
0.0
  0
VERTEX
  5
25D
330
25B
100
AcDbEntity
  8
_U+30EC_U+30A4_U+30E4_U+30FC 1
 62
   179
420
  2234388
370
    25
100
AcDbVertex
100
AcDb2dVertex
 10
96.16563099470316
 20
-149.4185497334244
 30
0.0
  0
SEQEND
  5
25E
330
25B
100
AcDbEntity
  8
_U+30EC_U+30A4_U+30E4_U+30FC 1
 62
   179
420
  2234388
370
    25
  0
POLYLINE
  5
25F
330
1F
100
AcDbEntity
  8
_U+30EC_U+30A4_U+30E4_U+30FC 1
 62
   179
420
  2234388
370
    25
100
AcDb2dPolyline
 66
     1
 10
0.0
 20
0.0
 30
0.0
  0
VERTEX
  5
260
330
25F
100
AcDbEntity
  8
_U+30EC_U+30A4_U+30E4_U+30FC 1
 62
   179
420
  2234388
370
    25
100
AcDbVertex
100
AcDb2dVertex
 10
96.13310714013805
 20
-151.4196334460318
 30
0.0
  0
VERTEX
  5
261
330
25F
100
AcDbEntity
  8
_U+30EC_U+30A4_U+30E4_U+30FC 1
 62
   179
420
  2234388
370
    25
100
AcDbVertex
100
AcDb2dVertex
 10
96.5409095522808
 20
-150.9257467104511
 30
0.0
  0
SEQEND
  5
262
330
25F
100
AcDbEntity
  8
_U+30EC_U+30A4_U+30E4_U+30FC 1
 62
   179
420
  2234388
370
    25
  0
POLYLINE
  5
263
330
1F
100
AcDbEntity
  8
_U+30EC_U+30A4_U+30E4_U+30FC 1
 62
   179
420
  2234388
370
    25
100
AcDb2dPolyline
 66
     1
 10
0.0
 20
0.0
 30
0.0
  0
VERTEX
  5
264
330
263
100
AcDbEntity
  8
_U+30EC_U+30A4_U+30E4_U+30FC 1
 62
   179
420
  2234388
370
    25
100
AcDbVertex
100
AcDb2dVertex
 10
96.54102797743809
 20
-150.925606753447
 30
0.0
  0
VERTEX
  5
265
330
263
100
AcDbEntity
  8
_U+30EC_U+30A4_U+30E4_U+30FC 1
 62
   179
420
  2234388
370
    25
100
AcDbVertex
100
AcDb2dVertex
 10
96.14908377045057
 20
-150.4190269941878
 30
0.0
  0
SEQEND
  5
266
330
263
100
AcDbEntity
  8
_U+30EC_U+30A4_U+30E4_U+30FC 1
 62
   179
420
  2234388
370
    25
  0
POLYLINE
  5
267
330
1F
100
AcDbEntity
  8
_U+30EC_U+30A4_U+30E4_U+30FC 1
 62
   179
420
  2234388
370
    25
100
AcDb2dPolyline
 66
     1
 10
0.0
 20
0.0
 30
0.0
  0
VERTEX
  5
268
330
267
100
AcDbEntity
  8
_U+30EC_U+30A4_U+30E4_U+30FC 1
 62
   179
420
  2234388
370
    25
100
AcDbVertex
100
AcDb2dVertex
 10
96.11655991588515
 20
-152.419335560311
 30
0.0
  0
VERTEX
  5
269
330
267
100
AcDbEntity
  8
_U+30EC_U+30A4_U+30E4_U+30FC 1
 62
   179
420
  2234388
370
    25
100
AcDbVertex
100
AcDb2dVertex
 10
96.5243623280282
 20
-151.9261593756741
 30
0.0
  0
SEQEND
  5
26A
330
267
100
AcDbEntity
  8
_U+30EC_U+30A4_U+30E4_U+30FC 1
 62
   179
420
  2234388
370
    25
  0
POLYLINE
  5
26B
330
1F
100
AcDbEntity
  8
_U+30EC_U+30A4_U+30E4_U+30FC 1
 62
   179
420
  2234388
370
    25
100
AcDb2dPolyline
 66
     1
 10
0.0
 20
0.0
 30
0.0
  0
VERTEX
  5
26C
330
26B
100
AcDbEntity
  8
_U+30EC_U+30A4_U+30E4_U+30FC 1
 62
   179
420
  2234388
370
    25
100
AcDbVertex
100
AcDb2dVertex
 10
96.52448075318551
 20
-151.9260517164402
 30
0.0
  0
VERTEX
  5
26D
330
26B
100
AcDbEntity
  8
_U+30EC_U+30A4_U+30E4_U+30FC 1
 62
   179
420
  2234388
370
    25
100
AcDbVertex
100
AcDb2dVertex
 10
96.13324709714182
 20
-151.4194719571809
 30
0.0
  0
SEQEND
  5
26E
330
26B
100
AcDbEntity
  8
_U+30EC_U+30A4_U+30E4_U+30FC 1
 62
   179
420
  2234388
370
    25
  0
POLYLINE
  5
26F
330
1F
100
AcDbEntity
  8
_U+30EC_U+30A4_U+30E4_U+30FC 1
 62
   179
420
  2234388
370
    25
100
AcDb2dPolyline
 66
     1
 10
0.0
 20
0.0
 30
0.0
  0
VERTEX
  5
270
330
26F
100
AcDbEntity
  8
_U+30EC_U+30A4_U+30E4_U+30FC 1
 62
   179
420
  2234388
370
    25
100
AcDbVertex
100
AcDb2dVertex
 10
96.1007232425767
 20
-153.4198558847679
 30
0.0
  0
VERTEX
  5
271
330
26F
100
AcDbEntity
  8
_U+30EC_U+30A4_U+30E4_U+30FC 1
 62
   179
420
  2234388
370
    25
100
AcDbVertex
100
AcDb2dVertex
 10
96.50852565471945
 20
-152.926679700131
 30
0.0
  0
SEQEND
  5
272
330
26F
100
AcDbEntity
  8
_U+30EC_U+30A4_U+30E4_U+30FC 1
 62
   179
420
  2234388
370
    25
  0
POLYLINE
  5
273
330
1F
100
AcDbEntity
  8
_U+30EC_U+30A4_U+30E4_U+30FC 1
 62
   179
420
  2234388
370
    25
100
AcDb2dPolyline
 66
     1
 10
0.0
 20
0.0
 30
0.0
  0
VERTEX
  5
274
330
273
100
AcDbEntity
  8
_U+30EC_U+30A4_U+30E4_U+30FC 1
 62
   179
420
  2234388
370
    25
100
AcDbVertex
100
AcDb2dVertex
 10
96.50864407987675
 20
-152.9264536157397
 30
0.0
  0
VERTEX
  5
275
330
273
100
AcDbEntity
  8
_U+30EC_U+30A4_U+30E4_U+30FC 1
 62
   179
420
  2234388
370
    25
100
AcDbVertex
100
AcDb2dVertex
 10
96.11669987288923
 20
-152.4191633055367
 30
0.0
  0
SEQEND
  5
276
330
273
100
AcDbEntity
  8
_U+30EC_U+30A4_U+30E4_U+30FC 1
 62
   179
420
  2234388
370
    25
  0
POLYLINE
  5
277
330
1F
100
AcDbEntity
  8
_U+30EC_U+30A4_U+30E4_U+30FC 1
 62
   179
420
  2234388
370
    25
100
AcDb2dPolyline
 66
     1
 10
0.0
 20
0.0
 30
0.0
  0
VERTEX
  5
278
330
277
100
AcDbEntity
  8
_U+30EC_U+30A4_U+30E4_U+30FC 1
 62
   179
420
  2234388
370
    25
100
AcDbVertex
100
AcDb2dVertex
 10
96.0841760183238
 20
-154.420300847761
 30
0.0
  0
VERTEX
  5
279
330
277
100
AcDbEntity
  8
_U+30EC_U+30A4_U+30E4_U+30FC 1
 62
   179
420
  2234388
370
    25
100
AcDbVertex
100
AcDb2dVertex
 10
96.49197843046686
 20
-153.9271246631241
 30
0.0
  0
SEQEND
  5
27A
330
277
100
AcDbEntity
  8
_U+30EC_U+30A4_U+30E4_U+30FC 1
 62
   179
420
  2234388
370
    25
  0
POLYLINE
  5
27B
330
1F
100
AcDbEntity
  8
_U+30EC_U+30A4_U+30E4_U+30FC 1
 62
   179
420
  2234388
370
    25
100
AcDb2dPolyline
 66
     1
 10
0.0
 20
0.0
 30
0.0
  0
VERTEX
  5
27C
330
27B
100
AcDbEntity
  8
_U+30EC_U+30A4_U+30E4_U+30FC 1
 62
   179
420
  2234388
370
    25
100
AcDbVertex
100
AcDb2dVertex
 10
96.49209685562415
 20
-153.9269739401967
 30
0.0
  0
VERTEX
  5
27D
330
27B
100
AcDbEntity
  8
_U+30EC_U+30A4_U+30E4_U+30FC 1
 62
   179
420
  2234388
370
    25
100
AcDbVertex
100
AcDb2dVertex
 10
96.10086319958047
 20
-153.4196836299936
 30
0.0
  0
SEQEND
  5
27E
330
27B
100
AcDbEntity
  8
_U+30EC_U+30A4_U+30E4_U+30FC 1
 62
   179
420
  2234388
370
    25
  0
POLYLINE
  5
27F
330
1F
100
AcDbEntity
  8
_U+30EC_U+30A4_U+30E4_U+30FC 1
 62
   179
420
  2234388
370
    25
100
AcDb2dPolyline
 66
     1
 10
0.0
 20
0.0
 30
0.0
  0
VERTEX
  5
280
330
27F
100
AcDbEntity
  8
_U+30EC_U+30A4_U+30E4_U+30FC 1
 62
   179
420
  2234388
370
    25
100
AcDbVertex
100
AcDb2dVertex
 10
96.4762601823154
 20
-154.9274189031898
 30
0.0
  0
VERTEX
  5
281
330
27F
100
AcDbEntity
  8
_U+30EC_U+30A4_U+30E4_U+30FC 1
 62
   179
420
  2234388
370
    25
100
AcDbVertex
100
AcDb2dVertex
 10
96.08431597532788
 20
-154.4201285929868
 30
0.0
  0
SEQEND
  5
282
330
27F
100
AcDbEntity
  8
_U+30EC_U+30A4_U+30E4_U+30FC 1
 62
   179
420
  2234388
370
    25
  0
POLYLINE
  5
283
330
1F
100
AcDbEntity
  8
_U+30EC_U+30A4_U+30E4_U+30FC 1
 62
   179
420
  2234388
370
    25
100
AcDb2dPolyline
 66
     1
 10
0.0
 20
0.0
 30
0.0
  0
VERTEX
  5
284
330
283
100
AcDbEntity
  8
_U+30EC_U+30A4_U+30E4_U+30FC 1
 62
   179
420
  2234388
370
    25
100
AcDbVertex
100
AcDb2dVertex
 10
96.07179520642367
 20
-155.4317808822304
 30
0.0
  0
VERTEX
  5
285
330
283
100
AcDbEntity
  8
_U+30EC_U+30A4_U+30E4_U+30FC 1
 62
   179
420
  2234388
370
    25
100
AcDbVertex
100
AcDb2dVertex
 10
96.47959761856706
 20
-154.9386046975935
 30
0.0
  0
SEQEND
  5
286
330
283
100
AcDbEntity
  8
_U+30EC_U+30A4_U+30E4_U+30FC 1
 62
   179
420
  2234388
370
    25
  0
POLYLINE
  5
287
330
1F
100
AcDbEntity
  8
_U+30EC_U+30A4_U+30E4_U+30FC 1
 62
   179
420
  2234388
370
    25
100
AcDb2dPolyline
 66
     1
 10
0.0
 20
0.0
 30
0.0
  0
VERTEX
  5
288
330
287
100
AcDbEntity
  8
_U+30EC_U+30A4_U+30E4_U+30FC 1
 62
   179
420
  2234388
370
    25
100
AcDbVertex
100
AcDb2dVertex
 10
96.05595853311492
 20
-156.43218278153
 30
0.0
  0
VERTEX
  5
289
330
287
100
AcDbEntity
  8
_U+30EC_U+30A4_U+30E4_U+30FC 1
 62
   179
420
  2234388
370
    25
100
AcDbVertex
100
AcDb2dVertex
 10
96.46376094525797
 20
-155.9390065968931
 30
0.0
  0
SEQEND
  5
28A
330
287
100
AcDbEntity
  8
_U+30EC_U+30A4_U+30E4_U+30FC 1
 62
   179
420
  2234388
370
    25
  0
POLYLINE
  5
28B
330
1F
100
AcDbEntity
  8
_U+30EC_U+30A4_U+30E4_U+30FC 1
 62
   179
420
  2234388
370
    25
100
AcDb2dPolyline
 66
     1
 10
0.0
 20
0.0
 30
0.0
  0
VERTEX
  5
28C
330
28B
100
AcDbEntity
  8
_U+30EC_U+30A4_U+30E4_U+30FC 1
 62
   179
420
  2234388
370
    25
100
AcDbVertex
100
AcDb2dVertex
 10
96.46383630672204
 20
-155.9388989376592
 30
0.0
  0
VERTEX
  5
28D
330
28B
100
AcDbEntity
  8
_U+30EC_U+30A4_U+30E4_U+30FC 1
 62
   179
420
  2234388
370
    25
100
AcDbVertex
100
AcDb2dVertex
 10
96.0718920997342
 20
-155.4316086274561
 30
0.0
  0
SEQEND
  5
28E
330
28B
100
AcDbEntity
  8
_U+30EC_U+30A4_U+30E4_U+30FC 1
 62
   179
420
  2234388
370
    25
  0
POLYLINE
  5
28F
330
1F
100
AcDbEntity
  8
_U+30EC_U+30A4_U+30E4_U+30FC 1
 62
   179
420
  2234388
370
    25
100
AcDb2dPolyline
 66
     1
 10
0.0
 20
0.0
 30
0.0
  0
VERTEX
  5
290
330
28F
100
AcDbEntity
  8
_U+30EC_U+30A4_U+30E4_U+30FC 1
 62
   179
420
  2234388
370
    25
100
AcDbVertex
100
AcDb2dVertex
 10
96.44728908246913
 20
-156.9393008369588
 30
0.0
  0
VERTEX
  5
291
330
28F
100
AcDbEntity
  8
_U+30EC_U+30A4_U+30E4_U+30FC 1
 62
   179
420
  2234388
370
    25
100
AcDbVertex
100
AcDb2dVertex
 10
96.05605542642544
 20
-156.4320105267557
 30
0.0
  0
SEQEND
  5
292
330
28F
100
AcDbEntity
  8
_U+30EC_U+30A4_U+30E4_U+30FC 1
 62
   179
420
  2234388
370
    25
  0
SPLINE
  5
293
330
1F
100
AcDbEntity
  8
_U+30EC_U+30A4_U+30E4_U+30FC 1
 62
   179
420
  2234388
370
    25
100
AcDbSpline
210
0.0
220
0.0
230
1.0
 70
     8
 71
     3
 72
    14
 73
    10
 74
     0
 42
0.0000000001
 43
0.0000000001
 12
1.0
 22
0.0
 32
0.0
 13
1.0
 23
0.0
 33
0.0
 40
0.0
 40
0.0
 40
0.0
 40
0.0
 40
1.0
 40
1.0
 40
1.0
 40
2.0
 40
2.0
 40
2.0
 40
3.0
 40
3.0
 40
3.0
 40
3.0
 10
96.44728908246913
 20
-156.9393008369588
 30
0.0
 10
96.44728908246913
 20
-156.9393008369588
 30
0.0
 10
96.42717833757398
 20
-157.8427663620421
 30
0.0
 10
96.42717833757398
 20
-157.8427663620421
 30
0.0
 10
96.42717833757398
 20
-157.8427663620421
 30
0.0
 10
96.16118466834284
 20
-159.0319810257802
 30
0.0
 10
97.49468423737221
 20
-158.9974116457704
 30
0.0
 10
97.49468423737221
 20
-158.9974116457704
 30
0.0
 10
98.51843742450777
 20
-158.9794217877834
 30
0.0
 10
98.51843742450777
 20
-158.9794217877834
 30
0.0
  0
POLYLINE
  5
294
330
1F
100
AcDbEntity
  8
_U+30EC_U+30A4_U+30E4_U+30FC 1
 62
   179
420
  2234388
370
    25
100
AcDb2dPolyline
 66
     1
 10
0.0
 20
0.0
 30
0.0
  0
VERTEX
  5
295
330
294
100
AcDbEntity
  8
_U+30EC_U+30A4_U+30E4_U+30FC 1
 62
   179
420
  2234388
370
    25
100
AcDbVertex
100
AcDb2dVertex
 10
96.6264663454723
 20
-134.4125750735475
 30
0.0
  0
VERTEX
  5
296
330
294
100
AcDbEntity
  8
_U+30EC_U+30A4_U+30E4_U+30FC 1
 62
   179
420
  2234388
370
    25
100
AcDbVertex
100
AcDb2dVertex
 10
96.5421476334708
 20
-136.9109475535273
 30
0.0
  0
VERTEX
  5
297
330
294
100
AcDbEntity
  8
_U+30EC_U+30A4_U+30E4_U+30FC 1
 62
   179
420
  2234388
370
    25
100
AcDbVertex
100
AcDb2dVertex
 10
96.76898563932805
 20
-136.9197756107082
 30
0.0
  0
VERTEX
  5
298
330
294
100
AcDbEntity
  8
_U+30EC_U+30A4_U+30E4_U+30FC 1
 62
   179
420
  2234388
370
    25
100
AcDbVertex
100
AcDb2dVertex
 10
96.36117246126159
 20
-137.413662346289
 30
0.0
  0
SEQEND
  5
299
330
294
100
AcDbEntity
  8
_U+30EC_U+30A4_U+30E4_U+30FC 1
 62
   179
420
  2234388
370
    25
  0
ENDSEC
  0
SECTION
  2
OBJECTS
  0
DICTIONARY
  5
C
330
0
100
AcDbDictionary
281
     1
  3
ACAD_GROUP
350
D
  3
ACAD_LAYOUT
350
1A
  3
ACAD_MATERIAL
350
3B
  3
ACAD_MLEADERSTYLE
350
29B
  3
ACAD_MLINESTYLE
350
17
  3
ACAD_PLOTSETTINGS
350
19
  3
ACAD_PLOTSTYLENAME
350
E
  3
ACAD_TABLESTYLE
350
29A
  3
ACAD_VISUALSTYLE
350
2A
  0
SUN
  5
3F
330
29
100
AcDbSun
 90
        1
290
     0
 63
     7
421
 16777215
 40
1.0
291
     1
 91
  2455826
 92
 54000000
292
     0
 70
     2
 71
   256
280
     1
  0
DICTIONARY
  5
D
102
{ACAD_REACTORS
330
C
102
}
330
C
100
AcDbDictionary
281
     1
  0
DICTIONARY
  5
1A
102
{ACAD_REACTORS
330
C
102
}
330
C
100
AcDbDictionary
281
     1
  3
Layout1
350
1E
  3
Layout2
350
26
  3
Model
350
22
  0
DICTIONARY
  5
3B
102
{ACAD_REACTORS
330
C
102
}
330
C
100
AcDbDictionary
281
     1
  3
ByBlock
350
3D
  3
ByLayer
350
3C
  3
Global
350
3E
  0
DICTIONARY
  5
29B
102
{ACAD_REACTORS
330
C
102
}
330
C
100
AcDbDictionary
281
     1
  0
DICTIONARY
  5
17
102
{ACAD_REACTORS
330
C
102
}
330
C
100
AcDbDictionary
281
     1
  3
Standard
350
18
  0
DICTIONARY
  5
19
102
{ACAD_REACTORS
330
C
102
}
330
C
100
AcDbDictionary
281
     1
  0
ACDBDICTIONARYWDFLT
  5
E
102
{ACAD_REACTORS
330
C
102
}
330
C
100
AcDbDictionary
281
     1
  3
Normal
350
F
100
AcDbDictionaryWithDefault
340
F
  0
DICTIONARY
  5
29A
102
{ACAD_REACTORS
330
C
102
}
330
C
100
AcDbDictionary
281
     1
  0
DICTIONARY
  5
2A
102
{ACAD_REACTORS
330
C
102
}
330
C
100
AcDbDictionary
281
     1
  3
2dWireframe
350
2F
  3
3D Hidden
350
31
  3
3dWireframe
350
30
  3
Basic
350
32
  3
Brighten
350
36
  3
ColorChange
350
3A
  3
Conceptual
350
34
  3
Dim
350
35
  3
Facepattern
350
39
  3
Flat
350
2B
  3
FlatWithEdges
350
2C
  3
Gouraud
350
2D
  3
GouraudWithEdges
350
2E
  3
Linepattern
350
38
  3
Realistic
350
33
  3
Thicken
350
37
  0
LAYOUT
  5
1E
102
{ACAD_REACTORS
330
1A
102
}
330
1A
100
AcDbPlotSettings
  1

  2
none_device
  4

  6

 40
0.0
 41
0.0
 42
0.0
 43
0.0
 44
0.0
 45
0.0
 46
0.0
 47
0.0
 48
0.0
 49
0.0
140
0.0
141
0.0
142
1.0
143
1.0
 70
   688
 72
     0
 73
     0
 74
     5
  7

 75
    16
 76
     0
 77
     2
 78
   300
147
1.0
148
0.0
149
0.0
100
AcDbLayout
  1
Layout1
 70
     1
 71
     1
 10
0.0
 20
0.0
 11
12.0
 21
9.0
 12
0.0
 22
0.0
 32
0.0
 14
1.000000000000000E+20
 24
1.000000000000000E+20
 34
1.000000000000000E+20
 15
-1.000000000000000E+20
 25
-1.000000000000000E+20
 35
-1.000000000000000E+20
146
0.0
 13
0.0
 23
0.0
 33
0.0
 16
1.0
 26
0.0
 36
0.0
 17
0.0
 27
1.0
 37
0.0
 76
     0
330
1B
  0
LAYOUT
  5
26
102
{ACAD_REACTORS
330
1A
102
}
330
1A
100
AcDbPlotSettings
  1

  2
none_device
  4

  6

 40
0.0
 41
0.0
 42
0.0
 43
0.0
 44
0.0
 45
0.0
 46
0.0
 47
0.0
 48
0.0
 49
0.0
140
0.0
141
0.0
142
1.0
143
1.0
 70
   688
 72
     0
 73
     0
 74
     5
  7

 75
    16
 76
     0
 77
     2
 78
   300
147
1.0
148
0.0
149
0.0
100
AcDbLayout
  1
Layout2
 70
     1
 71
     2
 10
0.0
 20
0.0
 11
0.0
 21
0.0
 12
0.0
 22
0.0
 32
0.0
 14
0.0
 24
0.0
 34
0.0
 15
0.0
 25
0.0
 35
0.0
146
0.0
 13
0.0
 23
0.0
 33
0.0
 16
1.0
 26
0.0
 36
0.0
 17
0.0
 27
1.0
 37
0.0
 76
     0
330
23
  0
LAYOUT
  5
22
102
{ACAD_REACTORS
330
1A
102
}
330
1A
100
AcDbPlotSettings
  1

  2
none_device
  4

  6

 40
0.0
 41
0.0
 42
0.0
 43
0.0
 44
0.0
 45
0.0
 46
0.0
 47
0.0
 48
0.0
 49
0.0
140
0.0
141
0.0
142
1.0
143
1.0
 70
  1712
 72
     0
 73
     0
 74
     0
  7

 75
     0
 76
     0
 77
     2
 78
   300
147
1.0
148
0.0
149
0.0
100
AcDbLayout
  1
Model
 70
     1
 71
     0
 10
0.0
 20
0.0
 11
12.0
 21
9.0
 12
0.0
 22
0.0
 32
0.0
 14
1.000000000000000E+20
 24
1.000000000000000E+20
 34
1.000000000000000E+20
 15
-1.000000000000000E+20
 25
-1.000000000000000E+20
 35
-1.000000000000000E+20
146
0.0
 13
0.0
 23
0.0
 33
0.0
 16
1.0
 26
0.0
 36
0.0
 17
0.0
 27
1.0
 37
0.0
 76
     0
330
1F
331
29
  0
MATERIAL
  5
3D
102
{ACAD_REACTORS
330
3B
102
}
330
3B
100
AcDbMaterial
  1
ByBlock
 72
     1
 94
      127
  0
MATERIAL
  5
3C
102
{ACAD_REACTORS
330
3B
102
}
330
3B
100
AcDbMaterial
  1
ByLayer
 72
     1
 94
      127
  0
MATERIAL
  5
3E
102
{ACAD_REACTORS
330
3B
102
}
330
3B
100
AcDbMaterial
  1
Global
 72
     1
 94
      127
  0
MLINESTYLE
  5
18
102
{ACAD_REACTORS
330
17
102
}
330
17
100
AcDbMlineStyle
  2
Standard
 70
     0
  3

 62
   256
 51
90.0
 52
90.0
 71
     2
 49
0.5
 62
   256
  6
BYLAYER
 49
-0.5
 62
   256
  6
BYLAYER
  0
ACDBPLACEHOLDER
  5
F
102
{ACAD_REACTORS
330
E
102
}
330
E
  0
VISUALSTYLE
  5
2F
102
{ACAD_REACTORS
330
2A
102
}
330
2A
100
AcDbVisualStyle
  2
2dWireframe
 70
     4
177
     2
291
     0
 71
     0
176
     1
 72
     2
176
     1
 73
     0
176
     1
 90
        0
176
     1
 40
-0.6
176
     1
 41
-30.0
176
     1
 62
     5
 63
     7
421
 16777215
176
     1
 74
     1
176
     1
 91
        4
176
     1
 64
     7
176
     1
 65
   257
176
     1
 75
     1
176
     1
175
     1
176
     1
 42
1.0
176
     1
 92
        0
176
     1
 66
   257
176
     1
 43
1.0
176
     1
 76
     1
176
     1
 77
     6
176
     1
 78
     2
176
     1
 67
     7
176
     1
 79
     5
176
     1
170
     0
176
     1
171
     0
176
     1
290
     0
176
     1
 93
        1
176
     1
 44
0.0
176
     1
173
     0
176
     1
  0
VISUALSTYLE
  5
31
102
{ACAD_REACTORS
330
2A
102
}
330
2A
100
AcDbVisualStyle
  2
3D Hidden
 70
     6
177
     2
291
     0
 71
     1
176
     1
 72
     2
176
     1
 73
     2
176
     1
 90
        0
176
     1
 40
-0.6
176
     1
 41
-30.0
176
     1
 62
     5
 63
     7
421
 16777215
176
     1
 74
     2
176
     1
 91
        2
176
     1
 64
     7
176
     1
 65
   257
176
     1
 75
     2
176
     1
175
     1
176
     1
 42
40.0
176
     1
 92
        0
176
     1
 66
   257
176
     1
 43
1.0
176
     1
 76
     1
176
     1
 77
     6
176
     1
 78
     2
176
     1
 67
     7
176
     1
 79
     3
176
     1
170
     0
176
     1
171
     0
176
     1
290
     0
176
     1
 93
        1
176
     1
 44
0.0
176
     1
173
     0
176
     1
  0
VISUALSTYLE
  5
30
102
{ACAD_REACTORS
330
2A
102
}
330
2A
100
AcDbVisualStyle
  2
3dWireframe
 70
     5
177
     2
291
     0
 71
     0
176
     1
 72
     2
176
     1
 73
     0
176
     1
 90
        0
176
     1
 40
-0.6
176
     1
 41
-30.0
176
     1
 62
     5
 63
     7
421
 16777215
176
     1
 74
     1
176
     1
 91
        4
176
     1
 64
     7
176
     1
 65
   257
176
     1
 75
     1
176
     1
175
     1
176
     1
 42
1.0
176
     1
 92
        0
176
     1
 66
   257
176
     1
 43
1.0
176
     1
 76
     1
176
     1
 77
     6
176
     1
 78
     2
176
     1
 67
     7
176
     1
 79
     5
176
     1
170
     0
176
     1
171
     0
176
     1
290
     0
176
     1
 93
        1
176
     1
 44
0.0
176
     1
173
     0
176
     1
  0
VISUALSTYLE
  5
32
102
{ACAD_REACTORS
330
2A
102
}
330
2A
100
AcDbVisualStyle
  2
Basic
 70
     7
177
     2
291
     1
 71
     1
176
     1
 72
     0
176
     1
 73
     1
176
     1
 90
        0
176
     1
 40
-0.6
176
     1
 41
-30.0
176
     1
 62
     5
 63
     7
421
 16777215
176
     1
 74
     0
176
     1
 91
        4
176
     1
 64
     7
176
     1
 65
   257
176
     1
 75
     1
176
     1
175
     1
176
     1
 42
1.0
176
     1
 92
        8
176
     1
 66
     7
176
     1
 43
1.0
176
     1
 76
     1
176
     1
 77
     6
176
     1
 78
     2
176
     1
 67
     7
176
     1
 79
     5
176
     1
170
     0
176
     1
171
     0
176
     1
290
     0
176
     1
 93
        1
176
     1
 44
0.0
176
     1
173
     0
176
     1
  0
VISUALSTYLE
  5
36
102
{ACAD_REACTORS
330
2A
102
}
330
2A
100
AcDbVisualStyle
  2
Brighten
 70
    12
177
     2
291
     1
 71
     2
176
     1
 72
     2
176
     1
 73
     0
176
     1
 90
        0
176
     1
 40
-0.6
176
     1
 41
-30.0
176
     1
 62
     5
 63
     7
421
 16777215
176
     1
 74
     1
176
     1
 91
        4
176
     1
 64
     7
176
     1
 65
   257
176
     1
 75
     1
176
     1
175
     1
176
     1
 42
1.0
176
     1
 92
        8
176
     1
 66
     7
176
     1
 43
1.0
176
     1
 76
     1
176
     1
 77
     6
176
     1
 78
     2
176
     1
 67
     7
176
     1
 79
     5
176
     1
170
     0
176
     1
171
     0
176
     1
290
     0
176
     1
 93
        1
176
     1
 44
50.0
176
     1
173
     0
176
     1
  0
VISUALSTYLE
  5
3A
102
{ACAD_REACTORS
330
2A
102
}
330
2A
100
AcDbVisualStyle
  2
ColorChange
 70
    16
177
     2
291
     1
 71
     2
176
     1
 72
     2
176
     1
 73
     3
176
     1
 90
        0
176
     1
 40
-0.6
176
     1
 41
-30.0
176
     1
 62
     5
 63
     8
421
  8421504
176
     1
 74
     1
176
     1
 91
        4
176
     1
 64
     7
176
     1
 65
   257
176
     1
 75
     1
176
     1
175
     1
176
     1
 42
1.0
176
     1
 92
        8
176
     1
 66
     8
424
  8421504
176
     1
 43
1.0
176
     1
 76
     1
176
     1
 77
     6
176
     1
 78
     2
176
     1
 67
     7
176
     1
 79
     5
176
     1
170
     0
176
     1
171
     0
176
     1
290
     0
176
     1
 93
        1
176
     1
 44
0.0
176
     1
173
     0
176
     1
  0
VISUALSTYLE
  5
34
102
{ACAD_REACTORS
330
2A
102
}
330
2A
100
AcDbVisualStyle
  2
Conceptual
 70
     9
177
     2
291
     0
 71
     3
176
     1
 72
     2
176
     1
 73
     0
176
     1
 90
        0
176
     1
 40
-0.6
176
     1
 41
-30.0
176
     1
 62
     5
 63
     7
421
 16777215
176
     1
 74
     2
176
     1
 91
        2
176
     1
 64
     7
176
     1
 65
   257
176
     1
 75
     1
176
     1
175
     1
176
     1
 42
40.0
176
     1
 92
        8
176
     1
 66
     7
176
     1
 43
1.0
176
     1
 76
     1
176
     1
 77
     6
176
     1
 78
     2
176
     1
 67
     7
176
     1
 79
     3
176
     1
170
     0
176
     1
171
     0
176
     1
290
     0
176
     1
 93
        1
176
     1
 44
0.0
176
     1
173
     0
176
     1
  0
VISUALSTYLE
  5
35
102
{ACAD_REACTORS
330
2A
102
}
330
2A
100
AcDbVisualStyle
  2
Dim
 70
    11
177
     2
291
     1
 71
     2
176
     1
 72
     2
176
     1
 73
     0
176
     1
 90
        0
176
     1
 40
-0.6
176
     1
 41
-30.0
176
     1
 62
     5
 63
     7
421
 16777215
176
     1
 74
     1
176
     1
 91
        4
176
     1
 64
     7
176
     1
 65
   257
176
     1
 75
     1
176
     1
175
     1
176
     1
 42
1.0
176
     1
 92
        8
176
     1
 66
     7
176
     1
 43
1.0
176
     1
 76
     1
176
     1
 77
     6
176
     1
 78
     2
176
     1
 67
     7
176
     1
 79
     5
176
     1
170
     0
176
     1
171
     0
176
     1
290
     0
176
     1
 93
        1
176
     1
 44
-50.0
176
     1
173
     0
176
     1
  0
VISUALSTYLE
  5
39
102
{ACAD_REACTORS
330
2A
102
}
330
2A
100
AcDbVisualStyle
  2
Facepattern
 70
    15
177
     2
291
     1
 71
     2
176
     1
 72
     2
176
     1
 73
     0
176
     1
 90
        0
176
     1
 40
-0.6
176
     1
 41
-30.0
176
     1
 62
     5
 63
     7
421
 16777215
176
     1
 74
     1
176
     1
 91
        4
176
     1
 64
     7
176
     1
 65
   257
176
     1
 75
     1
176
     1
175
     1
176
     1
 42
1.0
176
     1
 92
        8
176
     1
 66
     7
176
     1
 43
1.0
176
     1
 76
     1
176
     1
 77
     6
176
     1
 78
     2
176
     1
 67
     7
176
     1
 79
     5
176
     1
170
     0
176
     1
171
     0
176
     1
290
     0
176
     1
 93
        1
176
     1
 44
0.0
176
     1
173
     0
176
     1
  0
VISUALSTYLE
  5
2B
102
{ACAD_REACTORS
330
2A
102
}
330
2A
100
AcDbVisualStyle
  2
Flat
 70
     0
177
     2
291
     1
 71
     2
176
     1
 72
     1
176
     1
 73
     1
176
     1
 90
        2
176
     1
 40
-0.6
176
     1
 41
30.0
176
     1
 62
     5
 63
     7
421
 16777215
176
     1
 74
     0
176
     1
 91
        4
176
     1
 64
     7
176
     1
 65
   257
176
     1
 75
     1
176
     1
175
     1
176
     1
 42
1.0
176
     1
 92
        8
176
     1
 66
     7
176
     1
 43
1.0
176
     1
 76
     1
176
     1
 77
     6
176
     1
 78
     2
176
     1
 67
     7
176
     1
 79
     5
176
     1
170
     0
176
     1
171
     0
176
     1
290
     0
176
     1
 93
       13
176
     1
 44
0.0
176
     1
173
     0
176
     1
  0
VISUALSTYLE
  5
2C
102
{ACAD_REACTORS
330
2A
102
}
330
2A
100
AcDbVisualStyle
  2
FlatWithEdges
 70
     1
177
     2
291
     1
 71
     2
176
     1
 72
     1
176
     1
 73
     1
176
     1
 90
        2
176
     1
 40
-0.6
176
     1
 41
30.0
176
     1
 62
     5
 63
     7
421
 16777215
176
     1
 74
     1
176
     1
 91
        4
176
     1
 64
     7
176
     1
 65
   257
176
     1
 75
     1
176
     1
175
     1
176
     1
 42
1.0
176
     1
 92
        0
176
     1
 66
   257
176
     1
 43
1.0
176
     1
 76
     1
176
     1
 77
     6
176
     1
 78
     2
176
     1
 67
     7
176
     1
 79
     5
176
     1
170
     0
176
     1
171
     0
176
     1
290
     0
176
     1
 93
       13
176
     1
 44
0.0
176
     1
173
     0
176
     1
  0
VISUALSTYLE
  5
2D
102
{ACAD_REACTORS
330
2A
102
}
330
2A
100
AcDbVisualStyle
  2
Gouraud
 70
     2
177
     2
291
     1
 71
     2
176
     1
 72
     2
176
     1
 73
     1
176
     1
 90
        2
176
     1
 40
-0.6
176
     1
 41
30.0
176
     1
 62
     5
 63
     7
421
 16777215
176
     1
 74
     0
176
     1
 91
        4
176
     1
 64
     7
176
     1
 65
   257
176
     1
 75
     1
176
     1
175
     1
176
     1
 42
1.0
176
     1
 92
        0
176
     1
 66
     7
176
     1
 43
1.0
176
     1
 76
     1
176
     1
 77
     6
176
     1
 78
     2
176
     1
 67
     7
176
     1
 79
     5
176
     1
170
     0
176
     1
171
     0
176
     1
290
     0
176
     1
 93
       13
176
     1
 44
0.0
176
     1
173
     0
176
     1
  0
VISUALSTYLE
  5
2E
102
{ACAD_REACTORS
330
2A
102
}
330
2A
100
AcDbVisualStyle
  2
GouraudWithEdges
 70
     3
177
     2
291
     1
 71
     2
176
     1
 72
     2
176
     1
 73
     1
176
     1
 90
        2
176
     1
 40
-0.6
176
     1
 41
30.0
176
     1
 62
     5
 63
     7
421
 16777215
176
     1
 74
     1
176
     1
 91
        4
176
     1
 64
     7
176
     1
 65
   257
176
     1
 75
     1
176
     1
175
     1
176
     1
 42
1.0
176
     1
 92
        0
176
     1
 66
   257
176
     1
 43
1.0
176
     1
 76
     1
176
     1
 77
     6
176
     1
 78
     2
176
     1
 67
     7
176
     1
 79
     5
176
     1
170
     0
176
     1
171
     0
176
     1
290
     0
176
     1
 93
       13
176
     1
 44
0.0
176
     1
173
     0
176
     1
  0
VISUALSTYLE
  5
38
102
{ACAD_REACTORS
330
2A
102
}
330
2A
100
AcDbVisualStyle
  2
Linepattern
 70
    14
177
     2
291
     1
 71
     2
176
     1
 72
     2
176
     1
 73
     0
176
     1
 90
        0
176
     1
 40
-0.6
176
     1
 41
-30.0
176
     1
 62
     5
 63
     7
421
 16777215
176
     1
 74
     1
176
     1
 91
        4
176
     1
 64
     7
176
     1
 65
   257
176
     1
 75
     7
176
     1
175
     7
176
     1
 42
1.0
176
     1
 92
        8
176
     1
 66
     7
176
     1
 43
1.0
176
     1
 76
     1
176
     1
 77
     6
176
     1
 78
     2
176
     1
 67
     7
176
     1
 79
     5
176
     1
170
     0
176
     1
171
     0
176
     1
290
     0
176
     1
 93
        1
176
     1
 44
0.0
176
     1
173
     0
176
     1
  0
VISUALSTYLE
  5
33
102
{ACAD_REACTORS
330
2A
102
}
330
2A
100
AcDbVisualStyle
  2
Realistic
 70
     8
177
     2
291
     0
 71
     2
176
     1
 72
     2
176
     1
 73
     0
176
     1
 90
        0
176
     1
 40
-0.6
176
     1
 41
-30.0
176
     1
 62
     5
 63
     7
421
 16777215
176
     1
 74
     1
176
     1
 91
        0
176
     1
 64
     7
176
     1
 65
   257
176
     1
 75
     1
176
     1
175
     1
176
     1
 42
1.0
176
     1
 92
        8
176
     1
 66
     8
424
  7895160
176
     1
 43
1.0
176
     1
 76
     1
176
     1
 77
     6
176
     1
 78
     2
176
     1
 67
     7
176
     1
 79
     5
176
     1
170
     0
176
     1
171
     0
176
     1
290
     0
176
     1
 93
       13
176
     1
 44
0.0
176
     1
173
     0
176
     1
  0
VISUALSTYLE
  5
37
102
{ACAD_REACTORS
330
2A
102
}
330
2A
100
AcDbVisualStyle
  2
Thicken
 70
    13
177
     2
291
     1
 71
     2
176
     1
 72
     2
176
     1
 73
     0
176
     1
 90
        0
176
     1
 40
-0.6
176
     1
 41
-30.0
176
     1
 62
     5
 63
     7
421
 16777215
176
     1
 74
     1
176
     1
 91
        4
176
     1
 64
     7
176
     1
 65
   257
176
     1
 75
     1
176
     1
175
     1
176
     1
 42
1.0
176
     1
 92
       12
176
     1
 66
     7
176
     1
 43
1.0
176
     1
 76
     1
176
     1
 77
     6
176
     1
 78
     2
176
     1
 67
     7
176
     1
 79
     5
176
     1
170
     0
176
     1
171
     0
176
     1
290
     0
176
     1
 93
        1
176
     1
 44
0.0
176
     1
173
     0
176
     1
  0
ENDSEC
  0
EOF
