  0
SECTION
  2
HEADER
  9
$ACADVER
  1
AC1024
  9
$ACADMAINTVER
 70
     6
  9
$DWGCODEPAGE
  3
UNDEFINED
  9
$INSBASE
 10
0.0
 20
0.0
 30
0.0
  9
$EXTMIN
 10
1.000000000000000E+20
 20
1.000000000000000E+20
 30
1.000000000000000E+20
  9
$EXTMAX
 10
-1.000000000000000E+20
 20
-1.000000000000000E+20
 30
-1.000000000000000E+20
  9
$LIMMIN
 10
0.0
 20
0.0
  9
$LIMMAX
 10
12.0
 20
9.0
  9
$ORTHOMODE
 70
     0
  9
$REGENMODE
 70
     1
  9
$FILLMODE
 70
     1
  9
$QTEXTMODE
 70
     0
  9
$MIRRTEXT
 70
     1
  9
$LTSCALE
 40
1.0
  9
$ATTMODE
 70
     1
  9
$TEXTSIZE
 40
0.2
  9
$TRACEWID
 40
0.05
  9
$TEXTSTYLE
  7
Standard
  9
$CLAYER
  8
0
  9
$CELTYPE
  6
ByLayer
  9
$CECOLOR
 62
   256
  9
$CELTSCALE
 40
1.0
  9
$DISPSILH
 70
     0
  9
$DIMSCALE
 40
1.0
  9
$DIMASZ
 40
0.18
  9
$DIMEXO
 40
0.0625
  9
$DIMDLI
 40
0.38
  9
$DIMRND
 40
0.0
  9
$DIMDLE
 40
0.0
  9
$DIMEXE
 40
0.18
  9
$DIMTP
 40
0.0
  9
$DIMTM
 40
0.0
  9
$DIMTXT
 40
0.18
  9
$DIMCEN
 40
0.09
  9
$DIMTSZ
 40
0.0
  9
$DIMTOL
 70
     0
  9
$DIMLIM
 70
     0
  9
$DIMTIH
 70
     1
  9
$DIMTOH
 70
     1
  9
$DIMSE1
 70
     0
  9
$DIMSE2
 70
     0
  9
$DIMTAD
 70
     0
  9
$DIMZIN
 70
     0
  9
$DIMBLK
  1

  9
$DIMASO
 70
     1
  9
$DIMSHO
 70
     1
  9
$DIMPOST
  1

  9
$DIMAPOST
  1

  9
$DIMALT
 70
     0
  9
$DIMALTD
 70
     2
  9
$DIMALTF
 40
25.4
  9
$DIMLFAC
 40
1.0
  9
$DIMTOFL
 70
     0
  9
$DIMTVP
 40
0.0
  9
$DIMTIX
 70
     0
  9
$DIMSOXD
 70
     0
  9
$DIMSAH
 70
     0
  9
$DIMBLK1
  1

  9
$DIMBLK2
  1

  9
$DIMSTYLE
  2
Standard
  9
$DIMCLRD
 70
     0
  9
$DIMCLRE
 70
     0
  9
$DIMCLRT
 70
     0
  9
$DIMTFAC
 40
1.0
  9
$DIMGAP
 40
0.09
  9
$DIMJUST
 70
     0
  9
$DIMSD1
 70
     0
  9
$DIMSD2
 70
     0
  9
$DIMTOLJ
 70
     1
  9
$DIMTZIN
 70
     0
  9
$DIMALTZ
 70
     0
  9
$DIMALTTZ
 70
     0
  9
$DIMUPT
 70
     0
  9
$DIMDEC
 70
     4
  9
$DIMTDEC
 70
     4
  9
$DIMALTU
 70
     2
  9
$DIMALTTD
 70
     2
  9
$DIMTXSTY
  7
Standard
  9
$DIMAUNIT
 70
     0
  9
$DIMADEC
 70
     0
  9
$DIMALTRND
 40
0.0
  9
$DIMAZIN
 70
     0
  9
$DIMDSEP
 70
    46
  9
$DIMATFIT
 70
     3
  9
$DIMFRAC
 70
     0
  9
$DIMLDRBLK
  1

  9
$DIMLUNIT
 70
     2
  9
$DIMLWD
 70
    -2
  9
$DIMLWE
 70
    -2
  9
$DIMTMOVE
 70
     0
  9
$DIMFXL
 40
1.0
  9
$DIMFXLON
 70
     0
  9
$DIMJOGANG
 40
0.7853981633974483
  9
$DIMTFILL
 70
     0
  9
$DIMTFILLCLR
 70
     0
  9
$DIMARCSYM
 70
     0
  9
$DIMLTYPE
  6

  9
$DIMLTEX1
  6

  9
$DIMLTEX2
  6

  9
$DIMTXTDIRECTION
 70
     0
  9
$LUNITS
 70
     2
  9
$LUPREC
 70
     4
  9
$SKETCHINC
 40
0.1
  9
$FILLETRAD
 40
0.5
  9
$AUNITS
 70
     0
  9
$AUPREC
 70
     0
  9
$MENU
  1
.
  9
$ELEVATION
 40
0.0
  9
$PELEVATION
 40
0.0
  9
$THICKNESS
 40
0.0
  9
$LIMCHECK
 70
     0
  9
$CHAMFERA
 40
0.5
  9
$CHAMFERB
 40
0.5
  9
$CHAMFERC
 40
1.0
  9
$CHAMFERD
 40
0.0
  9
$SKPOLY
 70
     0
  9
$TDCREATE
 40
2457917.583715266
  9
$TDUCREATE
 40
2457917.208715278
  9
$TDUPDATE
 40
2457917.583715266
  9
$TDUUPDATE
 40
2457917.208715278
  9
$TDINDWG
 40
0.0000000116
  9
$TDUSRTIMER
 40
0.0000000116
  9
$USRTIMER
 70
     1
  9
$ANGBASE
 50
0.0
  9
$ANGDIR
 70
     0
  9
$PDMODE
 70
     0
  9
$PDSIZE
 40
0.0
  9
$PLINEWID
 40
0.0
  9
$SPLFRAME
 70
     0
  9
$SPLINETYPE
 70
     6
  9
$SPLINESEGS
 70
     8
  9
$HANDSEED
  5
D2
  9
$SURFTAB1
 70
     6
  9
$SURFTAB2
 70
     6
  9
$SURFTYPE
 70
     6
  9
$SURFU
 70
     6
  9
$SURFV
 70
     6
  9
$UCSBASE
  2

  9
$UCSNAME
  2

  9
$UCSORG
 10
0.0
 20
0.0
 30
0.0
  9
$UCSXDIR
 10
1.0
 20
0.0
 30
0.0
  9
$UCSYDIR
 10
0.0
 20
1.0
 30
0.0
  9
$UCSORTHOREF
  2

  9
$UCSORTHOVIEW
 70
     0
  9
$UCSORGTOP
 10
0.0
 20
0.0
 30
0.0
  9
$UCSORGBOTTOM
 10
0.0
 20
0.0
 30
0.0
  9
$UCSORGLEFT
 10
0.0
 20
0.0
 30
0.0
  9
$UCSORGRIGHT
 10
0.0
 20
0.0
 30
0.0
  9
$UCSORGFRONT
 10
0.0
 20
0.0
 30
0.0
  9
$UCSORGBACK
 10
0.0
 20
0.0
 30
0.0
  9
$PUCSBASE
  2

  9
$PUCSNAME
  2

  9
$PUCSORG
 10
0.0
 20
0.0
 30
0.0
  9
$PUCSXDIR
 10
1.0
 20
0.0
 30
0.0
  9
$PUCSYDIR
 10
0.0
 20
1.0
 30
0.0
  9
$PUCSORTHOREF
  2

  9
$PUCSORTHOVIEW
 70
     0
  9
$PUCSORGTOP
 10
0.0
 20
0.0
 30
0.0
  9
$PUCSORGBOTTOM
 10
0.0
 20
0.0
 30
0.0
  9
$PUCSORGLEFT
 10
0.0
 20
0.0
 30
0.0
  9
$PUCSORGRIGHT
 10
0.0
 20
0.0
 30
0.0
  9
$PUCSORGFRONT
 10
0.0
 20
0.0
 30
0.0
  9
$PUCSORGBACK
 10
0.0
 20
0.0
 30
0.0
  9
$USERI1
 70
     0
  9
$USERI2
 70
     0
  9
$USERI3
 70
     0
  9
$USERI4
 70
     0
  9
$USERI5
 70
     0
  9
$USERR1
 40
0.0
  9
$USERR2
 40
0.0
  9
$USERR3
 40
0.0
  9
$USERR4
 40
0.0
  9
$USERR5
 40
0.0
  9
$WORLDVIEW
 70
     1
  9
$SHADEDGE
 70
     3
  9
$SHADEDIF
 70
    70
  9
$TILEMODE
 70
     1
  9
$MAXACTVP
 70
    64
  9
$PINSBASE
 10
0.0
 20
0.0
 30
0.0
  9
$PLIMCHECK
 70
     0
  9
$PEXTMIN
 10
1.000000000000000E+20
 20
1.000000000000000E+20
 30
1.000000000000000E+20
  9
$PEXTMAX
 10
-1.000000000000000E+20
 20
-1.000000000000000E+20
 30
-1.000000000000000E+20
  9
$PLIMMIN
 10
0.0
 20
0.0
  9
$PLIMMAX
 10
12.0
 20
9.0
  9
$UNITMODE
 70
     0
  9
$VISRETAIN
 70
     1
  9
$PLINEGEN
 70
     0
  9
$PSLTSCALE
 70
     1
  9
$TREEDEPTH
 70
  3020
  9
$CMLSTYLE
  2
Standard
  9
$CMLJUST
 70
     0
  9
$CMLSCALE
 40
1.0
  9
$PROXYGRAPHICS
 70
     1
  9
$MEASUREMENT
 70
     0
  9
$CELWEIGHT
370
    -1
  9
$ENDCAPS
280
     0
  9
$JOINSTYLE
280
     0
  9
$LWDISPLAY
290
     1
  9
$INSUNITS
 70
     1
  9
$HYPERLINKBASE
  1

  9
$STYLESHEET
  1

  9
$XEDIT
290
     1
  9
$CEPSNTYPE
380
     0
  9
$PSTYLEMODE
290
     1
  9
$FINGERPRINTGUID
  2
{C1C9E8E6-8991-9E10-4752-AC80EE7D851B}
  9
$VERSIONGUID
  2
{FAEB1C32-E019-11D5-929B-00C0DF256EC4}
  9
$EXTNAMES
290
     1
  9
$PSVPSCALE
 40
0.0
  9
$OLESTARTUP
290
     0
  9
$SORTENTS
280
   127
  9
$INDEXCTL
280
     0
  9
$HIDETEXT
280
     1
  9
$XCLIPFRAME
280
     2
  9
$HALOGAP
280
     0
  9
$OBSCOLOR
 70
   257
  9
$OBSLTYPE
280
     0
  9
$INTERSECTIONDISPLAY
280
     0
  9
$INTERSECTIONCOLOR
 70
   257
  9
$DIMASSOC
280
     2
  9
$PROJECTNAME
  1

  9
$CAMERADISPLAY
290
     0
  9
$LENSLENGTH
 40
50.0
  9
$CAMERAHEIGHT
 40
0.0
  9
$STEPSPERSEC
 40
2.0
  9
$STEPSIZE
 40
6.0
  9
$3DDWFPREC
 40
2.0
  9
$PSOLWIDTH
 40
0.25
  9
$PSOLHEIGHT
 40
4.0
  9
$LOFTANG1
 40
1.570796326794897
  9
$LOFTANG2
 40
1.570796326794897
  9
$LOFTMAG1
 40
0.0
  9
$LOFTMAG2
 40
0.0
  9
$LOFTPARAM
 70
     7
  9
$LOFTNORMALS
280
     1
  9
$LATITUDE
 40
37.795
  9
$LONGITUDE
 40
-122.394
  9
$NORTHDIRECTION
 40
0.0
  9
$TIMEZONE
 70
 -8000
  9
$LIGHTGLYPHDISPLAY
280
     1
  9
$TILEMODELIGHTSYNCH
280
     1
  9
$CMATERIAL
347
3C
  9
$SOLIDHIST
280
     1
  9
$SHOWHIST
280
     1
  9
$DWFFRAME
280
     2
  9
$DGNFRAME
280
     2
  9
$REALWORLDSCALE
290
     1
  9
$INTERFERECOLOR
 62
   256
  9
$CSHADOW
280
     0
  9
$SHADOWPLANELOCATION
 40
0.0
  0
ENDSEC
  0
SECTION
  2
CLASSES
  0
CLASS
  1
ACDBDICTIONARYWDFLT
  2
AcDbDictionaryWithDefault
  3
ObjectDBX Classes
 90
        0
 91
        4
280
     0
281
     0
  0
CLASS
  1
VISUALSTYLE
  2
AcDbVisualStyle
  3
ObjectDBX Classes
 90
     4095
 91
        4
280
     0
281
     0
  0
CLASS
  1
MATERIAL
  2
AcDbMaterial
  3
ObjectDBX Classes
 90
     1153
 91
        4
280
     0
281
     0
  0
CLASS
  1
SUN
  2
AcDbSun
  3
SCENEOE
 90
     1024
 91
        4
280
     0
281
     0
  0
ENDSEC
  0
SECTION
  2
TABLES
  0
TABLE
  2
VPORT
  5
8
330
0
100
AcDbSymbolTable
 70
     1
  0
VPORT
  5
29
330
8
100
AcDbSymbolTableRecord
100
AcDbViewportTableRecord
  2
*Active
 70
     0
 10
0.0
 20
0.0
 11
1.0
 21
1.0
 12
0.0
 22
0.0
 13
0.0
 23
0.0
 14
0.5
 24
0.5
 15
0.5
 25
0.5
 16
0.0
 26
0.0
 36
1.0
 17
91.00082462281999
 27
-128.4993055234307
 37
0.0
 40
256.9986110468615
 41
0.7081814508812795
 42
50.0
 43
0.0
 44
0.0
 50
0.0
 51
0.0
 71
     0
 72
   100
 73
     1
 74
     3
 75
     0
 76
     0
 77
     0
 78
     0
281
     0
 65
     1
110
0.0
120
0.0
130
0.0
111
1.0
121
0.0
131
0.0
112
0.0
122
1.0
132
0.0
 79
     0
146
0.0
 60
     3
 61
     5
292
     1
282
     1
141
0.0
142
0.0
 63
   250
361
3F
  0
ENDTAB
  0
TABLE
  2
LTYPE
  5
5
330
0
100
AcDbSymbolTable
 70
     3
  0
LTYPE
  5
14
330
5
100
AcDbSymbolTableRecord
100
AcDbLinetypeTableRecord
  2
ByBlock
 70
     0
  3

 72
    65
 73
     0
 40
0.0
  0
LTYPE
  5
15
330
5
100
AcDbSymbolTableRecord
100
AcDbLinetypeTableRecord
  2
ByLayer
 70
     0
  3

 72
    65
 73
     0
 40
0.0
  0
LTYPE
  5
16
330
5
100
AcDbSymbolTableRecord
100
AcDbLinetypeTableRecord
  2
Continuous
 70
     0
  3
Solid line
 72
    65
 73
     0
 40
0.0
  0
LTYPE
  5
54
330
5
100
AcDbSymbolTableRecord
100
AcDbLinetypeTableRecord
  2
AI-Linetype-1
 70
     0
  3
Adobe Illustrator Linetype No. 1
 72
    65
 73
     2
 40
1.411111110758333
 49
0.7055555553791667
 74
     0
 49
-0.7055555553791667
 74
     0
  0
LTYPE
  5
59
330
5
100
AcDbSymbolTableRecord
100
AcDbLinetypeTableRecord
  2
AI-Linetype-2
 70
     0
  3
Adobe Illustrator Linetype No. 2
 72
    65
 73
     2
 40
1.411111110758333
 49
0.7055555553791667
 74
     0
 49
-0.7055555553791667
 74
     0
  0
ENDTAB
  0
TABLE
  2
LAYER
  5
2
330
0
100
AcDbSymbolTable
 70
     2
  0
LAYER
  5
10
330
2
100
AcDbSymbolTableRecord
100
AcDbLayerTableRecord
  2
0
 70
     0
 62
     7
  6
Continuous
370
    -3
390
F
347
3E
  0
LAYER
  5
40
330
2
100
AcDbSymbolTableRecord
100
AcDbLayerTableRecord
  2
_U+30EC_U+30A4_U+30E4_U+30FC 1
 70
     0
 62
     7
  6
Continuous
370
    -3
390
F
347
3E
  0
ENDTAB
  0
TABLE
  2
STYLE
  5
3
330
0
100
AcDbSymbolTable
 70
     1
  0
STYLE
  5
11
330
3
100
AcDbSymbolTableRecord
100
AcDbTextStyleTableRecord
  2
Standard
 70
     0
 40
0.0
 41
1.0
 50
0.0
 71
     0
 42
0.2
  3
txt
  4

  0
ENDTAB
  0
TABLE
  2
VIEW
  5
6
330
0
100
AcDbSymbolTable
 70
     0
  0
ENDTAB
  0
TABLE
  2
UCS
  5
7
330
0
100
AcDbSymbolTable
 70
     0
  0
ENDTAB
  0
TABLE
  2
APPID
  5
9
330
0
100
AcDbSymbolTable
 70
     1
  0
APPID
  5
12
330
9
100
AcDbSymbolTableRecord
100
AcDbRegAppTableRecord
  2
ACAD
 70
     0
  0
ENDTAB
  0
TABLE
  2
DIMSTYLE
  5
A
330
0
100
AcDbSymbolTable
 70
     1
100
AcDbDimStyleTable
  0
DIMSTYLE
105
27
330
A
100
AcDbSymbolTableRecord
100
AcDbDimStyleTableRecord
  2
Standard
 70
     0
178
     0
340
11
  0
ENDTAB
  0
TABLE
  2
BLOCK_RECORD
  5
1
330
0
100
AcDbSymbolTable
 70
     4
  0
BLOCK_RECORD
  5
1F
330
1
100
AcDbSymbolTableRecord
100
AcDbBlockTableRecord
  2
*Model_Space
340
22
 70
     0
280
     1
281
     0
  0
BLOCK_RECORD
  5
1B
330
1
100
AcDbSymbolTableRecord
100
AcDbBlockTableRecord
  2
*Paper_Space
340
1E
 70
     0
280
     1
281
     0
  0
BLOCK_RECORD
  5
23
330
1
100
AcDbSymbolTableRecord
100
AcDbBlockTableRecord
  2
*Paper_Space0
340
26
 70
     0
280
     1
281
     0
  0
BLOCK_RECORD
  5
80
330
1
100
AcDbSymbolTableRecord
100
AcDbBlockTableRecord
  2
block 2
340
0
102
{BLKREFS
331
81
102
}
 70
     0
280
     1
281
     0
  0
BLOCK_RECORD
  5
B4
330
1
100
AcDbSymbolTableRecord
100
AcDbBlockTableRecord
  2
block 3
340
0
102
{BLKREFS
331
B5
102
}
 70
     0
280
     1
281
     0
  0
BLOCK_RECORD
  5
C8
330
1
100
AcDbSymbolTableRecord
100
AcDbBlockTableRecord
  2
block 4
340
0
102
{BLKREFS
331
C9
102
}
 70
     0
280
     1
281
     0
  0
ENDTAB
  0
ENDSEC
  0
SECTION
  2
BLOCKS
  0
BLOCK
  5
20
330
1F
100
AcDbEntity
  8
0
100
AcDbBlockBegin
  2
*Model_Space
 70
     0
 10
0.0
 20
0.0
 30
0.0
  3
*Model_Space
  1

  0
ENDBLK
  5
21
330
1F
100
AcDbEntity
  8
0
100
AcDbBlockEnd
  0
BLOCK
  5
1C
330
1B
100
AcDbEntity
 67
     1
  8
0
100
AcDbBlockBegin
  2
*Paper_Space
 70
     0
 10
0.0
 20
0.0
 30
0.0
  3
*Paper_Space
  1

  0
ENDBLK
  5
1D
330
1B
100
AcDbEntity
 67
     1
  8
0
100
AcDbBlockEnd
  0
BLOCK
  5
24
330
23
100
AcDbEntity
  8
0
100
AcDbBlockBegin
  2
*Paper_Space0
 70
     0
 10
0.0
 20
0.0
 30
0.0
  3
*Paper_Space0
  1

  0
ENDBLK
  5
25
330
23
100
AcDbEntity
  8
0
100
AcDbBlockEnd
  0
BLOCK
  5
82
330
80
100
AcDbEntity
  8
0
100
AcDbBlockBegin
  2
block 2
 70
     0
 10
0.0
 20
0.0
 30
0.0
  3
block 2
  1

  0
SPLINE
  5
84
330
80
100
AcDbEntity
  8
_U+30EC_U+30A4_U+30E4_U+30FC 1
370
     0
100
AcDbSpline
210
0.0
220
0.0
230
1.0
 70
    11
 71
     3
 72
   242
 73
   238
 74
     0
 42
0.0000000001
 43
0.0000000001
 12
1.0
 22
0.0
 32
0.0
 13
1.0
 23
0.0
 33
0.0
 40
0.0
 40
0.0
 40
0.0
 40
0.0
 40
1.0
 40
1.0
 40
1.0
 40
2.0
 40
2.0
 40
2.0
 40
3.0
 40
3.0
 40
3.0
 40
4.0
 40
4.0
 40
4.0
 40
5.0
 40
5.0
 40
5.0
 40
6.0
 40
6.0
 40
6.0
 40
7.0
 40
7.0
 40
7.0
 40
8.0
 40
8.0
 40
8.0
 40
9.0
 40
9.0
 40
9.0
 40
10.0
 40
10.0
 40
10.0
 40
11.0
 40
11.0
 40
11.0
 40
12.0
 40
12.0
 40
12.0
 40
13.0
 40
13.0
 40
13.0
 40
14.0
 40
14.0
 40
14.0
 40
15.0
 40
15.0
 40
15.0
 40
16.0
 40
16.0
 40
16.0
 40
17.0
 40
17.0
 40
17.0
 40
18.0
 40
18.0
 40
18.0
 40
19.0
 40
19.0
 40
19.0
 40
20.0
 40
20.0
 40
20.0
 40
21.0
 40
21.0
 40
21.0
 40
22.0
 40
22.0
 40
22.0
 40
23.0
 40
23.0
 40
23.0
 40
24.0
 40
24.0
 40
24.0
 40
25.0
 40
25.0
 40
25.0
 40
26.0
 40
26.0
 40
26.0
 40
27.0
 40
27.0
 40
27.0
 40
28.0
 40
28.0
 40
28.0
 40
29.0
 40
29.0
 40
29.0
 40
30.0
 40
30.0
 40
30.0
 40
31.0
 40
31.0
 40
31.0
 40
32.0
 40
32.0
 40
32.0
 40
33.0
 40
33.0
 40
33.0
 40
34.0
 40
34.0
 40
34.0
 40
35.0
 40
35.0
 40
35.0
 40
36.0
 40
36.0
 40
36.0
 40
37.0
 40
37.0
 40
37.0
 40
38.0
 40
38.0
 40
38.0
 40
39.0
 40
39.0
 40
39.0
 40
40.0
 40
40.0
 40
40.0
 40
41.0
 40
41.0
 40
41.0
 40
42.0
 40
42.0
 40
42.0
 40
43.0
 40
43.0
 40
43.0
 40
44.0
 40
44.0
 40
44.0
 40
45.0
 40
45.0
 40
45.0
 40
46.0
 40
46.0
 40
46.0
 40
47.0
 40
47.0
 40
47.0
 40
48.0
 40
48.0
 40
48.0
 40
49.0
 40
49.0
 40
49.0
 40
50.0
 40
50.0
 40
50.0
 40
51.0
 40
51.0
 40
51.0
 40
52.0
 40
52.0
 40
52.0
 40
53.0
 40
53.0
 40
53.0
 40
54.0
 40
54.0
 40
54.0
 40
55.0
 40
55.0
 40
55.0
 40
56.0
 40
56.0
 40
56.0
 40
57.0
 40
57.0
 40
57.0
 40
58.0
 40
58.0
 40
58.0
 40
59.0
 40
59.0
 40
59.0
 40
60.0
 40
60.0
 40
60.0
 40
61.0
 40
61.0
 40
61.0
 40
62.0
 40
62.0
 40
62.0
 40
63.0
 40
63.0
 40
63.0
 40
64.0
 40
64.0
 40
64.0
 40
65.0
 40
65.0
 40
65.0
 40
66.0
 40
66.0
 40
66.0
 40
67.0
 40
67.0
 40
67.0
 40
68.0
 40
68.0
 40
68.0
 40
69.0
 40
69.0
 40
69.0
 40
70.0
 40
70.0
 40
70.0
 40
71.0
 40
71.0
 40
71.0
 40
72.0
 40
72.0
 40
72.0
 40
73.0
 40
73.0
 40
73.0
 40
74.0
 40
74.0
 40
74.0
 40
75.0
 40
75.0
 40
75.0
 40
76.0
 40
76.0
 40
76.0
 40
77.0
 40
77.0
 40
77.0
 40
78.0
 40
78.0
 40
78.0
 40
79.0
 40
79.0
 40
79.0
 40
79.0
 10
97.69567326116636
 20
-121.0156968555968
 30
0.0
 10
97.69567326116636
 20
-121.0156968555968
 30
0.0
 10
97.47312009281923
 20
-121.0156968555968
 30
0.0
 10
97.47312009281923
 20
-121.0156968555968
 30
0.0
 10
97.47312009281923
 20
-121.0156968555968
 30
0.0
 10
97.23058537065764
 20
-121.0156968555968
 30
0.0
 10
97.23058537065764
 20
-121.0156968555968
 30
0.0
 10
97.23058537065764
 20
-121.0156968555968
 30
0.0
 10
97.3418619548312
 20
-121.0580715300653
 30
0.0
 10
97.3418619548312
 20
-121.0580715300653
 30
0.0
 10
97.35116371264138
 20
-121.0623778994219
 30
0.0
 10
97.36218801819417
 20
-121.0685790712954
 30
0.0
 10
97.36218801819417
 20
-121.0813259245908
 30
0.0
 10
97.36218801819417
 20
-121.1025132618251
 30
0.0
 10
97.33428274476366
 20
-121.1088866884728
 30
0.0
 10
97.31602373869183
 20
-121.1130208030551
 30
0.0
 10
97.30672198088166
 20
-121.1362751975805
 30
0.0
 10
97.28088376474228
 20
-121.2019042665745
 30
0.0
 10
97.26400279686456
 20
-121.2463459983342
 30
0.0
 10
97.26400279686456
 20
-121.2463459983342
 30
0.0
 10
97.50102536624975
 20
-121.2463459983342
 30
0.0
 10
97.50102536624975
 20
-121.2463459983342
 30
0.0
 10
97.58060707195902
 20
-121.2463459983342
 30
0.0
 10
97.7528618462215
 20
-121.2420396289777
 30
0.0
 10
97.8768852836905
 20
-121.2335991450388
 30
0.0
 10
97.8768852836905
 20
-121.2335991450388
 30
0.0
 10
97.8768852836905
 20
-121.4113660720777
 30
0.0
 10
97.8768852836905
 20
-121.4113660720777
 30
0.0
 10
97.80488278804879
 20
-121.4070597027212
 30
0.0
 10
97.78627927242843
 20
-121.4070597027212
 30
0.0
 10
97.62883840875251
 20
-121.4029255881389
 30
0.0
 10
97.600933135322
 20
-121.5572658658781
 30
0.0
 10
97.56200355633867
 20
-121.6377088454586
 30
0.0
 10
97.52341848690388
 20
-121.7074720290349
 30
0.0
 10
97.62883840875251
 20
-121.7667276713812
 30
0.0
 10
97.72151147730574
 20
-121.8344237976664
 30
0.0
 10
97.81211748856781
 20
-121.9169338345381
 30
0.0
 10
97.81211748856781
 20
-121.9169338345381
 30
0.0
 10
97.70842011446179
 20
-122.0840209655727
 30
0.0
 10
97.70842011446179
 20
-122.0840209655727
 30
0.0
 10
97.68809405109882
 20
-122.0650729404039
 30
0.0
 10
97.67706974554602
 20
-122.056632456465
 30
0.0
 10
97.57888452421639
 20
-121.9718831075279
 30
0.0
 10
97.53616534019929
 20
-121.9338148024159
 30
0.0
 10
97.48448890792055
 20
-121.8979858093693
 30
0.0
 10
97.41386445047293
 20
-121.8535440776095
 30
0.0
 10
97.228862822915
 20
-122.0397514885873
 30
0.0
 10
97.0493733481335
 20
-122.0630058831127
 30
0.0
 10
96.79546981087059
 20
-122.0926337042859
 30
0.0
 10
96.79546981087059
 20
-122.0926337042859
 30
0.0
 10
96.70486379960852
 20
-121.9127997199558
 30
0.0
 10
96.70486379960852
 20
-121.9127997199558
 30
0.0
 10
96.98253849571965
 20
-121.9084933505993
 30
0.0
 10
97.1361897543618
 20
-121.8831718987827
 30
0.0
 10
97.26951494964096
 20
-121.7731010980289
 30
0.0
 10
97.16581757553494
 20
-121.7222859396215
 30
0.0
 10
97.08795841756829
 20
-121.6948974305138
 30
0.0
 10
97.05660804865252
 20
-121.6821505772184
 30
0.0
 10
97.04007159032332
 20
-121.7097113411004
 30
0.0
 10
97.02698022747937
 20
-121.7286593662692
 30
0.0
 10
97.00286455908262
 20
-121.7625935567989
 30
0.0
 10
97.00286455908262
 20
-121.7625935567989
 30
0.0
 10
96.83060978482013
 20
-121.6800835199272
 30
0.0
 10
96.83060978482013
 20
-121.6800835199272
 30
0.0
 10
96.90295679001038
 20
-121.5996405403466
 30
0.0
 10
96.95670027958028
 20
-121.5043836501795
 30
0.0
 10
97.0066541641164
 20
-121.4029255881389
 30
0.0
 10
96.8399115426303
 20
-121.4070597027212
 30
0.0
 10
96.82130802700995
 20
-121.4070597027212
 30
0.0
 10
96.74930553136824
 20
-121.4113660720777
 30
0.0
 10
96.74930553136824
 20
-121.4113660720777
 30
0.0
 10
96.74930553136824
 20
-121.2335991450388
 30
0.0
 10
96.74930553136824
 20
-121.2335991450388
 30
0.0
 10
96.8716064210946
 20
-121.2399725716865
 30
0.0
 10
97.05488550090989
 20
-121.2442789410431
 30
0.0
 10
97.0769341120155
 20
-121.2442789410431
 30
0.0
 10
97.09174802260206
 20
-121.2103447505134
 30
0.0
 10
97.13997935939557
 20
-121.0897664085296
 30
0.0
 10
97.15651581772477
 20
-121.0156968555968
 30
0.0
 10
97.13997935939557
 20
-121.0156968555968
 30
0.0
 10
96.9846055530108
 20
-121.0220702822445
 30
0.0
 10
96.81407332649093
 20
-121.0348171355399
 30
0.0
 10
96.81407332649093
 20
-121.0348171355399
 30
0.0
 10
96.81407332649093
 20
-121.1681423308191
 30
0.0
 10
96.81407332649093
 20
-121.1681423308191
 30
0.0
 10
96.77135414247384
 20
-121.1934637826357
 30
0.0
 10
96.71967771019509
 20
-121.2251586611
 30
0.0
 10
96.60288897324511
 20
-121.290787730094
 30
0.0
 10
96.60288897324511
 20
-121.290787730094
 30
0.0
 10
96.60288897324511
 20
-121.4366875238943
 30
0.0
 10
96.60288897324511
 20
-121.4366875238943
 30
0.0
 10
96.60288897324511
 20
-121.4366875238943
 30
0.0
 10
96.60288897324511
 20
-121.904359236017
 30
0.0
 10
96.60288897324511
 20
-121.904359236017
 30
0.0
 10
96.60288897324511
 20
-122.0311387498742
 30
0.0
 10
96.57153860432935
 20
-122.0903943922205
 30
0.0
 10
96.32349172939135
 20
-122.0819539082816
 30
0.0
 10
96.32349172939135
 20
-122.0819539082816
 30
0.0
 10
96.23254120858076
 20
-121.8747314148438
 30
0.0
 10
96.23254120858076
 20
-121.8747314148438
 30
0.0
 10
96.28800724589328
 20
-121.887306013365
 30
0.0
 10
96.33072642991038
 20
-121.8916123827215
 30
0.0
 10
96.36586640385993
 20
-121.8916123827215
 30
0.0
 10
96.43270125627377
 20
-121.8916123827215
 30
0.0
 10
96.44200301408395
 20
-121.8683579881961
 30
0.0
 10
96.44200301408395
 20
-121.8027289192021
 30
0.0
 10
96.44200301408395
 20
-121.8027289192021
 30
0.0
 10
96.44200301408395
 20
-121.3732977669657
 30
0.0
 10
96.44200301408395
 20
-121.3732977669657
 30
0.0
 10
96.35656464604975
 20
-121.4134331293689
 30
0.0
 10
96.34175073546318
 20
-121.4198065560166
 30
0.0
 10
96.30109860873723
 20
-121.4389268359597
 30
0.0
 10
96.29730900370346
 20
-121.4599419184197
 30
0.0
 10
96.2938639082182
 20
-121.4895697395929
 30
0.0
 10
96.27698294034047
 20
-121.4895697395929
 30
0.0
 10
96.26974823982145
 20
-121.4895697395929
 30
0.0
 10
96.26044648201128
 20
-121.4854356250106
 30
0.0
 10
96.25493432923489
 20
-121.4621812304852
 30
0.0
 10
96.25493432923489
 20
-121.4621812304852
 30
0.0
 10
96.20842554018401
 20
-121.2696003928597
 30
0.0
 10
96.20842554018401
 20
-121.2696003928597
 30
0.0
 10
96.33623858268678
 20
-121.2230916038088
 30
0.0
 10
96.39377167729045
 20
-121.1998372092834
 30
0.0
 10
96.44200301408395
 20
-121.1786498720491
 30
0.0
 10
96.44200301408395
 20
-121.1786498720491
 30
0.0
 10
96.44200301408395
 20
-120.7660996876904
 30
0.0
 10
96.44200301408395
 20
-120.7660996876904
 30
0.0
 10
96.44200301408395
 20
-120.7660996876904
 30
0.0
 10
96.39549422503308
 20
-120.7660996876904
 30
0.0
 10
96.39549422503308
 20
-120.7660996876904
 30
0.0
 10
96.39549422503308
 20
-120.7660996876904
 30
0.0
 10
96.3269368248766
 20
-120.7660996876904
 30
0.0
 10
96.3269368248766
 20
-120.7660996876904
 30
0.0
 10
96.26768118253031
 20
-120.7660996876904
 30
0.0
 10
96.26044648201128
 20
-120.7660996876904
 30
0.0
 10
96.22875160354698
 20
-120.7724731143381
 30
0.0
 10
96.22875160354698
 20
-120.7724731143381
 30
0.0
 10
96.22875160354698
 20
-120.5778252194215
 30
0.0
 10
96.22875160354698
 20
-120.5778252194215
 30
0.0
 10
96.25286727194373
 20
-120.5841986460692
 30
0.0
 10
96.26044648201128
 20
-120.5841986460692
 30
0.0
 10
96.3214246721002
 20
-120.5841986460692
 30
0.0
 10
96.3214246721002
 20
-120.5841986460692
 30
0.0
 10
96.43821340905018
 20
-120.5841986460692
 30
0.0
 10
96.43821340905018
 20
-120.5841986460692
 30
0.0
 10
96.43821340905018
 20
-120.5144354624929
 30
0.0
 10
96.43821340905018
 20
-120.4319254256212
 30
0.0
 10
96.43614635175902
 20
-120.4276190562646
 30
0.0
 10
96.42891165124
 20
-120.2477850719346
 30
0.0
 10
96.42891165124
 20
-120.2288370467657
 30
0.0
 10
96.42718910349737
 20
-120.1823282577148
 30
0.0
 10
96.42718910349737
 20
-120.1823282577148
 30
0.0
 10
96.61598033608907
 20
-120.1907687416537
 30
0.0
 10
96.61598033608907
 20
-120.1907687416537
 30
0.0
 10
96.62528209389924
 20
-120.1907687416537
 30
0.0
 10
96.64354109997106
 20
-120.1928357989449
 30
0.0
 10
96.64354109997106
 20
-120.2097167668226
 30
0.0
 10
96.64354109997106
 20
-120.2288370467657
 30
0.0
 10
96.63079424667563
 20
-120.2393445879957
 30
0.0
 10
96.60840112602152
 20
-120.2584648679389
 30
0.0
 10
96.60840112602152
 20
-120.309107771572
 30
0.0
 10
96.60288897324511
 20
-120.5376898570184
 30
0.0
 10
96.60495603053627
 20
-120.5841986460692
 30
0.0
 10
96.71795516245245
 20
-120.5841986460692
 30
0.0
 10
96.72897946800526
 20
-120.5841986460692
 30
0.0
 10
96.81407332649093
 20
-120.5757581621304
 30
0.0
 10
96.81407332649093
 20
-120.5757581621304
 30
0.0
 10
96.81407332649093
 20
-120.770406057047
 30
0.0
 10
96.81407332649093
 20
-120.770406057047
 30
0.0
 10
96.780655900284
 20
-120.7681667449816
 30
0.0
 10
96.72140025793772
 20
-120.7640326303993
 30
0.0
 10
96.60288897324511
 20
-120.7660996876904
 30
0.0
 10
96.60288897324511
 20
-120.7660996876904
 30
0.0
 10
96.60288897324511
 20
-121.1045803191162
 30
0.0
 10
96.60288897324511
 20
-121.1045803191162
 30
0.0
 10
96.6511203100386
 20
-121.0813259245908
 30
0.0
 10
96.70865340464229
 20
-121.0537651607088
 30
0.0
 10
96.75102807911085
 20
-121.0305107661834
 30
0.0
 10
96.75102807911085
 20
-121.0305107661834
 30
0.0
 10
96.75102807911085
 20
-120.8529160939187
 30
0.0
 10
96.75102807911085
 20
-120.8529160939187
 30
0.0
 10
96.8509358481831
 20
-120.8654906924399
 30
0.0
 10
96.95497773183764
 20
-120.8654906924399
 30
0.0
 10
97.05660804865252
 20
-120.8654906924399
 30
0.0
 10
97.03628198528955
 20
-120.770406057047
 30
0.0
 10
97.0121663168928
 20
-120.6878960201753
 30
0.0
 10
96.95670027958028
 20
-120.5545708248961
 30
0.0
 10
96.91777070059695
 20
-120.5566378821872
 30
0.0
 10
96.84542369540671
 20
-120.5609442515438
 30
0.0
 10
96.81235077874831
 20
-120.5630113088349
 30
0.0
 10
96.81235077874831
 20
-120.5630113088349
 30
0.0
 10
96.81235077874831
 20
-120.3831773245049
 30
0.0
 10
96.81235077874831
 20
-120.3831773245049
 30
0.0
 10
96.92156030563072
 20
-120.3916178084438
 30
0.0
 10
97.07348901653025
 20
-120.3959241778003
 30
0.0
 10
97.14549151217196
 20
-120.3959241778003
 30
0.0
 10
97.14549151217196
 20
-120.3959241778003
 30
0.0
 10
97.21783851736221
 20
-120.3959241778003
 30
0.0
 10
97.21783851736221
 20
-120.3959241778003
 30
0.0
 10
97.21783851736221
 20
-120.232971161348
 30
0.0
 10
97.21783851736221
 20
-120.222463620118
 30
0.0
 10
97.21577146007107
 20
-120.1675143471283
 30
0.0
 10
97.21577146007107
 20
-120.1675143471283
 30
0.0
 10
97.4121419027303
 20
-120.1928357989449
 30
0.0
 10
97.4121419027303
 20
-120.1928357989449
 30
0.0
 10
97.41593150776407
 20
-120.1928357989449
 30
0.0
 10
97.43453502338443
 20
-120.194902856236
 30
0.0
 10
97.43453502338443
 20
-120.2117838241137
 30
0.0
 10
97.43453502338443
 20
-120.2265977347003
 30
0.0
 10
97.42523326557425
 20
-120.2352104734134
 30
0.0
 10
97.4011175971775
 20
-120.250024384
 30
0.0
 10
97.3956054444011
 20
-120.3154811982197
 30
0.0
 10
97.39353838710996
 20
-120.336668535454
 30
0.0
 10
97.39353838710996
 20
-120.3959241778003
 30
0.0
 10
97.39353838710996
 20
-120.3959241778003
 30
0.0
 10
97.476909697853
 20
-120.3959241778003
 30
0.0
 10
97.476909697853
 20
-120.3959241778003
 30
0.0
 10
97.54925670304324
 20
-120.3959241778003
 30
0.0
 10
97.70118541394277
 20
-120.3916178084438
 30
0.0
 10
97.81039494082518
 20
-120.3831773245049
 30
0.0
 10
97.81039494082518
 20
-120.3831773245049
 30
0.0
 10
97.81039494082518
 20
-120.5630113088349
 30
0.0
 10
97.81039494082518
 20
-120.5630113088349
 30
0.0
 10
97.78455672468581
 20
-120.5609442515438
 30
0.0
 10
97.68051484103127
 20
-120.5566378821872
 30
0.0
 10
97.64537486708171
 20
-120.5545708248961
 30
0.0
 10
97.63262801378629
 20
-120.6053859833035
 30
0.0
 10
97.60300019261314
 20
-120.7175238413484
 30
0.0
 10
97.54546709800947
 20
-120.857050208501
 30
0.0
 10
97.58267412925017
 20
-120.857050208501
 30
0.0
 10
97.82520885141176
 20
-120.8381021833321
 30
0.0
 10
97.87895234098166
 20
-120.8358628712667
 30
0.0
 10
97.87895234098166
 20
-120.8358628712667
 30
0.0
 10
97.87895234098166
 20
-121.0200032249533
 30
0.0
 10
97.87895234098166
 20
-121.0200032249533
 30
0.0
 10
97.85276961529375
 20
-121.0200032249533
 30
0.0
 10
97.83795570470718
 20
-121.0156968555968
 30
0.0
 10
97.69567326116636
 20
-121.0156968555968
 30
0.0
  0
SPLINE
  5
85
330
80
100
AcDbEntity
  8
_U+30EC_U+30A4_U+30E4_U+30FC 1
370
     0
100
AcDbSpline
210
0.0
220
0.0
230
1.0
 70
    11
 71
     3
 72
    20
 73
    16
 74
     0
 42
0.0000000001
 43
0.0000000001
 12
1.0
 22
0.0
 32
0.0
 13
1.0
 23
0.0
 33
0.0
 40
0.0
 40
0.0
 40
0.0
 40
0.0
 40
1.0
 40
1.0
 40
1.0
 40
2.0
 40
2.0
 40
2.0
 40
3.0
 40
3.0
 40
3.0
 40
4.0
 40
4.0
 40
4.0
 40
5.0
 40
5.0
 40
5.0
 40
5.0
 10
97.14549151217196
 20
-120.5504367103138
 30
0.0
 10
97.14549151217196
 20
-120.5504367103138
 30
0.0
 10
97.11758623874144
 20
-120.5504367103138
 30
0.0
 10
97.11758623874144
 20
-120.5504367103138
 30
0.0
 10
97.15858287501591
 20
-120.6498277150632
 30
0.0
 10
97.18614363889792
 20
-120.7300984398696
 30
0.0
 10
97.21577146007107
 20
-120.857050208501
 30
0.0
 10
97.21577146007107
 20
-120.857050208501
 30
0.0
 10
97.39732799214373
 20
-120.857050208501
 30
0.0
 10
97.39732799214373
 20
-120.857050208501
 30
0.0
 10
97.42523326557425
 20
-120.7640326303993
 30
0.0
 10
97.44555932893722
 20
-120.6794555362364
 30
0.0
 10
97.4658853923002
 20
-120.5504367103138
 30
0.0
 10
97.4658853923002
 20
-120.5504367103138
 30
0.0
 10
97.14549151217196
 20
-120.5504367103138
 30
0.0
 10
97.14549151217196
 20
-120.5504367103138
 30
0.0
  0
SPLINE
  5
86
330
80
100
AcDbEntity
  8
_U+30EC_U+30A4_U+30E4_U+30FC 1
370
     0
100
AcDbSpline
210
0.0
220
0.0
230
1.0
 70
    11
 71
     3
 72
    17
 73
    13
 74
     0
 42
0.0000000001
 43
0.0000000001
 12
1.0
 22
0.0
 32
0.0
 13
1.0
 23
0.0
 33
0.0
 40
0.0
 40
0.0
 40
0.0
 40
0.0
 40
1.0
 40
1.0
 40
1.0
 40
2.0
 40
2.0
 40
2.0
 40
3.0
 40
3.0
 40
3.0
 40
4.0
 40
4.0
 40
4.0
 40
4.0
 10
97.20095754948449
 20
-121.4008585308477
 30
0.0
 10
97.18614363889792
 20
-121.4303140972466
 30
0.0
 10
97.14170190713818
 20
-121.5235039301226
 30
0.0
 10
97.13274465887655
 20
-121.5424519552915
 30
0.0
 10
97.29914277081411
 20
-121.6017075976378
 30
0.0
 10
97.31774628643446
 20
-121.6080810242855
 30
0.0
 10
97.38079153381453
 20
-121.6356417881675
 30
0.0
 10
97.42902287060802
 20
-121.5488253819392
 30
0.0
 10
97.449348933971
 20
-121.4747558290063
 30
0.0
 10
97.46209578726642
 20
-121.4008585308477
 30
0.0
 10
97.46209578726642
 20
-121.4008585308477
 30
0.0
 10
97.20095754948449
 20
-121.4008585308477
 30
0.0
 10
97.20095754948449
 20
-121.4008585308477
 30
0.0
  0
HATCH
  5
87
330
80
100
AcDbEntity
  8
_U+30EC_U+30A4_U+30E4_U+30FC 1
 62
   179
420
  2234388
100
AcDbHatch
 10
0.0
 20
0.0
 30
0.0
210
0.0
220
0.0
230
1.0
  2
SOLID
 70
     1
 71
     0
 91
        3
 92
        1
 93
        1
 72
     4
 94
        3
 73
     0
 74
     1
 95
      242
 96
      238
 40
0.0
 40
0.0
 40
0.0
 40
0.0
 40
1.0
 40
1.0
 40
1.0
 40
2.0
 40
2.0
 40
2.0
 40
3.0
 40
3.0
 40
3.0
 40
4.0
 40
4.0
 40
4.0
 40
5.0
 40
5.0
 40
5.0
 40
6.0
 40
6.0
 40
6.0
 40
7.0
 40
7.0
 40
7.0
 40
8.0
 40
8.0
 40
8.0
 40
9.0
 40
9.0
 40
9.0
 40
10.0
 40
10.0
 40
10.0
 40
11.0
 40
11.0
 40
11.0
 40
12.0
 40
12.0
 40
12.0
 40
13.0
 40
13.0
 40
13.0
 40
14.0
 40
14.0
 40
14.0
 40
15.0
 40
15.0
 40
15.0
 40
16.0
 40
16.0
 40
16.0
 40
17.0
 40
17.0
 40
17.0
 40
18.0
 40
18.0
 40
18.0
 40
19.0
 40
19.0
 40
19.0
 40
20.0
 40
20.0
 40
20.0
 40
21.0
 40
21.0
 40
21.0
 40
22.0
 40
22.0
 40
22.0
 40
23.0
 40
23.0
 40
23.0
 40
24.0
 40
24.0
 40
24.0
 40
25.0
 40
25.0
 40
25.0
 40
26.0
 40
26.0
 40
26.0
 40
27.0
 40
27.0
 40
27.0
 40
28.0
 40
28.0
 40
28.0
 40
29.0
 40
29.0
 40
29.0
 40
30.0
 40
30.0
 40
30.0
 40
31.0
 40
31.0
 40
31.0
 40
32.0
 40
32.0
 40
32.0
 40
33.0
 40
33.0
 40
33.0
 40
34.0
 40
34.0
 40
34.0
 40
35.0
 40
35.0
 40
35.0
 40
36.0
 40
36.0
 40
36.0
 40
37.0
 40
37.0
 40
37.0
 40
38.0
 40
38.0
 40
38.0
 40
39.0
 40
39.0
 40
39.0
 40
40.0
 40
40.0
 40
40.0
 40
41.0
 40
41.0
 40
41.0
 40
42.0
 40
42.0
 40
42.0
 40
43.0
 40
43.0
 40
43.0
 40
44.0
 40
44.0
 40
44.0
 40
45.0
 40
45.0
 40
45.0
 40
46.0
 40
46.0
 40
46.0
 40
47.0
 40
47.0
 40
47.0
 40
48.0
 40
48.0
 40
48.0
 40
49.0
 40
49.0
 40
49.0
 40
50.0
 40
50.0
 40
50.0
 40
51.0
 40
51.0
 40
51.0
 40
52.0
 40
52.0
 40
52.0
 40
53.0
 40
53.0
 40
53.0
 40
54.0
 40
54.0
 40
54.0
 40
55.0
 40
55.0
 40
55.0
 40
56.0
 40
56.0
 40
56.0
 40
57.0
 40
57.0
 40
57.0
 40
58.0
 40
58.0
 40
58.0
 40
59.0
 40
59.0
 40
59.0
 40
60.0
 40
60.0
 40
60.0
 40
61.0
 40
61.0
 40
61.0
 40
62.0
 40
62.0
 40
62.0
 40
63.0
 40
63.0
 40
63.0
 40
64.0
 40
64.0
 40
64.0
 40
65.0
 40
65.0
 40
65.0
 40
66.0
 40
66.0
 40
66.0
 40
67.0
 40
67.0
 40
67.0
 40
68.0
 40
68.0
 40
68.0
 40
69.0
 40
69.0
 40
69.0
 40
70.0
 40
70.0
 40
70.0
 40
71.0
 40
71.0
 40
71.0
 40
72.0
 40
72.0
 40
72.0
 40
73.0
 40
73.0
 40
73.0
 40
74.0
 40
74.0
 40
74.0
 40
75.0
 40
75.0
 40
75.0
 40
76.0
 40
76.0
 40
76.0
 40
77.0
 40
77.0
 40
77.0
 40
78.0
 40
78.0
 40
78.0
 40
79.0
 40
79.0
 40
79.0
 40
79.0
 10
97.69567326116636
 20
-121.0156968555968
 10
97.69567326116636
 20
-121.0156968555968
 10
97.47312009281923
 20
-121.0156968555968
 10
97.47312009281923
 20
-121.0156968555968
 10
97.47312009281923
 20
-121.0156968555968
 10
97.23058537065764
 20
-121.0156968555968
 10
97.23058537065764
 20
-121.0156968555968
 10
97.23058537065764
 20
-121.0156968555968
 10
97.3418619548312
 20
-121.0580715300653
 10
97.3418619548312
 20
-121.0580715300653
 10
97.35116371264138
 20
-121.0623778994219
 10
97.36218801819417
 20
-121.0685790712954
 10
97.36218801819417
 20
-121.0813259245908
 10
97.36218801819417
 20
-121.1025132618251
 10
97.33428274476366
 20
-121.1088866884728
 10
97.31602373869183
 20
-121.1130208030551
 10
97.30672198088166
 20
-121.1362751975805
 10
97.28088376474228
 20
-121.2019042665745
 10
97.26400279686456
 20
-121.2463459983342
 10
97.26400279686456
 20
-121.2463459983342
 10
97.50102536624975
 20
-121.2463459983342
 10
97.50102536624975
 20
-121.2463459983342
 10
97.58060707195902
 20
-121.2463459983342
 10
97.7528618462215
 20
-121.2420396289777
 10
97.8768852836905
 20
-121.2335991450388
 10
97.8768852836905
 20
-121.2335991450388
 10
97.8768852836905
 20
-121.4113660720777
 10
97.8768852836905
 20
-121.4113660720777
 10
97.80488278804879
 20
-121.4070597027212
 10
97.78627927242843
 20
-121.4070597027212
 10
97.62883840875251
 20
-121.4029255881389
 10
97.600933135322
 20
-121.5572658658781
 10
97.56200355633867
 20
-121.6377088454586
 10
97.52341848690388
 20
-121.7074720290349
 10
97.62883840875251
 20
-121.7667276713812
 10
97.72151147730574
 20
-121.8344237976664
 10
97.81211748856781
 20
-121.9169338345381
 10
97.81211748856781
 20
-121.9169338345381
 10
97.70842011446179
 20
-122.0840209655727
 10
97.70842011446179
 20
-122.0840209655727
 10
97.68809405109882
 20
-122.0650729404039
 10
97.67706974554602
 20
-122.056632456465
 10
97.57888452421639
 20
-121.9718831075279
 10
97.53616534019929
 20
-121.9338148024159
 10
97.48448890792055
 20
-121.8979858093693
 10
97.41386445047293
 20
-121.8535440776095
 10
97.228862822915
 20
-122.0397514885873
 10
97.0493733481335
 20
-122.0630058831127
 10
96.79546981087059
 20
-122.0926337042859
 10
96.79546981087059
 20
-122.0926337042859
 10
96.70486379960852
 20
-121.9127997199558
 10
96.70486379960852
 20
-121.9127997199558
 10
96.98253849571965
 20
-121.9084933505993
 10
97.1361897543618
 20
-121.8831718987827
 10
97.26951494964096
 20
-121.7731010980289
 10
97.16581757553494
 20
-121.7222859396215
 10
97.08795841756829
 20
-121.6948974305138
 10
97.05660804865252
 20
-121.6821505772184
 10
97.04007159032332
 20
-121.7097113411004
 10
97.02698022747937
 20
-121.7286593662692
 10
97.00286455908262
 20
-121.7625935567989
 10
97.00286455908262
 20
-121.7625935567989
 10
96.83060978482013
 20
-121.6800835199272
 10
96.83060978482013
 20
-121.6800835199272
 10
96.90295679001038
 20
-121.5996405403466
 10
96.95670027958028
 20
-121.5043836501795
 10
97.0066541641164
 20
-121.4029255881389
 10
96.8399115426303
 20
-121.4070597027212
 10
96.82130802700995
 20
-121.4070597027212
 10
96.74930553136824
 20
-121.4113660720777
 10
96.74930553136824
 20
-121.4113660720777
 10
96.74930553136824
 20
-121.2335991450388
 10
96.74930553136824
 20
-121.2335991450388
 10
96.8716064210946
 20
-121.2399725716865
 10
97.05488550090989
 20
-121.2442789410431
 10
97.0769341120155
 20
-121.2442789410431
 10
97.09174802260206
 20
-121.2103447505134
 10
97.13997935939557
 20
-121.0897664085296
 10
97.15651581772477
 20
-121.0156968555968
 10
97.13997935939557
 20
-121.0156968555968
 10
96.9846055530108
 20
-121.0220702822445
 10
96.81407332649093
 20
-121.0348171355399
 10
96.81407332649093
 20
-121.0348171355399
 10
96.81407332649093
 20
-121.1681423308191
 10
96.81407332649093
 20
-121.1681423308191
 10
96.77135414247384
 20
-121.1934637826357
 10
96.71967771019509
 20
-121.2251586611
 10
96.60288897324511
 20
-121.290787730094
 10
96.60288897324511
 20
-121.290787730094
 10
96.60288897324511
 20
-121.4366875238943
 10
96.60288897324511
 20
-121.4366875238943
 10
96.60288897324511
 20
-121.4366875238943
 10
96.60288897324511
 20
-121.904359236017
 10
96.60288897324511
 20
-121.904359236017
 10
96.60288897324511
 20
-122.0311387498742
 10
96.57153860432935
 20
-122.0903943922205
 10
96.32349172939135
 20
-122.0819539082816
 10
96.32349172939135
 20
-122.0819539082816
 10
96.23254120858076
 20
-121.8747314148438
 10
96.23254120858076
 20
-121.8747314148438
 10
96.28800724589328
 20
-121.887306013365
 10
96.33072642991038
 20
-121.8916123827215
 10
96.36586640385993
 20
-121.8916123827215
 10
96.43270125627377
 20
-121.8916123827215
 10
96.44200301408395
 20
-121.8683579881961
 10
96.44200301408395
 20
-121.8027289192021
 10
96.44200301408395
 20
-121.8027289192021
 10
96.44200301408395
 20
-121.3732977669657
 10
96.44200301408395
 20
-121.3732977669657
 10
96.35656464604975
 20
-121.4134331293689
 10
96.34175073546318
 20
-121.4198065560166
 10
96.30109860873723
 20
-121.4389268359597
 10
96.29730900370346
 20
-121.4599419184197
 10
96.2938639082182
 20
-121.4895697395929
 10
96.27698294034047
 20
-121.4895697395929
 10
96.26974823982145
 20
-121.4895697395929
 10
96.26044648201128
 20
-121.4854356250106
 10
96.25493432923489
 20
-121.4621812304852
 10
96.25493432923489
 20
-121.4621812304852
 10
96.20842554018401
 20
-121.2696003928597
 10
96.20842554018401
 20
-121.2696003928597
 10
96.33623858268678
 20
-121.2230916038088
 10
96.39377167729045
 20
-121.1998372092834
 10
96.44200301408395
 20
-121.1786498720491
 10
96.44200301408395
 20
-121.1786498720491
 10
96.44200301408395
 20
-120.7660996876904
 10
96.44200301408395
 20
-120.7660996876904
 10
96.44200301408395
 20
-120.7660996876904
 10
96.39549422503308
 20
-120.7660996876904
 10
96.39549422503308
 20
-120.7660996876904
 10
96.39549422503308
 20
-120.7660996876904
 10
96.3269368248766
 20
-120.7660996876904
 10
96.3269368248766
 20
-120.7660996876904
 10
96.26768118253031
 20
-120.7660996876904
 10
96.26044648201128
 20
-120.7660996876904
 10
96.22875160354698
 20
-120.7724731143381
 10
96.22875160354698
 20
-120.7724731143381
 10
96.22875160354698
 20
-120.5778252194215
 10
96.22875160354698
 20
-120.5778252194215
 10
96.25286727194373
 20
-120.5841986460692
 10
96.26044648201128
 20
-120.5841986460692
 10
96.3214246721002
 20
-120.5841986460692
 10
96.3214246721002
 20
-120.5841986460692
 10
96.43821340905018
 20
-120.5841986460692
 10
96.43821340905018
 20
-120.5841986460692
 10
96.43821340905018
 20
-120.5144354624929
 10
96.43821340905018
 20
-120.4319254256212
 10
96.43614635175902
 20
-120.4276190562646
 10
96.42891165124
 20
-120.2477850719346
 10
96.42891165124
 20
-120.2288370467657
 10
96.42718910349737
 20
-120.1823282577148
 10
96.42718910349737
 20
-120.1823282577148
 10
96.61598033608907
 20
-120.1907687416537
 10
96.61598033608907
 20
-120.1907687416537
 10
96.62528209389924
 20
-120.1907687416537
 10
96.64354109997106
 20
-120.1928357989449
 10
96.64354109997106
 20
-120.2097167668226
 10
96.64354109997106
 20
-120.2288370467657
 10
96.63079424667563
 20
-120.2393445879957
 10
96.60840112602152
 20
-120.2584648679389
 10
96.60840112602152
 20
-120.309107771572
 10
96.60288897324511
 20
-120.5376898570184
 10
96.60495603053627
 20
-120.5841986460692
 10
96.71795516245245
 20
-120.5841986460692
 10
96.72897946800526
 20
-120.5841986460692
 10
96.81407332649093
 20
-120.5757581621304
 10
96.81407332649093
 20
-120.5757581621304
 10
96.81407332649093
 20
-120.770406057047
 10
96.81407332649093
 20
-120.770406057047
 10
96.780655900284
 20
-120.7681667449816
 10
96.72140025793772
 20
-120.7640326303993
 10
96.60288897324511
 20
-120.7660996876904
 10
96.60288897324511
 20
-120.7660996876904
 10
96.60288897324511
 20
-121.1045803191162
 10
96.60288897324511
 20
-121.1045803191162
 10
96.6511203100386
 20
-121.0813259245908
 10
96.70865340464229
 20
-121.0537651607088
 10
96.75102807911085
 20
-121.0305107661834
 10
96.75102807911085
 20
-121.0305107661834
 10
96.75102807911085
 20
-120.8529160939187
 10
96.75102807911085
 20
-120.8529160939187
 10
96.8509358481831
 20
-120.8654906924399
 10
96.95497773183764
 20
-120.8654906924399
 10
97.05660804865252
 20
-120.8654906924399
 10
97.03628198528955
 20
-120.770406057047
 10
97.0121663168928
 20
-120.6878960201753
 10
96.95670027958028
 20
-120.5545708248961
 10
96.91777070059695
 20
-120.5566378821872
 10
96.84542369540671
 20
-120.5609442515438
 10
96.81235077874831
 20
-120.5630113088349
 10
96.81235077874831
 20
-120.5630113088349
 10
96.81235077874831
 20
-120.3831773245049
 10
96.81235077874831
 20
-120.3831773245049
 10
96.92156030563072
 20
-120.3916178084438
 10
97.07348901653025
 20
-120.3959241778003
 10
97.14549151217196
 20
-120.3959241778003
 10
97.14549151217196
 20
-120.3959241778003
 10
97.21783851736221
 20
-120.3959241778003
 10
97.21783851736221
 20
-120.3959241778003
 10
97.21783851736221
 20
-120.232971161348
 10
97.21783851736221
 20
-120.222463620118
 10
97.21577146007107
 20
-120.1675143471283
 10
97.21577146007107
 20
-120.1675143471283
 10
97.4121419027303
 20
-120.1928357989449
 10
97.4121419027303
 20
-120.1928357989449
 10
97.41593150776407
 20
-120.1928357989449
 10
97.43453502338443
 20
-120.194902856236
 10
97.43453502338443
 20
-120.2117838241137
 10
97.43453502338443
 20
-120.2265977347003
 10
97.42523326557425
 20
-120.2352104734134
 10
97.4011175971775
 20
-120.250024384
 10
97.3956054444011
 20
-120.3154811982197
 10
97.39353838710996
 20
-120.336668535454
 10
97.39353838710996
 20
-120.3959241778003
 10
97.39353838710996
 20
-120.3959241778003
 10
97.476909697853
 20
-120.3959241778003
 10
97.476909697853
 20
-120.3959241778003
 10
97.54925670304324
 20
-120.3959241778003
 10
97.70118541394277
 20
-120.3916178084438
 10
97.81039494082518
 20
-120.3831773245049
 10
97.81039494082518
 20
-120.3831773245049
 10
97.81039494082518
 20
-120.5630113088349
 10
97.81039494082518
 20
-120.5630113088349
 10
97.78455672468581
 20
-120.5609442515438
 10
97.68051484103127
 20
-120.5566378821872
 10
97.64537486708171
 20
-120.5545708248961
 10
97.63262801378629
 20
-120.6053859833035
 10
97.60300019261314
 20
-120.7175238413484
 10
97.54546709800947
 20
-120.857050208501
 10
97.58267412925017
 20
-120.857050208501
 10
97.82520885141176
 20
-120.8381021833321
 10
97.87895234098166
 20
-120.8358628712667
 10
97.87895234098166
 20
-120.8358628712667
 10
97.87895234098166
 20
-121.0200032249533
 10
97.87895234098166
 20
-121.0200032249533
 10
97.85276961529375
 20
-121.0200032249533
 10
97.83795570470718
 20
-121.0156968555968
 10
97.69567326116636
 20
-121.0156968555968
 97
        0
 97
        0
 92
        1
 93
        1
 72
     4
 94
        3
 73
     0
 74
     1
 95
       20
 96
       16
 40
0.0
 40
0.0
 40
0.0
 40
0.0
 40
1.0
 40
1.0
 40
1.0
 40
2.0
 40
2.0
 40
2.0
 40
3.0
 40
3.0
 40
3.0
 40
4.0
 40
4.0
 40
4.0
 40
5.0
 40
5.0
 40
5.0
 40
5.0
 10
97.14549151217196
 20
-120.5504367103138
 10
97.14549151217196
 20
-120.5504367103138
 10
97.11758623874144
 20
-120.5504367103138
 10
97.11758623874144
 20
-120.5504367103138
 10
97.15858287501591
 20
-120.6498277150632
 10
97.18614363889792
 20
-120.7300984398696
 10
97.21577146007107
 20
-120.857050208501
 10
97.21577146007107
 20
-120.857050208501
 10
97.39732799214373
 20
-120.857050208501
 10
97.39732799214373
 20
-120.857050208501
 10
97.42523326557425
 20
-120.7640326303993
 10
97.44555932893722
 20
-120.6794555362364
 10
97.4658853923002
 20
-120.5504367103138
 10
97.4658853923002
 20
-120.5504367103138
 10
97.14549151217196
 20
-120.5504367103138
 10
97.14549151217196
 20
-120.5504367103138
 97
        0
 97
        0
 92
        1
 93
        1
 72
     4
 94
        3
 73
     0
 74
     1
 95
       17
 96
       13
 40
0.0
 40
0.0
 40
0.0
 40
0.0
 40
1.0
 40
1.0
 40
1.0
 40
2.0
 40
2.0
 40
2.0
 40
3.0
 40
3.0
 40
3.0
 40
4.0
 40
4.0
 40
4.0
 40
4.0
 10
97.20095754948449
 20
-121.4008585308477
 10
97.18614363889792
 20
-121.4303140972466
 10
97.14170190713818
 20
-121.5235039301226
 10
97.13274465887655
 20
-121.5424519552915
 10
97.29914277081411
 20
-121.6017075976378
 10
97.31774628643446
 20
-121.6080810242855
 10
97.38079153381453
 20
-121.6356417881675
 10
97.42902287060802
 20
-121.5488253819392
 10
97.449348933971
 20
-121.4747558290063
 10
97.46209578726642
 20
-121.4008585308477
 10
97.46209578726642
 20
-121.4008585308477
 10
97.20095754948449
 20
-121.4008585308477
 10
97.20095754948449
 20
-121.4008585308477
 97
        0
 97
        0
 75
     2
 76
     1
 98
        0
  0
SPLINE
  5
88
330
80
100
AcDbEntity
  8
_U+30EC_U+30A4_U+30E4_U+30FC 1
370
     0
100
AcDbSpline
210
0.0
220
0.0
230
1.0
 70
    11
 71
     3
 72
   203
 73
   199
 74
     0
 42
0.0000000001
 43
0.0000000001
 12
1.0
 22
0.0
 32
0.0
 13
1.0
 23
0.0
 33
0.0
 40
0.0
 40
0.0
 40
0.0
 40
0.0
 40
1.0
 40
1.0
 40
1.0
 40
2.0
 40
2.0
 40
2.0
 40
3.0
 40
3.0
 40
3.0
 40
4.0
 40
4.0
 40
4.0
 40
5.0
 40
5.0
 40
5.0
 40
6.0
 40
6.0
 40
6.0
 40
7.0
 40
7.0
 40
7.0
 40
8.0
 40
8.0
 40
8.0
 40
9.0
 40
9.0
 40
9.0
 40
10.0
 40
10.0
 40
10.0
 40
11.0
 40
11.0
 40
11.0
 40
12.0
 40
12.0
 40
12.0
 40
13.0
 40
13.0
 40
13.0
 40
14.0
 40
14.0
 40
14.0
 40
15.0
 40
15.0
 40
15.0
 40
16.0
 40
16.0
 40
16.0
 40
17.0
 40
17.0
 40
17.0
 40
18.0
 40
18.0
 40
18.0
 40
19.0
 40
19.0
 40
19.0
 40
20.0
 40
20.0
 40
20.0
 40
21.0
 40
21.0
 40
21.0
 40
22.0
 40
22.0
 40
22.0
 40
23.0
 40
23.0
 40
23.0
 40
24.0
 40
24.0
 40
24.0
 40
25.0
 40
25.0
 40
25.0
 40
26.0
 40
26.0
 40
26.0
 40
27.0
 40
27.0
 40
27.0
 40
28.0
 40
28.0
 40
28.0
 40
29.0
 40
29.0
 40
29.0
 40
30.0
 40
30.0
 40
30.0
 40
31.0
 40
31.0
 40
31.0
 40
32.0
 40
32.0
 40
32.0
 40
33.0
 40
33.0
 40
33.0
 40
34.0
 40
34.0
 40
34.0
 40
35.0
 40
35.0
 40
35.0
 40
36.0
 40
36.0
 40
36.0
 40
37.0
 40
37.0
 40
37.0
 40
38.0
 40
38.0
 40
38.0
 40
39.0
 40
39.0
 40
39.0
 40
40.0
 40
40.0
 40
40.0
 40
41.0
 40
41.0
 40
41.0
 40
42.0
 40
42.0
 40
42.0
 40
43.0
 40
43.0
 40
43.0
 40
44.0
 40
44.0
 40
44.0
 40
45.0
 40
45.0
 40
45.0
 40
46.0
 40
46.0
 40
46.0
 40
47.0
 40
47.0
 40
47.0
 40
48.0
 40
48.0
 40
48.0
 40
49.0
 40
49.0
 40
49.0
 40
50.0
 40
50.0
 40
50.0
 40
51.0
 40
51.0
 40
51.0
 40
52.0
 40
52.0
 40
52.0
 40
53.0
 40
53.0
 40
53.0
 40
54.0
 40
54.0
 40
54.0
 40
55.0
 40
55.0
 40
55.0
 40
56.0
 40
56.0
 40
56.0
 40
57.0
 40
57.0
 40
57.0
 40
58.0
 40
58.0
 40
58.0
 40
59.0
 40
59.0
 40
59.0
 40
60.0
 40
60.0
 40
60.0
 40
61.0
 40
61.0
 40
61.0
 40
62.0
 40
62.0
 40
62.0
 40
63.0
 40
63.0
 40
63.0
 40
64.0
 40
64.0
 40
64.0
 40
65.0
 40
65.0
 40
65.0
 40
66.0
 40
66.0
 40
66.0
 40
66.0
 10
99.17740882937233
 20
-121.0833929818819
 30
0.0
 10
99.17740882937233
 20
-121.0833929818819
 30
0.0
 10
98.68854978001536
 20
-121.0833929818819
 30
0.0
 10
98.68854978001536
 20
-121.0833929818819
 30
0.0
 10
98.67924802220519
 20
-121.1278347136417
 30
0.0
 10
98.67201332168617
 20
-121.159529592106
 30
0.0
 10
98.66098901613337
 20
-121.1977701519922
 30
0.0
 10
98.68303762723897
 20
-121.1977701519922
 30
0.0
 10
98.69612899008291
 20
-121.1998372092834
 30
0.0
 10
98.70164114285932
 20
-121.1998372092834
 30
0.0
 10
98.70164114285932
 20
-121.1998372092834
 30
0.0
 10
98.86631670705425
 20
-121.1998372092834
 30
0.0
 10
98.86631670705425
 20
-121.1998372092834
 30
0.0
 10
98.86631670705425
 20
-121.1998372092834
 30
0.0
 10
99.19428979725004
 20
-121.1998372092834
 30
0.0
 10
99.19428979725004
 20
-121.1998372092834
 30
0.0
 10
99.23838701946124
 20
-121.1998372092834
 30
0.0
 10
99.48677840394775
 20
-121.187090355988
 30
0.0
 10
99.51433916782975
 20
-121.187090355988
 30
0.0
 10
99.51261662008713
 20
-121.21465111987
 30
0.0
 10
99.5108940723445
 20
-121.2335991450388
 30
0.0
 10
99.5108940723445
 20
-121.263226966212
 30
0.0
 10
99.50882701505336
 20
-121.2949218446763
 30
0.0
 10
99.50882701505336
 20
-121.4303140972466
 30
0.0
 10
99.50882701505336
 20
-121.4578748611286
 30
0.0
 10
99.50882701505336
 20
-121.4578748611286
 30
0.0
 10
99.50882701505336
 20
-121.7033379144526
 30
0.0
 10
99.50882701505336
 20
-121.7033379144526
 30
0.0
 10
99.50882701505336
 20
-121.7477796462124
 30
0.0
 10
99.51261662008713
 20
-121.9444945984201
 30
0.0
 10
99.5164062251209
 20
-122.0967678188682
 30
0.0
 10
99.5164062251209
 20
-122.0967678188682
 30
0.0
 10
99.31831323471904
 20
-122.0967678188682
 30
0.0
 10
99.31831323471904
 20
-122.0967678188682
 30
0.0
 10
99.31831323471904
 20
-122.0967678188682
 30
0.0
 10
99.32003578246166
 20
-122.0630058831127
 30
0.0
 10
99.32003578246166
 20
-122.0630058831127
 30
0.0
 10
99.32003578246166
 20
-122.0630058831127
 30
0.0
 10
98.70508623834456
 20
-122.0630058831127
 30
0.0
 10
98.70508623834456
 20
-122.0630058831127
 30
0.0
 10
98.70508623834456
 20
-122.0630058831127
 30
0.0
 10
98.70715329563572
 20
-122.0967678188682
 30
0.0
 10
98.70715329563572
 20
-122.0967678188682
 30
0.0
 10
98.70715329563572
 20
-122.0967678188682
 30
0.0
 10
98.51629500575288
 20
-122.0967678188682
 30
0.0
 10
98.51629500575288
 20
-122.0967678188682
 30
0.0
 10
98.52008461078665
 20
-122.0418185458784
 30
0.0
 10
98.52008461078665
 20
-122.029071692583
 30
0.0
 10
98.52559676356304
 20
-121.914866777247
 30
0.0
 10
98.52731931130567
 20
-121.887306013365
 30
0.0
 10
98.52938636859682
 20
-121.7541530728601
 30
0.0
 10
98.52938636859682
 20
-121.7350327929169
 30
0.0
 10
98.52938636859682
 20
-121.7350327929169
 30
0.0
 10
98.52938636859682
 20
-121.5319444140615
 30
0.0
 10
98.52938636859682
 20
-121.5319444140615
 30
0.0
 10
98.40708547887046
 20
-121.7815415819678
 30
0.0
 10
98.25894637300472
 20
-121.9127997199558
 30
0.0
 10
98.1662733044515
 20
-121.9782565341756
 30
0.0
 10
98.1662733044515
 20
-121.9782565341756
 30
0.0
 10
98.0146891031005
 20
-121.838730167023
 30
0.0
 10
98.0146891031005
 20
-121.838730167023
 30
0.0
 10
98.09220375151862
 20
-121.7879150086155
 30
0.0
 10
98.21829424627876
 20
-121.7010986023872
 30
0.0
 10
98.33852807871398
 20
-121.5066229622449
 30
0.0
 10
98.41810978442325
 20
-121.3796711936134
 30
0.0
 10
98.47564287902692
 20
-121.2358384571042
 30
0.0
 10
98.50527070020007
 20
-121.0833929818819
 30
0.0
 10
98.30545516205558
 20
-121.0856322939473
 30
0.0
 10
98.14801429837966
 20
-121.0920057205951
 30
0.0
 10
98.06464298763662
 20
-121.0940727778862
 30
0.0
 10
98.06464298763662
 20
-121.0940727778862
 30
0.0
 10
98.06464298763662
 20
-120.9163058508473
 30
0.0
 10
98.06464298763662
 20
-120.9163058508473
 30
0.0
 10
98.23689776189912
 20
-120.922679277495
 30
0.0
 10
98.4849446368371
 20
-120.9269856468516
 30
0.0
 10
98.61620277482513
 20
-120.9269856468516
 30
0.0
 10
98.61620277482513
 20
-120.9269856468516
 30
0.0
 10
98.80327145967419
 20
-120.9269856468516
 30
0.0
 10
98.80327145967419
 20
-120.9269856468516
 30
0.0
 10
98.80327145967419
 20
-120.9269856468516
 30
0.0
 10
98.80327145967419
 20
-120.818981903389
 30
0.0
 10
98.80327145967419
 20
-120.818981903389
 30
0.0
 10
98.80327145967419
 20
-120.818981903389
 30
0.0
 10
98.67545841717141
 20
-120.818981903389
 30
0.0
 10
98.67545841717141
 20
-120.818981903389
 30
0.0
 10
98.52731931130567
 20
-120.818981903389
 30
0.0
 10
98.37918020543994
 20
-120.8232882727456
 30
0.0
 10
98.23310815686534
 20
-120.8296616993933
 30
0.0
 10
98.23310815686534
 20
-120.8296616993933
 30
0.0
 10
98.23310815686534
 20
-120.6582681990021
 30
0.0
 10
98.23310815686534
 20
-120.6582681990021
 30
0.0
 10
98.36815589988713
 20
-120.6687757402321
 30
0.0
 10
98.53110891633945
 20
-120.6687757402321
 30
0.0
 10
98.67545841717141
 20
-120.6687757402321
 30
0.0
 10
98.67545841717141
 20
-120.6687757402321
 30
0.0
 10
98.80327145967419
 20
-120.6687757402321
 30
0.0
 10
98.80327145967419
 20
-120.6687757402321
 30
0.0
 10
98.80327145967419
 20
-120.6687757402321
 30
0.0
 10
98.80327145967419
 20
-120.5504367103138
 30
0.0
 10
98.80327145967419
 20
-120.5504367103138
 30
0.0
 10
98.80327145967419
 20
-120.5504367103138
 30
0.0
 10
98.68854978001536
 20
-120.5504367103138
 30
0.0
 10
98.68854978001536
 20
-120.5504367103138
 30
0.0
 10
98.64789765328942
 20
-120.5504367103138
 30
0.0
 10
98.47013072625053
 20
-120.5588771942526
 30
0.0
 10
98.43292369500983
 20
-120.5588771942526
 30
0.0
 10
98.25515676797093
 20
-120.5630113088349
 30
0.0
 10
98.18866642510561
 20
-120.5650783661261
 30
0.0
 10
98.12010902494914
 20
-120.5673176781915
 30
0.0
 10
98.12010902494914
 20
-120.5673176781915
 30
0.0
 10
98.12010902494914
 20
-120.3831773245049
 30
0.0
 10
98.12010902494914
 20
-120.3831773245049
 30
0.0
 10
98.22001679402139
 20
-120.3916178084438
 30
0.0
 10
98.25894637300472
 20
-120.3916178084438
 30
0.0
 10
98.59415416371952
 20
-120.4002305471569
 30
0.0
 10
98.538688126407
 20
-120.3049736569897
 30
0.0
 10
98.51457245801025
 20
-120.2774128931077
 30
0.0
 10
98.48322208909448
 20
-120.2414116452869
 30
0.0
 10
98.48322208909448
 20
-120.2414116452869
 30
0.0
 10
98.63687334773662
 20
-120.1589016084151
 30
0.0
 10
98.63687334773662
 20
-120.1589016084151
 30
0.0
 10
98.67201332168617
 20
-120.194902856236
 30
0.0
 10
98.7109429006695
 20
-120.2372775307046
 30
0.0
 10
98.77571069579218
 20
-120.3471760766841
 30
0.0
 10
98.77571069579218
 20
-120.3471760766841
 30
0.0
 10
98.67545841717141
 20
-120.402297604448
 30
0.0
 10
98.67545841717141
 20
-120.402297604448
 30
0.0
 10
98.67545841717141
 20
-120.402297604448
 30
0.0
 10
98.68476017498159
 20
-120.402297604448
 30
0.0
 10
98.68476017498159
 20
-120.402297604448
 30
0.0
 10
98.68476017498159
 20
-120.402297604448
 30
0.0
 10
99.14226885542277
 20
-120.402297604448
 30
0.0
 10
99.14226885542277
 20
-120.402297604448
 30
0.0
 10
99.14226885542277
 20
-120.402297604448
 30
0.0
 10
99.05889754467972
 20
-120.3578558726883
 30
0.0
 10
99.05889754467972
 20
-120.3578558726883
 30
0.0
 10
99.08301321307647
 20
-120.3197875675763
 30
0.0
 10
99.13296709761259
 20
-120.2393445879957
 30
0.0
 10
99.14605846045654
 20
-120.1652750350628
 30
0.0
 10
99.14605846045654
 20
-120.1652750350628
 30
0.0
 10
99.33312714530561
 20
-120.2288370467657
 30
0.0
 10
99.33312714530561
 20
-120.2288370467657
 30
0.0
 10
99.34036184582463
 20
-120.2309041040569
 30
0.0
 10
99.35896536144499
 20
-120.2414116452869
 30
0.0
 10
99.35896536144499
 20
-120.2625989825212
 30
0.0
 10
99.35896536144499
 20
-120.3006672876332
 30
0.0
 10
99.30143226684132
 20
-120.3006672876332
 30
0.0
 10
99.28489580851212
 20
-120.3006672876332
 30
0.0
 10
99.27559405070194
 20
-120.3197875675763
 30
0.0
 10
99.25526798733897
 20
-120.3599229299795
 30
0.0
 10
99.22942977119959
 20
-120.4002305471569
 30
0.0
 10
99.57945147250098
 20
-120.3938571205092
 30
0.0
 10
99.60528968864035
 20
-120.3916178084438
 30
0.0
 10
99.67178003150568
 20
-120.3854166365703
 30
0.0
 10
99.67178003150568
 20
-120.3854166365703
 30
0.0
 10
99.67178003150568
 20
-120.5673176781915
 30
0.0
 10
99.67178003150568
 20
-120.5673176781915
 30
0.0
 10
99.65524357317648
 20
-120.5673176781915
 30
0.0
 10
99.63285045252235
 20
-120.5650783661261
 30
0.0
 10
99.44026961489688
 20
-120.5566378821872
 30
0.0
 10
99.39582788313716
 20
-120.5545708248961
 30
0.0
 10
99.20324704551169
 20
-120.5504367103138
 30
0.0
 10
99.1646619760769
 20
-120.5504367103138
 30
0.0
 10
99.1646619760769
 20
-120.5504367103138
 30
0.0
 10
98.97552623393668
 20
-120.5504367103138
 30
0.0
 10
98.97552623393668
 20
-120.5504367103138
 30
0.0
 10
98.97552623393668
 20
-120.5504367103138
 30
0.0
 10
98.97552623393668
 20
-120.6687757402321
 30
0.0
 10
98.97552623393668
 20
-120.6687757402321
 30
0.0
 10
98.97552623393668
 20
-120.6687757402321
 30
0.0
 10
99.1274549448362
 20
-120.6687757402321
 30
0.0
 10
99.1274549448362
 20
-120.6687757402321
 30
0.0
 10
99.27008189792554
 20
-120.6687757402321
 30
0.0
 10
99.43682451941163
 20
-120.6687757402321
 30
0.0
 10
99.57359481017605
 20
-120.6582681990021
 30
0.0
 10
99.57359481017605
 20
-120.6582681990021
 30
0.0
 10
99.57359481017605
 20
-120.8296616993933
 30
0.0
 10
99.57359481017605
 20
-120.8296616993933
 30
0.0
 10
99.39031573036075
 20
-120.8212212154544
 30
0.0
 10
99.21806095609827
 20
-120.818981903389
 30
0.0
 10
99.1274549448362
 20
-120.818981903389
 30
0.0
 10
99.1274549448362
 20
-120.818981903389
 30
0.0
 10
98.97552623393668
 20
-120.818981903389
 30
0.0
 10
98.97552623393668
 20
-120.818981903389
 30
0.0
 10
98.97552623393668
 20
-120.818981903389
 30
0.0
 10
98.97552623393668
 20
-120.9269856468516
 30
0.0
 10
98.97552623393668
 20
-120.9269856468516
 30
0.0
 10
98.97552623393668
 20
-120.9269856468516
 30
0.0
 10
99.17740882937233
 20
-120.9269856468516
 30
0.0
 10
99.17740882937233
 20
-120.9269856468516
 30
0.0
 10
99.29419756632228
 20
-120.9269856468516
 30
0.0
 10
99.54603404629405
 20
-120.922679277495
 30
0.0
 10
99.72931312610935
 20
-120.9163058508473
 30
0.0
 10
99.72931312610935
 20
-120.9163058508473
 30
0.0
 10
99.72931312610935
 20
-121.0940727778862
 30
0.0
 10
99.72931312610935
 20
-121.0940727778862
 30
0.0
 10
99.56084795688062
 20
-121.0876993512385
 30
0.0
 10
99.28661835625473
 20
-121.0833929818819
 30
0.0
 10
99.17740882937233
 20
-121.0833929818819
 30
0.0
  0
POLYLINE
  5
89
330
80
100
AcDbEntity
  8
_U+30EC_U+30A4_U+30E4_U+30FC 1
370
     0
100
AcDb2dPolyline
 66
     1
 10
0.0
 20
0.0
 30
0.0
  0
VERTEX
  5
8A
330
89
100
AcDbEntity
  8
_U+30EC_U+30A4_U+30E4_U+30FC 1
370
     0
100
AcDbVertex
100
AcDb2dVertex
 10
99.32175833020429
 20
-121.339363576436
 30
0.0
  0
VERTEX
  5
8B
330
89
100
AcDbEntity
  8
_U+30EC_U+30A4_U+30E4_U+30FC 1
370
     0
100
AcDbVertex
100
AcDb2dVertex
 10
98.70336369060195
 20
-121.339363576436
 30
0.0
  0
VERTEX
  5
8C
330
89
100
AcDbEntity
  8
_U+30EC_U+30A4_U+30E4_U+30FC 1
370
     0
100
AcDbVertex
100
AcDb2dVertex
 10
98.70336369060195
 20
-121.4473673198986
 30
0.0
  0
VERTEX
  5
8D
330
89
100
AcDbEntity
  8
_U+30EC_U+30A4_U+30E4_U+30FC 1
370
     0
100
AcDbVertex
100
AcDb2dVertex
 10
99.32175833020429
 20
-121.4473673198986
 30
0.0
  0
VERTEX
  5
8E
330
89
100
AcDbEntity
  8
_U+30EC_U+30A4_U+30E4_U+30FC 1
370
     0
100
AcDbVertex
100
AcDb2dVertex
 10
99.32175833020429
 20
-121.339363576436
 30
0.0
  0
SEQEND
  5
8F
330
89
100
AcDbEntity
  8
_U+30EC_U+30A4_U+30E4_U+30FC 1
370
     0
  0
POLYLINE
  5
90
330
80
100
AcDbEntity
  8
_U+30EC_U+30A4_U+30E4_U+30FC 1
370
     0
100
AcDb2dPolyline
 66
     1
 10
0.0
 20
0.0
 30
0.0
  0
VERTEX
  5
91
330
90
100
AcDbEntity
  8
_U+30EC_U+30A4_U+30E4_U+30FC 1
370
     0
100
AcDbVertex
100
AcDb2dVertex
 10
99.32175833020429
 20
-121.5720797764646
 30
0.0
  0
VERTEX
  5
92
330
90
100
AcDbEntity
  8
_U+30EC_U+30A4_U+30E4_U+30FC 1
370
     0
100
AcDbVertex
100
AcDb2dVertex
 10
98.70336369060195
 20
-121.5720797764646
 30
0.0
  0
VERTEX
  5
93
330
90
100
AcDbEntity
  8
_U+30EC_U+30A4_U+30E4_U+30FC 1
370
     0
100
AcDbVertex
100
AcDb2dVertex
 10
98.70336369060195
 20
-121.6864569465749
 30
0.0
  0
VERTEX
  5
94
330
90
100
AcDbEntity
  8
_U+30EC_U+30A4_U+30E4_U+30FC 1
370
     0
100
AcDbVertex
100
AcDb2dVertex
 10
99.32175833020429
 20
-121.6864569465749
 30
0.0
  0
VERTEX
  5
95
330
90
100
AcDbEntity
  8
_U+30EC_U+30A4_U+30E4_U+30FC 1
370
     0
100
AcDbVertex
100
AcDb2dVertex
 10
99.32175833020429
 20
-121.5720797764646
 30
0.0
  0
SEQEND
  5
96
330
90
100
AcDbEntity
  8
_U+30EC_U+30A4_U+30E4_U+30FC 1
370
     0
  0
POLYLINE
  5
97
330
80
100
AcDbEntity
  8
_U+30EC_U+30A4_U+30E4_U+30FC 1
370
     0
100
AcDb2dPolyline
 66
     1
 10
0.0
 20
0.0
 30
0.0
  0
VERTEX
  5
98
330
97
100
AcDbEntity
  8
_U+30EC_U+30A4_U+30E4_U+30FC 1
370
     0
100
AcDbVertex
100
AcDb2dVertex
 10
99.32175833020429
 20
-121.8154757724975
 30
0.0
  0
VERTEX
  5
99
330
97
100
AcDbEntity
  8
_U+30EC_U+30A4_U+30E4_U+30FC 1
370
     0
100
AcDbVertex
100
AcDb2dVertex
 10
98.70336369060195
 20
-121.8154757724975
 30
0.0
  0
VERTEX
  5
9A
330
97
100
AcDbEntity
  8
_U+30EC_U+30A4_U+30E4_U+30FC 1
370
     0
100
AcDbVertex
100
AcDb2dVertex
 10
98.70336369060195
 20
-121.9296806878336
 30
0.0
  0
VERTEX
  5
9B
330
97
100
AcDbEntity
  8
_U+30EC_U+30A4_U+30E4_U+30FC 1
370
     0
100
AcDbVertex
100
AcDb2dVertex
 10
99.32175833020429
 20
-121.9296806878336
 30
0.0
  0
VERTEX
  5
9C
330
97
100
AcDbEntity
  8
_U+30EC_U+30A4_U+30E4_U+30FC 1
370
     0
100
AcDbVertex
100
AcDb2dVertex
 10
99.32175833020429
 20
-121.8154757724975
 30
0.0
  0
SEQEND
  5
9D
330
97
100
AcDbEntity
  8
_U+30EC_U+30A4_U+30E4_U+30FC 1
370
     0
  0
HATCH
  5
9E
330
80
100
AcDbEntity
  8
_U+30EC_U+30A4_U+30E4_U+30FC 1
 62
   179
420
  2234388
100
AcDbHatch
 10
0.0
 20
0.0
 30
0.0
210
0.0
220
0.0
230
1.0
  2
SOLID
 70
     1
 71
     0
 91
        4
 92
        1
 93
        1
 72
     4
 94
        3
 73
     0
 74
     1
 95
      203
 96
      199
 40
0.0
 40
0.0
 40
0.0
 40
0.0
 40
1.0
 40
1.0
 40
1.0
 40
2.0
 40
2.0
 40
2.0
 40
3.0
 40
3.0
 40
3.0
 40
4.0
 40
4.0
 40
4.0
 40
5.0
 40
5.0
 40
5.0
 40
6.0
 40
6.0
 40
6.0
 40
7.0
 40
7.0
 40
7.0
 40
8.0
 40
8.0
 40
8.0
 40
9.0
 40
9.0
 40
9.0
 40
10.0
 40
10.0
 40
10.0
 40
11.0
 40
11.0
 40
11.0
 40
12.0
 40
12.0
 40
12.0
 40
13.0
 40
13.0
 40
13.0
 40
14.0
 40
14.0
 40
14.0
 40
15.0
 40
15.0
 40
15.0
 40
16.0
 40
16.0
 40
16.0
 40
17.0
 40
17.0
 40
17.0
 40
18.0
 40
18.0
 40
18.0
 40
19.0
 40
19.0
 40
19.0
 40
20.0
 40
20.0
 40
20.0
 40
21.0
 40
21.0
 40
21.0
 40
22.0
 40
22.0
 40
22.0
 40
23.0
 40
23.0
 40
23.0
 40
24.0
 40
24.0
 40
24.0
 40
25.0
 40
25.0
 40
25.0
 40
26.0
 40
26.0
 40
26.0
 40
27.0
 40
27.0
 40
27.0
 40
28.0
 40
28.0
 40
28.0
 40
29.0
 40
29.0
 40
29.0
 40
30.0
 40
30.0
 40
30.0
 40
31.0
 40
31.0
 40
31.0
 40
32.0
 40
32.0
 40
32.0
 40
33.0
 40
33.0
 40
33.0
 40
34.0
 40
34.0
 40
34.0
 40
35.0
 40
35.0
 40
35.0
 40
36.0
 40
36.0
 40
36.0
 40
37.0
 40
37.0
 40
37.0
 40
38.0
 40
38.0
 40
38.0
 40
39.0
 40
39.0
 40
39.0
 40
40.0
 40
40.0
 40
40.0
 40
41.0
 40
41.0
 40
41.0
 40
42.0
 40
42.0
 40
42.0
 40
43.0
 40
43.0
 40
43.0
 40
44.0
 40
44.0
 40
44.0
 40
45.0
 40
45.0
 40
45.0
 40
46.0
 40
46.0
 40
46.0
 40
47.0
 40
47.0
 40
47.0
 40
48.0
 40
48.0
 40
48.0
 40
49.0
 40
49.0
 40
49.0
 40
50.0
 40
50.0
 40
50.0
 40
51.0
 40
51.0
 40
51.0
 40
52.0
 40
52.0
 40
52.0
 40
53.0
 40
53.0
 40
53.0
 40
54.0
 40
54.0
 40
54.0
 40
55.0
 40
55.0
 40
55.0
 40
56.0
 40
56.0
 40
56.0
 40
57.0
 40
57.0
 40
57.0
 40
58.0
 40
58.0
 40
58.0
 40
59.0
 40
59.0
 40
59.0
 40
60.0
 40
60.0
 40
60.0
 40
61.0
 40
61.0
 40
61.0
 40
62.0
 40
62.0
 40
62.0
 40
63.0
 40
63.0
 40
63.0
 40
64.0
 40
64.0
 40
64.0
 40
65.0
 40
65.0
 40
65.0
 40
66.0
 40
66.0
 40
66.0
 40
66.0
 10
99.17740882937233
 20
-121.0833929818819
 10
99.17740882937233
 20
-121.0833929818819
 10
98.68854978001536
 20
-121.0833929818819
 10
98.68854978001536
 20
-121.0833929818819
 10
98.67924802220519
 20
-121.1278347136417
 10
98.67201332168617
 20
-121.159529592106
 10
98.66098901613337
 20
-121.1977701519922
 10
98.68303762723897
 20
-121.1977701519922
 10
98.69612899008291
 20
-121.1998372092834
 10
98.70164114285932
 20
-121.1998372092834
 10
98.70164114285932
 20
-121.1998372092834
 10
98.86631670705425
 20
-121.1998372092834
 10
98.86631670705425
 20
-121.1998372092834
 10
98.86631670705425
 20
-121.1998372092834
 10
99.19428979725004
 20
-121.1998372092834
 10
99.19428979725004
 20
-121.1998372092834
 10
99.23838701946124
 20
-121.1998372092834
 10
99.48677840394775
 20
-121.187090355988
 10
99.51433916782975
 20
-121.187090355988
 10
99.51261662008713
 20
-121.21465111987
 10
99.5108940723445
 20
-121.2335991450388
 10
99.5108940723445
 20
-121.263226966212
 10
99.50882701505336
 20
-121.2949218446763
 10
99.50882701505336
 20
-121.4303140972466
 10
99.50882701505336
 20
-121.4578748611286
 10
99.50882701505336
 20
-121.4578748611286
 10
99.50882701505336
 20
-121.7033379144526
 10
99.50882701505336
 20
-121.7033379144526
 10
99.50882701505336
 20
-121.7477796462124
 10
99.51261662008713
 20
-121.9444945984201
 10
99.5164062251209
 20
-122.0967678188682
 10
99.5164062251209
 20
-122.0967678188682
 10
99.31831323471904
 20
-122.0967678188682
 10
99.31831323471904
 20
-122.0967678188682
 10
99.31831323471904
 20
-122.0967678188682
 10
99.32003578246166
 20
-122.0630058831127
 10
99.32003578246166
 20
-122.0630058831127
 10
99.32003578246166
 20
-122.0630058831127
 10
98.70508623834456
 20
-122.0630058831127
 10
98.70508623834456
 20
-122.0630058831127
 10
98.70508623834456
 20
-122.0630058831127
 10
98.70715329563572
 20
-122.0967678188682
 10
98.70715329563572
 20
-122.0967678188682
 10
98.70715329563572
 20
-122.0967678188682
 10
98.51629500575288
 20
-122.0967678188682
 10
98.51629500575288
 20
-122.0967678188682
 10
98.52008461078665
 20
-122.0418185458784
 10
98.52008461078665
 20
-122.029071692583
 10
98.52559676356304
 20
-121.914866777247
 10
98.52731931130567
 20
-121.887306013365
 10
98.52938636859682
 20
-121.7541530728601
 10
98.52938636859682
 20
-121.7350327929169
 10
98.52938636859682
 20
-121.7350327929169
 10
98.52938636859682
 20
-121.5319444140615
 10
98.52938636859682
 20
-121.5319444140615
 10
98.40708547887046
 20
-121.7815415819678
 10
98.25894637300472
 20
-121.9127997199558
 10
98.1662733044515
 20
-121.9782565341756
 10
98.1662733044515
 20
-121.9782565341756
 10
98.0146891031005
 20
-121.838730167023
 10
98.0146891031005
 20
-121.838730167023
 10
98.09220375151862
 20
-121.7879150086155
 10
98.21829424627876
 20
-121.7010986023872
 10
98.33852807871398
 20
-121.5066229622449
 10
98.41810978442325
 20
-121.3796711936134
 10
98.47564287902692
 20
-121.2358384571042
 10
98.50527070020007
 20
-121.0833929818819
 10
98.30545516205558
 20
-121.0856322939473
 10
98.14801429837966
 20
-121.0920057205951
 10
98.06464298763662
 20
-121.0940727778862
 10
98.06464298763662
 20
-121.0940727778862
 10
98.06464298763662
 20
-120.9163058508473
 10
98.06464298763662
 20
-120.9163058508473
 10
98.23689776189912
 20
-120.922679277495
 10
98.4849446368371
 20
-120.9269856468516
 10
98.61620277482513
 20
-120.9269856468516
 10
98.61620277482513
 20
-120.9269856468516
 10
98.80327145967419
 20
-120.9269856468516
 10
98.80327145967419
 20
-120.9269856468516
 10
98.80327145967419
 20
-120.9269856468516
 10
98.80327145967419
 20
-120.818981903389
 10
98.80327145967419
 20
-120.818981903389
 10
98.80327145967419
 20
-120.818981903389
 10
98.67545841717141
 20
-120.818981903389
 10
98.67545841717141
 20
-120.818981903389
 10
98.52731931130567
 20
-120.818981903389
 10
98.37918020543994
 20
-120.8232882727456
 10
98.23310815686534
 20
-120.8296616993933
 10
98.23310815686534
 20
-120.8296616993933
 10
98.23310815686534
 20
-120.6582681990021
 10
98.23310815686534
 20
-120.6582681990021
 10
98.36815589988713
 20
-120.6687757402321
 10
98.53110891633945
 20
-120.6687757402321
 10
98.67545841717141
 20
-120.6687757402321
 10
98.67545841717141
 20
-120.6687757402321
 10
98.80327145967419
 20
-120.6687757402321
 10
98.80327145967419
 20
-120.6687757402321
 10
98.80327145967419
 20
-120.6687757402321
 10
98.80327145967419
 20
-120.5504367103138
 10
98.80327145967419
 20
-120.5504367103138
 10
98.80327145967419
 20
-120.5504367103138
 10
98.68854978001536
 20
-120.5504367103138
 10
98.68854978001536
 20
-120.5504367103138
 10
98.64789765328942
 20
-120.5504367103138
 10
98.47013072625053
 20
-120.5588771942526
 10
98.43292369500983
 20
-120.5588771942526
 10
98.25515676797093
 20
-120.5630113088349
 10
98.18866642510561
 20
-120.5650783661261
 10
98.12010902494914
 20
-120.5673176781915
 10
98.12010902494914
 20
-120.5673176781915
 10
98.12010902494914
 20
-120.3831773245049
 10
98.12010902494914
 20
-120.3831773245049
 10
98.22001679402139
 20
-120.3916178084438
 10
98.25894637300472
 20
-120.3916178084438
 10
98.59415416371952
 20
-120.4002305471569
 10
98.538688126407
 20
-120.3049736569897
 10
98.51457245801025
 20
-120.2774128931077
 10
98.48322208909448
 20
-120.2414116452869
 10
98.48322208909448
 20
-120.2414116452869
 10
98.63687334773662
 20
-120.1589016084151
 10
98.63687334773662
 20
-120.1589016084151
 10
98.67201332168617
 20
-120.194902856236
 10
98.7109429006695
 20
-120.2372775307046
 10
98.77571069579218
 20
-120.3471760766841
 10
98.77571069579218
 20
-120.3471760766841
 10
98.67545841717141
 20
-120.402297604448
 10
98.67545841717141
 20
-120.402297604448
 10
98.67545841717141
 20
-120.402297604448
 10
98.68476017498159
 20
-120.402297604448
 10
98.68476017498159
 20
-120.402297604448
 10
98.68476017498159
 20
-120.402297604448
 10
99.14226885542277
 20
-120.402297604448
 10
99.14226885542277
 20
-120.402297604448
 10
99.14226885542277
 20
-120.402297604448
 10
99.05889754467972
 20
-120.3578558726883
 10
99.05889754467972
 20
-120.3578558726883
 10
99.08301321307647
 20
-120.3197875675763
 10
99.13296709761259
 20
-120.2393445879957
 10
99.14605846045654
 20
-120.1652750350628
 10
99.14605846045654
 20
-120.1652750350628
 10
99.33312714530561
 20
-120.2288370467657
 10
99.33312714530561
 20
-120.2288370467657
 10
99.34036184582463
 20
-120.2309041040569
 10
99.35896536144499
 20
-120.2414116452869
 10
99.35896536144499
 20
-120.2625989825212
 10
99.35896536144499
 20
-120.3006672876332
 10
99.30143226684132
 20
-120.3006672876332
 10
99.28489580851212
 20
-120.3006672876332
 10
99.27559405070194
 20
-120.3197875675763
 10
99.25526798733897
 20
-120.3599229299795
 10
99.22942977119959
 20
-120.4002305471569
 10
99.57945147250098
 20
-120.3938571205092
 10
99.60528968864035
 20
-120.3916178084438
 10
99.67178003150568
 20
-120.3854166365703
 10
99.67178003150568
 20
-120.3854166365703
 10
99.67178003150568
 20
-120.5673176781915
 10
99.67178003150568
 20
-120.5673176781915
 10
99.65524357317648
 20
-120.5673176781915
 10
99.63285045252235
 20
-120.5650783661261
 10
99.44026961489688
 20
-120.5566378821872
 10
99.39582788313716
 20
-120.5545708248961
 10
99.20324704551169
 20
-120.5504367103138
 10
99.1646619760769
 20
-120.5504367103138
 10
99.1646619760769
 20
-120.5504367103138
 10
98.97552623393668
 20
-120.5504367103138
 10
98.97552623393668
 20
-120.5504367103138
 10
98.97552623393668
 20
-120.5504367103138
 10
98.97552623393668
 20
-120.6687757402321
 10
98.97552623393668
 20
-120.6687757402321
 10
98.97552623393668
 20
-120.6687757402321
 10
99.1274549448362
 20
-120.6687757402321
 10
99.1274549448362
 20
-120.6687757402321
 10
99.27008189792554
 20
-120.6687757402321
 10
99.43682451941163
 20
-120.6687757402321
 10
99.57359481017605
 20
-120.6582681990021
 10
99.57359481017605
 20
-120.6582681990021
 10
99.57359481017605
 20
-120.8296616993933
 10
99.57359481017605
 20
-120.8296616993933
 10
99.39031573036075
 20
-120.8212212154544
 10
99.21806095609827
 20
-120.818981903389
 10
99.1274549448362
 20
-120.818981903389
 10
99.1274549448362
 20
-120.818981903389
 10
98.97552623393668
 20
-120.818981903389
 10
98.97552623393668
 20
-120.818981903389
 10
98.97552623393668
 20
-120.818981903389
 10
98.97552623393668
 20
-120.9269856468516
 10
98.97552623393668
 20
-120.9269856468516
 10
98.97552623393668
 20
-120.9269856468516
 10
99.17740882937233
 20
-120.9269856468516
 10
99.17740882937233
 20
-120.9269856468516
 10
99.29419756632228
 20
-120.9269856468516
 10
99.54603404629405
 20
-120.922679277495
 10
99.72931312610935
 20
-120.9163058508473
 10
99.72931312610935
 20
-120.9163058508473
 10
99.72931312610935
 20
-121.0940727778862
 10
99.72931312610935
 20
-121.0940727778862
 10
99.56084795688062
 20
-121.0876993512385
 10
99.28661835625473
 20
-121.0833929818819
 10
99.17740882937233
 20
-121.0833929818819
 97
        0
 97
        0
 92
        1
 93
        4
 72
     1
 10
99.32175833020429
 20
-121.339363576436
 11
98.70336369060195
 21
-121.339363576436
 72
     1
 10
98.70336369060195
 20
-121.339363576436
 11
98.70336369060195
 21
-121.4473673198986
 72
     1
 10
98.70336369060195
 20
-121.4473673198986
 11
99.32175833020429
 21
-121.4473673198986
 72
     1
 10
99.32175833020429
 20
-121.4473673198986
 11
99.32175833020429
 21
-121.339363576436
 97
        0
 92
        1
 93
        4
 72
     1
 10
99.32175833020429
 20
-121.5720797764646
 11
98.70336369060195
 21
-121.5720797764646
 72
     1
 10
98.70336369060195
 20
-121.5720797764646
 11
98.70336369060195
 21
-121.6864569465749
 72
     1
 10
98.70336369060195
 20
-121.6864569465749
 11
99.32175833020429
 21
-121.6864569465749
 72
     1
 10
99.32175833020429
 20
-121.6864569465749
 11
99.32175833020429
 21
-121.5720797764646
 97
        0
 92
        1
 93
        4
 72
     1
 10
99.32175833020429
 20
-121.8154757724975
 11
98.70336369060195
 21
-121.8154757724975
 72
     1
 10
98.70336369060195
 20
-121.8154757724975
 11
98.70336369060195
 21
-121.9296806878336
 72
     1
 10
98.70336369060195
 20
-121.9296806878336
 11
99.32175833020429
 21
-121.9296806878336
 72
     1
 10
99.32175833020429
 20
-121.9296806878336
 11
99.32175833020429
 21
-121.8154757724975
 97
        0
 75
     2
 76
     1
 98
        0
  0
SPLINE
  5
9F
330
80
100
AcDbEntity
  8
_U+30EC_U+30A4_U+30E4_U+30FC 1
370
     0
100
AcDbSpline
210
0.0
220
0.0
230
1.0
 70
    11
 71
     3
 72
    47
 73
    43
 74
     0
 42
0.0000000001
 43
0.0000000001
 12
1.0
 22
0.0
 32
0.0
 13
1.0
 23
0.0
 33
0.0
 40
0.0
 40
0.0
 40
0.0
 40
0.0
 40
1.0
 40
1.0
 40
1.0
 40
2.0
 40
2.0
 40
2.0
 40
3.0
 40
3.0
 40
3.0
 40
4.0
 40
4.0
 40
4.0
 40
5.0
 40
5.0
 40
5.0
 40
6.0
 40
6.0
 40
6.0
 40
7.0
 40
7.0
 40
7.0
 40
8.0
 40
8.0
 40
8.0
 40
9.0
 40
9.0
 40
9.0
 40
10.0
 40
10.0
 40
10.0
 40
11.0
 40
11.0
 40
11.0
 40
12.0
 40
12.0
 40
12.0
 40
13.0
 40
13.0
 40
13.0
 40
14.0
 40
14.0
 40
14.0
 40
14.0
 10
100.9092583298074
 20
-121.0601385873565
 30
0.0
 10
100.9092583298074
 20
-121.0601385873565
 30
0.0
 10
100.820374866288
 20
-121.0601385873565
 30
0.0
 10
100.820374866288
 20
-121.0601385873565
 30
0.0
 10
100.820374866288
 20
-121.1469549935848
 30
0.0
 10
100.8017713506676
 20
-121.536250783418
 30
0.0
 10
100.6295165764051
 20
-121.7562201301512
 30
0.0
 10
100.496191381126
 20
-121.925374318477
 30
0.0
 10
100.3146348490533
 20
-121.9953097568276
 30
0.0
 10
100.2405652961204
 20
-122.0226982659353
 30
0.0
 10
100.2405652961204
 20
-122.0226982659353
 30
0.0
 10
100.0703775791491
 20
-121.8556111349007
 30
0.0
 10
100.0703775791491
 20
-121.8556111349007
 30
0.0
 10
100.1554714376347
 20
-121.8428642816053
 30
0.0
 10
100.3091226962769
 20
-121.8196098870798
 30
0.0
 10
100.4737982604718
 20
-121.6313354188109
 30
0.0
 10
100.5389105651431
 20
-121.5595051779435
 30
0.0
 10
100.6295165764051
 20
-121.4198065560166
 30
0.0
 10
100.6295165764051
 20
-121.0601385873565
 30
0.0
 10
100.6295165764051
 20
-121.0601385873565
 30
0.0
 10
100.4276339809695
 20
-121.0601385873565
 30
0.0
 10
100.4276339809695
 20
-121.0601385873565
 30
0.0
 10
100.2646809645172
 20
-121.0601385873565
 30
0.0
 10
100.1017279480648
 20
-121.0644449567131
 30
0.0
 10
99.93877493161253
 20
-121.0792588672996
 30
0.0
 10
99.93877493161253
 20
-121.0792588672996
 30
0.0
 10
99.93877493161253
 20
-120.8592895205664
 30
0.0
 10
99.93877493161253
 20
-120.8592895205664
 30
0.0
 10
100.103795005356
 20
-120.874103431153
 30
0.0
 10
100.3535644280366
 20
-120.8782375457353
 30
0.0
 10
100.4276339809695
 20
-120.8782375457353
 30
0.0
 10
100.4276339809695
 20
-120.8782375457353
 30
0.0
 10
100.9092583298074
 20
-120.8782375457353
 30
0.0
 10
100.9092583298074
 20
-120.8782375457353
 30
0.0
 10
100.9257947881366
 20
-120.8782375457353
 30
0.0
 10
101.2034694842477
 20
-120.8782375457353
 30
0.0
 10
101.4036295319408
 20
-120.8592895205664
 30
0.0
 10
101.4036295319408
 20
-120.8592895205664
 30
0.0
 10
101.4036295319408
 20
-121.0792588672996
 30
0.0
 10
101.4036295319408
 20
-121.0792588672996
 30
0.0
 10
101.2386094581973
 20
-121.0644449567131
 30
0.0
 10
101.0739338940024
 20
-121.0601385873565
 30
0.0
 10
100.9092583298074
 20
-121.0601385873565
 30
0.0
  0
SPLINE
  5
A0
330
80
100
AcDbEntity
  8
_U+30EC_U+30A4_U+30E4_U+30FC 1
370
     0
100
AcDbSpline
210
0.0
220
0.0
230
1.0
 70
    11
 71
     3
 72
    29
 73
    25
 74
     0
 42
0.0000000001
 43
0.0000000001
 12
1.0
 22
0.0
 32
0.0
 13
1.0
 23
0.0
 33
0.0
 40
0.0
 40
0.0
 40
0.0
 40
0.0
 40
1.0
 40
1.0
 40
1.0
 40
2.0
 40
2.0
 40
2.0
 40
3.0
 40
3.0
 40
3.0
 40
4.0
 40
4.0
 40
4.0
 40
5.0
 40
5.0
 40
5.0
 40
6.0
 40
6.0
 40
6.0
 40
7.0
 40
7.0
 40
7.0
 40
8.0
 40
8.0
 40
8.0
 40
8.0
 10
100.820374866288
 20
-120.5313164303707
 30
0.0
 10
100.820374866288
 20
-120.5313164303707
 30
0.0
 10
100.5110052917125
 20
-120.5313164303707
 30
0.0
 10
100.5110052917125
 20
-120.5313164303707
 30
0.0
 10
100.4128200703829
 20
-120.5313164303707
 30
0.0
 10
100.2905191806565
 20
-120.5376898570184
 30
0.0
 10
100.1961235643607
 20
-120.5504367103138
 30
0.0
 10
100.1961235643607
 20
-120.5504367103138
 30
0.0
 10
100.1961235643607
 20
-120.3154811982197
 30
0.0
 10
100.1961235643607
 20
-120.3154811982197
 30
0.0
 10
100.2998209384667
 20
-120.3302951088063
 30
0.0
 10
100.4610514071764
 20
-120.3346014781629
 30
0.0
 10
100.5110052917125
 20
-120.3346014781629
 30
0.0
 10
100.5110052917125
 20
-120.3346014781629
 30
0.0
 10
100.820374866288
 20
-120.3346014781629
 30
0.0
 10
100.820374866288
 20
-120.3346014781629
 30
0.0
 10
100.8369113246172
 20
-120.3346014781629
 30
0.0
 10
101.0146782516561
 20
-120.3346014781629
 30
0.0
 10
101.1387016891251
 20
-120.3154811982197
 30
0.0
 10
101.1387016891251
 20
-120.3154811982197
 30
0.0
 10
101.1387016891251
 20
-120.5504367103138
 30
0.0
 10
101.1387016891251
 20
-120.5504367103138
 30
0.0
 10
101.0015868888121
 20
-120.5313164303707
 30
0.0
 10
100.8351887768745
 20
-120.5313164303707
 30
0.0
 10
100.820374866288
 20
-120.5313164303707
 30
0.0
  0
HATCH
  5
A1
330
80
100
AcDbEntity
  8
_U+30EC_U+30A4_U+30E4_U+30FC 1
 62
   179
420
  2234388
100
AcDbHatch
 10
0.0
 20
0.0
 30
0.0
210
0.0
220
0.0
230
1.0
  2
SOLID
 70
     1
 71
     0
 91
        2
 92
        1
 93
        1
 72
     4
 94
        3
 73
     0
 74
     1
 95
       47
 96
       43
 40
0.0
 40
0.0
 40
0.0
 40
0.0
 40
1.0
 40
1.0
 40
1.0
 40
2.0
 40
2.0
 40
2.0
 40
3.0
 40
3.0
 40
3.0
 40
4.0
 40
4.0
 40
4.0
 40
5.0
 40
5.0
 40
5.0
 40
6.0
 40
6.0
 40
6.0
 40
7.0
 40
7.0
 40
7.0
 40
8.0
 40
8.0
 40
8.0
 40
9.0
 40
9.0
 40
9.0
 40
10.0
 40
10.0
 40
10.0
 40
11.0
 40
11.0
 40
11.0
 40
12.0
 40
12.0
 40
12.0
 40
13.0
 40
13.0
 40
13.0
 40
14.0
 40
14.0
 40
14.0
 40
14.0
 10
100.9092583298074
 20
-121.0601385873565
 10
100.9092583298074
 20
-121.0601385873565
 10
100.820374866288
 20
-121.0601385873565
 10
100.820374866288
 20
-121.0601385873565
 10
100.820374866288
 20
-121.1469549935848
 10
100.8017713506676
 20
-121.536250783418
 10
100.6295165764051
 20
-121.7562201301512
 10
100.496191381126
 20
-121.925374318477
 10
100.3146348490533
 20
-121.9953097568276
 10
100.2405652961204
 20
-122.0226982659353
 10
100.2405652961204
 20
-122.0226982659353
 10
100.0703775791491
 20
-121.8556111349007
 10
100.0703775791491
 20
-121.8556111349007
 10
100.1554714376347
 20
-121.8428642816053
 10
100.3091226962769
 20
-121.8196098870798
 10
100.4737982604718
 20
-121.6313354188109
 10
100.5389105651431
 20
-121.5595051779435
 10
100.6295165764051
 20
-121.4198065560166
 10
100.6295165764051
 20
-121.0601385873565
 10
100.6295165764051
 20
-121.0601385873565
 10
100.4276339809695
 20
-121.0601385873565
 10
100.4276339809695
 20
-121.0601385873565
 10
100.2646809645172
 20
-121.0601385873565
 10
100.1017279480648
 20
-121.0644449567131
 10
99.93877493161253
 20
-121.0792588672996
 10
99.93877493161253
 20
-121.0792588672996
 10
99.93877493161253
 20
-120.8592895205664
 10
99.93877493161253
 20
-120.8592895205664
 10
100.103795005356
 20
-120.874103431153
 10
100.3535644280366
 20
-120.8782375457353
 10
100.4276339809695
 20
-120.8782375457353
 10
100.4276339809695
 20
-120.8782375457353
 10
100.9092583298074
 20
-120.8782375457353
 10
100.9092583298074
 20
-120.8782375457353
 10
100.9257947881366
 20
-120.8782375457353
 10
101.2034694842477
 20
-120.8782375457353
 10
101.4036295319408
 20
-120.8592895205664
 10
101.4036295319408
 20
-120.8592895205664
 10
101.4036295319408
 20
-121.0792588672996
 10
101.4036295319408
 20
-121.0792588672996
 10
101.2386094581973
 20
-121.0644449567131
 10
101.0739338940024
 20
-121.0601385873565
 10
100.9092583298074
 20
-121.0601385873565
 97
        0
 97
        0
 92
        1
 93
        1
 72
     4
 94
        3
 73
     0
 74
     1
 95
       29
 96
       25
 40
0.0
 40
0.0
 40
0.0
 40
0.0
 40
1.0
 40
1.0
 40
1.0
 40
2.0
 40
2.0
 40
2.0
 40
3.0
 40
3.0
 40
3.0
 40
4.0
 40
4.0
 40
4.0
 40
5.0
 40
5.0
 40
5.0
 40
6.0
 40
6.0
 40
6.0
 40
7.0
 40
7.0
 40
7.0
 40
8.0
 40
8.0
 40
8.0
 40
8.0
 10
100.820374866288
 20
-120.5313164303707
 10
100.820374866288
 20
-120.5313164303707
 10
100.5110052917125
 20
-120.5313164303707
 10
100.5110052917125
 20
-120.5313164303707
 10
100.4128200703829
 20
-120.5313164303707
 10
100.2905191806565
 20
-120.5376898570184
 10
100.1961235643607
 20
-120.5504367103138
 10
100.1961235643607
 20
-120.5504367103138
 10
100.1961235643607
 20
-120.3154811982197
 10
100.1961235643607
 20
-120.3154811982197
 10
100.2998209384667
 20
-120.3302951088063
 10
100.4610514071764
 20
-120.3346014781629
 10
100.5110052917125
 20
-120.3346014781629
 10
100.5110052917125
 20
-120.3346014781629
 10
100.820374866288
 20
-120.3346014781629
 10
100.820374866288
 20
-120.3346014781629
 10
100.8369113246172
 20
-120.3346014781629
 10
101.0146782516561
 20
-120.3346014781629
 10
101.1387016891251
 20
-120.3154811982197
 10
101.1387016891251
 20
-120.3154811982197
 10
101.1387016891251
 20
-120.5504367103138
 10
101.1387016891251
 20
-120.5504367103138
 10
101.0015868888121
 20
-120.5313164303707
 10
100.8351887768745
 20
-120.5313164303707
 10
100.820374866288
 20
-120.5313164303707
 97
        0
 97
        0
 75
     2
 76
     1
 98
        0
  0
SPLINE
  5
A2
330
80
100
AcDbEntity
  8
_U+30EC_U+30A4_U+30E4_U+30FC 1
370
     0
100
AcDbSpline
210
0.0
220
0.0
230
1.0
 70
    11
 71
     3
 72
    29
 73
    25
 74
     0
 42
0.0000000001
 43
0.0000000001
 12
1.0
 22
0.0
 32
0.0
 13
1.0
 23
0.0
 33
0.0
 40
0.0
 40
0.0
 40
0.0
 40
0.0
 40
1.0
 40
1.0
 40
1.0
 40
2.0
 40
2.0
 40
2.0
 40
3.0
 40
3.0
 40
3.0
 40
4.0
 40
4.0
 40
4.0
 40
5.0
 40
5.0
 40
5.0
 40
6.0
 40
6.0
 40
6.0
 40
7.0
 40
7.0
 40
7.0
 40
8.0
 40
8.0
 40
8.0
 40
8.0
 10
102.5256971314866
 20
-121.2230916038088
 30
0.0
 10
102.5256971314866
 20
-121.2230916038088
 30
0.0
 10
102.1019503868009
 20
-121.2230916038088
 30
0.0
 10
102.1019503868009
 20
-121.2230916038088
 30
0.0
 10
102.0778347184042
 20
-121.2230916038088
 30
0.0
 10
101.800160022293
 20
-121.2230916038088
 30
0.0
 10
101.6148138851866
 20
-121.2484130556254
 30
0.0
 10
101.6148138851866
 20
-121.2484130556254
 30
0.0
 10
101.6148138851866
 20
-121.0179361676622
 30
0.0
 10
101.6148138851866
 20
-121.0179361676622
 30
0.0
 10
101.7536512332422
 20
-121.0411905621876
 30
0.0
 10
101.9203938547282
 20
-121.0432576194788
 30
0.0
 10
102.1019503868009
 20
-121.0432576194788
 30
0.0
 10
102.1019503868009
 20
-121.0432576194788
 30
0.0
 10
102.5256971314866
 20
-121.0432576194788
 30
0.0
 10
102.5256971314866
 20
-121.0432576194788
 30
0.0
 10
102.6889946574875
 20
-121.0432576194788
 30
0.0
 10
102.8516031643913
 20
-121.0411905621876
 30
0.0
 10
103.012833633101
 20
-121.0179361676622
 30
0.0
 10
103.012833633101
 20
-121.0179361676622
 30
0.0
 10
103.012833633101
 20
-121.2484130556254
 30
0.0
 10
103.012833633101
 20
-121.2484130556254
 30
0.0
 10
102.8516031643913
 20
-121.2251586611
 30
0.0
 10
102.6352511679176
 20
-121.2230916038088
 30
0.0
 10
102.5256971314866
 20
-121.2230916038088
 30
0.0
  0
HATCH
  5
A3
330
80
100
AcDbEntity
  8
_U+30EC_U+30A4_U+30E4_U+30FC 1
 62
   179
420
  2234388
100
AcDbHatch
 10
0.0
 20
0.0
 30
0.0
210
0.0
220
0.0
230
1.0
  2
SOLID
 70
     1
 71
     0
 91
        1
 92
        1
 93
        1
 72
     4
 94
        3
 73
     0
 74
     1
 95
       29
 96
       25
 40
0.0
 40
0.0
 40
0.0
 40
0.0
 40
1.0
 40
1.0
 40
1.0
 40
2.0
 40
2.0
 40
2.0
 40
3.0
 40
3.0
 40
3.0
 40
4.0
 40
4.0
 40
4.0
 40
5.0
 40
5.0
 40
5.0
 40
6.0
 40
6.0
 40
6.0
 40
7.0
 40
7.0
 40
7.0
 40
8.0
 40
8.0
 40
8.0
 40
8.0
 10
102.5256971314866
 20
-121.2230916038088
 10
102.5256971314866
 20
-121.2230916038088
 10
102.1019503868009
 20
-121.2230916038088
 10
102.1019503868009
 20
-121.2230916038088
 10
102.0778347184042
 20
-121.2230916038088
 10
101.800160022293
 20
-121.2230916038088
 10
101.6148138851866
 20
-121.2484130556254
 10
101.6148138851866
 20
-121.2484130556254
 10
101.6148138851866
 20
-121.0179361676622
 10
101.6148138851866
 20
-121.0179361676622
 10
101.7536512332422
 20
-121.0411905621876
 10
101.9203938547282
 20
-121.0432576194788
 10
102.1019503868009
 20
-121.0432576194788
 10
102.1019503868009
 20
-121.0432576194788
 10
102.5256971314866
 20
-121.0432576194788
 10
102.5256971314866
 20
-121.0432576194788
 10
102.6889946574875
 20
-121.0432576194788
 10
102.8516031643913
 20
-121.0411905621876
 10
103.012833633101
 20
-121.0179361676622
 10
103.012833633101
 20
-121.0179361676622
 10
103.012833633101
 20
-121.2484130556254
 10
103.012833633101
 20
-121.2484130556254
 10
102.8516031643913
 20
-121.2251586611
 10
102.6352511679176
 20
-121.2230916038088
 10
102.5256971314866
 20
-121.2230916038088
 97
        0
 97
        0
 75
     2
 76
     1
 98
        0
  0
SPLINE
  5
A4
330
80
100
AcDbEntity
  8
_U+30EC_U+30A4_U+30E4_U+30FC 1
370
     0
100
AcDbSpline
210
0.0
220
0.0
230
1.0
 70
    11
 71
     3
 72
    44
 73
    40
 74
     0
 42
0.0000000001
 43
0.0000000001
 12
1.0
 22
0.0
 32
0.0
 13
1.0
 23
0.0
 33
0.0
 40
0.0
 40
0.0
 40
0.0
 40
0.0
 40
1.0
 40
1.0
 40
1.0
 40
2.0
 40
2.0
 40
2.0
 40
3.0
 40
3.0
 40
3.0
 40
4.0
 40
4.0
 40
4.0
 40
5.0
 40
5.0
 40
5.0
 40
6.0
 40
6.0
 40
6.0
 40
7.0
 40
7.0
 40
7.0
 40
8.0
 40
8.0
 40
8.0
 40
9.0
 40
9.0
 40
9.0
 40
10.0
 40
10.0
 40
10.0
 40
11.0
 40
11.0
 40
11.0
 40
12.0
 40
12.0
 40
12.0
 40
13.0
 40
13.0
 40
13.0
 40
13.0
 10
104.4628743228426
 20
-120.7852199676336
 30
0.0
 10
104.364689101513
 20
-121.1533284202325
 30
0.0
 10
104.3202473697533
 20
-121.3119750673283
 30
0.0
 10
104.1479925954908
 20
-121.5615722352346
 30
0.0
 10
103.9871066363296
 20
-121.7922213779721
 30
0.0
 10
103.7797118881176
 20
-121.9782565341756
 30
0.0
 10
103.5351101086648
 20
-122.0714463670516
 30
0.0
 10
103.5351101086648
 20
-122.0714463670516
 30
0.0
 10
103.3666449394361
 20
-121.8916123827215
 30
0.0
 10
103.3666449394361
 20
-121.8916123827215
 30
0.0
 10
103.9278509939833
 20
-121.7393391622735
 30
0.0
 10
104.2165499956473
 20
-121.1829562414057
 30
0.0
 10
104.2723605425083
 20
-120.742845293165
 30
0.0
 10
104.2723605425083
 20
-120.742845293165
 30
0.0
 10
103.6019449610787
 20
-120.742845293165
 30
0.0
 10
103.6019449610787
 20
-120.742845293165
 30
0.0
 10
103.5202961980783
 20
-120.742845293165
 30
0.0
 10
103.3594102389171
 20
-120.7471516625215
 30
0.0
 10
103.2222954386041
 20
-120.7660996876904
 30
0.0
 10
103.2222954386041
 20
-120.7660996876904
 30
0.0
 10
103.2222954386041
 20
-120.5461303409572
 30
0.0
 10
103.2222954386041
 20
-120.5461303409572
 30
0.0
 10
103.2980875392796
 20
-120.5673176781915
 30
0.0
 10
103.5185736503356
 20
-120.5673176781915
 30
0.0
 10
103.6053900565639
 20
-120.5673176781915
 30
0.0
 10
103.6053900565639
 20
-120.5673176781915
 30
0.0
 10
103.9833170312958
 20
-120.5673176781915
 30
0.0
 10
103.9833170312958
 20
-120.5673176781915
 30
0.0
 10
104.020179552988
 20
-120.5673176781915
 30
0.0
 10
104.2258517534574
 20
-120.5650783661261
 30
0.0
 10
104.2592691796644
 20
-120.5588771942526
 30
0.0
 10
104.2961317013565
 20
-120.5525037676049
 30
0.0
 10
104.2981987586477
 20
-120.5504367103138
 30
0.0
 10
104.3519422482176
 20
-120.5101290931364
 30
0.0
 10
104.3519422482176
 20
-120.5101290931364
 30
0.0
 10
104.5166178124125
 20
-120.6646416256498
 30
0.0
 10
104.5166178124125
 20
-120.6646416256498
 30
0.0
 10
104.4907795962731
 20
-120.694269446823
 30
0.0
 10
104.4776882334292
 20
-120.7259643252873
 30
0.0
 10
104.4628743228426
 20
-120.7852199676336
 30
0.0
  0
SPLINE
  5
A5
330
80
100
AcDbEntity
  8
_U+30EC_U+30A4_U+30E4_U+30FC 1
370
     0
100
AcDbSpline
210
0.0
220
0.0
230
1.0
 70
    11
 71
     3
 72
    17
 73
    13
 74
     0
 42
0.0000000001
 43
0.0000000001
 12
1.0
 22
0.0
 32
0.0
 13
1.0
 23
0.0
 33
0.0
 40
0.0
 40
0.0
 40
0.0
 40
0.0
 40
1.0
 40
1.0
 40
1.0
 40
2.0
 40
2.0
 40
2.0
 40
3.0
 40
3.0
 40
3.0
 40
4.0
 40
4.0
 40
4.0
 40
4.0
 10
104.6461534026579
 20
-120.5862657033604
 30
0.0
 10
104.5352213280329
 20
-120.5862657033604
 30
0.0
 10
104.4463378645134
 20
-120.4848076413198
 30
0.0
 10
104.4463378645134
 20
-120.3578558726883
 30
0.0
 10
104.4463378645134
 20
-120.2309041040569
 30
0.0
 10
104.5352213280329
 20
-120.1272067299508
 30
0.0
 10
104.6461534026579
 20
-120.1272067299508
 30
0.0
 10
104.7574299868315
 20
-120.1272067299508
 30
0.0
 10
104.8480359980936
 20
-120.2309041040569
 30
0.0
 10
104.8480359980936
 20
-120.3578558726883
 30
0.0
 10
104.8480359980936
 20
-120.4848076413198
 30
0.0
 10
104.7574299868315
 20
-120.5862657033604
 30
0.0
 10
104.6461534026579
 20
-120.5862657033604
 30
0.0
  0
SPLINE
  5
A6
330
80
100
AcDbEntity
  8
_U+30EC_U+30A4_U+30E4_U+30FC 1
370
     0
100
AcDbSpline
210
0.0
220
0.0
230
1.0
 70
    11
 71
     3
 72
    17
 73
    13
 74
     0
 42
0.0000000001
 43
0.0000000001
 12
1.0
 22
0.0
 32
0.0
 13
1.0
 23
0.0
 33
0.0
 40
0.0
 40
0.0
 40
0.0
 40
0.0
 40
1.0
 40
1.0
 40
1.0
 40
2.0
 40
2.0
 40
2.0
 40
3.0
 40
3.0
 40
3.0
 40
4.0
 40
4.0
 40
4.0
 40
4.0
 10
104.6444308549153
 20
-120.2562255558734
 30
0.0
 10
104.5961995181218
 20
-120.2562255558734
 30
0.0
 10
104.5572699391385
 20
-120.3006672876332
 30
0.0
 10
104.5572699391385
 20
-120.3557888153972
 30
0.0
 10
104.5572699391385
 20
-120.412805145678
 30
0.0
 10
104.5961995181218
 20
-120.4615532467943
 30
0.0
 10
104.6482204599491
 20
-120.4615532467943
 30
0.0
 10
104.6998968922278
 20
-120.4615532467943
 30
0.0
 10
104.7350368661774
 20
-120.4107380883869
 30
0.0
 10
104.7350368661774
 20
-120.3578558726883
 30
0.0
 10
104.7350368661774
 20
-120.3006672876332
 30
0.0
 10
104.6943847394514
 20
-120.2562255558734
 30
0.0
 10
104.6444308549153
 20
-120.2562255558734
 30
0.0
  0
HATCH
  5
A7
330
80
100
AcDbEntity
  8
_U+30EC_U+30A4_U+30E4_U+30FC 1
 62
   179
420
  2234388
100
AcDbHatch
 10
0.0
 20
0.0
 30
0.0
210
0.0
220
0.0
230
1.0
  2
SOLID
 70
     1
 71
     0
 91
        3
 92
        1
 93
        1
 72
     4
 94
        3
 73
     0
 74
     1
 95
       44
 96
       40
 40
0.0
 40
0.0
 40
0.0
 40
0.0
 40
1.0
 40
1.0
 40
1.0
 40
2.0
 40
2.0
 40
2.0
 40
3.0
 40
3.0
 40
3.0
 40
4.0
 40
4.0
 40
4.0
 40
5.0
 40
5.0
 40
5.0
 40
6.0
 40
6.0
 40
6.0
 40
7.0
 40
7.0
 40
7.0
 40
8.0
 40
8.0
 40
8.0
 40
9.0
 40
9.0
 40
9.0
 40
10.0
 40
10.0
 40
10.0
 40
11.0
 40
11.0
 40
11.0
 40
12.0
 40
12.0
 40
12.0
 40
13.0
 40
13.0
 40
13.0
 40
13.0
 10
104.4628743228426
 20
-120.7852199676336
 10
104.364689101513
 20
-121.1533284202325
 10
104.3202473697533
 20
-121.3119750673283
 10
104.1479925954908
 20
-121.5615722352346
 10
103.9871066363296
 20
-121.7922213779721
 10
103.7797118881176
 20
-121.9782565341756
 10
103.5351101086648
 20
-122.0714463670516
 10
103.5351101086648
 20
-122.0714463670516
 10
103.3666449394361
 20
-121.8916123827215
 10
103.3666449394361
 20
-121.8916123827215
 10
103.9278509939833
 20
-121.7393391622735
 10
104.2165499956473
 20
-121.1829562414057
 10
104.2723605425083
 20
-120.742845293165
 10
104.2723605425083
 20
-120.742845293165
 10
103.6019449610787
 20
-120.742845293165
 10
103.6019449610787
 20
-120.742845293165
 10
103.5202961980783
 20
-120.742845293165
 10
103.3594102389171
 20
-120.7471516625215
 10
103.2222954386041
 20
-120.7660996876904
 10
103.2222954386041
 20
-120.7660996876904
 10
103.2222954386041
 20
-120.5461303409572
 10
103.2222954386041
 20
-120.5461303409572
 10
103.2980875392796
 20
-120.5673176781915
 10
103.5185736503356
 20
-120.5673176781915
 10
103.6053900565639
 20
-120.5673176781915
 10
103.6053900565639
 20
-120.5673176781915
 10
103.9833170312958
 20
-120.5673176781915
 10
103.9833170312958
 20
-120.5673176781915
 10
104.020179552988
 20
-120.5673176781915
 10
104.2258517534574
 20
-120.5650783661261
 10
104.2592691796644
 20
-120.5588771942526
 10
104.2961317013565
 20
-120.5525037676049
 10
104.2981987586477
 20
-120.5504367103138
 10
104.3519422482176
 20
-120.5101290931364
 10
104.3519422482176
 20
-120.5101290931364
 10
104.5166178124125
 20
-120.6646416256498
 10
104.5166178124125
 20
-120.6646416256498
 10
104.4907795962731
 20
-120.694269446823
 10
104.4776882334292
 20
-120.7259643252873
 10
104.4628743228426
 20
-120.7852199676336
 97
        0
 97
        0
 92
        1
 93
        1
 72
     4
 94
        3
 73
     0
 74
     1
 95
       17
 96
       13
 40
0.0
 40
0.0
 40
0.0
 40
0.0
 40
1.0
 40
1.0
 40
1.0
 40
2.0
 40
2.0
 40
2.0
 40
3.0
 40
3.0
 40
3.0
 40
4.0
 40
4.0
 40
4.0
 40
4.0
 10
104.6461534026579
 20
-120.5862657033604
 10
104.5352213280329
 20
-120.5862657033604
 10
104.4463378645134
 20
-120.4848076413198
 10
104.4463378645134
 20
-120.3578558726883
 10
104.4463378645134
 20
-120.2309041040569
 10
104.5352213280329
 20
-120.1272067299508
 10
104.6461534026579
 20
-120.1272067299508
 10
104.7574299868315
 20
-120.1272067299508
 10
104.8480359980936
 20
-120.2309041040569
 10
104.8480359980936
 20
-120.3578558726883
 10
104.8480359980936
 20
-120.4848076413198
 10
104.7574299868315
 20
-120.5862657033604
 10
104.6461534026579
 20
-120.5862657033604
 97
        0
 97
        0
 92
        1
 93
        1
 72
     4
 94
        3
 73
     0
 74
     1
 95
       17
 96
       13
 40
0.0
 40
0.0
 40
0.0
 40
0.0
 40
1.0
 40
1.0
 40
1.0
 40
2.0
 40
2.0
 40
2.0
 40
3.0
 40
3.0
 40
3.0
 40
4.0
 40
4.0
 40
4.0
 40
4.0
 10
104.6444308549153
 20
-120.2562255558734
 10
104.5961995181218
 20
-120.2562255558734
 10
104.5572699391385
 20
-120.3006672876332
 10
104.5572699391385
 20
-120.3557888153972
 10
104.5572699391385
 20
-120.412805145678
 10
104.5961995181218
 20
-120.4615532467943
 10
104.6482204599491
 20
-120.4615532467943
 10
104.6998968922278
 20
-120.4615532467943
 10
104.7350368661774
 20
-120.4107380883869
 10
104.7350368661774
 20
-120.3578558726883
 10
104.7350368661774
 20
-120.3006672876332
 10
104.6943847394514
 20
-120.2562255558734
 10
104.6444308549153
 20
-120.2562255558734
 97
        0
 97
        0
 75
     2
 76
     1
 98
        0
  0
ENDBLK
  5
83
330
80
100
AcDbEntity
  8
0
100
AcDbBlockEnd
  0
BLOCK
  5
B6
330
B4
100
AcDbEntity
  8
0
100
AcDbBlockBegin
  2
block 3
 70
     0
 10
0.0
 20
0.0
 30
0.0
  3
block 3
  1

  0
SPLINE
  5
B8
330
B4
100
AcDbEntity
  8
_U+30EC_U+30A4_U+30E4_U+30FC 1
370
     0
100
AcDbSpline
210
0.0
220
0.0
230
1.0
 70
    11
 71
     3
 72
    44
 73
    40
 74
     0
 42
0.0000000001
 43
0.0000000001
 12
1.0
 22
0.0
 32
0.0
 13
1.0
 23
0.0
 33
0.0
 40
0.0
 40
0.0
 40
0.0
 40
0.0
 40
1.0
 40
1.0
 40
1.0
 40
2.0
 40
2.0
 40
2.0
 40
3.0
 40
3.0
 40
3.0
 40
4.0
 40
4.0
 40
4.0
 40
5.0
 40
5.0
 40
5.0
 40
6.0
 40
6.0
 40
6.0
 40
7.0
 40
7.0
 40
7.0
 40
8.0
 40
8.0
 40
8.0
 40
9.0
 40
9.0
 40
9.0
 40
10.0
 40
10.0
 40
10.0
 40
11.0
 40
11.0
 40
11.0
 40
12.0
 40
12.0
 40
12.0
 40
13.0
 40
13.0
 40
13.0
 40
13.0
 10
76.60376517182128
 20
-126.5493814787793
 30
0.0
 10
76.76241181891704
 20
-126.7400675138879
 30
0.0
 10
76.83648137184991
 20
-126.8215440221141
 30
0.0
 10
76.9803141083591
 20
-126.8640909513569
 30
0.0
 10
76.9803141083591
 20
-126.8640909513569
 30
0.0
 10
76.9803141083591
 20
-126.1826510643745
 30
0.0
 10
76.9803141083591
 20
-126.1826510643745
 30
0.0
 10
76.9803141083591
 20
-126.1826510643745
 30
0.0
 10
77.18546954450572
 20
-126.1826510643745
 30
0.0
 10
77.18546954450572
 20
-126.1826510643745
 30
0.0
 10
77.18546954450572
 20
-126.1826510643745
 30
0.0
 10
77.18546954450572
 20
-127.082682259896
 30
0.0
 10
77.18546954450572
 20
-127.082682259896
 30
0.0
 10
76.82786863313679
 20
-127.0547769864655
 30
0.0
 10
76.74966496562162
 20
-126.9974161466361
 30
0.0
 10
76.45131969659897
 20
-126.6603135534044
 30
0.0
 10
76.25253768710006
 20
-126.4363823468631
 30
0.0
 10
76.1848415608149
 20
-126.3788492522595
 30
0.0
 10
76.04738225095343
 20
-126.3788492522595
 30
0.0
 10
75.92887096626085
 20
-126.3788492522595
 30
0.0
 10
75.79761282827282
 20
-126.4418944996395
 30
0.0
 10
75.79761282827282
 20
-126.614149273902
 30
0.0
 10
75.79761282827282
 20
-126.841870085477
 30
0.0
 10
76.0282619710103
 20
-126.8492770407703
 30
0.0
 10
76.14470619841174
 20
-126.8528943910298
 30
0.0
 10
76.14470619841174
 20
-126.8528943910298
 30
0.0
 10
76.14470619841174
 20
-127.0492648336891
 30
0.0
 10
76.14470619841174
 20
-127.0492648336891
 30
0.0
 10
76.01775442978028
 20
-127.0418578783958
 30
0.0
 10
75.90561657173541
 20
-127.0325561205856
 30
0.0
 10
75.7871052870428
 20
-126.9622761726865
 30
0.0
 10
75.6263915826559
 20
-126.8659857538738
 30
0.0
 10
75.59245739212619
 20
-126.7030327374215
 30
0.0
 10
75.59245739212619
 20
-126.6010579110581
 30
0.0
 10
75.59245739212619
 20
-126.3585231888965
 30
0.0
 10
75.7765977458128
 20
-126.1771389115981
 30
0.0
 10
76.04944930824459
 20
-126.1771389115981
 30
0.0
 10
76.27785913891665
 20
-126.1771389115981
 30
0.0
 10
76.37742239844037
 20
-126.2789414831872
 30
0.0
 10
76.60376517182128
 20
-126.5493814787793
 30
0.0
  0
HATCH
  5
B9
330
B4
100
AcDbEntity
  8
_U+30EC_U+30A4_U+30E4_U+30FC 1
 62
   179
420
  2234388
100
AcDbHatch
 10
0.0
 20
0.0
 30
0.0
210
0.0
220
0.0
230
1.0
  2
SOLID
 70
     1
 71
     0
 91
        1
 92
        1
 93
        1
 72
     4
 94
        3
 73
     0
 74
     1
 95
       44
 96
       40
 40
0.0
 40
0.0
 40
0.0
 40
0.0
 40
1.0
 40
1.0
 40
1.0
 40
2.0
 40
2.0
 40
2.0
 40
3.0
 40
3.0
 40
3.0
 40
4.0
 40
4.0
 40
4.0
 40
5.0
 40
5.0
 40
5.0
 40
6.0
 40
6.0
 40
6.0
 40
7.0
 40
7.0
 40
7.0
 40
8.0
 40
8.0
 40
8.0
 40
9.0
 40
9.0
 40
9.0
 40
10.0
 40
10.0
 40
10.0
 40
11.0
 40
11.0
 40
11.0
 40
12.0
 40
12.0
 40
12.0
 40
13.0
 40
13.0
 40
13.0
 40
13.0
 10
76.60376517182128
 20
-126.5493814787793
 10
76.76241181891704
 20
-126.7400675138879
 10
76.83648137184991
 20
-126.8215440221141
 10
76.9803141083591
 20
-126.8640909513569
 10
76.9803141083591
 20
-126.8640909513569
 10
76.9803141083591
 20
-126.1826510643745
 10
76.9803141083591
 20
-126.1826510643745
 10
76.9803141083591
 20
-126.1826510643745
 10
77.18546954450572
 20
-126.1826510643745
 10
77.18546954450572
 20
-126.1826510643745
 10
77.18546954450572
 20
-126.1826510643745
 10
77.18546954450572
 20
-127.082682259896
 10
77.18546954450572
 20
-127.082682259896
 10
76.82786863313679
 20
-127.0547769864655
 10
76.74966496562162
 20
-126.9974161466361
 10
76.45131969659897
 20
-126.6603135534044
 10
76.25253768710006
 20
-126.4363823468631
 10
76.1848415608149
 20
-126.3788492522595
 10
76.04738225095343
 20
-126.3788492522595
 10
75.92887096626085
 20
-126.3788492522595
 10
75.79761282827282
 20
-126.4418944996395
 10
75.79761282827282
 20
-126.614149273902
 10
75.79761282827282
 20
-126.841870085477
 10
76.0282619710103
 20
-126.8492770407703
 10
76.14470619841174
 20
-126.8528943910298
 10
76.14470619841174
 20
-126.8528943910298
 10
76.14470619841174
 20
-127.0492648336891
 10
76.14470619841174
 20
-127.0492648336891
 10
76.01775442978028
 20
-127.0418578783958
 10
75.90561657173541
 20
-127.0325561205856
 10
75.7871052870428
 20
-126.9622761726865
 10
75.6263915826559
 20
-126.8659857538738
 10
75.59245739212619
 20
-126.7030327374215
 10
75.59245739212619
 20
-126.6010579110581
 10
75.59245739212619
 20
-126.3585231888965
 10
75.7765977458128
 20
-126.1771389115981
 10
76.04944930824459
 20
-126.1771389115981
 10
76.27785913891665
 20
-126.1771389115981
 10
76.37742239844037
 20
-126.2789414831872
 10
76.60376517182128
 20
-126.5493814787793
 97
        0
 97
        0
 75
     2
 76
     1
 98
        0
  0
SPLINE
  5
BA
330
B4
100
AcDbEntity
  8
_U+30EC_U+30A4_U+30E4_U+30FC 1
370
     0
100
AcDbSpline
210
0.0
220
0.0
230
1.0
 70
    11
 71
     3
 72
    53
 73
    49
 74
     0
 42
0.0000000001
 43
0.0000000001
 12
1.0
 22
0.0
 32
0.0
 13
1.0
 23
0.0
 33
0.0
 40
0.0
 40
0.0
 40
0.0
 40
0.0
 40
1.0
 40
1.0
 40
1.0
 40
2.0
 40
2.0
 40
2.0
 40
3.0
 40
3.0
 40
3.0
 40
4.0
 40
4.0
 40
4.0
 40
5.0
 40
5.0
 40
5.0
 40
6.0
 40
6.0
 40
6.0
 40
7.0
 40
7.0
 40
7.0
 40
8.0
 40
8.0
 40
8.0
 40
9.0
 40
9.0
 40
9.0
 40
10.0
 40
10.0
 40
10.0
 40
11.0
 40
11.0
 40
11.0
 40
12.0
 40
12.0
 40
12.0
 40
13.0
 40
13.0
 40
13.0
 40
14.0
 40
14.0
 40
14.0
 40
15.0
 40
15.0
 40
15.0
 40
16.0
 40
16.0
 40
16.0
 40
16.0
 10
77.23628470291315
 20
-125.6166218761479
 30
0.0
 10
77.23628470291315
 20
-125.6851792763044
 30
0.0
 10
77.21940373503543
 20
-125.7740627398238
 30
0.0
 10
77.15584172333257
 20
-125.8629462033433
 30
0.0
 10
77.04577092257884
 20
-126.0147026594686
 30
0.0
 10
76.91468503936508
 20
-126.0333061750889
 30
0.0
 10
76.80685355067676
 20
-126.0500148881924
 30
0.0
 10
76.80685355067676
 20
-126.0500148881924
 30
0.0
 10
76.80685355067676
 20
-125.85553924805
 30
0.0
 10
76.80685355067676
 20
-125.85553924805
 30
0.0
 10
77.00563556017568
 20
-125.8073079112565
 30
0.0
 10
77.03526338134883
 20
-125.6963758366315
 30
0.0
 10
77.03526338134883
 20
-125.614727073631
 30
0.0
 10
77.03526338134883
 20
-125.4925984386789
 30
0.0
 10
76.93587237659936
 20
-125.3592732433998
 30
0.0
 10
76.70315617657074
 20
-125.3592732433998
 30
0.0
 10
76.44718558201667
 20
-125.3592732433998
 30
0.0
 10
76.37742239844037
 20
-125.5167141070757
 30
0.0
 10
76.37742239844037
 20
-125.6223062836986
 30
0.0
 10
76.37742239844037
 20
-125.6500393023549
 30
0.0
 10
76.37742239844037
 20
-125.7740627398238
 30
0.0
 10
76.50644122436297
 20
-125.8517496430162
 30
0.0
 10
76.50644122436297
 20
-125.8517496430162
 30
0.0
 10
76.48732094441984
 20
-126.0055731564326
 30
0.0
 10
76.48732094441984
 20
-126.0055731564326
 30
0.0
 10
76.48732094441984
 20
-126.0055731564326
 30
0.0
 10
75.64120549324248
 20
-125.8999809798097
 30
0.0
 10
75.64120549324248
 20
-125.8999809798097
 30
0.0
 10
75.64120549324248
 20
-125.8999809798097
 30
0.0
 10
75.64120549324248
 20
-125.2185410928273
 30
0.0
 10
75.64120549324248
 20
-125.2185410928273
 30
0.0
 10
75.64120549324248
 20
-125.2185410928273
 30
0.0
 10
75.8358533881591
 20
-125.2185410928273
 30
0.0
 10
75.8358533881591
 20
-125.2185410928273
 30
0.0
 10
75.8358533881591
 20
-125.2185410928273
 30
0.0
 10
75.8358533881591
 20
-125.7573540267204
 30
0.0
 10
75.8358533881591
 20
-125.7573540267204
 30
0.0
 10
75.8358533881591
 20
-125.7573540267204
 30
0.0
 10
76.25891111374777
 20
-125.8148871213241
 30
0.0
 10
76.25891111374777
 20
-125.8148871213241
 30
0.0
 10
76.22497692321807
 20
-125.7611436317542
 30
0.0
 10
76.1848415608149
 20
-125.6887966265639
 30
0.0
 10
76.1848415608149
 20
-125.5850992524579
 30
0.0
 10
76.1848415608149
 20
-125.3628905936593
 30
0.0
 10
76.37104897179266
 20
-125.1554958454472
 30
0.0
 10
76.6840358966276
 20
-125.1554958454472
 30
0.0
 10
77.00150144559338
 20
-125.1554958454472
 30
0.0
 10
77.23628470291315
 20
-125.3518662881065
 30
0.0
 10
77.23628470291315
 20
-125.6166218761479
 30
0.0
  0
HATCH
  5
BB
330
B4
100
AcDbEntity
  8
_U+30EC_U+30A4_U+30E4_U+30FC 1
 62
   179
420
  2234388
100
AcDbHatch
 10
0.0
 20
0.0
 30
0.0
210
0.0
220
0.0
230
1.0
  2
SOLID
 70
     1
 71
     0
 91
        1
 92
        1
 93
        1
 72
     4
 94
        3
 73
     0
 74
     1
 95
       53
 96
       49
 40
0.0
 40
0.0
 40
0.0
 40
0.0
 40
1.0
 40
1.0
 40
1.0
 40
2.0
 40
2.0
 40
2.0
 40
3.0
 40
3.0
 40
3.0
 40
4.0
 40
4.0
 40
4.0
 40
5.0
 40
5.0
 40
5.0
 40
6.0
 40
6.0
 40
6.0
 40
7.0
 40
7.0
 40
7.0
 40
8.0
 40
8.0
 40
8.0
 40
9.0
 40
9.0
 40
9.0
 40
10.0
 40
10.0
 40
10.0
 40
11.0
 40
11.0
 40
11.0
 40
12.0
 40
12.0
 40
12.0
 40
13.0
 40
13.0
 40
13.0
 40
14.0
 40
14.0
 40
14.0
 40
15.0
 40
15.0
 40
15.0
 40
16.0
 40
16.0
 40
16.0
 40
16.0
 10
77.23628470291315
 20
-125.6166218761479
 10
77.23628470291315
 20
-125.6851792763044
 10
77.21940373503543
 20
-125.7740627398238
 10
77.15584172333257
 20
-125.8629462033433
 10
77.04577092257884
 20
-126.0147026594686
 10
76.91468503936508
 20
-126.0333061750889
 10
76.80685355067676
 20
-126.0500148881924
 10
76.80685355067676
 20
-126.0500148881924
 10
76.80685355067676
 20
-125.85553924805
 10
76.80685355067676
 20
-125.85553924805
 10
77.00563556017568
 20
-125.8073079112565
 10
77.03526338134883
 20
-125.6963758366315
 10
77.03526338134883
 20
-125.614727073631
 10
77.03526338134883
 20
-125.4925984386789
 10
76.93587237659936
 20
-125.3592732433998
 10
76.70315617657074
 20
-125.3592732433998
 10
76.44718558201667
 20
-125.3592732433998
 10
76.37742239844037
 20
-125.5167141070757
 10
76.37742239844037
 20
-125.6223062836986
 10
76.37742239844037
 20
-125.6500393023549
 10
76.37742239844037
 20
-125.7740627398238
 10
76.50644122436297
 20
-125.8517496430162
 10
76.50644122436297
 20
-125.8517496430162
 10
76.48732094441984
 20
-126.0055731564326
 10
76.48732094441984
 20
-126.0055731564326
 10
76.48732094441984
 20
-126.0055731564326
 10
75.64120549324248
 20
-125.8999809798097
 10
75.64120549324248
 20
-125.8999809798097
 10
75.64120549324248
 20
-125.8999809798097
 10
75.64120549324248
 20
-125.2185410928273
 10
75.64120549324248
 20
-125.2185410928273
 10
75.64120549324248
 20
-125.2185410928273
 10
75.8358533881591
 20
-125.2185410928273
 10
75.8358533881591
 20
-125.2185410928273
 10
75.8358533881591
 20
-125.2185410928273
 10
75.8358533881591
 20
-125.7573540267204
 10
75.8358533881591
 20
-125.7573540267204
 10
75.8358533881591
 20
-125.7573540267204
 10
76.25891111374777
 20
-125.8148871213241
 10
76.25891111374777
 20
-125.8148871213241
 10
76.22497692321807
 20
-125.7611436317542
 10
76.1848415608149
 20
-125.6887966265639
 10
76.1848415608149
 20
-125.5850992524579
 10
76.1848415608149
 20
-125.3628905936593
 10
76.37104897179266
 20
-125.1554958454472
 10
76.6840358966276
 20
-125.1554958454472
 10
77.00150144559338
 20
-125.1554958454472
 10
77.23628470291315
 20
-125.3518662881065
 10
77.23628470291315
 20
-125.6166218761479
 97
        0
 97
        0
 75
     2
 76
     1
 98
        0
  0
ENDBLK
  5
B7
330
B4
100
AcDbEntity
  8
0
100
AcDbBlockEnd
  0
BLOCK
  5
CA
330
C8
100
AcDbEntity
  8
0
100
AcDbBlockBegin
  2
block 4
 70
     0
 10
0.0
 20
0.0
 30
0.0
  3
block 4
  1

  0
SPLINE
  5
CC
330
C8
100
AcDbEntity
  8
_U+30EC_U+30A4_U+30E4_U+30FC 1
370
     0
100
AcDbSpline
210
0.0
220
0.0
230
1.0
 70
    11
 71
     3
 72
    44
 73
    40
 74
     0
 42
0.0000000001
 43
0.0000000001
 12
1.0
 22
0.0
 32
0.0
 13
1.0
 23
0.0
 33
0.0
 40
0.0
 40
0.0
 40
0.0
 40
0.0
 40
1.0
 40
1.0
 40
1.0
 40
2.0
 40
2.0
 40
2.0
 40
3.0
 40
3.0
 40
3.0
 40
4.0
 40
4.0
 40
4.0
 40
5.0
 40
5.0
 40
5.0
 40
6.0
 40
6.0
 40
6.0
 40
7.0
 40
7.0
 40
7.0
 40
8.0
 40
8.0
 40
8.0
 40
9.0
 40
9.0
 40
9.0
 40
10.0
 40
10.0
 40
10.0
 40
11.0
 40
11.0
 40
11.0
 40
12.0
 40
12.0
 40
12.0
 40
13.0
 40
13.0
 40
13.0
 40
13.0
 10
93.74242619184217
 20
-141.0976752034409
 30
0.0
 10
93.55156790195933
 20
-141.2564941053109
 30
0.0
 10
93.47026364850744
 20
-141.3305636582438
 30
0.0
 10
93.42754446449034
 20
-141.4742241399787
 30
0.0
 10
93.42754446449034
 20
-141.4742241399787
 30
0.0
 10
94.10898435147276
 20
-141.4742241399787
 30
0.0
 10
94.10898435147276
 20
-141.4742241399787
 30
0.0
 10
94.10898435147276
 20
-141.4742241399787
 30
0.0
 10
94.10898435147276
 20
-141.6795518308996
 30
0.0
 10
94.10898435147276
 20
-141.6795518308996
 30
0.0
 10
94.10898435147276
 20
-141.6795518308996
 30
0.0
 10
93.2091254107255
 20
-141.6795518308996
 30
0.0
 10
93.2091254107255
 20
-141.6795518308996
 30
0.0
 10
93.2366861746075
 20
-141.3219509195306
 30
0.0
 10
93.29421926921117
 20
-141.2437472520155
 30
0.0
 10
93.6311496076686
 20
-140.9454019829928
 30
0.0
 10
93.85542532375837
 20
-140.7466199734939
 30
0.0
 10
93.91261390881351
 20
-140.6787515924345
 30
0.0
 10
93.91261390881351
 20
-140.541292282573
 30
0.0
 10
93.91261390881351
 20
-140.4227809978804
 30
0.0
 10
93.84991317098196
 20
-140.2918673694409
 30
0.0
 10
93.67765839671948
 20
-140.2918673694409
 30
0.0
 10
93.44959307559594
 20
-140.2918673694409
 30
0.0
 10
93.44235837507692
 20
-140.5223442574041
 30
0.0
 10
93.43856877004313
 20
-140.6387884848056
 30
0.0
 10
93.43856877004313
 20
-140.6387884848056
 30
0.0
 10
93.2421983273839
 20
-140.6387884848056
 30
0.0
 10
93.2421983273839
 20
-140.6387884848056
 30
0.0
 10
93.24977753745145
 20
-140.5116644613999
 30
0.0
 10
93.25907929526163
 20
-140.3996988581293
 30
0.0
 10
93.32935924316072
 20
-140.2811875734367
 30
0.0
 10
93.42582191674772
 20
-140.1203016142755
 30
0.0
 10
93.58877493320003
 20
-140.08653967852
 30
0.0
 10
93.6904052500149
 20
-140.08653967852
 30
0.0
 10
93.9329399721765
 20
-140.08653967852
 30
0.0
 10
94.11449650424916
 20
-140.2705077774324
 30
0.0
 10
94.11449650424916
 20
-140.5433593398642
 30
0.0
 10
94.11449650424916
 20
-140.7721136800847
 30
0.0
 10
94.01252167788576
 20
-140.87133243006
 30
0.0
 10
93.74242619184217
 20
-141.0976752034409
 30
0.0
  0
HATCH
  5
CD
330
C8
100
AcDbEntity
  8
_U+30EC_U+30A4_U+30E4_U+30FC 1
 62
   179
420
  2234388
100
AcDbHatch
 10
0.0
 20
0.0
 30
0.0
210
0.0
220
0.0
230
1.0
  2
SOLID
 70
     1
 71
     0
 91
        1
 92
        1
 93
        1
 72
     4
 94
        3
 73
     0
 74
     1
 95
       44
 96
       40
 40
0.0
 40
0.0
 40
0.0
 40
0.0
 40
1.0
 40
1.0
 40
1.0
 40
2.0
 40
2.0
 40
2.0
 40
3.0
 40
3.0
 40
3.0
 40
4.0
 40
4.0
 40
4.0
 40
5.0
 40
5.0
 40
5.0
 40
6.0
 40
6.0
 40
6.0
 40
7.0
 40
7.0
 40
7.0
 40
8.0
 40
8.0
 40
8.0
 40
9.0
 40
9.0
 40
9.0
 40
10.0
 40
10.0
 40
10.0
 40
11.0
 40
11.0
 40
11.0
 40
12.0
 40
12.0
 40
12.0
 40
13.0
 40
13.0
 40
13.0
 40
13.0
 10
93.74242619184217
 20
-141.0976752034409
 10
93.55156790195933
 20
-141.2564941053109
 10
93.47026364850744
 20
-141.3305636582438
 10
93.42754446449034
 20
-141.4742241399787
 10
93.42754446449034
 20
-141.4742241399787
 10
94.10898435147276
 20
-141.4742241399787
 10
94.10898435147276
 20
-141.4742241399787
 10
94.10898435147276
 20
-141.4742241399787
 10
94.10898435147276
 20
-141.6795518308996
 10
94.10898435147276
 20
-141.6795518308996
 10
94.10898435147276
 20
-141.6795518308996
 10
93.2091254107255
 20
-141.6795518308996
 10
93.2091254107255
 20
-141.6795518308996
 10
93.2366861746075
 20
-141.3219509195306
 10
93.29421926921117
 20
-141.2437472520155
 10
93.6311496076686
 20
-140.9454019829928
 10
93.85542532375837
 20
-140.7466199734939
 10
93.91261390881351
 20
-140.6787515924345
 10
93.91261390881351
 20
-140.541292282573
 10
93.91261390881351
 20
-140.4227809978804
 10
93.84991317098196
 20
-140.2918673694409
 10
93.67765839671948
 20
-140.2918673694409
 10
93.44959307559594
 20
-140.2918673694409
 10
93.44235837507692
 20
-140.5223442574041
 10
93.43856877004313
 20
-140.6387884848056
 10
93.43856877004313
 20
-140.6387884848056
 10
93.2421983273839
 20
-140.6387884848056
 10
93.2421983273839
 20
-140.6387884848056
 10
93.24977753745145
 20
-140.5116644613999
 10
93.25907929526163
 20
-140.3996988581293
 10
93.32935924316072
 20
-140.2811875734367
 10
93.42582191674772
 20
-140.1203016142755
 10
93.58877493320003
 20
-140.08653967852
 10
93.6904052500149
 20
-140.08653967852
 10
93.9329399721765
 20
-140.08653967852
 10
94.11449650424916
 20
-140.2705077774324
 10
94.11449650424916
 20
-140.5433593398642
 10
94.11449650424916
 20
-140.7721136800847
 10
94.01252167788576
 20
-140.87133243006
 10
93.74242619184217
 20
-141.0976752034409
 97
        0
 97
        0
 75
     2
 76
     1
 98
        0
  0
SPLINE
  5
CE
330
C8
100
AcDbEntity
  8
_U+30EC_U+30A4_U+30E4_U+30FC 1
370
     0
100
AcDbSpline
210
0.0
220
0.0
230
1.0
 70
    11
 71
     3
 72
    53
 73
    49
 74
     0
 42
0.0000000001
 43
0.0000000001
 12
1.0
 22
0.0
 32
0.0
 13
1.0
 23
0.0
 33
0.0
 40
0.0
 40
0.0
 40
0.0
 40
0.0
 40
1.0
 40
1.0
 40
1.0
 40
2.0
 40
2.0
 40
2.0
 40
3.0
 40
3.0
 40
3.0
 40
4.0
 40
4.0
 40
4.0
 40
5.0
 40
5.0
 40
5.0
 40
6.0
 40
6.0
 40
6.0
 40
7.0
 40
7.0
 40
7.0
 40
8.0
 40
8.0
 40
8.0
 40
9.0
 40
9.0
 40
9.0
 40
10.0
 40
10.0
 40
10.0
 40
11.0
 40
11.0
 40
11.0
 40
12.0
 40
12.0
 40
12.0
 40
13.0
 40
13.0
 40
13.0
 40
14.0
 40
14.0
 40
14.0
 40
15.0
 40
15.0
 40
15.0
 40
16.0
 40
16.0
 40
16.0
 40
16.0
 10
94.67501353969931
 20
-141.7301947345327
 30
0.0
 10
94.60645613954283
 20
-141.7301947345327
 30
0.0
 10
94.51757267602339
 20
-141.713313766655
 30
0.0
 10
94.42868921250394
 20
-141.6499240097264
 30
0.0
 10
94.27676050160443
 20
-141.540025463747
 30
0.0
 10
94.2585014955326
 20
-141.4087673257589
 30
0.0
 10
94.24162052765487
 20
-141.3009358370706
 30
0.0
 10
94.24162052765487
 20
-141.3009358370706
 30
0.0
 10
94.43626842257149
 20
-141.3009358370706
 30
0.0
 10
94.43626842257149
 20
-141.3009358370706
 30
0.0
 10
94.48415524981647
 20
-141.4997178465695
 30
0.0
 10
94.59543183399003
 20
-141.5293456677427
 30
0.0
 10
94.67673608744194
 20
-141.5293456677427
 30
0.0
 10
94.7990369771683
 20
-141.5293456677427
 30
0.0
 10
94.93236217244747
 20
-141.429782408219
 30
0.0
 10
94.93236217244747
 20
-141.1972384629646
 30
0.0
 10
94.93236217244747
 20
-140.9412678684105
 30
0.0
 10
94.77492130877155
 20
-140.87133243006
 30
0.0
 10
94.6695013869229
 20
-140.87133243006
 30
0.0
 10
94.64159611349238
 20
-140.87133243006
 30
0.0
 10
94.51757267602339
 20
-140.87133243006
 30
0.0
 10
94.43971351805675
 20
-141.0005235107568
 30
0.0
 10
94.43971351805675
 20
-141.0005235107568
 30
0.0
 10
94.2860622594146
 20
-140.9815754855879
 30
0.0
 10
94.2860622594146
 20
-140.9815754855879
 30
0.0
 10
94.2860622594146
 20
-140.9815754855879
 30
0.0
 10
94.39148218126324
 20
-140.1351155248621
 30
0.0
 10
94.39148218126324
 20
-140.1351155248621
 30
0.0
 10
94.39148218126324
 20
-140.1351155248621
 30
0.0
 10
95.07292206824566
 20
-140.1351155248621
 30
0.0
 10
95.07292206824566
 20
-140.1351155248621
 30
0.0
 10
95.07292206824566
 20
-140.1351155248621
 30
0.0
 10
95.07292206824566
 20
-140.3297634197787
 30
0.0
 10
95.07292206824566
 20
-140.3297634197787
 30
0.0
 10
95.07292206824566
 20
-140.3297634197787
 30
0.0
 10
94.53410913435259
 20
-140.3297634197787
 30
0.0
 10
94.53410913435259
 20
-140.3297634197787
 30
0.0
 10
94.53410913435259
 20
-140.3297634197787
 30
0.0
 10
94.47692054929745
 20
-140.7528211453674
 30
0.0
 10
94.47692054929745
 20
-140.7528211453674
 30
0.0
 10
94.53066403886734
 20
-140.7190592096119
 30
0.0
 10
94.60266653450905
 20
-140.6787515924345
 30
0.0
 10
94.70636390861507
 20
-140.6787515924345
 30
0.0
 10
94.9285725674137
 20
-140.6787515924345
 30
0.0
 10
95.13596731562573
 20
-140.8651312581865
 30
0.0
 10
95.13596731562573
 20
-141.1782904377957
 30
0.0
 10
95.13596731562573
 20
-141.4955837319872
 30
0.0
 10
94.93994138251502
 20
-141.7301947345327
 30
0.0
 10
94.67501353969931
 20
-141.7301947345327
 30
0.0
  0
HATCH
  5
CF
330
C8
100
AcDbEntity
  8
_U+30EC_U+30A4_U+30E4_U+30FC 1
 62
   179
420
  2234388
100
AcDbHatch
 10
0.0
 20
0.0
 30
0.0
210
0.0
220
0.0
230
1.0
  2
SOLID
 70
     1
 71
     0
 91
        1
 92
        1
 93
        1
 72
     4
 94
        3
 73
     0
 74
     1
 95
       53
 96
       49
 40
0.0
 40
0.0
 40
0.0
 40
0.0
 40
1.0
 40
1.0
 40
1.0
 40
2.0
 40
2.0
 40
2.0
 40
3.0
 40
3.0
 40
3.0
 40
4.0
 40
4.0
 40
4.0
 40
5.0
 40
5.0
 40
5.0
 40
6.0
 40
6.0
 40
6.0
 40
7.0
 40
7.0
 40
7.0
 40
8.0
 40
8.0
 40
8.0
 40
9.0
 40
9.0
 40
9.0
 40
10.0
 40
10.0
 40
10.0
 40
11.0
 40
11.0
 40
11.0
 40
12.0
 40
12.0
 40
12.0
 40
13.0
 40
13.0
 40
13.0
 40
14.0
 40
14.0
 40
14.0
 40
15.0
 40
15.0
 40
15.0
 40
16.0
 40
16.0
 40
16.0
 40
16.0
 10
94.67501353969931
 20
-141.7301947345327
 10
94.60645613954283
 20
-141.7301947345327
 10
94.51757267602339
 20
-141.713313766655
 10
94.42868921250394
 20
-141.6499240097264
 10
94.27676050160443
 20
-141.540025463747
 10
94.2585014955326
 20
-141.4087673257589
 10
94.24162052765487
 20
-141.3009358370706
 10
94.24162052765487
 20
-141.3009358370706
 10
94.43626842257149
 20
-141.3009358370706
 10
94.43626842257149
 20
-141.3009358370706
 10
94.48415524981647
 20
-141.4997178465695
 10
94.59543183399003
 20
-141.5293456677427
 10
94.67673608744194
 20
-141.5293456677427
 10
94.7990369771683
 20
-141.5293456677427
 10
94.93236217244747
 20
-141.429782408219
 10
94.93236217244747
 20
-141.1972384629646
 10
94.93236217244747
 20
-140.9412678684105
 10
94.77492130877155
 20
-140.87133243006
 10
94.6695013869229
 20
-140.87133243006
 10
94.64159611349238
 20
-140.87133243006
 10
94.51757267602339
 20
-140.87133243006
 10
94.43971351805675
 20
-141.0005235107568
 10
94.43971351805675
 20
-141.0005235107568
 10
94.2860622594146
 20
-140.9815754855879
 10
94.2860622594146
 20
-140.9815754855879
 10
94.2860622594146
 20
-140.9815754855879
 10
94.39148218126324
 20
-140.1351155248621
 10
94.39148218126324
 20
-140.1351155248621
 10
94.39148218126324
 20
-140.1351155248621
 10
95.07292206824566
 20
-140.1351155248621
 10
95.07292206824566
 20
-140.1351155248621
 10
95.07292206824566
 20
-140.1351155248621
 10
95.07292206824566
 20
-140.3297634197787
 10
95.07292206824566
 20
-140.3297634197787
 10
95.07292206824566
 20
-140.3297634197787
 10
94.53410913435259
 20
-140.3297634197787
 10
94.53410913435259
 20
-140.3297634197787
 10
94.53410913435259
 20
-140.3297634197787
 10
94.47692054929745
 20
-140.7528211453674
 10
94.47692054929745
 20
-140.7528211453674
 10
94.53066403886734
 20
-140.7190592096119
 10
94.60266653450905
 20
-140.6787515924345
 10
94.70636390861507
 20
-140.6787515924345
 10
94.9285725674137
 20
-140.6787515924345
 10
95.13596731562573
 20
-140.8651312581865
 10
95.13596731562573
 20
-141.1782904377957
 10
95.13596731562573
 20
-141.4955837319872
 10
94.93994138251502
 20
-141.7301947345327
 10
94.67501353969931
 20
-141.7301947345327
 97
        0
 97
        0
 75
     2
 76
     1
 98
        0
  0
ENDBLK
  5
CB
330
C8
100
AcDbEntity
  8
0
100
AcDbBlockEnd
  0
ENDSEC
  0
SECTION
  2
ENTITIES
  0
POLYLINE
  5
41
330
1F
100
AcDbEntity
  8
_U+30EC_U+30A4_U+30E4_U+30FC 1
 62
   179
420
  2234388
370
    25
100
AcDb2dPolyline
 66
     1
 10
0.0
 20
0.0
 30
0.0
  0
VERTEX
  5
42
330
41
100
AcDbEntity
  8
_U+30EC_U+30A4_U+30E4_U+30FC 1
 62
   179
420
  2234388
370
    25
100
AcDbVertex
100
AcDb2dVertex
 10
82.89882455174146
 20
-113.3925496938742
 30
0.0
  0
VERTEX
  5
43
330
41
100
AcDbEntity
  8
_U+30EC_U+30A4_U+30E4_U+30FC 1
 62
   179
420
  2234388
370
    25
100
AcDbVertex
100
AcDb2dVertex
 10
82.89882455174146
 20
-137.3924805212077
 30
0.0
  0
SEQEND
  5
44
330
41
100
AcDbEntity
  8
_U+30EC_U+30A4_U+30E4_U+30FC 1
 62
   179
420
  2234388
370
    25
  0
POLYLINE
  5
45
330
1F
100
AcDbEntity
  8
_U+30EC_U+30A4_U+30E4_U+30FC 1
 62
   179
420
  2234388
370
    25
100
AcDb2dPolyline
 66
     1
 10
0.0
 20
0.0
 30
0.0
  0
VERTEX
  5
46
330
45
100
AcDbEntity
  8
_U+30EC_U+30A4_U+30E4_U+30FC 1
 62
   179
420
  2234388
370
    25
100
AcDbVertex
100
AcDb2dVertex
 10
82.89882455174146
 20
-137.3924805212077
 30
0.0
  0
VERTEX
  5
47
330
45
100
AcDbEntity
  8
_U+30EC_U+30A4_U+30E4_U+30FC 1
 62
   179
420
  2234388
370
    25
100
AcDbVertex
100
AcDb2dVertex
 10
106.8985431061243
 20
-137.3924805212077
 30
0.0
  0
SEQEND
  5
48
330
45
100
AcDbEntity
  8
_U+30EC_U+30A4_U+30E4_U+30FC 1
 62
   179
420
  2234388
370
    25
  0
POLYLINE
  5
49
330
1F
100
AcDbEntity
  8
_U+30EC_U+30A4_U+30E4_U+30FC 1
 62
   179
420
  2234388
370
    25
100
AcDb2dPolyline
 66
     1
 10
0.0
 20
0.0
 30
0.0
  0
VERTEX
  5
4A
330
49
100
AcDbEntity
  8
_U+30EC_U+30A4_U+30E4_U+30FC 1
 62
   179
420
  2234388
370
    25
100
AcDbVertex
100
AcDb2dVertex
 10
106.8985431061243
 20
-137.3924805212077
 30
0.0
  0
VERTEX
  5
4B
330
49
100
AcDbEntity
  8
_U+30EC_U+30A4_U+30E4_U+30FC 1
 62
   179
420
  2234388
370
    25
100
AcDbVertex
100
AcDb2dVertex
 10
106.8985431061243
 20
-137.992626076613
 30
0.0
  0
SEQEND
  5
4C
330
49
100
AcDbEntity
  8
_U+30EC_U+30A4_U+30E4_U+30FC 1
 62
   179
420
  2234388
370
    25
  0
POLYLINE
  5
4D
330
1F
100
AcDbEntity
  8
_U+30EC_U+30A4_U+30E4_U+30FC 1
 62
   179
420
  2234388
370
    25
100
AcDb2dPolyline
 66
     1
 10
0.0
 20
0.0
 30
0.0
  0
VERTEX
  5
4E
330
4D
100
AcDbEntity
  8
_U+30EC_U+30A4_U+30E4_U+30FC 1
 62
   179
420
  2234388
370
    25
100
AcDbVertex
100
AcDb2dVertex
 10
82.29867901149689
 20
-113.3925496938742
 30
0.0
  0
VERTEX
  5
4F
330
4D
100
AcDbEntity
  8
_U+30EC_U+30A4_U+30E4_U+30FC 1
 62
   179
420
  2234388
370
    25
100
AcDbVertex
100
AcDb2dVertex
 10
82.89882455174146
 20
-113.3925496938742
 30
0.0
  0
SEQEND
  5
50
330
4D
100
AcDbEntity
  8
_U+30EC_U+30A4_U+30E4_U+30FC 1
 62
   179
420
  2234388
370
    25
  0
POLYLINE
  5
51
330
1F
100
AcDbEntity
  8
_U+30EC_U+30A4_U+30E4_U+30FC 1
  6
AI-Linetype-1
 62
   154
420
    23468
370
    25
100
AcDb2dPolyline
 66
     1
 10
0.0
 20
0.0
 30
0.0
  0
VERTEX
  5
52
330
51
100
AcDbEntity
  8
_U+30EC_U+30A4_U+30E4_U+30FC 1
  6
AI-Linetype-1
 62
   154
420
    23468
370
    25
100
AcDbVertex
100
AcDb2dVertex
 10
83.39902815009131
 20
-113.3925496938742
 30
0.0
  0
VERTEX
  5
53
330
51
100
AcDbEntity
  8
_U+30EC_U+30A4_U+30E4_U+30FC 1
  6
AI-Linetype-1
 62
   154
420
    23468
370
    25
100
AcDbVertex
100
AcDb2dVertex
 10
83.39902815009131
 20
-123.3924591358186
 30
0.0
  0
SEQEND
  5
55
330
51
100
AcDbEntity
  8
_U+30EC_U+30A4_U+30E4_U+30FC 1
  6
AI-Linetype-1
 62
   154
420
    23468
370
    25
  0
POLYLINE
  5
56
330
1F
100
AcDbEntity
  8
_U+30EC_U+30A4_U+30E4_U+30FC 1
  6
AI-Linetype-2
 62
   154
420
    23468
370
    25
100
AcDb2dPolyline
 66
     1
 10
0.0
 20
0.0
 30
0.0
  0
VERTEX
  5
57
330
56
100
AcDbEntity
  8
_U+30EC_U+30A4_U+30E4_U+30FC 1
  6
AI-Linetype-2
 62
   154
420
    23468
370
    25
100
AcDbVertex
100
AcDb2dVertex
 10
96.89881030568317
 20
-136.8925944102211
 30
0.0
  0
VERTEX
  5
58
330
56
100
AcDbEntity
  8
_U+30EC_U+30A4_U+30E4_U+30FC 1
  6
AI-Linetype-2
 62
   154
420
    23468
370
    25
100
AcDbVertex
100
AcDb2dVertex
 10
106.8985431061243
 20
-136.8925944102211
 30
0.0
  0
SEQEND
  5
5A
330
56
100
AcDbEntity
  8
_U+30EC_U+30A4_U+30E4_U+30FC 1
  6
AI-Linetype-2
 62
   154
420
    23468
370
    25
  0
POLYLINE
  5
5B
330
1F
100
AcDbEntity
  8
_U+30EC_U+30A4_U+30E4_U+30FC 1
 62
   179
420
  2234388
370
     9
100
AcDb2dPolyline
 66
     1
 10
0.0
 20
0.0
 30
0.0
  0
VERTEX
  5
5C
330
5B
100
AcDbEntity
  8
_U+30EC_U+30A4_U+30E4_U+30FC 1
 62
   179
420
  2234388
370
     9
100
AcDbVertex
100
AcDb2dVertex
 10
83.89859674845736
 20
-121.3924208029854
 30
0.0
  0
VERTEX
  5
5D
330
5B
100
AcDbEntity
  8
_U+30EC_U+30A4_U+30E4_U+30FC 1
 62
   179
420
  2234388
370
     9
100
AcDbVertex
100
AcDb2dVertex
 10
95.59381478342083
 20
-121.3924208029854
 30
0.0
  0
SEQEND
  5
5E
330
5B
100
AcDbEntity
  8
_U+30EC_U+30A4_U+30E4_U+30FC 1
 62
   179
420
  2234388
370
     9
  0
POLYLINE
  5
5F
330
1F
100
AcDbEntity
  8
_U+30EC_U+30A4_U+30E4_U+30FC 1
 62
   179
420
  2234388
370
     9
100
AcDb2dPolyline
 66
     1
 10
0.0
 20
0.0
 30
0.0
  0
VERTEX
  5
60
330
5F
100
AcDbEntity
  8
_U+30EC_U+30A4_U+30E4_U+30FC 1
 62
   179
420
  2234388
370
     9
100
AcDbVertex
100
AcDb2dVertex
 10
83.89859674845736
 20
-121.3924208029854
 30
0.0
  0
VERTEX
  5
61
330
5F
100
AcDbEntity
  8
_U+30EC_U+30A4_U+30E4_U+30FC 1
 62
   179
420
  2234388
370
     9
100
AcDbVertex
100
AcDb2dVertex
 10
84.86457497878375
 20
-121.1336935808278
 30
0.0
  0
SEQEND
  5
62
330
5F
100
AcDbEntity
  8
_U+30EC_U+30A4_U+30E4_U+30FC 1
 62
   179
420
  2234388
370
     9
  0
POLYLINE
  5
63
330
1F
100
AcDbEntity
  8
_U+30EC_U+30A4_U+30E4_U+30FC 1
 62
   179
420
  2234388
370
     9
100
AcDb2dPolyline
 66
     1
 10
0.0
 20
0.0
 30
0.0
  0
VERTEX
  5
64
330
63
100
AcDbEntity
  8
_U+30EC_U+30A4_U+30E4_U+30FC 1
 62
   179
420
  2234388
370
     9
100
AcDbVertex
100
AcDb2dVertex
 10
83.89859674845736
 20
-121.3924208029854
 30
0.0
  0
VERTEX
  5
65
330
63
100
AcDbEntity
  8
_U+30EC_U+30A4_U+30E4_U+30FC 1
 62
   179
420
  2234388
370
     9
100
AcDbVertex
100
AcDb2dVertex
 10
84.86457497878375
 20
-121.6513244140315
 30
0.0
  0
SEQEND
  5
66
330
63
100
AcDbEntity
  8
_U+30EC_U+30A4_U+30E4_U+30FC 1
 62
   179
420
  2234388
370
     9
  0
POLYLINE
  5
67
330
1F
100
AcDbEntity
  8
_U+30EC_U+30A4_U+30E4_U+30FC 1
 62
   179
420
  2234388
370
     9
100
AcDb2dPolyline
 66
     1
 10
0.0
 20
0.0
 30
0.0
  0
VERTEX
  5
68
330
67
100
AcDbEntity
  8
_U+30EC_U+30A4_U+30E4_U+30FC 1
 62
   179
420
  2234388
370
     9
100
AcDbVertex
100
AcDb2dVertex
 10
98.89835469911499
 20
-136.3923555214574
 30
0.0
  0
VERTEX
  5
69
330
67
100
AcDbEntity
  8
_U+30EC_U+30A4_U+30E4_U+30FC 1
 62
   179
420
  2234388
370
     9
100
AcDbVertex
100
AcDb2dVertex
 10
99.1574346925053
 20
-135.4263441328103
 30
0.0
  0
SEQEND
  5
6A
330
67
100
AcDbEntity
  8
_U+30EC_U+30A4_U+30E4_U+30FC 1
 62
   179
420
  2234388
370
     9
  0
POLYLINE
  5
6B
330
1F
100
AcDbEntity
  8
_U+30EC_U+30A4_U+30E4_U+30FC 1
 62
   179
420
  2234388
370
     9
100
AcDb2dPolyline
 66
     1
 10
0.0
 20
0.0
 30
0.0
  0
VERTEX
  5
6C
330
6B
100
AcDbEntity
  8
_U+30EC_U+30A4_U+30E4_U+30FC 1
 62
   179
420
  2234388
370
     9
100
AcDbVertex
100
AcDb2dVertex
 10
98.89835469911499
 20
-136.3923555214574
 30
0.0
  0
VERTEX
  5
6D
330
6B
100
AcDbEntity
  8
_U+30EC_U+30A4_U+30E4_U+30FC 1
 62
   179
420
  2234388
370
     9
100
AcDbVertex
100
AcDb2dVertex
 10
98.89835469911499
 20
-122.7714996915295
 30
0.0
  0
SEQEND
  5
6E
330
6B
100
AcDbEntity
  8
_U+30EC_U+30A4_U+30E4_U+30FC 1
 62
   179
420
  2234388
370
     9
  0
POLYLINE
  5
6F
330
1F
100
AcDbEntity
  8
_U+30EC_U+30A4_U+30E4_U+30FC 1
 62
   179
420
  2234388
370
     9
100
AcDb2dPolyline
 66
     1
 10
0.0
 20
0.0
 30
0.0
  0
VERTEX
  5
70
330
6F
100
AcDbEntity
  8
_U+30EC_U+30A4_U+30E4_U+30FC 1
 62
   179
420
  2234388
370
     9
100
AcDbVertex
100
AcDb2dVertex
 10
98.89835469911499
 20
-136.3923555214574
 30
0.0
  0
VERTEX
  5
71
330
6F
100
AcDbEntity
  8
_U+30EC_U+30A4_U+30E4_U+30FC 1
 62
   179
420
  2234388
370
     9
100
AcDbVertex
100
AcDb2dVertex
 10
98.63998026126222
 20
-135.4263441328103
 30
0.0
  0
SEQEND
  5
72
330
6F
100
AcDbEntity
  8
_U+30EC_U+30A4_U+30E4_U+30FC 1
 62
   179
420
  2234388
370
     9
  0
POLYLINE
  5
73
330
1F
100
AcDbEntity
  8
_U+30EC_U+30A4_U+30E4_U+30FC 1
 62
   179
420
  2234388
370
    25
100
AcDb2dPolyline
 66
     1
 10
0.0
 20
0.0
 30
0.0
  0
VERTEX
  5
74
330
73
100
AcDbEntity
  8
_U+30EC_U+30A4_U+30E4_U+30FC 1
 62
   179
420
  2234388
370
    25
100
AcDbVertex
100
AcDb2dVertex
 10
106.8985431061243
 20
-137.992626076613
 30
0.0
  0
VERTEX
  5
75
330
73
100
AcDbEntity
  8
_U+30EC_U+30A4_U+30E4_U+30FC 1
 62
   179
420
  2234388
370
    25
100
AcDbVertex
100
AcDb2dVertex
 10
82.83059733125985
 20
-138.3925702431798
 30
0.0
  0
SEQEND
  5
76
330
73
100
AcDbEntity
  8
_U+30EC_U+30A4_U+30E4_U+30FC 1
 62
   179
420
  2234388
370
    25
  0
POLYLINE
  5
77
330
1F
100
AcDbEntity
  8
_U+30EC_U+30A4_U+30E4_U+30FC 1
 62
   179
420
  2234388
370
    25
100
AcDb2dPolyline
 66
     1
 10
0.0
 20
0.0
 30
0.0
  0
VERTEX
  5
78
330
77
100
AcDbEntity
  8
_U+30EC_U+30A4_U+30E4_U+30FC 1
 62
   179
420
  2234388
370
    25
100
AcDbVertex
100
AcDb2dVertex
 10
82.29867901149689
 20
-113.3925496938742
 30
0.0
  0
VERTEX
  5
79
330
77
100
AcDbEntity
  8
_U+30EC_U+30A4_U+30E4_U+30FC 1
 62
   179
420
  2234388
370
    25
100
AcDbVertex
100
AcDb2dVertex
 10
81.89905235502555
 20
-137.8827005210846
 30
0.0
  0
SEQEND
  5
7A
330
77
100
AcDbEntity
  8
_U+30EC_U+30A4_U+30E4_U+30FC 1
 62
   179
420
  2234388
370
    25
  0
SPLINE
  5
7B
330
1F
100
AcDbEntity
  8
_U+30EC_U+30A4_U+30E4_U+30FC 1
 62
   179
420
  2234388
370
    25
100
AcDbSpline
210
0.0
220
0.0
230
1.0
 70
     8
 71
     3
 72
    11
 73
     7
 74
     0
 42
0.0000000001
 43
0.0000000001
 12
1.0
 22
0.0
 32
0.0
 13
1.0
 23
0.0
 33
0.0
 40
0.0
 40
0.0
 40
0.0
 40
0.0
 40
1.0
 40
1.0
 40
1.0
 40
2.0
 40
2.0
 40
2.0
 40
2.0
 10
81.89905235502555
 20
-137.8827005210846
 30
0.0
 10
81.89354902183261
 20
-138.2141352432242
 30
0.0
 10
82.15813234841586
 20
-138.4869735764893
 30
0.0
 10
82.48886150664492
 20
-138.4924769098215
 30
0.0
 10
82.6101112257738
 20
-138.4945582987099
 30
0.0
 10
82.72931483384379
 20
-138.4594216320515
 30
0.0
 10
82.83059733125985
 20
-138.3925702431798
 30
0.0
  0
SPLINE
  5
7C
330
1F
100
AcDbEntity
  8
_U+30EC_U+30A4_U+30E4_U+30FC 1
 62
   179
420
  2234388
370
     9
100
AcDbSpline
210
0.0
220
0.0
230
1.0
 70
    11
 71
     3
 72
    17
 73
    13
 74
     0
 42
0.0000000001
 43
0.0000000001
 12
1.0
 22
0.0
 32
0.0
 13
1.0
 23
0.0
 33
0.0
 40
0.0
 40
0.0
 40
0.0
 40
0.0
 40
1.0
 40
1.0
 40
1.0
 40
2.0
 40
2.0
 40
2.0
 40
3.0
 40
3.0
 40
3.0
 40
4.0
 40
4.0
 40
4.0
 40
4.0
 10
77.99919995451907
 20
-113.3925496938742
 30
0.0
 10
77.99919995451907
 20
-113.33726941611
 30
0.0
 10
77.9543971778843
 20
-113.2924666383436
 30
0.0
 10
77.89929329040123
 20
-113.2924666383436
 30
0.0
 10
77.84348384738061
 20
-113.2924666383436
 30
0.0
 10
77.79938662628341
 20
-113.33726941611
 30
0.0
 10
77.79938662628341
 20
-113.3925496938742
 30
0.0
 10
77.79938662628341
 20
-113.4476888605269
 30
0.0
 10
77.84348384738061
 20
-113.4924563605158
 30
0.0
 10
77.89929329040123
 20
-113.4924563605158
 30
0.0
 10
77.9543971778843
 20
-113.4924563605158
 30
0.0
 10
77.99919995451907
 20
-113.4476888605269
 30
0.0
 10
77.99919995451907
 20
-113.3925496938742
 30
0.0
  0
SPLINE
  5
7D
330
1F
100
AcDbEntity
  8
_U+30EC_U+30A4_U+30E4_U+30FC 1
 62
   179
420
  2234388
370
     9
100
AcDbSpline
210
0.0
220
0.0
230
1.0
 70
    11
 71
     3
 72
    17
 73
    13
 74
     0
 42
0.0000000001
 43
0.0000000001
 12
1.0
 22
0.0
 32
0.0
 13
1.0
 23
0.0
 33
0.0
 40
0.0
 40
0.0
 40
0.0
 40
0.0
 40
1.0
 40
1.0
 40
1.0
 40
2.0
 40
2.0
 40
2.0
 40
3.0
 40
3.0
 40
3.0
 40
4.0
 40
4.0
 40
4.0
 40
4.0
 10
77.99919995451907
 20
-138.3925702431798
 30
0.0
 10
77.99919995451907
 20
-138.3371135765265
 30
0.0
 10
77.9543971778843
 20
-138.292346076538
 30
0.0
 10
77.89929329040123
 20
-138.292346076538
 30
0.0
 10
77.84348384738061
 20
-138.292346076538
 30
0.0
 10
77.79938662628341
 20
-138.3371135765265
 30
0.0
 10
77.79938662628341
 20
-138.3925702431798
 30
0.0
 10
77.79938662628341
 20
-138.4477094098323
 30
0.0
 10
77.84348384738061
 20
-138.4924769098215
 30
0.0
 10
77.89929329040123
 20
-138.4924769098215
 30
0.0
 10
77.9543971778843
 20
-138.4924769098215
 30
0.0
 10
77.99919995451907
 20
-138.4477094098323
 30
0.0
 10
77.99919995451907
 20
-138.3925702431798
 30
0.0
  0
SPLINE
  5
7E
330
1F
100
AcDbEntity
  8
_U+30EC_U+30A4_U+30E4_U+30FC 1
 62
   179
420
  2234388
370
     9
100
AcDbSpline
210
0.0
220
0.0
230
1.0
 70
    11
 71
     3
 72
    17
 73
    13
 74
     0
 42
0.0000000001
 43
0.0000000001
 12
1.0
 22
0.0
 32
0.0
 13
1.0
 23
0.0
 33
0.0
 40
0.0
 40
0.0
 40
0.0
 40
0.0
 40
1.0
 40
1.0
 40
1.0
 40
2.0
 40
2.0
 40
2.0
 40
3.0
 40
3.0
 40
3.0
 40
4.0
 40
4.0
 40
4.0
 40
4.0
 10
81.99896109061142
 20
-142.3923294088461
 30
0.0
 10
81.99896109061142
 20
-142.3372255199712
 30
0.0
 10
81.95415831284468
 20
-142.2924227422045
 30
0.0
 10
81.89905235502555
 20
-142.2924227422045
 30
0.0
 10
81.8439131897656
 20
-142.2924227422045
 30
0.0
 10
81.79914569090771
 20
-142.3372255199712
 30
0.0
 10
81.79914569090771
 20
-142.3923294088461
 30
0.0
 10
81.79914569090771
 20
-142.4478213532769
 30
0.0
 10
81.8439131897656
 20
-142.4925888532655
 30
0.0
 10
81.89905235502555
 20
-142.4925888532655
 30
0.0
 10
81.95415831284468
 20
-142.4925888532655
 30
0.0
 10
81.99896109061142
 20
-142.4478213532769
 30
0.0
 10
81.99896109061142
 20
-142.3923294088461
 30
0.0
  0
SPLINE
  5
7F
330
1F
100
AcDbEntity
  8
_U+30EC_U+30A4_U+30E4_U+30FC 1
 62
   179
420
  2234388
370
     9
100
AcDbSpline
210
0.0
220
0.0
230
1.0
 70
    11
 71
     3
 72
    17
 73
    13
 74
     0
 42
0.0000000001
 43
0.0000000001
 12
1.0
 22
0.0
 32
0.0
 13
1.0
 23
0.0
 33
0.0
 40
0.0
 40
0.0
 40
0.0
 40
0.0
 40
1.0
 40
1.0
 40
1.0
 40
2.0
 40
2.0
 40
2.0
 40
3.0
 40
3.0
 40
3.0
 40
4.0
 40
4.0
 40
4.0
 40
4.0
 10
106.9984497702421
 20
-142.3923294088461
 30
0.0
 10
106.9984497702421
 20
-142.3372255199712
 30
0.0
 10
106.9536822713842
 20
-142.2924227422045
 30
0.0
 10
106.8985431061243
 20
-142.2924227422045
 30
0.0
 10
106.8434392186412
 20
-142.2924227422045
 30
0.0
 10
106.7986364420065
 20
-142.3372255199712
 30
0.0
 10
106.7986364420065
 20
-142.3923294088461
 30
0.0
 10
106.7986364420065
 20
-142.4478213532769
 30
0.0
 10
106.8434392186412
 20
-142.4925888532655
 30
0.0
 10
106.8985431061243
 20
-142.4925888532655
 30
0.0
 10
106.9536822713842
 20
-142.4925888532655
 30
0.0
 10
106.9984497702421
 20
-142.4478213532769
 30
0.0
 10
106.9984497702421
 20
-142.3923294088461
 30
0.0
  0
INSERT
  5
81
330
1F
100
AcDbEntity
  8
_U+30EC_U+30A4_U+30E4_U+30FC 1
100
AcDbBlockReference
  2
block 2
 10
0.0
 20
0.0
 30
0.0
  0
POLYLINE
  5
A8
330
1F
100
AcDbEntity
  8
_U+30EC_U+30A4_U+30E4_U+30FC 1
 62
   179
420
  2234388
370
     9
100
AcDb2dPolyline
 66
     1
 10
0.0
 20
0.0
 30
0.0
  0
VERTEX
  5
A9
330
A8
100
AcDbEntity
  8
_U+30EC_U+30A4_U+30E4_U+30FC 1
 62
   179
420
  2234388
370
     9
100
AcDbVertex
100
AcDb2dVertex
 10
77.89929329040123
 20
-113.3925496938742
 30
0.0
  0
VERTEX
  5
AA
330
A8
100
AcDbEntity
  8
_U+30EC_U+30A4_U+30E4_U+30FC 1
 62
   179
420
  2234388
370
     9
100
AcDbVertex
100
AcDb2dVertex
 10
77.89929329040123
 20
-138.3925702431798
 30
0.0
  0
SEQEND
  5
AB
330
A8
100
AcDbEntity
  8
_U+30EC_U+30A4_U+30E4_U+30FC 1
 62
   179
420
  2234388
370
     9
  0
POLYLINE
  5
AC
330
1F
100
AcDbEntity
  8
_U+30EC_U+30A4_U+30E4_U+30FC 1
 62
   179
420
  2234388
370
     9
100
AcDb2dPolyline
 66
     1
 10
0.0
 20
0.0
 30
0.0
  0
VERTEX
  5
AD
330
AC
100
AcDbEntity
  8
_U+30EC_U+30A4_U+30E4_U+30FC 1
 62
   179
420
  2234388
370
     9
100
AcDbVertex
100
AcDb2dVertex
 10
79.7589612985127
 20
-113.3925496938742
 30
0.0
  0
VERTEX
  5
AE
330
AC
100
AcDbEntity
  8
_U+30EC_U+30A4_U+30E4_U+30FC 1
 62
   179
420
  2234388
370
     9
100
AcDbVertex
100
AcDb2dVertex
 10
76.89885275855299
 20
-113.3925496938742
 30
0.0
  0
SEQEND
  5
AF
330
AC
100
AcDbEntity
  8
_U+30EC_U+30A4_U+30E4_U+30FC 1
 62
   179
420
  2234388
370
     9
  0
POLYLINE
  5
B0
330
1F
100
AcDbEntity
  8
_U+30EC_U+30A4_U+30E4_U+30FC 1
 62
   179
420
  2234388
370
     9
100
AcDb2dPolyline
 66
     1
 10
0.0
 20
0.0
 30
0.0
  0
VERTEX
  5
B1
330
B0
100
AcDbEntity
  8
_U+30EC_U+30A4_U+30E4_U+30FC 1
 62
   179
420
  2234388
370
     9
100
AcDbVertex
100
AcDb2dVertex
 10
80.29087961827567
 20
-138.3925702431798
 30
0.0
  0
VERTEX
  5
B2
330
B0
100
AcDbEntity
  8
_U+30EC_U+30A4_U+30E4_U+30FC 1
 62
   179
420
  2234388
370
     9
100
AcDbVertex
100
AcDb2dVertex
 10
76.89885275855299
 20
-138.3925702431798
 30
0.0
  0
SEQEND
  5
B3
330
B0
100
AcDbEntity
  8
_U+30EC_U+30A4_U+30E4_U+30FC 1
 62
   179
420
  2234388
370
     9
  0
INSERT
  5
B5
330
1F
100
AcDbEntity
  8
_U+30EC_U+30A4_U+30E4_U+30FC 1
100
AcDbBlockReference
  2
block 3
 10
0.0
 20
0.0
 30
0.0
  0
POLYLINE
  5
BC
330
1F
100
AcDbEntity
  8
_U+30EC_U+30A4_U+30E4_U+30FC 1
 62
   179
420
  2234388
370
     9
100
AcDb2dPolyline
 66
     1
 10
0.0
 20
0.0
 30
0.0
  0
VERTEX
  5
BD
330
BC
100
AcDbEntity
  8
_U+30EC_U+30A4_U+30E4_U+30FC 1
 62
   179
420
  2234388
370
     9
100
AcDbVertex
100
AcDb2dVertex
 10
106.8985431061243
 20
-142.3923294088461
 30
0.0
  0
VERTEX
  5
BE
330
BC
100
AcDbEntity
  8
_U+30EC_U+30A4_U+30E4_U+30FC 1
 62
   179
420
  2234388
370
     9
100
AcDbVertex
100
AcDb2dVertex
 10
81.89905235502555
 20
-142.3923294088461
 30
0.0
  0
SEQEND
  5
BF
330
BC
100
AcDbEntity
  8
_U+30EC_U+30A4_U+30E4_U+30FC 1
 62
   179
420
  2234388
370
     9
  0
POLYLINE
  5
C0
330
1F
100
AcDbEntity
  8
_U+30EC_U+30A4_U+30E4_U+30FC 1
 62
   179
420
  2234388
370
     9
100
AcDb2dPolyline
 66
     1
 10
0.0
 20
0.0
 30
0.0
  0
VERTEX
  5
C1
330
C0
100
AcDbEntity
  8
_U+30EC_U+30A4_U+30E4_U+30FC 1
 62
   179
420
  2234388
370
     9
100
AcDbVertex
100
AcDb2dVertex
 10
106.8985431061243
 20
-140.5323438537556
 30
0.0
  0
VERTEX
  5
C2
330
C0
100
AcDbEntity
  8
_U+30EC_U+30A4_U+30E4_U+30FC 1
 62
   179
420
  2234388
370
     9
100
AcDbVertex
100
AcDb2dVertex
 10
106.8985431061243
 20
-143.3924544085964
 30
0.0
  0
SEQEND
  5
C3
330
C0
100
AcDbEntity
  8
_U+30EC_U+30A4_U+30E4_U+30FC 1
 62
   179
420
  2234388
370
     9
  0
POLYLINE
  5
C4
330
1F
100
AcDbEntity
  8
_U+30EC_U+30A4_U+30E4_U+30FC 1
 62
   179
420
  2234388
370
     9
100
AcDb2dPolyline
 66
     1
 10
0.0
 20
0.0
 30
0.0
  0
VERTEX
  5
C5
330
C4
100
AcDbEntity
  8
_U+30EC_U+30A4_U+30E4_U+30FC 1
 62
   179
420
  2234388
370
     9
100
AcDbVertex
100
AcDb2dVertex
 10
81.89905235502555
 20
-140.4324371871139
 30
0.0
  0
VERTEX
  5
C6
330
C4
100
AcDbEntity
  8
_U+30EC_U+30A4_U+30E4_U+30FC 1
 62
   179
420
  2234388
370
     9
100
AcDbVertex
100
AcDb2dVertex
 10
81.89905235502555
 20
-143.3924544085964
 30
0.0
  0
SEQEND
  5
C7
330
C4
100
AcDbEntity
  8
_U+30EC_U+30A4_U+30E4_U+30FC 1
 62
   179
420
  2234388
370
     9
  0
INSERT
  5
C9
330
1F
100
AcDbEntity
  8
_U+30EC_U+30A4_U+30E4_U+30FC 1
100
AcDbBlockReference
  2
block 4
 10
0.0
 20
0.0
 30
0.0
  0
ENDSEC
  0
SECTION
  2
OBJECTS
  0
DICTIONARY
  5
C
330
0
100
AcDbDictionary
281
     1
  3
ACAD_GROUP
350
D
  3
ACAD_LAYOUT
350
1A
  3
ACAD_MATERIAL
350
3B
  3
ACAD_MLEADERSTYLE
350
D1
  3
ACAD_MLINESTYLE
350
17
  3
ACAD_PLOTSETTINGS
350
19
  3
ACAD_PLOTSTYLENAME
350
E
  3
ACAD_TABLESTYLE
350
D0
  3
ACAD_VISUALSTYLE
350
2A
  0
SUN
  5
3F
330
29
100
AcDbSun
 90
        1
290
     0
 63
     7
421
 16777215
 40
1.0
291
     1
 91
  2455826
 92
 54000000
292
     0
 70
     2
 71
   256
280
     1
  0
DICTIONARY
  5
D
102
{ACAD_REACTORS
330
C
102
}
330
C
100
AcDbDictionary
281
     1
  0
DICTIONARY
  5
1A
102
{ACAD_REACTORS
330
C
102
}
330
C
100
AcDbDictionary
281
     1
  3
Layout1
350
1E
  3
Layout2
350
26
  3
Model
350
22
  0
DICTIONARY
  5
3B
102
{ACAD_REACTORS
330
C
102
}
330
C
100
AcDbDictionary
281
     1
  3
ByBlock
350
3D
  3
ByLayer
350
3C
  3
Global
350
3E
  0
DICTIONARY
  5
D1
102
{ACAD_REACTORS
330
C
102
}
330
C
100
AcDbDictionary
281
     1
  0
DICTIONARY
  5
17
102
{ACAD_REACTORS
330
C
102
}
330
C
100
AcDbDictionary
281
     1
  3
Standard
350
18
  0
DICTIONARY
  5
19
102
{ACAD_REACTORS
330
C
102
}
330
C
100
AcDbDictionary
281
     1
  0
ACDBDICTIONARYWDFLT
  5
E
102
{ACAD_REACTORS
330
C
102
}
330
C
100
AcDbDictionary
281
     1
  3
Normal
350
F
100
AcDbDictionaryWithDefault
340
F
  0
DICTIONARY
  5
D0
102
{ACAD_REACTORS
330
C
102
}
330
C
100
AcDbDictionary
281
     1
  0
DICTIONARY
  5
2A
102
{ACAD_REACTORS
330
C
102
}
330
C
100
AcDbDictionary
281
     1
  3
2dWireframe
350
2F
  3
3D Hidden
350
31
  3
3dWireframe
350
30
  3
Basic
350
32
  3
Brighten
350
36
  3
ColorChange
350
3A
  3
Conceptual
350
34
  3
Dim
350
35
  3
Facepattern
350
39
  3
Flat
350
2B
  3
FlatWithEdges
350
2C
  3
Gouraud
350
2D
  3
GouraudWithEdges
350
2E
  3
Linepattern
350
38
  3
Realistic
350
33
  3
Thicken
350
37
  0
LAYOUT
  5
1E
102
{ACAD_REACTORS
330
1A
102
}
330
1A
100
AcDbPlotSettings
  1

  2
none_device
  4

  6

 40
0.0
 41
0.0
 42
0.0
 43
0.0
 44
0.0
 45
0.0
 46
0.0
 47
0.0
 48
0.0
 49
0.0
140
0.0
141
0.0
142
1.0
143
1.0
 70
   688
 72
     0
 73
     0
 74
     5
  7

 75
    16
 76
     0
 77
     2
 78
   300
147
1.0
148
0.0
149
0.0
100
AcDbLayout
  1
Layout1
 70
     1
 71
     1
 10
0.0
 20
0.0
 11
12.0
 21
9.0
 12
0.0
 22
0.0
 32
0.0
 14
1.000000000000000E+20
 24
1.000000000000000E+20
 34
1.000000000000000E+20
 15
-1.000000000000000E+20
 25
-1.000000000000000E+20
 35
-1.000000000000000E+20
146
0.0
 13
0.0
 23
0.0
 33
0.0
 16
1.0
 26
0.0
 36
0.0
 17
0.0
 27
1.0
 37
0.0
 76
     0
330
1B
  0
LAYOUT
  5
26
102
{ACAD_REACTORS
330
1A
102
}
330
1A
100
AcDbPlotSettings
  1

  2
none_device
  4

  6

 40
0.0
 41
0.0
 42
0.0
 43
0.0
 44
0.0
 45
0.0
 46
0.0
 47
0.0
 48
0.0
 49
0.0
140
0.0
141
0.0
142
1.0
143
1.0
 70
   688
 72
     0
 73
     0
 74
     5
  7

 75
    16
 76
     0
 77
     2
 78
   300
147
1.0
148
0.0
149
0.0
100
AcDbLayout
  1
Layout2
 70
     1
 71
     2
 10
0.0
 20
0.0
 11
0.0
 21
0.0
 12
0.0
 22
0.0
 32
0.0
 14
0.0
 24
0.0
 34
0.0
 15
0.0
 25
0.0
 35
0.0
146
0.0
 13
0.0
 23
0.0
 33
0.0
 16
1.0
 26
0.0
 36
0.0
 17
0.0
 27
1.0
 37
0.0
 76
     0
330
23
  0
LAYOUT
  5
22
102
{ACAD_REACTORS
330
1A
102
}
330
1A
100
AcDbPlotSettings
  1

  2
none_device
  4

  6

 40
0.0
 41
0.0
 42
0.0
 43
0.0
 44
0.0
 45
0.0
 46
0.0
 47
0.0
 48
0.0
 49
0.0
140
0.0
141
0.0
142
1.0
143
1.0
 70
  1712
 72
     0
 73
     0
 74
     0
  7

 75
     0
 76
     0
 77
     2
 78
   300
147
1.0
148
0.0
149
0.0
100
AcDbLayout
  1
Model
 70
     1
 71
     0
 10
0.0
 20
0.0
 11
12.0
 21
9.0
 12
0.0
 22
0.0
 32
0.0
 14
1.000000000000000E+20
 24
1.000000000000000E+20
 34
1.000000000000000E+20
 15
-1.000000000000000E+20
 25
-1.000000000000000E+20
 35
-1.000000000000000E+20
146
0.0
 13
0.0
 23
0.0
 33
0.0
 16
1.0
 26
0.0
 36
0.0
 17
0.0
 27
1.0
 37
0.0
 76
     0
330
1F
331
29
  0
MATERIAL
  5
3D
102
{ACAD_REACTORS
330
3B
102
}
330
3B
100
AcDbMaterial
  1
ByBlock
 72
     1
 94
      127
  0
MATERIAL
  5
3C
102
{ACAD_REACTORS
330
3B
102
}
330
3B
100
AcDbMaterial
  1
ByLayer
 72
     1
 94
      127
  0
MATERIAL
  5
3E
102
{ACAD_REACTORS
330
3B
102
}
330
3B
100
AcDbMaterial
  1
Global
 72
     1
 94
      127
  0
MLINESTYLE
  5
18
102
{ACAD_REACTORS
330
17
102
}
330
17
100
AcDbMlineStyle
  2
Standard
 70
     0
  3

 62
   256
 51
90.0
 52
90.0
 71
     2
 49
0.5
 62
   256
  6
BYLAYER
 49
-0.5
 62
   256
  6
BYLAYER
  0
ACDBPLACEHOLDER
  5
F
102
{ACAD_REACTORS
330
E
102
}
330
E
  0
VISUALSTYLE
  5
2F
102
{ACAD_REACTORS
330
2A
102
}
330
2A
100
AcDbVisualStyle
  2
2dWireframe
 70
     4
177
     2
291
     0
 71
     0
176
     1
 72
     2
176
     1
 73
     0
176
     1
 90
        0
176
     1
 40
-0.6
176
     1
 41
-30.0
176
     1
 62
     5
 63
     7
421
 16777215
176
     1
 74
     1
176
     1
 91
        4
176
     1
 64
     7
176
     1
 65
   257
176
     1
 75
     1
176
     1
175
     1
176
     1
 42
1.0
176
     1
 92
        0
176
     1
 66
   257
176
     1
 43
1.0
176
     1
 76
     1
176
     1
 77
     6
176
     1
 78
     2
176
     1
 67
     7
176
     1
 79
     5
176
     1
170
     0
176
     1
171
     0
176
     1
290
     0
176
     1
 93
        1
176
     1
 44
0.0
176
     1
173
     0
176
     1
  0
VISUALSTYLE
  5
31
102
{ACAD_REACTORS
330
2A
102
}
330
2A
100
AcDbVisualStyle
  2
3D Hidden
 70
     6
177
     2
291
     0
 71
     1
176
     1
 72
     2
176
     1
 73
     2
176
     1
 90
        0
176
     1
 40
-0.6
176
     1
 41
-30.0
176
     1
 62
     5
 63
     7
421
 16777215
176
     1
 74
     2
176
     1
 91
        2
176
     1
 64
     7
176
     1
 65
   257
176
     1
 75
     2
176
     1
175
     1
176
     1
 42
40.0
176
     1
 92
        0
176
     1
 66
   257
176
     1
 43
1.0
176
     1
 76
     1
176
     1
 77
     6
176
     1
 78
     2
176
     1
 67
     7
176
     1
 79
     3
176
     1
170
     0
176
     1
171
     0
176
     1
290
     0
176
     1
 93
        1
176
     1
 44
0.0
176
     1
173
     0
176
     1
  0
VISUALSTYLE
  5
30
102
{ACAD_REACTORS
330
2A
102
}
330
2A
100
AcDbVisualStyle
  2
3dWireframe
 70
     5
177
     2
291
     0
 71
     0
176
     1
 72
     2
176
     1
 73
     0
176
     1
 90
        0
176
     1
 40
-0.6
176
     1
 41
-30.0
176
     1
 62
     5
 63
     7
421
 16777215
176
     1
 74
     1
176
     1
 91
        4
176
     1
 64
     7
176
     1
 65
   257
176
     1
 75
     1
176
     1
175
     1
176
     1
 42
1.0
176
     1
 92
        0
176
     1
 66
   257
176
     1
 43
1.0
176
     1
 76
     1
176
     1
 77
     6
176
     1
 78
     2
176
     1
 67
     7
176
     1
 79
     5
176
     1
170
     0
176
     1
171
     0
176
     1
290
     0
176
     1
 93
        1
176
     1
 44
0.0
176
     1
173
     0
176
     1
  0
VISUALSTYLE
  5
32
102
{ACAD_REACTORS
330
2A
102
}
330
2A
100
AcDbVisualStyle
  2
Basic
 70
     7
177
     2
291
     1
 71
     1
176
     1
 72
     0
176
     1
 73
     1
176
     1
 90
        0
176
     1
 40
-0.6
176
     1
 41
-30.0
176
     1
 62
     5
 63
     7
421
 16777215
176
     1
 74
     0
176
     1
 91
        4
176
     1
 64
     7
176
     1
 65
   257
176
     1
 75
     1
176
     1
175
     1
176
     1
 42
1.0
176
     1
 92
        8
176
     1
 66
     7
176
     1
 43
1.0
176
     1
 76
     1
176
     1
 77
     6
176
     1
 78
     2
176
     1
 67
     7
176
     1
 79
     5
176
     1
170
     0
176
     1
171
     0
176
     1
290
     0
176
     1
 93
        1
176
     1
 44
0.0
176
     1
173
     0
176
     1
  0
VISUALSTYLE
  5
36
102
{ACAD_REACTORS
330
2A
102
}
330
2A
100
AcDbVisualStyle
  2
Brighten
 70
    12
177
     2
291
     1
 71
     2
176
     1
 72
     2
176
     1
 73
     0
176
     1
 90
        0
176
     1
 40
-0.6
176
     1
 41
-30.0
176
     1
 62
     5
 63
     7
421
 16777215
176
     1
 74
     1
176
     1
 91
        4
176
     1
 64
     7
176
     1
 65
   257
176
     1
 75
     1
176
     1
175
     1
176
     1
 42
1.0
176
     1
 92
        8
176
     1
 66
     7
176
     1
 43
1.0
176
     1
 76
     1
176
     1
 77
     6
176
     1
 78
     2
176
     1
 67
     7
176
     1
 79
     5
176
     1
170
     0
176
     1
171
     0
176
     1
290
     0
176
     1
 93
        1
176
     1
 44
50.0
176
     1
173
     0
176
     1
  0
VISUALSTYLE
  5
3A
102
{ACAD_REACTORS
330
2A
102
}
330
2A
100
AcDbVisualStyle
  2
ColorChange
 70
    16
177
     2
291
     1
 71
     2
176
     1
 72
     2
176
     1
 73
     3
176
     1
 90
        0
176
     1
 40
-0.6
176
     1
 41
-30.0
176
     1
 62
     5
 63
     8
421
  8421504
176
     1
 74
     1
176
     1
 91
        4
176
     1
 64
     7
176
     1
 65
   257
176
     1
 75
     1
176
     1
175
     1
176
     1
 42
1.0
176
     1
 92
        8
176
     1
 66
     8
424
  8421504
176
     1
 43
1.0
176
     1
 76
     1
176
     1
 77
     6
176
     1
 78
     2
176
     1
 67
     7
176
     1
 79
     5
176
     1
170
     0
176
     1
171
     0
176
     1
290
     0
176
     1
 93
        1
176
     1
 44
0.0
176
     1
173
     0
176
     1
  0
VISUALSTYLE
  5
34
102
{ACAD_REACTORS
330
2A
102
}
330
2A
100
AcDbVisualStyle
  2
Conceptual
 70
     9
177
     2
291
     0
 71
     3
176
     1
 72
     2
176
     1
 73
     0
176
     1
 90
        0
176
     1
 40
-0.6
176
     1
 41
-30.0
176
     1
 62
     5
 63
     7
421
 16777215
176
     1
 74
     2
176
     1
 91
        2
176
     1
 64
     7
176
     1
 65
   257
176
     1
 75
     1
176
     1
175
     1
176
     1
 42
40.0
176
     1
 92
        8
176
     1
 66
     7
176
     1
 43
1.0
176
     1
 76
     1
176
     1
 77
     6
176
     1
 78
     2
176
     1
 67
     7
176
     1
 79
     3
176
     1
170
     0
176
     1
171
     0
176
     1
290
     0
176
     1
 93
        1
176
     1
 44
0.0
176
     1
173
     0
176
     1
  0
VISUALSTYLE
  5
35
102
{ACAD_REACTORS
330
2A
102
}
330
2A
100
AcDbVisualStyle
  2
Dim
 70
    11
177
     2
291
     1
 71
     2
176
     1
 72
     2
176
     1
 73
     0
176
     1
 90
        0
176
     1
 40
-0.6
176
     1
 41
-30.0
176
     1
 62
     5
 63
     7
421
 16777215
176
     1
 74
     1
176
     1
 91
        4
176
     1
 64
     7
176
     1
 65
   257
176
     1
 75
     1
176
     1
175
     1
176
     1
 42
1.0
176
     1
 92
        8
176
     1
 66
     7
176
     1
 43
1.0
176
     1
 76
     1
176
     1
 77
     6
176
     1
 78
     2
176
     1
 67
     7
176
     1
 79
     5
176
     1
170
     0
176
     1
171
     0
176
     1
290
     0
176
     1
 93
        1
176
     1
 44
-50.0
176
     1
173
     0
176
     1
  0
VISUALSTYLE
  5
39
102
{ACAD_REACTORS
330
2A
102
}
330
2A
100
AcDbVisualStyle
  2
Facepattern
 70
    15
177
     2
291
     1
 71
     2
176
     1
 72
     2
176
     1
 73
     0
176
     1
 90
        0
176
     1
 40
-0.6
176
     1
 41
-30.0
176
     1
 62
     5
 63
     7
421
 16777215
176
     1
 74
     1
176
     1
 91
        4
176
     1
 64
     7
176
     1
 65
   257
176
     1
 75
     1
176
     1
175
     1
176
     1
 42
1.0
176
     1
 92
        8
176
     1
 66
     7
176
     1
 43
1.0
176
     1
 76
     1
176
     1
 77
     6
176
     1
 78
     2
176
     1
 67
     7
176
     1
 79
     5
176
     1
170
     0
176
     1
171
     0
176
     1
290
     0
176
     1
 93
        1
176
     1
 44
0.0
176
     1
173
     0
176
     1
  0
VISUALSTYLE
  5
2B
102
{ACAD_REACTORS
330
2A
102
}
330
2A
100
AcDbVisualStyle
  2
Flat
 70
     0
177
     2
291
     1
 71
     2
176
     1
 72
     1
176
     1
 73
     1
176
     1
 90
        2
176
     1
 40
-0.6
176
     1
 41
30.0
176
     1
 62
     5
 63
     7
421
 16777215
176
     1
 74
     0
176
     1
 91
        4
176
     1
 64
     7
176
     1
 65
   257
176
     1
 75
     1
176
     1
175
     1
176
     1
 42
1.0
176
     1
 92
        8
176
     1
 66
     7
176
     1
 43
1.0
176
     1
 76
     1
176
     1
 77
     6
176
     1
 78
     2
176
     1
 67
     7
176
     1
 79
     5
176
     1
170
     0
176
     1
171
     0
176
     1
290
     0
176
     1
 93
       13
176
     1
 44
0.0
176
     1
173
     0
176
     1
  0
VISUALSTYLE
  5
2C
102
{ACAD_REACTORS
330
2A
102
}
330
2A
100
AcDbVisualStyle
  2
FlatWithEdges
 70
     1
177
     2
291
     1
 71
     2
176
     1
 72
     1
176
     1
 73
     1
176
     1
 90
        2
176
     1
 40
-0.6
176
     1
 41
30.0
176
     1
 62
     5
 63
     7
421
 16777215
176
     1
 74
     1
176
     1
 91
        4
176
     1
 64
     7
176
     1
 65
   257
176
     1
 75
     1
176
     1
175
     1
176
     1
 42
1.0
176
     1
 92
        0
176
     1
 66
   257
176
     1
 43
1.0
176
     1
 76
     1
176
     1
 77
     6
176
     1
 78
     2
176
     1
 67
     7
176
     1
 79
     5
176
     1
170
     0
176
     1
171
     0
176
     1
290
     0
176
     1
 93
       13
176
     1
 44
0.0
176
     1
173
     0
176
     1
  0
VISUALSTYLE
  5
2D
102
{ACAD_REACTORS
330
2A
102
}
330
2A
100
AcDbVisualStyle
  2
Gouraud
 70
     2
177
     2
291
     1
 71
     2
176
     1
 72
     2
176
     1
 73
     1
176
     1
 90
        2
176
     1
 40
-0.6
176
     1
 41
30.0
176
     1
 62
     5
 63
     7
421
 16777215
176
     1
 74
     0
176
     1
 91
        4
176
     1
 64
     7
176
     1
 65
   257
176
     1
 75
     1
176
     1
175
     1
176
     1
 42
1.0
176
     1
 92
        0
176
     1
 66
     7
176
     1
 43
1.0
176
     1
 76
     1
176
     1
 77
     6
176
     1
 78
     2
176
     1
 67
     7
176
     1
 79
     5
176
     1
170
     0
176
     1
171
     0
176
     1
290
     0
176
     1
 93
       13
176
     1
 44
0.0
176
     1
173
     0
176
     1
  0
VISUALSTYLE
  5
2E
102
{ACAD_REACTORS
330
2A
102
}
330
2A
100
AcDbVisualStyle
  2
GouraudWithEdges
 70
     3
177
     2
291
     1
 71
     2
176
     1
 72
     2
176
     1
 73
     1
176
     1
 90
        2
176
     1
 40
-0.6
176
     1
 41
30.0
176
     1
 62
     5
 63
     7
421
 16777215
176
     1
 74
     1
176
     1
 91
        4
176
     1
 64
     7
176
     1
 65
   257
176
     1
 75
     1
176
     1
175
     1
176
     1
 42
1.0
176
     1
 92
        0
176
     1
 66
   257
176
     1
 43
1.0
176
     1
 76
     1
176
     1
 77
     6
176
     1
 78
     2
176
     1
 67
     7
176
     1
 79
     5
176
     1
170
     0
176
     1
171
     0
176
     1
290
     0
176
     1
 93
       13
176
     1
 44
0.0
176
     1
173
     0
176
     1
  0
VISUALSTYLE
  5
38
102
{ACAD_REACTORS
330
2A
102
}
330
2A
100
AcDbVisualStyle
  2
Linepattern
 70
    14
177
     2
291
     1
 71
     2
176
     1
 72
     2
176
     1
 73
     0
176
     1
 90
        0
176
     1
 40
-0.6
176
     1
 41
-30.0
176
     1
 62
     5
 63
     7
421
 16777215
176
     1
 74
     1
176
     1
 91
        4
176
     1
 64
     7
176
     1
 65
   257
176
     1
 75
     7
176
     1
175
     7
176
     1
 42
1.0
176
     1
 92
        8
176
     1
 66
     7
176
     1
 43
1.0
176
     1
 76
     1
176
     1
 77
     6
176
     1
 78
     2
176
     1
 67
     7
176
     1
 79
     5
176
     1
170
     0
176
     1
171
     0
176
     1
290
     0
176
     1
 93
        1
176
     1
 44
0.0
176
     1
173
     0
176
     1
  0
VISUALSTYLE
  5
33
102
{ACAD_REACTORS
330
2A
102
}
330
2A
100
AcDbVisualStyle
  2
Realistic
 70
     8
177
     2
291
     0
 71
     2
176
     1
 72
     2
176
     1
 73
     0
176
     1
 90
        0
176
     1
 40
-0.6
176
     1
 41
-30.0
176
     1
 62
     5
 63
     7
421
 16777215
176
     1
 74
     1
176
     1
 91
        0
176
     1
 64
     7
176
     1
 65
   257
176
     1
 75
     1
176
     1
175
     1
176
     1
 42
1.0
176
     1
 92
        8
176
     1
 66
     8
424
  7895160
176
     1
 43
1.0
176
     1
 76
     1
176
     1
 77
     6
176
     1
 78
     2
176
     1
 67
     7
176
     1
 79
     5
176
     1
170
     0
176
     1
171
     0
176
     1
290
     0
176
     1
 93
       13
176
     1
 44
0.0
176
     1
173
     0
176
     1
  0
VISUALSTYLE
  5
37
102
{ACAD_REACTORS
330
2A
102
}
330
2A
100
AcDbVisualStyle
  2
Thicken
 70
    13
177
     2
291
     1
 71
     2
176
     1
 72
     2
176
     1
 73
     0
176
     1
 90
        0
176
     1
 40
-0.6
176
     1
 41
-30.0
176
     1
 62
     5
 63
     7
421
 16777215
176
     1
 74
     1
176
     1
 91
        4
176
     1
 64
     7
176
     1
 65
   257
176
     1
 75
     1
176
     1
175
     1
176
     1
 42
1.0
176
     1
 92
       12
176
     1
 66
     7
176
     1
 43
1.0
176
     1
 76
     1
176
     1
 77
     6
176
     1
 78
     2
176
     1
 67
     7
176
     1
 79
     5
176
     1
170
     0
176
     1
171
     0
176
     1
290
     0
176
     1
 93
        1
176
     1
 44
0.0
176
     1
173
     0
176
     1
  0
ENDSEC
  0
EOF
