  0
SECTION
  2
HEADER
  9
$ACADVER
  1
AC1024
  9
$ACADMAINTVER
 70
     6
  9
$DWGCODEPAGE
  3
UNDEFINED
  9
$INSBASE
 10
0.0
 20
0.0
 30
0.0
  9
$EXTMIN
 10
1.000000000000000E+20
 20
1.000000000000000E+20
 30
1.000000000000000E+20
  9
$EXTMAX
 10
-1.000000000000000E+20
 20
-1.000000000000000E+20
 30
-1.000000000000000E+20
  9
$LIMMIN
 10
0.0
 20
0.0
  9
$LIMMAX
 10
12.0
 20
9.0
  9
$ORTHOMODE
 70
     0
  9
$REGENMODE
 70
     1
  9
$FILLMODE
 70
     1
  9
$QTEXTMODE
 70
     0
  9
$MIRRTEXT
 70
     1
  9
$LTSCALE
 40
1.0
  9
$ATTMODE
 70
     1
  9
$TEXTSIZE
 40
0.2
  9
$TRACEWID
 40
0.05
  9
$TEXTSTYLE
  7
Standard
  9
$CLAYER
  8
0
  9
$CELTYPE
  6
ByLayer
  9
$CECOLOR
 62
   256
  9
$CELTSCALE
 40
1.0
  9
$DISPSILH
 70
     0
  9
$DIMSCALE
 40
1.0
  9
$DIMASZ
 40
0.18
  9
$DIMEXO
 40
0.0625
  9
$DIMDLI
 40
0.38
  9
$DIMRND
 40
0.0
  9
$DIMDLE
 40
0.0
  9
$DIMEXE
 40
0.18
  9
$DIMTP
 40
0.0
  9
$DIMTM
 40
0.0
  9
$DIMTXT
 40
0.18
  9
$DIMCEN
 40
0.09
  9
$DIMTSZ
 40
0.0
  9
$DIMTOL
 70
     0
  9
$DIMLIM
 70
     0
  9
$DIMTIH
 70
     1
  9
$DIMTOH
 70
     1
  9
$DIMSE1
 70
     0
  9
$DIMSE2
 70
     0
  9
$DIMTAD
 70
     0
  9
$DIMZIN
 70
     0
  9
$DIMBLK
  1

  9
$DIMASO
 70
     1
  9
$DIMSHO
 70
     1
  9
$DIMPOST
  1

  9
$DIMAPOST
  1

  9
$DIMALT
 70
     0
  9
$DIMALTD
 70
     2
  9
$DIMALTF
 40
25.4
  9
$DIMLFAC
 40
1.0
  9
$DIMTOFL
 70
     0
  9
$DIMTVP
 40
0.0
  9
$DIMTIX
 70
     0
  9
$DIMSOXD
 70
     0
  9
$DIMSAH
 70
     0
  9
$DIMBLK1
  1

  9
$DIMBLK2
  1

  9
$DIMSTYLE
  2
Standard
  9
$DIMCLRD
 70
     0
  9
$DIMCLRE
 70
     0
  9
$DIMCLRT
 70
     0
  9
$DIMTFAC
 40
1.0
  9
$DIMGAP
 40
0.09
  9
$DIMJUST
 70
     0
  9
$DIMSD1
 70
     0
  9
$DIMSD2
 70
     0
  9
$DIMTOLJ
 70
     1
  9
$DIMTZIN
 70
     0
  9
$DIMALTZ
 70
     0
  9
$DIMALTTZ
 70
     0
  9
$DIMUPT
 70
     0
  9
$DIMDEC
 70
     4
  9
$DIMTDEC
 70
     4
  9
$DIMALTU
 70
     2
  9
$DIMALTTD
 70
     2
  9
$DIMTXSTY
  7
Standard
  9
$DIMAUNIT
 70
     0
  9
$DIMADEC
 70
     0
  9
$DIMALTRND
 40
0.0
  9
$DIMAZIN
 70
     0
  9
$DIMDSEP
 70
    46
  9
$DIMATFIT
 70
     3
  9
$DIMFRAC
 70
     0
  9
$DIMLDRBLK
  1

  9
$DIMLUNIT
 70
     2
  9
$DIMLWD
 70
    -2
  9
$DIMLWE
 70
    -2
  9
$DIMTMOVE
 70
     0
  9
$DIMFXL
 40
1.0
  9
$DIMFXLON
 70
     0
  9
$DIMJOGANG
 40
0.7853981633974483
  9
$DIMTFILL
 70
     0
  9
$DIMTFILLCLR
 70
     0
  9
$DIMARCSYM
 70
     0
  9
$DIMLTYPE
  6

  9
$DIMLTEX1
  6

  9
$DIMLTEX2
  6

  9
$DIMTXTDIRECTION
 70
     0
  9
$LUNITS
 70
     2
  9
$LUPREC
 70
     4
  9
$SKETCHINC
 40
0.1
  9
$FILLETRAD
 40
0.5
  9
$AUNITS
 70
     0
  9
$AUPREC
 70
     0
  9
$MENU
  1
.
  9
$ELEVATION
 40
0.0
  9
$PELEVATION
 40
0.0
  9
$THICKNESS
 40
0.0
  9
$LIMCHECK
 70
     0
  9
$CHAMFERA
 40
0.5
  9
$CHAMFERB
 40
0.5
  9
$CHAMFERC
 40
1.0
  9
$CHAMFERD
 40
0.0
  9
$SKPOLY
 70
     0
  9
$TDCREATE
 40
2457917.583703704
  9
$TDUCREATE
 40
2457917.208703704
  9
$TDUPDATE
 40
2457917.583703704
  9
$TDUUPDATE
 40
2457917.208703704
  9
$TDINDWG
 40
0.0000000116
  9
$TDUSRTIMER
 40
0.0000000116
  9
$USRTIMER
 70
     1
  9
$ANGBASE
 50
0.0
  9
$ANGDIR
 70
     0
  9
$PDMODE
 70
     0
  9
$PDSIZE
 40
0.0
  9
$PLINEWID
 40
0.0
  9
$SPLFRAME
 70
     0
  9
$SPLINETYPE
 70
     6
  9
$SPLINESEGS
 70
     8
  9
$HANDSEED
  5
D2
  9
$SURFTAB1
 70
     6
  9
$SURFTAB2
 70
     6
  9
$SURFTYPE
 70
     6
  9
$SURFU
 70
     6
  9
$SURFV
 70
     6
  9
$UCSBASE
  2

  9
$UCSNAME
  2

  9
$UCSORG
 10
0.0
 20
0.0
 30
0.0
  9
$UCSXDIR
 10
1.0
 20
0.0
 30
0.0
  9
$UCSYDIR
 10
0.0
 20
1.0
 30
0.0
  9
$UCSORTHOREF
  2

  9
$UCSORTHOVIEW
 70
     0
  9
$UCSORGTOP
 10
0.0
 20
0.0
 30
0.0
  9
$UCSORGBOTTOM
 10
0.0
 20
0.0
 30
0.0
  9
$UCSORGLEFT
 10
0.0
 20
0.0
 30
0.0
  9
$UCSORGRIGHT
 10
0.0
 20
0.0
 30
0.0
  9
$UCSORGFRONT
 10
0.0
 20
0.0
 30
0.0
  9
$UCSORGBACK
 10
0.0
 20
0.0
 30
0.0
  9
$PUCSBASE
  2

  9
$PUCSNAME
  2

  9
$PUCSORG
 10
0.0
 20
0.0
 30
0.0
  9
$PUCSXDIR
 10
1.0
 20
0.0
 30
0.0
  9
$PUCSYDIR
 10
0.0
 20
1.0
 30
0.0
  9
$PUCSORTHOREF
  2

  9
$PUCSORTHOVIEW
 70
     0
  9
$PUCSORGTOP
 10
0.0
 20
0.0
 30
0.0
  9
$PUCSORGBOTTOM
 10
0.0
 20
0.0
 30
0.0
  9
$PUCSORGLEFT
 10
0.0
 20
0.0
 30
0.0
  9
$PUCSORGRIGHT
 10
0.0
 20
0.0
 30
0.0
  9
$PUCSORGFRONT
 10
0.0
 20
0.0
 30
0.0
  9
$PUCSORGBACK
 10
0.0
 20
0.0
 30
0.0
  9
$USERI1
 70
     0
  9
$USERI2
 70
     0
  9
$USERI3
 70
     0
  9
$USERI4
 70
     0
  9
$USERI5
 70
     0
  9
$USERR1
 40
0.0
  9
$USERR2
 40
0.0
  9
$USERR3
 40
0.0
  9
$USERR4
 40
0.0
  9
$USERR5
 40
0.0
  9
$WORLDVIEW
 70
     1
  9
$SHADEDGE
 70
     3
  9
$SHADEDIF
 70
    70
  9
$TILEMODE
 70
     1
  9
$MAXACTVP
 70
    64
  9
$PINSBASE
 10
0.0
 20
0.0
 30
0.0
  9
$PLIMCHECK
 70
     0
  9
$PEXTMIN
 10
1.000000000000000E+20
 20
1.000000000000000E+20
 30
1.000000000000000E+20
  9
$PEXTMAX
 10
-1.000000000000000E+20
 20
-1.000000000000000E+20
 30
-1.000000000000000E+20
  9
$PLIMMIN
 10
0.0
 20
0.0
  9
$PLIMMAX
 10
12.0
 20
9.0
  9
$UNITMODE
 70
     0
  9
$VISRETAIN
 70
     1
  9
$PLINEGEN
 70
     0
  9
$PSLTSCALE
 70
     1
  9
$TREEDEPTH
 70
  3020
  9
$CMLSTYLE
  2
Standard
  9
$CMLJUST
 70
     0
  9
$CMLSCALE
 40
1.0
  9
$PROXYGRAPHICS
 70
     1
  9
$MEASUREMENT
 70
     0
  9
$CELWEIGHT
370
    -1
  9
$ENDCAPS
280
     0
  9
$JOINSTYLE
280
     0
  9
$LWDISPLAY
290
     1
  9
$INSUNITS
 70
     1
  9
$HYPERLINKBASE
  1

  9
$STYLESHEET
  1

  9
$XEDIT
290
     1
  9
$CEPSNTYPE
380
     0
  9
$PSTYLEMODE
290
     1
  9
$FINGERPRINTGUID
  2
{18C50CC0-DE3E-2FB3-75BE-A6D673112C35}
  9
$VERSIONGUID
  2
{FAEB1C32-E019-11D5-929B-00C0DF256EC4}
  9
$EXTNAMES
290
     1
  9
$PSVPSCALE
 40
0.0
  9
$OLESTARTUP
290
     0
  9
$SORTENTS
280
   127
  9
$INDEXCTL
280
     0
  9
$HIDETEXT
280
     1
  9
$XCLIPFRAME
280
     2
  9
$HALOGAP
280
     0
  9
$OBSCOLOR
 70
   257
  9
$OBSLTYPE
280
     0
  9
$INTERSECTIONDISPLAY
280
     0
  9
$INTERSECTIONCOLOR
 70
   257
  9
$DIMASSOC
280
     2
  9
$PROJECTNAME
  1

  9
$CAMERADISPLAY
290
     0
  9
$LENSLENGTH
 40
50.0
  9
$CAMERAHEIGHT
 40
0.0
  9
$STEPSPERSEC
 40
2.0
  9
$STEPSIZE
 40
6.0
  9
$3DDWFPREC
 40
2.0
  9
$PSOLWIDTH
 40
0.25
  9
$PSOLHEIGHT
 40
4.0
  9
$LOFTANG1
 40
1.570796326794897
  9
$LOFTANG2
 40
1.570796326794897
  9
$LOFTMAG1
 40
0.0
  9
$LOFTMAG2
 40
0.0
  9
$LOFTPARAM
 70
     7
  9
$LOFTNORMALS
280
     1
  9
$LATITUDE
 40
37.795
  9
$LONGITUDE
 40
-122.394
  9
$NORTHDIRECTION
 40
0.0
  9
$TIMEZONE
 70
 -8000
  9
$LIGHTGLYPHDISPLAY
280
     1
  9
$TILEMODELIGHTSYNCH
280
     1
  9
$CMATERIAL
347
3C
  9
$SOLIDHIST
280
     1
  9
$SHOWHIST
280
     1
  9
$DWFFRAME
280
     2
  9
$DGNFRAME
280
     2
  9
$REALWORLDSCALE
290
     1
  9
$INTERFERECOLOR
 62
   256
  9
$CSHADOW
280
     0
  9
$SHADOWPLANELOCATION
 40
0.0
  0
ENDSEC
  0
SECTION
  2
CLASSES
  0
CLASS
  1
ACDBDICTIONARYWDFLT
  2
AcDbDictionaryWithDefault
  3
ObjectDBX Classes
 90
        0
 91
        4
280
     0
281
     0
  0
CLASS
  1
VISUALSTYLE
  2
AcDbVisualStyle
  3
ObjectDBX Classes
 90
     4095
 91
        4
280
     0
281
     0
  0
CLASS
  1
MATERIAL
  2
AcDbMaterial
  3
ObjectDBX Classes
 90
     1153
 91
        4
280
     0
281
     0
  0
CLASS
  1
SUN
  2
AcDbSun
  3
SCENEOE
 90
     1024
 91
        4
280
     0
281
     0
  0
ENDSEC
  0
SECTION
  2
TABLES
  0
TABLE
  2
VPORT
  5
8
330
0
100
AcDbSymbolTable
 70
     1
  0
VPORT
  5
29
330
8
100
AcDbSymbolTableRecord
100
AcDbViewportTableRecord
  2
*Active
 70
     0
 10
0.0
 20
0.0
 11
1.0
 21
1.0
 12
0.0
 22
0.0
 13
0.0
 23
0.0
 14
0.5
 24
0.5
 15
0.5
 25
0.5
 16
0.0
 26
0.0
 36
1.0
 17
91.00082462281999
 27
-128.4993055234307
 37
0.0
 40
256.9986110468615
 41
0.7081814508812795
 42
50.0
 43
0.0
 44
0.0
 50
0.0
 51
0.0
 71
     0
 72
   100
 73
     1
 74
     3
 75
     0
 76
     0
 77
     0
 78
     0
281
     0
 65
     1
110
0.0
120
0.0
130
0.0
111
1.0
121
0.0
131
0.0
112
0.0
122
1.0
132
0.0
 79
     0
146
0.0
 60
     3
 61
     5
292
     1
282
     1
141
0.0
142
0.0
 63
   250
361
3F
  0
ENDTAB
  0
TABLE
  2
LTYPE
  5
5
330
0
100
AcDbSymbolTable
 70
     3
  0
LTYPE
  5
14
330
5
100
AcDbSymbolTableRecord
100
AcDbLinetypeTableRecord
  2
ByBlock
 70
     0
  3

 72
    65
 73
     0
 40
0.0
  0
LTYPE
  5
15
330
5
100
AcDbSymbolTableRecord
100
AcDbLinetypeTableRecord
  2
ByLayer
 70
     0
  3

 72
    65
 73
     0
 40
0.0
  0
LTYPE
  5
16
330
5
100
AcDbSymbolTableRecord
100
AcDbLinetypeTableRecord
  2
Continuous
 70
     0
  3
Solid line
 72
    65
 73
     0
 40
0.0
  0
LTYPE
  5
5C
330
5
100
AcDbSymbolTableRecord
100
AcDbLinetypeTableRecord
  2
AI-Linetype-1
 70
     0
  3
Adobe Illustrator Linetype No. 1
 72
    65
 73
     2
 40
1.411111110758333
 49
0.7055555553791667
 74
     0
 49
-0.7055555553791667
 74
     0
  0
LTYPE
  5
61
330
5
100
AcDbSymbolTableRecord
100
AcDbLinetypeTableRecord
  2
AI-Linetype-2
 70
     0
  3
Adobe Illustrator Linetype No. 2
 72
    65
 73
     2
 40
1.411111110758333
 49
0.7055555553791667
 74
     0
 49
-0.7055555553791667
 74
     0
  0
ENDTAB
  0
TABLE
  2
LAYER
  5
2
330
0
100
AcDbSymbolTable
 70
     2
  0
LAYER
  5
10
330
2
100
AcDbSymbolTableRecord
100
AcDbLayerTableRecord
  2
0
 70
     0
 62
     7
  6
Continuous
370
    -3
390
F
347
3E
  0
LAYER
  5
40
330
2
100
AcDbSymbolTableRecord
100
AcDbLayerTableRecord
  2
_U+30EC_U+30A4_U+30E4_U+30FC 1
 70
     0
 62
     7
  6
Continuous
370
    -3
390
F
347
3E
  0
ENDTAB
  0
TABLE
  2
STYLE
  5
3
330
0
100
AcDbSymbolTable
 70
     1
  0
STYLE
  5
11
330
3
100
AcDbSymbolTableRecord
100
AcDbTextStyleTableRecord
  2
Standard
 70
     0
 40
0.0
 41
1.0
 50
0.0
 71
     0
 42
0.2
  3
txt
  4

  0
ENDTAB
  0
TABLE
  2
VIEW
  5
6
330
0
100
AcDbSymbolTable
 70
     0
  0
ENDTAB
  0
TABLE
  2
UCS
  5
7
330
0
100
AcDbSymbolTable
 70
     0
  0
ENDTAB
  0
TABLE
  2
APPID
  5
9
330
0
100
AcDbSymbolTable
 70
     1
  0
APPID
  5
12
330
9
100
AcDbSymbolTableRecord
100
AcDbRegAppTableRecord
  2
ACAD
 70
     0
  0
ENDTAB
  0
TABLE
  2
DIMSTYLE
  5
A
330
0
100
AcDbSymbolTable
 70
     1
100
AcDbDimStyleTable
  0
DIMSTYLE
105
27
330
A
100
AcDbSymbolTableRecord
100
AcDbDimStyleTableRecord
  2
Standard
 70
     0
178
     0
340
11
  0
ENDTAB
  0
TABLE
  2
BLOCK_RECORD
  5
1
330
0
100
AcDbSymbolTable
 70
     4
  0
BLOCK_RECORD
  5
1F
330
1
100
AcDbSymbolTableRecord
100
AcDbBlockTableRecord
  2
*Model_Space
340
22
 70
     0
280
     1
281
     0
  0
BLOCK_RECORD
  5
1B
330
1
100
AcDbSymbolTableRecord
100
AcDbBlockTableRecord
  2
*Paper_Space
340
1E
 70
     0
280
     1
281
     0
  0
BLOCK_RECORD
  5
23
330
1
100
AcDbSymbolTableRecord
100
AcDbBlockTableRecord
  2
*Paper_Space0
340
26
 70
     0
280
     1
281
     0
  0
BLOCK_RECORD
  5
80
330
1
100
AcDbSymbolTableRecord
100
AcDbBlockTableRecord
  2
block 2
340
0
102
{BLKREFS
331
81
102
}
 70
     0
280
     1
281
     0
  0
BLOCK_RECORD
  5
B4
330
1
100
AcDbSymbolTableRecord
100
AcDbBlockTableRecord
  2
block 3
340
0
102
{BLKREFS
331
B5
102
}
 70
     0
280
     1
281
     0
  0
BLOCK_RECORD
  5
C8
330
1
100
AcDbSymbolTableRecord
100
AcDbBlockTableRecord
  2
block 4
340
0
102
{BLKREFS
331
C9
102
}
 70
     0
280
     1
281
     0
  0
ENDTAB
  0
ENDSEC
  0
SECTION
  2
BLOCKS
  0
BLOCK
  5
20
330
1F
100
AcDbEntity
  8
0
100
AcDbBlockBegin
  2
*Model_Space
 70
     0
 10
0.0
 20
0.0
 30
0.0
  3
*Model_Space
  1

  0
ENDBLK
  5
21
330
1F
100
AcDbEntity
  8
0
100
AcDbBlockEnd
  0
BLOCK
  5
1C
330
1B
100
AcDbEntity
 67
     1
  8
0
100
AcDbBlockBegin
  2
*Paper_Space
 70
     0
 10
0.0
 20
0.0
 30
0.0
  3
*Paper_Space
  1

  0
ENDBLK
  5
1D
330
1B
100
AcDbEntity
 67
     1
  8
0
100
AcDbBlockEnd
  0
BLOCK
  5
24
330
23
100
AcDbEntity
  8
0
100
AcDbBlockBegin
  2
*Paper_Space0
 70
     0
 10
0.0
 20
0.0
 30
0.0
  3
*Paper_Space0
  1

  0
ENDBLK
  5
25
330
23
100
AcDbEntity
  8
0
100
AcDbBlockEnd
  0
BLOCK
  5
82
330
80
100
AcDbEntity
  8
0
100
AcDbBlockBegin
  2
block 2
 70
     0
 10
0.0
 20
0.0
 30
0.0
  3
block 2
  1

  0
SPLINE
  5
84
330
80
100
AcDbEntity
  8
_U+30EC_U+30A4_U+30E4_U+30FC 1
370
     0
100
AcDbSpline
210
0.0
220
0.0
230
1.0
 70
    11
 71
     3
 72
   242
 73
   238
 74
     0
 42
0.0000000001
 43
0.0000000001
 12
1.0
 22
0.0
 32
0.0
 13
1.0
 23
0.0
 33
0.0
 40
0.0
 40
0.0
 40
0.0
 40
0.0
 40
1.0
 40
1.0
 40
1.0
 40
2.0
 40
2.0
 40
2.0
 40
3.0
 40
3.0
 40
3.0
 40
4.0
 40
4.0
 40
4.0
 40
5.0
 40
5.0
 40
5.0
 40
6.0
 40
6.0
 40
6.0
 40
7.0
 40
7.0
 40
7.0
 40
8.0
 40
8.0
 40
8.0
 40
9.0
 40
9.0
 40
9.0
 40
10.0
 40
10.0
 40
10.0
 40
11.0
 40
11.0
 40
11.0
 40
12.0
 40
12.0
 40
12.0
 40
13.0
 40
13.0
 40
13.0
 40
14.0
 40
14.0
 40
14.0
 40
15.0
 40
15.0
 40
15.0
 40
16.0
 40
16.0
 40
16.0
 40
17.0
 40
17.0
 40
17.0
 40
18.0
 40
18.0
 40
18.0
 40
19.0
 40
19.0
 40
19.0
 40
20.0
 40
20.0
 40
20.0
 40
21.0
 40
21.0
 40
21.0
 40
22.0
 40
22.0
 40
22.0
 40
23.0
 40
23.0
 40
23.0
 40
24.0
 40
24.0
 40
24.0
 40
25.0
 40
25.0
 40
25.0
 40
26.0
 40
26.0
 40
26.0
 40
27.0
 40
27.0
 40
27.0
 40
28.0
 40
28.0
 40
28.0
 40
29.0
 40
29.0
 40
29.0
 40
30.0
 40
30.0
 40
30.0
 40
31.0
 40
31.0
 40
31.0
 40
32.0
 40
32.0
 40
32.0
 40
33.0
 40
33.0
 40
33.0
 40
34.0
 40
34.0
 40
34.0
 40
35.0
 40
35.0
 40
35.0
 40
36.0
 40
36.0
 40
36.0
 40
37.0
 40
37.0
 40
37.0
 40
38.0
 40
38.0
 40
38.0
 40
39.0
 40
39.0
 40
39.0
 40
40.0
 40
40.0
 40
40.0
 40
41.0
 40
41.0
 40
41.0
 40
42.0
 40
42.0
 40
42.0
 40
43.0
 40
43.0
 40
43.0
 40
44.0
 40
44.0
 40
44.0
 40
45.0
 40
45.0
 40
45.0
 40
46.0
 40
46.0
 40
46.0
 40
47.0
 40
47.0
 40
47.0
 40
48.0
 40
48.0
 40
48.0
 40
49.0
 40
49.0
 40
49.0
 40
50.0
 40
50.0
 40
50.0
 40
51.0
 40
51.0
 40
51.0
 40
52.0
 40
52.0
 40
52.0
 40
53.0
 40
53.0
 40
53.0
 40
54.0
 40
54.0
 40
54.0
 40
55.0
 40
55.0
 40
55.0
 40
56.0
 40
56.0
 40
56.0
 40
57.0
 40
57.0
 40
57.0
 40
58.0
 40
58.0
 40
58.0
 40
59.0
 40
59.0
 40
59.0
 40
60.0
 40
60.0
 40
60.0
 40
61.0
 40
61.0
 40
61.0
 40
62.0
 40
62.0
 40
62.0
 40
63.0
 40
63.0
 40
63.0
 40
64.0
 40
64.0
 40
64.0
 40
65.0
 40
65.0
 40
65.0
 40
66.0
 40
66.0
 40
66.0
 40
67.0
 40
67.0
 40
67.0
 40
68.0
 40
68.0
 40
68.0
 40
69.0
 40
69.0
 40
69.0
 40
70.0
 40
70.0
 40
70.0
 40
71.0
 40
71.0
 40
71.0
 40
72.0
 40
72.0
 40
72.0
 40
73.0
 40
73.0
 40
73.0
 40
74.0
 40
74.0
 40
74.0
 40
75.0
 40
75.0
 40
75.0
 40
76.0
 40
76.0
 40
76.0
 40
77.0
 40
77.0
 40
77.0
 40
78.0
 40
78.0
 40
78.0
 40
79.0
 40
79.0
 40
79.0
 40
79.0
 10
95.85564776249443
 20
-122.9666544288938
 30
0.0
 10
95.85564776249443
 20
-122.9666544288938
 30
0.0
 10
95.63378361324433
 20
-122.9666544288938
 30
0.0
 10
95.63378361324433
 20
-122.9666544288938
 30
0.0
 10
95.63378361324433
 20
-122.9666544288938
 30
0.0
 10
95.39090438153423
 20
-122.9666544288938
 30
0.0
 10
95.39090438153423
 20
-122.9666544288938
 30
0.0
 10
95.39090438153423
 20
-122.9666544288938
 30
0.0
 10
95.5021809657078
 20
-123.0090291033623
 30
0.0
 10
95.5021809657078
 20
-123.0090291033623
 30
0.0
 10
95.51148272351797
 20
-123.0133354727189
 30
0.0
 10
95.52250702907077
 20
-123.0195366445923
 30
0.0
 10
95.52250702907077
 20
-123.0322834978878
 30
0.0
 10
95.52250702907077
 20
-123.0534708351221
 30
0.0
 10
95.49460175564025
 20
-123.0598442617698
 30
0.0
 10
95.47634274956842
 20
-123.0639783763521
 30
0.0
 10
95.46704099175824
 20
-123.0872327708775
 30
0.0
 10
95.44085826607035
 20
-123.1528618398715
 30
0.0
 10
95.42432180774115
 20
-123.1973035716312
 30
0.0
 10
95.42432180774115
 20
-123.1973035716312
 30
0.0
 10
95.66134437712634
 20
-123.1973035716312
 30
0.0
 10
95.66134437712634
 20
-123.1973035716312
 30
0.0
 10
95.7409260828356
 20
-123.1973035716312
 30
0.0
 10
95.9131808570981
 20
-123.1929972022747
 30
0.0
 10
96.03720429456709
 20
-123.1845567183358
 30
0.0
 10
96.03720429456709
 20
-123.1845567183358
 30
0.0
 10
96.03720429456709
 20
-123.3623236453747
 30
0.0
 10
96.03720429456709
 20
-123.3623236453747
 30
0.0
 10
95.96520179892536
 20
-123.3580172760181
 30
0.0
 10
95.94659828330502
 20
-123.3580172760181
 30
0.0
 10
95.7891574196291
 20
-123.3538831614358
 30
0.0
 10
95.76125214619859
 20
-123.508223439175
 30
0.0
 10
95.72266707676378
 20
-123.5886664187556
 30
0.0
 10
95.68373749778046
 20
-123.6584296023319
 30
0.0
 10
95.7891574196291
 20
-123.7176852446782
 30
0.0
 10
95.88183048818233
 20
-123.7853813709634
 30
0.0
 10
95.9724364994444
 20
-123.8678914078351
 30
0.0
 10
95.9724364994444
 20
-123.8678914078351
 30
0.0
 10
95.86873912533838
 20
-124.0349785388697
 30
0.0
 10
95.86873912533838
 20
-124.0349785388697
 30
0.0
 10
95.8484130619754
 20
-124.0160305137009
 30
0.0
 10
95.8373887564226
 20
-124.007590029762
 30
0.0
 10
95.73920353509298
 20
-123.9228406808248
 30
0.0
 10
95.69648435107588
 20
-123.8847723757128
 30
0.0
 10
95.64480791879714
 20
-123.8489433826662
 30
0.0
 10
95.57452797089803
 20
-123.8045016509065
 30
0.0
 10
95.3891818337916
 20
-123.9907090618843
 30
0.0
 10
95.20969235901008
 20
-124.0139634564097
 30
0.0
 10
94.95578882174716
 20
-124.0435912775829
 30
0.0
 10
94.95578882174716
 20
-124.0435912775829
 30
0.0
 10
94.8651828104851
 20
-123.8637572932528
 30
0.0
 10
94.8651828104851
 20
-123.8637572932528
 30
0.0
 10
95.14285750659623
 20
-123.8594509238962
 30
0.0
 10
95.29650876523837
 20
-123.8341294720797
 30
0.0
 10
95.42983396051754
 20
-123.7240586713259
 30
0.0
 10
95.32613658641152
 20
-123.6732435129185
 30
0.0
 10
95.2486219379934
 20
-123.6458550038108
 30
0.0
 10
95.21692705952911
 20
-123.6331081505153
 30
0.0
 10
95.20039060119991
 20
-123.6606689143973
 30
0.0
 10
95.18729923835596
 20
-123.6796169395662
 30
0.0
 10
95.1631835699592
 20
-123.7135511300959
 30
0.0
 10
95.1631835699592
 20
-123.7135511300959
 30
0.0
 10
94.99092879569672
 20
-123.6310410932242
 30
0.0
 10
94.99092879569672
 20
-123.6310410932242
 30
0.0
 10
95.06327580088697
 20
-123.5505981136436
 30
0.0
 10
95.11701929045687
 20
-123.4553412234765
 30
0.0
 10
95.16697317499299
 20
-123.3538831614358
 30
0.0
 10
95.0002305535069
 20
-123.3580172760181
 30
0.0
 10
94.98197154743507
 20
-123.3580172760181
 30
0.0
 10
94.90962454224481
 20
-123.3623236453747
 30
0.0
 10
94.90962454224481
 20
-123.3623236453747
 30
0.0
 10
94.90962454224481
 20
-123.1845567183358
 30
0.0
 10
94.90962454224481
 20
-123.1845567183358
 30
0.0
 10
95.03192543197119
 20
-123.1909301449835
 30
0.0
 10
95.21520451178648
 20
-123.1952365143401
 30
0.0
 10
95.23725312289208
 20
-123.1952365143401
 30
0.0
 10
95.25206703347865
 20
-123.1613023238104
 30
0.0
 10
95.30029837027215
 20
-123.0407239818266
 30
0.0
 10
95.31683482860136
 20
-122.9666544288938
 30
0.0
 10
95.30029837027215
 20
-122.9666544288938
 30
0.0
 10
95.14458005433886
 20
-122.9730278555415
 30
0.0
 10
94.97439233736752
 20
-122.9857747088369
 30
0.0
 10
94.97439233736752
 20
-122.9857747088369
 30
0.0
 10
94.97439233736752
 20
-123.1190999041161
 30
0.0
 10
94.97439233736752
 20
-123.1190999041161
 30
0.0
 10
94.93167315335042
 20
-123.1444213559326
 30
0.0
 10
94.87999672107168
 20
-123.1761162343969
 30
0.0
 10
94.7632079841217
 20
-123.241745303391
 30
0.0
 10
94.7632079841217
 20
-123.241745303391
 30
0.0
 10
94.7632079841217
 20
-123.3876450971913
 30
0.0
 10
94.7632079841217
 20
-123.3876450971913
 30
0.0
 10
94.7632079841217
 20
-123.3876450971913
 30
0.0
 10
94.7632079841217
 20
-123.8553168093139
 30
0.0
 10
94.7632079841217
 20
-123.8553168093139
 30
0.0
 10
94.7632079841217
 20
-123.9820963231711
 30
0.0
 10
94.73185761520593
 20
-124.0413519655174
 30
0.0
 10
94.48381074026794
 20
-124.0329114815786
 30
0.0
 10
94.48381074026794
 20
-124.0329114815786
 30
0.0
 10
94.39286021945735
 20
-123.8256889881408
 30
0.0
 10
94.39286021945735
 20
-123.8256889881408
 30
0.0
 10
94.44867076631839
 20
-123.838263586662
 30
0.0
 10
94.49104544078696
 20
-123.8425699560185
 30
0.0
 10
94.52618541473652
 20
-123.8425699560185
 30
0.0
 10
94.59302026715037
 20
-123.8425699560185
 30
0.0
 10
94.60232202496053
 20
-123.8193155614931
 30
0.0
 10
94.60232202496053
 20
-123.7536864924991
 30
0.0
 10
94.60232202496053
 20
-123.7536864924991
 30
0.0
 10
94.60232202496053
 20
-123.3242553402627
 30
0.0
 10
94.60232202496053
 20
-123.3242553402627
 30
0.0
 10
94.51688365692634
 20
-123.3643907026659
 30
0.0
 10
94.50206974633977
 20
-123.3707641293136
 30
0.0
 10
94.46141761961381
 20
-123.3898844092567
 30
0.0
 10
94.45762801458004
 20
-123.4108994917167
 30
0.0
 10
94.45418291909479
 20
-123.4405273128899
 30
0.0
 10
94.43730195121707
 20
-123.4405273128899
 30
0.0
 10
94.43006725069804
 20
-123.4405273128899
 30
0.0
 10
94.42076549288787
 20
-123.4363931983076
 30
0.0
 10
94.41525334011146
 20
-123.4131388037821
 30
0.0
 10
94.41525334011146
 20
-123.4131388037821
 30
0.0
 10
94.3687445510606
 20
-123.2205579661567
 30
0.0
 10
94.3687445510606
 20
-123.2205579661567
 30
0.0
 10
94.49655759356337
 20
-123.1740491771058
 30
0.0
 10
94.55409068816704
 20
-123.1507947825804
 30
0.0
 10
94.60232202496053
 20
-123.1296074453461
 30
0.0
 10
94.60232202496053
 20
-123.1296074453461
 30
0.0
 10
94.60232202496053
 20
-122.7170572609874
 30
0.0
 10
94.60232202496053
 20
-122.7170572609874
 30
0.0
 10
94.60232202496053
 20
-122.7170572609874
 30
0.0
 10
94.55581323590967
 20
-122.7170572609874
 30
0.0
 10
94.55581323590967
 20
-122.7170572609874
 30
0.0
 10
94.55581323590967
 20
-122.7170572609874
 30
0.0
 10
94.48725583575319
 20
-122.7170572609874
 30
0.0
 10
94.48725583575319
 20
-122.7170572609874
 30
0.0
 10
94.42800019340689
 20
-122.7170572609874
 30
0.0
 10
94.42076549288787
 20
-122.7170572609874
 30
0.0
 10
94.3894151239721
 20
-122.7234306876351
 30
0.0
 10
94.3894151239721
 20
-122.7234306876351
 30
0.0
 10
94.3894151239721
 20
-122.5287827927185
 30
0.0
 10
94.3894151239721
 20
-122.5287827927185
 30
0.0
 10
94.41318628282032
 20
-122.5351562193662
 30
0.0
 10
94.42076549288787
 20
-122.5351562193662
 30
0.0
 10
94.48174368297678
 20
-122.5351562193662
 30
0.0
 10
94.48174368297678
 20
-122.5351562193662
 30
0.0
 10
94.59853241992676
 20
-122.5351562193662
 30
0.0
 10
94.59853241992676
 20
-122.5351562193662
 30
0.0
 10
94.59853241992676
 20
-122.4653930357899
 30
0.0
 10
94.59853241992676
 20
-122.3828829989182
 30
0.0
 10
94.59680987218414
 20
-122.3785766295616
 30
0.0
 10
94.58923066211659
 20
-122.1987426452316
 30
0.0
 10
94.58923066211659
 20
-122.1797946200627
 30
0.0
 10
94.58750811437396
 20
-122.1332858310118
 30
0.0
 10
94.58750811437396
 20
-122.1332858310118
 30
0.0
 10
94.77629934696566
 20
-122.1417263149507
 30
0.0
 10
94.77629934696566
 20
-122.1417263149507
 30
0.0
 10
94.78560110477582
 20
-122.1417263149507
 30
0.0
 10
94.80420462039618
 20
-122.1437933722418
 30
0.0
 10
94.80420462039618
 20
-122.1606743401196
 30
0.0
 10
94.80420462039618
 20
-122.1797946200627
 30
0.0
 10
94.79111325755223
 20
-122.1903021612927
 30
0.0
 10
94.7687201368981
 20
-122.2094224412358
 30
0.0
 10
94.7687201368981
 20
-122.260065344869
 30
0.0
 10
94.7632079841217
 20
-122.4886474303153
 30
0.0
 10
94.76527504141285
 20
-122.5351562193662
 30
0.0
 10
94.87792966378052
 20
-122.5351562193662
 30
0.0
 10
94.88929847888184
 20
-122.5351562193662
 30
0.0
 10
94.97439233736752
 20
-122.5267157354274
 30
0.0
 10
94.97439233736752
 20
-122.5267157354274
 30
0.0
 10
94.97439233736752
 20
-122.721363630344
 30
0.0
 10
94.97439233736752
 20
-122.721363630344
 30
0.0
 10
94.9409749111606
 20
-122.7191243182786
 30
0.0
 10
94.8817192688143
 20
-122.7149902036963
 30
0.0
 10
94.7632079841217
 20
-122.7170572609874
 30
0.0
 10
94.7632079841217
 20
-122.7170572609874
 30
0.0
 10
94.7632079841217
 20
-123.0555378924132
 30
0.0
 10
94.7632079841217
 20
-123.0555378924132
 30
0.0
 10
94.8114393209152
 20
-123.0322834978878
 30
0.0
 10
94.86897241551887
 20
-123.0047227340058
 30
0.0
 10
94.91134708998744
 20
-122.9814683394803
 30
0.0
 10
94.91134708998744
 20
-122.9814683394803
 30
0.0
 10
94.91134708998744
 20
-122.8038736672157
 30
0.0
 10
94.91134708998744
 20
-122.8038736672157
 30
0.0
 10
95.01159936860822
 20
-122.8164482657369
 30
0.0
 10
95.11495223316571
 20
-122.8164482657369
 30
0.0
 10
95.21692705952911
 20
-122.8164482657369
 30
0.0
 10
95.19660099616613
 20
-122.721363630344
 30
0.0
 10
95.17248532776938
 20
-122.6388535934722
 30
0.0
 10
95.11701929045687
 20
-122.5055283981931
 30
0.0
 10
95.07808971147354
 20
-122.5075954554842
 30
0.0
 10
95.00574270628329
 20
-122.5119018248408
 30
0.0
 10
94.97266978962489
 20
-122.5139688821319
 30
0.0
 10
94.97266978962489
 20
-122.5139688821319
 30
0.0
 10
94.97266978962489
 20
-122.3341348978019
 30
0.0
 10
94.97266978962489
 20
-122.3341348978019
 30
0.0
 10
95.08187931650731
 20
-122.3425753817407
 30
0.0
 10
95.23346351785831
 20
-122.3468817510973
 30
0.0
 10
95.30581052304855
 20
-122.3468817510973
 30
0.0
 10
95.30581052304855
 20
-122.3468817510973
 30
0.0
 10
95.3781575282388
 20
-122.3468817510973
 30
0.0
 10
95.3781575282388
 20
-122.3468817510973
 30
0.0
 10
95.3781575282388
 20
-122.183928734645
 30
0.0
 10
95.3781575282388
 20
-122.173421193415
 30
0.0
 10
95.37609047094764
 20
-122.1184719204253
 30
0.0
 10
95.37609047094764
 20
-122.1184719204253
 30
0.0
 10
95.57246091360689
 20
-122.1437933722418
 30
0.0
 10
95.57246091360689
 20
-122.1437933722418
 30
0.0
 10
95.57625051864066
 20
-122.1437933722418
 30
0.0
 10
95.59485403426102
 20
-122.145860429533
 30
0.0
 10
95.59485403426102
 20
-122.1627413974107
 30
0.0
 10
95.59485403426102
 20
-122.1775553079973
 30
0.0
 10
95.58555227645084
 20
-122.1861680467104
 30
0.0
 10
95.5614366080541
 20
-122.200981957297
 30
0.0
 10
95.55592445527769
 20
-122.2664387715167
 30
0.0
 10
95.55385739798653
 20
-122.287626108751
 30
0.0
 10
95.55385739798653
 20
-122.3468817510973
 30
0.0
 10
95.55385739798653
 20
-122.3468817510973
 30
0.0
 10
95.63722870872958
 20
-122.3468817510973
 30
0.0
 10
95.63722870872958
 20
-122.3468817510973
 30
0.0
 10
95.70957571391983
 20
-122.3468817510973
 30
0.0
 10
95.86150442481934
 20
-122.3425753817407
 30
0.0
 10
95.97071395170177
 20
-122.3341348978019
 30
0.0
 10
95.97071395170177
 20
-122.3341348978019
 30
0.0
 10
95.97071395170177
 20
-122.5139688821319
 30
0.0
 10
95.97071395170177
 20
-122.5139688821319
 30
0.0
 10
95.94453122601386
 20
-122.5119018248408
 30
0.0
 10
95.84117836145637
 20
-122.5075954554842
 30
0.0
 10
95.8056938779583
 20
-122.5055283981931
 30
0.0
 10
95.79294702466288
 20
-122.5563435566005
 30
0.0
 10
95.76331920348973
 20
-122.6684814146454
 30
0.0
 10
95.70578610888606
 20
-122.808007781798
 30
0.0
 10
95.74299314012676
 20
-122.808007781798
 30
0.0
 10
95.98552786228835
 20
-122.7890597566291
 30
0.0
 10
96.03927135185825
 20
-122.7868204445637
 30
0.0
 10
96.03927135185825
 20
-122.7868204445637
 30
0.0
 10
96.03927135185825
 20
-122.9709607982503
 30
0.0
 10
96.03927135185825
 20
-122.9709607982503
 30
0.0
 10
96.01308862617034
 20
-122.9709607982503
 30
0.0
 10
95.99827471558378
 20
-122.9666544288938
 30
0.0
 10
95.85564776249443
 20
-122.9666544288938
 30
0.0
  0
SPLINE
  5
85
330
80
100
AcDbEntity
  8
_U+30EC_U+30A4_U+30E4_U+30FC 1
370
     0
100
AcDbSpline
210
0.0
220
0.0
230
1.0
 70
    11
 71
     3
 72
    20
 73
    16
 74
     0
 42
0.0000000001
 43
0.0000000001
 12
1.0
 22
0.0
 32
0.0
 13
1.0
 23
0.0
 33
0.0
 40
0.0
 40
0.0
 40
0.0
 40
0.0
 40
1.0
 40
1.0
 40
1.0
 40
2.0
 40
2.0
 40
2.0
 40
3.0
 40
3.0
 40
3.0
 40
4.0
 40
4.0
 40
4.0
 40
5.0
 40
5.0
 40
5.0
 40
5.0
 10
95.30581052304855
 20
-122.5013942836108
 30
0.0
 10
95.30581052304855
 20
-122.5013942836108
 30
0.0
 10
95.27824975916656
 20
-122.5013942836108
 30
0.0
 10
95.27824975916656
 20
-122.5013942836108
 30
0.0
 10
95.3189018858925
 20
-122.6007852883602
 30
0.0
 10
95.3464626497745
 20
-122.6810560131666
 30
0.0
 10
95.37609047094764
 20
-122.808007781798
 30
0.0
 10
95.37609047094764
 20
-122.808007781798
 30
0.0
 10
95.55764700302032
 20
-122.808007781798
 30
0.0
 10
95.55764700302032
 20
-122.808007781798
 30
0.0
 10
95.58555227645084
 20
-122.7149902036963
 30
0.0
 10
95.60587833981381
 20
-122.6304131095334
 30
0.0
 10
95.62620440317679
 20
-122.5013942836108
 30
0.0
 10
95.62620440317679
 20
-122.5013942836108
 30
0.0
 10
95.30581052304855
 20
-122.5013942836108
 30
0.0
 10
95.30581052304855
 20
-122.5013942836108
 30
0.0
  0
SPLINE
  5
86
330
80
100
AcDbEntity
  8
_U+30EC_U+30A4_U+30E4_U+30FC 1
370
     0
100
AcDbSpline
210
0.0
220
0.0
230
1.0
 70
    11
 71
     3
 72
    17
 73
    13
 74
     0
 42
0.0000000001
 43
0.0000000001
 12
1.0
 22
0.0
 32
0.0
 13
1.0
 23
0.0
 33
0.0
 40
0.0
 40
0.0
 40
0.0
 40
0.0
 40
1.0
 40
1.0
 40
1.0
 40
2.0
 40
2.0
 40
2.0
 40
3.0
 40
3.0
 40
3.0
 40
4.0
 40
4.0
 40
4.0
 40
4.0
 10
95.36127656036108
 20
-123.3518161041447
 30
0.0
 10
95.3464626497745
 20
-123.3812716705436
 30
0.0
 10
95.30202091801478
 20
-123.4744615034196
 30
0.0
 10
95.2927191602046
 20
-123.4934095285885
 30
0.0
 10
95.45946178169069
 20
-123.5526651709348
 30
0.0
 10
95.47806529731105
 20
-123.5590385975825
 30
0.0
 10
95.54111054469112
 20
-123.5865993614645
 30
0.0
 10
95.58899737193609
 20
-123.4997829552362
 30
0.0
 10
95.60966794484759
 20
-123.4257134023033
 30
0.0
 10
95.62241479814301
 20
-123.3518161041447
 30
0.0
 10
95.62241479814301
 20
-123.3518161041447
 30
0.0
 10
95.36127656036108
 20
-123.3518161041447
 30
0.0
 10
95.36127656036108
 20
-123.3518161041447
 30
0.0
  0
HATCH
  5
87
330
80
100
AcDbEntity
  8
_U+30EC_U+30A4_U+30E4_U+30FC 1
 62
   179
420
  2234388
100
AcDbHatch
 10
0.0
 20
0.0
 30
0.0
210
0.0
220
0.0
230
1.0
  2
SOLID
 70
     1
 71
     0
 91
        3
 92
        1
 93
        1
 72
     4
 94
        3
 73
     0
 74
     1
 95
      242
 96
      238
 40
0.0
 40
0.0
 40
0.0
 40
0.0
 40
1.0
 40
1.0
 40
1.0
 40
2.0
 40
2.0
 40
2.0
 40
3.0
 40
3.0
 40
3.0
 40
4.0
 40
4.0
 40
4.0
 40
5.0
 40
5.0
 40
5.0
 40
6.0
 40
6.0
 40
6.0
 40
7.0
 40
7.0
 40
7.0
 40
8.0
 40
8.0
 40
8.0
 40
9.0
 40
9.0
 40
9.0
 40
10.0
 40
10.0
 40
10.0
 40
11.0
 40
11.0
 40
11.0
 40
12.0
 40
12.0
 40
12.0
 40
13.0
 40
13.0
 40
13.0
 40
14.0
 40
14.0
 40
14.0
 40
15.0
 40
15.0
 40
15.0
 40
16.0
 40
16.0
 40
16.0
 40
17.0
 40
17.0
 40
17.0
 40
18.0
 40
18.0
 40
18.0
 40
19.0
 40
19.0
 40
19.0
 40
20.0
 40
20.0
 40
20.0
 40
21.0
 40
21.0
 40
21.0
 40
22.0
 40
22.0
 40
22.0
 40
23.0
 40
23.0
 40
23.0
 40
24.0
 40
24.0
 40
24.0
 40
25.0
 40
25.0
 40
25.0
 40
26.0
 40
26.0
 40
26.0
 40
27.0
 40
27.0
 40
27.0
 40
28.0
 40
28.0
 40
28.0
 40
29.0
 40
29.0
 40
29.0
 40
30.0
 40
30.0
 40
30.0
 40
31.0
 40
31.0
 40
31.0
 40
32.0
 40
32.0
 40
32.0
 40
33.0
 40
33.0
 40
33.0
 40
34.0
 40
34.0
 40
34.0
 40
35.0
 40
35.0
 40
35.0
 40
36.0
 40
36.0
 40
36.0
 40
37.0
 40
37.0
 40
37.0
 40
38.0
 40
38.0
 40
38.0
 40
39.0
 40
39.0
 40
39.0
 40
40.0
 40
40.0
 40
40.0
 40
41.0
 40
41.0
 40
41.0
 40
42.0
 40
42.0
 40
42.0
 40
43.0
 40
43.0
 40
43.0
 40
44.0
 40
44.0
 40
44.0
 40
45.0
 40
45.0
 40
45.0
 40
46.0
 40
46.0
 40
46.0
 40
47.0
 40
47.0
 40
47.0
 40
48.0
 40
48.0
 40
48.0
 40
49.0
 40
49.0
 40
49.0
 40
50.0
 40
50.0
 40
50.0
 40
51.0
 40
51.0
 40
51.0
 40
52.0
 40
52.0
 40
52.0
 40
53.0
 40
53.0
 40
53.0
 40
54.0
 40
54.0
 40
54.0
 40
55.0
 40
55.0
 40
55.0
 40
56.0
 40
56.0
 40
56.0
 40
57.0
 40
57.0
 40
57.0
 40
58.0
 40
58.0
 40
58.0
 40
59.0
 40
59.0
 40
59.0
 40
60.0
 40
60.0
 40
60.0
 40
61.0
 40
61.0
 40
61.0
 40
62.0
 40
62.0
 40
62.0
 40
63.0
 40
63.0
 40
63.0
 40
64.0
 40
64.0
 40
64.0
 40
65.0
 40
65.0
 40
65.0
 40
66.0
 40
66.0
 40
66.0
 40
67.0
 40
67.0
 40
67.0
 40
68.0
 40
68.0
 40
68.0
 40
69.0
 40
69.0
 40
69.0
 40
70.0
 40
70.0
 40
70.0
 40
71.0
 40
71.0
 40
71.0
 40
72.0
 40
72.0
 40
72.0
 40
73.0
 40
73.0
 40
73.0
 40
74.0
 40
74.0
 40
74.0
 40
75.0
 40
75.0
 40
75.0
 40
76.0
 40
76.0
 40
76.0
 40
77.0
 40
77.0
 40
77.0
 40
78.0
 40
78.0
 40
78.0
 40
79.0
 40
79.0
 40
79.0
 40
79.0
 10
95.85564776249443
 20
-122.9666544288938
 10
95.85564776249443
 20
-122.9666544288938
 10
95.63378361324433
 20
-122.9666544288938
 10
95.63378361324433
 20
-122.9666544288938
 10
95.63378361324433
 20
-122.9666544288938
 10
95.39090438153423
 20
-122.9666544288938
 10
95.39090438153423
 20
-122.9666544288938
 10
95.39090438153423
 20
-122.9666544288938
 10
95.5021809657078
 20
-123.0090291033623
 10
95.5021809657078
 20
-123.0090291033623
 10
95.51148272351797
 20
-123.0133354727189
 10
95.52250702907077
 20
-123.0195366445923
 10
95.52250702907077
 20
-123.0322834978878
 10
95.52250702907077
 20
-123.0534708351221
 10
95.49460175564025
 20
-123.0598442617698
 10
95.47634274956842
 20
-123.0639783763521
 10
95.46704099175824
 20
-123.0872327708775
 10
95.44085826607035
 20
-123.1528618398715
 10
95.42432180774115
 20
-123.1973035716312
 10
95.42432180774115
 20
-123.1973035716312
 10
95.66134437712634
 20
-123.1973035716312
 10
95.66134437712634
 20
-123.1973035716312
 10
95.7409260828356
 20
-123.1973035716312
 10
95.9131808570981
 20
-123.1929972022747
 10
96.03720429456709
 20
-123.1845567183358
 10
96.03720429456709
 20
-123.1845567183358
 10
96.03720429456709
 20
-123.3623236453747
 10
96.03720429456709
 20
-123.3623236453747
 10
95.96520179892536
 20
-123.3580172760181
 10
95.94659828330502
 20
-123.3580172760181
 10
95.7891574196291
 20
-123.3538831614358
 10
95.76125214619859
 20
-123.508223439175
 10
95.72266707676378
 20
-123.5886664187556
 10
95.68373749778046
 20
-123.6584296023319
 10
95.7891574196291
 20
-123.7176852446782
 10
95.88183048818233
 20
-123.7853813709634
 10
95.9724364994444
 20
-123.8678914078351
 10
95.9724364994444
 20
-123.8678914078351
 10
95.86873912533838
 20
-124.0349785388697
 10
95.86873912533838
 20
-124.0349785388697
 10
95.8484130619754
 20
-124.0160305137009
 10
95.8373887564226
 20
-124.007590029762
 10
95.73920353509298
 20
-123.9228406808248
 10
95.69648435107588
 20
-123.8847723757128
 10
95.64480791879714
 20
-123.8489433826662
 10
95.57452797089803
 20
-123.8045016509065
 10
95.3891818337916
 20
-123.9907090618843
 10
95.20969235901008
 20
-124.0139634564097
 10
94.95578882174716
 20
-124.0435912775829
 10
94.95578882174716
 20
-124.0435912775829
 10
94.8651828104851
 20
-123.8637572932528
 10
94.8651828104851
 20
-123.8637572932528
 10
95.14285750659623
 20
-123.8594509238962
 10
95.29650876523837
 20
-123.8341294720797
 10
95.42983396051754
 20
-123.7240586713259
 10
95.32613658641152
 20
-123.6732435129185
 10
95.2486219379934
 20
-123.6458550038108
 10
95.21692705952911
 20
-123.6331081505153
 10
95.20039060119991
 20
-123.6606689143973
 10
95.18729923835596
 20
-123.6796169395662
 10
95.1631835699592
 20
-123.7135511300959
 10
95.1631835699592
 20
-123.7135511300959
 10
94.99092879569672
 20
-123.6310410932242
 10
94.99092879569672
 20
-123.6310410932242
 10
95.06327580088697
 20
-123.5505981136436
 10
95.11701929045687
 20
-123.4553412234765
 10
95.16697317499299
 20
-123.3538831614358
 10
95.0002305535069
 20
-123.3580172760181
 10
94.98197154743507
 20
-123.3580172760181
 10
94.90962454224481
 20
-123.3623236453747
 10
94.90962454224481
 20
-123.3623236453747
 10
94.90962454224481
 20
-123.1845567183358
 10
94.90962454224481
 20
-123.1845567183358
 10
95.03192543197119
 20
-123.1909301449835
 10
95.21520451178648
 20
-123.1952365143401
 10
95.23725312289208
 20
-123.1952365143401
 10
95.25206703347865
 20
-123.1613023238104
 10
95.30029837027215
 20
-123.0407239818266
 10
95.31683482860136
 20
-122.9666544288938
 10
95.30029837027215
 20
-122.9666544288938
 10
95.14458005433886
 20
-122.9730278555415
 10
94.97439233736752
 20
-122.9857747088369
 10
94.97439233736752
 20
-122.9857747088369
 10
94.97439233736752
 20
-123.1190999041161
 10
94.97439233736752
 20
-123.1190999041161
 10
94.93167315335042
 20
-123.1444213559326
 10
94.87999672107168
 20
-123.1761162343969
 10
94.7632079841217
 20
-123.241745303391
 10
94.7632079841217
 20
-123.241745303391
 10
94.7632079841217
 20
-123.3876450971913
 10
94.7632079841217
 20
-123.3876450971913
 10
94.7632079841217
 20
-123.3876450971913
 10
94.7632079841217
 20
-123.8553168093139
 10
94.7632079841217
 20
-123.8553168093139
 10
94.7632079841217
 20
-123.9820963231711
 10
94.73185761520593
 20
-124.0413519655174
 10
94.48381074026794
 20
-124.0329114815786
 10
94.48381074026794
 20
-124.0329114815786
 10
94.39286021945735
 20
-123.8256889881408
 10
94.39286021945735
 20
-123.8256889881408
 10
94.44867076631839
 20
-123.838263586662
 10
94.49104544078696
 20
-123.8425699560185
 10
94.52618541473652
 20
-123.8425699560185
 10
94.59302026715037
 20
-123.8425699560185
 10
94.60232202496053
 20
-123.8193155614931
 10
94.60232202496053
 20
-123.7536864924991
 10
94.60232202496053
 20
-123.7536864924991
 10
94.60232202496053
 20
-123.3242553402627
 10
94.60232202496053
 20
-123.3242553402627
 10
94.51688365692634
 20
-123.3643907026659
 10
94.50206974633977
 20
-123.3707641293136
 10
94.46141761961381
 20
-123.3898844092567
 10
94.45762801458004
 20
-123.4108994917167
 10
94.45418291909479
 20
-123.4405273128899
 10
94.43730195121707
 20
-123.4405273128899
 10
94.43006725069804
 20
-123.4405273128899
 10
94.42076549288787
 20
-123.4363931983076
 10
94.41525334011146
 20
-123.4131388037821
 10
94.41525334011146
 20
-123.4131388037821
 10
94.3687445510606
 20
-123.2205579661567
 10
94.3687445510606
 20
-123.2205579661567
 10
94.49655759356337
 20
-123.1740491771058
 10
94.55409068816704
 20
-123.1507947825804
 10
94.60232202496053
 20
-123.1296074453461
 10
94.60232202496053
 20
-123.1296074453461
 10
94.60232202496053
 20
-122.7170572609874
 10
94.60232202496053
 20
-122.7170572609874
 10
94.60232202496053
 20
-122.7170572609874
 10
94.55581323590967
 20
-122.7170572609874
 10
94.55581323590967
 20
-122.7170572609874
 10
94.55581323590967
 20
-122.7170572609874
 10
94.48725583575319
 20
-122.7170572609874
 10
94.48725583575319
 20
-122.7170572609874
 10
94.42800019340689
 20
-122.7170572609874
 10
94.42076549288787
 20
-122.7170572609874
 10
94.3894151239721
 20
-122.7234306876351
 10
94.3894151239721
 20
-122.7234306876351
 10
94.3894151239721
 20
-122.5287827927185
 10
94.3894151239721
 20
-122.5287827927185
 10
94.41318628282032
 20
-122.5351562193662
 10
94.42076549288787
 20
-122.5351562193662
 10
94.48174368297678
 20
-122.5351562193662
 10
94.48174368297678
 20
-122.5351562193662
 10
94.59853241992676
 20
-122.5351562193662
 10
94.59853241992676
 20
-122.5351562193662
 10
94.59853241992676
 20
-122.4653930357899
 10
94.59853241992676
 20
-122.3828829989182
 10
94.59680987218414
 20
-122.3785766295616
 10
94.58923066211659
 20
-122.1987426452316
 10
94.58923066211659
 20
-122.1797946200627
 10
94.58750811437396
 20
-122.1332858310118
 10
94.58750811437396
 20
-122.1332858310118
 10
94.77629934696566
 20
-122.1417263149507
 10
94.77629934696566
 20
-122.1417263149507
 10
94.78560110477582
 20
-122.1417263149507
 10
94.80420462039618
 20
-122.1437933722418
 10
94.80420462039618
 20
-122.1606743401196
 10
94.80420462039618
 20
-122.1797946200627
 10
94.79111325755223
 20
-122.1903021612927
 10
94.7687201368981
 20
-122.2094224412358
 10
94.7687201368981
 20
-122.260065344869
 10
94.7632079841217
 20
-122.4886474303153
 10
94.76527504141285
 20
-122.5351562193662
 10
94.87792966378052
 20
-122.5351562193662
 10
94.88929847888184
 20
-122.5351562193662
 10
94.97439233736752
 20
-122.5267157354274
 10
94.97439233736752
 20
-122.5267157354274
 10
94.97439233736752
 20
-122.721363630344
 10
94.97439233736752
 20
-122.721363630344
 10
94.9409749111606
 20
-122.7191243182786
 10
94.8817192688143
 20
-122.7149902036963
 10
94.7632079841217
 20
-122.7170572609874
 10
94.7632079841217
 20
-122.7170572609874
 10
94.7632079841217
 20
-123.0555378924132
 10
94.7632079841217
 20
-123.0555378924132
 10
94.8114393209152
 20
-123.0322834978878
 10
94.86897241551887
 20
-123.0047227340058
 10
94.91134708998744
 20
-122.9814683394803
 10
94.91134708998744
 20
-122.9814683394803
 10
94.91134708998744
 20
-122.8038736672157
 10
94.91134708998744
 20
-122.8038736672157
 10
95.01159936860822
 20
-122.8164482657369
 10
95.11495223316571
 20
-122.8164482657369
 10
95.21692705952911
 20
-122.8164482657369
 10
95.19660099616613
 20
-122.721363630344
 10
95.17248532776938
 20
-122.6388535934722
 10
95.11701929045687
 20
-122.5055283981931
 10
95.07808971147354
 20
-122.5075954554842
 10
95.00574270628329
 20
-122.5119018248408
 10
94.97266978962489
 20
-122.5139688821319
 10
94.97266978962489
 20
-122.5139688821319
 10
94.97266978962489
 20
-122.3341348978019
 10
94.97266978962489
 20
-122.3341348978019
 10
95.08187931650731
 20
-122.3425753817407
 10
95.23346351785831
 20
-122.3468817510973
 10
95.30581052304855
 20
-122.3468817510973
 10
95.30581052304855
 20
-122.3468817510973
 10
95.3781575282388
 20
-122.3468817510973
 10
95.3781575282388
 20
-122.3468817510973
 10
95.3781575282388
 20
-122.183928734645
 10
95.3781575282388
 20
-122.173421193415
 10
95.37609047094764
 20
-122.1184719204253
 10
95.37609047094764
 20
-122.1184719204253
 10
95.57246091360689
 20
-122.1437933722418
 10
95.57246091360689
 20
-122.1437933722418
 10
95.57625051864066
 20
-122.1437933722418
 10
95.59485403426102
 20
-122.145860429533
 10
95.59485403426102
 20
-122.1627413974107
 10
95.59485403426102
 20
-122.1775553079973
 10
95.58555227645084
 20
-122.1861680467104
 10
95.5614366080541
 20
-122.200981957297
 10
95.55592445527769
 20
-122.2664387715167
 10
95.55385739798653
 20
-122.287626108751
 10
95.55385739798653
 20
-122.3468817510973
 10
95.55385739798653
 20
-122.3468817510973
 10
95.63722870872958
 20
-122.3468817510973
 10
95.63722870872958
 20
-122.3468817510973
 10
95.70957571391983
 20
-122.3468817510973
 10
95.86150442481934
 20
-122.3425753817407
 10
95.97071395170177
 20
-122.3341348978019
 10
95.97071395170177
 20
-122.3341348978019
 10
95.97071395170177
 20
-122.5139688821319
 10
95.97071395170177
 20
-122.5139688821319
 10
95.94453122601386
 20
-122.5119018248408
 10
95.84117836145637
 20
-122.5075954554842
 10
95.8056938779583
 20
-122.5055283981931
 10
95.79294702466288
 20
-122.5563435566005
 10
95.76331920348973
 20
-122.6684814146454
 10
95.70578610888606
 20
-122.808007781798
 10
95.74299314012676
 20
-122.808007781798
 10
95.98552786228835
 20
-122.7890597566291
 10
96.03927135185825
 20
-122.7868204445637
 10
96.03927135185825
 20
-122.7868204445637
 10
96.03927135185825
 20
-122.9709607982503
 10
96.03927135185825
 20
-122.9709607982503
 10
96.01308862617034
 20
-122.9709607982503
 10
95.99827471558378
 20
-122.9666544288938
 10
95.85564776249443
 20
-122.9666544288938
 97
        0
 97
        0
 92
        1
 93
        1
 72
     4
 94
        3
 73
     0
 74
     1
 95
       20
 96
       16
 40
0.0
 40
0.0
 40
0.0
 40
0.0
 40
1.0
 40
1.0
 40
1.0
 40
2.0
 40
2.0
 40
2.0
 40
3.0
 40
3.0
 40
3.0
 40
4.0
 40
4.0
 40
4.0
 40
5.0
 40
5.0
 40
5.0
 40
5.0
 10
95.30581052304855
 20
-122.5013942836108
 10
95.30581052304855
 20
-122.5013942836108
 10
95.27824975916656
 20
-122.5013942836108
 10
95.27824975916656
 20
-122.5013942836108
 10
95.3189018858925
 20
-122.6007852883602
 10
95.3464626497745
 20
-122.6810560131666
 10
95.37609047094764
 20
-122.808007781798
 10
95.37609047094764
 20
-122.808007781798
 10
95.55764700302032
 20
-122.808007781798
 10
95.55764700302032
 20
-122.808007781798
 10
95.58555227645084
 20
-122.7149902036963
 10
95.60587833981381
 20
-122.6304131095334
 10
95.62620440317679
 20
-122.5013942836108
 10
95.62620440317679
 20
-122.5013942836108
 10
95.30581052304855
 20
-122.5013942836108
 10
95.30581052304855
 20
-122.5013942836108
 97
        0
 97
        0
 92
        1
 93
        1
 72
     4
 94
        3
 73
     0
 74
     1
 95
       17
 96
       13
 40
0.0
 40
0.0
 40
0.0
 40
0.0
 40
1.0
 40
1.0
 40
1.0
 40
2.0
 40
2.0
 40
2.0
 40
3.0
 40
3.0
 40
3.0
 40
4.0
 40
4.0
 40
4.0
 40
4.0
 10
95.36127656036108
 20
-123.3518161041447
 10
95.3464626497745
 20
-123.3812716705436
 10
95.30202091801478
 20
-123.4744615034196
 10
95.2927191602046
 20
-123.4934095285885
 10
95.45946178169069
 20
-123.5526651709348
 10
95.47806529731105
 20
-123.5590385975825
 10
95.54111054469112
 20
-123.5865993614645
 10
95.58899737193609
 20
-123.4997829552362
 10
95.60966794484759
 20
-123.4257134023033
 10
95.62241479814301
 20
-123.3518161041447
 10
95.62241479814301
 20
-123.3518161041447
 10
95.36127656036108
 20
-123.3518161041447
 10
95.36127656036108
 20
-123.3518161041447
 97
        0
 97
        0
 75
     2
 76
     1
 98
        0
  0
SPLINE
  5
88
330
80
100
AcDbEntity
  8
_U+30EC_U+30A4_U+30E4_U+30FC 1
370
     0
100
AcDbSpline
210
0.0
220
0.0
230
1.0
 70
    11
 71
     3
 72
   203
 73
   199
 74
     0
 42
0.0000000001
 43
0.0000000001
 12
1.0
 22
0.0
 32
0.0
 13
1.0
 23
0.0
 33
0.0
 40
0.0
 40
0.0
 40
0.0
 40
0.0
 40
1.0
 40
1.0
 40
1.0
 40
2.0
 40
2.0
 40
2.0
 40
3.0
 40
3.0
 40
3.0
 40
4.0
 40
4.0
 40
4.0
 40
5.0
 40
5.0
 40
5.0
 40
6.0
 40
6.0
 40
6.0
 40
7.0
 40
7.0
 40
7.0
 40
8.0
 40
8.0
 40
8.0
 40
9.0
 40
9.0
 40
9.0
 40
10.0
 40
10.0
 40
10.0
 40
11.0
 40
11.0
 40
11.0
 40
12.0
 40
12.0
 40
12.0
 40
13.0
 40
13.0
 40
13.0
 40
14.0
 40
14.0
 40
14.0
 40
15.0
 40
15.0
 40
15.0
 40
16.0
 40
16.0
 40
16.0
 40
17.0
 40
17.0
 40
17.0
 40
18.0
 40
18.0
 40
18.0
 40
19.0
 40
19.0
 40
19.0
 40
20.0
 40
20.0
 40
20.0
 40
21.0
 40
21.0
 40
21.0
 40
22.0
 40
22.0
 40
22.0
 40
23.0
 40
23.0
 40
23.0
 40
24.0
 40
24.0
 40
24.0
 40
25.0
 40
25.0
 40
25.0
 40
26.0
 40
26.0
 40
26.0
 40
27.0
 40
27.0
 40
27.0
 40
28.0
 40
28.0
 40
28.0
 40
29.0
 40
29.0
 40
29.0
 40
30.0
 40
30.0
 40
30.0
 40
31.0
 40
31.0
 40
31.0
 40
32.0
 40
32.0
 40
32.0
 40
33.0
 40
33.0
 40
33.0
 40
34.0
 40
34.0
 40
34.0
 40
35.0
 40
35.0
 40
35.0
 40
36.0
 40
36.0
 40
36.0
 40
37.0
 40
37.0
 40
37.0
 40
38.0
 40
38.0
 40
38.0
 40
39.0
 40
39.0
 40
39.0
 40
40.0
 40
40.0
 40
40.0
 40
41.0
 40
41.0
 40
41.0
 40
42.0
 40
42.0
 40
42.0
 40
43.0
 40
43.0
 40
43.0
 40
44.0
 40
44.0
 40
44.0
 40
45.0
 40
45.0
 40
45.0
 40
46.0
 40
46.0
 40
46.0
 40
47.0
 40
47.0
 40
47.0
 40
48.0
 40
48.0
 40
48.0
 40
49.0
 40
49.0
 40
49.0
 40
50.0
 40
50.0
 40
50.0
 40
51.0
 40
51.0
 40
51.0
 40
52.0
 40
52.0
 40
52.0
 40
53.0
 40
53.0
 40
53.0
 40
54.0
 40
54.0
 40
54.0
 40
55.0
 40
55.0
 40
55.0
 40
56.0
 40
56.0
 40
56.0
 40
57.0
 40
57.0
 40
57.0
 40
58.0
 40
58.0
 40
58.0
 40
59.0
 40
59.0
 40
59.0
 40
60.0
 40
60.0
 40
60.0
 40
61.0
 40
61.0
 40
61.0
 40
62.0
 40
62.0
 40
62.0
 40
63.0
 40
63.0
 40
63.0
 40
64.0
 40
64.0
 40
64.0
 40
65.0
 40
65.0
 40
65.0
 40
66.0
 40
66.0
 40
66.0
 40
66.0
 10
97.3377278402489
 20
-123.0343505551789
 30
0.0
 10
97.3377278402489
 20
-123.0343505551789
 30
0.0
 10
96.84886879089196
 20
-123.0343505551789
 30
0.0
 10
96.84886879089196
 20
-123.0343505551789
 30
0.0
 10
96.83956703308178
 20
-123.0787922869386
 30
0.0
 10
96.83233233256276
 20
-123.1104871654029
 30
0.0
 10
96.82096351746144
 20
-123.1487277252892
 30
0.0
 10
96.84335663811555
 20
-123.1487277252892
 30
0.0
 10
96.8564480009595
 20
-123.1507947825804
 30
0.0
 10
96.86196015373591
 20
-123.1507947825804
 30
0.0
 10
96.86196015373591
 20
-123.1507947825804
 30
0.0
 10
97.02663571793084
 20
-123.1507947825804
 30
0.0
 10
97.02663571793084
 20
-123.1507947825804
 30
0.0
 10
97.02663571793084
 20
-123.1507947825804
 30
0.0
 10
97.3542642985781
 20
-123.1507947825804
 30
0.0
 10
97.3542642985781
 20
-123.1507947825804
 30
0.0
 10
97.39905053988635
 20
-123.1507947825804
 30
0.0
 10
97.64709741482434
 20
-123.1380479292849
 30
0.0
 10
97.67465817870634
 20
-123.1380479292849
 30
0.0
 10
97.67293563096372
 20
-123.1656086931669
 30
0.0
 10
97.67121308322109
 20
-123.1845567183358
 30
0.0
 10
97.67121308322109
 20
-123.214184539509
 30
0.0
 10
97.66914602592993
 20
-123.2458794179733
 30
0.0
 10
97.66914602592993
 20
-123.3812716705436
 30
0.0
 10
97.66914602592993
 20
-123.4088324344256
 30
0.0
 10
97.66914602592993
 20
-123.4088324344256
 30
0.0
 10
97.66914602592993
 20
-123.6542954877496
 30
0.0
 10
97.66914602592993
 20
-123.6542954877496
 30
0.0
 10
97.66914602592993
 20
-123.6987372195094
 30
0.0
 10
97.67293563096372
 20
-123.8954521717171
 30
0.0
 10
97.6767252359975
 20
-124.0477253921652
 30
0.0
 10
97.6767252359975
 20
-124.0477253921652
 30
0.0
 10
97.47863224559562
 20
-124.0477253921652
 30
0.0
 10
97.47863224559562
 20
-124.0477253921652
 30
0.0
 10
97.47863224559562
 20
-124.0477253921652
 30
0.0
 10
97.48035479333825
 20
-124.0139634564097
 30
0.0
 10
97.48035479333825
 20
-124.0139634564097
 30
0.0
 10
97.48035479333825
 20
-124.0139634564097
 30
0.0
 10
96.86574975876968
 20
-124.0139634564097
 30
0.0
 10
96.86574975876968
 20
-124.0139634564097
 30
0.0
 10
96.86574975876968
 20
-124.0139634564097
 30
0.0
 10
96.8674723065123
 20
-124.0477253921652
 30
0.0
 10
96.8674723065123
 20
-124.0477253921652
 30
0.0
 10
96.8674723065123
 20
-124.0477253921652
 30
0.0
 10
96.67661401662946
 20
-124.0477253921652
 30
0.0
 10
96.67661401662946
 20
-124.0477253921652
 30
0.0
 10
96.68040362166323
 20
-123.9927761191754
 30
0.0
 10
96.68040362166323
 20
-123.98002926588
 30
0.0
 10
96.68591577443964
 20
-123.865824350544
 30
0.0
 10
96.68798283173079
 20
-123.838263586662
 30
0.0
 10
96.68970537947341
 20
-123.7051106461571
 30
0.0
 10
96.68970537947341
 20
-123.6859903662139
 30
0.0
 10
96.68970537947341
 20
-123.6859903662139
 30
0.0
 10
96.68970537947341
 20
-123.4829019873584
 30
0.0
 10
96.68970537947341
 20
-123.4829019873584
 30
0.0
 10
96.56740448974705
 20
-123.7324991552648
 30
0.0
 10
96.4192653838813
 20
-123.8637572932528
 30
0.0
 10
96.32659231532809
 20
-123.9292141074726
 30
0.0
 10
96.32659231532809
 20
-123.9292141074726
 30
0.0
 10
96.17500811397709
 20
-123.7896877403199
 30
0.0
 10
96.17500811397709
 20
-123.7896877403199
 30
0.0
 10
96.2525227623952
 20
-123.7388725819125
 30
0.0
 10
96.37861325715535
 20
-123.6520561756842
 30
0.0
 10
96.49884708959057
 20
-123.4575805355419
 30
0.0
 10
96.57842879529984
 20
-123.3306287669104
 30
0.0
 10
96.63596188990351
 20
-123.1867960304012
 30
0.0
 10
96.66558971107666
 20
-123.0343505551789
 30
0.0
 10
96.46542966338365
 20
-123.0365898672443
 30
0.0
 10
96.30833330925626
 20
-123.042963293892
 30
0.0
 10
96.22496199851321
 20
-123.0450303511832
 30
0.0
 10
96.22496199851321
 20
-123.0450303511832
 30
0.0
 10
96.22496199851321
 20
-122.8672634241443
 30
0.0
 10
96.22496199851321
 20
-122.8672634241443
 30
0.0
 10
96.3972167727757
 20
-122.873636850792
 30
0.0
 10
96.64526364771369
 20
-122.8779432201486
 30
0.0
 10
96.77686629525023
 20
-122.8779432201486
 30
0.0
 10
96.77686629525023
 20
-122.8779432201486
 30
0.0
 10
96.96359047055077
 20
-122.8779432201486
 30
0.0
 10
96.96359047055077
 20
-122.8779432201486
 30
0.0
 10
96.96359047055077
 20
-122.8779432201486
 30
0.0
 10
96.96359047055077
 20
-122.769939476686
 30
0.0
 10
96.96359047055077
 20
-122.769939476686
 30
0.0
 10
96.96359047055077
 20
-122.769939476686
 30
0.0
 10
96.83612193759653
 20
-122.769939476686
 30
0.0
 10
96.83612193759653
 20
-122.769939476686
 30
0.0
 10
96.68798283173079
 20
-122.769939476686
 30
0.0
 10
96.53984372586504
 20
-122.7742458460426
 30
0.0
 10
96.39342716774192
 20
-122.7806192726903
 30
0.0
 10
96.39342716774192
 20
-122.7806192726903
 30
0.0
 10
96.39342716774192
 20
-122.6092257722991
 30
0.0
 10
96.39342716774192
 20
-122.6092257722991
 30
0.0
 10
96.52847491076372
 20
-122.6197333135291
 30
0.0
 10
96.69142792721604
 20
-122.6197333135291
 30
0.0
 10
96.83612193759653
 20
-122.6197333135291
 30
0.0
 10
96.83612193759653
 20
-122.6197333135291
 30
0.0
 10
96.96359047055077
 20
-122.6197333135291
 30
0.0
 10
96.96359047055077
 20
-122.6197333135291
 30
0.0
 10
96.96359047055077
 20
-122.6197333135291
 30
0.0
 10
96.96359047055077
 20
-122.5013942836108
 30
0.0
 10
96.96359047055077
 20
-122.5013942836108
 30
0.0
 10
96.96359047055077
 20
-122.5013942836108
 30
0.0
 10
96.84886879089196
 20
-122.5013942836108
 30
0.0
 10
96.84886879089196
 20
-122.5013942836108
 30
0.0
 10
96.80821666416601
 20
-122.5013942836108
 30
0.0
 10
96.63044973712711
 20
-122.5098347675496
 30
0.0
 10
96.59324270588641
 20
-122.5098347675496
 30
0.0
 10
96.41547577884752
 20
-122.5139688821319
 30
0.0
 10
96.3489854359822
 20
-122.5160359394231
 30
0.0
 10
96.28042803582574
 20
-122.5182752514885
 30
0.0
 10
96.28042803582574
 20
-122.5182752514885
 30
0.0
 10
96.28042803582574
 20
-122.3341348978019
 30
0.0
 10
96.28042803582574
 20
-122.3341348978019
 30
0.0
 10
96.38033580489798
 20
-122.3425753817407
 30
0.0
 10
96.4192653838813
 20
-122.3425753817407
 30
0.0
 10
96.75447317459611
 20
-122.3511881204539
 30
0.0
 10
96.69900713728359
 20
-122.2559312302867
 30
0.0
 10
96.67489146888684
 20
-122.2283704664047
 30
0.0
 10
96.64319659042253
 20
-122.1923692185839
 30
0.0
 10
96.64319659042253
 20
-122.1923692185839
 30
0.0
 10
96.7971923586132
 20
-122.1098591817121
 30
0.0
 10
96.7971923586132
 20
-122.1098591817121
 30
0.0
 10
96.83233233256276
 20
-122.145860429533
 30
0.0
 10
96.87126191154607
 20
-122.1882351040016
 30
0.0
 10
96.93602970666878
 20
-122.298133649981
 30
0.0
 10
96.93602970666878
 20
-122.298133649981
 30
0.0
 10
96.83612193759653
 20
-122.353255177745
 30
0.0
 10
96.83612193759653
 20
-122.353255177745
 30
0.0
 10
96.83612193759653
 20
-122.353255177745
 30
0.0
 10
96.84507918585818
 20
-122.353255177745
 30
0.0
 10
96.84507918585818
 20
-122.353255177745
 30
0.0
 10
96.84507918585818
 20
-122.353255177745
 30
0.0
 10
97.30258786629936
 20
-122.353255177745
 30
0.0
 10
97.30258786629936
 20
-122.353255177745
 30
0.0
 10
97.30258786629936
 20
-122.353255177745
 30
0.0
 10
97.21921655555632
 20
-122.3088134459853
 30
0.0
 10
97.21921655555632
 20
-122.3088134459853
 30
0.0
 10
97.24333222395306
 20
-122.2707451408733
 30
0.0
 10
97.29328610848918
 20
-122.1903021612927
 30
0.0
 10
97.30637747133314
 20
-122.1162326083598
 30
0.0
 10
97.30637747133314
 20
-122.1162326083598
 30
0.0
 10
97.4934461561822
 20
-122.1797946200627
 30
0.0
 10
97.4934461561822
 20
-122.1797946200627
 30
0.0
 10
97.50068085670122
 20
-122.1818616773539
 30
0.0
 10
97.51928437232158
 20
-122.1923692185839
 30
0.0
 10
97.51928437232158
 20
-122.2135565558181
 30
0.0
 10
97.51928437232158
 20
-122.2516248609301
 30
0.0
 10
97.4617512777179
 20
-122.2516248609301
 30
0.0
 10
97.4452148193887
 20
-122.2516248609301
 30
0.0
 10
97.43591306157853
 20
-122.2707451408733
 30
0.0
 10
97.41558699821555
 20
-122.3108805032765
 30
0.0
 10
97.38974878207618
 20
-122.3511881204539
 30
0.0
 10
97.73942597382904
 20
-122.3448146938062
 30
0.0
 10
97.76560869951693
 20
-122.3425753817407
 30
0.0
 10
97.83209904238225
 20
-122.3363742098673
 30
0.0
 10
97.83209904238225
 20
-122.3363742098673
 30
0.0
 10
97.83209904238225
 20
-122.5182752514885
 30
0.0
 10
97.83209904238225
 20
-122.5182752514885
 30
0.0
 10
97.81556258405305
 20
-122.5182752514885
 30
0.0
 10
97.79316946339894
 20
-122.5160359394231
 30
0.0
 10
97.60058862577347
 20
-122.5075954554842
 30
0.0
 10
97.55614689401375
 20
-122.5055283981931
 30
0.0
 10
97.36356605638828
 20
-122.5013942836108
 30
0.0
 10
97.32463647740495
 20
-122.5013942836108
 30
0.0
 10
97.32463647740495
 20
-122.5013942836108
 30
0.0
 10
97.13584524481327
 20
-122.5013942836108
 30
0.0
 10
97.13584524481327
 20
-122.5013942836108
 30
0.0
 10
97.13584524481327
 20
-122.5013942836108
 30
0.0
 10
97.13584524481327
 20
-122.6197333135291
 30
0.0
 10
97.13584524481327
 20
-122.6197333135291
 30
0.0
 10
97.13584524481327
 20
-122.6197333135291
 30
0.0
 10
97.28777395571278
 20
-122.6197333135291
 30
0.0
 10
97.28777395571278
 20
-122.6197333135291
 30
0.0
 10
97.43040090880213
 20
-122.6197333135291
 30
0.0
 10
97.59714353028822
 20
-122.6197333135291
 30
0.0
 10
97.73391382105264
 20
-122.6092257722991
 30
0.0
 10
97.73391382105264
 20
-122.6092257722991
 30
0.0
 10
97.73391382105264
 20
-122.7806192726903
 30
0.0
 10
97.73391382105264
 20
-122.7806192726903
 30
0.0
 10
97.55063474123735
 20
-122.7721787887514
 30
0.0
 10
97.37837996697485
 20
-122.769939476686
 30
0.0
 10
97.28777395571278
 20
-122.769939476686
 30
0.0
 10
97.28777395571278
 20
-122.769939476686
 30
0.0
 10
97.13584524481327
 20
-122.769939476686
 30
0.0
 10
97.13584524481327
 20
-122.769939476686
 30
0.0
 10
97.13584524481327
 20
-122.769939476686
 30
0.0
 10
97.13584524481327
 20
-122.8779432201486
 30
0.0
 10
97.13584524481327
 20
-122.8779432201486
 30
0.0
 10
97.13584524481327
 20
-122.8779432201486
 30
0.0
 10
97.3377278402489
 20
-122.8779432201486
 30
0.0
 10
97.3377278402489
 20
-122.8779432201486
 30
0.0
 10
97.45451657719887
 20
-122.8779432201486
 30
0.0
 10
97.70635305717065
 20
-122.873636850792
 30
0.0
 10
97.88963213698592
 20
-122.8672634241443
 30
0.0
 10
97.88963213698592
 20
-122.8672634241443
 30
0.0
 10
97.88963213698592
 20
-123.0450303511832
 30
0.0
 10
97.88963213698592
 20
-123.0450303511832
 30
0.0
 10
97.72116696775721
 20
-123.0386569245355
 30
0.0
 10
97.44693736713133
 20
-123.0343505551789
 30
0.0
 10
97.3377278402489
 20
-123.0343505551789
 30
0.0
  0
POLYLINE
  5
89
330
80
100
AcDbEntity
  8
_U+30EC_U+30A4_U+30E4_U+30FC 1
370
     0
100
AcDb2dPolyline
 66
     1
 10
0.0
 20
0.0
 30
0.0
  0
VERTEX
  5
8A
330
89
100
AcDbEntity
  8
_U+30EC_U+30A4_U+30E4_U+30FC 1
370
     0
100
AcDbVertex
100
AcDb2dVertex
 10
97.48207734108087
 20
-123.290321149733
 30
0.0
  0
VERTEX
  5
8B
330
89
100
AcDbEntity
  8
_U+30EC_U+30A4_U+30E4_U+30FC 1
370
     0
100
AcDbVertex
100
AcDb2dVertex
 10
96.86368270147852
 20
-123.290321149733
 30
0.0
  0
VERTEX
  5
8C
330
89
100
AcDbEntity
  8
_U+30EC_U+30A4_U+30E4_U+30FC 1
370
     0
100
AcDbVertex
100
AcDb2dVertex
 10
96.86368270147852
 20
-123.3983248931956
 30
0.0
  0
VERTEX
  5
8D
330
89
100
AcDbEntity
  8
_U+30EC_U+30A4_U+30E4_U+30FC 1
370
     0
100
AcDbVertex
100
AcDb2dVertex
 10
97.48207734108087
 20
-123.3983248931956
 30
0.0
  0
VERTEX
  5
8E
330
89
100
AcDbEntity
  8
_U+30EC_U+30A4_U+30E4_U+30FC 1
370
     0
100
AcDbVertex
100
AcDb2dVertex
 10
97.48207734108087
 20
-123.290321149733
 30
0.0
  0
SEQEND
  5
8F
330
89
100
AcDbEntity
  8
_U+30EC_U+30A4_U+30E4_U+30FC 1
370
     0
  0
POLYLINE
  5
90
330
80
100
AcDbEntity
  8
_U+30EC_U+30A4_U+30E4_U+30FC 1
370
     0
100
AcDb2dPolyline
 66
     1
 10
0.0
 20
0.0
 30
0.0
  0
VERTEX
  5
91
330
90
100
AcDbEntity
  8
_U+30EC_U+30A4_U+30E4_U+30FC 1
370
     0
100
AcDbVertex
100
AcDb2dVertex
 10
97.48207734108087
 20
-123.5230373497616
 30
0.0
  0
VERTEX
  5
92
330
90
100
AcDbEntity
  8
_U+30EC_U+30A4_U+30E4_U+30FC 1
370
     0
100
AcDbVertex
100
AcDb2dVertex
 10
96.86368270147852
 20
-123.5230373497616
 30
0.0
  0
VERTEX
  5
93
330
90
100
AcDbEntity
  8
_U+30EC_U+30A4_U+30E4_U+30FC 1
370
     0
100
AcDbVertex
100
AcDb2dVertex
 10
96.86368270147852
 20
-123.6374145198719
 30
0.0
  0
VERTEX
  5
94
330
90
100
AcDbEntity
  8
_U+30EC_U+30A4_U+30E4_U+30FC 1
370
     0
100
AcDbVertex
100
AcDb2dVertex
 10
97.48207734108087
 20
-123.6374145198719
 30
0.0
  0
VERTEX
  5
95
330
90
100
AcDbEntity
  8
_U+30EC_U+30A4_U+30E4_U+30FC 1
370
     0
100
AcDbVertex
100
AcDb2dVertex
 10
97.48207734108087
 20
-123.5230373497616
 30
0.0
  0
SEQEND
  5
96
330
90
100
AcDbEntity
  8
_U+30EC_U+30A4_U+30E4_U+30FC 1
370
     0
  0
POLYLINE
  5
97
330
80
100
AcDbEntity
  8
_U+30EC_U+30A4_U+30E4_U+30FC 1
370
     0
100
AcDb2dPolyline
 66
     1
 10
0.0
 20
0.0
 30
0.0
  0
VERTEX
  5
98
330
97
100
AcDbEntity
  8
_U+30EC_U+30A4_U+30E4_U+30FC 1
370
     0
100
AcDbVertex
100
AcDb2dVertex
 10
97.48207734108087
 20
-123.7664333457945
 30
0.0
  0
VERTEX
  5
99
330
97
100
AcDbEntity
  8
_U+30EC_U+30A4_U+30E4_U+30FC 1
370
     0
100
AcDbVertex
100
AcDb2dVertex
 10
96.86368270147852
 20
-123.7664333457945
 30
0.0
  0
VERTEX
  5
9A
330
97
100
AcDbEntity
  8
_U+30EC_U+30A4_U+30E4_U+30FC 1
370
     0
100
AcDbVertex
100
AcDb2dVertex
 10
96.86368270147852
 20
-123.8806382611305
 30
0.0
  0
VERTEX
  5
9B
330
97
100
AcDbEntity
  8
_U+30EC_U+30A4_U+30E4_U+30FC 1
370
     0
100
AcDbVertex
100
AcDb2dVertex
 10
97.48207734108087
 20
-123.8806382611305
 30
0.0
  0
VERTEX
  5
9C
330
97
100
AcDbEntity
  8
_U+30EC_U+30A4_U+30E4_U+30FC 1
370
     0
100
AcDbVertex
100
AcDb2dVertex
 10
97.48207734108087
 20
-123.7664333457945
 30
0.0
  0
SEQEND
  5
9D
330
97
100
AcDbEntity
  8
_U+30EC_U+30A4_U+30E4_U+30FC 1
370
     0
  0
HATCH
  5
9E
330
80
100
AcDbEntity
  8
_U+30EC_U+30A4_U+30E4_U+30FC 1
 62
   179
420
  2234388
100
AcDbHatch
 10
0.0
 20
0.0
 30
0.0
210
0.0
220
0.0
230
1.0
  2
SOLID
 70
     1
 71
     0
 91
        4
 92
        1
 93
        1
 72
     4
 94
        3
 73
     0
 74
     1
 95
      203
 96
      199
 40
0.0
 40
0.0
 40
0.0
 40
0.0
 40
1.0
 40
1.0
 40
1.0
 40
2.0
 40
2.0
 40
2.0
 40
3.0
 40
3.0
 40
3.0
 40
4.0
 40
4.0
 40
4.0
 40
5.0
 40
5.0
 40
5.0
 40
6.0
 40
6.0
 40
6.0
 40
7.0
 40
7.0
 40
7.0
 40
8.0
 40
8.0
 40
8.0
 40
9.0
 40
9.0
 40
9.0
 40
10.0
 40
10.0
 40
10.0
 40
11.0
 40
11.0
 40
11.0
 40
12.0
 40
12.0
 40
12.0
 40
13.0
 40
13.0
 40
13.0
 40
14.0
 40
14.0
 40
14.0
 40
15.0
 40
15.0
 40
15.0
 40
16.0
 40
16.0
 40
16.0
 40
17.0
 40
17.0
 40
17.0
 40
18.0
 40
18.0
 40
18.0
 40
19.0
 40
19.0
 40
19.0
 40
20.0
 40
20.0
 40
20.0
 40
21.0
 40
21.0
 40
21.0
 40
22.0
 40
22.0
 40
22.0
 40
23.0
 40
23.0
 40
23.0
 40
24.0
 40
24.0
 40
24.0
 40
25.0
 40
25.0
 40
25.0
 40
26.0
 40
26.0
 40
26.0
 40
27.0
 40
27.0
 40
27.0
 40
28.0
 40
28.0
 40
28.0
 40
29.0
 40
29.0
 40
29.0
 40
30.0
 40
30.0
 40
30.0
 40
31.0
 40
31.0
 40
31.0
 40
32.0
 40
32.0
 40
32.0
 40
33.0
 40
33.0
 40
33.0
 40
34.0
 40
34.0
 40
34.0
 40
35.0
 40
35.0
 40
35.0
 40
36.0
 40
36.0
 40
36.0
 40
37.0
 40
37.0
 40
37.0
 40
38.0
 40
38.0
 40
38.0
 40
39.0
 40
39.0
 40
39.0
 40
40.0
 40
40.0
 40
40.0
 40
41.0
 40
41.0
 40
41.0
 40
42.0
 40
42.0
 40
42.0
 40
43.0
 40
43.0
 40
43.0
 40
44.0
 40
44.0
 40
44.0
 40
45.0
 40
45.0
 40
45.0
 40
46.0
 40
46.0
 40
46.0
 40
47.0
 40
47.0
 40
47.0
 40
48.0
 40
48.0
 40
48.0
 40
49.0
 40
49.0
 40
49.0
 40
50.0
 40
50.0
 40
50.0
 40
51.0
 40
51.0
 40
51.0
 40
52.0
 40
52.0
 40
52.0
 40
53.0
 40
53.0
 40
53.0
 40
54.0
 40
54.0
 40
54.0
 40
55.0
 40
55.0
 40
55.0
 40
56.0
 40
56.0
 40
56.0
 40
57.0
 40
57.0
 40
57.0
 40
58.0
 40
58.0
 40
58.0
 40
59.0
 40
59.0
 40
59.0
 40
60.0
 40
60.0
 40
60.0
 40
61.0
 40
61.0
 40
61.0
 40
62.0
 40
62.0
 40
62.0
 40
63.0
 40
63.0
 40
63.0
 40
64.0
 40
64.0
 40
64.0
 40
65.0
 40
65.0
 40
65.0
 40
66.0
 40
66.0
 40
66.0
 40
66.0
 10
97.3377278402489
 20
-123.0343505551789
 10
97.3377278402489
 20
-123.0343505551789
 10
96.84886879089196
 20
-123.0343505551789
 10
96.84886879089196
 20
-123.0343505551789
 10
96.83956703308178
 20
-123.0787922869386
 10
96.83233233256276
 20
-123.1104871654029
 10
96.82096351746144
 20
-123.1487277252892
 10
96.84335663811555
 20
-123.1487277252892
 10
96.8564480009595
 20
-123.1507947825804
 10
96.86196015373591
 20
-123.1507947825804
 10
96.86196015373591
 20
-123.1507947825804
 10
97.02663571793084
 20
-123.1507947825804
 10
97.02663571793084
 20
-123.1507947825804
 10
97.02663571793084
 20
-123.1507947825804
 10
97.3542642985781
 20
-123.1507947825804
 10
97.3542642985781
 20
-123.1507947825804
 10
97.39905053988635
 20
-123.1507947825804
 10
97.64709741482434
 20
-123.1380479292849
 10
97.67465817870634
 20
-123.1380479292849
 10
97.67293563096372
 20
-123.1656086931669
 10
97.67121308322109
 20
-123.1845567183358
 10
97.67121308322109
 20
-123.214184539509
 10
97.66914602592993
 20
-123.2458794179733
 10
97.66914602592993
 20
-123.3812716705436
 10
97.66914602592993
 20
-123.4088324344256
 10
97.66914602592993
 20
-123.4088324344256
 10
97.66914602592993
 20
-123.6542954877496
 10
97.66914602592993
 20
-123.6542954877496
 10
97.66914602592993
 20
-123.6987372195094
 10
97.67293563096372
 20
-123.8954521717171
 10
97.6767252359975
 20
-124.0477253921652
 10
97.6767252359975
 20
-124.0477253921652
 10
97.47863224559562
 20
-124.0477253921652
 10
97.47863224559562
 20
-124.0477253921652
 10
97.47863224559562
 20
-124.0477253921652
 10
97.48035479333825
 20
-124.0139634564097
 10
97.48035479333825
 20
-124.0139634564097
 10
97.48035479333825
 20
-124.0139634564097
 10
96.86574975876968
 20
-124.0139634564097
 10
96.86574975876968
 20
-124.0139634564097
 10
96.86574975876968
 20
-124.0139634564097
 10
96.8674723065123
 20
-124.0477253921652
 10
96.8674723065123
 20
-124.0477253921652
 10
96.8674723065123
 20
-124.0477253921652
 10
96.67661401662946
 20
-124.0477253921652
 10
96.67661401662946
 20
-124.0477253921652
 10
96.68040362166323
 20
-123.9927761191754
 10
96.68040362166323
 20
-123.98002926588
 10
96.68591577443964
 20
-123.865824350544
 10
96.68798283173079
 20
-123.838263586662
 10
96.68970537947341
 20
-123.7051106461571
 10
96.68970537947341
 20
-123.6859903662139
 10
96.68970537947341
 20
-123.6859903662139
 10
96.68970537947341
 20
-123.4829019873584
 10
96.68970537947341
 20
-123.4829019873584
 10
96.56740448974705
 20
-123.7324991552648
 10
96.4192653838813
 20
-123.8637572932528
 10
96.32659231532809
 20
-123.9292141074726
 10
96.32659231532809
 20
-123.9292141074726
 10
96.17500811397709
 20
-123.7896877403199
 10
96.17500811397709
 20
-123.7896877403199
 10
96.2525227623952
 20
-123.7388725819125
 10
96.37861325715535
 20
-123.6520561756842
 10
96.49884708959057
 20
-123.4575805355419
 10
96.57842879529984
 20
-123.3306287669104
 10
96.63596188990351
 20
-123.1867960304012
 10
96.66558971107666
 20
-123.0343505551789
 10
96.46542966338365
 20
-123.0365898672443
 10
96.30833330925626
 20
-123.042963293892
 10
96.22496199851321
 20
-123.0450303511832
 10
96.22496199851321
 20
-123.0450303511832
 10
96.22496199851321
 20
-122.8672634241443
 10
96.22496199851321
 20
-122.8672634241443
 10
96.3972167727757
 20
-122.873636850792
 10
96.64526364771369
 20
-122.8779432201486
 10
96.77686629525023
 20
-122.8779432201486
 10
96.77686629525023
 20
-122.8779432201486
 10
96.96359047055077
 20
-122.8779432201486
 10
96.96359047055077
 20
-122.8779432201486
 10
96.96359047055077
 20
-122.8779432201486
 10
96.96359047055077
 20
-122.769939476686
 10
96.96359047055077
 20
-122.769939476686
 10
96.96359047055077
 20
-122.769939476686
 10
96.83612193759653
 20
-122.769939476686
 10
96.83612193759653
 20
-122.769939476686
 10
96.68798283173079
 20
-122.769939476686
 10
96.53984372586504
 20
-122.7742458460426
 10
96.39342716774192
 20
-122.7806192726903
 10
96.39342716774192
 20
-122.7806192726903
 10
96.39342716774192
 20
-122.6092257722991
 10
96.39342716774192
 20
-122.6092257722991
 10
96.52847491076372
 20
-122.6197333135291
 10
96.69142792721604
 20
-122.6197333135291
 10
96.83612193759653
 20
-122.6197333135291
 10
96.83612193759653
 20
-122.6197333135291
 10
96.96359047055077
 20
-122.6197333135291
 10
96.96359047055077
 20
-122.6197333135291
 10
96.96359047055077
 20
-122.6197333135291
 10
96.96359047055077
 20
-122.5013942836108
 10
96.96359047055077
 20
-122.5013942836108
 10
96.96359047055077
 20
-122.5013942836108
 10
96.84886879089196
 20
-122.5013942836108
 10
96.84886879089196
 20
-122.5013942836108
 10
96.80821666416601
 20
-122.5013942836108
 10
96.63044973712711
 20
-122.5098347675496
 10
96.59324270588641
 20
-122.5098347675496
 10
96.41547577884752
 20
-122.5139688821319
 10
96.3489854359822
 20
-122.5160359394231
 10
96.28042803582574
 20
-122.5182752514885
 10
96.28042803582574
 20
-122.5182752514885
 10
96.28042803582574
 20
-122.3341348978019
 10
96.28042803582574
 20
-122.3341348978019
 10
96.38033580489798
 20
-122.3425753817407
 10
96.4192653838813
 20
-122.3425753817407
 10
96.75447317459611
 20
-122.3511881204539
 10
96.69900713728359
 20
-122.2559312302867
 10
96.67489146888684
 20
-122.2283704664047
 10
96.64319659042253
 20
-122.1923692185839
 10
96.64319659042253
 20
-122.1923692185839
 10
96.7971923586132
 20
-122.1098591817121
 10
96.7971923586132
 20
-122.1098591817121
 10
96.83233233256276
 20
-122.145860429533
 10
96.87126191154607
 20
-122.1882351040016
 10
96.93602970666878
 20
-122.298133649981
 10
96.93602970666878
 20
-122.298133649981
 10
96.83612193759653
 20
-122.353255177745
 10
96.83612193759653
 20
-122.353255177745
 10
96.83612193759653
 20
-122.353255177745
 10
96.84507918585818
 20
-122.353255177745
 10
96.84507918585818
 20
-122.353255177745
 10
96.84507918585818
 20
-122.353255177745
 10
97.30258786629936
 20
-122.353255177745
 10
97.30258786629936
 20
-122.353255177745
 10
97.30258786629936
 20
-122.353255177745
 10
97.21921655555632
 20
-122.3088134459853
 10
97.21921655555632
 20
-122.3088134459853
 10
97.24333222395306
 20
-122.2707451408733
 10
97.29328610848918
 20
-122.1903021612927
 10
97.30637747133314
 20
-122.1162326083598
 10
97.30637747133314
 20
-122.1162326083598
 10
97.4934461561822
 20
-122.1797946200627
 10
97.4934461561822
 20
-122.1797946200627
 10
97.50068085670122
 20
-122.1818616773539
 10
97.51928437232158
 20
-122.1923692185839
 10
97.51928437232158
 20
-122.2135565558181
 10
97.51928437232158
 20
-122.2516248609301
 10
97.4617512777179
 20
-122.2516248609301
 10
97.4452148193887
 20
-122.2516248609301
 10
97.43591306157853
 20
-122.2707451408733
 10
97.41558699821555
 20
-122.3108805032765
 10
97.38974878207618
 20
-122.3511881204539
 10
97.73942597382904
 20
-122.3448146938062
 10
97.76560869951693
 20
-122.3425753817407
 10
97.83209904238225
 20
-122.3363742098673
 10
97.83209904238225
 20
-122.3363742098673
 10
97.83209904238225
 20
-122.5182752514885
 10
97.83209904238225
 20
-122.5182752514885
 10
97.81556258405305
 20
-122.5182752514885
 10
97.79316946339894
 20
-122.5160359394231
 10
97.60058862577347
 20
-122.5075954554842
 10
97.55614689401375
 20
-122.5055283981931
 10
97.36356605638828
 20
-122.5013942836108
 10
97.32463647740495
 20
-122.5013942836108
 10
97.32463647740495
 20
-122.5013942836108
 10
97.13584524481327
 20
-122.5013942836108
 10
97.13584524481327
 20
-122.5013942836108
 10
97.13584524481327
 20
-122.5013942836108
 10
97.13584524481327
 20
-122.6197333135291
 10
97.13584524481327
 20
-122.6197333135291
 10
97.13584524481327
 20
-122.6197333135291
 10
97.28777395571278
 20
-122.6197333135291
 10
97.28777395571278
 20
-122.6197333135291
 10
97.43040090880213
 20
-122.6197333135291
 10
97.59714353028822
 20
-122.6197333135291
 10
97.73391382105264
 20
-122.6092257722991
 10
97.73391382105264
 20
-122.6092257722991
 10
97.73391382105264
 20
-122.7806192726903
 10
97.73391382105264
 20
-122.7806192726903
 10
97.55063474123735
 20
-122.7721787887514
 10
97.37837996697485
 20
-122.769939476686
 10
97.28777395571278
 20
-122.769939476686
 10
97.28777395571278
 20
-122.769939476686
 10
97.13584524481327
 20
-122.769939476686
 10
97.13584524481327
 20
-122.769939476686
 10
97.13584524481327
 20
-122.769939476686
 10
97.13584524481327
 20
-122.8779432201486
 10
97.13584524481327
 20
-122.8779432201486
 10
97.13584524481327
 20
-122.8779432201486
 10
97.3377278402489
 20
-122.8779432201486
 10
97.3377278402489
 20
-122.8779432201486
 10
97.45451657719887
 20
-122.8779432201486
 10
97.70635305717065
 20
-122.873636850792
 10
97.88963213698592
 20
-122.8672634241443
 10
97.88963213698592
 20
-122.8672634241443
 10
97.88963213698592
 20
-123.0450303511832
 10
97.88963213698592
 20
-123.0450303511832
 10
97.72116696775721
 20
-123.0386569245355
 10
97.44693736713133
 20
-123.0343505551789
 10
97.3377278402489
 20
-123.0343505551789
 97
        0
 97
        0
 92
        1
 93
        4
 72
     1
 10
97.48207734108087
 20
-123.290321149733
 11
96.86368270147852
 21
-123.290321149733
 72
     1
 10
96.86368270147852
 20
-123.290321149733
 11
96.86368270147852
 21
-123.3983248931956
 72
     1
 10
96.86368270147852
 20
-123.3983248931956
 11
97.48207734108087
 21
-123.3983248931956
 72
     1
 10
97.48207734108087
 20
-123.3983248931956
 11
97.48207734108087
 21
-123.290321149733
 97
        0
 92
        1
 93
        4
 72
     1
 10
97.48207734108087
 20
-123.5230373497616
 11
96.86368270147852
 21
-123.5230373497616
 72
     1
 10
96.86368270147852
 20
-123.5230373497616
 11
96.86368270147852
 21
-123.6374145198719
 72
     1
 10
96.86368270147852
 20
-123.6374145198719
 11
97.48207734108087
 21
-123.6374145198719
 72
     1
 10
97.48207734108087
 20
-123.6374145198719
 11
97.48207734108087
 21
-123.5230373497616
 97
        0
 92
        1
 93
        4
 72
     1
 10
97.48207734108087
 20
-123.7664333457945
 11
96.86368270147852
 21
-123.7664333457945
 72
     1
 10
96.86368270147852
 20
-123.7664333457945
 11
96.86368270147852
 21
-123.8806382611305
 72
     1
 10
96.86368270147852
 20
-123.8806382611305
 11
97.48207734108087
 21
-123.8806382611305
 72
     1
 10
97.48207734108087
 20
-123.8806382611305
 11
97.48207734108087
 21
-123.7664333457945
 97
        0
 75
     2
 76
     1
 98
        0
  0
SPLINE
  5
9F
330
80
100
AcDbEntity
  8
_U+30EC_U+30A4_U+30E4_U+30FC 1
370
     0
100
AcDbSpline
210
0.0
220
0.0
230
1.0
 70
    11
 71
     3
 72
    47
 73
    43
 74
     0
 42
0.0000000001
 43
0.0000000001
 12
1.0
 22
0.0
 32
0.0
 13
1.0
 23
0.0
 33
0.0
 40
0.0
 40
0.0
 40
0.0
 40
0.0
 40
1.0
 40
1.0
 40
1.0
 40
2.0
 40
2.0
 40
2.0
 40
3.0
 40
3.0
 40
3.0
 40
4.0
 40
4.0
 40
4.0
 40
5.0
 40
5.0
 40
5.0
 40
6.0
 40
6.0
 40
6.0
 40
7.0
 40
7.0
 40
7.0
 40
8.0
 40
8.0
 40
8.0
 40
9.0
 40
9.0
 40
9.0
 40
10.0
 40
10.0
 40
10.0
 40
11.0
 40
11.0
 40
11.0
 40
12.0
 40
12.0
 40
12.0
 40
13.0
 40
13.0
 40
13.0
 40
14.0
 40
14.0
 40
14.0
 40
14.0
 10
99.069577340684
 20
-123.0110961606535
 30
0.0
 10
99.069577340684
 20
-123.0110961606535
 30
0.0
 10
98.98069387716455
 20
-123.0110961606535
 30
0.0
 10
98.98069387716455
 20
-123.0110961606535
 30
0.0
 10
98.98069387716455
 20
-123.0979125668818
 30
0.0
 10
98.9620903615442
 20
-123.487208356715
 30
0.0
 10
98.78983558728171
 20
-123.7071777034482
 30
0.0
 10
98.65651039200255
 20
-123.876331891774
 30
0.0
 10
98.47495385992988
 20
-123.9462673301246
 30
0.0
 10
98.400884306997
 20
-123.9736558392323
 30
0.0
 10
98.400884306997
 20
-123.9736558392323
 30
0.0
 10
98.23069659002566
 20
-123.8065687081977
 30
0.0
 10
98.23069659002566
 20
-123.8065687081977
 30
0.0
 10
98.31579044851134
 20
-123.7938218549022
 30
0.0
 10
98.46944170715348
 20
-123.7705674603768
 30
0.0
 10
98.63446178089694
 20
-123.5822929921079
 30
0.0
 10
98.69922957601965
 20
-123.5104627512404
 30
0.0
 10
98.78983558728171
 20
-123.3707641293136
 30
0.0
 10
98.78983558728171
 20
-123.0110961606535
 30
0.0
 10
98.78983558728171
 20
-123.0110961606535
 30
0.0
 10
98.58795299184607
 20
-123.0110961606535
 30
0.0
 10
98.58795299184607
 20
-123.0110961606535
 30
0.0
 10
98.42499997539376
 20
-123.0110961606535
 30
0.0
 10
98.26204695894144
 20
-123.01540253001
 30
0.0
 10
98.09909394248912
 20
-123.0302164405966
 30
0.0
 10
98.09909394248912
 20
-123.0302164405966
 30
0.0
 10
98.09909394248912
 20
-122.8102470938634
 30
0.0
 10
98.09909394248912
 20
-122.8102470938634
 30
0.0
 10
98.26376950668406
 20
-122.82506100445
 30
0.0
 10
98.5138834389132
 20
-122.8291951190323
 30
0.0
 10
98.58795299184607
 20
-122.8291951190323
 30
0.0
 10
98.58795299184607
 20
-122.8291951190323
 30
0.0
 10
99.069577340684
 20
-122.8291951190323
 30
0.0
 10
99.069577340684
 20
-122.8291951190323
 30
0.0
 10
99.0861137990132
 20
-122.8291951190323
 30
0.0
 10
99.36378849512434
 20
-122.8291951190323
 30
0.0
 10
99.56394854281736
 20
-122.8102470938634
 30
0.0
 10
99.56394854281736
 20
-122.8102470938634
 30
0.0
 10
99.56394854281736
 20
-123.0302164405966
 30
0.0
 10
99.56394854281736
 20
-123.0302164405966
 30
0.0
 10
99.39892846907388
 20
-123.01540253001
 30
0.0
 10
99.23425290487894
 20
-123.0110961606535
 30
0.0
 10
99.069577340684
 20
-123.0110961606535
 30
0.0
  0
SPLINE
  5
A0
330
80
100
AcDbEntity
  8
_U+30EC_U+30A4_U+30E4_U+30FC 1
370
     0
100
AcDbSpline
210
0.0
220
0.0
230
1.0
 70
    11
 71
     3
 72
    29
 73
    25
 74
     0
 42
0.0000000001
 43
0.0000000001
 12
1.0
 22
0.0
 32
0.0
 13
1.0
 23
0.0
 33
0.0
 40
0.0
 40
0.0
 40
0.0
 40
0.0
 40
1.0
 40
1.0
 40
1.0
 40
2.0
 40
2.0
 40
2.0
 40
3.0
 40
3.0
 40
3.0
 40
4.0
 40
4.0
 40
4.0
 40
5.0
 40
5.0
 40
5.0
 40
6.0
 40
6.0
 40
6.0
 40
7.0
 40
7.0
 40
7.0
 40
8.0
 40
8.0
 40
8.0
 40
8.0
 10
98.98069387716455
 20
-122.4822740036676
 30
0.0
 10
98.98069387716455
 20
-122.4822740036676
 30
0.0
 10
98.67132430258911
 20
-122.4822740036676
 30
0.0
 10
98.67132430258911
 20
-122.4822740036676
 30
0.0
 10
98.5731390812595
 20
-122.4822740036676
 30
0.0
 10
98.45083819153312
 20
-122.4886474303153
 30
0.0
 10
98.35644257523728
 20
-122.5013942836108
 30
0.0
 10
98.35644257523728
 20
-122.5013942836108
 30
0.0
 10
98.35644257523728
 20
-122.2664387715167
 30
0.0
 10
98.35644257523728
 20
-122.2664387715167
 30
0.0
 10
98.4601399493433
 20
-122.2812526821033
 30
0.0
 10
98.62137041805299
 20
-122.2855590514599
 30
0.0
 10
98.67132430258911
 20
-122.2855590514599
 30
0.0
 10
98.67132430258911
 20
-122.2855590514599
 30
0.0
 10
98.98069387716455
 20
-122.2855590514599
 30
0.0
 10
98.98069387716455
 20
-122.2855590514599
 30
0.0
 10
98.99723033549375
 20
-122.2855590514599
 30
0.0
 10
99.17499726253264
 20
-122.2855590514599
 30
0.0
 10
99.29902070000163
 20
-122.2664387715167
 30
0.0
 10
99.29902070000163
 20
-122.2664387715167
 30
0.0
 10
99.29902070000163
 20
-122.5013942836108
 30
0.0
 10
99.29902070000163
 20
-122.5013942836108
 30
0.0
 10
99.16190589968869
 20
-122.4822740036676
 30
0.0
 10
98.99550778775112
 20
-122.4822740036676
 30
0.0
 10
98.98069387716455
 20
-122.4822740036676
 30
0.0
  0
HATCH
  5
A1
330
80
100
AcDbEntity
  8
_U+30EC_U+30A4_U+30E4_U+30FC 1
 62
   179
420
  2234388
100
AcDbHatch
 10
0.0
 20
0.0
 30
0.0
210
0.0
220
0.0
230
1.0
  2
SOLID
 70
     1
 71
     0
 91
        2
 92
        1
 93
        1
 72
     4
 94
        3
 73
     0
 74
     1
 95
       47
 96
       43
 40
0.0
 40
0.0
 40
0.0
 40
0.0
 40
1.0
 40
1.0
 40
1.0
 40
2.0
 40
2.0
 40
2.0
 40
3.0
 40
3.0
 40
3.0
 40
4.0
 40
4.0
 40
4.0
 40
5.0
 40
5.0
 40
5.0
 40
6.0
 40
6.0
 40
6.0
 40
7.0
 40
7.0
 40
7.0
 40
8.0
 40
8.0
 40
8.0
 40
9.0
 40
9.0
 40
9.0
 40
10.0
 40
10.0
 40
10.0
 40
11.0
 40
11.0
 40
11.0
 40
12.0
 40
12.0
 40
12.0
 40
13.0
 40
13.0
 40
13.0
 40
14.0
 40
14.0
 40
14.0
 40
14.0
 10
99.069577340684
 20
-123.0110961606535
 10
99.069577340684
 20
-123.0110961606535
 10
98.98069387716455
 20
-123.0110961606535
 10
98.98069387716455
 20
-123.0110961606535
 10
98.98069387716455
 20
-123.0979125668818
 10
98.9620903615442
 20
-123.487208356715
 10
98.78983558728171
 20
-123.7071777034482
 10
98.65651039200255
 20
-123.876331891774
 10
98.47495385992988
 20
-123.9462673301246
 10
98.400884306997
 20
-123.9736558392323
 10
98.400884306997
 20
-123.9736558392323
 10
98.23069659002566
 20
-123.8065687081977
 10
98.23069659002566
 20
-123.8065687081977
 10
98.31579044851134
 20
-123.7938218549022
 10
98.46944170715348
 20
-123.7705674603768
 10
98.63446178089694
 20
-123.5822929921079
 10
98.69922957601965
 20
-123.5104627512404
 10
98.78983558728171
 20
-123.3707641293136
 10
98.78983558728171
 20
-123.0110961606535
 10
98.78983558728171
 20
-123.0110961606535
 10
98.58795299184607
 20
-123.0110961606535
 10
98.58795299184607
 20
-123.0110961606535
 10
98.42499997539376
 20
-123.0110961606535
 10
98.26204695894144
 20
-123.01540253001
 10
98.09909394248912
 20
-123.0302164405966
 10
98.09909394248912
 20
-123.0302164405966
 10
98.09909394248912
 20
-122.8102470938634
 10
98.09909394248912
 20
-122.8102470938634
 10
98.26376950668406
 20
-122.82506100445
 10
98.5138834389132
 20
-122.8291951190323
 10
98.58795299184607
 20
-122.8291951190323
 10
98.58795299184607
 20
-122.8291951190323
 10
99.069577340684
 20
-122.8291951190323
 10
99.069577340684
 20
-122.8291951190323
 10
99.0861137990132
 20
-122.8291951190323
 10
99.36378849512434
 20
-122.8291951190323
 10
99.56394854281736
 20
-122.8102470938634
 10
99.56394854281736
 20
-122.8102470938634
 10
99.56394854281736
 20
-123.0302164405966
 10
99.56394854281736
 20
-123.0302164405966
 10
99.39892846907388
 20
-123.01540253001
 10
99.23425290487894
 20
-123.0110961606535
 10
99.069577340684
 20
-123.0110961606535
 97
        0
 97
        0
 92
        1
 93
        1
 72
     4
 94
        3
 73
     0
 74
     1
 95
       29
 96
       25
 40
0.0
 40
0.0
 40
0.0
 40
0.0
 40
1.0
 40
1.0
 40
1.0
 40
2.0
 40
2.0
 40
2.0
 40
3.0
 40
3.0
 40
3.0
 40
4.0
 40
4.0
 40
4.0
 40
5.0
 40
5.0
 40
5.0
 40
6.0
 40
6.0
 40
6.0
 40
7.0
 40
7.0
 40
7.0
 40
8.0
 40
8.0
 40
8.0
 40
8.0
 10
98.98069387716455
 20
-122.4822740036676
 10
98.98069387716455
 20
-122.4822740036676
 10
98.67132430258911
 20
-122.4822740036676
 10
98.67132430258911
 20
-122.4822740036676
 10
98.5731390812595
 20
-122.4822740036676
 10
98.45083819153312
 20
-122.4886474303153
 10
98.35644257523728
 20
-122.5013942836108
 10
98.35644257523728
 20
-122.5013942836108
 10
98.35644257523728
 20
-122.2664387715167
 10
98.35644257523728
 20
-122.2664387715167
 10
98.4601399493433
 20
-122.2812526821033
 10
98.62137041805299
 20
-122.2855590514599
 10
98.67132430258911
 20
-122.2855590514599
 10
98.67132430258911
 20
-122.2855590514599
 10
98.98069387716455
 20
-122.2855590514599
 10
98.98069387716455
 20
-122.2855590514599
 10
98.99723033549375
 20
-122.2855590514599
 10
99.17499726253264
 20
-122.2855590514599
 10
99.29902070000163
 20
-122.2664387715167
 10
99.29902070000163
 20
-122.2664387715167
 10
99.29902070000163
 20
-122.5013942836108
 10
99.29902070000163
 20
-122.5013942836108
 10
99.16190589968869
 20
-122.4822740036676
 10
98.99550778775112
 20
-122.4822740036676
 10
98.98069387716455
 20
-122.4822740036676
 97
        0
 97
        0
 75
     2
 76
     1
 98
        0
  0
SPLINE
  5
A2
330
80
100
AcDbEntity
  8
_U+30EC_U+30A4_U+30E4_U+30FC 1
370
     0
100
AcDbSpline
210
0.0
220
0.0
230
1.0
 70
    11
 71
     3
 72
    29
 73
    25
 74
     0
 42
0.0000000001
 43
0.0000000001
 12
1.0
 22
0.0
 32
0.0
 13
1.0
 23
0.0
 33
0.0
 40
0.0
 40
0.0
 40
0.0
 40
0.0
 40
1.0
 40
1.0
 40
1.0
 40
2.0
 40
2.0
 40
2.0
 40
3.0
 40
3.0
 40
3.0
 40
4.0
 40
4.0
 40
4.0
 40
5.0
 40
5.0
 40
5.0
 40
6.0
 40
6.0
 40
6.0
 40
7.0
 40
7.0
 40
7.0
 40
8.0
 40
8.0
 40
8.0
 40
8.0
 10
100.6863606519117
 20
-123.1740491771058
 30
0.0
 10
100.6863606519117
 20
-123.1740491771058
 30
0.0
 10
100.2622693976775
 20
-123.1740491771058
 30
0.0
 10
100.2622693976775
 20
-123.1740491771058
 30
0.0
 10
100.2381537292807
 20
-123.1740491771058
 30
0.0
 10
99.96013452362108
 20
-123.1740491771058
 30
0.0
 10
99.77513289606317
 20
-123.1993706289224
 30
0.0
 10
99.77513289606317
 20
-123.1993706289224
 30
0.0
 10
99.77513289606317
 20
-122.9688937409592
 30
0.0
 10
99.77513289606317
 20
-122.9688937409592
 30
0.0
 10
99.91397024411873
 20
-122.9921481354846
 30
0.0
 10
100.0807128656048
 20
-122.9942151927758
 30
0.0
 10
100.2622693976775
 20
-122.9942151927758
 30
0.0
 10
100.2622693976775
 20
-122.9942151927758
 30
0.0
 10
100.6863606519117
 20
-122.9942151927758
 30
0.0
 10
100.6863606519117
 20
-122.9942151927758
 30
0.0
 10
100.8489691588155
 20
-122.9942151927758
 30
0.0
 10
101.0122666848164
 20
-122.9921481354846
 30
0.0
 10
101.1731526439775
 20
-122.9688937409592
 30
0.0
 10
101.1731526439775
 20
-122.9688937409592
 30
0.0
 10
101.1731526439775
 20
-123.1993706289224
 30
0.0
 10
101.1731526439775
 20
-123.1993706289224
 30
0.0
 10
101.0122666848164
 20
-123.1761162343969
 30
0.0
 10
100.7955701787942
 20
-123.1740491771058
 30
0.0
 10
100.6863606519117
 20
-123.1740491771058
 30
0.0
  0
HATCH
  5
A3
330
80
100
AcDbEntity
  8
_U+30EC_U+30A4_U+30E4_U+30FC 1
 62
   179
420
  2234388
100
AcDbHatch
 10
0.0
 20
0.0
 30
0.0
210
0.0
220
0.0
230
1.0
  2
SOLID
 70
     1
 71
     0
 91
        1
 92
        1
 93
        1
 72
     4
 94
        3
 73
     0
 74
     1
 95
       29
 96
       25
 40
0.0
 40
0.0
 40
0.0
 40
0.0
 40
1.0
 40
1.0
 40
1.0
 40
2.0
 40
2.0
 40
2.0
 40
3.0
 40
3.0
 40
3.0
 40
4.0
 40
4.0
 40
4.0
 40
5.0
 40
5.0
 40
5.0
 40
6.0
 40
6.0
 40
6.0
 40
7.0
 40
7.0
 40
7.0
 40
8.0
 40
8.0
 40
8.0
 40
8.0
 10
100.6863606519117
 20
-123.1740491771058
 10
100.6863606519117
 20
-123.1740491771058
 10
100.2622693976775
 20
-123.1740491771058
 10
100.2622693976775
 20
-123.1740491771058
 10
100.2381537292807
 20
-123.1740491771058
 10
99.96013452362108
 20
-123.1740491771058
 10
99.77513289606317
 20
-123.1993706289224
 10
99.77513289606317
 20
-123.1993706289224
 10
99.77513289606317
 20
-122.9688937409592
 10
99.77513289606317
 20
-122.9688937409592
 10
99.91397024411873
 20
-122.9921481354846
 10
100.0807128656048
 20
-122.9942151927758
 10
100.2622693976775
 20
-122.9942151927758
 10
100.2622693976775
 20
-122.9942151927758
 10
100.6863606519117
 20
-122.9942151927758
 10
100.6863606519117
 20
-122.9942151927758
 10
100.8489691588155
 20
-122.9942151927758
 10
101.0122666848164
 20
-122.9921481354846
 10
101.1731526439775
 20
-122.9688937409592
 10
101.1731526439775
 20
-122.9688937409592
 10
101.1731526439775
 20
-123.1993706289224
 10
101.1731526439775
 20
-123.1993706289224
 10
101.0122666848164
 20
-123.1761162343969
 10
100.7955701787942
 20
-123.1740491771058
 10
100.6863606519117
 20
-123.1740491771058
 97
        0
 97
        0
 75
     2
 76
     1
 98
        0
  0
SPLINE
  5
A4
330
80
100
AcDbEntity
  8
_U+30EC_U+30A4_U+30E4_U+30FC 1
370
     0
100
AcDbSpline
210
0.0
220
0.0
230
1.0
 70
    11
 71
     3
 72
    44
 73
    40
 74
     0
 42
0.0000000001
 43
0.0000000001
 12
1.0
 22
0.0
 32
0.0
 13
1.0
 23
0.0
 33
0.0
 40
0.0
 40
0.0
 40
0.0
 40
0.0
 40
1.0
 40
1.0
 40
1.0
 40
2.0
 40
2.0
 40
2.0
 40
3.0
 40
3.0
 40
3.0
 40
4.0
 40
4.0
 40
4.0
 40
5.0
 40
5.0
 40
5.0
 40
6.0
 40
6.0
 40
6.0
 40
7.0
 40
7.0
 40
7.0
 40
8.0
 40
8.0
 40
8.0
 40
9.0
 40
9.0
 40
9.0
 40
10.0
 40
10.0
 40
10.0
 40
11.0
 40
11.0
 40
11.0
 40
12.0
 40
12.0
 40
12.0
 40
13.0
 40
13.0
 40
13.0
 40
13.0
 10
102.6231933337192
 20
-122.7361775409305
 30
0.0
 10
102.5250081123896
 20
-123.1042859935295
 30
0.0
 10
102.4805663806299
 20
-123.2629326406253
 30
0.0
 10
102.3083116063674
 20
-123.5125298085316
 30
0.0
 10
102.1474256472062
 20
-123.7431789512691
 30
0.0
 10
101.9400308989942
 20
-123.9292141074726
 30
0.0
 10
101.6954291195414
 20
-124.0224039403486
 30
0.0
 10
101.6954291195414
 20
-124.0224039403486
 30
0.0
 10
101.5269639503127
 20
-123.8425699560185
 30
0.0
 10
101.5269639503127
 20
-123.8425699560185
 30
0.0
 10
102.0881700048599
 20
-123.6902967355705
 30
0.0
 10
102.3768690065238
 20
-123.1339138147026
 30
0.0
 10
102.4323350438364
 20
-122.693802866462
 30
0.0
 10
102.4323350438364
 20
-122.693802866462
 30
0.0
 10
101.7622639719553
 20
-122.693802866462
 30
0.0
 10
101.7622639719553
 20
-122.693802866462
 30
0.0
 10
101.6806152089548
 20
-122.693802866462
 30
0.0
 10
101.5197292497937
 20
-122.6981092358185
 30
0.0
 10
101.3826144494807
 20
-122.7170572609874
 30
0.0
 10
101.3826144494807
 20
-122.7170572609874
 30
0.0
 10
101.3826144494807
 20
-122.4970879142542
 30
0.0
 10
101.3826144494807
 20
-122.4970879142542
 30
0.0
 10
101.4584065501562
 20
-122.5182752514885
 30
0.0
 10
101.6788926612122
 20
-122.5182752514885
 30
0.0
 10
101.7660535769891
 20
-122.5182752514885
 30
0.0
 10
101.7660535769891
 20
-122.5182752514885
 30
0.0
 10
102.1436360421724
 20
-122.5182752514885
 30
0.0
 10
102.1436360421724
 20
-122.5182752514885
 30
0.0
 10
102.1808430734131
 20
-122.5182752514885
 30
0.0
 10
102.386170764334
 20
-122.5160359394231
 30
0.0
 10
102.4195881905409
 20
-122.5098347675496
 30
0.0
 10
102.4564507122331
 20
-122.5034613409019
 30
0.0
 10
102.4585177695243
 20
-122.5013942836108
 30
0.0
 10
102.5122612590942
 20
-122.4610866664333
 30
0.0
 10
102.5122612590942
 20
-122.4610866664333
 30
0.0
 10
102.6769368232891
 20
-122.6155991989468
 30
0.0
 10
102.6769368232891
 20
-122.6155991989468
 30
0.0
 10
102.6510986071497
 20
-122.6452270201199
 30
0.0
 10
102.6380072443058
 20
-122.6769218985843
 30
0.0
 10
102.6231933337192
 20
-122.7361775409305
 30
0.0
  0
SPLINE
  5
A5
330
80
100
AcDbEntity
  8
_U+30EC_U+30A4_U+30E4_U+30FC 1
370
     0
100
AcDbSpline
210
0.0
220
0.0
230
1.0
 70
    11
 71
     3
 72
    17
 73
    13
 74
     0
 42
0.0000000001
 43
0.0000000001
 12
1.0
 22
0.0
 32
0.0
 13
1.0
 23
0.0
 33
0.0
 40
0.0
 40
0.0
 40
0.0
 40
0.0
 40
1.0
 40
1.0
 40
1.0
 40
2.0
 40
2.0
 40
2.0
 40
3.0
 40
3.0
 40
3.0
 40
4.0
 40
4.0
 40
4.0
 40
4.0
 10
102.8064724135345
 20
-122.5372232766574
 30
0.0
 10
102.6955403389095
 20
-122.5372232766574
 30
0.0
 10
102.60665687539
 20
-122.4357652146168
 30
0.0
 10
102.60665687539
 20
-122.3088134459853
 30
0.0
 10
102.60665687539
 20
-122.1818616773539
 30
0.0
 10
102.6955403389095
 20
-122.0781643032478
 30
0.0
 10
102.8064724135345
 20
-122.0781643032478
 30
0.0
 10
102.9177489977081
 20
-122.0781643032478
 30
0.0
 10
103.0083550089701
 20
-122.1818616773539
 30
0.0
 10
103.0083550089701
 20
-122.3088134459853
 30
0.0
 10
103.0083550089701
 20
-122.4357652146168
 30
0.0
 10
102.9177489977081
 20
-122.5372232766574
 30
0.0
 10
102.8064724135345
 20
-122.5372232766574
 30
0.0
  0
SPLINE
  5
A6
330
80
100
AcDbEntity
  8
_U+30EC_U+30A4_U+30E4_U+30FC 1
370
     0
100
AcDbSpline
210
0.0
220
0.0
230
1.0
 70
    11
 71
     3
 72
    17
 73
    13
 74
     0
 42
0.0000000001
 43
0.0000000001
 12
1.0
 22
0.0
 32
0.0
 13
1.0
 23
0.0
 33
0.0
 40
0.0
 40
0.0
 40
0.0
 40
0.0
 40
1.0
 40
1.0
 40
1.0
 40
2.0
 40
2.0
 40
2.0
 40
3.0
 40
3.0
 40
3.0
 40
4.0
 40
4.0
 40
4.0
 40
4.0
 10
102.8047498657919
 20
-122.2071831291704
 30
0.0
 10
102.7565185289984
 20
-122.2071831291704
 30
0.0
 10
102.7175889500151
 20
-122.2516248609301
 30
0.0
 10
102.7175889500151
 20
-122.3067463886942
 30
0.0
 10
102.7175889500151
 20
-122.363762718975
 30
0.0
 10
102.7565185289984
 20
-122.4125108200913
 30
0.0
 10
102.8085394708257
 20
-122.4125108200913
 30
0.0
 10
102.8602159031044
 20
-122.4125108200913
 30
0.0
 10
102.8953558770539
 20
-122.3616956616839
 30
0.0
 10
102.8953558770539
 20
-122.3088134459853
 30
0.0
 10
102.8953558770539
 20
-122.2516248609301
 30
0.0
 10
102.854703750328
 20
-122.2071831291704
 30
0.0
 10
102.8047498657919
 20
-122.2071831291704
 30
0.0
  0
HATCH
  5
A7
330
80
100
AcDbEntity
  8
_U+30EC_U+30A4_U+30E4_U+30FC 1
 62
   179
420
  2234388
100
AcDbHatch
 10
0.0
 20
0.0
 30
0.0
210
0.0
220
0.0
230
1.0
  2
SOLID
 70
     1
 71
     0
 91
        3
 92
        1
 93
        1
 72
     4
 94
        3
 73
     0
 74
     1
 95
       44
 96
       40
 40
0.0
 40
0.0
 40
0.0
 40
0.0
 40
1.0
 40
1.0
 40
1.0
 40
2.0
 40
2.0
 40
2.0
 40
3.0
 40
3.0
 40
3.0
 40
4.0
 40
4.0
 40
4.0
 40
5.0
 40
5.0
 40
5.0
 40
6.0
 40
6.0
 40
6.0
 40
7.0
 40
7.0
 40
7.0
 40
8.0
 40
8.0
 40
8.0
 40
9.0
 40
9.0
 40
9.0
 40
10.0
 40
10.0
 40
10.0
 40
11.0
 40
11.0
 40
11.0
 40
12.0
 40
12.0
 40
12.0
 40
13.0
 40
13.0
 40
13.0
 40
13.0
 10
102.6231933337192
 20
-122.7361775409305
 10
102.5250081123896
 20
-123.1042859935295
 10
102.4805663806299
 20
-123.2629326406253
 10
102.3083116063674
 20
-123.5125298085316
 10
102.1474256472062
 20
-123.7431789512691
 10
101.9400308989942
 20
-123.9292141074726
 10
101.6954291195414
 20
-124.0224039403486
 10
101.6954291195414
 20
-124.0224039403486
 10
101.5269639503127
 20
-123.8425699560185
 10
101.5269639503127
 20
-123.8425699560185
 10
102.0881700048599
 20
-123.6902967355705
 10
102.3768690065238
 20
-123.1339138147026
 10
102.4323350438364
 20
-122.693802866462
 10
102.4323350438364
 20
-122.693802866462
 10
101.7622639719553
 20
-122.693802866462
 10
101.7622639719553
 20
-122.693802866462
 10
101.6806152089548
 20
-122.693802866462
 10
101.5197292497937
 20
-122.6981092358185
 10
101.3826144494807
 20
-122.7170572609874
 10
101.3826144494807
 20
-122.7170572609874
 10
101.3826144494807
 20
-122.4970879142542
 10
101.3826144494807
 20
-122.4970879142542
 10
101.4584065501562
 20
-122.5182752514885
 10
101.6788926612122
 20
-122.5182752514885
 10
101.7660535769891
 20
-122.5182752514885
 10
101.7660535769891
 20
-122.5182752514885
 10
102.1436360421724
 20
-122.5182752514885
 10
102.1436360421724
 20
-122.5182752514885
 10
102.1808430734131
 20
-122.5182752514885
 10
102.386170764334
 20
-122.5160359394231
 10
102.4195881905409
 20
-122.5098347675496
 10
102.4564507122331
 20
-122.5034613409019
 10
102.4585177695243
 20
-122.5013942836108
 10
102.5122612590942
 20
-122.4610866664333
 10
102.5122612590942
 20
-122.4610866664333
 10
102.6769368232891
 20
-122.6155991989468
 10
102.6769368232891
 20
-122.6155991989468
 10
102.6510986071497
 20
-122.6452270201199
 10
102.6380072443058
 20
-122.6769218985843
 10
102.6231933337192
 20
-122.7361775409305
 97
        0
 97
        0
 92
        1
 93
        1
 72
     4
 94
        3
 73
     0
 74
     1
 95
       17
 96
       13
 40
0.0
 40
0.0
 40
0.0
 40
0.0
 40
1.0
 40
1.0
 40
1.0
 40
2.0
 40
2.0
 40
2.0
 40
3.0
 40
3.0
 40
3.0
 40
4.0
 40
4.0
 40
4.0
 40
4.0
 10
102.8064724135345
 20
-122.5372232766574
 10
102.6955403389095
 20
-122.5372232766574
 10
102.60665687539
 20
-122.4357652146168
 10
102.60665687539
 20
-122.3088134459853
 10
102.60665687539
 20
-122.1818616773539
 10
102.6955403389095
 20
-122.0781643032478
 10
102.8064724135345
 20
-122.0781643032478
 10
102.9177489977081
 20
-122.0781643032478
 10
103.0083550089701
 20
-122.1818616773539
 10
103.0083550089701
 20
-122.3088134459853
 10
103.0083550089701
 20
-122.4357652146168
 10
102.9177489977081
 20
-122.5372232766574
 10
102.8064724135345
 20
-122.5372232766574
 97
        0
 97
        0
 92
        1
 93
        1
 72
     4
 94
        3
 73
     0
 74
     1
 95
       17
 96
       13
 40
0.0
 40
0.0
 40
0.0
 40
0.0
 40
1.0
 40
1.0
 40
1.0
 40
2.0
 40
2.0
 40
2.0
 40
3.0
 40
3.0
 40
3.0
 40
4.0
 40
4.0
 40
4.0
 40
4.0
 10
102.8047498657919
 20
-122.2071831291704
 10
102.7565185289984
 20
-122.2071831291704
 10
102.7175889500151
 20
-122.2516248609301
 10
102.7175889500151
 20
-122.3067463886942
 10
102.7175889500151
 20
-122.363762718975
 10
102.7565185289984
 20
-122.4125108200913
 10
102.8085394708257
 20
-122.4125108200913
 10
102.8602159031044
 20
-122.4125108200913
 10
102.8953558770539
 20
-122.3616956616839
 10
102.8953558770539
 20
-122.3088134459853
 10
102.8953558770539
 20
-122.2516248609301
 10
102.854703750328
 20
-122.2071831291704
 10
102.8047498657919
 20
-122.2071831291704
 97
        0
 97
        0
 75
     2
 76
     1
 98
        0
  0
ENDBLK
  5
83
330
80
100
AcDbEntity
  8
0
100
AcDbBlockEnd
  0
BLOCK
  5
B6
330
B4
100
AcDbEntity
  8
0
100
AcDbBlockBegin
  2
block 3
 70
     0
 10
0.0
 20
0.0
 30
0.0
  3
block 3
  1

  0
SPLINE
  5
B8
330
B4
100
AcDbEntity
  8
_U+30EC_U+30A4_U+30E4_U+30FC 1
370
     0
100
AcDbSpline
210
0.0
220
0.0
230
1.0
 70
    11
 71
     3
 72
    44
 73
    40
 74
     0
 42
0.0000000001
 43
0.0000000001
 12
1.0
 22
0.0
 32
0.0
 13
1.0
 23
0.0
 33
0.0
 40
0.0
 40
0.0
 40
0.0
 40
0.0
 40
1.0
 40
1.0
 40
1.0
 40
2.0
 40
2.0
 40
2.0
 40
3.0
 40
3.0
 40
3.0
 40
4.0
 40
4.0
 40
4.0
 40
5.0
 40
5.0
 40
5.0
 40
6.0
 40
6.0
 40
6.0
 40
7.0
 40
7.0
 40
7.0
 40
8.0
 40
8.0
 40
8.0
 40
9.0
 40
9.0
 40
9.0
 40
10.0
 40
10.0
 40
10.0
 40
11.0
 40
11.0
 40
11.0
 40
12.0
 40
12.0
 40
12.0
 40
13.0
 40
13.0
 40
13.0
 40
13.0
 10
78.76435680539572
 20
-126.5001166133403
 30
0.0
 10
78.92300345249147
 20
-126.6908026484488
 30
0.0
 10
78.99707300542434
 20
-126.772279156675
 30
0.0
 10
79.14090574193352
 20
-126.8148260859178
 30
0.0
 10
79.14090574193352
 20
-126.8148260859178
 30
0.0
 10
79.14090574193352
 20
-126.1333861989354
 30
0.0
 10
79.14090574193352
 20
-126.1333861989354
 30
0.0
 10
79.14090574193352
 20
-126.1333861989354
 30
0.0
 10
79.34606117808015
 20
-126.1333861989354
 30
0.0
 10
79.34606117808015
 20
-126.1333861989354
 30
0.0
 10
79.34606117808015
 20
-126.1333861989354
 30
0.0
 10
79.34606117808015
 20
-127.0334173944569
 30
0.0
 10
79.34606117808015
 20
-127.0334173944569
 30
0.0
 10
78.98846026671121
 20
-127.0055121210264
 30
0.0
 10
78.91025659919605
 20
-126.948151281197
 30
0.0
 10
78.61191133017341
 20
-126.6110486879653
 30
0.0
 10
78.4131293206745
 20
-126.3871174814241
 30
0.0
 10
78.34543319438934
 20
-126.3295843868204
 30
0.0
 10
78.20797388452787
 20
-126.3295843868204
 30
0.0
 10
78.08946259983527
 20
-126.3295843868204
 30
0.0
 10
77.95837671662152
 20
-126.3926296342005
 30
0.0
 10
77.95837671662152
 20
-126.5648844084629
 30
0.0
 10
77.95837671662152
 20
-126.792605220038
 30
0.0
 10
78.18885360458474
 20
-126.8000121753312
 30
0.0
 10
78.30529783198618
 20
-126.8036295255908
 30
0.0
 10
78.30529783198618
 20
-126.8036295255908
 30
0.0
 10
78.30529783198618
 20
-126.99999996825
 30
0.0
 10
78.30529783198618
 20
-126.99999996825
 30
0.0
 10
78.17834606335472
 20
-126.9925930129567
 30
0.0
 10
78.06620820530983
 20
-126.9832912551465
 30
0.0
 10
77.94769692061725
 20
-126.9130113072474
 30
0.0
 10
77.78698321623034
 20
-126.8167208884347
 30
0.0
 10
77.75304902570063
 20
-126.6537678719824
 30
0.0
 10
77.75304902570063
 20
-126.551793045619
 30
0.0
 10
77.75304902570063
 20
-126.3092583234574
 30
0.0
 10
77.93718937938723
 20
-126.127874046159
 30
0.0
 10
78.21004094181902
 20
-126.127874046159
 30
0.0
 10
78.43845077249108
 20
-126.127874046159
 30
0.0
 10
78.5380140320148
 20
-126.2296766177481
 30
0.0
 10
78.76435680539572
 20
-126.5001166133403
 30
0.0
  0
HATCH
  5
B9
330
B4
100
AcDbEntity
  8
_U+30EC_U+30A4_U+30E4_U+30FC 1
 62
   179
420
  2234388
100
AcDbHatch
 10
0.0
 20
0.0
 30
0.0
210
0.0
220
0.0
230
1.0
  2
SOLID
 70
     1
 71
     0
 91
        1
 92
        1
 93
        1
 72
     4
 94
        3
 73
     0
 74
     1
 95
       44
 96
       40
 40
0.0
 40
0.0
 40
0.0
 40
0.0
 40
1.0
 40
1.0
 40
1.0
 40
2.0
 40
2.0
 40
2.0
 40
3.0
 40
3.0
 40
3.0
 40
4.0
 40
4.0
 40
4.0
 40
5.0
 40
5.0
 40
5.0
 40
6.0
 40
6.0
 40
6.0
 40
7.0
 40
7.0
 40
7.0
 40
8.0
 40
8.0
 40
8.0
 40
9.0
 40
9.0
 40
9.0
 40
10.0
 40
10.0
 40
10.0
 40
11.0
 40
11.0
 40
11.0
 40
12.0
 40
12.0
 40
12.0
 40
13.0
 40
13.0
 40
13.0
 40
13.0
 10
78.76435680539572
 20
-126.5001166133403
 10
78.92300345249147
 20
-126.6908026484488
 10
78.99707300542434
 20
-126.772279156675
 10
79.14090574193352
 20
-126.8148260859178
 10
79.14090574193352
 20
-126.8148260859178
 10
79.14090574193352
 20
-126.1333861989354
 10
79.14090574193352
 20
-126.1333861989354
 10
79.14090574193352
 20
-126.1333861989354
 10
79.34606117808015
 20
-126.1333861989354
 10
79.34606117808015
 20
-126.1333861989354
 10
79.34606117808015
 20
-126.1333861989354
 10
79.34606117808015
 20
-127.0334173944569
 10
79.34606117808015
 20
-127.0334173944569
 10
78.98846026671121
 20
-127.0055121210264
 10
78.91025659919605
 20
-126.948151281197
 10
78.61191133017341
 20
-126.6110486879653
 10
78.4131293206745
 20
-126.3871174814241
 10
78.34543319438934
 20
-126.3295843868204
 10
78.20797388452787
 20
-126.3295843868204
 10
78.08946259983527
 20
-126.3295843868204
 10
77.95837671662152
 20
-126.3926296342005
 10
77.95837671662152
 20
-126.5648844084629
 10
77.95837671662152
 20
-126.792605220038
 10
78.18885360458474
 20
-126.8000121753312
 10
78.30529783198618
 20
-126.8036295255908
 10
78.30529783198618
 20
-126.8036295255908
 10
78.30529783198618
 20
-126.99999996825
 10
78.30529783198618
 20
-126.99999996825
 10
78.17834606335472
 20
-126.9925930129567
 10
78.06620820530983
 20
-126.9832912551465
 10
77.94769692061725
 20
-126.9130113072474
 10
77.78698321623034
 20
-126.8167208884347
 10
77.75304902570063
 20
-126.6537678719824
 10
77.75304902570063
 20
-126.551793045619
 10
77.75304902570063
 20
-126.3092583234574
 10
77.93718937938723
 20
-126.127874046159
 10
78.21004094181902
 20
-126.127874046159
 10
78.43845077249108
 20
-126.127874046159
 10
78.5380140320148
 20
-126.2296766177481
 10
78.76435680539572
 20
-126.5001166133403
 97
        0
 97
        0
 75
     2
 76
     1
 98
        0
  0
SPLINE
  5
BA
330
B4
100
AcDbEntity
  8
_U+30EC_U+30A4_U+30E4_U+30FC 1
370
     0
100
AcDbSpline
210
0.0
220
0.0
230
1.0
 70
    11
 71
     3
 72
    26
 73
    22
 74
     0
 42
0.0000000001
 43
0.0000000001
 12
1.0
 22
0.0
 32
0.0
 13
1.0
 23
0.0
 33
0.0
 40
0.0
 40
0.0
 40
0.0
 40
0.0
 40
1.0
 40
1.0
 40
1.0
 40
2.0
 40
2.0
 40
2.0
 40
3.0
 40
3.0
 40
3.0
 40
4.0
 40
4.0
 40
4.0
 40
5.0
 40
5.0
 40
5.0
 40
6.0
 40
6.0
 40
6.0
 40
7.0
 40
7.0
 40
7.0
 40
7.0
 10
79.34606117808015
 20
-125.5933674816225
 30
0.0
 10
79.34606117808015
 20
-125.5933674816225
 30
0.0
 10
78.24173582028332
 20
-125.5933674816225
 30
0.0
 10
78.24173582028332
 20
-125.5933674816225
 30
0.0
 10
78.24173582028332
 20
-125.5933674816225
 30
0.0
 10
78.24173582028332
 20
-125.8822387380607
 30
0.0
 10
78.24173582028332
 20
-125.8822387380607
 30
0.0
 10
78.24173582028332
 20
-125.8822387380607
 30
0.0
 10
78.09376896919184
 20
-125.8822387380607
 30
0.0
 10
78.09376896919184
 20
-125.8822387380607
 30
0.0
 10
78.07895505860526
 20
-125.5914726791056
 30
0.0
 10
77.91600204215295
 20
-125.5506482976054
 30
0.0
 10
77.80179712681692
 20
-125.524810081466
 30
0.0
 10
77.80179712681692
 20
-125.524810081466
 30
0.0
 10
77.80179712681692
 20
-125.3969970389633
 30
0.0
 10
77.80179712681692
 20
-125.3969970389633
 30
0.0
 10
77.80179712681692
 20
-125.3969970389633
 30
0.0
 10
79.34606117808015
 20
-125.3969970389633
 30
0.0
 10
79.34606117808015
 20
-125.3969970389633
 30
0.0
 10
79.34606117808015
 20
-125.3969970389633
 30
0.0
 10
79.34606117808015
 20
-125.5933674816225
 30
0.0
 10
79.34606117808015
 20
-125.5933674816225
 30
0.0
  0
HATCH
  5
BB
330
B4
100
AcDbEntity
  8
_U+30EC_U+30A4_U+30E4_U+30FC 1
 62
   179
420
  2234388
100
AcDbHatch
 10
0.0
 20
0.0
 30
0.0
210
0.0
220
0.0
230
1.0
  2
SOLID
 70
     1
 71
     0
 91
        1
 92
        1
 93
        1
 72
     4
 94
        3
 73
     0
 74
     1
 95
       26
 96
       22
 40
0.0
 40
0.0
 40
0.0
 40
0.0
 40
1.0
 40
1.0
 40
1.0
 40
2.0
 40
2.0
 40
2.0
 40
3.0
 40
3.0
 40
3.0
 40
4.0
 40
4.0
 40
4.0
 40
5.0
 40
5.0
 40
5.0
 40
6.0
 40
6.0
 40
6.0
 40
7.0
 40
7.0
 40
7.0
 40
7.0
 10
79.34606117808015
 20
-125.5933674816225
 10
79.34606117808015
 20
-125.5933674816225
 10
78.24173582028332
 20
-125.5933674816225
 10
78.24173582028332
 20
-125.5933674816225
 10
78.24173582028332
 20
-125.5933674816225
 10
78.24173582028332
 20
-125.8822387380607
 10
78.24173582028332
 20
-125.8822387380607
 10
78.24173582028332
 20
-125.8822387380607
 10
78.09376896919184
 20
-125.8822387380607
 10
78.09376896919184
 20
-125.8822387380607
 10
78.07895505860526
 20
-125.5914726791056
 10
77.91600204215295
 20
-125.5506482976054
 10
77.80179712681692
 20
-125.524810081466
 10
77.80179712681692
 20
-125.524810081466
 10
77.80179712681692
 20
-125.3969970389633
 10
77.80179712681692
 20
-125.3969970389633
 10
77.80179712681692
 20
-125.3969970389633
 10
79.34606117808015
 20
-125.3969970389633
 10
79.34606117808015
 20
-125.3969970389633
 10
79.34606117808015
 20
-125.3969970389633
 10
79.34606117808015
 20
-125.5933674816225
 10
79.34606117808015
 20
-125.5933674816225
 97
        0
 97
        0
 75
     2
 76
     1
 98
        0
  0
ENDBLK
  5
B7
330
B4
100
AcDbEntity
  8
0
100
AcDbBlockEnd
  0
BLOCK
  5
CA
330
C8
100
AcDbEntity
  8
0
100
AcDbBlockBegin
  2
block 4
 70
     0
 10
0.0
 20
0.0
 30
0.0
  3
block 4
  1

  0
SPLINE
  5
CC
330
C8
100
AcDbEntity
  8
_U+30EC_U+30A4_U+30E4_U+30FC 1
370
     0
100
AcDbSpline
210
0.0
220
0.0
230
1.0
 70
    11
 71
     3
 72
    44
 73
    40
 74
     0
 42
0.0000000001
 43
0.0000000001
 12
1.0
 22
0.0
 32
0.0
 13
1.0
 23
0.0
 33
0.0
 40
0.0
 40
0.0
 40
0.0
 40
0.0
 40
1.0
 40
1.0
 40
1.0
 40
2.0
 40
2.0
 40
2.0
 40
3.0
 40
3.0
 40
3.0
 40
4.0
 40
4.0
 40
4.0
 40
5.0
 40
5.0
 40
5.0
 40
6.0
 40
6.0
 40
6.0
 40
7.0
 40
7.0
 40
7.0
 40
8.0
 40
8.0
 40
8.0
 40
9.0
 40
9.0
 40
9.0
 40
10.0
 40
10.0
 40
10.0
 40
11.0
 40
11.0
 40
11.0
 40
12.0
 40
12.0
 40
12.0
 40
13.0
 40
13.0
 40
13.0
 40
13.0
 10
93.90296764145482
 20
-139.0485324088143
 30
0.0
 10
93.71210935157198
 20
-139.2073513106843
 30
0.0
 10
93.63080509812008
 20
-139.2814208636171
 30
0.0
 10
93.58808591410298
 20
-139.4250813453521
 30
0.0
 10
93.58808591410298
 20
-139.4250813453521
 30
0.0
 10
94.26952580108541
 20
-139.4250813453521
 30
0.0
 10
94.26952580108541
 20
-139.4250813453521
 30
0.0
 10
94.26952580108541
 20
-139.4250813453521
 30
0.0
 10
94.26952580108541
 20
-139.630409036273
 30
0.0
 10
94.26952580108541
 20
-139.630409036273
 30
0.0
 10
94.26952580108541
 20
-139.630409036273
 30
0.0
 10
93.36966686033814
 20
-139.630409036273
 30
0.0
 10
93.36966686033814
 20
-139.630409036273
 30
0.0
 10
93.39722762422014
 20
-139.272808124904
 30
0.0
 10
93.45476071882382
 20
-139.1946044573889
 30
0.0
 10
93.79169105728124
 20
-138.8962591883662
 30
0.0
 10
94.01596677337102
 20
-138.6974771788673
 30
0.0
 10
94.07315535842616
 20
-138.6296087978079
 30
0.0
 10
94.07315535842616
 20
-138.4921494879464
 30
0.0
 10
94.07315535842616
 20
-138.3736382032538
 30
0.0
 10
94.01011011104609
 20
-138.2427245748143
 30
0.0
 10
93.83819984633212
 20
-138.2427245748143
 30
0.0
 10
93.6104790347571
 20
-138.2427245748143
 30
0.0
 10
93.60289982468956
 20
-138.4732014627776
 30
0.0
 10
93.59911021965578
 20
-138.589645690179
 30
0.0
 10
93.59911021965578
 20
-138.589645690179
 30
0.0
 10
93.40308428654507
 20
-138.589645690179
 30
0.0
 10
93.40308428654507
 20
-138.589645690179
 30
0.0
 10
93.41031898706409
 20
-138.4625216667733
 30
0.0
 10
93.41962074487427
 20
-138.3505560635026
 30
0.0
 10
93.48990069277336
 20
-138.2320447788101
 30
0.0
 10
93.58636336636036
 20
-138.0711588196489
 30
0.0
 10
93.74931638281268
 20
-138.0373968838934
 30
0.0
 10
93.85094669962754
 20
-138.0373968838934
 30
0.0
 10
94.09348142178914
 20
-138.0373968838934
 30
0.0
 10
94.2750379538618
 20
-138.2213649828058
 30
0.0
 10
94.2750379538618
 20
-138.4942165452375
 30
0.0
 10
94.2750379538618
 20
-138.7229708854582
 30
0.0
 10
94.17340763704694
 20
-138.8221896354333
 30
0.0
 10
93.90296764145482
 20
-139.0485324088143
 30
0.0
  0
HATCH
  5
CD
330
C8
100
AcDbEntity
  8
_U+30EC_U+30A4_U+30E4_U+30FC 1
 62
   179
420
  2234388
100
AcDbHatch
 10
0.0
 20
0.0
 30
0.0
210
0.0
220
0.0
230
1.0
  2
SOLID
 70
     1
 71
     0
 91
        1
 92
        1
 93
        1
 72
     4
 94
        3
 73
     0
 74
     1
 95
       44
 96
       40
 40
0.0
 40
0.0
 40
0.0
 40
0.0
 40
1.0
 40
1.0
 40
1.0
 40
2.0
 40
2.0
 40
2.0
 40
3.0
 40
3.0
 40
3.0
 40
4.0
 40
4.0
 40
4.0
 40
5.0
 40
5.0
 40
5.0
 40
6.0
 40
6.0
 40
6.0
 40
7.0
 40
7.0
 40
7.0
 40
8.0
 40
8.0
 40
8.0
 40
9.0
 40
9.0
 40
9.0
 40
10.0
 40
10.0
 40
10.0
 40
11.0
 40
11.0
 40
11.0
 40
12.0
 40
12.0
 40
12.0
 40
13.0
 40
13.0
 40
13.0
 40
13.0
 10
93.90296764145482
 20
-139.0485324088143
 10
93.71210935157198
 20
-139.2073513106843
 10
93.63080509812008
 20
-139.2814208636171
 10
93.58808591410298
 20
-139.4250813453521
 10
93.58808591410298
 20
-139.4250813453521
 10
94.26952580108541
 20
-139.4250813453521
 10
94.26952580108541
 20
-139.4250813453521
 10
94.26952580108541
 20
-139.4250813453521
 10
94.26952580108541
 20
-139.630409036273
 10
94.26952580108541
 20
-139.630409036273
 10
94.26952580108541
 20
-139.630409036273
 10
93.36966686033814
 20
-139.630409036273
 10
93.36966686033814
 20
-139.630409036273
 10
93.39722762422014
 20
-139.272808124904
 10
93.45476071882382
 20
-139.1946044573889
 10
93.79169105728124
 20
-138.8962591883662
 10
94.01596677337102
 20
-138.6974771788673
 10
94.07315535842616
 20
-138.6296087978079
 10
94.07315535842616
 20
-138.4921494879464
 10
94.07315535842616
 20
-138.3736382032538
 10
94.01011011104609
 20
-138.2427245748143
 10
93.83819984633212
 20
-138.2427245748143
 10
93.6104790347571
 20
-138.2427245748143
 10
93.60289982468956
 20
-138.4732014627776
 10
93.59911021965578
 20
-138.589645690179
 10
93.59911021965578
 20
-138.589645690179
 10
93.40308428654507
 20
-138.589645690179
 10
93.40308428654507
 20
-138.589645690179
 10
93.41031898706409
 20
-138.4625216667733
 10
93.41962074487427
 20
-138.3505560635026
 10
93.48990069277336
 20
-138.2320447788101
 10
93.58636336636036
 20
-138.0711588196489
 10
93.74931638281268
 20
-138.0373968838934
 10
93.85094669962754
 20
-138.0373968838934
 10
94.09348142178914
 20
-138.0373968838934
 10
94.2750379538618
 20
-138.2213649828058
 10
94.2750379538618
 20
-138.4942165452375
 10
94.2750379538618
 20
-138.7229708854582
 10
94.17340763704694
 20
-138.8221896354333
 10
93.90296764145482
 20
-139.0485324088143
 97
        0
 97
        0
 75
     2
 76
     1
 98
        0
  0
SPLINE
  5
CE
330
C8
100
AcDbEntity
  8
_U+30EC_U+30A4_U+30E4_U+30FC 1
370
     0
100
AcDbSpline
210
0.0
220
0.0
230
1.0
 70
    11
 71
     3
 72
    26
 73
    22
 74
     0
 42
0.0000000001
 43
0.0000000001
 12
1.0
 22
0.0
 32
0.0
 13
1.0
 23
0.0
 33
0.0
 40
0.0
 40
0.0
 40
0.0
 40
0.0
 40
1.0
 40
1.0
 40
1.0
 40
2.0
 40
2.0
 40
2.0
 40
3.0
 40
3.0
 40
3.0
 40
4.0
 40
4.0
 40
4.0
 40
5.0
 40
5.0
 40
5.0
 40
6.0
 40
6.0
 40
6.0
 40
7.0
 40
7.0
 40
7.0
 40
7.0
 10
94.80971677317258
 20
-139.630409036273
 30
0.0
 10
94.80971677317258
 20
-139.630409036273
 30
0.0
 10
94.80971677317258
 20
-138.5262559332504
 30
0.0
 10
94.80971677317258
 20
-138.5262559332504
 30
0.0
 10
94.80971677317258
 20
-138.5262559332504
 30
0.0
 10
94.52067326196011
 20
-138.5262559332504
 30
0.0
 10
94.52067326196011
 20
-138.5262559332504
 30
0.0
 10
94.52067326196011
 20
-138.5262559332504
 30
0.0
 10
94.52067326196011
 20
-138.3781168273846
 30
0.0
 10
94.52067326196011
 20
-138.3781168273846
 30
0.0
 10
94.8114393209152
 20
-138.3633029167981
 30
0.0
 10
94.85209144764114
 20
-138.2003499003457
 30
0.0
 10
94.87827417332905
 20
-138.0859727302355
 30
0.0
 10
94.87827417332905
 20
-138.0859727302355
 30
0.0
 10
95.00574270628329
 20
-138.0859727302355
 30
0.0
 10
95.00574270628329
 20
-138.0859727302355
 30
0.0
 10
95.00574270628329
 20
-138.0859727302355
 30
0.0
 10
95.00574270628329
 20
-139.630409036273
 30
0.0
 10
95.00574270628329
 20
-139.630409036273
 30
0.0
 10
95.00574270628329
 20
-139.630409036273
 30
0.0
 10
94.80971677317258
 20
-139.630409036273
 30
0.0
 10
94.80971677317258
 20
-139.630409036273
 30
0.0
  0
HATCH
  5
CF
330
C8
100
AcDbEntity
  8
_U+30EC_U+30A4_U+30E4_U+30FC 1
 62
   179
420
  2234388
100
AcDbHatch
 10
0.0
 20
0.0
 30
0.0
210
0.0
220
0.0
230
1.0
  2
SOLID
 70
     1
 71
     0
 91
        1
 92
        1
 93
        1
 72
     4
 94
        3
 73
     0
 74
     1
 95
       26
 96
       22
 40
0.0
 40
0.0
 40
0.0
 40
0.0
 40
1.0
 40
1.0
 40
1.0
 40
2.0
 40
2.0
 40
2.0
 40
3.0
 40
3.0
 40
3.0
 40
4.0
 40
4.0
 40
4.0
 40
5.0
 40
5.0
 40
5.0
 40
6.0
 40
6.0
 40
6.0
 40
7.0
 40
7.0
 40
7.0
 40
7.0
 10
94.80971677317258
 20
-139.630409036273
 10
94.80971677317258
 20
-139.630409036273
 10
94.80971677317258
 20
-138.5262559332504
 10
94.80971677317258
 20
-138.5262559332504
 10
94.80971677317258
 20
-138.5262559332504
 10
94.52067326196011
 20
-138.5262559332504
 10
94.52067326196011
 20
-138.5262559332504
 10
94.52067326196011
 20
-138.5262559332504
 10
94.52067326196011
 20
-138.3781168273846
 10
94.52067326196011
 20
-138.3781168273846
 10
94.8114393209152
 20
-138.3633029167981
 10
94.85209144764114
 20
-138.2003499003457
 10
94.87827417332905
 20
-138.0859727302355
 10
94.87827417332905
 20
-138.0859727302355
 10
95.00574270628329
 20
-138.0859727302355
 10
95.00574270628329
 20
-138.0859727302355
 10
95.00574270628329
 20
-138.0859727302355
 10
95.00574270628329
 20
-139.630409036273
 10
95.00574270628329
 20
-139.630409036273
 10
95.00574270628329
 20
-139.630409036273
 10
94.80971677317258
 20
-139.630409036273
 10
94.80971677317258
 20
-139.630409036273
 97
        0
 97
        0
 75
     2
 76
     1
 98
        0
  0
ENDBLK
  5
CB
330
C8
100
AcDbEntity
  8
0
100
AcDbBlockEnd
  0
ENDSEC
  0
SECTION
  2
ENTITIES
  0
POLYLINE
  5
41
330
1F
100
AcDbEntity
  8
_U+30EC_U+30A4_U+30E4_U+30FC 1
 62
   179
420
  2234388
370
    25
100
AcDb2dPolyline
 66
     1
 10
0.0
 20
0.0
 30
0.0
  0
VERTEX
  5
42
330
41
100
AcDbEntity
  8
_U+30EC_U+30A4_U+30E4_U+30FC 1
 62
   179
420
  2234388
370
    25
100
AcDbVertex
100
AcDb2dVertex
 10
85.05941199662028
 20
-115.3445396933861
 30
0.0
  0
VERTEX
  5
43
330
41
100
AcDbEntity
  8
_U+30EC_U+30A4_U+30E4_U+30FC 1
 62
   179
420
  2234388
370
    25
100
AcDbVertex
100
AcDb2dVertex
 10
85.05941199662028
 20
-135.344358577275
 30
0.0
  0
SEQEND
  5
44
330
41
100
AcDbEntity
  8
_U+30EC_U+30A4_U+30E4_U+30FC 1
 62
   179
420
  2234388
370
    25
  0
POLYLINE
  5
45
330
1F
100
AcDbEntity
  8
_U+30EC_U+30A4_U+30E4_U+30FC 1
 62
   179
420
  2234388
370
    25
100
AcDb2dPolyline
 66
     1
 10
0.0
 20
0.0
 30
0.0
  0
VERTEX
  5
46
330
45
100
AcDbEntity
  8
_U+30EC_U+30A4_U+30E4_U+30FC 1
 62
   179
420
  2234388
370
    25
100
AcDbVertex
100
AcDb2dVertex
 10
85.05941199662028
 20
-135.344358577275
 30
0.0
  0
VERTEX
  5
47
330
45
100
AcDbEntity
  8
_U+30EC_U+30A4_U+30E4_U+30FC 1
 62
   179
420
  2234388
370
    25
100
AcDbVertex
100
AcDb2dVertex
 10
105.0588775975025
 20
-135.344358577275
 30
0.0
  0
SEQEND
  5
48
330
45
100
AcDbEntity
  8
_U+30EC_U+30A4_U+30E4_U+30FC 1
 62
   179
420
  2234388
370
    25
  0
POLYLINE
  5
49
330
1F
100
AcDbEntity
  8
_U+30EC_U+30A4_U+30E4_U+30FC 1
 62
   179
420
  2234388
370
    25
100
AcDb2dPolyline
 66
     1
 10
0.0
 20
0.0
 30
0.0
  0
VERTEX
  5
4A
330
49
100
AcDbEntity
  8
_U+30EC_U+30A4_U+30E4_U+30FC 1
 62
   179
420
  2234388
370
    25
100
AcDbVertex
100
AcDb2dVertex
 10
105.0588775975025
 20
-135.344358577275
 30
0.0
  0
VERTEX
  5
4B
330
49
100
AcDbEntity
  8
_U+30EC_U+30A4_U+30E4_U+30FC 1
 62
   179
420
  2234388
370
    25
100
AcDbVertex
100
AcDb2dVertex
 10
105.0588775975025
 20
-135.9445041326804
 30
0.0
  0
SEQEND
  5
4C
330
49
100
AcDbEntity
  8
_U+30EC_U+30A4_U+30E4_U+30FC 1
 62
   179
420
  2234388
370
    25
  0
POLYLINE
  5
4D
330
1F
100
AcDbEntity
  8
_U+30EC_U+30A4_U+30E4_U+30FC 1
 62
   179
420
  2234388
370
    25
100
AcDb2dPolyline
 66
     1
 10
0.0
 20
0.0
 30
0.0
  0
VERTEX
  5
4E
330
4D
100
AcDbEntity
  8
_U+30EC_U+30A4_U+30E4_U+30FC 1
 62
   179
420
  2234388
370
    25
100
AcDbVertex
100
AcDb2dVertex
 10
84.99051664541892
 20
-136.3448363548024
 30
0.0
  0
VERTEX
  5
4F
330
4D
100
AcDbEntity
  8
_U+30EC_U+30A4_U+30E4_U+30FC 1
 62
   179
420
  2234388
370
    25
100
AcDbVertex
100
AcDb2dVertex
 10
105.0588775975025
 20
-135.9445041326804
 30
0.0
  0
SEQEND
  5
50
330
4D
100
AcDbEntity
  8
_U+30EC_U+30A4_U+30E4_U+30FC 1
 62
   179
420
  2234388
370
    25
  0
POLYLINE
  5
51
330
1F
100
AcDbEntity
  8
_U+30EC_U+30A4_U+30E4_U+30FC 1
 62
   179
420
  2234388
370
    25
100
AcDb2dPolyline
 66
     1
 10
0.0
 20
0.0
 30
0.0
  0
VERTEX
  5
52
330
51
100
AcDbEntity
  8
_U+30EC_U+30A4_U+30E4_U+30FC 1
 62
   179
420
  2234388
370
    25
100
AcDbVertex
100
AcDb2dVertex
 10
84.45926645637572
 20
-115.3445396933861
 30
0.0
  0
VERTEX
  5
53
330
51
100
AcDbEntity
  8
_U+30EC_U+30A4_U+30E4_U+30FC 1
 62
   179
420
  2234388
370
    25
100
AcDbVertex
100
AcDb2dVertex
 10
85.05941199662028
 20
-115.3445396933861
 30
0.0
  0
SEQEND
  5
54
330
51
100
AcDbEntity
  8
_U+30EC_U+30A4_U+30E4_U+30FC 1
 62
   179
420
  2234388
370
    25
  0
POLYLINE
  5
55
330
1F
100
AcDbEntity
  8
_U+30EC_U+30A4_U+30E4_U+30FC 1
 62
   179
420
  2234388
370
    25
100
AcDb2dPolyline
 66
     1
 10
0.0
 20
0.0
 30
0.0
  0
VERTEX
  5
56
330
55
100
AcDbEntity
  8
_U+30EC_U+30A4_U+30E4_U+30FC 1
 62
   179
420
  2234388
370
    25
100
AcDbVertex
100
AcDb2dVertex
 10
84.45926645637572
 20
-115.3445396933861
 30
0.0
  0
VERTEX
  5
57
330
55
100
AcDbEntity
  8
_U+30EC_U+30A4_U+30E4_U+30FC 1
 62
   179
420
  2234388
370
    25
100
AcDbVertex
100
AcDb2dVertex
 10
84.05893424436681
 20
-135.8328852438195
 30
0.0
  0
SEQEND
  5
58
330
55
100
AcDbEntity
  8
_U+30EC_U+30A4_U+30E4_U+30FC 1
 62
   179
420
  2234388
370
    25
  0
POLYLINE
  5
59
330
1F
100
AcDbEntity
  8
_U+30EC_U+30A4_U+30E4_U+30FC 1
  6
AI-Linetype-1
 62
   154
420
    23468
370
    25
100
AcDb2dPolyline
 66
     1
 10
0.0
 20
0.0
 30
0.0
  0
VERTEX
  5
5A
330
59
100
AcDbEntity
  8
_U+30EC_U+30A4_U+30E4_U+30FC 1
  6
AI-Linetype-1
 62
   154
420
    23468
370
    25
100
AcDbVertex
100
AcDb2dVertex
 10
85.55894531720945
 20
-115.3445396933861
 30
0.0
  0
VERTEX
  5
5B
330
59
100
AcDbEntity
  8
_U+30EC_U+30A4_U+30E4_U+30FC 1
  6
AI-Linetype-1
 62
   154
420
    23468
370
    25
100
AcDbVertex
100
AcDb2dVertex
 10
85.55894531720945
 20
-125.3446255242194
 30
0.0
  0
SEQEND
  5
5D
330
59
100
AcDbEntity
  8
_U+30EC_U+30A4_U+30E4_U+30FC 1
  6
AI-Linetype-1
 62
   154
420
    23468
370
    25
  0
POLYLINE
  5
5E
330
1F
100
AcDbEntity
  8
_U+30EC_U+30A4_U+30E4_U+30FC 1
  6
AI-Linetype-2
 62
   154
420
    23468
370
    25
100
AcDb2dPolyline
 66
     1
 10
0.0
 20
0.0
 30
0.0
  0
VERTEX
  5
5F
330
5E
100
AcDbEntity
  8
_U+30EC_U+30A4_U+30E4_U+30FC 1
  6
AI-Linetype-2
 62
   154
420
    23468
370
    25
100
AcDbVertex
100
AcDb2dVertex
 10
95.05914719845771
 20
-134.8448252440668
 30
0.0
  0
VERTEX
  5
60
330
5E
100
AcDbEntity
  8
_U+30EC_U+30A4_U+30E4_U+30FC 1
  6
AI-Linetype-2
 62
   154
420
    23468
370
    25
100
AcDbVertex
100
AcDb2dVertex
 10
105.0588775975025
 20
-134.8448252440668
 30
0.0
  0
SEQEND
  5
62
330
5E
100
AcDbEntity
  8
_U+30EC_U+30A4_U+30E4_U+30FC 1
  6
AI-Linetype-2
 62
   154
420
    23468
370
    25
  0
POLYLINE
  5
63
330
1F
100
AcDbEntity
  8
_U+30EC_U+30A4_U+30E4_U+30FC 1
 62
   179
420
  2234388
370
     9
100
AcDb2dPolyline
 66
     1
 10
0.0
 20
0.0
 30
0.0
  0
VERTEX
  5
64
330
63
100
AcDbEntity
  8
_U+30EC_U+30A4_U+30E4_U+30FC 1
 62
   179
420
  2234388
370
     9
100
AcDbVertex
100
AcDb2dVertex
 10
86.0591841933362
 20
-123.3444108024973
 30
0.0
  0
VERTEX
  5
65
330
63
100
AcDbEntity
  8
_U+30EC_U+30A4_U+30E4_U+30FC 1
 62
   179
420
  2234388
370
     9
100
AcDbVertex
100
AcDb2dVertex
 10
93.75414927479905
 20
-123.3444108024973
 30
0.0
  0
SEQEND
  5
66
330
63
100
AcDbEntity
  8
_U+30EC_U+30A4_U+30E4_U+30FC 1
 62
   179
420
  2234388
370
     9
  0
POLYLINE
  5
67
330
1F
100
AcDbEntity
  8
_U+30EC_U+30A4_U+30E4_U+30FC 1
 62
   179
420
  2234388
370
     9
100
AcDb2dPolyline
 66
     1
 10
0.0
 20
0.0
 30
0.0
  0
VERTEX
  5
68
330
67
100
AcDbEntity
  8
_U+30EC_U+30A4_U+30E4_U+30FC 1
 62
   179
420
  2234388
370
     9
100
AcDbVertex
100
AcDb2dVertex
 10
86.0591841933362
 20
-123.3444108024973
 30
0.0
  0
VERTEX
  5
69
330
67
100
AcDbEntity
  8
_U+30EC_U+30A4_U+30E4_U+30FC 1
 62
   179
420
  2234388
370
     9
100
AcDbVertex
100
AcDb2dVertex
 10
87.02516027980319
 20
-123.0856835803397
 30
0.0
  0
SEQEND
  5
6A
330
67
100
AcDbEntity
  8
_U+30EC_U+30A4_U+30E4_U+30FC 1
 62
   179
420
  2234388
370
     9
  0
POLYLINE
  5
6B
330
1F
100
AcDbEntity
  8
_U+30EC_U+30A4_U+30E4_U+30FC 1
 62
   179
420
  2234388
370
     9
100
AcDb2dPolyline
 66
     1
 10
0.0
 20
0.0
 30
0.0
  0
VERTEX
  5
6C
330
6B
100
AcDbEntity
  8
_U+30EC_U+30A4_U+30E4_U+30FC 1
 62
   179
420
  2234388
370
     9
100
AcDbVertex
100
AcDb2dVertex
 10
86.0591841933362
 20
-123.3444108024973
 30
0.0
  0
VERTEX
  5
6D
330
6B
100
AcDbEntity
  8
_U+30EC_U+30A4_U+30E4_U+30FC 1
 62
   179
420
  2234388
370
     9
100
AcDbVertex
100
AcDb2dVertex
 10
87.02516027980319
 20
-123.6034908024323
 30
0.0
  0
SEQEND
  5
6E
330
6B
100
AcDbEntity
  8
_U+30EC_U+30A4_U+30E4_U+30FC 1
 62
   179
420
  2234388
370
     9
  0
POLYLINE
  5
6F
330
1F
100
AcDbEntity
  8
_U+30EC_U+30A4_U+30E4_U+30FC 1
 62
   179
420
  2234388
370
     9
100
AcDb2dPolyline
 66
     1
 10
0.0
 20
0.0
 30
0.0
  0
VERTEX
  5
70
330
6F
100
AcDbEntity
  8
_U+30EC_U+30A4_U+30E4_U+30FC 1
 62
   179
420
  2234388
370
     9
100
AcDbVertex
100
AcDb2dVertex
 10
97.05935946825389
 20
-134.3445863553025
 30
0.0
  0
VERTEX
  5
71
330
6F
100
AcDbEntity
  8
_U+30EC_U+30A4_U+30E4_U+30FC 1
 62
   179
420
  2234388
370
     9
100
AcDbVertex
100
AcDb2dVertex
 10
97.31773390610665
 20
-133.3786102444329
 30
0.0
  0
SEQEND
  5
72
330
6F
100
AcDbEntity
  8
_U+30EC_U+30A4_U+30E4_U+30FC 1
 62
   179
420
  2234388
370
     9
  0
POLYLINE
  5
73
330
1F
100
AcDbEntity
  8
_U+30EC_U+30A4_U+30E4_U+30FC 1
 62
   179
420
  2234388
370
     9
100
AcDb2dPolyline
 66
     1
 10
0.0
 20
0.0
 30
0.0
  0
VERTEX
  5
74
330
73
100
AcDbEntity
  8
_U+30EC_U+30A4_U+30E4_U+30FC 1
 62
   179
420
  2234388
370
     9
100
AcDbVertex
100
AcDb2dVertex
 10
97.05935946825389
 20
-134.3445863553025
 30
0.0
  0
VERTEX
  5
75
330
73
100
AcDbEntity
  8
_U+30EC_U+30A4_U+30E4_U+30FC 1
 62
   179
420
  2234388
370
     9
100
AcDbVertex
100
AcDb2dVertex
 10
97.05935946825389
 20
-124.9691288576466
 30
0.0
  0
SEQEND
  5
76
330
73
100
AcDbEntity
  8
_U+30EC_U+30A4_U+30E4_U+30FC 1
 62
   179
420
  2234388
370
     9
  0
POLYLINE
  5
77
330
1F
100
AcDbEntity
  8
_U+30EC_U+30A4_U+30E4_U+30FC 1
 62
   179
420
  2234388
370
     9
100
AcDb2dPolyline
 66
     1
 10
0.0
 20
0.0
 30
0.0
  0
VERTEX
  5
78
330
77
100
AcDbEntity
  8
_U+30EC_U+30A4_U+30E4_U+30FC 1
 62
   179
420
  2234388
370
     9
100
AcDbVertex
100
AcDb2dVertex
 10
97.05935946825389
 20
-134.3445863553025
 30
0.0
  0
VERTEX
  5
79
330
77
100
AcDbEntity
  8
_U+30EC_U+30A4_U+30E4_U+30FC 1
 62
   179
420
  2234388
370
     9
100
AcDbVertex
100
AcDb2dVertex
 10
96.80027947486357
 20
-133.3786102444329
 30
0.0
  0
SEQEND
  5
7A
330
77
100
AcDbEntity
  8
_U+30EC_U+30A4_U+30E4_U+30FC 1
 62
   179
420
  2234388
370
     9
  0
SPLINE
  5
7B
330
1F
100
AcDbEntity
  8
_U+30EC_U+30A4_U+30E4_U+30FC 1
 62
   179
420
  2234388
370
    25
100
AcDbSpline
210
0.0
220
0.0
230
1.0
 70
     8
 71
     3
 72
    11
 73
     7
 74
     0
 42
0.0000000001
 43
0.0000000001
 12
1.0
 22
0.0
 32
0.0
 13
1.0
 23
0.0
 33
0.0
 40
0.0
 40
0.0
 40
0.0
 40
0.0
 40
1.0
 40
1.0
 40
1.0
 40
2.0
 40
2.0
 40
2.0
 40
2.0
 10
84.05893424436681
 20
-135.8328852438195
 30
0.0
 10
84.0527606334132
 20
-136.1642846881815
 30
0.0
 10
84.31596812669822
 20
-136.4378285770015
 30
0.0
 10
84.64736756268796
 20
-136.4447430214441
 30
0.0
 10
84.76932497880773
 20
-136.446789132555
 30
0.0
 10
84.88923200096193
 20
-136.4116524658972
 30
0.0
 10
84.99051664541892
 20
-136.3448363548024
 30
0.0
  0
SPLINE
  5
7C
330
1F
100
AcDbEntity
  8
_U+30EC_U+30A4_U+30E4_U+30FC 1
 62
   179
420
  2234388
370
     9
100
AcDbSpline
210
0.0
220
0.0
230
1.0
 70
    11
 71
     3
 72
    17
 73
    13
 74
     0
 42
0.0000000001
 43
0.0000000001
 12
1.0
 22
0.0
 32
0.0
 13
1.0
 23
0.0
 33
0.0
 40
0.0
 40
0.0
 40
0.0
 40
0.0
 40
1.0
 40
1.0
 40
1.0
 40
2.0
 40
2.0
 40
2.0
 40
3.0
 40
3.0
 40
3.0
 40
4.0
 40
4.0
 40
4.0
 40
4.0
 10
80.15911712163721
 20
-115.3445396933861
 30
0.0
 10
80.15911712163721
 20
-115.2890830267334
 30
0.0
 10
80.11431434500246
 20
-115.2443155267445
 30
0.0
 10
80.05921045751938
 20
-115.2443155267445
 30
0.0
 10
80.00407129225943
 20
-115.2443155267445
 30
0.0
 10
79.95930379340155
 20
-115.2890830267334
 30
0.0
 10
79.95930379340155
 20
-115.3445396933861
 30
0.0
 10
79.95930379340155
 20
-115.4000316378166
 30
0.0
 10
80.00407129225943
 20
-115.4447991378055
 30
0.0
 10
80.05921045751938
 20
-115.4447991378055
 30
0.0
 10
80.11431434500246
 20
-115.4447991378055
 30
0.0
 10
80.15911712163721
 20
-115.4000316378166
 30
0.0
 10
80.15911712163721
 20
-115.3445396933861
 30
0.0
  0
SPLINE
  5
7D
330
1F
100
AcDbEntity
  8
_U+30EC_U+30A4_U+30E4_U+30FC 1
 62
   179
420
  2234388
370
     9
100
AcDbSpline
210
0.0
220
0.0
230
1.0
 70
    11
 71
     3
 72
    17
 73
    13
 74
     0
 42
0.0000000001
 43
0.0000000001
 12
1.0
 22
0.0
 32
0.0
 13
1.0
 23
0.0
 33
0.0
 40
0.0
 40
0.0
 40
0.0
 40
0.0
 40
1.0
 40
1.0
 40
1.0
 40
2.0
 40
2.0
 40
2.0
 40
3.0
 40
3.0
 40
3.0
 40
4.0
 40
4.0
 40
4.0
 40
4.0
 10
80.15911712163721
 20
-136.3448363548024
 30
0.0
 10
80.15911712163721
 20
-136.289026910372
 30
0.0
 10
80.11431434500246
 20
-136.2442241326059
 30
0.0
 10
80.05921045751938
 20
-136.2442241326059
 30
0.0
 10
80.00407129225943
 20
-136.2442241326059
 30
0.0
 10
79.95930379340155
 20
-136.289026910372
 30
0.0
 10
79.95930379340155
 20
-136.3448363548024
 30
0.0
 10
79.95930379340155
 20
-136.399940243678
 30
0.0
 10
80.00407129225943
 20
-136.4447430214441
 30
0.0
 10
80.05921045751938
 20
-136.4447430214441
 30
0.0
 10
80.11431434500246
 20
-136.4447430214441
 30
0.0
 10
80.15911712163721
 20
-136.399940243678
 30
0.0
 10
80.15911712163721
 20
-136.3448363548024
 30
0.0
  0
SPLINE
  5
7E
330
1F
100
AcDbEntity
  8
_U+30EC_U+30A4_U+30E4_U+30FC 1
 62
   179
420
  2234388
370
     9
100
AcDbSpline
210
0.0
220
0.0
230
1.0
 70
    11
 71
     3
 72
    17
 73
    13
 74
     0
 42
0.0000000001
 43
0.0000000001
 12
1.0
 22
0.0
 32
0.0
 13
1.0
 23
0.0
 33
0.0
 40
0.0
 40
0.0
 40
0.0
 40
0.0
 40
1.0
 40
1.0
 40
1.0
 40
2.0
 40
2.0
 40
2.0
 40
3.0
 40
3.0
 40
3.0
 40
4.0
 40
4.0
 40
4.0
 40
4.0
 10
84.15884090848465
 20
-140.3445602426918
 30
0.0
 10
84.15884090848465
 20
-140.2894563538162
 30
0.0
 10
84.11407340962677
 20
-140.2446535760502
 30
0.0
 10
84.05893424436681
 20
-140.2446535760502
 30
0.0
 10
84.00383035688374
 20
-140.2446535760502
 30
0.0
 10
83.95902758024899
 20
-140.2894563538162
 30
0.0
 10
83.95902758024899
 20
-140.3445602426918
 30
0.0
 10
83.95902758024899
 20
-140.3996994093442
 30
0.0
 10
84.00383035688374
 20
-140.4445021871109
 30
0.0
 10
84.05893424436681
 20
-140.4445021871109
 30
0.0
 10
84.11407340962677
 20
-140.4445021871109
 30
0.0
 10
84.15884090848465
 20
-140.3996994093442
 30
0.0
 10
84.15884090848465
 20
-140.3445602426918
 30
0.0
  0
SPLINE
  5
7F
330
1F
100
AcDbEntity
  8
_U+30EC_U+30A4_U+30E4_U+30FC 1
 62
   179
420
  2234388
370
     9
100
AcDbSpline
210
0.0
220
0.0
230
1.0
 70
    11
 71
     3
 72
    17
 73
    13
 74
     0
 42
0.0000000001
 43
0.0000000001
 12
1.0
 22
0.0
 32
0.0
 13
1.0
 23
0.0
 33
0.0
 40
0.0
 40
0.0
 40
0.0
 40
0.0
 40
1.0
 40
1.0
 40
1.0
 40
2.0
 40
2.0
 40
2.0
 40
3.0
 40
3.0
 40
3.0
 40
4.0
 40
4.0
 40
4.0
 40
4.0
 10
105.1587842616204
 20
-140.3445602426918
 30
0.0
 10
105.1587842616204
 20
-140.2894563538162
 30
0.0
 10
105.1139814849856
 20
-140.2446535760502
 30
0.0
 10
105.0588775975025
 20
-140.2446535760502
 30
0.0
 10
105.0037384322426
 20
-140.2446535760502
 30
0.0
 10
104.9589709333847
 20
-140.2894563538162
 30
0.0
 10
104.9589709333847
 20
-140.3445602426918
 30
0.0
 10
104.9589709333847
 20
-140.3996994093442
 30
0.0
 10
105.0037384322426
 20
-140.4445021871109
 30
0.0
 10
105.0588775975025
 20
-140.4445021871109
 30
0.0
 10
105.1139814849856
 20
-140.4445021871109
 30
0.0
 10
105.1587842616204
 20
-140.3996994093442
 30
0.0
 10
105.1587842616204
 20
-140.3445602426918
 30
0.0
  0
INSERT
  5
81
330
1F
100
AcDbEntity
  8
_U+30EC_U+30A4_U+30E4_U+30FC 1
100
AcDbBlockReference
  2
block 2
 10
0.0
 20
0.0
 30
0.0
  0
POLYLINE
  5
A8
330
1F
100
AcDbEntity
  8
_U+30EC_U+30A4_U+30E4_U+30FC 1
 62
   179
420
  2234388
370
     9
100
AcDb2dPolyline
 66
     1
 10
0.0
 20
0.0
 30
0.0
  0
VERTEX
  5
A9
330
A8
100
AcDbEntity
  8
_U+30EC_U+30A4_U+30E4_U+30FC 1
 62
   179
420
  2234388
370
     9
100
AcDbVertex
100
AcDb2dVertex
 10
80.05921045751938
 20
-115.3445396933861
 30
0.0
  0
VERTEX
  5
AA
330
A8
100
AcDbEntity
  8
_U+30EC_U+30A4_U+30E4_U+30FC 1
 62
   179
420
  2234388
370
     9
100
AcDbVertex
100
AcDb2dVertex
 10
80.05921045751938
 20
-136.3448363548024
 30
0.0
  0
SEQEND
  5
AB
330
A8
100
AcDbEntity
  8
_U+30EC_U+30A4_U+30E4_U+30FC 1
 62
   179
420
  2234388
370
     9
  0
POLYLINE
  5
AC
330
1F
100
AcDbEntity
  8
_U+30EC_U+30A4_U+30E4_U+30FC 1
 62
   179
420
  2234388
370
     9
100
AcDb2dPolyline
 66
     1
 10
0.0
 20
0.0
 30
0.0
  0
VERTEX
  5
AD
330
AC
100
AcDbEntity
  8
_U+30EC_U+30A4_U+30E4_U+30FC 1
 62
   179
420
  2234388
370
     9
100
AcDbVertex
100
AcDb2dVertex
 10
81.91884318785398
 20
-115.3445396933861
 30
0.0
  0
VERTEX
  5
AE
330
AC
100
AcDbEntity
  8
_U+30EC_U+30A4_U+30E4_U+30FC 1
 62
   179
420
  2234388
370
     9
100
AcDbVertex
100
AcDb2dVertex
 10
79.05943826080347
 20
-115.3445396933861
 30
0.0
  0
SEQEND
  5
AF
330
AC
100
AcDbEntity
  8
_U+30EC_U+30A4_U+30E4_U+30FC 1
 62
   179
420
  2234388
370
     9
  0
POLYLINE
  5
B0
330
1F
100
AcDbEntity
  8
_U+30EC_U+30A4_U+30E4_U+30FC 1
 62
   179
420
  2234388
370
     9
100
AcDb2dPolyline
 66
     1
 10
0.0
 20
0.0
 30
0.0
  0
VERTEX
  5
B1
330
B0
100
AcDbEntity
  8
_U+30EC_U+30A4_U+30E4_U+30FC 1
 62
   179
420
  2234388
370
     9
100
AcDbVertex
100
AcDb2dVertex
 10
82.45079678539382
 20
-136.3448363548024
 30
0.0
  0
VERTEX
  5
B2
330
B0
100
AcDbEntity
  8
_U+30EC_U+30A4_U+30E4_U+30FC 1
 62
   179
420
  2234388
370
     9
100
AcDbVertex
100
AcDb2dVertex
 10
79.05943826080347
 20
-136.3448363548024
 30
0.0
  0
SEQEND
  5
B3
330
B0
100
AcDbEntity
  8
_U+30EC_U+30A4_U+30E4_U+30FC 1
 62
   179
420
  2234388
370
     9
  0
INSERT
  5
B5
330
1F
100
AcDbEntity
  8
_U+30EC_U+30A4_U+30E4_U+30FC 1
100
AcDbBlockReference
  2
block 3
 10
0.0
 20
0.0
 30
0.0
  0
POLYLINE
  5
BC
330
1F
100
AcDbEntity
  8
_U+30EC_U+30A4_U+30E4_U+30FC 1
 62
   179
420
  2234388
370
     9
100
AcDb2dPolyline
 66
     1
 10
0.0
 20
0.0
 30
0.0
  0
VERTEX
  5
BD
330
BC
100
AcDbEntity
  8
_U+30EC_U+30A4_U+30E4_U+30FC 1
 62
   179
420
  2234388
370
     9
100
AcDbVertex
100
AcDb2dVertex
 10
105.0588775975025
 20
-140.3445602426918
 30
0.0
  0
VERTEX
  5
BE
330
BC
100
AcDbEntity
  8
_U+30EC_U+30A4_U+30E4_U+30FC 1
 62
   179
420
  2234388
370
     9
100
AcDbVertex
100
AcDb2dVertex
 10
84.05893424436681
 20
-140.3445602426918
 30
0.0
  0
SEQEND
  5
BF
330
BC
100
AcDbEntity
  8
_U+30EC_U+30A4_U+30E4_U+30FC 1
 62
   179
420
  2234388
370
     9
  0
POLYLINE
  5
C0
330
1F
100
AcDbEntity
  8
_U+30EC_U+30A4_U+30E4_U+30FC 1
 62
   179
420
  2234388
370
     9
100
AcDb2dPolyline
 66
     1
 10
0.0
 20
0.0
 30
0.0
  0
VERTEX
  5
C1
330
C0
100
AcDbEntity
  8
_U+30EC_U+30A4_U+30E4_U+30FC 1
 62
   179
420
  2234388
370
     9
100
AcDbVertex
100
AcDb2dVertex
 10
105.0588775975025
 20
-138.4842219098235
 30
0.0
  0
VERTEX
  5
C2
330
C0
100
AcDbEntity
  8
_U+30EC_U+30A4_U+30E4_U+30FC 1
 62
   179
420
  2234388
370
     9
100
AcDbVertex
100
AcDb2dVertex
 10
105.0588775975025
 20
-141.3443324646637
 30
0.0
  0
SEQEND
  5
C3
330
C0
100
AcDbEntity
  8
_U+30EC_U+30A4_U+30E4_U+30FC 1
 62
   179
420
  2234388
370
     9
  0
POLYLINE
  5
C4
330
1F
100
AcDbEntity
  8
_U+30EC_U+30A4_U+30E4_U+30FC 1
 62
   179
420
  2234388
370
     9
100
AcDb2dPolyline
 66
     1
 10
0.0
 20
0.0
 30
0.0
  0
VERTEX
  5
C5
330
C4
100
AcDbEntity
  8
_U+30EC_U+30A4_U+30E4_U+30FC 1
 62
   179
420
  2234388
370
     9
100
AcDbVertex
100
AcDb2dVertex
 10
84.05893424436681
 20
-138.3843152431819
 30
0.0
  0
VERTEX
  5
C6
330
C4
100
AcDbEntity
  8
_U+30EC_U+30A4_U+30E4_U+30FC 1
 62
   179
420
  2234388
370
     9
100
AcDbVertex
100
AcDb2dVertex
 10
84.05893424436681
 20
-141.3443324646637
 30
0.0
  0
SEQEND
  5
C7
330
C4
100
AcDbEntity
  8
_U+30EC_U+30A4_U+30E4_U+30FC 1
 62
   179
420
  2234388
370
     9
  0
INSERT
  5
C9
330
1F
100
AcDbEntity
  8
_U+30EC_U+30A4_U+30E4_U+30FC 1
100
AcDbBlockReference
  2
block 4
 10
0.0
 20
0.0
 30
0.0
  0
ENDSEC
  0
SECTION
  2
OBJECTS
  0
DICTIONARY
  5
C
330
0
100
AcDbDictionary
281
     1
  3
ACAD_GROUP
350
D
  3
ACAD_LAYOUT
350
1A
  3
ACAD_MATERIAL
350
3B
  3
ACAD_MLEADERSTYLE
350
D1
  3
ACAD_MLINESTYLE
350
17
  3
ACAD_PLOTSETTINGS
350
19
  3
ACAD_PLOTSTYLENAME
350
E
  3
ACAD_TABLESTYLE
350
D0
  3
ACAD_VISUALSTYLE
350
2A
  0
SUN
  5
3F
330
29
100
AcDbSun
 90
        1
290
     0
 63
     7
421
 16777215
 40
1.0
291
     1
 91
  2455826
 92
 54000000
292
     0
 70
     2
 71
   256
280
     1
  0
DICTIONARY
  5
D
102
{ACAD_REACTORS
330
C
102
}
330
C
100
AcDbDictionary
281
     1
  0
DICTIONARY
  5
1A
102
{ACAD_REACTORS
330
C
102
}
330
C
100
AcDbDictionary
281
     1
  3
Layout1
350
1E
  3
Layout2
350
26
  3
Model
350
22
  0
DICTIONARY
  5
3B
102
{ACAD_REACTORS
330
C
102
}
330
C
100
AcDbDictionary
281
     1
  3
ByBlock
350
3D
  3
ByLayer
350
3C
  3
Global
350
3E
  0
DICTIONARY
  5
D1
102
{ACAD_REACTORS
330
C
102
}
330
C
100
AcDbDictionary
281
     1
  0
DICTIONARY
  5
17
102
{ACAD_REACTORS
330
C
102
}
330
C
100
AcDbDictionary
281
     1
  3
Standard
350
18
  0
DICTIONARY
  5
19
102
{ACAD_REACTORS
330
C
102
}
330
C
100
AcDbDictionary
281
     1
  0
ACDBDICTIONARYWDFLT
  5
E
102
{ACAD_REACTORS
330
C
102
}
330
C
100
AcDbDictionary
281
     1
  3
Normal
350
F
100
AcDbDictionaryWithDefault
340
F
  0
DICTIONARY
  5
D0
102
{ACAD_REACTORS
330
C
102
}
330
C
100
AcDbDictionary
281
     1
  0
DICTIONARY
  5
2A
102
{ACAD_REACTORS
330
C
102
}
330
C
100
AcDbDictionary
281
     1
  3
2dWireframe
350
2F
  3
3D Hidden
350
31
  3
3dWireframe
350
30
  3
Basic
350
32
  3
Brighten
350
36
  3
ColorChange
350
3A
  3
Conceptual
350
34
  3
Dim
350
35
  3
Facepattern
350
39
  3
Flat
350
2B
  3
FlatWithEdges
350
2C
  3
Gouraud
350
2D
  3
GouraudWithEdges
350
2E
  3
Linepattern
350
38
  3
Realistic
350
33
  3
Thicken
350
37
  0
LAYOUT
  5
1E
102
{ACAD_REACTORS
330
1A
102
}
330
1A
100
AcDbPlotSettings
  1

  2
none_device
  4

  6

 40
0.0
 41
0.0
 42
0.0
 43
0.0
 44
0.0
 45
0.0
 46
0.0
 47
0.0
 48
0.0
 49
0.0
140
0.0
141
0.0
142
1.0
143
1.0
 70
   688
 72
     0
 73
     0
 74
     5
  7

 75
    16
 76
     0
 77
     2
 78
   300
147
1.0
148
0.0
149
0.0
100
AcDbLayout
  1
Layout1
 70
     1
 71
     1
 10
0.0
 20
0.0
 11
12.0
 21
9.0
 12
0.0
 22
0.0
 32
0.0
 14
1.000000000000000E+20
 24
1.000000000000000E+20
 34
1.000000000000000E+20
 15
-1.000000000000000E+20
 25
-1.000000000000000E+20
 35
-1.000000000000000E+20
146
0.0
 13
0.0
 23
0.0
 33
0.0
 16
1.0
 26
0.0
 36
0.0
 17
0.0
 27
1.0
 37
0.0
 76
     0
330
1B
  0
LAYOUT
  5
26
102
{ACAD_REACTORS
330
1A
102
}
330
1A
100
AcDbPlotSettings
  1

  2
none_device
  4

  6

 40
0.0
 41
0.0
 42
0.0
 43
0.0
 44
0.0
 45
0.0
 46
0.0
 47
0.0
 48
0.0
 49
0.0
140
0.0
141
0.0
142
1.0
143
1.0
 70
   688
 72
     0
 73
     0
 74
     5
  7

 75
    16
 76
     0
 77
     2
 78
   300
147
1.0
148
0.0
149
0.0
100
AcDbLayout
  1
Layout2
 70
     1
 71
     2
 10
0.0
 20
0.0
 11
0.0
 21
0.0
 12
0.0
 22
0.0
 32
0.0
 14
0.0
 24
0.0
 34
0.0
 15
0.0
 25
0.0
 35
0.0
146
0.0
 13
0.0
 23
0.0
 33
0.0
 16
1.0
 26
0.0
 36
0.0
 17
0.0
 27
1.0
 37
0.0
 76
     0
330
23
  0
LAYOUT
  5
22
102
{ACAD_REACTORS
330
1A
102
}
330
1A
100
AcDbPlotSettings
  1

  2
none_device
  4

  6

 40
0.0
 41
0.0
 42
0.0
 43
0.0
 44
0.0
 45
0.0
 46
0.0
 47
0.0
 48
0.0
 49
0.0
140
0.0
141
0.0
142
1.0
143
1.0
 70
  1712
 72
     0
 73
     0
 74
     0
  7

 75
     0
 76
     0
 77
     2
 78
   300
147
1.0
148
0.0
149
0.0
100
AcDbLayout
  1
Model
 70
     1
 71
     0
 10
0.0
 20
0.0
 11
12.0
 21
9.0
 12
0.0
 22
0.0
 32
0.0
 14
1.000000000000000E+20
 24
1.000000000000000E+20
 34
1.000000000000000E+20
 15
-1.000000000000000E+20
 25
-1.000000000000000E+20
 35
-1.000000000000000E+20
146
0.0
 13
0.0
 23
0.0
 33
0.0
 16
1.0
 26
0.0
 36
0.0
 17
0.0
 27
1.0
 37
0.0
 76
     0
330
1F
331
29
  0
MATERIAL
  5
3D
102
{ACAD_REACTORS
330
3B
102
}
330
3B
100
AcDbMaterial
  1
ByBlock
 72
     1
 94
      127
  0
MATERIAL
  5
3C
102
{ACAD_REACTORS
330
3B
102
}
330
3B
100
AcDbMaterial
  1
ByLayer
 72
     1
 94
      127
  0
MATERIAL
  5
3E
102
{ACAD_REACTORS
330
3B
102
}
330
3B
100
AcDbMaterial
  1
Global
 72
     1
 94
      127
  0
MLINESTYLE
  5
18
102
{ACAD_REACTORS
330
17
102
}
330
17
100
AcDbMlineStyle
  2
Standard
 70
     0
  3

 62
   256
 51
90.0
 52
90.0
 71
     2
 49
0.5
 62
   256
  6
BYLAYER
 49
-0.5
 62
   256
  6
BYLAYER
  0
ACDBPLACEHOLDER
  5
F
102
{ACAD_REACTORS
330
E
102
}
330
E
  0
VISUALSTYLE
  5
2F
102
{ACAD_REACTORS
330
2A
102
}
330
2A
100
AcDbVisualStyle
  2
2dWireframe
 70
     4
177
     2
291
     0
 71
     0
176
     1
 72
     2
176
     1
 73
     0
176
     1
 90
        0
176
     1
 40
-0.6
176
     1
 41
-30.0
176
     1
 62
     5
 63
     7
421
 16777215
176
     1
 74
     1
176
     1
 91
        4
176
     1
 64
     7
176
     1
 65
   257
176
     1
 75
     1
176
     1
175
     1
176
     1
 42
1.0
176
     1
 92
        0
176
     1
 66
   257
176
     1
 43
1.0
176
     1
 76
     1
176
     1
 77
     6
176
     1
 78
     2
176
     1
 67
     7
176
     1
 79
     5
176
     1
170
     0
176
     1
171
     0
176
     1
290
     0
176
     1
 93
        1
176
     1
 44
0.0
176
     1
173
     0
176
     1
  0
VISUALSTYLE
  5
31
102
{ACAD_REACTORS
330
2A
102
}
330
2A
100
AcDbVisualStyle
  2
3D Hidden
 70
     6
177
     2
291
     0
 71
     1
176
     1
 72
     2
176
     1
 73
     2
176
     1
 90
        0
176
     1
 40
-0.6
176
     1
 41
-30.0
176
     1
 62
     5
 63
     7
421
 16777215
176
     1
 74
     2
176
     1
 91
        2
176
     1
 64
     7
176
     1
 65
   257
176
     1
 75
     2
176
     1
175
     1
176
     1
 42
40.0
176
     1
 92
        0
176
     1
 66
   257
176
     1
 43
1.0
176
     1
 76
     1
176
     1
 77
     6
176
     1
 78
     2
176
     1
 67
     7
176
     1
 79
     3
176
     1
170
     0
176
     1
171
     0
176
     1
290
     0
176
     1
 93
        1
176
     1
 44
0.0
176
     1
173
     0
176
     1
  0
VISUALSTYLE
  5
30
102
{ACAD_REACTORS
330
2A
102
}
330
2A
100
AcDbVisualStyle
  2
3dWireframe
 70
     5
177
     2
291
     0
 71
     0
176
     1
 72
     2
176
     1
 73
     0
176
     1
 90
        0
176
     1
 40
-0.6
176
     1
 41
-30.0
176
     1
 62
     5
 63
     7
421
 16777215
176
     1
 74
     1
176
     1
 91
        4
176
     1
 64
     7
176
     1
 65
   257
176
     1
 75
     1
176
     1
175
     1
176
     1
 42
1.0
176
     1
 92
        0
176
     1
 66
   257
176
     1
 43
1.0
176
     1
 76
     1
176
     1
 77
     6
176
     1
 78
     2
176
     1
 67
     7
176
     1
 79
     5
176
     1
170
     0
176
     1
171
     0
176
     1
290
     0
176
     1
 93
        1
176
     1
 44
0.0
176
     1
173
     0
176
     1
  0
VISUALSTYLE
  5
32
102
{ACAD_REACTORS
330
2A
102
}
330
2A
100
AcDbVisualStyle
  2
Basic
 70
     7
177
     2
291
     1
 71
     1
176
     1
 72
     0
176
     1
 73
     1
176
     1
 90
        0
176
     1
 40
-0.6
176
     1
 41
-30.0
176
     1
 62
     5
 63
     7
421
 16777215
176
     1
 74
     0
176
     1
 91
        4
176
     1
 64
     7
176
     1
 65
   257
176
     1
 75
     1
176
     1
175
     1
176
     1
 42
1.0
176
     1
 92
        8
176
     1
 66
     7
176
     1
 43
1.0
176
     1
 76
     1
176
     1
 77
     6
176
     1
 78
     2
176
     1
 67
     7
176
     1
 79
     5
176
     1
170
     0
176
     1
171
     0
176
     1
290
     0
176
     1
 93
        1
176
     1
 44
0.0
176
     1
173
     0
176
     1
  0
VISUALSTYLE
  5
36
102
{ACAD_REACTORS
330
2A
102
}
330
2A
100
AcDbVisualStyle
  2
Brighten
 70
    12
177
     2
291
     1
 71
     2
176
     1
 72
     2
176
     1
 73
     0
176
     1
 90
        0
176
     1
 40
-0.6
176
     1
 41
-30.0
176
     1
 62
     5
 63
     7
421
 16777215
176
     1
 74
     1
176
     1
 91
        4
176
     1
 64
     7
176
     1
 65
   257
176
     1
 75
     1
176
     1
175
     1
176
     1
 42
1.0
176
     1
 92
        8
176
     1
 66
     7
176
     1
 43
1.0
176
     1
 76
     1
176
     1
 77
     6
176
     1
 78
     2
176
     1
 67
     7
176
     1
 79
     5
176
     1
170
     0
176
     1
171
     0
176
     1
290
     0
176
     1
 93
        1
176
     1
 44
50.0
176
     1
173
     0
176
     1
  0
VISUALSTYLE
  5
3A
102
{ACAD_REACTORS
330
2A
102
}
330
2A
100
AcDbVisualStyle
  2
ColorChange
 70
    16
177
     2
291
     1
 71
     2
176
     1
 72
     2
176
     1
 73
     3
176
     1
 90
        0
176
     1
 40
-0.6
176
     1
 41
-30.0
176
     1
 62
     5
 63
     8
421
  8421504
176
     1
 74
     1
176
     1
 91
        4
176
     1
 64
     7
176
     1
 65
   257
176
     1
 75
     1
176
     1
175
     1
176
     1
 42
1.0
176
     1
 92
        8
176
     1
 66
     8
424
  8421504
176
     1
 43
1.0
176
     1
 76
     1
176
     1
 77
     6
176
     1
 78
     2
176
     1
 67
     7
176
     1
 79
     5
176
     1
170
     0
176
     1
171
     0
176
     1
290
     0
176
     1
 93
        1
176
     1
 44
0.0
176
     1
173
     0
176
     1
  0
VISUALSTYLE
  5
34
102
{ACAD_REACTORS
330
2A
102
}
330
2A
100
AcDbVisualStyle
  2
Conceptual
 70
     9
177
     2
291
     0
 71
     3
176
     1
 72
     2
176
     1
 73
     0
176
     1
 90
        0
176
     1
 40
-0.6
176
     1
 41
-30.0
176
     1
 62
     5
 63
     7
421
 16777215
176
     1
 74
     2
176
     1
 91
        2
176
     1
 64
     7
176
     1
 65
   257
176
     1
 75
     1
176
     1
175
     1
176
     1
 42
40.0
176
     1
 92
        8
176
     1
 66
     7
176
     1
 43
1.0
176
     1
 76
     1
176
     1
 77
     6
176
     1
 78
     2
176
     1
 67
     7
176
     1
 79
     3
176
     1
170
     0
176
     1
171
     0
176
     1
290
     0
176
     1
 93
        1
176
     1
 44
0.0
176
     1
173
     0
176
     1
  0
VISUALSTYLE
  5
35
102
{ACAD_REACTORS
330
2A
102
}
330
2A
100
AcDbVisualStyle
  2
Dim
 70
    11
177
     2
291
     1
 71
     2
176
     1
 72
     2
176
     1
 73
     0
176
     1
 90
        0
176
     1
 40
-0.6
176
     1
 41
-30.0
176
     1
 62
     5
 63
     7
421
 16777215
176
     1
 74
     1
176
     1
 91
        4
176
     1
 64
     7
176
     1
 65
   257
176
     1
 75
     1
176
     1
175
     1
176
     1
 42
1.0
176
     1
 92
        8
176
     1
 66
     7
176
     1
 43
1.0
176
     1
 76
     1
176
     1
 77
     6
176
     1
 78
     2
176
     1
 67
     7
176
     1
 79
     5
176
     1
170
     0
176
     1
171
     0
176
     1
290
     0
176
     1
 93
        1
176
     1
 44
-50.0
176
     1
173
     0
176
     1
  0
VISUALSTYLE
  5
39
102
{ACAD_REACTORS
330
2A
102
}
330
2A
100
AcDbVisualStyle
  2
Facepattern
 70
    15
177
     2
291
     1
 71
     2
176
     1
 72
     2
176
     1
 73
     0
176
     1
 90
        0
176
     1
 40
-0.6
176
     1
 41
-30.0
176
     1
 62
     5
 63
     7
421
 16777215
176
     1
 74
     1
176
     1
 91
        4
176
     1
 64
     7
176
     1
 65
   257
176
     1
 75
     1
176
     1
175
     1
176
     1
 42
1.0
176
     1
 92
        8
176
     1
 66
     7
176
     1
 43
1.0
176
     1
 76
     1
176
     1
 77
     6
176
     1
 78
     2
176
     1
 67
     7
176
     1
 79
     5
176
     1
170
     0
176
     1
171
     0
176
     1
290
     0
176
     1
 93
        1
176
     1
 44
0.0
176
     1
173
     0
176
     1
  0
VISUALSTYLE
  5
2B
102
{ACAD_REACTORS
330
2A
102
}
330
2A
100
AcDbVisualStyle
  2
Flat
 70
     0
177
     2
291
     1
 71
     2
176
     1
 72
     1
176
     1
 73
     1
176
     1
 90
        2
176
     1
 40
-0.6
176
     1
 41
30.0
176
     1
 62
     5
 63
     7
421
 16777215
176
     1
 74
     0
176
     1
 91
        4
176
     1
 64
     7
176
     1
 65
   257
176
     1
 75
     1
176
     1
175
     1
176
     1
 42
1.0
176
     1
 92
        8
176
     1
 66
     7
176
     1
 43
1.0
176
     1
 76
     1
176
     1
 77
     6
176
     1
 78
     2
176
     1
 67
     7
176
     1
 79
     5
176
     1
170
     0
176
     1
171
     0
176
     1
290
     0
176
     1
 93
       13
176
     1
 44
0.0
176
     1
173
     0
176
     1
  0
VISUALSTYLE
  5
2C
102
{ACAD_REACTORS
330
2A
102
}
330
2A
100
AcDbVisualStyle
  2
FlatWithEdges
 70
     1
177
     2
291
     1
 71
     2
176
     1
 72
     1
176
     1
 73
     1
176
     1
 90
        2
176
     1
 40
-0.6
176
     1
 41
30.0
176
     1
 62
     5
 63
     7
421
 16777215
176
     1
 74
     1
176
     1
 91
        4
176
     1
 64
     7
176
     1
 65
   257
176
     1
 75
     1
176
     1
175
     1
176
     1
 42
1.0
176
     1
 92
        0
176
     1
 66
   257
176
     1
 43
1.0
176
     1
 76
     1
176
     1
 77
     6
176
     1
 78
     2
176
     1
 67
     7
176
     1
 79
     5
176
     1
170
     0
176
     1
171
     0
176
     1
290
     0
176
     1
 93
       13
176
     1
 44
0.0
176
     1
173
     0
176
     1
  0
VISUALSTYLE
  5
2D
102
{ACAD_REACTORS
330
2A
102
}
330
2A
100
AcDbVisualStyle
  2
Gouraud
 70
     2
177
     2
291
     1
 71
     2
176
     1
 72
     2
176
     1
 73
     1
176
     1
 90
        2
176
     1
 40
-0.6
176
     1
 41
30.0
176
     1
 62
     5
 63
     7
421
 16777215
176
     1
 74
     0
176
     1
 91
        4
176
     1
 64
     7
176
     1
 65
   257
176
     1
 75
     1
176
     1
175
     1
176
     1
 42
1.0
176
     1
 92
        0
176
     1
 66
     7
176
     1
 43
1.0
176
     1
 76
     1
176
     1
 77
     6
176
     1
 78
     2
176
     1
 67
     7
176
     1
 79
     5
176
     1
170
     0
176
     1
171
     0
176
     1
290
     0
176
     1
 93
       13
176
     1
 44
0.0
176
     1
173
     0
176
     1
  0
VISUALSTYLE
  5
2E
102
{ACAD_REACTORS
330
2A
102
}
330
2A
100
AcDbVisualStyle
  2
GouraudWithEdges
 70
     3
177
     2
291
     1
 71
     2
176
     1
 72
     2
176
     1
 73
     1
176
     1
 90
        2
176
     1
 40
-0.6
176
     1
 41
30.0
176
     1
 62
     5
 63
     7
421
 16777215
176
     1
 74
     1
176
     1
 91
        4
176
     1
 64
     7
176
     1
 65
   257
176
     1
 75
     1
176
     1
175
     1
176
     1
 42
1.0
176
     1
 92
        0
176
     1
 66
   257
176
     1
 43
1.0
176
     1
 76
     1
176
     1
 77
     6
176
     1
 78
     2
176
     1
 67
     7
176
     1
 79
     5
176
     1
170
     0
176
     1
171
     0
176
     1
290
     0
176
     1
 93
       13
176
     1
 44
0.0
176
     1
173
     0
176
     1
  0
VISUALSTYLE
  5
38
102
{ACAD_REACTORS
330
2A
102
}
330
2A
100
AcDbVisualStyle
  2
Linepattern
 70
    14
177
     2
291
     1
 71
     2
176
     1
 72
     2
176
     1
 73
     0
176
     1
 90
        0
176
     1
 40
-0.6
176
     1
 41
-30.0
176
     1
 62
     5
 63
     7
421
 16777215
176
     1
 74
     1
176
     1
 91
        4
176
     1
 64
     7
176
     1
 65
   257
176
     1
 75
     7
176
     1
175
     7
176
     1
 42
1.0
176
     1
 92
        8
176
     1
 66
     7
176
     1
 43
1.0
176
     1
 76
     1
176
     1
 77
     6
176
     1
 78
     2
176
     1
 67
     7
176
     1
 79
     5
176
     1
170
     0
176
     1
171
     0
176
     1
290
     0
176
     1
 93
        1
176
     1
 44
0.0
176
     1
173
     0
176
     1
  0
VISUALSTYLE
  5
33
102
{ACAD_REACTORS
330
2A
102
}
330
2A
100
AcDbVisualStyle
  2
Realistic
 70
     8
177
     2
291
     0
 71
     2
176
     1
 72
     2
176
     1
 73
     0
176
     1
 90
        0
176
     1
 40
-0.6
176
     1
 41
-30.0
176
     1
 62
     5
 63
     7
421
 16777215
176
     1
 74
     1
176
     1
 91
        0
176
     1
 64
     7
176
     1
 65
   257
176
     1
 75
     1
176
     1
175
     1
176
     1
 42
1.0
176
     1
 92
        8
176
     1
 66
     8
424
  7895160
176
     1
 43
1.0
176
     1
 76
     1
176
     1
 77
     6
176
     1
 78
     2
176
     1
 67
     7
176
     1
 79
     5
176
     1
170
     0
176
     1
171
     0
176
     1
290
     0
176
     1
 93
       13
176
     1
 44
0.0
176
     1
173
     0
176
     1
  0
VISUALSTYLE
  5
37
102
{ACAD_REACTORS
330
2A
102
}
330
2A
100
AcDbVisualStyle
  2
Thicken
 70
    13
177
     2
291
     1
 71
     2
176
     1
 72
     2
176
     1
 73
     0
176
     1
 90
        0
176
     1
 40
-0.6
176
     1
 41
-30.0
176
     1
 62
     5
 63
     7
421
 16777215
176
     1
 74
     1
176
     1
 91
        4
176
     1
 64
     7
176
     1
 65
   257
176
     1
 75
     1
176
     1
175
     1
176
     1
 42
1.0
176
     1
 92
       12
176
     1
 66
     7
176
     1
 43
1.0
176
     1
 76
     1
176
     1
 77
     6
176
     1
 78
     2
176
     1
 67
     7
176
     1
 79
     5
176
     1
170
     0
176
     1
171
     0
176
     1
290
     0
176
     1
 93
        1
176
     1
 44
0.0
176
     1
173
     0
176
     1
  0
ENDSEC
  0
EOF
