  0
SECTION
  2
HEADER
  9
$ACADVER
  1
AC1024
  9
$ACADMAINTVER
 70
     6
  9
$DWGCODEPAGE
  3
UNDEFINED
  9
$INSBASE
 10
0.0
 20
0.0
 30
0.0
  9
$EXTMIN
 10
1.000000000000000E+20
 20
1.000000000000000E+20
 30
1.000000000000000E+20
  9
$EXTMAX
 10
-1.000000000000000E+20
 20
-1.000000000000000E+20
 30
-1.000000000000000E+20
  9
$LIMMIN
 10
0.0
 20
0.0
  9
$LIMMAX
 10
12.0
 20
9.0
  9
$ORTHOMODE
 70
     0
  9
$REGENMODE
 70
     1
  9
$FILLMODE
 70
     1
  9
$QTEXTMODE
 70
     0
  9
$MIRRTEXT
 70
     1
  9
$LTSCALE
 40
1.0
  9
$ATTMODE
 70
     1
  9
$TEXTSIZE
 40
0.2
  9
$TRACEWID
 40
0.05
  9
$TEXTSTYLE
  7
Standard
  9
$CLAYER
  8
0
  9
$CELTYPE
  6
ByLayer
  9
$CECOLOR
 62
   256
  9
$CELTSCALE
 40
1.0
  9
$DISPSILH
 70
     0
  9
$DIMSCALE
 40
1.0
  9
$DIMASZ
 40
0.18
  9
$DIMEXO
 40
0.0625
  9
$DIMDLI
 40
0.38
  9
$DIMRND
 40
0.0
  9
$DIMDLE
 40
0.0
  9
$DIMEXE
 40
0.18
  9
$DIMTP
 40
0.0
  9
$DIMTM
 40
0.0
  9
$DIMTXT
 40
0.18
  9
$DIMCEN
 40
0.09
  9
$DIMTSZ
 40
0.0
  9
$DIMTOL
 70
     0
  9
$DIMLIM
 70
     0
  9
$DIMTIH
 70
     1
  9
$DIMTOH
 70
     1
  9
$DIMSE1
 70
     0
  9
$DIMSE2
 70
     0
  9
$DIMTAD
 70
     0
  9
$DIMZIN
 70
     0
  9
$DIMBLK
  1

  9
$DIMASO
 70
     1
  9
$DIMSHO
 70
     1
  9
$DIMPOST
  1

  9
$DIMAPOST
  1

  9
$DIMALT
 70
     0
  9
$DIMALTD
 70
     2
  9
$DIMALTF
 40
25.4
  9
$DIMLFAC
 40
1.0
  9
$DIMTOFL
 70
     0
  9
$DIMTVP
 40
0.0
  9
$DIMTIX
 70
     0
  9
$DIMSOXD
 70
     0
  9
$DIMSAH
 70
     0
  9
$DIMBLK1
  1

  9
$DIMBLK2
  1

  9
$DIMSTYLE
  2
Standard
  9
$DIMCLRD
 70
     0
  9
$DIMCLRE
 70
     0
  9
$DIMCLRT
 70
     0
  9
$DIMTFAC
 40
1.0
  9
$DIMGAP
 40
0.09
  9
$DIMJUST
 70
     0
  9
$DIMSD1
 70
     0
  9
$DIMSD2
 70
     0
  9
$DIMTOLJ
 70
     1
  9
$DIMTZIN
 70
     0
  9
$DIMALTZ
 70
     0
  9
$DIMALTTZ
 70
     0
  9
$DIMUPT
 70
     0
  9
$DIMDEC
 70
     4
  9
$DIMTDEC
 70
     4
  9
$DIMALTU
 70
     2
  9
$DIMALTTD
 70
     2
  9
$DIMTXSTY
  7
Standard
  9
$DIMAUNIT
 70
     0
  9
$DIMADEC
 70
     0
  9
$DIMALTRND
 40
0.0
  9
$DIMAZIN
 70
     0
  9
$DIMDSEP
 70
    46
  9
$DIMATFIT
 70
     3
  9
$DIMFRAC
 70
     0
  9
$DIMLDRBLK
  1

  9
$DIMLUNIT
 70
     2
  9
$DIMLWD
 70
    -2
  9
$DIMLWE
 70
    -2
  9
$DIMTMOVE
 70
     0
  9
$DIMFXL
 40
1.0
  9
$DIMFXLON
 70
     0
  9
$DIMJOGANG
 40
0.7853981633974483
  9
$DIMTFILL
 70
     0
  9
$DIMTFILLCLR
 70
     0
  9
$DIMARCSYM
 70
     0
  9
$DIMLTYPE
  6

  9
$DIMLTEX1
  6

  9
$DIMLTEX2
  6

  9
$DIMTXTDIRECTION
 70
     0
  9
$LUNITS
 70
     2
  9
$LUPREC
 70
     4
  9
$SKETCHINC
 40
0.1
  9
$FILLETRAD
 40
0.5
  9
$AUNITS
 70
     0
  9
$AUPREC
 70
     0
  9
$MENU
  1
.
  9
$ELEVATION
 40
0.0
  9
$PELEVATION
 40
0.0
  9
$THICKNESS
 40
0.0
  9
$LIMCHECK
 70
     0
  9
$CHAMFERA
 40
0.5
  9
$CHAMFERB
 40
0.5
  9
$CHAMFERC
 40
1.0
  9
$CHAMFERD
 40
0.0
  9
$SKPOLY
 70
     0
  9
$TDCREATE
 40
2457917.583611111
  9
$TDUCREATE
 40
2457917.208611111
  9
$TDUPDATE
 40
2457917.583611111
  9
$TDUUPDATE
 40
2457917.208611111
  9
$TDINDWG
 40
0.0000000116
  9
$TDUSRTIMER
 40
0.0000000116
  9
$USRTIMER
 70
     1
  9
$ANGBASE
 50
0.0
  9
$ANGDIR
 70
     0
  9
$PDMODE
 70
     0
  9
$PDSIZE
 40
0.0
  9
$PLINEWID
 40
0.0
  9
$SPLFRAME
 70
     0
  9
$SPLINETYPE
 70
     6
  9
$SPLINESEGS
 70
     8
  9
$HANDSEED
  5
8C
  9
$SURFTAB1
 70
     6
  9
$SURFTAB2
 70
     6
  9
$SURFTYPE
 70
     6
  9
$SURFU
 70
     6
  9
$SURFV
 70
     6
  9
$UCSBASE
  2

  9
$UCSNAME
  2

  9
$UCSORG
 10
0.0
 20
0.0
 30
0.0
  9
$UCSXDIR
 10
1.0
 20
0.0
 30
0.0
  9
$UCSYDIR
 10
0.0
 20
1.0
 30
0.0
  9
$UCSORTHOREF
  2

  9
$UCSORTHOVIEW
 70
     0
  9
$UCSORGTOP
 10
0.0
 20
0.0
 30
0.0
  9
$UCSORGBOTTOM
 10
0.0
 20
0.0
 30
0.0
  9
$UCSORGLEFT
 10
0.0
 20
0.0
 30
0.0
  9
$UCSORGRIGHT
 10
0.0
 20
0.0
 30
0.0
  9
$UCSORGFRONT
 10
0.0
 20
0.0
 30
0.0
  9
$UCSORGBACK
 10
0.0
 20
0.0
 30
0.0
  9
$PUCSBASE
  2

  9
$PUCSNAME
  2

  9
$PUCSORG
 10
0.0
 20
0.0
 30
0.0
  9
$PUCSXDIR
 10
1.0
 20
0.0
 30
0.0
  9
$PUCSYDIR
 10
0.0
 20
1.0
 30
0.0
  9
$PUCSORTHOREF
  2

  9
$PUCSORTHOVIEW
 70
     0
  9
$PUCSORGTOP
 10
0.0
 20
0.0
 30
0.0
  9
$PUCSORGBOTTOM
 10
0.0
 20
0.0
 30
0.0
  9
$PUCSORGLEFT
 10
0.0
 20
0.0
 30
0.0
  9
$PUCSORGRIGHT
 10
0.0
 20
0.0
 30
0.0
  9
$PUCSORGFRONT
 10
0.0
 20
0.0
 30
0.0
  9
$PUCSORGBACK
 10
0.0
 20
0.0
 30
0.0
  9
$USERI1
 70
     0
  9
$USERI2
 70
     0
  9
$USERI3
 70
     0
  9
$USERI4
 70
     0
  9
$USERI5
 70
     0
  9
$USERR1
 40
0.0
  9
$USERR2
 40
0.0
  9
$USERR3
 40
0.0
  9
$USERR4
 40
0.0
  9
$USERR5
 40
0.0
  9
$WORLDVIEW
 70
     1
  9
$SHADEDGE
 70
     3
  9
$SHADEDIF
 70
    70
  9
$TILEMODE
 70
     1
  9
$MAXACTVP
 70
    64
  9
$PINSBASE
 10
0.0
 20
0.0
 30
0.0
  9
$PLIMCHECK
 70
     0
  9
$PEXTMIN
 10
1.000000000000000E+20
 20
1.000000000000000E+20
 30
1.000000000000000E+20
  9
$PEXTMAX
 10
-1.000000000000000E+20
 20
-1.000000000000000E+20
 30
-1.000000000000000E+20
  9
$PLIMMIN
 10
0.0
 20
0.0
  9
$PLIMMAX
 10
12.0
 20
9.0
  9
$UNITMODE
 70
     0
  9
$VISRETAIN
 70
     1
  9
$PLINEGEN
 70
     0
  9
$PSLTSCALE
 70
     1
  9
$TREEDEPTH
 70
  3020
  9
$CMLSTYLE
  2
Standard
  9
$CMLJUST
 70
     0
  9
$CMLSCALE
 40
1.0
  9
$PROXYGRAPHICS
 70
     1
  9
$MEASUREMENT
 70
     0
  9
$CELWEIGHT
370
    -1
  9
$ENDCAPS
280
     0
  9
$JOINSTYLE
280
     0
  9
$LWDISPLAY
290
     1
  9
$INSUNITS
 70
     1
  9
$HYPERLINKBASE
  1

  9
$STYLESHEET
  1

  9
$XEDIT
290
     1
  9
$CEPSNTYPE
380
     0
  9
$PSTYLEMODE
290
     1
  9
$FINGERPRINTGUID
  2
{4067139F-7390-1B03-8ACA-5343CD631CA1}
  9
$VERSIONGUID
  2
{FAEB1C32-E019-11D5-929B-00C0DF256EC4}
  9
$EXTNAMES
290
     1
  9
$PSVPSCALE
 40
0.0
  9
$OLESTARTUP
290
     0
  9
$SORTENTS
280
   127
  9
$INDEXCTL
280
     0
  9
$HIDETEXT
280
     1
  9
$XCLIPFRAME
280
     2
  9
$HALOGAP
280
     0
  9
$OBSCOLOR
 70
   257
  9
$OBSLTYPE
280
     0
  9
$INTERSECTIONDISPLAY
280
     0
  9
$INTERSECTIONCOLOR
 70
   257
  9
$DIMASSOC
280
     2
  9
$PROJECTNAME
  1

  9
$CAMERADISPLAY
290
     0
  9
$LENSLENGTH
 40
50.0
  9
$CAMERAHEIGHT
 40
0.0
  9
$STEPSPERSEC
 40
2.0
  9
$STEPSIZE
 40
6.0
  9
$3DDWFPREC
 40
2.0
  9
$PSOLWIDTH
 40
0.25
  9
$PSOLHEIGHT
 40
4.0
  9
$LOFTANG1
 40
1.570796326794897
  9
$LOFTANG2
 40
1.570796326794897
  9
$LOFTMAG1
 40
0.0
  9
$LOFTMAG2
 40
0.0
  9
$LOFTPARAM
 70
     7
  9
$LOFTNORMALS
280
     1
  9
$LATITUDE
 40
37.795
  9
$LONGITUDE
 40
-122.394
  9
$NORTHDIRECTION
 40
0.0
  9
$TIMEZONE
 70
 -8000
  9
$LIGHTGLYPHDISPLAY
280
     1
  9
$TILEMODELIGHTSYNCH
280
     1
  9
$CMATERIAL
347
3C
  9
$SOLIDHIST
280
     1
  9
$SHOWHIST
280
     1
  9
$DWFFRAME
280
     2
  9
$DGNFRAME
280
     2
  9
$REALWORLDSCALE
290
     1
  9
$INTERFERECOLOR
 62
   256
  9
$CSHADOW
280
     0
  9
$SHADOWPLANELOCATION
 40
0.0
  0
ENDSEC
  0
SECTION
  2
CLASSES
  0
CLASS
  1
ACDBDICTIONARYWDFLT
  2
AcDbDictionaryWithDefault
  3
ObjectDBX Classes
 90
        0
 91
        4
280
     0
281
     0
  0
CLASS
  1
VISUALSTYLE
  2
AcDbVisualStyle
  3
ObjectDBX Classes
 90
     4095
 91
        4
280
     0
281
     0
  0
CLASS
  1
MATERIAL
  2
AcDbMaterial
  3
ObjectDBX Classes
 90
     1153
 91
        4
280
     0
281
     0
  0
CLASS
  1
SUN
  2
AcDbSun
  3
SCENEOE
 90
     1024
 91
        4
280
     0
281
     0
  0
ENDSEC
  0
SECTION
  2
TABLES
  0
TABLE
  2
VPORT
  5
8
330
0
100
AcDbSymbolTable
 70
     1
  0
VPORT
  5
29
330
8
100
AcDbSymbolTableRecord
100
AcDbViewportTableRecord
  2
*Active
 70
     0
 10
0.0
 20
0.0
 11
1.0
 21
1.0
 12
0.0
 22
0.0
 13
0.0
 23
0.0
 14
0.5
 24
0.5
 15
0.5
 25
0.5
 16
0.0
 26
0.0
 36
1.0
 17
91.00082462281999
 27
-128.4993055234307
 37
0.0
 40
256.9986110468615
 41
0.7081814508812795
 42
50.0
 43
0.0
 44
0.0
 50
0.0
 51
0.0
 71
     0
 72
   100
 73
     1
 74
     3
 75
     0
 76
     0
 77
     0
 78
     0
281
     0
 65
     1
110
0.0
120
0.0
130
0.0
111
1.0
121
0.0
131
0.0
112
0.0
122
1.0
132
0.0
 79
     0
146
0.0
 60
     3
 61
     5
292
     1
282
     1
141
0.0
142
0.0
 63
   250
361
3F
  0
ENDTAB
  0
TABLE
  2
LTYPE
  5
5
330
0
100
AcDbSymbolTable
 70
     1
  0
LTYPE
  5
14
330
5
100
AcDbSymbolTableRecord
100
AcDbLinetypeTableRecord
  2
ByBlock
 70
     0
  3

 72
    65
 73
     0
 40
0.0
  0
LTYPE
  5
15
330
5
100
AcDbSymbolTableRecord
100
AcDbLinetypeTableRecord
  2
ByLayer
 70
     0
  3

 72
    65
 73
     0
 40
0.0
  0
LTYPE
  5
16
330
5
100
AcDbSymbolTableRecord
100
AcDbLinetypeTableRecord
  2
Continuous
 70
     0
  3
Solid line
 72
    65
 73
     0
 40
0.0
  0
ENDTAB
  0
TABLE
  2
LAYER
  5
2
330
0
100
AcDbSymbolTable
 70
     2
  0
LAYER
  5
10
330
2
100
AcDbSymbolTableRecord
100
AcDbLayerTableRecord
  2
0
 70
     0
 62
     7
  6
Continuous
370
    -3
390
F
347
3E
  0
LAYER
  5
40
330
2
100
AcDbSymbolTableRecord
100
AcDbLayerTableRecord
  2
_U+30EC_U+30A4_U+30E4_U+30FC 1
 70
     0
 62
     7
  6
Continuous
370
    -3
390
F
347
3E
  0
ENDTAB
  0
TABLE
  2
STYLE
  5
3
330
0
100
AcDbSymbolTable
 70
     1
  0
STYLE
  5
11
330
3
100
AcDbSymbolTableRecord
100
AcDbTextStyleTableRecord
  2
Standard
 70
     0
 40
0.0
 41
1.0
 50
0.0
 71
     0
 42
0.2
  3
txt
  4

  0
ENDTAB
  0
TABLE
  2
VIEW
  5
6
330
0
100
AcDbSymbolTable
 70
     0
  0
ENDTAB
  0
TABLE
  2
UCS
  5
7
330
0
100
AcDbSymbolTable
 70
     0
  0
ENDTAB
  0
TABLE
  2
APPID
  5
9
330
0
100
AcDbSymbolTable
 70
     1
  0
APPID
  5
12
330
9
100
AcDbSymbolTableRecord
100
AcDbRegAppTableRecord
  2
ACAD
 70
     0
  0
ENDTAB
  0
TABLE
  2
DIMSTYLE
  5
A
330
0
100
AcDbSymbolTable
 70
     1
100
AcDbDimStyleTable
  0
DIMSTYLE
105
27
330
A
100
AcDbSymbolTableRecord
100
AcDbDimStyleTableRecord
  2
Standard
 70
     0
178
     0
340
11
  0
ENDTAB
  0
TABLE
  2
BLOCK_RECORD
  5
1
330
0
100
AcDbSymbolTable
 70
     4
  0
BLOCK_RECORD
  5
1F
330
1
100
AcDbSymbolTableRecord
100
AcDbBlockTableRecord
  2
*Model_Space
340
22
 70
     0
280
     1
281
     0
  0
BLOCK_RECORD
  5
1B
330
1
100
AcDbSymbolTableRecord
100
AcDbBlockTableRecord
  2
*Paper_Space
340
1E
 70
     0
280
     1
281
     0
  0
BLOCK_RECORD
  5
23
330
1
100
AcDbSymbolTableRecord
100
AcDbBlockTableRecord
  2
*Paper_Space0
340
26
 70
     0
280
     1
281
     0
  0
BLOCK_RECORD
  5
41
330
1
100
AcDbSymbolTableRecord
100
AcDbBlockTableRecord
  2
block 2
340
0
102
{BLKREFS
331
42
102
}
 70
     0
280
     1
281
     0
  0
BLOCK_RECORD
  5
6E
330
1
100
AcDbSymbolTableRecord
100
AcDbBlockTableRecord
  2
block 3
340
0
102
{BLKREFS
331
6F
102
}
 70
     0
280
     1
281
     0
  0
BLOCK_RECORD
  5
82
330
1
100
AcDbSymbolTableRecord
100
AcDbBlockTableRecord
  2
block 4
340
0
102
{BLKREFS
331
83
102
}
 70
     0
280
     1
281
     0
  0
ENDTAB
  0
ENDSEC
  0
SECTION
  2
BLOCKS
  0
BLOCK
  5
20
330
1F
100
AcDbEntity
  8
0
100
AcDbBlockBegin
  2
*Model_Space
 70
     0
 10
0.0
 20
0.0
 30
0.0
  3
*Model_Space
  1

  0
ENDBLK
  5
21
330
1F
100
AcDbEntity
  8
0
100
AcDbBlockEnd
  0
BLOCK
  5
1C
330
1B
100
AcDbEntity
 67
     1
  8
0
100
AcDbBlockBegin
  2
*Paper_Space
 70
     0
 10
0.0
 20
0.0
 30
0.0
  3
*Paper_Space
  1

  0
ENDBLK
  5
1D
330
1B
100
AcDbEntity
 67
     1
  8
0
100
AcDbBlockEnd
  0
BLOCK
  5
24
330
23
100
AcDbEntity
  8
0
100
AcDbBlockBegin
  2
*Paper_Space0
 70
     0
 10
0.0
 20
0.0
 30
0.0
  3
*Paper_Space0
  1

  0
ENDBLK
  5
25
330
23
100
AcDbEntity
  8
0
100
AcDbBlockEnd
  0
BLOCK
  5
43
330
41
100
AcDbEntity
  8
0
100
AcDbBlockBegin
  2
block 2
 70
     0
 10
0.0
 20
0.0
 30
0.0
  3
block 2
  1

  0
POLYLINE
  5
45
330
41
100
AcDbEntity
  8
_U+30EC_U+30A4_U+30E4_U+30FC 1
 62
   179
420
  2234388
370
    25
100
AcDb2dPolyline
 66
     1
 10
0.0
 20
0.0
 30
0.0
  0
VERTEX
  5
46
330
45
100
AcDbEntity
  8
_U+30EC_U+30A4_U+30E4_U+30FC 1
 62
   179
420
  2234388
370
    25
100
AcDbVertex
100
AcDb2dVertex
 10
78.22638883761189
 20
-142.6007857976832
 30
0.0
  0
VERTEX
  5
47
330
45
100
AcDbEntity
  8
_U+30EC_U+30A4_U+30E4_U+30FC 1
 62
   179
420
  2234388
370
    25
100
AcDbVertex
100
AcDb2dVertex
 10
111.7678640930087
 20
-142.6007857976832
 30
0.0
  0
SEQEND
  5
48
330
45
100
AcDbEntity
  8
_U+30EC_U+30A4_U+30E4_U+30FC 1
 62
   179
420
  2234388
370
    25
  0
POLYLINE
  5
49
330
41
100
AcDbEntity
  8
_U+30EC_U+30A4_U+30E4_U+30FC 1
 62
   179
420
  2234388
370
    25
100
AcDb2dPolyline
 66
     1
 10
0.0
 20
0.0
 30
0.0
  0
VERTEX
  5
4A
330
49
100
AcDbEntity
  8
_U+30EC_U+30A4_U+30E4_U+30FC 1
 62
   179
420
  2234388
370
    25
100
AcDbVertex
100
AcDb2dVertex
 10
78.86752715458842
 20
-108.6005927506275
 30
0.0
  0
VERTEX
  5
4B
330
49
100
AcDbEntity
  8
_U+30EC_U+30A4_U+30E4_U+30FC 1
 62
   179
420
  2234388
370
    25
100
AcDbVertex
100
AcDb2dVertex
 10
79.26785936659732
 20
-108.6005927506275
 30
0.0
  0
SEQEND
  5
4C
330
49
100
AcDbEntity
  8
_U+30EC_U+30A4_U+30E4_U+30FC 1
 62
   179
420
  2234388
370
    25
  0
POLYLINE
  5
4D
330
41
100
AcDbEntity
  8
_U+30EC_U+30A4_U+30E4_U+30FC 1
 62
   179
420
  2234388
370
    25
100
AcDb2dPolyline
 66
     1
 10
0.0
 20
0.0
 30
0.0
  0
VERTEX
  5
4E
330
4D
100
AcDbEntity
  8
_U+30EC_U+30A4_U+30E4_U+30FC 1
 62
   179
420
  2234388
370
    25
100
AcDbVertex
100
AcDb2dVertex
 10
78.22638883761189
 20
-142.6007857976832
 30
0.0
  0
VERTEX
  5
4F
330
4D
100
AcDbEntity
  8
_U+30EC_U+30A4_U+30E4_U+30FC 1
 62
   179
420
  2234388
370
    25
100
AcDbVertex
100
AcDb2dVertex
 10
79.26785936659732
 20
-108.6005927506275
 30
0.0
  0
SEQEND
  5
50
330
4D
100
AcDbEntity
  8
_U+30EC_U+30A4_U+30E4_U+30FC 1
 62
   179
420
  2234388
370
    25
  0
POLYLINE
  5
51
330
41
100
AcDbEntity
  8
_U+30EC_U+30A4_U+30E4_U+30FC 1
 62
   179
420
  2234388
370
    25
100
AcDb2dPolyline
 66
     1
 10
0.0
 20
0.0
 30
0.0
  0
VERTEX
  5
52
330
51
100
AcDbEntity
  8
_U+30EC_U+30A4_U+30E4_U+30FC 1
 62
   179
420
  2234388
370
    25
100
AcDbVertex
100
AcDb2dVertex
 10
78.86752715458842
 20
-108.6005927506275
 30
0.0
  0
VERTEX
  5
53
330
51
100
AcDbEntity
  8
_U+30EC_U+30A4_U+30E4_U+30FC 1
 62
   179
420
  2234388
370
    25
100
AcDbVertex
100
AcDb2dVertex
 10
76.7691344303451
 20
-142.7516688532011
 30
0.0
  0
SEQEND
  5
54
330
51
100
AcDbEntity
  8
_U+30EC_U+30A4_U+30E4_U+30FC 1
 62
   179
420
  2234388
370
    25
  0
POLYLINE
  5
55
330
41
100
AcDbEntity
  8
_U+30EC_U+30A4_U+30E4_U+30FC 1
 62
   179
420
  2234388
370
    25
100
AcDb2dPolyline
 66
     1
 10
0.0
 20
0.0
 30
0.0
  0
VERTEX
  5
56
330
55
100
AcDbEntity
  8
_U+30EC_U+30A4_U+30E4_U+30FC 1
 62
   179
420
  2234388
370
    25
100
AcDbVertex
100
AcDb2dVertex
 10
111.7678640930087
 20
-142.6007857976832
 30
0.0
  0
VERTEX
  5
57
330
55
100
AcDbEntity
  8
_U+30EC_U+30A4_U+30E4_U+30FC 1
 62
   179
420
  2234388
370
    25
100
AcDbVertex
100
AcDb2dVertex
 10
111.7678640930087
 20
-143.0004124642498
 30
0.0
  0
SEQEND
  5
58
330
55
100
AcDbEntity
  8
_U+30EC_U+30A4_U+30E4_U+30FC 1
 62
   179
420
  2234388
370
    25
  0
POLYLINE
  5
59
330
41
100
AcDbEntity
  8
_U+30EC_U+30A4_U+30E4_U+30FC 1
 62
   179
420
  2234388
370
    25
100
AcDb2dPolyline
 66
     1
 10
0.0
 20
0.0
 30
0.0
  0
VERTEX
  5
5A
330
59
100
AcDbEntity
  8
_U+30EC_U+30A4_U+30E4_U+30FC 1
 62
   179
420
  2234388
370
    25
100
AcDbVertex
100
AcDb2dVertex
 10
111.7678640930087
 20
-143.0004124642498
 30
0.0
  0
VERTEX
  5
5B
330
59
100
AcDbEntity
  8
_U+30EC_U+30A4_U+30E4_U+30FC 1
 62
   179
420
  2234388
370
    25
100
AcDbVertex
100
AcDb2dVertex
 10
77.58147775838248
 20
-143.6005227418776
 30
0.0
  0
SEQEND
  5
5C
330
59
100
AcDbEntity
  8
_U+30EC_U+30A4_U+30E4_U+30FC 1
 62
   179
420
  2234388
370
    25
  0
SPLINE
  5
5D
330
41
100
AcDbEntity
  8
_U+30EC_U+30A4_U+30E4_U+30FC 1
 62
   179
420
  2234388
370
    25
100
AcDbSpline
210
0.0
220
0.0
230
1.0
 70
     8
 71
     3
 72
    11
 73
     7
 74
     0
 42
0.0000000001
 43
0.0000000001
 12
1.0
 22
0.0
 32
0.0
 13
1.0
 23
0.0
 33
0.0
 40
0.0
 40
0.0
 40
0.0
 40
0.0
 40
1.0
 40
1.0
 40
1.0
 40
2.0
 40
2.0
 40
2.0
 40
2.0
 10
76.7691344303451
 20
-142.7516688532011
 30
0.0
 10
76.74189998659547
 20
-143.1926410753131
 30
0.0
 10
77.07746220025679
 20
-143.5723005196625
 30
0.0
 10
77.51843441122887
 20
-143.5991469085447
 30
0.0
 10
77.53945996624802
 20
-143.6005227418776
 30
0.0
 10
77.56045024349028
 20
-143.6005227418776
 30
0.0
 10
77.58147775838248
 20
-143.6005227418776
 30
0.0
  0
SPLINE
  5
5E
330
41
100
AcDbEntity
  8
_U+30EC_U+30A4_U+30E4_U+30FC 1
 62
   179
420
  2234388
370
     9
100
AcDbSpline
210
0.0
220
0.0
230
1.0
 70
    11
 71
     3
 72
    17
 73
    13
 74
     0
 42
0.0000000001
 43
0.0000000001
 12
1.0
 22
0.0
 32
0.0
 13
1.0
 23
0.0
 33
0.0
 40
0.0
 40
0.0
 40
0.0
 40
0.0
 40
1.0
 40
1.0
 40
1.0
 40
2.0
 40
2.0
 40
2.0
 40
3.0
 40
3.0
 40
3.0
 40
4.0
 40
4.0
 40
4.0
 40
4.0
 10
72.86755341877162
 20
-143.6005227418776
 30
0.0
 10
72.86755341877162
 20
-143.5454188530027
 30
0.0
 10
72.82278591991373
 20
-143.500616075236
 30
0.0
 10
72.767293976885
 20
-143.500616075236
 30
0.0
 10
72.71219008940193
 20
-143.500616075236
 30
0.0
 10
72.66738731276716
 20
-143.5454188530027
 30
0.0
 10
72.66738731276716
 20
-143.6005227418776
 30
0.0
 10
72.66738731276716
 20
-143.6556619085307
 30
0.0
 10
72.71219008940193
 20
-143.7004294085193
 30
0.0
 10
72.767293976885
 20
-143.7004294085193
 30
0.0
 10
72.82278591991373
 20
-143.7004294085193
 30
0.0
 10
72.86755341877162
 20
-143.6556619085307
 30
0.0
 10
72.86755341877162
 20
-143.6005227418776
 30
0.0
  0
SPLINE
  5
5F
330
41
100
AcDbEntity
  8
_U+30EC_U+30A4_U+30E4_U+30FC 1
 62
   179
420
  2234388
370
     9
100
AcDbSpline
210
0.0
220
0.0
230
1.0
 70
    11
 71
     3
 72
    17
 73
    13
 74
     0
 42
0.0000000001
 43
0.0000000001
 12
1.0
 22
0.0
 32
0.0
 13
1.0
 23
0.0
 33
0.0
 40
0.0
 40
0.0
 40
0.0
 40
0.0
 40
1.0
 40
1.0
 40
1.0
 40
2.0
 40
2.0
 40
2.0
 40
3.0
 40
3.0
 40
3.0
 40
4.0
 40
4.0
 40
4.0
 40
4.0
 10
76.8676652611647
 20
-147.6002819075445
 30
0.0
 10
76.8676652611647
 20
-147.5451780186696
 30
0.0
 10
76.82286248452994
 20
-147.5003752409029
 30
0.0
 10
76.76775859704686
 20
-147.5003752409029
 30
0.0
 10
76.71226665401814
 20
-147.5003752409029
 30
0.0
 10
76.66749915516026
 20
-147.5451780186696
 30
0.0
 10
76.66749915516026
 20
-147.6002819075445
 30
0.0
 10
76.66749915516026
 20
-147.6560913519749
 30
0.0
 10
76.71226665401814
 20
-147.7008941297417
 30
0.0
 10
76.76775859704686
 20
-147.7008941297417
 30
0.0
 10
76.82286248452994
 20
-147.7008941297417
 30
0.0
 10
76.8676652611647
 20
-147.6560913519749
 30
0.0
 10
76.8676652611647
 20
-147.6002819075445
 30
0.0
  0
SPLINE
  5
60
330
41
100
AcDbEntity
  8
_U+30EC_U+30A4_U+30E4_U+30FC 1
 62
   179
420
  2234388
370
     9
100
AcDbSpline
210
0.0
220
0.0
230
1.0
 70
    11
 71
     3
 72
    17
 73
    13
 74
     0
 42
0.0000000001
 43
0.0000000001
 12
1.0
 22
0.0
 32
0.0
 13
1.0
 23
0.0
 33
0.0
 40
0.0
 40
0.0
 40
0.0
 40
0.0
 40
1.0
 40
1.0
 40
1.0
 40
2.0
 40
2.0
 40
2.0
 40
3.0
 40
3.0
 40
3.0
 40
4.0
 40
4.0
 40
4.0
 40
4.0
 10
72.86755341877162
 20
-108.6005927506275
 30
0.0
 10
72.86755341877162
 20
-108.5454888617526
 30
0.0
 10
72.82278591991373
 20
-108.5006860839858
 30
0.0
 10
72.767293976885
 20
-108.5006860839858
 30
0.0
 10
72.71219008940193
 20
-108.5006860839858
 30
0.0
 10
72.66738731276716
 20
-108.5454888617526
 30
0.0
 10
72.66738731276716
 20
-108.6005927506275
 30
0.0
 10
72.66738731276716
 20
-108.6557319172805
 30
0.0
 10
72.71219008940193
 20
-108.7004994172694
 30
0.0
 10
72.767293976885
 20
-108.7004994172694
 30
0.0
 10
72.82278591991373
 20
-108.7004994172694
 30
0.0
 10
72.86755341877162
 20
-108.6557319172805
 30
0.0
 10
72.86755341877162
 20
-108.6005927506275
 30
0.0
  0
SPLINE
  5
61
330
41
100
AcDbEntity
  8
_U+30EC_U+30A4_U+30E4_U+30FC 1
 62
   179
420
  2234388
370
     9
100
AcDbSpline
210
0.0
220
0.0
230
1.0
 70
    11
 71
     3
 72
    17
 73
    13
 74
     0
 42
0.0000000001
 43
0.0000000001
 12
1.0
 22
0.0
 32
0.0
 13
1.0
 23
0.0
 33
0.0
 40
0.0
 40
0.0
 40
0.0
 40
0.0
 40
1.0
 40
1.0
 40
1.0
 40
2.0
 40
2.0
 40
2.0
 40
3.0
 40
3.0
 40
3.0
 40
4.0
 40
4.0
 40
4.0
 40
4.0
 10
111.8677707571265
 20
-147.6002819075445
 30
0.0
 10
111.8677707571265
 20
-147.5451780186696
 30
0.0
 10
111.8229679804918
 20
-147.5003752409029
 30
0.0
 10
111.7678640930087
 20
-147.5003752409029
 30
0.0
 10
111.7127277498493
 20
-147.5003752409029
 30
0.0
 10
111.6679574288908
 20
-147.5451780186696
 30
0.0
 10
111.6679574288908
 20
-147.6002819075445
 30
0.0
 10
111.6679574288908
 20
-147.6560913519749
 30
0.0
 10
111.7127277498493
 20
-147.7008941297417
 30
0.0
 10
111.7678640930087
 20
-147.7008941297417
 30
0.0
 10
111.8229679804918
 20
-147.7008941297417
 30
0.0
 10
111.8677707571265
 20
-147.6560913519749
 30
0.0
 10
111.8677707571265
 20
-147.6002819075445
 30
0.0
  0
POLYLINE
  5
62
330
41
100
AcDbEntity
  8
_U+30EC_U+30A4_U+30E4_U+30FC 1
 62
   179
420
  2234388
370
     9
100
AcDb2dPolyline
 66
     1
 10
0.0
 20
0.0
 30
0.0
  0
VERTEX
  5
63
330
62
100
AcDbEntity
  8
_U+30EC_U+30A4_U+30E4_U+30FC 1
 62
   179
420
  2234388
370
     9
100
AcDbVertex
100
AcDb2dVertex
 10
72.767293976885
 20
-108.6005927506275
 30
0.0
  0
VERTEX
  5
64
330
62
100
AcDbEntity
  8
_U+30EC_U+30A4_U+30E4_U+30FC 1
 62
   179
420
  2234388
370
     9
100
AcDbVertex
100
AcDb2dVertex
 10
72.767293976885
 20
-143.6005227418776
 30
0.0
  0
SEQEND
  5
65
330
62
100
AcDbEntity
  8
_U+30EC_U+30A4_U+30E4_U+30FC 1
 62
   179
420
  2234388
370
     9
  0
POLYLINE
  5
66
330
41
100
AcDbEntity
  8
_U+30EC_U+30A4_U+30E4_U+30FC 1
 62
   179
420
  2234388
370
     9
100
AcDb2dPolyline
 66
     1
 10
0.0
 20
0.0
 30
0.0
  0
VERTEX
  5
67
330
66
100
AcDbEntity
  8
_U+30EC_U+30A4_U+30E4_U+30FC 1
 62
   179
420
  2234388
370
     9
100
AcDbVertex
100
AcDb2dVertex
 10
76.32745666383546
 20
-108.6005927506275
 30
0.0
  0
VERTEX
  5
68
330
66
100
AcDbEntity
  8
_U+30EC_U+30A4_U+30E4_U+30FC 1
 62
   179
420
  2234388
370
     9
100
AcDbVertex
100
AcDb2dVertex
 10
71.76752178016909
 20
-108.6005927506275
 30
0.0
  0
SEQEND
  5
69
330
66
100
AcDbEntity
  8
_U+30EC_U+30A4_U+30E4_U+30FC 1
 62
   179
420
  2234388
370
     9
  0
POLYLINE
  5
6A
330
41
100
AcDbEntity
  8
_U+30EC_U+30A4_U+30E4_U+30FC 1
 62
   179
420
  2234388
370
     9
100
AcDb2dPolyline
 66
     1
 10
0.0
 20
0.0
 30
0.0
  0
VERTEX
  5
6B
330
6A
100
AcDbEntity
  8
_U+30EC_U+30A4_U+30E4_U+30FC 1
 62
   179
420
  2234388
370
     9
100
AcDbVertex
100
AcDb2dVertex
 10
75.02764697477414
 20
-143.6005227418776
 30
0.0
  0
VERTEX
  5
6C
330
6A
100
AcDbEntity
  8
_U+30EC_U+30A4_U+30E4_U+30FC 1
 62
   179
420
  2234388
370
     9
100
AcDbVertex
100
AcDb2dVertex
 10
71.76752178016909
 20
-143.6005227418776
 30
0.0
  0
SEQEND
  5
6D
330
6A
100
AcDbEntity
  8
_U+30EC_U+30A4_U+30E4_U+30FC 1
 62
   179
420
  2234388
370
     9
  0
INSERT
  5
6F
330
41
100
AcDbEntity
  8
_U+30EC_U+30A4_U+30E4_U+30FC 1
100
AcDbBlockReference
  2
block 3
 10
0.0
 20
0.0
 30
0.0
  0
POLYLINE
  5
76
330
41
100
AcDbEntity
  8
_U+30EC_U+30A4_U+30E4_U+30FC 1
 62
   179
420
  2234388
370
     9
100
AcDb2dPolyline
 66
     1
 10
0.0
 20
0.0
 30
0.0
  0
VERTEX
  5
77
330
76
100
AcDbEntity
  8
_U+30EC_U+30A4_U+30E4_U+30FC 1
 62
   179
420
  2234388
370
     9
100
AcDbVertex
100
AcDb2dVertex
 10
111.7678640930087
 20
-147.6002819075445
 30
0.0
  0
VERTEX
  5
78
330
76
100
AcDbEntity
  8
_U+30EC_U+30A4_U+30E4_U+30FC 1
 62
   179
420
  2234388
370
     9
100
AcDbVertex
100
AcDb2dVertex
 10
76.76775859704686
 20
-147.6002819075445
 30
0.0
  0
SEQEND
  5
79
330
76
100
AcDbEntity
  8
_U+30EC_U+30A4_U+30E4_U+30FC 1
 62
   179
420
  2234388
370
     9
  0
POLYLINE
  5
7A
330
41
100
AcDbEntity
  8
_U+30EC_U+30A4_U+30E4_U+30FC 1
 62
   179
420
  2234388
370
     9
100
AcDb2dPolyline
 66
     1
 10
0.0
 20
0.0
 30
0.0
  0
VERTEX
  5
7B
330
7A
100
AcDbEntity
  8
_U+30EC_U+30A4_U+30E4_U+30FC 1
 62
   179
420
  2234388
370
     9
100
AcDbVertex
100
AcDb2dVertex
 10
111.7678640930087
 20
-145.5408005191703
 30
0.0
  0
VERTEX
  5
7C
330
7A
100
AcDbEntity
  8
_U+30EC_U+30A4_U+30E4_U+30FC 1
 62
   179
420
  2234388
370
     9
100
AcDbVertex
100
AcDb2dVertex
 10
111.7678640930087
 20
-148.6007596850719
 30
0.0
  0
SEQEND
  5
7D
330
7A
100
AcDbEntity
  8
_U+30EC_U+30A4_U+30E4_U+30FC 1
 62
   179
420
  2234388
370
     9
  0
POLYLINE
  5
7E
330
41
100
AcDbEntity
  8
_U+30EC_U+30A4_U+30E4_U+30FC 1
 62
   179
420
  2234388
370
     9
100
AcDb2dPolyline
 66
     1
 10
0.0
 20
0.0
 30
0.0
  0
VERTEX
  5
7F
330
7E
100
AcDbEntity
  8
_U+30EC_U+30A4_U+30E4_U+30FC 1
 62
   179
420
  2234388
370
     9
100
AcDbVertex
100
AcDb2dVertex
 10
76.76775859704686
 20
-145.3403169081097
 30
0.0
  0
VERTEX
  5
80
330
7E
100
AcDbEntity
  8
_U+30EC_U+30A4_U+30E4_U+30FC 1
 62
   179
420
  2234388
370
     9
100
AcDbVertex
100
AcDb2dVertex
 10
76.76775859704686
 20
-148.6007596850719
 30
0.0
  0
SEQEND
  5
81
330
7E
100
AcDbEntity
  8
_U+30EC_U+30A4_U+30E4_U+30FC 1
 62
   179
420
  2234388
370
     9
  0
INSERT
  5
83
330
41
100
AcDbEntity
  8
_U+30EC_U+30A4_U+30E4_U+30FC 1
100
AcDbBlockReference
  2
block 4
 10
0.0
 20
0.0
 30
0.0
  0
ENDBLK
  5
44
330
41
100
AcDbEntity
  8
0
100
AcDbBlockEnd
  0
BLOCK
  5
70
330
6E
100
AcDbEntity
  8
0
100
AcDbBlockBegin
  2
block 3
 70
     0
 10
0.0
 20
0.0
 30
0.0
  3
block 3
  1

  0
SPLINE
  5
72
330
6E
100
AcDbEntity
  8
_U+30EC_U+30A4_U+30E4_U+30FC 1
370
     0
100
AcDbSpline
210
0.0
220
0.0
230
1.0
 70
    11
 71
     3
 72
    62
 73
    58
 74
     0
 42
0.0000000001
 43
0.0000000001
 12
1.0
 22
0.0
 32
0.0
 13
1.0
 23
0.0
 33
0.0
 40
0.0
 40
0.0
 40
0.0
 40
0.0
 40
1.0
 40
1.0
 40
1.0
 40
2.0
 40
2.0
 40
2.0
 40
3.0
 40
3.0
 40
3.0
 40
4.0
 40
4.0
 40
4.0
 40
5.0
 40
5.0
 40
5.0
 40
6.0
 40
6.0
 40
6.0
 40
7.0
 40
7.0
 40
7.0
 40
8.0
 40
8.0
 40
8.0
 40
9.0
 40
9.0
 40
9.0
 40
10.0
 40
10.0
 40
10.0
 40
11.0
 40
11.0
 40
11.0
 40
12.0
 40
12.0
 40
12.0
 40
13.0
 40
13.0
 40
13.0
 40
14.0
 40
14.0
 40
14.0
 40
15.0
 40
15.0
 40
15.0
 40
16.0
 40
16.0
 40
16.0
 40
17.0
 40
17.0
 40
17.0
 40
18.0
 40
18.0
 40
18.0
 40
19.0
 40
19.0
 40
19.0
 40
19.0
 10
72.10515948718205
 20
-126.7333495776917
 30
0.0
 10
72.10515948718205
 20
-126.8349798945065
 30
0.0
 10
72.08397214994775
 20
-127.0678683493094
 30
0.0
 10
71.89776473897001
 20
-127.2011935445886
 30
0.0
 10
71.78562688092512
 20
-127.2804307407493
 30
0.0
 10
71.68623587617567
 20
-127.2849093648802
 30
0.0
 10
71.60165878201278
 20
-127.289387989011
 30
0.0
 10
71.60165878201278
 20
-127.289387989011
 30
0.0
 10
71.60165878201278
 20
-127.054432476917
 30
0.0
 10
71.60165878201278
 20
-127.054432476917
 30
0.0
 10
71.67572833494566
 20
-127.0520209100773
 30
0.0
 10
71.91051159226544
 20
-127.040652094976
 30
0.0
 10
71.91051159226544
 20
-126.7378282018225
 30
0.0
 10
71.91051159226544
 20
-126.5907226246023
 30
0.0
 10
71.84074840868912
 20
-126.4281141176985
 30
0.0
 10
71.61216632324279
 20
-126.4281141176985
 30
0.0
 10
71.49589435061561
 20
-126.4281141176985
 30
0.0
 10
71.44714624949933
 20
-126.4687662444245
 30
0.0
 10
71.41545137103503
 20
-126.5025281801799
 30
0.0
 10
71.34138181810216
 20
-126.5817653763407
 30
0.0
 10
71.328807219581
 20
-126.7061333233582
 30
0.0
 10
71.328807219581
 20
-126.765044456156
 30
0.0
 10
71.328807219581
 20
-126.7853705195189
 30
0.0
 10
71.33087427687215
 20
-126.8236110794052
 30
0.0
 10
71.33500839145445
 20
-126.8532389005784
 30
0.0
 10
71.33500839145445
 20
-126.8532389005784
 30
0.0
 10
71.1405327513121
 20
-126.8532389005784
 30
0.0
 10
71.1405327513121
 20
-126.8532389005784
 30
0.0
 10
71.14673392318554
 20
-126.8125867738524
 30
0.0
 10
71.14897323525095
 20
-126.7671115134471
 30
0.0
 10
71.14897323525095
 20
-126.7605658320251
 30
0.0
 10
71.14897323525095
 20
-126.690285884126
 30
0.0
 10
71.12778589801667
 20
-126.4777234926861
 30
0.0
 10
70.89076332863148
 20
-126.4777234926861
 30
0.0
 10
70.71316865636685
 20
-126.4777234926861
 30
0.0
 10
70.65804712860285
 20
-126.6179388789358
 30
0.0
 10
70.65804712860285
 20
-126.7354166349828
 30
0.0
 10
70.65804712860285
 20
-127.0182589743218
 30
0.0
 10
70.89076332863148
 20
-127.0272162225835
 30
0.0
 10
70.9627658242732
 20
-127.0316948467143
 30
0.0
 10
70.9627658242732
 20
-127.0316948467143
 30
0.0
 10
70.9627658242732
 20
-127.248735862285
 30
0.0
 10
70.9627658242732
 20
-127.248735862285
 30
0.0
 10
70.83788111293289
 20
-127.2397786140234
 30
0.0
 10
70.46133217639509
 20
-127.2104953023988
 30
0.0
 10
70.46133217639509
 20
-126.7219807625903
 30
0.0
 10
70.46133217639509
 20
-126.4822021168169
 30
0.0
 10
70.58828394502655
 20
-126.2245089745203
 30
0.0
 10
70.88438990198377
 20
-126.2245089745203
 30
0.0
 10
71.07059731296152
 20
-126.2245089745203
 30
0.0
 10
71.15310734983325
 20
-126.3264838008837
 30
0.0
 10
71.2144300494707
 20
-126.4325927418294
 30
0.0
 10
71.2419908133527
 20
-126.3671359276096
 30
0.0
 10
71.32243379293328
 20
-126.172488032693
 30
0.0
 10
71.59959172472163
 20
-126.172488032693
 30
0.0
 10
71.93807235614743
 20
-126.172488032693
 30
0.0
 10
72.10515948718205
 20
-126.4370713659602
 30
0.0
 10
72.10515948718205
 20
-126.7333495776917
 30
0.0
  0
HATCH
  5
73
330
6E
100
AcDbEntity
  8
_U+30EC_U+30A4_U+30E4_U+30FC 1
 62
   179
420
  2234388
100
AcDbHatch
 10
0.0
 20
0.0
 30
0.0
210
0.0
220
0.0
230
1.0
  2
SOLID
 70
     1
 71
     0
 91
        1
 92
        1
 93
        1
 72
     4
 94
        3
 73
     0
 74
     1
 95
       62
 96
       58
 40
0.0
 40
0.0
 40
0.0
 40
0.0
 40
1.0
 40
1.0
 40
1.0
 40
2.0
 40
2.0
 40
2.0
 40
3.0
 40
3.0
 40
3.0
 40
4.0
 40
4.0
 40
4.0
 40
5.0
 40
5.0
 40
5.0
 40
6.0
 40
6.0
 40
6.0
 40
7.0
 40
7.0
 40
7.0
 40
8.0
 40
8.0
 40
8.0
 40
9.0
 40
9.0
 40
9.0
 40
10.0
 40
10.0
 40
10.0
 40
11.0
 40
11.0
 40
11.0
 40
12.0
 40
12.0
 40
12.0
 40
13.0
 40
13.0
 40
13.0
 40
14.0
 40
14.0
 40
14.0
 40
15.0
 40
15.0
 40
15.0
 40
16.0
 40
16.0
 40
16.0
 40
17.0
 40
17.0
 40
17.0
 40
18.0
 40
18.0
 40
18.0
 40
19.0
 40
19.0
 40
19.0
 40
19.0
 10
72.10515948718205
 20
-126.7333495776917
 10
72.10515948718205
 20
-126.8349798945065
 10
72.08397214994775
 20
-127.0678683493094
 10
71.89776473897001
 20
-127.2011935445886
 10
71.78562688092512
 20
-127.2804307407493
 10
71.68623587617567
 20
-127.2849093648802
 10
71.60165878201278
 20
-127.289387989011
 10
71.60165878201278
 20
-127.289387989011
 10
71.60165878201278
 20
-127.054432476917
 10
71.60165878201278
 20
-127.054432476917
 10
71.67572833494566
 20
-127.0520209100773
 10
71.91051159226544
 20
-127.040652094976
 10
71.91051159226544
 20
-126.7378282018225
 10
71.91051159226544
 20
-126.5907226246023
 10
71.84074840868912
 20
-126.4281141176985
 10
71.61216632324279
 20
-126.4281141176985
 10
71.49589435061561
 20
-126.4281141176985
 10
71.44714624949933
 20
-126.4687662444245
 10
71.41545137103503
 20
-126.5025281801799
 10
71.34138181810216
 20
-126.5817653763407
 10
71.328807219581
 20
-126.7061333233582
 10
71.328807219581
 20
-126.765044456156
 10
71.328807219581
 20
-126.7853705195189
 10
71.33087427687215
 20
-126.8236110794052
 10
71.33500839145445
 20
-126.8532389005784
 10
71.33500839145445
 20
-126.8532389005784
 10
71.1405327513121
 20
-126.8532389005784
 10
71.1405327513121
 20
-126.8532389005784
 10
71.14673392318554
 20
-126.8125867738524
 10
71.14897323525095
 20
-126.7671115134471
 10
71.14897323525095
 20
-126.7605658320251
 10
71.14897323525095
 20
-126.690285884126
 10
71.12778589801667
 20
-126.4777234926861
 10
70.89076332863148
 20
-126.4777234926861
 10
70.71316865636685
 20
-126.4777234926861
 10
70.65804712860285
 20
-126.6179388789358
 10
70.65804712860285
 20
-126.7354166349828
 10
70.65804712860285
 20
-127.0182589743218
 10
70.89076332863148
 20
-127.0272162225835
 10
70.9627658242732
 20
-127.0316948467143
 10
70.9627658242732
 20
-127.0316948467143
 10
70.9627658242732
 20
-127.248735862285
 10
70.9627658242732
 20
-127.248735862285
 10
70.83788111293289
 20
-127.2397786140234
 10
70.46133217639509
 20
-127.2104953023988
 10
70.46133217639509
 20
-126.7219807625903
 10
70.46133217639509
 20
-126.4822021168169
 10
70.58828394502655
 20
-126.2245089745203
 10
70.88438990198377
 20
-126.2245089745203
 10
71.07059731296152
 20
-126.2245089745203
 10
71.15310734983325
 20
-126.3264838008837
 10
71.2144300494707
 20
-126.4325927418294
 10
71.2419908133527
 20
-126.3671359276096
 10
71.32243379293328
 20
-126.172488032693
 10
71.59959172472163
 20
-126.172488032693
 10
71.93807235614743
 20
-126.172488032693
 10
72.10515948718205
 20
-126.4370713659602
 10
72.10515948718205
 20
-126.7333495776917
 97
        0
 97
        0
 75
     2
 76
     1
 98
        0
  0
SPLINE
  5
74
330
6E
100
AcDbEntity
  8
_U+30EC_U+30A4_U+30E4_U+30FC 1
370
     0
100
AcDbSpline
210
0.0
220
0.0
230
1.0
 70
    11
 71
     3
 72
    53
 73
    49
 74
     0
 42
0.0000000001
 43
0.0000000001
 12
1.0
 22
0.0
 32
0.0
 13
1.0
 23
0.0
 33
0.0
 40
0.0
 40
0.0
 40
0.0
 40
0.0
 40
1.0
 40
1.0
 40
1.0
 40
2.0
 40
2.0
 40
2.0
 40
3.0
 40
3.0
 40
3.0
 40
4.0
 40
4.0
 40
4.0
 40
5.0
 40
5.0
 40
5.0
 40
6.0
 40
6.0
 40
6.0
 40
7.0
 40
7.0
 40
7.0
 40
8.0
 40
8.0
 40
8.0
 40
9.0
 40
9.0
 40
9.0
 40
10.0
 40
10.0
 40
10.0
 40
11.0
 40
11.0
 40
11.0
 40
12.0
 40
12.0
 40
12.0
 40
13.0
 40
13.0
 40
13.0
 40
14.0
 40
14.0
 40
14.0
 40
15.0
 40
15.0
 40
15.0
 40
16.0
 40
16.0
 40
16.0
 40
16.0
 10
72.10515948718205
 20
-125.4869140311283
 30
0.0
 10
72.10515948718205
 20
-125.5702853418713
 30
0.0
 10
72.08827851930432
 20
-125.6791503592052
 30
0.0
 10
72.02471650760147
 20
-125.7873263574421
 30
0.0
 10
71.91464570684774
 20
-125.973017004097
 30
0.0
 10
71.78355982363398
 20
-125.9954101247512
 30
0.0
 10
71.67572833494566
 20
-126.0157361881141
 30
0.0
 10
71.67572833494566
 20
-126.0157361881141
 30
0.0
 10
71.67572833494566
 20
-125.7783691091804
 30
0.0
 10
71.67572833494566
 20
-125.7783691091804
 30
0.0
 10
71.87451034444457
 20
-125.7198024859312
 30
0.0
 10
71.90413816561772
 20
-125.5840657238123
 30
0.0
 10
71.90413816561772
 20
-125.4845024642886
 30
0.0
 10
71.90413816561772
 20
-125.3353298297773
 30
0.0
 10
71.80474716086826
 20
-125.1727213228735
 30
0.0
 10
71.57203096083964
 20
-125.1727213228735
 30
0.0
 10
71.31606036628557
 20
-125.1727213228735
 30
0.0
 10
71.24629718270926
 20
-125.3646131414019
 30
0.0
 10
71.24629718270926
 20
-125.4934597125502
 30
0.0
 10
71.24629718270926
 20
-125.5275661578542
 30
0.0
 10
71.24629718270926
 20
-125.6791503592052
 30
0.0
 10
71.37531600863187
 20
-125.7738904850496
 30
0.0
 10
71.37531600863187
 20
-125.7738904850496
 30
0.0
 10
71.35619572868873
 20
-125.9616481889957
 30
0.0
 10
71.35619572868873
 20
-125.9616481889957
 30
0.0
 10
71.35619572868873
 20
-125.9616481889957
 30
0.0
 10
70.51008027751138
 20
-125.8328016178474
 30
0.0
 10
70.51008027751138
 20
-125.8328016178474
 30
0.0
 10
70.51008027751138
 20
-125.8328016178474
 30
0.0
 10
70.51008027751138
 20
-125.0008110581595
 30
0.0
 10
70.51008027751138
 20
-125.0008110581595
 30
0.0
 10
70.51008027751138
 20
-125.0008110581595
 30
0.0
 10
70.70472817242799
 20
-125.0008110581595
 30
0.0
 10
70.70472817242799
 20
-125.0008110581595
 30
0.0
 10
70.70472817242799
 20
-125.0008110581595
 30
0.0
 10
70.70472817242799
 20
-125.6584797862937
 30
0.0
 10
70.70472817242799
 20
-125.6584797862937
 30
0.0
 10
70.70472817242799
 20
-125.6584797862937
 30
0.0
 10
71.12778589801667
 20
-125.7287597341928
 30
0.0
 10
71.12778589801667
 20
-125.7287597341928
 30
0.0
 10
71.09385170748696
 20
-125.6633029199731
 30
0.0
 10
71.0537163450838
 20
-125.5751084755507
 30
0.0
 10
71.0537163450838
 20
-125.4483289616935
 30
0.0
 10
71.0537163450838
 20
-125.1771999470043
 30
0.0
 10
71.23992375606154
 20
-124.9239854288384
 30
0.0
 10
71.5529106808965
 20
-124.9239854288384
 30
0.0
 10
71.87037622986227
 20
-124.9239854288384
 30
0.0
 10
72.10515948718205
 20
-125.1634195650633
 30
0.0
 10
72.10515948718205
 20
-125.4869140311283
 30
0.0
  0
HATCH
  5
75
330
6E
100
AcDbEntity
  8
_U+30EC_U+30A4_U+30E4_U+30FC 1
 62
   179
420
  2234388
100
AcDbHatch
 10
0.0
 20
0.0
 30
0.0
210
0.0
220
0.0
230
1.0
  2
SOLID
 70
     1
 71
     0
 91
        1
 92
        1
 93
        1
 72
     4
 94
        3
 73
     0
 74
     1
 95
       53
 96
       49
 40
0.0
 40
0.0
 40
0.0
 40
0.0
 40
1.0
 40
1.0
 40
1.0
 40
2.0
 40
2.0
 40
2.0
 40
3.0
 40
3.0
 40
3.0
 40
4.0
 40
4.0
 40
4.0
 40
5.0
 40
5.0
 40
5.0
 40
6.0
 40
6.0
 40
6.0
 40
7.0
 40
7.0
 40
7.0
 40
8.0
 40
8.0
 40
8.0
 40
9.0
 40
9.0
 40
9.0
 40
10.0
 40
10.0
 40
10.0
 40
11.0
 40
11.0
 40
11.0
 40
12.0
 40
12.0
 40
12.0
 40
13.0
 40
13.0
 40
13.0
 40
14.0
 40
14.0
 40
14.0
 40
15.0
 40
15.0
 40
15.0
 40
16.0
 40
16.0
 40
16.0
 40
16.0
 10
72.10515948718205
 20
-125.4869140311283
 10
72.10515948718205
 20
-125.5702853418713
 10
72.08827851930432
 20
-125.6791503592052
 10
72.02471650760147
 20
-125.7873263574421
 10
71.91464570684774
 20
-125.973017004097
 10
71.78355982363398
 20
-125.9954101247512
 10
71.67572833494566
 20
-126.0157361881141
 10
71.67572833494566
 20
-126.0157361881141
 10
71.67572833494566
 20
-125.7783691091804
 10
71.67572833494566
 20
-125.7783691091804
 10
71.87451034444457
 20
-125.7198024859312
 10
71.90413816561772
 20
-125.5840657238123
 10
71.90413816561772
 20
-125.4845024642886
 10
71.90413816561772
 20
-125.3353298297773
 10
71.80474716086826
 20
-125.1727213228735
 10
71.57203096083964
 20
-125.1727213228735
 10
71.31606036628557
 20
-125.1727213228735
 10
71.24629718270926
 20
-125.3646131414019
 10
71.24629718270926
 20
-125.4934597125502
 10
71.24629718270926
 20
-125.5275661578542
 10
71.24629718270926
 20
-125.6791503592052
 10
71.37531600863187
 20
-125.7738904850496
 10
71.37531600863187
 20
-125.7738904850496
 10
71.35619572868873
 20
-125.9616481889957
 10
71.35619572868873
 20
-125.9616481889957
 10
71.35619572868873
 20
-125.9616481889957
 10
70.51008027751138
 20
-125.8328016178474
 10
70.51008027751138
 20
-125.8328016178474
 10
70.51008027751138
 20
-125.8328016178474
 10
70.51008027751138
 20
-125.0008110581595
 10
70.51008027751138
 20
-125.0008110581595
 10
70.51008027751138
 20
-125.0008110581595
 10
70.70472817242799
 20
-125.0008110581595
 10
70.70472817242799
 20
-125.0008110581595
 10
70.70472817242799
 20
-125.0008110581595
 10
70.70472817242799
 20
-125.6584797862937
 10
70.70472817242799
 20
-125.6584797862937
 10
70.70472817242799
 20
-125.6584797862937
 10
71.12778589801667
 20
-125.7287597341928
 10
71.12778589801667
 20
-125.7287597341928
 10
71.09385170748696
 20
-125.6633029199731
 10
71.0537163450838
 20
-125.5751084755507
 10
71.0537163450838
 20
-125.4483289616935
 10
71.0537163450838
 20
-125.1771999470043
 10
71.23992375606154
 20
-124.9239854288384
 10
71.5529106808965
 20
-124.9239854288384
 10
71.87037622986227
 20
-124.9239854288384
 10
72.10515948718205
 20
-125.1634195650633
 10
72.10515948718205
 20
-125.4869140311283
 97
        0
 97
        0
 75
     2
 76
     1
 98
        0
  0
ENDBLK
  5
71
330
6E
100
AcDbEntity
  8
0
100
AcDbBlockEnd
  0
BLOCK
  5
84
330
82
100
AcDbEntity
  8
0
100
AcDbBlockBegin
  2
block 4
 70
     0
 10
0.0
 20
0.0
 30
0.0
  3
block 4
  1

  0
SPLINE
  5
86
330
82
100
AcDbEntity
  8
_U+30EC_U+30A4_U+30E4_U+30FC 1
370
     0
100
AcDbSpline
210
0.0
220
0.0
230
1.0
 70
    11
 71
     3
 72
    62
 73
    58
 74
     0
 42
0.0000000001
 43
0.0000000001
 12
1.0
 22
0.0
 32
0.0
 13
1.0
 23
0.0
 33
0.0
 40
0.0
 40
0.0
 40
0.0
 40
0.0
 40
1.0
 40
1.0
 40
1.0
 40
2.0
 40
2.0
 40
2.0
 40
3.0
 40
3.0
 40
3.0
 40
4.0
 40
4.0
 40
4.0
 40
5.0
 40
5.0
 40
5.0
 40
6.0
 40
6.0
 40
6.0
 40
7.0
 40
7.0
 40
7.0
 40
8.0
 40
8.0
 40
8.0
 40
9.0
 40
9.0
 40
9.0
 40
10.0
 40
10.0
 40
10.0
 40
11.0
 40
11.0
 40
11.0
 40
12.0
 40
12.0
 40
12.0
 40
13.0
 40
13.0
 40
13.0
 40
14.0
 40
14.0
 40
14.0
 40
15.0
 40
15.0
 40
15.0
 40
16.0
 40
16.0
 40
16.0
 40
17.0
 40
17.0
 40
17.0
 40
18.0
 40
18.0
 40
18.0
 40
19.0
 40
19.0
 40
19.0
 40
19.0
 10
93.63425019360533
 20
-146.9381455795849
 30
0.0
 10
93.53261987679046
 20
-146.9381455795849
 30
0.0
 10
93.29973142198757
 20
-146.9171304971249
 30
0.0
 10
93.1664062267084
 20
-146.7310953409214
 30
0.0
 10
93.08716903054766
 20
-146.6187852281023
 30
0.0
 10
93.08269040641683
 20
-146.519566478127
 30
0.0
 10
93.078211782286
 20
-146.4348171291899
 30
0.0
 10
93.078211782286
 20
-146.4348171291899
 30
0.0
 10
93.31316729438005
 20
-146.4348171291899
 30
0.0
 10
93.31316729438005
 20
-146.4348171291899
 30
0.0
 10
93.31557886121972
 20
-146.5088866821228
 30
0.0
 10
93.32694767632104
 20
-146.7434976846683
 30
0.0
 10
93.6297715694745
 20
-146.7434976846683
 30
0.0
 10
93.77687714669467
 20
-146.7434976846683
 30
0.0
 10
93.93948565359847
 20
-146.6739067558663
 30
0.0
 10
93.93948565359847
 20
-146.4454969251942
 30
0.0
 10
93.93948565359847
 20
-146.3290526977927
 30
0.0
 10
93.89883352687252
 20
-146.2804768514507
 30
0.0
 10
93.86472708156855
 20
-146.2487819729864
 30
0.0
 10
93.78583439495632
 20
-146.1747124200535
 30
0.0
 10
93.6614664479388
 20
-146.1619655667581
 30
0.0
 10
93.60255531514103
 20
-146.1619655667581
 30
0.0
 10
93.58222925177806
 20
-146.1619655667581
 30
0.0
 10
93.54398869189178
 20
-146.1640326240493
 30
0.0
 10
93.51436087071863
 20
-146.1681667386316
 30
0.0
 10
93.51436087071863
 20
-146.1681667386316
 30
0.0
 10
93.51436087071863
 20
-145.973518843715
 30
0.0
 10
93.51436087071863
 20
-145.973518843715
 30
0.0
 10
93.55501299744458
 20
-145.9800645251369
 30
0.0
 10
93.60048825784988
 20
-145.9821315824281
 30
0.0
 10
93.60703393927186
 20
-145.9821315824281
 30
0.0
 10
93.67731388717095
 20
-145.9821315824281
 30
0.0
 10
93.88987627861087
 20
-145.9607719904195
 30
0.0
 10
93.88987627861087
 20
-145.7240939305829
 30
0.0
 10
93.88987627861087
 20
-145.546327003544
 30
0.0
 10
93.7496608923612
 20
-145.49120547578
 30
0.0
 10
93.63218313631418
 20
-145.49120547578
 30
0.0
 10
93.34934079697517
 20
-145.49120547578
 30
0.0
 10
93.34038354871352
 20
-145.7240939305829
 30
0.0
 10
93.33590492458269
 20
-145.7957519166761
 30
0.0
 10
93.33590492458269
 20
-145.7957519166761
 30
0.0
 10
93.11886390901195
 20
-145.7957519166761
 30
0.0
 10
93.11886390901195
 20
-145.7957519166761
 30
0.0
 10
93.1278211572736
 20
-145.67103946011
 30
0.0
 10
93.15710446889823
 20
-145.2944905235722
 30
0.0
 10
93.64561900870666
 20
-145.2944905235722
 30
0.0
 10
93.88539765448004
 20
-145.2944905235722
 30
0.0
 10
94.14309079677673
 20
-145.4216145469779
 30
0.0
 10
94.14309079677673
 20
-145.7175482491609
 30
0.0
 10
94.14309079677673
 20
-145.9039279149129
 30
0.0
 10
94.04111597041333
 20
-145.9862656970104
 30
0.0
 10
93.93500702946764
 20
-146.0475883966478
 30
0.0
 10
94.00046384368738
 20
-146.0751491605298
 30
0.0
 10
94.195111738604
 20
-146.1554198853362
 30
0.0
 10
94.195111738604
 20
-146.4327500718988
 30
0.0
 10
94.195111738604
 20
-146.7710584485503
 30
0.0
 10
93.93052840533682
 20
-146.9381455795849
 30
0.0
 10
93.63425019360533
 20
-146.9381455795849
 30
0.0
  0
HATCH
  5
87
330
82
100
AcDbEntity
  8
_U+30EC_U+30A4_U+30E4_U+30FC 1
 62
   179
420
  2234388
100
AcDbHatch
 10
0.0
 20
0.0
 30
0.0
210
0.0
220
0.0
230
1.0
  2
SOLID
 70
     1
 71
     0
 91
        1
 92
        1
 93
        1
 72
     4
 94
        3
 73
     0
 74
     1
 95
       62
 96
       58
 40
0.0
 40
0.0
 40
0.0
 40
0.0
 40
1.0
 40
1.0
 40
1.0
 40
2.0
 40
2.0
 40
2.0
 40
3.0
 40
3.0
 40
3.0
 40
4.0
 40
4.0
 40
4.0
 40
5.0
 40
5.0
 40
5.0
 40
6.0
 40
6.0
 40
6.0
 40
7.0
 40
7.0
 40
7.0
 40
8.0
 40
8.0
 40
8.0
 40
9.0
 40
9.0
 40
9.0
 40
10.0
 40
10.0
 40
10.0
 40
11.0
 40
11.0
 40
11.0
 40
12.0
 40
12.0
 40
12.0
 40
13.0
 40
13.0
 40
13.0
 40
14.0
 40
14.0
 40
14.0
 40
15.0
 40
15.0
 40
15.0
 40
16.0
 40
16.0
 40
16.0
 40
17.0
 40
17.0
 40
17.0
 40
18.0
 40
18.0
 40
18.0
 40
19.0
 40
19.0
 40
19.0
 40
19.0
 10
93.63425019360533
 20
-146.9381455795849
 10
93.53261987679046
 20
-146.9381455795849
 10
93.29973142198757
 20
-146.9171304971249
 10
93.1664062267084
 20
-146.7310953409214
 10
93.08716903054766
 20
-146.6187852281023
 10
93.08269040641683
 20
-146.519566478127
 10
93.078211782286
 20
-146.4348171291899
 10
93.078211782286
 20
-146.4348171291899
 10
93.31316729438005
 20
-146.4348171291899
 10
93.31316729438005
 20
-146.4348171291899
 10
93.31557886121972
 20
-146.5088866821228
 10
93.32694767632104
 20
-146.7434976846683
 10
93.6297715694745
 20
-146.7434976846683
 10
93.77687714669467
 20
-146.7434976846683
 10
93.93948565359847
 20
-146.6739067558663
 10
93.93948565359847
 20
-146.4454969251942
 10
93.93948565359847
 20
-146.3290526977927
 10
93.89883352687252
 20
-146.2804768514507
 10
93.86472708156855
 20
-146.2487819729864
 10
93.78583439495632
 20
-146.1747124200535
 10
93.6614664479388
 20
-146.1619655667581
 10
93.60255531514103
 20
-146.1619655667581
 10
93.58222925177806
 20
-146.1619655667581
 10
93.54398869189178
 20
-146.1640326240493
 10
93.51436087071863
 20
-146.1681667386316
 10
93.51436087071863
 20
-146.1681667386316
 10
93.51436087071863
 20
-145.973518843715
 10
93.51436087071863
 20
-145.973518843715
 10
93.55501299744458
 20
-145.9800645251369
 10
93.60048825784988
 20
-145.9821315824281
 10
93.60703393927186
 20
-145.9821315824281
 10
93.67731388717095
 20
-145.9821315824281
 10
93.88987627861087
 20
-145.9607719904195
 10
93.88987627861087
 20
-145.7240939305829
 10
93.88987627861087
 20
-145.546327003544
 10
93.7496608923612
 20
-145.49120547578
 10
93.63218313631418
 20
-145.49120547578
 10
93.34934079697517
 20
-145.49120547578
 10
93.34038354871352
 20
-145.7240939305829
 10
93.33590492458269
 20
-145.7957519166761
 10
93.33590492458269
 20
-145.7957519166761
 10
93.11886390901195
 20
-145.7957519166761
 10
93.11886390901195
 20
-145.7957519166761
 10
93.1278211572736
 20
-145.67103946011
 10
93.15710446889823
 20
-145.2944905235722
 10
93.64561900870666
 20
-145.2944905235722
 10
93.88539765448004
 20
-145.2944905235722
 10
94.14309079677673
 20
-145.4216145469779
 10
94.14309079677673
 20
-145.7175482491609
 10
94.14309079677673
 20
-145.9039279149129
 10
94.04111597041333
 20
-145.9862656970104
 10
93.93500702946764
 20
-146.0475883966478
 10
94.00046384368738
 20
-146.0751491605298
 10
94.195111738604
 20
-146.1554198853362
 10
94.195111738604
 20
-146.4327500718988
 10
94.195111738604
 20
-146.7710584485503
 10
93.93052840533682
 20
-146.9381455795849
 10
93.63425019360533
 20
-146.9381455795849
 97
        0
 97
        0
 75
     2
 76
     1
 98
        0
  0
SPLINE
  5
88
330
82
100
AcDbEntity
  8
_U+30EC_U+30A4_U+30E4_U+30FC 1
370
     0
100
AcDbSpline
210
0.0
220
0.0
230
1.0
 70
    11
 71
     3
 72
    53
 73
    49
 74
     0
 42
0.0000000001
 43
0.0000000001
 12
1.0
 22
0.0
 32
0.0
 13
1.0
 23
0.0
 33
0.0
 40
0.0
 40
0.0
 40
0.0
 40
0.0
 40
1.0
 40
1.0
 40
1.0
 40
2.0
 40
2.0
 40
2.0
 40
3.0
 40
3.0
 40
3.0
 40
4.0
 40
4.0
 40
4.0
 40
5.0
 40
5.0
 40
5.0
 40
6.0
 40
6.0
 40
6.0
 40
7.0
 40
7.0
 40
7.0
 40
8.0
 40
8.0
 40
8.0
 40
9.0
 40
9.0
 40
9.0
 40
10.0
 40
10.0
 40
10.0
 40
11.0
 40
11.0
 40
11.0
 40
12.0
 40
12.0
 40
12.0
 40
13.0
 40
13.0
 40
13.0
 40
14.0
 40
14.0
 40
14.0
 40
15.0
 40
15.0
 40
15.0
 40
16.0
 40
16.0
 40
16.0
 40
16.0
 10
94.88068574016872
 20
-146.9381455795849
 30
0.0
 10
94.79696991987716
 20
-146.9381455795849
 30
0.0
 10
94.68879392164031
 20
-146.9212646117072
 30
0.0
 10
94.57992890430641
 20
-146.8578748547786
 30
0.0
 10
94.39458276719996
 20
-146.7479763087991
 30
0.0
 10
94.37218964654585
 20
-146.6167181708111
 30
0.0
 10
94.35186358318288
 20
-146.5088866821228
 30
0.0
 10
94.35186358318288
 20
-146.5088866821228
 30
0.0
 10
94.58923066211659
 20
-146.5088866821228
 30
0.0
 10
94.58923066211659
 20
-146.5088866821228
 30
0.0
 10
94.64779728536583
 20
-146.7076686916217
 30
0.0
 10
94.78353404748468
 20
-146.7372965127948
 30
0.0
 10
94.8830973070084
 20
-146.7372965127948
 30
0.0
 10
95.03226994151971
 20
-146.7372965127948
 30
0.0
 10
95.19522295797204
 20
-146.6377332532711
 30
0.0
 10
95.19522295797204
 20
-146.4051893080168
 30
0.0
 10
95.19522295797204
 20
-146.1492187134627
 30
0.0
 10
95.00298662989509
 20
-146.0792832751121
 30
0.0
 10
94.87414005874675
 20
-146.0792832751121
 30
0.0
 10
94.84003361344277
 20
-146.0792832751121
 30
0.0
 10
94.68879392164031
 20
-146.0792832751121
 30
0.0
 10
94.59370928624742
 20
-146.208474355809
 30
0.0
 10
94.59370928624742
 20
-146.208474355809
 30
0.0
 10
94.4059515823013
 20
-146.1895263306401
 30
0.0
 10
94.4059515823013
 20
-146.1895263306401
 30
0.0
 10
94.4059515823013
 20
-146.1895263306401
 30
0.0
 10
94.53479815344964
 20
-145.3430663699143
 30
0.0
 10
94.53479815344964
 20
-145.3430663699143
 30
0.0
 10
94.53479815344964
 20
-145.3430663699143
 30
0.0
 10
95.36678871313747
 20
-145.3430663699143
 30
0.0
 10
95.36678871313747
 20
-145.3430663699143
 30
0.0
 10
95.36678871313747
 20
-145.3430663699143
 30
0.0
 10
95.36678871313747
 20
-145.5377142648309
 30
0.0
 10
95.36678871313747
 20
-145.5377142648309
 30
0.0
 10
95.36678871313747
 20
-145.5377142648309
 30
0.0
 10
94.70911998500328
 20
-145.5377142648309
 30
0.0
 10
94.70911998500328
 20
-145.5377142648309
 30
0.0
 10
94.70911998500328
 20
-145.5377142648309
 30
0.0
 10
94.63884003710419
 20
-145.9607719904195
 30
0.0
 10
94.63884003710419
 20
-145.9607719904195
 30
0.0
 10
94.70429685132393
 20
-145.9270100546641
 30
0.0
 10
94.79249129574633
 20
-145.8867024374867
 30
0.0
 10
94.91927080960352
 20
-145.8867024374867
 30
0.0
 10
95.19039982429268
 20
-145.8867024374867
 30
0.0
 10
95.44361434245855
 20
-146.0730821032387
 30
0.0
 10
95.44361434245855
 20
-146.3862412828479
 30
0.0
 10
95.44361434245855
 20
-146.7035345770394
 30
0.0
 10
95.20418020623369
 20
-146.9381455795849
 30
0.0
 10
94.88068574016872
 20
-146.9381455795849
 30
0.0
  0
HATCH
  5
89
330
82
100
AcDbEntity
  8
_U+30EC_U+30A4_U+30E4_U+30FC 1
 62
   179
420
  2234388
100
AcDbHatch
 10
0.0
 20
0.0
 30
0.0
210
0.0
220
0.0
230
1.0
  2
SOLID
 70
     1
 71
     0
 91
        1
 92
        1
 93
        1
 72
     4
 94
        3
 73
     0
 74
     1
 95
       53
 96
       49
 40
0.0
 40
0.0
 40
0.0
 40
0.0
 40
1.0
 40
1.0
 40
1.0
 40
2.0
 40
2.0
 40
2.0
 40
3.0
 40
3.0
 40
3.0
 40
4.0
 40
4.0
 40
4.0
 40
5.0
 40
5.0
 40
5.0
 40
6.0
 40
6.0
 40
6.0
 40
7.0
 40
7.0
 40
7.0
 40
8.0
 40
8.0
 40
8.0
 40
9.0
 40
9.0
 40
9.0
 40
10.0
 40
10.0
 40
10.0
 40
11.0
 40
11.0
 40
11.0
 40
12.0
 40
12.0
 40
12.0
 40
13.0
 40
13.0
 40
13.0
 40
14.0
 40
14.0
 40
14.0
 40
15.0
 40
15.0
 40
15.0
 40
16.0
 40
16.0
 40
16.0
 40
16.0
 10
94.88068574016872
 20
-146.9381455795849
 10
94.79696991987716
 20
-146.9381455795849
 10
94.68879392164031
 20
-146.9212646117072
 10
94.57992890430641
 20
-146.8578748547786
 10
94.39458276719996
 20
-146.7479763087991
 10
94.37218964654585
 20
-146.6167181708111
 10
94.35186358318288
 20
-146.5088866821228
 10
94.35186358318288
 20
-146.5088866821228
 10
94.58923066211659
 20
-146.5088866821228
 10
94.58923066211659
 20
-146.5088866821228
 10
94.64779728536583
 20
-146.7076686916217
 10
94.78353404748468
 20
-146.7372965127948
 10
94.8830973070084
 20
-146.7372965127948
 10
95.03226994151971
 20
-146.7372965127948
 10
95.19522295797204
 20
-146.6377332532711
 10
95.19522295797204
 20
-146.4051893080168
 10
95.19522295797204
 20
-146.1492187134627
 10
95.00298662989509
 20
-146.0792832751121
 10
94.87414005874675
 20
-146.0792832751121
 10
94.84003361344277
 20
-146.0792832751121
 10
94.68879392164031
 20
-146.0792832751121
 10
94.59370928624742
 20
-146.208474355809
 10
94.59370928624742
 20
-146.208474355809
 10
94.4059515823013
 20
-146.1895263306401
 10
94.4059515823013
 20
-146.1895263306401
 10
94.4059515823013
 20
-146.1895263306401
 10
94.53479815344964
 20
-145.3430663699143
 10
94.53479815344964
 20
-145.3430663699143
 10
94.53479815344964
 20
-145.3430663699143
 10
95.36678871313747
 20
-145.3430663699143
 10
95.36678871313747
 20
-145.3430663699143
 10
95.36678871313747
 20
-145.3430663699143
 10
95.36678871313747
 20
-145.5377142648309
 10
95.36678871313747
 20
-145.5377142648309
 10
95.36678871313747
 20
-145.5377142648309
 10
94.70911998500328
 20
-145.5377142648309
 10
94.70911998500328
 20
-145.5377142648309
 10
94.70911998500328
 20
-145.5377142648309
 10
94.63884003710419
 20
-145.9607719904195
 10
94.63884003710419
 20
-145.9607719904195
 10
94.70429685132393
 20
-145.9270100546641
 10
94.79249129574633
 20
-145.8867024374867
 10
94.91927080960352
 20
-145.8867024374867
 10
95.19039982429268
 20
-145.8867024374867
 10
95.44361434245855
 20
-146.0730821032387
 10
95.44361434245855
 20
-146.3862412828479
 10
95.44361434245855
 20
-146.7035345770394
 10
95.20418020623369
 20
-146.9381455795849
 10
94.88068574016872
 20
-146.9381455795849
 97
        0
 97
        0
 75
     2
 76
     1
 98
        0
  0
ENDBLK
  5
85
330
82
100
AcDbEntity
  8
0
100
AcDbBlockEnd
  0
ENDSEC
  0
SECTION
  2
ENTITIES
  0
INSERT
  5
42
330
1F
100
AcDbEntity
  8
_U+30EC_U+30A4_U+30E4_U+30FC 1
100
AcDbBlockReference
  2
block 2
 10
0.0
 20
0.0
 30
0.0
  0
ENDSEC
  0
SECTION
  2
OBJECTS
  0
DICTIONARY
  5
C
330
0
100
AcDbDictionary
281
     1
  3
ACAD_GROUP
350
D
  3
ACAD_LAYOUT
350
1A
  3
ACAD_MATERIAL
350
3B
  3
ACAD_MLEADERSTYLE
350
8B
  3
ACAD_MLINESTYLE
350
17
  3
ACAD_PLOTSETTINGS
350
19
  3
ACAD_PLOTSTYLENAME
350
E
  3
ACAD_TABLESTYLE
350
8A
  3
ACAD_VISUALSTYLE
350
2A
  0
SUN
  5
3F
330
29
100
AcDbSun
 90
        1
290
     0
 63
     7
421
 16777215
 40
1.0
291
     1
 91
  2455826
 92
 54000000
292
     0
 70
     2
 71
   256
280
     1
  0
DICTIONARY
  5
D
102
{ACAD_REACTORS
330
C
102
}
330
C
100
AcDbDictionary
281
     1
  0
DICTIONARY
  5
1A
102
{ACAD_REACTORS
330
C
102
}
330
C
100
AcDbDictionary
281
     1
  3
Layout1
350
1E
  3
Layout2
350
26
  3
Model
350
22
  0
DICTIONARY
  5
3B
102
{ACAD_REACTORS
330
C
102
}
330
C
100
AcDbDictionary
281
     1
  3
ByBlock
350
3D
  3
ByLayer
350
3C
  3
Global
350
3E
  0
DICTIONARY
  5
8B
102
{ACAD_REACTORS
330
C
102
}
330
C
100
AcDbDictionary
281
     1
  0
DICTIONARY
  5
17
102
{ACAD_REACTORS
330
C
102
}
330
C
100
AcDbDictionary
281
     1
  3
Standard
350
18
  0
DICTIONARY
  5
19
102
{ACAD_REACTORS
330
C
102
}
330
C
100
AcDbDictionary
281
     1
  0
ACDBDICTIONARYWDFLT
  5
E
102
{ACAD_REACTORS
330
C
102
}
330
C
100
AcDbDictionary
281
     1
  3
Normal
350
F
100
AcDbDictionaryWithDefault
340
F
  0
DICTIONARY
  5
8A
102
{ACAD_REACTORS
330
C
102
}
330
C
100
AcDbDictionary
281
     1
  0
DICTIONARY
  5
2A
102
{ACAD_REACTORS
330
C
102
}
330
C
100
AcDbDictionary
281
     1
  3
2dWireframe
350
2F
  3
3D Hidden
350
31
  3
3dWireframe
350
30
  3
Basic
350
32
  3
Brighten
350
36
  3
ColorChange
350
3A
  3
Conceptual
350
34
  3
Dim
350
35
  3
Facepattern
350
39
  3
Flat
350
2B
  3
FlatWithEdges
350
2C
  3
Gouraud
350
2D
  3
GouraudWithEdges
350
2E
  3
Linepattern
350
38
  3
Realistic
350
33
  3
Thicken
350
37
  0
LAYOUT
  5
1E
102
{ACAD_REACTORS
330
1A
102
}
330
1A
100
AcDbPlotSettings
  1

  2
none_device
  4

  6

 40
0.0
 41
0.0
 42
0.0
 43
0.0
 44
0.0
 45
0.0
 46
0.0
 47
0.0
 48
0.0
 49
0.0
140
0.0
141
0.0
142
1.0
143
1.0
 70
   688
 72
     0
 73
     0
 74
     5
  7

 75
    16
 76
     0
 77
     2
 78
   300
147
1.0
148
0.0
149
0.0
100
AcDbLayout
  1
Layout1
 70
     1
 71
     1
 10
0.0
 20
0.0
 11
12.0
 21
9.0
 12
0.0
 22
0.0
 32
0.0
 14
1.000000000000000E+20
 24
1.000000000000000E+20
 34
1.000000000000000E+20
 15
-1.000000000000000E+20
 25
-1.000000000000000E+20
 35
-1.000000000000000E+20
146
0.0
 13
0.0
 23
0.0
 33
0.0
 16
1.0
 26
0.0
 36
0.0
 17
0.0
 27
1.0
 37
0.0
 76
     0
330
1B
  0
LAYOUT
  5
26
102
{ACAD_REACTORS
330
1A
102
}
330
1A
100
AcDbPlotSettings
  1

  2
none_device
  4

  6

 40
0.0
 41
0.0
 42
0.0
 43
0.0
 44
0.0
 45
0.0
 46
0.0
 47
0.0
 48
0.0
 49
0.0
140
0.0
141
0.0
142
1.0
143
1.0
 70
   688
 72
     0
 73
     0
 74
     5
  7

 75
    16
 76
     0
 77
     2
 78
   300
147
1.0
148
0.0
149
0.0
100
AcDbLayout
  1
Layout2
 70
     1
 71
     2
 10
0.0
 20
0.0
 11
0.0
 21
0.0
 12
0.0
 22
0.0
 32
0.0
 14
0.0
 24
0.0
 34
0.0
 15
0.0
 25
0.0
 35
0.0
146
0.0
 13
0.0
 23
0.0
 33
0.0
 16
1.0
 26
0.0
 36
0.0
 17
0.0
 27
1.0
 37
0.0
 76
     0
330
23
  0
LAYOUT
  5
22
102
{ACAD_REACTORS
330
1A
102
}
330
1A
100
AcDbPlotSettings
  1

  2
none_device
  4

  6

 40
0.0
 41
0.0
 42
0.0
 43
0.0
 44
0.0
 45
0.0
 46
0.0
 47
0.0
 48
0.0
 49
0.0
140
0.0
141
0.0
142
1.0
143
1.0
 70
  1712
 72
     0
 73
     0
 74
     0
  7

 75
     0
 76
     0
 77
     2
 78
   300
147
1.0
148
0.0
149
0.0
100
AcDbLayout
  1
Model
 70
     1
 71
     0
 10
0.0
 20
0.0
 11
12.0
 21
9.0
 12
0.0
 22
0.0
 32
0.0
 14
1.000000000000000E+20
 24
1.000000000000000E+20
 34
1.000000000000000E+20
 15
-1.000000000000000E+20
 25
-1.000000000000000E+20
 35
-1.000000000000000E+20
146
0.0
 13
0.0
 23
0.0
 33
0.0
 16
1.0
 26
0.0
 36
0.0
 17
0.0
 27
1.0
 37
0.0
 76
     0
330
1F
331
29
  0
MATERIAL
  5
3D
102
{ACAD_REACTORS
330
3B
102
}
330
3B
100
AcDbMaterial
  1
ByBlock
 72
     1
 94
      127
  0
MATERIAL
  5
3C
102
{ACAD_REACTORS
330
3B
102
}
330
3B
100
AcDbMaterial
  1
ByLayer
 72
     1
 94
      127
  0
MATERIAL
  5
3E
102
{ACAD_REACTORS
330
3B
102
}
330
3B
100
AcDbMaterial
  1
Global
 72
     1
 94
      127
  0
MLINESTYLE
  5
18
102
{ACAD_REACTORS
330
17
102
}
330
17
100
AcDbMlineStyle
  2
Standard
 70
     0
  3

 62
   256
 51
90.0
 52
90.0
 71
     2
 49
0.5
 62
   256
  6
BYLAYER
 49
-0.5
 62
   256
  6
BYLAYER
  0
ACDBPLACEHOLDER
  5
F
102
{ACAD_REACTORS
330
E
102
}
330
E
  0
VISUALSTYLE
  5
2F
102
{ACAD_REACTORS
330
2A
102
}
330
2A
100
AcDbVisualStyle
  2
2dWireframe
 70
     4
177
     2
291
     0
 71
     0
176
     1
 72
     2
176
     1
 73
     0
176
     1
 90
        0
176
     1
 40
-0.6
176
     1
 41
-30.0
176
     1
 62
     5
 63
     7
421
 16777215
176
     1
 74
     1
176
     1
 91
        4
176
     1
 64
     7
176
     1
 65
   257
176
     1
 75
     1
176
     1
175
     1
176
     1
 42
1.0
176
     1
 92
        0
176
     1
 66
   257
176
     1
 43
1.0
176
     1
 76
     1
176
     1
 77
     6
176
     1
 78
     2
176
     1
 67
     7
176
     1
 79
     5
176
     1
170
     0
176
     1
171
     0
176
     1
290
     0
176
     1
 93
        1
176
     1
 44
0.0
176
     1
173
     0
176
     1
  0
VISUALSTYLE
  5
31
102
{ACAD_REACTORS
330
2A
102
}
330
2A
100
AcDbVisualStyle
  2
3D Hidden
 70
     6
177
     2
291
     0
 71
     1
176
     1
 72
     2
176
     1
 73
     2
176
     1
 90
        0
176
     1
 40
-0.6
176
     1
 41
-30.0
176
     1
 62
     5
 63
     7
421
 16777215
176
     1
 74
     2
176
     1
 91
        2
176
     1
 64
     7
176
     1
 65
   257
176
     1
 75
     2
176
     1
175
     1
176
     1
 42
40.0
176
     1
 92
        0
176
     1
 66
   257
176
     1
 43
1.0
176
     1
 76
     1
176
     1
 77
     6
176
     1
 78
     2
176
     1
 67
     7
176
     1
 79
     3
176
     1
170
     0
176
     1
171
     0
176
     1
290
     0
176
     1
 93
        1
176
     1
 44
0.0
176
     1
173
     0
176
     1
  0
VISUALSTYLE
  5
30
102
{ACAD_REACTORS
330
2A
102
}
330
2A
100
AcDbVisualStyle
  2
3dWireframe
 70
     5
177
     2
291
     0
 71
     0
176
     1
 72
     2
176
     1
 73
     0
176
     1
 90
        0
176
     1
 40
-0.6
176
     1
 41
-30.0
176
     1
 62
     5
 63
     7
421
 16777215
176
     1
 74
     1
176
     1
 91
        4
176
     1
 64
     7
176
     1
 65
   257
176
     1
 75
     1
176
     1
175
     1
176
     1
 42
1.0
176
     1
 92
        0
176
     1
 66
   257
176
     1
 43
1.0
176
     1
 76
     1
176
     1
 77
     6
176
     1
 78
     2
176
     1
 67
     7
176
     1
 79
     5
176
     1
170
     0
176
     1
171
     0
176
     1
290
     0
176
     1
 93
        1
176
     1
 44
0.0
176
     1
173
     0
176
     1
  0
VISUALSTYLE
  5
32
102
{ACAD_REACTORS
330
2A
102
}
330
2A
100
AcDbVisualStyle
  2
Basic
 70
     7
177
     2
291
     1
 71
     1
176
     1
 72
     0
176
     1
 73
     1
176
     1
 90
        0
176
     1
 40
-0.6
176
     1
 41
-30.0
176
     1
 62
     5
 63
     7
421
 16777215
176
     1
 74
     0
176
     1
 91
        4
176
     1
 64
     7
176
     1
 65
   257
176
     1
 75
     1
176
     1
175
     1
176
     1
 42
1.0
176
     1
 92
        8
176
     1
 66
     7
176
     1
 43
1.0
176
     1
 76
     1
176
     1
 77
     6
176
     1
 78
     2
176
     1
 67
     7
176
     1
 79
     5
176
     1
170
     0
176
     1
171
     0
176
     1
290
     0
176
     1
 93
        1
176
     1
 44
0.0
176
     1
173
     0
176
     1
  0
VISUALSTYLE
  5
36
102
{ACAD_REACTORS
330
2A
102
}
330
2A
100
AcDbVisualStyle
  2
Brighten
 70
    12
177
     2
291
     1
 71
     2
176
     1
 72
     2
176
     1
 73
     0
176
     1
 90
        0
176
     1
 40
-0.6
176
     1
 41
-30.0
176
     1
 62
     5
 63
     7
421
 16777215
176
     1
 74
     1
176
     1
 91
        4
176
     1
 64
     7
176
     1
 65
   257
176
     1
 75
     1
176
     1
175
     1
176
     1
 42
1.0
176
     1
 92
        8
176
     1
 66
     7
176
     1
 43
1.0
176
     1
 76
     1
176
     1
 77
     6
176
     1
 78
     2
176
     1
 67
     7
176
     1
 79
     5
176
     1
170
     0
176
     1
171
     0
176
     1
290
     0
176
     1
 93
        1
176
     1
 44
50.0
176
     1
173
     0
176
     1
  0
VISUALSTYLE
  5
3A
102
{ACAD_REACTORS
330
2A
102
}
330
2A
100
AcDbVisualStyle
  2
ColorChange
 70
    16
177
     2
291
     1
 71
     2
176
     1
 72
     2
176
     1
 73
     3
176
     1
 90
        0
176
     1
 40
-0.6
176
     1
 41
-30.0
176
     1
 62
     5
 63
     8
421
  8421504
176
     1
 74
     1
176
     1
 91
        4
176
     1
 64
     7
176
     1
 65
   257
176
     1
 75
     1
176
     1
175
     1
176
     1
 42
1.0
176
     1
 92
        8
176
     1
 66
     8
424
  8421504
176
     1
 43
1.0
176
     1
 76
     1
176
     1
 77
     6
176
     1
 78
     2
176
     1
 67
     7
176
     1
 79
     5
176
     1
170
     0
176
     1
171
     0
176
     1
290
     0
176
     1
 93
        1
176
     1
 44
0.0
176
     1
173
     0
176
     1
  0
VISUALSTYLE
  5
34
102
{ACAD_REACTORS
330
2A
102
}
330
2A
100
AcDbVisualStyle
  2
Conceptual
 70
     9
177
     2
291
     0
 71
     3
176
     1
 72
     2
176
     1
 73
     0
176
     1
 90
        0
176
     1
 40
-0.6
176
     1
 41
-30.0
176
     1
 62
     5
 63
     7
421
 16777215
176
     1
 74
     2
176
     1
 91
        2
176
     1
 64
     7
176
     1
 65
   257
176
     1
 75
     1
176
     1
175
     1
176
     1
 42
40.0
176
     1
 92
        8
176
     1
 66
     7
176
     1
 43
1.0
176
     1
 76
     1
176
     1
 77
     6
176
     1
 78
     2
176
     1
 67
     7
176
     1
 79
     3
176
     1
170
     0
176
     1
171
     0
176
     1
290
     0
176
     1
 93
        1
176
     1
 44
0.0
176
     1
173
     0
176
     1
  0
VISUALSTYLE
  5
35
102
{ACAD_REACTORS
330
2A
102
}
330
2A
100
AcDbVisualStyle
  2
Dim
 70
    11
177
     2
291
     1
 71
     2
176
     1
 72
     2
176
     1
 73
     0
176
     1
 90
        0
176
     1
 40
-0.6
176
     1
 41
-30.0
176
     1
 62
     5
 63
     7
421
 16777215
176
     1
 74
     1
176
     1
 91
        4
176
     1
 64
     7
176
     1
 65
   257
176
     1
 75
     1
176
     1
175
     1
176
     1
 42
1.0
176
     1
 92
        8
176
     1
 66
     7
176
     1
 43
1.0
176
     1
 76
     1
176
     1
 77
     6
176
     1
 78
     2
176
     1
 67
     7
176
     1
 79
     5
176
     1
170
     0
176
     1
171
     0
176
     1
290
     0
176
     1
 93
        1
176
     1
 44
-50.0
176
     1
173
     0
176
     1
  0
VISUALSTYLE
  5
39
102
{ACAD_REACTORS
330
2A
102
}
330
2A
100
AcDbVisualStyle
  2
Facepattern
 70
    15
177
     2
291
     1
 71
     2
176
     1
 72
     2
176
     1
 73
     0
176
     1
 90
        0
176
     1
 40
-0.6
176
     1
 41
-30.0
176
     1
 62
     5
 63
     7
421
 16777215
176
     1
 74
     1
176
     1
 91
        4
176
     1
 64
     7
176
     1
 65
   257
176
     1
 75
     1
176
     1
175
     1
176
     1
 42
1.0
176
     1
 92
        8
176
     1
 66
     7
176
     1
 43
1.0
176
     1
 76
     1
176
     1
 77
     6
176
     1
 78
     2
176
     1
 67
     7
176
     1
 79
     5
176
     1
170
     0
176
     1
171
     0
176
     1
290
     0
176
     1
 93
        1
176
     1
 44
0.0
176
     1
173
     0
176
     1
  0
VISUALSTYLE
  5
2B
102
{ACAD_REACTORS
330
2A
102
}
330
2A
100
AcDbVisualStyle
  2
Flat
 70
     0
177
     2
291
     1
 71
     2
176
     1
 72
     1
176
     1
 73
     1
176
     1
 90
        2
176
     1
 40
-0.6
176
     1
 41
30.0
176
     1
 62
     5
 63
     7
421
 16777215
176
     1
 74
     0
176
     1
 91
        4
176
     1
 64
     7
176
     1
 65
   257
176
     1
 75
     1
176
     1
175
     1
176
     1
 42
1.0
176
     1
 92
        8
176
     1
 66
     7
176
     1
 43
1.0
176
     1
 76
     1
176
     1
 77
     6
176
     1
 78
     2
176
     1
 67
     7
176
     1
 79
     5
176
     1
170
     0
176
     1
171
     0
176
     1
290
     0
176
     1
 93
       13
176
     1
 44
0.0
176
     1
173
     0
176
     1
  0
VISUALSTYLE
  5
2C
102
{ACAD_REACTORS
330
2A
102
}
330
2A
100
AcDbVisualStyle
  2
FlatWithEdges
 70
     1
177
     2
291
     1
 71
     2
176
     1
 72
     1
176
     1
 73
     1
176
     1
 90
        2
176
     1
 40
-0.6
176
     1
 41
30.0
176
     1
 62
     5
 63
     7
421
 16777215
176
     1
 74
     1
176
     1
 91
        4
176
     1
 64
     7
176
     1
 65
   257
176
     1
 75
     1
176
     1
175
     1
176
     1
 42
1.0
176
     1
 92
        0
176
     1
 66
   257
176
     1
 43
1.0
176
     1
 76
     1
176
     1
 77
     6
176
     1
 78
     2
176
     1
 67
     7
176
     1
 79
     5
176
     1
170
     0
176
     1
171
     0
176
     1
290
     0
176
     1
 93
       13
176
     1
 44
0.0
176
     1
173
     0
176
     1
  0
VISUALSTYLE
  5
2D
102
{ACAD_REACTORS
330
2A
102
}
330
2A
100
AcDbVisualStyle
  2
Gouraud
 70
     2
177
     2
291
     1
 71
     2
176
     1
 72
     2
176
     1
 73
     1
176
     1
 90
        2
176
     1
 40
-0.6
176
     1
 41
30.0
176
     1
 62
     5
 63
     7
421
 16777215
176
     1
 74
     0
176
     1
 91
        4
176
     1
 64
     7
176
     1
 65
   257
176
     1
 75
     1
176
     1
175
     1
176
     1
 42
1.0
176
     1
 92
        0
176
     1
 66
     7
176
     1
 43
1.0
176
     1
 76
     1
176
     1
 77
     6
176
     1
 78
     2
176
     1
 67
     7
176
     1
 79
     5
176
     1
170
     0
176
     1
171
     0
176
     1
290
     0
176
     1
 93
       13
176
     1
 44
0.0
176
     1
173
     0
176
     1
  0
VISUALSTYLE
  5
2E
102
{ACAD_REACTORS
330
2A
102
}
330
2A
100
AcDbVisualStyle
  2
GouraudWithEdges
 70
     3
177
     2
291
     1
 71
     2
176
     1
 72
     2
176
     1
 73
     1
176
     1
 90
        2
176
     1
 40
-0.6
176
     1
 41
30.0
176
     1
 62
     5
 63
     7
421
 16777215
176
     1
 74
     1
176
     1
 91
        4
176
     1
 64
     7
176
     1
 65
   257
176
     1
 75
     1
176
     1
175
     1
176
     1
 42
1.0
176
     1
 92
        0
176
     1
 66
   257
176
     1
 43
1.0
176
     1
 76
     1
176
     1
 77
     6
176
     1
 78
     2
176
     1
 67
     7
176
     1
 79
     5
176
     1
170
     0
176
     1
171
     0
176
     1
290
     0
176
     1
 93
       13
176
     1
 44
0.0
176
     1
173
     0
176
     1
  0
VISUALSTYLE
  5
38
102
{ACAD_REACTORS
330
2A
102
}
330
2A
100
AcDbVisualStyle
  2
Linepattern
 70
    14
177
     2
291
     1
 71
     2
176
     1
 72
     2
176
     1
 73
     0
176
     1
 90
        0
176
     1
 40
-0.6
176
     1
 41
-30.0
176
     1
 62
     5
 63
     7
421
 16777215
176
     1
 74
     1
176
     1
 91
        4
176
     1
 64
     7
176
     1
 65
   257
176
     1
 75
     7
176
     1
175
     7
176
     1
 42
1.0
176
     1
 92
        8
176
     1
 66
     7
176
     1
 43
1.0
176
     1
 76
     1
176
     1
 77
     6
176
     1
 78
     2
176
     1
 67
     7
176
     1
 79
     5
176
     1
170
     0
176
     1
171
     0
176
     1
290
     0
176
     1
 93
        1
176
     1
 44
0.0
176
     1
173
     0
176
     1
  0
VISUALSTYLE
  5
33
102
{ACAD_REACTORS
330
2A
102
}
330
2A
100
AcDbVisualStyle
  2
Realistic
 70
     8
177
     2
291
     0
 71
     2
176
     1
 72
     2
176
     1
 73
     0
176
     1
 90
        0
176
     1
 40
-0.6
176
     1
 41
-30.0
176
     1
 62
     5
 63
     7
421
 16777215
176
     1
 74
     1
176
     1
 91
        0
176
     1
 64
     7
176
     1
 65
   257
176
     1
 75
     1
176
     1
175
     1
176
     1
 42
1.0
176
     1
 92
        8
176
     1
 66
     8
424
  7895160
176
     1
 43
1.0
176
     1
 76
     1
176
     1
 77
     6
176
     1
 78
     2
176
     1
 67
     7
176
     1
 79
     5
176
     1
170
     0
176
     1
171
     0
176
     1
290
     0
176
     1
 93
       13
176
     1
 44
0.0
176
     1
173
     0
176
     1
  0
VISUALSTYLE
  5
37
102
{ACAD_REACTORS
330
2A
102
}
330
2A
100
AcDbVisualStyle
  2
Thicken
 70
    13
177
     2
291
     1
 71
     2
176
     1
 72
     2
176
     1
 73
     0
176
     1
 90
        0
176
     1
 40
-0.6
176
     1
 41
-30.0
176
     1
 62
     5
 63
     7
421
 16777215
176
     1
 74
     1
176
     1
 91
        4
176
     1
 64
     7
176
     1
 65
   257
176
     1
 75
     1
176
     1
175
     1
176
     1
 42
1.0
176
     1
 92
       12
176
     1
 66
     7
176
     1
 43
1.0
176
     1
 76
     1
176
     1
 77
     6
176
     1
 78
     2
176
     1
 67
     7
176
     1
 79
     5
176
     1
170
     0
176
     1
171
     0
176
     1
290
     0
176
     1
 93
        1
176
     1
 44
0.0
176
     1
173
     0
176
     1
  0
ENDSEC
  0
EOF
