  0
SECTION
  2
HEADER
  9
$ACADVER
  1
AC1024
  9
$ACADMAINTVER
 70
     6
  9
$DWGCODEPAGE
  3
UNDEFINED
  9
$INSBASE
 10
0.0
 20
0.0
 30
0.0
  9
$EXTMIN
 10
1.000000000000000E+20
 20
1.000000000000000E+20
 30
1.000000000000000E+20
  9
$EXTMAX
 10
-1.000000000000000E+20
 20
-1.000000000000000E+20
 30
-1.000000000000000E+20
  9
$LIMMIN
 10
0.0
 20
0.0
  9
$LIMMAX
 10
12.0
 20
9.0
  9
$ORTHOMODE
 70
     0
  9
$REGENMODE
 70
     1
  9
$FILLMODE
 70
     1
  9
$QTEXTMODE
 70
     0
  9
$MIRRTEXT
 70
     1
  9
$LTSCALE
 40
1.0
  9
$ATTMODE
 70
     1
  9
$TEXTSIZE
 40
0.2
  9
$TRACEWID
 40
0.05
  9
$TEXTSTYLE
  7
Standard
  9
$CLAYER
  8
0
  9
$CELTYPE
  6
ByLayer
  9
$CECOLOR
 62
   256
  9
$CELTSCALE
 40
1.0
  9
$DISPSILH
 70
     0
  9
$DIMSCALE
 40
1.0
  9
$DIMASZ
 40
0.18
  9
$DIMEXO
 40
0.0625
  9
$DIMDLI
 40
0.38
  9
$DIMRND
 40
0.0
  9
$DIMDLE
 40
0.0
  9
$DIMEXE
 40
0.18
  9
$DIMTP
 40
0.0
  9
$DIMTM
 40
0.0
  9
$DIMTXT
 40
0.18
  9
$DIMCEN
 40
0.09
  9
$DIMTSZ
 40
0.0
  9
$DIMTOL
 70
     0
  9
$DIMLIM
 70
     0
  9
$DIMTIH
 70
     1
  9
$DIMTOH
 70
     1
  9
$DIMSE1
 70
     0
  9
$DIMSE2
 70
     0
  9
$DIMTAD
 70
     0
  9
$DIMZIN
 70
     0
  9
$DIMBLK
  1

  9
$DIMASO
 70
     1
  9
$DIMSHO
 70
     1
  9
$DIMPOST
  1

  9
$DIMAPOST
  1

  9
$DIMALT
 70
     0
  9
$DIMALTD
 70
     2
  9
$DIMALTF
 40
25.4
  9
$DIMLFAC
 40
1.0
  9
$DIMTOFL
 70
     0
  9
$DIMTVP
 40
0.0
  9
$DIMTIX
 70
     0
  9
$DIMSOXD
 70
     0
  9
$DIMSAH
 70
     0
  9
$DIMBLK1
  1

  9
$DIMBLK2
  1

  9
$DIMSTYLE
  2
Standard
  9
$DIMCLRD
 70
     0
  9
$DIMCLRE
 70
     0
  9
$DIMCLRT
 70
     0
  9
$DIMTFAC
 40
1.0
  9
$DIMGAP
 40
0.09
  9
$DIMJUST
 70
     0
  9
$DIMSD1
 70
     0
  9
$DIMSD2
 70
     0
  9
$DIMTOLJ
 70
     1
  9
$DIMTZIN
 70
     0
  9
$DIMALTZ
 70
     0
  9
$DIMALTTZ
 70
     0
  9
$DIMUPT
 70
     0
  9
$DIMDEC
 70
     4
  9
$DIMTDEC
 70
     4
  9
$DIMALTU
 70
     2
  9
$DIMALTTD
 70
     2
  9
$DIMTXSTY
  7
Standard
  9
$DIMAUNIT
 70
     0
  9
$DIMADEC
 70
     0
  9
$DIMALTRND
 40
0.0
  9
$DIMAZIN
 70
     0
  9
$DIMDSEP
 70
    46
  9
$DIMATFIT
 70
     3
  9
$DIMFRAC
 70
     0
  9
$DIMLDRBLK
  1

  9
$DIMLUNIT
 70
     2
  9
$DIMLWD
 70
    -2
  9
$DIMLWE
 70
    -2
  9
$DIMTMOVE
 70
     0
  9
$DIMFXL
 40
1.0
  9
$DIMFXLON
 70
     0
  9
$DIMJOGANG
 40
0.7853981633974483
  9
$DIMTFILL
 70
     0
  9
$DIMTFILLCLR
 70
     0
  9
$DIMARCSYM
 70
     0
  9
$DIMLTYPE
  6

  9
$DIMLTEX1
  6

  9
$DIMLTEX2
  6

  9
$DIMTXTDIRECTION
 70
     0
  9
$LUNITS
 70
     2
  9
$LUPREC
 70
     4
  9
$SKETCHINC
 40
0.1
  9
$FILLETRAD
 40
0.5
  9
$AUNITS
 70
     0
  9
$AUPREC
 70
     0
  9
$MENU
  1
.
  9
$ELEVATION
 40
0.0
  9
$PELEVATION
 40
0.0
  9
$THICKNESS
 40
0.0
  9
$LIMCHECK
 70
     0
  9
$CHAMFERA
 40
0.5
  9
$CHAMFERB
 40
0.5
  9
$CHAMFERC
 40
1.0
  9
$CHAMFERD
 40
0.0
  9
$SKPOLY
 70
     0
  9
$TDCREATE
 40
2457917.585034711
  9
$TDUCREATE
 40
2457917.210034722
  9
$TDUPDATE
 40
2457917.585034711
  9
$TDUUPDATE
 40
2457917.210034722
  9
$TDINDWG
 40
0.0000000116
  9
$TDUSRTIMER
 40
0.0000000116
  9
$USRTIMER
 70
     1
  9
$ANGBASE
 50
0.0
  9
$ANGDIR
 70
     0
  9
$PDMODE
 70
     0
  9
$PDSIZE
 40
0.0
  9
$PLINEWID
 40
0.0
  9
$SPLFRAME
 70
     0
  9
$SPLINETYPE
 70
     6
  9
$SPLINESEGS
 70
     8
  9
$HANDSEED
  5
F5
  9
$SURFTAB1
 70
     6
  9
$SURFTAB2
 70
     6
  9
$SURFTYPE
 70
     6
  9
$SURFU
 70
     6
  9
$SURFV
 70
     6
  9
$UCSBASE
  2

  9
$UCSNAME
  2

  9
$UCSORG
 10
0.0
 20
0.0
 30
0.0
  9
$UCSXDIR
 10
1.0
 20
0.0
 30
0.0
  9
$UCSYDIR
 10
0.0
 20
1.0
 30
0.0
  9
$UCSORTHOREF
  2

  9
$UCSORTHOVIEW
 70
     0
  9
$UCSORGTOP
 10
0.0
 20
0.0
 30
0.0
  9
$UCSORGBOTTOM
 10
0.0
 20
0.0
 30
0.0
  9
$UCSORGLEFT
 10
0.0
 20
0.0
 30
0.0
  9
$UCSORGRIGHT
 10
0.0
 20
0.0
 30
0.0
  9
$UCSORGFRONT
 10
0.0
 20
0.0
 30
0.0
  9
$UCSORGBACK
 10
0.0
 20
0.0
 30
0.0
  9
$PUCSBASE
  2

  9
$PUCSNAME
  2

  9
$PUCSORG
 10
0.0
 20
0.0
 30
0.0
  9
$PUCSXDIR
 10
1.0
 20
0.0
 30
0.0
  9
$PUCSYDIR
 10
0.0
 20
1.0
 30
0.0
  9
$PUCSORTHOREF
  2

  9
$PUCSORTHOVIEW
 70
     0
  9
$PUCSORGTOP
 10
0.0
 20
0.0
 30
0.0
  9
$PUCSORGBOTTOM
 10
0.0
 20
0.0
 30
0.0
  9
$PUCSORGLEFT
 10
0.0
 20
0.0
 30
0.0
  9
$PUCSORGRIGHT
 10
0.0
 20
0.0
 30
0.0
  9
$PUCSORGFRONT
 10
0.0
 20
0.0
 30
0.0
  9
$PUCSORGBACK
 10
0.0
 20
0.0
 30
0.0
  9
$USERI1
 70
     0
  9
$USERI2
 70
     0
  9
$USERI3
 70
     0
  9
$USERI4
 70
     0
  9
$USERI5
 70
     0
  9
$USERR1
 40
0.0
  9
$USERR2
 40
0.0
  9
$USERR3
 40
0.0
  9
$USERR4
 40
0.0
  9
$USERR5
 40
0.0
  9
$WORLDVIEW
 70
     1
  9
$SHADEDGE
 70
     3
  9
$SHADEDIF
 70
    70
  9
$TILEMODE
 70
     1
  9
$MAXACTVP
 70
    64
  9
$PINSBASE
 10
0.0
 20
0.0
 30
0.0
  9
$PLIMCHECK
 70
     0
  9
$PEXTMIN
 10
1.000000000000000E+20
 20
1.000000000000000E+20
 30
1.000000000000000E+20
  9
$PEXTMAX
 10
-1.000000000000000E+20
 20
-1.000000000000000E+20
 30
-1.000000000000000E+20
  9
$PLIMMIN
 10
0.0
 20
0.0
  9
$PLIMMAX
 10
12.0
 20
9.0
  9
$UNITMODE
 70
     0
  9
$VISRETAIN
 70
     1
  9
$PLINEGEN
 70
     0
  9
$PSLTSCALE
 70
     1
  9
$TREEDEPTH
 70
  3020
  9
$CMLSTYLE
  2
Standard
  9
$CMLJUST
 70
     0
  9
$CMLSCALE
 40
1.0
  9
$PROXYGRAPHICS
 70
     1
  9
$MEASUREMENT
 70
     0
  9
$CELWEIGHT
370
    -1
  9
$ENDCAPS
280
     0
  9
$JOINSTYLE
280
     0
  9
$LWDISPLAY
290
     1
  9
$INSUNITS
 70
     1
  9
$HYPERLINKBASE
  1

  9
$STYLESHEET
  1

  9
$XEDIT
290
     1
  9
$CEPSNTYPE
380
     0
  9
$PSTYLEMODE
290
     1
  9
$FINGERPRINTGUID
  2
{177B2763-6EA0-440B-AAB0-0A4630776EEF}
  9
$VERSIONGUID
  2
{FAEB1C32-E019-11D5-929B-00C0DF256EC4}
  9
$EXTNAMES
290
     1
  9
$PSVPSCALE
 40
0.0
  9
$OLESTARTUP
290
     0
  9
$SORTENTS
280
   127
  9
$INDEXCTL
280
     0
  9
$HIDETEXT
280
     1
  9
$XCLIPFRAME
280
     2
  9
$HALOGAP
280
     0
  9
$OBSCOLOR
 70
   257
  9
$OBSLTYPE
280
     0
  9
$INTERSECTIONDISPLAY
280
     0
  9
$INTERSECTIONCOLOR
 70
   257
  9
$DIMASSOC
280
     2
  9
$PROJECTNAME
  1

  9
$CAMERADISPLAY
290
     0
  9
$LENSLENGTH
 40
50.0
  9
$CAMERAHEIGHT
 40
0.0
  9
$STEPSPERSEC
 40
2.0
  9
$STEPSIZE
 40
6.0
  9
$3DDWFPREC
 40
2.0
  9
$PSOLWIDTH
 40
0.25
  9
$PSOLHEIGHT
 40
4.0
  9
$LOFTANG1
 40
1.570796326794897
  9
$LOFTANG2
 40
1.570796326794897
  9
$LOFTMAG1
 40
0.0
  9
$LOFTMAG2
 40
0.0
  9
$LOFTPARAM
 70
     7
  9
$LOFTNORMALS
280
     1
  9
$LATITUDE
 40
37.795
  9
$LONGITUDE
 40
-122.394
  9
$NORTHDIRECTION
 40
0.0
  9
$TIMEZONE
 70
 -8000
  9
$LIGHTGLYPHDISPLAY
280
     1
  9
$TILEMODELIGHTSYNCH
280
     1
  9
$CMATERIAL
347
3C
  9
$SOLIDHIST
280
     1
  9
$SHOWHIST
280
     1
  9
$DWFFRAME
280
     2
  9
$DGNFRAME
280
     2
  9
$REALWORLDSCALE
290
     1
  9
$INTERFERECOLOR
 62
   256
  9
$CSHADOW
280
     0
  9
$SHADOWPLANELOCATION
 40
0.0
  0
ENDSEC
  0
SECTION
  2
CLASSES
  0
CLASS
  1
ACDBDICTIONARYWDFLT
  2
AcDbDictionaryWithDefault
  3
ObjectDBX Classes
 90
        0
 91
        4
280
     0
281
     0
  0
CLASS
  1
VISUALSTYLE
  2
AcDbVisualStyle
  3
ObjectDBX Classes
 90
     4095
 91
        4
280
     0
281
     0
  0
CLASS
  1
MATERIAL
  2
AcDbMaterial
  3
ObjectDBX Classes
 90
     1153
 91
        4
280
     0
281
     0
  0
CLASS
  1
SUN
  2
AcDbSun
  3
SCENEOE
 90
     1024
 91
        4
280
     0
281
     0
  0
ENDSEC
  0
SECTION
  2
TABLES
  0
TABLE
  2
VPORT
  5
8
330
0
100
AcDbSymbolTable
 70
     1
  0
VPORT
  5
29
330
8
100
AcDbSymbolTableRecord
100
AcDbViewportTableRecord
  2
*Active
 70
     0
 10
0.0
 20
0.0
 11
1.0
 21
1.0
 12
0.0
 22
0.0
 13
0.0
 23
0.0
 14
0.5
 24
0.5
 15
0.5
 25
0.5
 16
0.0
 26
0.0
 36
1.0
 17
91.00082462281999
 27
-128.4993055234307
 37
0.0
 40
256.9986110468615
 41
0.7081814508812795
 42
50.0
 43
0.0
 44
0.0
 50
0.0
 51
0.0
 71
     0
 72
   100
 73
     1
 74
     3
 75
     0
 76
     0
 77
     0
 78
     0
281
     0
 65
     1
110
0.0
120
0.0
130
0.0
111
1.0
121
0.0
131
0.0
112
0.0
122
1.0
132
0.0
 79
     0
146
0.0
 60
     3
 61
     5
292
     1
282
     1
141
0.0
142
0.0
 63
   250
361
3F
  0
ENDTAB
  0
TABLE
  2
LTYPE
  5
5
330
0
100
AcDbSymbolTable
 70
     3
  0
LTYPE
  5
14
330
5
100
AcDbSymbolTableRecord
100
AcDbLinetypeTableRecord
  2
ByBlock
 70
     0
  3

 72
    65
 73
     0
 40
0.0
  0
LTYPE
  5
15
330
5
100
AcDbSymbolTableRecord
100
AcDbLinetypeTableRecord
  2
ByLayer
 70
     0
  3

 72
    65
 73
     0
 40
0.0
  0
LTYPE
  5
16
330
5
100
AcDbSymbolTableRecord
100
AcDbLinetypeTableRecord
  2
Continuous
 70
     0
  3
Solid line
 72
    65
 73
     0
 40
0.0
  0
LTYPE
  5
44
330
5
100
AcDbSymbolTableRecord
100
AcDbLinetypeTableRecord
  2
AI-Linetype-1
 70
     0
  3
Adobe Illustrator Linetype No. 1
 72
    65
 73
     2
 40
1.411111110758333
 49
0.7055555553791667
 74
     0
 49
-0.7055555553791667
 74
     0
  0
LTYPE
  5
49
330
5
100
AcDbSymbolTableRecord
100
AcDbLinetypeTableRecord
  2
AI-Linetype-2
 70
     0
  3
Adobe Illustrator Linetype No. 2
 72
    65
 73
     2
 40
1.411111110758333
 49
0.7055555553791667
 74
     0
 49
-0.7055555553791667
 74
     0
  0
ENDTAB
  0
TABLE
  2
LAYER
  5
2
330
0
100
AcDbSymbolTable
 70
     2
  0
LAYER
  5
10
330
2
100
AcDbSymbolTableRecord
100
AcDbLayerTableRecord
  2
0
 70
     0
 62
     7
  6
Continuous
370
    -3
390
F
347
3E
  0
LAYER
  5
40
330
2
100
AcDbSymbolTableRecord
100
AcDbLayerTableRecord
  2
_U+30EC_U+30A4_U+30E4_U+30FC 1
 70
     0
 62
     7
  6
Continuous
370
    -3
390
F
347
3E
  0
ENDTAB
  0
TABLE
  2
STYLE
  5
3
330
0
100
AcDbSymbolTable
 70
     1
  0
STYLE
  5
11
330
3
100
AcDbSymbolTableRecord
100
AcDbTextStyleTableRecord
  2
Standard
 70
     0
 40
0.0
 41
1.0
 50
0.0
 71
     0
 42
0.2
  3
txt
  4

  0
ENDTAB
  0
TABLE
  2
VIEW
  5
6
330
0
100
AcDbSymbolTable
 70
     0
  0
ENDTAB
  0
TABLE
  2
UCS
  5
7
330
0
100
AcDbSymbolTable
 70
     0
  0
ENDTAB
  0
TABLE
  2
APPID
  5
9
330
0
100
AcDbSymbolTable
 70
     1
  0
APPID
  5
12
330
9
100
AcDbSymbolTableRecord
100
AcDbRegAppTableRecord
  2
ACAD
 70
     0
  0
ENDTAB
  0
TABLE
  2
DIMSTYLE
  5
A
330
0
100
AcDbSymbolTable
 70
     1
100
AcDbDimStyleTable
  0
DIMSTYLE
105
27
330
A
100
AcDbSymbolTableRecord
100
AcDbDimStyleTableRecord
  2
Standard
 70
     0
178
     0
340
11
  0
ENDTAB
  0
TABLE
  2
BLOCK_RECORD
  5
1
330
0
100
AcDbSymbolTable
 70
     6
  0
BLOCK_RECORD
  5
1F
330
1
100
AcDbSymbolTableRecord
100
AcDbBlockTableRecord
  2
*Model_Space
340
22
 70
     0
280
     1
281
     0
  0
BLOCK_RECORD
  5
1B
330
1
100
AcDbSymbolTableRecord
100
AcDbBlockTableRecord
  2
*Paper_Space
340
1E
 70
     0
280
     1
281
     0
  0
BLOCK_RECORD
  5
23
330
1
100
AcDbSymbolTableRecord
100
AcDbBlockTableRecord
  2
*Paper_Space0
340
26
 70
     0
280
     1
281
     0
  0
BLOCK_RECORD
  5
63
330
1
100
AcDbSymbolTableRecord
100
AcDbBlockTableRecord
  2
block 2
340
0
102
{BLKREFS
331
64
102
}
 70
     0
280
     1
281
     0
  0
BLOCK_RECORD
  5
8B
330
1
100
AcDbSymbolTableRecord
100
AcDbBlockTableRecord
  2
block 3
340
0
102
{BLKREFS
331
8C
102
}
 70
     0
280
     1
281
     0
  0
BLOCK_RECORD
  5
C1
330
1
100
AcDbSymbolTableRecord
100
AcDbBlockTableRecord
  2
block 4
340
0
102
{BLKREFS
331
C2
102
}
 70
     0
280
     1
281
     0
  0
BLOCK_RECORD
  5
D5
330
1
100
AcDbSymbolTableRecord
100
AcDbBlockTableRecord
  2
block 5
340
0
102
{BLKREFS
331
D6
102
}
 70
     0
280
     1
281
     0
  0
BLOCK_RECORD
  5
EA
330
1
100
AcDbSymbolTableRecord
100
AcDbBlockTableRecord
  2
block 6
340
0
102
{BLKREFS
331
EB
102
}
 70
     0
280
     1
281
     0
  0
ENDTAB
  0
ENDSEC
  0
SECTION
  2
BLOCKS
  0
BLOCK
  5
20
330
1F
100
AcDbEntity
  8
0
100
AcDbBlockBegin
  2
*Model_Space
 70
     0
 10
0.0
 20
0.0
 30
0.0
  3
*Model_Space
  1

  0
ENDBLK
  5
21
330
1F
100
AcDbEntity
  8
0
100
AcDbBlockEnd
  0
BLOCK
  5
1C
330
1B
100
AcDbEntity
 67
     1
  8
0
100
AcDbBlockBegin
  2
*Paper_Space
 70
     0
 10
0.0
 20
0.0
 30
0.0
  3
*Paper_Space
  1

  0
ENDBLK
  5
1D
330
1B
100
AcDbEntity
 67
     1
  8
0
100
AcDbBlockEnd
  0
BLOCK
  5
24
330
23
100
AcDbEntity
  8
0
100
AcDbBlockBegin
  2
*Paper_Space0
 70
     0
 10
0.0
 20
0.0
 30
0.0
  3
*Paper_Space0
  1

  0
ENDBLK
  5
25
330
23
100
AcDbEntity
  8
0
100
AcDbBlockEnd
  0
BLOCK
  5
65
330
63
100
AcDbEntity
  8
0
100
AcDbBlockBegin
  2
block 2
 70
     0
 10
0.0
 20
0.0
 30
0.0
  3
block 2
  1

  0
SPLINE
  5
67
330
63
100
AcDbEntity
  8
_U+30EC_U+30A4_U+30E4_U+30FC 1
370
     0
100
AcDbSpline
210
0.0
220
0.0
230
1.0
 70
    11
 71
     3
 72
   242
 73
   238
 74
     0
 42
0.0000000001
 43
0.0000000001
 12
1.0
 22
0.0
 32
0.0
 13
1.0
 23
0.0
 33
0.0
 40
0.0
 40
0.0
 40
0.0
 40
0.0
 40
1.0
 40
1.0
 40
1.0
 40
2.0
 40
2.0
 40
2.0
 40
3.0
 40
3.0
 40
3.0
 40
4.0
 40
4.0
 40
4.0
 40
5.0
 40
5.0
 40
5.0
 40
6.0
 40
6.0
 40
6.0
 40
7.0
 40
7.0
 40
7.0
 40
8.0
 40
8.0
 40
8.0
 40
9.0
 40
9.0
 40
9.0
 40
10.0
 40
10.0
 40
10.0
 40
11.0
 40
11.0
 40
11.0
 40
12.0
 40
12.0
 40
12.0
 40
13.0
 40
13.0
 40
13.0
 40
14.0
 40
14.0
 40
14.0
 40
15.0
 40
15.0
 40
15.0
 40
16.0
 40
16.0
 40
16.0
 40
17.0
 40
17.0
 40
17.0
 40
18.0
 40
18.0
 40
18.0
 40
19.0
 40
19.0
 40
19.0
 40
20.0
 40
20.0
 40
20.0
 40
21.0
 40
21.0
 40
21.0
 40
22.0
 40
22.0
 40
22.0
 40
23.0
 40
23.0
 40
23.0
 40
24.0
 40
24.0
 40
24.0
 40
25.0
 40
25.0
 40
25.0
 40
26.0
 40
26.0
 40
26.0
 40
27.0
 40
27.0
 40
27.0
 40
28.0
 40
28.0
 40
28.0
 40
29.0
 40
29.0
 40
29.0
 40
30.0
 40
30.0
 40
30.0
 40
31.0
 40
31.0
 40
31.0
 40
32.0
 40
32.0
 40
32.0
 40
33.0
 40
33.0
 40
33.0
 40
34.0
 40
34.0
 40
34.0
 40
35.0
 40
35.0
 40
35.0
 40
36.0
 40
36.0
 40
36.0
 40
37.0
 40
37.0
 40
37.0
 40
38.0
 40
38.0
 40
38.0
 40
39.0
 40
39.0
 40
39.0
 40
40.0
 40
40.0
 40
40.0
 40
41.0
 40
41.0
 40
41.0
 40
42.0
 40
42.0
 40
42.0
 40
43.0
 40
43.0
 40
43.0
 40
44.0
 40
44.0
 40
44.0
 40
45.0
 40
45.0
 40
45.0
 40
46.0
 40
46.0
 40
46.0
 40
47.0
 40
47.0
 40
47.0
 40
48.0
 40
48.0
 40
48.0
 40
49.0
 40
49.0
 40
49.0
 40
50.0
 40
50.0
 40
50.0
 40
51.0
 40
51.0
 40
51.0
 40
52.0
 40
52.0
 40
52.0
 40
53.0
 40
53.0
 40
53.0
 40
54.0
 40
54.0
 40
54.0
 40
55.0
 40
55.0
 40
55.0
 40
56.0
 40
56.0
 40
56.0
 40
57.0
 40
57.0
 40
57.0
 40
58.0
 40
58.0
 40
58.0
 40
59.0
 40
59.0
 40
59.0
 40
60.0
 40
60.0
 40
60.0
 40
61.0
 40
61.0
 40
61.0
 40
62.0
 40
62.0
 40
62.0
 40
63.0
 40
63.0
 40
63.0
 40
64.0
 40
64.0
 40
64.0
 40
65.0
 40
65.0
 40
65.0
 40
66.0
 40
66.0
 40
66.0
 40
67.0
 40
67.0
 40
67.0
 40
68.0
 40
68.0
 40
68.0
 40
69.0
 40
69.0
 40
69.0
 40
70.0
 40
70.0
 40
70.0
 40
71.0
 40
71.0
 40
71.0
 40
72.0
 40
72.0
 40
72.0
 40
73.0
 40
73.0
 40
73.0
 40
74.0
 40
74.0
 40
74.0
 40
75.0
 40
75.0
 40
75.0
 40
76.0
 40
76.0
 40
76.0
 40
77.0
 40
77.0
 40
77.0
 40
78.0
 40
78.0
 40
78.0
 40
79.0
 40
79.0
 40
79.0
 40
79.0
 10
99.16672903336804
 20
-114.4851738537572
 30
0.0
 10
99.16672903336804
 20
-114.4851738537572
 30
0.0
 10
98.91282549610513
 20
-114.4851738537572
 30
0.0
 10
98.91282549610513
 20
-114.4851738537572
 30
0.0
 10
98.91282549610513
 20
-114.4851738537572
 30
0.0
 10
98.63583981909105
 20
-114.4851738537572
 30
0.0
 10
98.63583981909105
 20
-114.4851738537572
 30
0.0
 10
98.63583981909105
 20
-114.4851738537572
 30
0.0
 10
98.76261933294823
 20
-114.5275485282258
 30
0.0
 10
98.76261933294823
 20
-114.5275485282258
 30
0.0
 10
98.77329912895252
 20
-114.5318548975823
 30
0.0
 10
98.78604598224794
 20
-114.5380560694558
 30
0.0
 10
98.78604598224794
 20
-114.5508029227512
 30
0.0
 10
98.78604598224794
 20
-114.5719902599855
 30
0.0
 10
98.75400659423511
 20
-114.5783636866332
 30
0.0
 10
98.73299151177508
 20
-114.5824978012155
 30
0.0
 10
98.72231171577081
 20
-114.6057521957409
 30
0.0
 10
98.69268389459766
 20
-114.6713812647349
 30
0.0
 10
98.6737358694288
 20
-114.7158229964947
 30
0.0
 10
98.6737358694288
 20
-114.7158229964947
 30
0.0
 10
98.94452037456944
 20
-114.7158229964947
 30
0.0
 10
98.94452037456944
 20
-114.7158229964947
 30
0.0
 10
99.03547089538003
 20
-114.7158229964947
 30
0.0
 10
99.23218584758779
 20
-114.7115166271381
 30
0.0
 10
99.37412378158008
 20
-114.7030761431992
 30
0.0
 10
99.37412378158008
 20
-114.7030761431992
 30
0.0
 10
99.37412378158008
 20
-114.8808430702381
 30
0.0
 10
99.37412378158008
 20
-114.8808430702381
 30
0.0
 10
99.29144148993409
 20
-114.8765367008816
 30
0.0
 10
99.27042640747406
 20
-114.8765367008816
 30
0.0
 10
99.09059242314402
 20
-114.8724025862993
 30
0.0
 10
99.05889754467972
 20
-115.0267428640385
 30
0.0
 10
99.01445581292
 20
-115.107185843619
 30
0.0
 10
98.97001408116027
 20
-115.1769490271953
 30
0.0
 10
99.09059242314402
 20
-115.2362046695416
 30
0.0
 10
99.1963568545412
 20
-115.3039007958268
 30
0.0
 10
99.30005422864721
 20
-115.3864108326985
 30
0.0
 10
99.30005422864721
 20
-115.3864108326985
 30
0.0
 10
99.18154294395463
 20
-115.5534979637332
 30
0.0
 10
99.18154294395463
 20
-115.5534979637332
 30
0.0
 10
99.15811629465492
 20
-115.5345499385643
 30
0.0
 10
99.14536944135949
 20
-115.5261094546254
 30
0.0
 10
99.03340383808887
 20
-115.4413601056883
 30
0.0
 10
98.98482799174685
 20
-115.4032918005763
 30
0.0
 10
98.92557234940055
 20
-115.3674628075297
 30
0.0
 10
98.84495711504572
 20
-115.3230210757699
 30
0.0
 10
98.63342825225136
 20
-115.5092284867477
 30
0.0
 10
98.42844507087901
 20
-115.5324828812731
 30
0.0
 10
98.13836803102097
 20
-115.5621107024463
 30
0.0
 10
98.13836803102097
 20
-115.5621107024463
 30
0.0
 10
98.03501516646347
 20
-115.3822767181162
 30
0.0
 10
98.03501516646347
 20
-115.3822767181162
 30
0.0
 10
98.35230846065498
 20
-115.3779703487597
 30
0.0
 10
98.5276638208542
 20
-115.3526488969431
 30
0.0
 10
98.67993704130224
 20
-115.2425780961894
 30
0.0
 10
98.56177026615818
 20
-115.1917629377819
 30
0.0
 10
98.47288680263873
 20
-115.1643744286742
 30
0.0
 10
98.4367133000436
 20
-115.1516275753788
 30
0.0
 10
98.41776527487472
 20
-115.1791883392608
 30
0.0
 10
98.40295136428816
 20
-115.1981363644296
 30
0.0
 10
98.37539060040616
 20
-115.2320705549593
 30
0.0
 10
98.37539060040616
 20
-115.2320705549593
 30
0.0
 10
98.17867564819839
 20
-115.1495605180876
 30
0.0
 10
98.17867564819839
 20
-115.1495605180876
 30
0.0
 10
98.26135793984439
 20
-115.069117538507
 30
0.0
 10
98.32268063948183
 20
-114.9738606483399
 30
0.0
 10
98.37952471498846
 20
-114.8724025862993
 30
0.0
 10
98.18935544420266
 20
-114.8765367008816
 30
0.0
 10
98.16799585219411
 20
-114.8765367008816
 30
0.0
 10
98.08565807009664
 20
-114.8808430702381
 30
0.0
 10
98.08565807009664
 20
-114.8808430702381
 30
0.0
 10
98.08565807009664
 20
-114.7030761431992
 30
0.0
 10
98.08565807009664
 20
-114.7030761431992
 30
0.0
 10
98.22518443724927
 20
-114.709449569847
 30
0.0
 10
98.43464624275245
 20
-114.7137559392035
 30
0.0
 10
98.4601399493433
 20
-114.7137559392035
 30
0.0
 10
98.47702091722103
 20
-114.6798217486738
 30
0.0
 10
98.53214244498503
 20
-114.5592434066901
 30
0.0
 10
98.5510904701539
 20
-114.4851738537572
 30
0.0
 10
98.53214244498503
 20
-114.4851738537572
 30
0.0
 10
98.35437551794614
 20
-114.4915472804049
 30
0.0
 10
98.15972762302951
 20
-114.5042941337003
 30
0.0
 10
98.15972762302951
 20
-114.5042941337003
 30
0.0
 10
98.15972762302951
 20
-114.6376193289795
 30
0.0
 10
98.15972762302951
 20
-114.6376193289795
 30
0.0
 10
98.11115177668749
 20
-114.6629407807961
 30
0.0
 10
98.05189613434119
 20
-114.6946356592604
 30
0.0
 10
97.91857093906202
 20
-114.7602647282544
 30
0.0
 10
97.91857093906202
 20
-114.7602647282544
 30
0.0
 10
97.91857093906202
 20
-114.9061645220547
 30
0.0
 10
97.91857093906202
 20
-114.9061645220547
 30
0.0
 10
97.91857093906202
 20
-114.9061645220547
 30
0.0
 10
97.91857093906202
 20
-115.3738362341774
 30
0.0
 10
97.91857093906202
 20
-115.3738362341774
 30
0.0
 10
97.91857093906202
 20
-115.5006157480346
 30
0.0
 10
97.8823974364669
 20
-115.5598713903809
 30
0.0
 10
97.59921058757936
 20
-115.551430906442
 30
0.0
 10
97.59921058757936
 20
-115.551430906442
 30
0.0
 10
97.49551321347334
 20
-115.3442084130042
 30
0.0
 10
97.49551321347334
 20
-115.3442084130042
 30
0.0
 10
97.55890297040195
 20
-115.3567830115254
 30
0.0
 10
97.60747881674396
 20
-115.3610893808819
 30
0.0
 10
97.6477864339214
 20
-115.3610893808819
 30
0.0
 10
97.72392304414541
 20
-115.3610893808819
 30
0.0
 10
97.73460284014969
 20
-115.3378349863565
 30
0.0
 10
97.73460284014969
 20
-115.2722059173625
 30
0.0
 10
97.73460284014969
 20
-115.2722059173625
 30
0.0
 10
97.73460284014969
 20
-114.8427747651261
 30
0.0
 10
97.73460284014969
 20
-114.8427747651261
 30
0.0
 10
97.63710663791711
 20
-114.8829101275293
 30
0.0
 10
97.62022567003939
 20
-114.889283554177
 30
0.0
 10
97.57371688098851
 20
-114.9084038341201
 30
0.0
 10
97.56958276640621
 20
-114.9294189165801
 30
0.0
 10
97.5651041422754
 20
-114.9590467377533
 30
0.0
 10
97.54615611710652
 20
-114.9590467377533
 30
0.0
 10
97.53788788794192
 20
-114.9590467377533
 30
0.0
 10
97.52720809193765
 20
-114.954912623171
 30
0.0
 10
97.52066241051567
 20
-114.9316582286456
 30
0.0
 10
97.52066241051567
 20
-114.9316582286456
 30
0.0
 10
97.46795244959135
 20
-114.7390773910201
 30
0.0
 10
97.46795244959135
 20
-114.7390773910201
 30
0.0
 10
97.61402449816595
 20
-114.6925686019692
 30
0.0
 10
97.67948131238569
 20
-114.6693142074438
 30
0.0
 10
97.73460284014969
 20
-114.6481268702095
 30
0.0
 10
97.73460284014969
 20
-114.6481268702095
 30
0.0
 10
97.73460284014969
 20
-114.2355766858508
 30
0.0
 10
97.73460284014969
 20
-114.2355766858508
 30
0.0
 10
97.73460284014969
 20
-114.2355766858508
 30
0.0
 10
97.68154836967683
 20
-114.2355766858508
 30
0.0
 10
97.68154836967683
 20
-114.2355766858508
 30
0.0
 10
97.68154836967683
 20
-114.2355766858508
 30
0.0
 10
97.60334470216166
 20
-114.2355766858508
 30
0.0
 10
97.60334470216166
 20
-114.2355766858508
 30
0.0
 10
97.53547632110225
 20
-114.2355766858508
 30
0.0
 10
97.52720809193765
 20
-114.2355766858508
 30
0.0
 10
97.49103458934252
 20
-114.2419501124985
 30
0.0
 10
97.49103458934252
 20
-114.2419501124985
 30
0.0
 10
97.49103458934252
 20
-114.0473022175819
 30
0.0
 10
97.49103458934252
 20
-114.0473022175819
 30
0.0
 10
97.51859535322453
 20
-114.0536756442296
 30
0.0
 10
97.52720809193765
 20
-114.0536756442296
 30
0.0
 10
97.5967990207397
 20
-114.0536756442296
 30
0.0
 10
97.5967990207397
 20
-114.0536756442296
 30
0.0
 10
97.73012421601887
 20
-114.0536756442296
 30
0.0
 10
97.73012421601887
 20
-114.0536756442296
 30
0.0
 10
97.73012421601887
 20
-113.9839124606533
 30
0.0
 10
97.73012421601887
 20
-113.9014024237816
 30
0.0
 10
97.72805715872771
 20
-113.897096054425
 30
0.0
 10
97.71978892956311
 20
-113.717262070095
 30
0.0
 10
97.71978892956311
 20
-113.6983140449261
 30
0.0
 10
97.71737736272344
 20
-113.6518052558752
 30
0.0
 10
97.71737736272344
 20
-113.6518052558752
 30
0.0
 10
97.9333848496486
 20
-113.6602457398141
 30
0.0
 10
97.9333848496486
 20
-113.6602457398141
 30
0.0
 10
97.94406464565287
 20
-113.6602457398141
 30
0.0
 10
97.9650797281129
 20
-113.6623127971053
 30
0.0
 10
97.9650797281129
 20
-113.679193764983
 30
0.0
 10
97.9650797281129
 20
-113.6983140449261
 30
0.0
 10
97.95026581752633
 20
-113.7088215861561
 30
0.0
 10
97.92477211093548
 20
-113.7279418660993
 30
0.0
 10
97.92477211093548
 20
-113.7785847697324
 30
0.0
 10
97.91857093906202
 20
-114.0071668551788
 30
0.0
 10
97.92063799635318
 20
-114.0536756442296
 30
0.0
 10
98.04982907705005
 20
-114.0536756442296
 30
0.0
 10
98.06223142079695
 20
-114.0536756442296
 30
0.0
 10
98.15972762302951
 20
-114.0452351602908
 30
0.0
 10
98.15972762302951
 20
-114.0452351602908
 30
0.0
 10
98.15972762302951
 20
-114.2398830552074
 30
0.0
 10
98.15972762302951
 20
-114.2398830552074
 30
0.0
 10
98.12148706314325
 20
-114.237643743142
 30
0.0
 10
98.05396319163235
 20
-114.2335096285597
 30
0.0
 10
97.91857093906202
 20
-114.2355766858508
 30
0.0
 10
97.91857093906202
 20
-114.2355766858508
 30
0.0
 10
97.91857093906202
 20
-114.5740573172766
 30
0.0
 10
97.91857093906202
 20
-114.5740573172766
 30
0.0
 10
97.97369246682602
 20
-114.5508029227512
 30
0.0
 10
98.03914928104577
 20
-114.5232421588692
 30
0.0
 10
98.0877251273878
 20
-114.4999877643438
 30
0.0
 10
98.0877251273878
 20
-114.4999877643438
 30
0.0
 10
98.0877251273878
 20
-114.3223930920791
 30
0.0
 10
98.0877251273878
 20
-114.3223930920791
 30
0.0
 10
98.20210229749809
 20
-114.3349676906003
 30
0.0
 10
98.32061358219069
 20
-114.3349676906003
 30
0.0
 10
98.4367133000436
 20
-114.3349676906003
 30
0.0
 10
98.41363116029243
 20
-114.2398830552074
 30
0.0
 10
98.38607039641043
 20
-114.1573730183357
 30
0.0
 10
98.32268063948183
 20
-114.0240478230565
 30
0.0
 10
98.27823890772211
 20
-114.0261148803476
 30
0.0
 10
98.19555661607612
 20
-114.0304212497042
 30
0.0
 10
98.15766056573837
 20
-114.0324883069954
 30
0.0
 10
98.15766056573837
 20
-114.0324883069954
 30
0.0
 10
98.15766056573837
 20
-113.8526543226653
 30
0.0
 10
98.15766056573837
 20
-113.8526543226653
 30
0.0
 10
98.28237302230441
 20
-113.8610948066042
 30
0.0
 10
98.456005834761
 20
-113.8654011759607
 30
0.0
 10
98.53834361685847
 20
-113.8654011759607
 30
0.0
 10
98.53834361685847
 20
-113.8654011759607
 30
0.0
 10
98.62102590850446
 20
-113.8654011759607
 30
0.0
 10
98.62102590850446
 20
-113.8654011759607
 30
0.0
 10
98.62102590850446
 20
-113.7024481595084
 30
0.0
 10
98.62102590850446
 20
-113.6919406182784
 30
0.0
 10
98.6186143416648
 20
-113.6369913452887
 30
0.0
 10
98.6186143416648
 20
-113.6369913452887
 30
0.0
 10
98.84289005775456
 20
-113.6623127971053
 30
0.0
 10
98.84289005775456
 20
-113.6623127971053
 30
0.0
 10
98.84736868188538
 20
-113.6623127971053
 30
0.0
 10
98.86838376434541
 20
-113.6643798543964
 30
0.0
 10
98.86838376434541
 20
-113.6812608222741
 30
0.0
 10
98.86838376434541
 20
-113.6960747328607
 30
0.0
 10
98.85770396834113
 20
-113.7046874715738
 30
0.0
 10
98.83014320445913
 20
-113.7195013821604
 30
0.0
 10
98.82394203258569
 20
-113.7849581963802
 30
0.0
 10
98.82187497529453
 20
-113.8061455336144
 30
0.0
 10
98.82187497529453
 20
-113.8654011759607
 30
0.0
 10
98.82187497529453
 20
-113.8654011759607
 30
0.0
 10
98.91695961068743
 20
-113.8654011759607
 30
0.0
 10
98.91695961068743
 20
-113.8654011759607
 30
0.0
 10
98.99964190233342
 20
-113.8654011759607
 30
0.0
 10
99.1729302052415
 20
-113.8610948066042
 30
0.0
 10
99.29798717135607
 20
-113.8526543226653
 30
0.0
 10
99.29798717135607
 20
-113.8526543226653
 30
0.0
 10
99.29798717135607
 20
-114.0324883069954
 30
0.0
 10
99.29798717135607
 20
-114.0324883069954
 30
0.0
 10
99.26835935018292
 20
-114.0304212497042
 30
0.0
 10
99.14984806549032
 20
-114.0261148803476
 30
0.0
 10
99.1095404483129
 20
-114.0240478230565
 30
0.0
 10
99.09472653772632
 20
-114.0748629814639
 30
0.0
 10
99.06096460197088
 20
-114.1870008395088
 30
0.0
 10
98.9951632782026
 20
-114.3265272066614
 30
0.0
 10
99.03753795267117
 20
-114.3265272066614
 30
0.0
 10
99.31486813923378
 20
-114.3075791814926
 30
0.0
 10
99.37619083887124
 20
-114.3053398694271
 30
0.0
 10
99.37619083887124
 20
-114.3053398694271
 30
0.0
 10
99.37619083887124
 20
-114.4894802231137
 30
0.0
 10
99.37619083887124
 20
-114.4894802231137
 30
0.0
 10
99.34656301769809
 20
-114.4894802231137
 30
0.0
 10
99.32968204982036
 20
-114.4851738537572
 30
0.0
 10
99.16672903336804
 20
-114.4851738537572
 30
0.0
  0
SPLINE
  5
68
330
63
100
AcDbEntity
  8
_U+30EC_U+30A4_U+30E4_U+30FC 1
370
     0
100
AcDbSpline
210
0.0
220
0.0
230
1.0
 70
    11
 71
     3
 72
    20
 73
    16
 74
     0
 42
0.0000000001
 43
0.0000000001
 12
1.0
 22
0.0
 32
0.0
 13
1.0
 23
0.0
 33
0.0
 40
0.0
 40
0.0
 40
0.0
 40
0.0
 40
1.0
 40
1.0
 40
1.0
 40
2.0
 40
2.0
 40
2.0
 40
3.0
 40
3.0
 40
3.0
 40
4.0
 40
4.0
 40
4.0
 40
5.0
 40
5.0
 40
5.0
 40
5.0
 10
98.53834361685847
 20
-114.0199137084742
 30
0.0
 10
98.53834361685847
 20
-114.0199137084742
 30
0.0
 10
98.50664873839418
 20
-114.0199137084742
 30
0.0
 10
98.50664873839418
 20
-114.0199137084742
 30
0.0
 10
98.55315752744505
 20
-114.1193047132237
 30
0.0
 10
98.58485240590934
 20
-114.19957543803
 30
0.0
 10
98.6186143416648
 20
-114.3265272066614
 30
0.0
 10
98.6186143416648
 20
-114.3265272066614
 30
0.0
 10
98.82600908987683
 20
-114.3265272066614
 30
0.0
 10
98.82600908987683
 20
-114.3265272066614
 30
0.0
 10
98.85770396834113
 20
-114.2335096285597
 30
0.0
 10
98.88113061764084
 20
-114.1489325343968
 30
0.0
 10
98.904212757392
 20
-114.0199137084742
 30
0.0
 10
98.904212757392
 20
-114.0199137084742
 30
0.0
 10
98.53834361685847
 20
-114.0199137084742
 30
0.0
 10
98.53834361685847
 20
-114.0199137084742
 30
0.0
  0
SPLINE
  5
69
330
63
100
AcDbEntity
  8
_U+30EC_U+30A4_U+30E4_U+30FC 1
370
     0
100
AcDbSpline
210
0.0
220
0.0
230
1.0
 70
    11
 71
     3
 72
    17
 73
    13
 74
     0
 42
0.0000000001
 43
0.0000000001
 12
1.0
 22
0.0
 32
0.0
 13
1.0
 23
0.0
 33
0.0
 40
0.0
 40
0.0
 40
0.0
 40
0.0
 40
1.0
 40
1.0
 40
1.0
 40
2.0
 40
2.0
 40
2.0
 40
3.0
 40
3.0
 40
3.0
 40
4.0
 40
4.0
 40
4.0
 40
4.0
 10
98.60173337378707
 20
-114.8703355290081
 30
0.0
 10
98.58485240590934
 20
-114.899791095407
 30
0.0
 10
98.53420950227617
 20
-114.992980928283
 30
0.0
 10
98.5235297062719
 20
-115.0119289534519
 30
0.0
 10
98.71404348660622
 20
-115.0711845957982
 30
0.0
 10
98.73505856906624
 20
-115.0775580224459
 30
0.0
 10
98.80706106470797
 20
-115.1051187863279
 30
0.0
 10
98.86218259247195
 20
-115.0183023800996
 30
0.0
 10
98.88526473222313
 20
-114.9442328271667
 30
0.0
 10
98.9000786428097
 20
-114.8703355290081
 30
0.0
 10
98.9000786428097
 20
-114.8703355290081
 30
0.0
 10
98.60173337378707
 20
-114.8703355290081
 30
0.0
 10
98.60173337378707
 20
-114.8703355290081
 30
0.0
  0
HATCH
  5
6A
330
63
100
AcDbEntity
  8
_U+30EC_U+30A4_U+30E4_U+30FC 1
 62
     7
420
 16777215
100
AcDbHatch
 10
0.0
 20
0.0
 30
0.0
210
0.0
220
0.0
230
1.0
  2
SOLID
 70
     1
 71
     0
 91
        3
 92
        1
 93
        1
 72
     4
 94
        3
 73
     0
 74
     1
 95
      242
 96
      238
 40
0.0
 40
0.0
 40
0.0
 40
0.0
 40
1.0
 40
1.0
 40
1.0
 40
2.0
 40
2.0
 40
2.0
 40
3.0
 40
3.0
 40
3.0
 40
4.0
 40
4.0
 40
4.0
 40
5.0
 40
5.0
 40
5.0
 40
6.0
 40
6.0
 40
6.0
 40
7.0
 40
7.0
 40
7.0
 40
8.0
 40
8.0
 40
8.0
 40
9.0
 40
9.0
 40
9.0
 40
10.0
 40
10.0
 40
10.0
 40
11.0
 40
11.0
 40
11.0
 40
12.0
 40
12.0
 40
12.0
 40
13.0
 40
13.0
 40
13.0
 40
14.0
 40
14.0
 40
14.0
 40
15.0
 40
15.0
 40
15.0
 40
16.0
 40
16.0
 40
16.0
 40
17.0
 40
17.0
 40
17.0
 40
18.0
 40
18.0
 40
18.0
 40
19.0
 40
19.0
 40
19.0
 40
20.0
 40
20.0
 40
20.0
 40
21.0
 40
21.0
 40
21.0
 40
22.0
 40
22.0
 40
22.0
 40
23.0
 40
23.0
 40
23.0
 40
24.0
 40
24.0
 40
24.0
 40
25.0
 40
25.0
 40
25.0
 40
26.0
 40
26.0
 40
26.0
 40
27.0
 40
27.0
 40
27.0
 40
28.0
 40
28.0
 40
28.0
 40
29.0
 40
29.0
 40
29.0
 40
30.0
 40
30.0
 40
30.0
 40
31.0
 40
31.0
 40
31.0
 40
32.0
 40
32.0
 40
32.0
 40
33.0
 40
33.0
 40
33.0
 40
34.0
 40
34.0
 40
34.0
 40
35.0
 40
35.0
 40
35.0
 40
36.0
 40
36.0
 40
36.0
 40
37.0
 40
37.0
 40
37.0
 40
38.0
 40
38.0
 40
38.0
 40
39.0
 40
39.0
 40
39.0
 40
40.0
 40
40.0
 40
40.0
 40
41.0
 40
41.0
 40
41.0
 40
42.0
 40
42.0
 40
42.0
 40
43.0
 40
43.0
 40
43.0
 40
44.0
 40
44.0
 40
44.0
 40
45.0
 40
45.0
 40
45.0
 40
46.0
 40
46.0
 40
46.0
 40
47.0
 40
47.0
 40
47.0
 40
48.0
 40
48.0
 40
48.0
 40
49.0
 40
49.0
 40
49.0
 40
50.0
 40
50.0
 40
50.0
 40
51.0
 40
51.0
 40
51.0
 40
52.0
 40
52.0
 40
52.0
 40
53.0
 40
53.0
 40
53.0
 40
54.0
 40
54.0
 40
54.0
 40
55.0
 40
55.0
 40
55.0
 40
56.0
 40
56.0
 40
56.0
 40
57.0
 40
57.0
 40
57.0
 40
58.0
 40
58.0
 40
58.0
 40
59.0
 40
59.0
 40
59.0
 40
60.0
 40
60.0
 40
60.0
 40
61.0
 40
61.0
 40
61.0
 40
62.0
 40
62.0
 40
62.0
 40
63.0
 40
63.0
 40
63.0
 40
64.0
 40
64.0
 40
64.0
 40
65.0
 40
65.0
 40
65.0
 40
66.0
 40
66.0
 40
66.0
 40
67.0
 40
67.0
 40
67.0
 40
68.0
 40
68.0
 40
68.0
 40
69.0
 40
69.0
 40
69.0
 40
70.0
 40
70.0
 40
70.0
 40
71.0
 40
71.0
 40
71.0
 40
72.0
 40
72.0
 40
72.0
 40
73.0
 40
73.0
 40
73.0
 40
74.0
 40
74.0
 40
74.0
 40
75.0
 40
75.0
 40
75.0
 40
76.0
 40
76.0
 40
76.0
 40
77.0
 40
77.0
 40
77.0
 40
78.0
 40
78.0
 40
78.0
 40
79.0
 40
79.0
 40
79.0
 40
79.0
 10
99.16672903336804
 20
-114.4851738537572
 10
99.16672903336804
 20
-114.4851738537572
 10
98.91282549610513
 20
-114.4851738537572
 10
98.91282549610513
 20
-114.4851738537572
 10
98.91282549610513
 20
-114.4851738537572
 10
98.63583981909105
 20
-114.4851738537572
 10
98.63583981909105
 20
-114.4851738537572
 10
98.63583981909105
 20
-114.4851738537572
 10
98.76261933294823
 20
-114.5275485282258
 10
98.76261933294823
 20
-114.5275485282258
 10
98.77329912895252
 20
-114.5318548975823
 10
98.78604598224794
 20
-114.5380560694558
 10
98.78604598224794
 20
-114.5508029227512
 10
98.78604598224794
 20
-114.5719902599855
 10
98.75400659423511
 20
-114.5783636866332
 10
98.73299151177508
 20
-114.5824978012155
 10
98.72231171577081
 20
-114.6057521957409
 10
98.69268389459766
 20
-114.6713812647349
 10
98.6737358694288
 20
-114.7158229964947
 10
98.6737358694288
 20
-114.7158229964947
 10
98.94452037456944
 20
-114.7158229964947
 10
98.94452037456944
 20
-114.7158229964947
 10
99.03547089538003
 20
-114.7158229964947
 10
99.23218584758779
 20
-114.7115166271381
 10
99.37412378158008
 20
-114.7030761431992
 10
99.37412378158008
 20
-114.7030761431992
 10
99.37412378158008
 20
-114.8808430702381
 10
99.37412378158008
 20
-114.8808430702381
 10
99.29144148993409
 20
-114.8765367008816
 10
99.27042640747406
 20
-114.8765367008816
 10
99.09059242314402
 20
-114.8724025862993
 10
99.05889754467972
 20
-115.0267428640385
 10
99.01445581292
 20
-115.107185843619
 10
98.97001408116027
 20
-115.1769490271953
 10
99.09059242314402
 20
-115.2362046695416
 10
99.1963568545412
 20
-115.3039007958268
 10
99.30005422864721
 20
-115.3864108326985
 10
99.30005422864721
 20
-115.3864108326985
 10
99.18154294395463
 20
-115.5534979637332
 10
99.18154294395463
 20
-115.5534979637332
 10
99.15811629465492
 20
-115.5345499385643
 10
99.14536944135949
 20
-115.5261094546254
 10
99.03340383808887
 20
-115.4413601056883
 10
98.98482799174685
 20
-115.4032918005763
 10
98.92557234940055
 20
-115.3674628075297
 10
98.84495711504572
 20
-115.3230210757699
 10
98.63342825225136
 20
-115.5092284867477
 10
98.42844507087901
 20
-115.5324828812731
 10
98.13836803102097
 20
-115.5621107024463
 10
98.13836803102097
 20
-115.5621107024463
 10
98.03501516646347
 20
-115.3822767181162
 10
98.03501516646347
 20
-115.3822767181162
 10
98.35230846065498
 20
-115.3779703487597
 10
98.5276638208542
 20
-115.3526488969431
 10
98.67993704130224
 20
-115.2425780961894
 10
98.56177026615818
 20
-115.1917629377819
 10
98.47288680263873
 20
-115.1643744286742
 10
98.4367133000436
 20
-115.1516275753788
 10
98.41776527487472
 20
-115.1791883392608
 10
98.40295136428816
 20
-115.1981363644296
 10
98.37539060040616
 20
-115.2320705549593
 10
98.37539060040616
 20
-115.2320705549593
 10
98.17867564819839
 20
-115.1495605180876
 10
98.17867564819839
 20
-115.1495605180876
 10
98.26135793984439
 20
-115.069117538507
 10
98.32268063948183
 20
-114.9738606483399
 10
98.37952471498846
 20
-114.8724025862993
 10
98.18935544420266
 20
-114.8765367008816
 10
98.16799585219411
 20
-114.8765367008816
 10
98.08565807009664
 20
-114.8808430702381
 10
98.08565807009664
 20
-114.8808430702381
 10
98.08565807009664
 20
-114.7030761431992
 10
98.08565807009664
 20
-114.7030761431992
 10
98.22518443724927
 20
-114.709449569847
 10
98.43464624275245
 20
-114.7137559392035
 10
98.4601399493433
 20
-114.7137559392035
 10
98.47702091722103
 20
-114.6798217486738
 10
98.53214244498503
 20
-114.5592434066901
 10
98.5510904701539
 20
-114.4851738537572
 10
98.53214244498503
 20
-114.4851738537572
 10
98.35437551794614
 20
-114.4915472804049
 10
98.15972762302951
 20
-114.5042941337003
 10
98.15972762302951
 20
-114.5042941337003
 10
98.15972762302951
 20
-114.6376193289795
 10
98.15972762302951
 20
-114.6376193289795
 10
98.11115177668749
 20
-114.6629407807961
 10
98.05189613434119
 20
-114.6946356592604
 10
97.91857093906202
 20
-114.7602647282544
 10
97.91857093906202
 20
-114.7602647282544
 10
97.91857093906202
 20
-114.9061645220547
 10
97.91857093906202
 20
-114.9061645220547
 10
97.91857093906202
 20
-114.9061645220547
 10
97.91857093906202
 20
-115.3738362341774
 10
97.91857093906202
 20
-115.3738362341774
 10
97.91857093906202
 20
-115.5006157480346
 10
97.8823974364669
 20
-115.5598713903809
 10
97.59921058757936
 20
-115.551430906442
 10
97.59921058757936
 20
-115.551430906442
 10
97.49551321347334
 20
-115.3442084130042
 10
97.49551321347334
 20
-115.3442084130042
 10
97.55890297040195
 20
-115.3567830115254
 10
97.60747881674396
 20
-115.3610893808819
 10
97.6477864339214
 20
-115.3610893808819
 10
97.72392304414541
 20
-115.3610893808819
 10
97.73460284014969
 20
-115.3378349863565
 10
97.73460284014969
 20
-115.2722059173625
 10
97.73460284014969
 20
-115.2722059173625
 10
97.73460284014969
 20
-114.8427747651261
 10
97.73460284014969
 20
-114.8427747651261
 10
97.63710663791711
 20
-114.8829101275293
 10
97.62022567003939
 20
-114.889283554177
 10
97.57371688098851
 20
-114.9084038341201
 10
97.56958276640621
 20
-114.9294189165801
 10
97.5651041422754
 20
-114.9590467377533
 10
97.54615611710652
 20
-114.9590467377533
 10
97.53788788794192
 20
-114.9590467377533
 10
97.52720809193765
 20
-114.954912623171
 10
97.52066241051567
 20
-114.9316582286456
 10
97.52066241051567
 20
-114.9316582286456
 10
97.46795244959135
 20
-114.7390773910201
 10
97.46795244959135
 20
-114.7390773910201
 10
97.61402449816595
 20
-114.6925686019692
 10
97.67948131238569
 20
-114.6693142074438
 10
97.73460284014969
 20
-114.6481268702095
 10
97.73460284014969
 20
-114.6481268702095
 10
97.73460284014969
 20
-114.2355766858508
 10
97.73460284014969
 20
-114.2355766858508
 10
97.73460284014969
 20
-114.2355766858508
 10
97.68154836967683
 20
-114.2355766858508
 10
97.68154836967683
 20
-114.2355766858508
 10
97.68154836967683
 20
-114.2355766858508
 10
97.60334470216166
 20
-114.2355766858508
 10
97.60334470216166
 20
-114.2355766858508
 10
97.53547632110225
 20
-114.2355766858508
 10
97.52720809193765
 20
-114.2355766858508
 10
97.49103458934252
 20
-114.2419501124985
 10
97.49103458934252
 20
-114.2419501124985
 10
97.49103458934252
 20
-114.0473022175819
 10
97.49103458934252
 20
-114.0473022175819
 10
97.51859535322453
 20
-114.0536756442296
 10
97.52720809193765
 20
-114.0536756442296
 10
97.5967990207397
 20
-114.0536756442296
 10
97.5967990207397
 20
-114.0536756442296
 10
97.73012421601887
 20
-114.0536756442296
 10
97.73012421601887
 20
-114.0536756442296
 10
97.73012421601887
 20
-113.9839124606533
 10
97.73012421601887
 20
-113.9014024237816
 10
97.72805715872771
 20
-113.897096054425
 10
97.71978892956311
 20
-113.717262070095
 10
97.71978892956311
 20
-113.6983140449261
 10
97.71737736272344
 20
-113.6518052558752
 10
97.71737736272344
 20
-113.6518052558752
 10
97.9333848496486
 20
-113.6602457398141
 10
97.9333848496486
 20
-113.6602457398141
 10
97.94406464565287
 20
-113.6602457398141
 10
97.9650797281129
 20
-113.6623127971053
 10
97.9650797281129
 20
-113.679193764983
 10
97.9650797281129
 20
-113.6983140449261
 10
97.95026581752633
 20
-113.7088215861561
 10
97.92477211093548
 20
-113.7279418660993
 10
97.92477211093548
 20
-113.7785847697324
 10
97.91857093906202
 20
-114.0071668551788
 10
97.92063799635318
 20
-114.0536756442296
 10
98.04982907705005
 20
-114.0536756442296
 10
98.06223142079695
 20
-114.0536756442296
 10
98.15972762302951
 20
-114.0452351602908
 10
98.15972762302951
 20
-114.0452351602908
 10
98.15972762302951
 20
-114.2398830552074
 10
98.15972762302951
 20
-114.2398830552074
 10
98.12148706314325
 20
-114.237643743142
 10
98.05396319163235
 20
-114.2335096285597
 10
97.91857093906202
 20
-114.2355766858508
 10
97.91857093906202
 20
-114.2355766858508
 10
97.91857093906202
 20
-114.5740573172766
 10
97.91857093906202
 20
-114.5740573172766
 10
97.97369246682602
 20
-114.5508029227512
 10
98.03914928104577
 20
-114.5232421588692
 10
98.0877251273878
 20
-114.4999877643438
 10
98.0877251273878
 20
-114.4999877643438
 10
98.0877251273878
 20
-114.3223930920791
 10
98.0877251273878
 20
-114.3223930920791
 10
98.20210229749809
 20
-114.3349676906003
 10
98.32061358219069
 20
-114.3349676906003
 10
98.4367133000436
 20
-114.3349676906003
 10
98.41363116029243
 20
-114.2398830552074
 10
98.38607039641043
 20
-114.1573730183357
 10
98.32268063948183
 20
-114.0240478230565
 10
98.27823890772211
 20
-114.0261148803476
 10
98.19555661607612
 20
-114.0304212497042
 10
98.15766056573837
 20
-114.0324883069954
 10
98.15766056573837
 20
-114.0324883069954
 10
98.15766056573837
 20
-113.8526543226653
 10
98.15766056573837
 20
-113.8526543226653
 10
98.28237302230441
 20
-113.8610948066042
 10
98.456005834761
 20
-113.8654011759607
 10
98.53834361685847
 20
-113.8654011759607
 10
98.53834361685847
 20
-113.8654011759607
 10
98.62102590850446
 20
-113.8654011759607
 10
98.62102590850446
 20
-113.8654011759607
 10
98.62102590850446
 20
-113.7024481595084
 10
98.62102590850446
 20
-113.6919406182784
 10
98.6186143416648
 20
-113.6369913452887
 10
98.6186143416648
 20
-113.6369913452887
 10
98.84289005775456
 20
-113.6623127971053
 10
98.84289005775456
 20
-113.6623127971053
 10
98.84736868188538
 20
-113.6623127971053
 10
98.86838376434541
 20
-113.6643798543964
 10
98.86838376434541
 20
-113.6812608222741
 10
98.86838376434541
 20
-113.6960747328607
 10
98.85770396834113
 20
-113.7046874715738
 10
98.83014320445913
 20
-113.7195013821604
 10
98.82394203258569
 20
-113.7849581963802
 10
98.82187497529453
 20
-113.8061455336144
 10
98.82187497529453
 20
-113.8654011759607
 10
98.82187497529453
 20
-113.8654011759607
 10
98.91695961068743
 20
-113.8654011759607
 10
98.91695961068743
 20
-113.8654011759607
 10
98.99964190233342
 20
-113.8654011759607
 10
99.1729302052415
 20
-113.8610948066042
 10
99.29798717135607
 20
-113.8526543226653
 10
99.29798717135607
 20
-113.8526543226653
 10
99.29798717135607
 20
-114.0324883069954
 10
99.29798717135607
 20
-114.0324883069954
 10
99.26835935018292
 20
-114.0304212497042
 10
99.14984806549032
 20
-114.0261148803476
 10
99.1095404483129
 20
-114.0240478230565
 10
99.09472653772632
 20
-114.0748629814639
 10
99.06096460197088
 20
-114.1870008395088
 10
98.9951632782026
 20
-114.3265272066614
 10
99.03753795267117
 20
-114.3265272066614
 10
99.31486813923378
 20
-114.3075791814926
 10
99.37619083887124
 20
-114.3053398694271
 10
99.37619083887124
 20
-114.3053398694271
 10
99.37619083887124
 20
-114.4894802231137
 10
99.37619083887124
 20
-114.4894802231137
 10
99.34656301769809
 20
-114.4894802231137
 10
99.32968204982036
 20
-114.4851738537572
 10
99.16672903336804
 20
-114.4851738537572
 97
        0
 97
        0
 92
        1
 93
        1
 72
     4
 94
        3
 73
     0
 74
     1
 95
       20
 96
       16
 40
0.0
 40
0.0
 40
0.0
 40
0.0
 40
1.0
 40
1.0
 40
1.0
 40
2.0
 40
2.0
 40
2.0
 40
3.0
 40
3.0
 40
3.0
 40
4.0
 40
4.0
 40
4.0
 40
5.0
 40
5.0
 40
5.0
 40
5.0
 10
98.53834361685847
 20
-114.0199137084742
 10
98.53834361685847
 20
-114.0199137084742
 10
98.50664873839418
 20
-114.0199137084742
 10
98.50664873839418
 20
-114.0199137084742
 10
98.55315752744505
 20
-114.1193047132237
 10
98.58485240590934
 20
-114.19957543803
 10
98.6186143416648
 20
-114.3265272066614
 10
98.6186143416648
 20
-114.3265272066614
 10
98.82600908987683
 20
-114.3265272066614
 10
98.82600908987683
 20
-114.3265272066614
 10
98.85770396834113
 20
-114.2335096285597
 10
98.88113061764084
 20
-114.1489325343968
 10
98.904212757392
 20
-114.0199137084742
 10
98.904212757392
 20
-114.0199137084742
 10
98.53834361685847
 20
-114.0199137084742
 10
98.53834361685847
 20
-114.0199137084742
 97
        0
 97
        0
 92
        1
 93
        1
 72
     4
 94
        3
 73
     0
 74
     1
 95
       17
 96
       13
 40
0.0
 40
0.0
 40
0.0
 40
0.0
 40
1.0
 40
1.0
 40
1.0
 40
2.0
 40
2.0
 40
2.0
 40
3.0
 40
3.0
 40
3.0
 40
4.0
 40
4.0
 40
4.0
 40
4.0
 10
98.60173337378707
 20
-114.8703355290081
 10
98.58485240590934
 20
-114.899791095407
 10
98.53420950227617
 20
-114.992980928283
 10
98.5235297062719
 20
-115.0119289534519
 10
98.71404348660622
 20
-115.0711845957982
 10
98.73505856906624
 20
-115.0775580224459
 10
98.80706106470797
 20
-115.1051187863279
 10
98.86218259247195
 20
-115.0183023800996
 10
98.88526473222313
 20
-114.9442328271667
 10
98.9000786428097
 20
-114.8703355290081
 10
98.9000786428097
 20
-114.8703355290081
 10
98.60173337378707
 20
-114.8703355290081
 10
98.60173337378707
 20
-114.8703355290081
 97
        0
 97
        0
 75
     2
 76
     1
 98
        0
  0
SPLINE
  5
6B
330
63
100
AcDbEntity
  8
_U+30EC_U+30A4_U+30E4_U+30FC 1
370
     0
100
AcDbSpline
210
0.0
220
0.0
230
1.0
 70
    11
 71
     3
 72
   203
 73
   199
 74
     0
 42
0.0000000001
 43
0.0000000001
 12
1.0
 22
0.0
 32
0.0
 13
1.0
 23
0.0
 33
0.0
 40
0.0
 40
0.0
 40
0.0
 40
0.0
 40
1.0
 40
1.0
 40
1.0
 40
2.0
 40
2.0
 40
2.0
 40
3.0
 40
3.0
 40
3.0
 40
4.0
 40
4.0
 40
4.0
 40
5.0
 40
5.0
 40
5.0
 40
6.0
 40
6.0
 40
6.0
 40
7.0
 40
7.0
 40
7.0
 40
8.0
 40
8.0
 40
8.0
 40
9.0
 40
9.0
 40
9.0
 40
10.0
 40
10.0
 40
10.0
 40
11.0
 40
11.0
 40
11.0
 40
12.0
 40
12.0
 40
12.0
 40
13.0
 40
13.0
 40
13.0
 40
14.0
 40
14.0
 40
14.0
 40
15.0
 40
15.0
 40
15.0
 40
16.0
 40
16.0
 40
16.0
 40
17.0
 40
17.0
 40
17.0
 40
18.0
 40
18.0
 40
18.0
 40
19.0
 40
19.0
 40
19.0
 40
20.0
 40
20.0
 40
20.0
 40
21.0
 40
21.0
 40
21.0
 40
22.0
 40
22.0
 40
22.0
 40
23.0
 40
23.0
 40
23.0
 40
24.0
 40
24.0
 40
24.0
 40
25.0
 40
25.0
 40
25.0
 40
26.0
 40
26.0
 40
26.0
 40
27.0
 40
27.0
 40
27.0
 40
28.0
 40
28.0
 40
28.0
 40
29.0
 40
29.0
 40
29.0
 40
30.0
 40
30.0
 40
30.0
 40
31.0
 40
31.0
 40
31.0
 40
32.0
 40
32.0
 40
32.0
 40
33.0
 40
33.0
 40
33.0
 40
34.0
 40
34.0
 40
34.0
 40
35.0
 40
35.0
 40
35.0
 40
36.0
 40
36.0
 40
36.0
 40
37.0
 40
37.0
 40
37.0
 40
38.0
 40
38.0
 40
38.0
 40
39.0
 40
39.0
 40
39.0
 40
40.0
 40
40.0
 40
40.0
 40
41.0
 40
41.0
 40
41.0
 40
42.0
 40
42.0
 40
42.0
 40
43.0
 40
43.0
 40
43.0
 40
44.0
 40
44.0
 40
44.0
 40
45.0
 40
45.0
 40
45.0
 40
46.0
 40
46.0
 40
46.0
 40
47.0
 40
47.0
 40
47.0
 40
48.0
 40
48.0
 40
48.0
 40
49.0
 40
49.0
 40
49.0
 40
50.0
 40
50.0
 40
50.0
 40
51.0
 40
51.0
 40
51.0
 40
52.0
 40
52.0
 40
52.0
 40
53.0
 40
53.0
 40
53.0
 40
54.0
 40
54.0
 40
54.0
 40
55.0
 40
55.0
 40
55.0
 40
56.0
 40
56.0
 40
56.0
 40
57.0
 40
57.0
 40
57.0
 40
58.0
 40
58.0
 40
58.0
 40
59.0
 40
59.0
 40
59.0
 40
60.0
 40
60.0
 40
60.0
 40
61.0
 40
61.0
 40
61.0
 40
62.0
 40
62.0
 40
62.0
 40
63.0
 40
63.0
 40
63.0
 40
64.0
 40
64.0
 40
64.0
 40
65.0
 40
65.0
 40
65.0
 40
66.0
 40
66.0
 40
66.0
 40
66.0
 10
100.8582709166257
 20
-114.5528699800423
 30
0.0
 10
100.8582709166257
 20
-114.5528699800423
 30
0.0
 10
100.2994764289182
 20
-114.5528699800423
 30
0.0
 10
100.2994764289182
 20
-114.5528699800423
 30
0.0
 10
100.2891411424624
 20
-114.5973117118021
 30
0.0
 10
100.2805284037493
 20
-114.6290065902664
 30
0.0
 10
100.2677815504539
 20
-114.6672471501526
 30
0.0
 10
100.2932752570447
 20
-114.6672471501526
 30
0.0
 10
100.3080891676313
 20
-114.6693142074438
 30
0.0
 10
100.3142903395048
 20
-114.6693142074438
 30
0.0
 10
100.3142903395048
 20
-114.6693142074438
 30
0.0
 10
100.5027370625479
 20
-114.6693142074438
 30
0.0
 10
100.5027370625479
 20
-114.6693142074438
 30
0.0
 10
100.5027370625479
 20
-114.6693142074438
 30
0.0
 10
100.8772189417946
 20
-114.6693142074438
 30
0.0
 10
100.8772189417946
 20
-114.6693142074438
 30
0.0
 10
100.9278618454278
 20
-114.6693142074438
 30
0.0
 10
101.2113932038638
 20
-114.6565673541484
 30
0.0
 10
101.2430880823281
 20
-114.6565673541484
 30
0.0
 10
101.241021025037
 20
-114.6841281180304
 30
0.0
 10
101.2389539677458
 20
-114.7030761431992
 30
0.0
 10
101.2389539677458
 20
-114.7327039643724
 30
0.0
 10
101.2368869104547
 20
-114.7643988428367
 30
0.0
 10
101.2368869104547
 20
-114.899791095407
 30
0.0
 10
101.2368869104547
 20
-114.927351859289
 30
0.0
 10
101.2368869104547
 20
-114.927351859289
 30
0.0
 10
101.2368869104547
 20
-115.172814912613
 30
0.0
 10
101.2368869104547
 20
-115.172814912613
 30
0.0
 10
101.2368869104547
 20
-115.2172566443728
 30
0.0
 10
101.241021025037
 20
-115.4139715965805
 30
0.0
 10
101.2451551396193
 20
-115.5662448170286
 30
0.0
 10
101.2451551396193
 20
-115.5662448170286
 30
0.0
 10
101.0188123662384
 20
-115.5662448170286
 30
0.0
 10
101.0188123662384
 20
-115.5662448170286
 30
0.0
 10
101.0188123662384
 20
-115.5662448170286
 30
0.0
 10
101.0208794235295
 20
-115.5324828812731
 30
0.0
 10
101.0208794235295
 20
-115.5324828812731
 30
0.0
 10
101.0208794235295
 20
-115.5324828812731
 30
0.0
 10
100.3187689636356
 20
-115.5324828812731
 30
0.0
 10
100.3187689636356
 20
-115.5324828812731
 30
0.0
 10
100.3187689636356
 20
-115.5324828812731
 30
0.0
 10
100.3208360209267
 20
-115.5662448170286
 30
0.0
 10
100.3208360209267
 20
-115.5662448170286
 30
0.0
 10
100.3208360209267
 20
-115.5662448170286
 30
0.0
 10
100.1027614767104
 20
-115.5662448170286
 30
0.0
 10
100.1027614767104
 20
-115.5662448170286
 30
0.0
 10
100.1072401008413
 20
-115.5112955440388
 30
0.0
 10
100.1072401008413
 20
-115.4985486907434
 30
0.0
 10
100.1134412727147
 20
-115.3843437754074
 30
0.0
 10
100.1155083300059
 20
-115.3567830115254
 30
0.0
 10
100.117575387297
 20
-115.2236300710205
 30
0.0
 10
100.117575387297
 20
-115.2045097910774
 30
0.0
 10
100.117575387297
 20
-115.2045097910774
 30
0.0
 10
100.117575387297
 20
-115.0014214122219
 30
0.0
 10
100.117575387297
 20
-115.0014214122219
 30
0.0
 10
99.97804902014438
 20
-115.2510185801282
 30
0.0
 10
99.80889483181862
 20
-115.3822767181162
 30
0.0
 10
99.70313040042144
 20
-115.447733532336
 30
0.0
 10
99.70313040042144
 20
-115.447733532336
 30
0.0
 10
99.52949758796485
 20
-115.3082071651834
 30
0.0
 10
99.52949758796485
 20
-115.3082071651834
 30
0.0
 10
99.61838105148429
 20
-115.2573920067759
 30
0.0
 10
99.76238604276774
 20
-115.1705756005476
 30
0.0
 10
99.89984535262921
 20
-114.9760999604053
 30
0.0
 10
99.99079587343981
 20
-114.8491481917738
 30
0.0
 10
100.0562526876596
 20
-114.7053154552647
 30
0.0
 10
100.0903591329635
 20
-114.5528699800423
 30
0.0
 10
99.86160479274294
 20
-114.5551092921078
 30
0.0
 10
99.68177080841289
 20
-114.5614827187555
 30
0.0
 10
99.58668617302
 20
-114.5635497760466
 30
0.0
 10
99.58668617302
 20
-114.5635497760466
 30
0.0
 10
99.58668617302
 20
-114.3857828490077
 30
0.0
 10
99.58668617302
 20
-114.3857828490077
 30
0.0
 10
99.78340112522777
 20
-114.3921562756554
 30
0.0
 10
100.0669324836638
 20
-114.396462645012
 30
0.0
 10
100.2171386468207
 20
-114.396462645012
 30
0.0
 10
100.2171386468207
 20
-114.396462645012
 30
0.0
 10
100.4307345669062
 20
-114.396462645012
 30
0.0
 10
100.4307345669062
 20
-114.396462645012
 30
0.0
 10
100.4307345669062
 20
-114.396462645012
 30
0.0
 10
100.4307345669062
 20
-114.2884589015494
 30
0.0
 10
100.4307345669062
 20
-114.2884589015494
 30
0.0
 10
100.4307345669062
 20
-114.2884589015494
 30
0.0
 10
100.2846625183316
 20
-114.2884589015494
 30
0.0
 10
100.2846625183316
 20
-114.2884589015494
 30
0.0
 10
100.1155083300059
 20
-114.2884589015494
 30
0.0
 10
99.94635414168009
 20
-114.292765270906
 30
0.0
 10
99.77926701064547
 20
-114.2991386975537
 30
0.0
 10
99.77926701064547
 20
-114.2991386975537
 30
0.0
 10
99.77926701064547
 20
-114.1277451971625
 30
0.0
 10
99.77926701064547
 20
-114.1277451971625
 30
0.0
 10
99.93360728838466
 20
-114.1382527383925
 30
0.0
 10
100.1196424445882
 20
-114.1382527383925
 30
0.0
 10
100.2846625183316
 20
-114.1382527383925
 30
0.0
 10
100.2846625183316
 20
-114.1382527383925
 30
0.0
 10
100.4307345669062
 20
-114.1382527383925
 30
0.0
 10
100.4307345669062
 20
-114.1382527383925
 30
0.0
 10
100.4307345669062
 20
-114.1382527383925
 30
0.0
 10
100.4307345669062
 20
-114.0199137084742
 30
0.0
 10
100.4307345669062
 20
-114.0199137084742
 30
0.0
 10
100.4307345669062
 20
-114.0199137084742
 30
0.0
 10
100.2994764289182
 20
-114.0199137084742
 30
0.0
 10
100.2994764289182
 20
-114.0199137084742
 30
0.0
 10
100.2529676398673
 20
-114.0199137084742
 30
0.0
 10
100.0500515157861
 20
-114.0283541924131
 30
0.0
 10
100.0076768413175
 20
-114.0283541924131
 30
0.0
 10
99.80476071723632
 20
-114.0324883069954
 30
0.0
 10
99.72827959746377
 20
-114.0345553642865
 30
0.0
 10
99.6500759299486
 20
-114.0367946763519
 30
0.0
 10
99.6500759299486
 20
-114.0367946763519
 30
0.0
 10
99.6500759299486
 20
-113.8526543226653
 30
0.0
 10
99.6500759299486
 20
-113.8526543226653
 30
0.0
 10
99.76445310005889
 20
-113.8610948066042
 30
0.0
 10
99.80889483181862
 20
-113.8610948066042
 30
0.0
 10
100.1916449402299
 20
-113.8697075453173
 30
0.0
 10
100.1282551833013
 20
-113.7744506551501
 30
0.0
 10
100.1006944194193
 20
-113.7468898912681
 30
0.0
 10
100.0648654263727
 20
-113.7108886434473
 30
0.0
 10
100.0648654263727
 20
-113.7108886434473
 30
0.0
 10
100.2402207865719
 20
-113.6283786065756
 30
0.0
 10
100.2402207865719
 20
-113.6283786065756
 30
0.0
 10
100.2805284037493
 20
-113.6643798543964
 30
0.0
 10
100.324970135509
 20
-113.706754528865
 30
0.0
 10
100.3990396884419
 20
-113.8166530748445
 30
0.0
 10
100.3990396884419
 20
-113.8166530748445
 30
0.0
 10
100.2846625183316
 20
-113.8717746026085
 30
0.0
 10
100.2846625183316
 20
-113.8717746026085
 30
0.0
 10
100.2846625183316
 20
-113.8717746026085
 30
0.0
 10
100.2953423143359
 20
-113.8717746026085
 30
0.0
 10
100.2953423143359
 20
-113.8717746026085
 30
0.0
 10
100.2953423143359
 20
-113.8717746026085
 30
0.0
 10
100.8179632994483
 20
-113.8717746026085
 30
0.0
 10
100.8179632994483
 20
-113.8717746026085
 30
0.0
 10
100.8179632994483
 20
-113.8717746026085
 30
0.0
 10
100.7228786640554
 20
-113.8273328708487
 30
0.0
 10
100.7228786640554
 20
-113.8273328708487
 30
0.0
 10
100.7500949183889
 20
-113.7892645657367
 30
0.0
 10
100.807283503444
 20
-113.7088215861561
 30
0.0
 10
100.8220974140306
 20
-113.6347520332233
 30
0.0
 10
100.8220974140306
 20
-113.6347520332233
 30
0.0
 10
101.0356933341161
 20
-113.6983140449261
 30
0.0
 10
101.0356933341161
 20
-113.6983140449261
 30
0.0
 10
101.0443060728292
 20
-113.7003811022173
 30
0.0
 10
101.0653211552892
 20
-113.7108886434473
 30
0.0
 10
101.0653211552892
 20
-113.7320759806816
 30
0.0
 10
101.0653211552892
 20
-113.7701442857936
 30
0.0
 10
100.9998643410695
 20
-113.7701442857936
 30
0.0
 10
100.9809163159006
 20
-113.7701442857936
 30
0.0
 10
100.9702365198963
 20
-113.7892645657367
 30
0.0
 10
100.9468098705966
 20
-113.8293999281399
 30
0.0
 10
100.9171820494235
 20
-113.8697075453173
 30
0.0
 10
101.317157635261
 20
-113.8633341186696
 30
0.0
 10
101.3467854564341
 20
-113.8610948066042
 30
0.0
 10
101.4229220666582
 20
-113.8548936347307
 30
0.0
 10
101.4229220666582
 20
-113.8548936347307
 30
0.0
 10
101.4229220666582
 20
-114.0367946763519
 30
0.0
 10
101.4229220666582
 20
-114.0367946763519
 30
0.0
 10
101.4039740414893
 20
-114.0367946763519
 30
0.0
 10
101.3784803348984
 20
-114.0345553642865
 30
0.0
 10
101.1586832429395
 20
-114.0261148803476
 30
0.0
 10
101.1076958297578
 20
-114.0240478230565
 30
0.0
 10
100.8878987377989
 20
-114.0199137084742
 30
0.0
 10
100.8434570060391
 20
-114.0199137084742
 30
0.0
 10
100.8434570060391
 20
-114.0199137084742
 30
0.0
 10
100.627449519114
 20
-114.0199137084742
 30
0.0
 10
100.627449519114
 20
-114.0199137084742
 30
0.0
 10
100.627449519114
 20
-114.0199137084742
 30
0.0
 10
100.627449519114
 20
-114.1382527383925
 30
0.0
 10
100.627449519114
 20
-114.1382527383925
 30
0.0
 10
100.627449519114
 20
-114.1382527383925
 30
0.0
 10
100.8010823315706
 20
-114.1382527383925
 30
0.0
 10
100.8010823315706
 20
-114.1382527383925
 30
0.0
 10
100.9640353480229
 20
-114.1382527383925
 30
0.0
 10
101.1542046188087
 20
-114.1382527383925
 30
0.0
 10
101.3109564633875
 20
-114.1277451971625
 30
0.0
 10
101.3109564633875
 20
-114.1277451971625
 30
0.0
 10
101.3109564633875
 20
-114.2991386975537
 30
0.0
 10
101.3109564633875
 20
-114.2991386975537
 30
0.0
 10
101.1014946578844
 20
-114.2906982136148
 30
0.0
 10
100.9047797056766
 20
-114.2884589015494
 30
0.0
 10
100.8010823315706
 20
-114.2884589015494
 30
0.0
 10
100.8010823315706
 20
-114.2884589015494
 30
0.0
 10
100.627449519114
 20
-114.2884589015494
 30
0.0
 10
100.627449519114
 20
-114.2884589015494
 30
0.0
 10
100.627449519114
 20
-114.2884589015494
 30
0.0
 10
100.627449519114
 20
-114.396462645012
 30
0.0
 10
100.627449519114
 20
-114.396462645012
 30
0.0
 10
100.627449519114
 20
-114.396462645012
 30
0.0
 10
100.8582709166257
 20
-114.396462645012
 30
0.0
 10
100.8582709166257
 20
-114.396462645012
 30
0.0
 10
100.9912516023564
 20
-114.396462645012
 30
0.0
 10
101.2792615849232
 20
-114.3921562756554
 30
0.0
 10
101.4883788808779
 20
-114.3857828490077
 30
0.0
 10
101.4883788808779
 20
-114.3857828490077
 30
0.0
 10
101.4883788808779
 20
-114.5635497760466
 30
0.0
 10
101.4883788808779
 20
-114.5635497760466
 30
0.0
 10
101.296142552801
 20
-114.5571763493989
 30
0.0
 10
100.9829833731918
 20
-114.5528699800423
 30
0.0
 10
100.8582709166257
 20
-114.5528699800423
 30
0.0
  0
POLYLINE
  5
6C
330
63
100
AcDbEntity
  8
_U+30EC_U+30A4_U+30E4_U+30FC 1
370
     0
100
AcDb2dPolyline
 66
     1
 10
0.0
 20
0.0
 30
0.0
  0
VERTEX
  5
6D
330
6C
100
AcDbEntity
  8
_U+30EC_U+30A4_U+30E4_U+30FC 1
370
     0
100
AcDbVertex
100
AcDb2dVertex
 10
101.0232909903692
 20
-114.8088405745964
 30
0.0
  0
VERTEX
  5
6E
330
6C
100
AcDbEntity
  8
_U+30EC_U+30A4_U+30E4_U+30FC 1
370
     0
100
AcDbVertex
100
AcDb2dVertex
 10
100.3167019063444
 20
-114.8088405745964
 30
0.0
  0
VERTEX
  5
6F
330
6C
100
AcDbEntity
  8
_U+30EC_U+30A4_U+30E4_U+30FC 1
370
     0
100
AcDbVertex
100
AcDb2dVertex
 10
100.3167019063444
 20
-114.916844318059
 30
0.0
  0
VERTEX
  5
70
330
6C
100
AcDbEntity
  8
_U+30EC_U+30A4_U+30E4_U+30FC 1
370
     0
100
AcDbVertex
100
AcDb2dVertex
 10
101.0232909903692
 20
-114.916844318059
 30
0.0
  0
VERTEX
  5
71
330
6C
100
AcDbEntity
  8
_U+30EC_U+30A4_U+30E4_U+30FC 1
370
     0
100
AcDbVertex
100
AcDb2dVertex
 10
101.0232909903692
 20
-114.8088405745964
 30
0.0
  0
SEQEND
  5
72
330
6C
100
AcDbEntity
  8
_U+30EC_U+30A4_U+30E4_U+30FC 1
370
     0
  0
POLYLINE
  5
73
330
63
100
AcDbEntity
  8
_U+30EC_U+30A4_U+30E4_U+30FC 1
370
     0
100
AcDb2dPolyline
 66
     1
 10
0.0
 20
0.0
 30
0.0
  0
VERTEX
  5
74
330
73
100
AcDbEntity
  8
_U+30EC_U+30A4_U+30E4_U+30FC 1
370
     0
100
AcDbVertex
100
AcDb2dVertex
 10
101.0232909903692
 20
-115.041556774625
 30
0.0
  0
VERTEX
  5
75
330
73
100
AcDbEntity
  8
_U+30EC_U+30A4_U+30E4_U+30FC 1
370
     0
100
AcDbVertex
100
AcDb2dVertex
 10
100.3167019063444
 20
-115.041556774625
 30
0.0
  0
VERTEX
  5
76
330
73
100
AcDbEntity
  8
_U+30EC_U+30A4_U+30E4_U+30FC 1
370
     0
100
AcDbVertex
100
AcDb2dVertex
 10
100.3167019063444
 20
-115.1559339447353
 30
0.0
  0
VERTEX
  5
77
330
73
100
AcDbEntity
  8
_U+30EC_U+30A4_U+30E4_U+30FC 1
370
     0
100
AcDbVertex
100
AcDb2dVertex
 10
101.0232909903692
 20
-115.1559339447353
 30
0.0
  0
VERTEX
  5
78
330
73
100
AcDbEntity
  8
_U+30EC_U+30A4_U+30E4_U+30FC 1
370
     0
100
AcDbVertex
100
AcDb2dVertex
 10
101.0232909903692
 20
-115.041556774625
 30
0.0
  0
SEQEND
  5
79
330
73
100
AcDbEntity
  8
_U+30EC_U+30A4_U+30E4_U+30FC 1
370
     0
  0
POLYLINE
  5
7A
330
63
100
AcDbEntity
  8
_U+30EC_U+30A4_U+30E4_U+30FC 1
370
     0
100
AcDb2dPolyline
 66
     1
 10
0.0
 20
0.0
 30
0.0
  0
VERTEX
  5
7B
330
7A
100
AcDbEntity
  8
_U+30EC_U+30A4_U+30E4_U+30FC 1
370
     0
100
AcDbVertex
100
AcDb2dVertex
 10
101.0232909903692
 20
-115.2849527706579
 30
0.0
  0
VERTEX
  5
7C
330
7A
100
AcDbEntity
  8
_U+30EC_U+30A4_U+30E4_U+30FC 1
370
     0
100
AcDbVertex
100
AcDb2dVertex
 10
100.3167019063444
 20
-115.2849527706579
 30
0.0
  0
VERTEX
  5
7D
330
7A
100
AcDbEntity
  8
_U+30EC_U+30A4_U+30E4_U+30FC 1
370
     0
100
AcDbVertex
100
AcDb2dVertex
 10
100.3167019063444
 20
-115.399157685994
 30
0.0
  0
VERTEX
  5
7E
330
7A
100
AcDbEntity
  8
_U+30EC_U+30A4_U+30E4_U+30FC 1
370
     0
100
AcDbVertex
100
AcDb2dVertex
 10
101.0232909903692
 20
-115.399157685994
 30
0.0
  0
VERTEX
  5
7F
330
7A
100
AcDbEntity
  8
_U+30EC_U+30A4_U+30E4_U+30FC 1
370
     0
100
AcDbVertex
100
AcDb2dVertex
 10
101.0232909903692
 20
-115.2849527706579
 30
0.0
  0
SEQEND
  5
80
330
7A
100
AcDbEntity
  8
_U+30EC_U+30A4_U+30E4_U+30FC 1
370
     0
  0
HATCH
  5
81
330
63
100
AcDbEntity
  8
_U+30EC_U+30A4_U+30E4_U+30FC 1
 62
     7
420
 16777215
100
AcDbHatch
 10
0.0
 20
0.0
 30
0.0
210
0.0
220
0.0
230
1.0
  2
SOLID
 70
     1
 71
     0
 91
        4
 92
        1
 93
        1
 72
     4
 94
        3
 73
     0
 74
     1
 95
      203
 96
      199
 40
0.0
 40
0.0
 40
0.0
 40
0.0
 40
1.0
 40
1.0
 40
1.0
 40
2.0
 40
2.0
 40
2.0
 40
3.0
 40
3.0
 40
3.0
 40
4.0
 40
4.0
 40
4.0
 40
5.0
 40
5.0
 40
5.0
 40
6.0
 40
6.0
 40
6.0
 40
7.0
 40
7.0
 40
7.0
 40
8.0
 40
8.0
 40
8.0
 40
9.0
 40
9.0
 40
9.0
 40
10.0
 40
10.0
 40
10.0
 40
11.0
 40
11.0
 40
11.0
 40
12.0
 40
12.0
 40
12.0
 40
13.0
 40
13.0
 40
13.0
 40
14.0
 40
14.0
 40
14.0
 40
15.0
 40
15.0
 40
15.0
 40
16.0
 40
16.0
 40
16.0
 40
17.0
 40
17.0
 40
17.0
 40
18.0
 40
18.0
 40
18.0
 40
19.0
 40
19.0
 40
19.0
 40
20.0
 40
20.0
 40
20.0
 40
21.0
 40
21.0
 40
21.0
 40
22.0
 40
22.0
 40
22.0
 40
23.0
 40
23.0
 40
23.0
 40
24.0
 40
24.0
 40
24.0
 40
25.0
 40
25.0
 40
25.0
 40
26.0
 40
26.0
 40
26.0
 40
27.0
 40
27.0
 40
27.0
 40
28.0
 40
28.0
 40
28.0
 40
29.0
 40
29.0
 40
29.0
 40
30.0
 40
30.0
 40
30.0
 40
31.0
 40
31.0
 40
31.0
 40
32.0
 40
32.0
 40
32.0
 40
33.0
 40
33.0
 40
33.0
 40
34.0
 40
34.0
 40
34.0
 40
35.0
 40
35.0
 40
35.0
 40
36.0
 40
36.0
 40
36.0
 40
37.0
 40
37.0
 40
37.0
 40
38.0
 40
38.0
 40
38.0
 40
39.0
 40
39.0
 40
39.0
 40
40.0
 40
40.0
 40
40.0
 40
41.0
 40
41.0
 40
41.0
 40
42.0
 40
42.0
 40
42.0
 40
43.0
 40
43.0
 40
43.0
 40
44.0
 40
44.0
 40
44.0
 40
45.0
 40
45.0
 40
45.0
 40
46.0
 40
46.0
 40
46.0
 40
47.0
 40
47.0
 40
47.0
 40
48.0
 40
48.0
 40
48.0
 40
49.0
 40
49.0
 40
49.0
 40
50.0
 40
50.0
 40
50.0
 40
51.0
 40
51.0
 40
51.0
 40
52.0
 40
52.0
 40
52.0
 40
53.0
 40
53.0
 40
53.0
 40
54.0
 40
54.0
 40
54.0
 40
55.0
 40
55.0
 40
55.0
 40
56.0
 40
56.0
 40
56.0
 40
57.0
 40
57.0
 40
57.0
 40
58.0
 40
58.0
 40
58.0
 40
59.0
 40
59.0
 40
59.0
 40
60.0
 40
60.0
 40
60.0
 40
61.0
 40
61.0
 40
61.0
 40
62.0
 40
62.0
 40
62.0
 40
63.0
 40
63.0
 40
63.0
 40
64.0
 40
64.0
 40
64.0
 40
65.0
 40
65.0
 40
65.0
 40
66.0
 40
66.0
 40
66.0
 40
66.0
 10
100.8582709166257
 20
-114.5528699800423
 10
100.8582709166257
 20
-114.5528699800423
 10
100.2994764289182
 20
-114.5528699800423
 10
100.2994764289182
 20
-114.5528699800423
 10
100.2891411424624
 20
-114.5973117118021
 10
100.2805284037493
 20
-114.6290065902664
 10
100.2677815504539
 20
-114.6672471501526
 10
100.2932752570447
 20
-114.6672471501526
 10
100.3080891676313
 20
-114.6693142074438
 10
100.3142903395048
 20
-114.6693142074438
 10
100.3142903395048
 20
-114.6693142074438
 10
100.5027370625479
 20
-114.6693142074438
 10
100.5027370625479
 20
-114.6693142074438
 10
100.5027370625479
 20
-114.6693142074438
 10
100.8772189417946
 20
-114.6693142074438
 10
100.8772189417946
 20
-114.6693142074438
 10
100.9278618454278
 20
-114.6693142074438
 10
101.2113932038638
 20
-114.6565673541484
 10
101.2430880823281
 20
-114.6565673541484
 10
101.241021025037
 20
-114.6841281180304
 10
101.2389539677458
 20
-114.7030761431992
 10
101.2389539677458
 20
-114.7327039643724
 10
101.2368869104547
 20
-114.7643988428367
 10
101.2368869104547
 20
-114.899791095407
 10
101.2368869104547
 20
-114.927351859289
 10
101.2368869104547
 20
-114.927351859289
 10
101.2368869104547
 20
-115.172814912613
 10
101.2368869104547
 20
-115.172814912613
 10
101.2368869104547
 20
-115.2172566443728
 10
101.241021025037
 20
-115.4139715965805
 10
101.2451551396193
 20
-115.5662448170286
 10
101.2451551396193
 20
-115.5662448170286
 10
101.0188123662384
 20
-115.5662448170286
 10
101.0188123662384
 20
-115.5662448170286
 10
101.0188123662384
 20
-115.5662448170286
 10
101.0208794235295
 20
-115.5324828812731
 10
101.0208794235295
 20
-115.5324828812731
 10
101.0208794235295
 20
-115.5324828812731
 10
100.3187689636356
 20
-115.5324828812731
 10
100.3187689636356
 20
-115.5324828812731
 10
100.3187689636356
 20
-115.5324828812731
 10
100.3208360209267
 20
-115.5662448170286
 10
100.3208360209267
 20
-115.5662448170286
 10
100.3208360209267
 20
-115.5662448170286
 10
100.1027614767104
 20
-115.5662448170286
 10
100.1027614767104
 20
-115.5662448170286
 10
100.1072401008413
 20
-115.5112955440388
 10
100.1072401008413
 20
-115.4985486907434
 10
100.1134412727147
 20
-115.3843437754074
 10
100.1155083300059
 20
-115.3567830115254
 10
100.117575387297
 20
-115.2236300710205
 10
100.117575387297
 20
-115.2045097910774
 10
100.117575387297
 20
-115.2045097910774
 10
100.117575387297
 20
-115.0014214122219
 10
100.117575387297
 20
-115.0014214122219
 10
99.97804902014438
 20
-115.2510185801282
 10
99.80889483181862
 20
-115.3822767181162
 10
99.70313040042144
 20
-115.447733532336
 10
99.70313040042144
 20
-115.447733532336
 10
99.52949758796485
 20
-115.3082071651834
 10
99.52949758796485
 20
-115.3082071651834
 10
99.61838105148429
 20
-115.2573920067759
 10
99.76238604276774
 20
-115.1705756005476
 10
99.89984535262921
 20
-114.9760999604053
 10
99.99079587343981
 20
-114.8491481917738
 10
100.0562526876596
 20
-114.7053154552647
 10
100.0903591329635
 20
-114.5528699800423
 10
99.86160479274294
 20
-114.5551092921078
 10
99.68177080841289
 20
-114.5614827187555
 10
99.58668617302
 20
-114.5635497760466
 10
99.58668617302
 20
-114.5635497760466
 10
99.58668617302
 20
-114.3857828490077
 10
99.58668617302
 20
-114.3857828490077
 10
99.78340112522777
 20
-114.3921562756554
 10
100.0669324836638
 20
-114.396462645012
 10
100.2171386468207
 20
-114.396462645012
 10
100.2171386468207
 20
-114.396462645012
 10
100.4307345669062
 20
-114.396462645012
 10
100.4307345669062
 20
-114.396462645012
 10
100.4307345669062
 20
-114.396462645012
 10
100.4307345669062
 20
-114.2884589015494
 10
100.4307345669062
 20
-114.2884589015494
 10
100.4307345669062
 20
-114.2884589015494
 10
100.2846625183316
 20
-114.2884589015494
 10
100.2846625183316
 20
-114.2884589015494
 10
100.1155083300059
 20
-114.2884589015494
 10
99.94635414168009
 20
-114.292765270906
 10
99.77926701064547
 20
-114.2991386975537
 10
99.77926701064547
 20
-114.2991386975537
 10
99.77926701064547
 20
-114.1277451971625
 10
99.77926701064547
 20
-114.1277451971625
 10
99.93360728838466
 20
-114.1382527383925
 10
100.1196424445882
 20
-114.1382527383925
 10
100.2846625183316
 20
-114.1382527383925
 10
100.2846625183316
 20
-114.1382527383925
 10
100.4307345669062
 20
-114.1382527383925
 10
100.4307345669062
 20
-114.1382527383925
 10
100.4307345669062
 20
-114.1382527383925
 10
100.4307345669062
 20
-114.0199137084742
 10
100.4307345669062
 20
-114.0199137084742
 10
100.4307345669062
 20
-114.0199137084742
 10
100.2994764289182
 20
-114.0199137084742
 10
100.2994764289182
 20
-114.0199137084742
 10
100.2529676398673
 20
-114.0199137084742
 10
100.0500515157861
 20
-114.0283541924131
 10
100.0076768413175
 20
-114.0283541924131
 10
99.80476071723632
 20
-114.0324883069954
 10
99.72827959746377
 20
-114.0345553642865
 10
99.6500759299486
 20
-114.0367946763519
 10
99.6500759299486
 20
-114.0367946763519
 10
99.6500759299486
 20
-113.8526543226653
 10
99.6500759299486
 20
-113.8526543226653
 10
99.76445310005889
 20
-113.8610948066042
 10
99.80889483181862
 20
-113.8610948066042
 10
100.1916449402299
 20
-113.8697075453173
 10
100.1282551833013
 20
-113.7744506551501
 10
100.1006944194193
 20
-113.7468898912681
 10
100.0648654263727
 20
-113.7108886434473
 10
100.0648654263727
 20
-113.7108886434473
 10
100.2402207865719
 20
-113.6283786065756
 10
100.2402207865719
 20
-113.6283786065756
 10
100.2805284037493
 20
-113.6643798543964
 10
100.324970135509
 20
-113.706754528865
 10
100.3990396884419
 20
-113.8166530748445
 10
100.3990396884419
 20
-113.8166530748445
 10
100.2846625183316
 20
-113.8717746026085
 10
100.2846625183316
 20
-113.8717746026085
 10
100.2846625183316
 20
-113.8717746026085
 10
100.2953423143359
 20
-113.8717746026085
 10
100.2953423143359
 20
-113.8717746026085
 10
100.2953423143359
 20
-113.8717746026085
 10
100.8179632994483
 20
-113.8717746026085
 10
100.8179632994483
 20
-113.8717746026085
 10
100.8179632994483
 20
-113.8717746026085
 10
100.7228786640554
 20
-113.8273328708487
 10
100.7228786640554
 20
-113.8273328708487
 10
100.7500949183889
 20
-113.7892645657367
 10
100.807283503444
 20
-113.7088215861561
 10
100.8220974140306
 20
-113.6347520332233
 10
100.8220974140306
 20
-113.6347520332233
 10
101.0356933341161
 20
-113.6983140449261
 10
101.0356933341161
 20
-113.6983140449261
 10
101.0443060728292
 20
-113.7003811022173
 10
101.0653211552892
 20
-113.7108886434473
 10
101.0653211552892
 20
-113.7320759806816
 10
101.0653211552892
 20
-113.7701442857936
 10
100.9998643410695
 20
-113.7701442857936
 10
100.9809163159006
 20
-113.7701442857936
 10
100.9702365198963
 20
-113.7892645657367
 10
100.9468098705966
 20
-113.8293999281399
 10
100.9171820494235
 20
-113.8697075453173
 10
101.317157635261
 20
-113.8633341186696
 10
101.3467854564341
 20
-113.8610948066042
 10
101.4229220666582
 20
-113.8548936347307
 10
101.4229220666582
 20
-113.8548936347307
 10
101.4229220666582
 20
-114.0367946763519
 10
101.4229220666582
 20
-114.0367946763519
 10
101.4039740414893
 20
-114.0367946763519
 10
101.3784803348984
 20
-114.0345553642865
 10
101.1586832429395
 20
-114.0261148803476
 10
101.1076958297578
 20
-114.0240478230565
 10
100.8878987377989
 20
-114.0199137084742
 10
100.8434570060391
 20
-114.0199137084742
 10
100.8434570060391
 20
-114.0199137084742
 10
100.627449519114
 20
-114.0199137084742
 10
100.627449519114
 20
-114.0199137084742
 10
100.627449519114
 20
-114.0199137084742
 10
100.627449519114
 20
-114.1382527383925
 10
100.627449519114
 20
-114.1382527383925
 10
100.627449519114
 20
-114.1382527383925
 10
100.8010823315706
 20
-114.1382527383925
 10
100.8010823315706
 20
-114.1382527383925
 10
100.9640353480229
 20
-114.1382527383925
 10
101.1542046188087
 20
-114.1382527383925
 10
101.3109564633875
 20
-114.1277451971625
 10
101.3109564633875
 20
-114.1277451971625
 10
101.3109564633875
 20
-114.2991386975537
 10
101.3109564633875
 20
-114.2991386975537
 10
101.1014946578844
 20
-114.2906982136148
 10
100.9047797056766
 20
-114.2884589015494
 10
100.8010823315706
 20
-114.2884589015494
 10
100.8010823315706
 20
-114.2884589015494
 10
100.627449519114
 20
-114.2884589015494
 10
100.627449519114
 20
-114.2884589015494
 10
100.627449519114
 20
-114.2884589015494
 10
100.627449519114
 20
-114.396462645012
 10
100.627449519114
 20
-114.396462645012
 10
100.627449519114
 20
-114.396462645012
 10
100.8582709166257
 20
-114.396462645012
 10
100.8582709166257
 20
-114.396462645012
 10
100.9912516023564
 20
-114.396462645012
 10
101.2792615849232
 20
-114.3921562756554
 10
101.4883788808779
 20
-114.3857828490077
 10
101.4883788808779
 20
-114.3857828490077
 10
101.4883788808779
 20
-114.5635497760466
 10
101.4883788808779
 20
-114.5635497760466
 10
101.296142552801
 20
-114.5571763493989
 10
100.9829833731918
 20
-114.5528699800423
 10
100.8582709166257
 20
-114.5528699800423
 97
        0
 97
        0
 92
        1
 93
        4
 72
     1
 10
101.0232909903692
 20
-114.8088405745964
 11
100.3167019063444
 21
-114.8088405745964
 72
     1
 10
100.3167019063444
 20
-114.8088405745964
 11
100.3167019063444
 21
-114.916844318059
 72
     1
 10
100.3167019063444
 20
-114.916844318059
 11
101.0232909903692
 21
-114.916844318059
 72
     1
 10
101.0232909903692
 20
-114.916844318059
 11
101.0232909903692
 21
-114.8088405745964
 97
        0
 92
        1
 93
        4
 72
     1
 10
101.0232909903692
 20
-115.041556774625
 11
100.3167019063444
 21
-115.041556774625
 72
     1
 10
100.3167019063444
 20
-115.041556774625
 11
100.3167019063444
 21
-115.1559339447353
 72
     1
 10
100.3167019063444
 20
-115.1559339447353
 11
101.0232909903692
 21
-115.1559339447353
 72
     1
 10
101.0232909903692
 20
-115.1559339447353
 11
101.0232909903692
 21
-115.041556774625
 97
        0
 92
        1
 93
        4
 72
     1
 10
101.0232909903692
 20
-115.2849527706579
 11
100.3167019063444
 21
-115.2849527706579
 72
     1
 10
100.3167019063444
 20
-115.2849527706579
 11
100.3167019063444
 21
-115.399157685994
 72
     1
 10
100.3167019063444
 20
-115.399157685994
 11
101.0232909903692
 21
-115.399157685994
 72
     1
 10
101.0232909903692
 20
-115.399157685994
 11
101.0232909903692
 21
-115.2849527706579
 97
        0
 75
     2
 76
     1
 98
        0
  0
SPLINE
  5
82
330
63
100
AcDbEntity
  8
_U+30EC_U+30A4_U+30E4_U+30FC 1
370
     0
100
AcDbSpline
210
0.0
220
0.0
230
1.0
 70
    11
 71
     3
 72
    47
 73
    43
 74
     0
 42
0.0000000001
 43
0.0000000001
 12
1.0
 22
0.0
 32
0.0
 13
1.0
 23
0.0
 33
0.0
 40
0.0
 40
0.0
 40
0.0
 40
0.0
 40
1.0
 40
1.0
 40
1.0
 40
2.0
 40
2.0
 40
2.0
 40
3.0
 40
3.0
 40
3.0
 40
4.0
 40
4.0
 40
4.0
 40
5.0
 40
5.0
 40
5.0
 40
6.0
 40
6.0
 40
6.0
 40
7.0
 40
7.0
 40
7.0
 40
8.0
 40
8.0
 40
8.0
 40
9.0
 40
9.0
 40
9.0
 40
10.0
 40
10.0
 40
10.0
 40
11.0
 40
11.0
 40
11.0
 40
12.0
 40
12.0
 40
12.0
 40
13.0
 40
13.0
 40
13.0
 40
14.0
 40
14.0
 40
14.0
 40
14.0
 10
102.8350667060621
 20
-114.5296155855169
 30
0.0
 10
102.8350667060621
 20
-114.5296155855169
 30
0.0
 10
102.7334363892472
 20
-114.5296155855169
 30
0.0
 10
102.7334363892472
 20
-114.5296155855169
 30
0.0
 10
102.7334363892472
 20
-114.6164319917452
 30
0.0
 10
102.7124213067872
 20
-115.0057277815784
 30
0.0
 10
102.5157063545794
 20
-115.2256971283116
 30
0.0
 10
102.3630886245828
 20
-115.3948513166374
 30
0.0
 10
102.1560383859193
 20
-115.464786754988
 30
0.0
 10
102.0712890369822
 20
-115.4921752640957
 30
0.0
 10
102.0712890369822
 20
-115.4921752640957
 30
0.0
 10
101.8766411420656
 20
-115.3250881330611
 30
0.0
 10
101.8766411420656
 20
-115.3250881330611
 30
0.0
 10
101.9741373442981
 20
-115.3123412797657
 30
0.0
 10
102.1494927044973
 20
-115.2890868852402
 30
0.0
 10
102.3379394275405
 20
-115.1008124169713
 30
0.0
 10
102.4120089804734
 20
-115.0289821761039
 30
0.0
 10
102.5157063545794
 20
-114.889283554177
 30
0.0
 10
102.5157063545794
 20
-114.5296155855169
 30
0.0
 10
102.5157063545794
 20
-114.5296155855169
 30
0.0
 10
102.2848849570677
 20
-114.5296155855169
 30
0.0
 10
102.2848849570677
 20
-114.5296155855169
 30
0.0
 10
102.0988498008642
 20
-114.5296155855169
 30
0.0
 10
101.9124701351122
 20
-114.5339219548735
 30
0.0
 10
101.7264349789087
 20
-114.54873586546
 30
0.0
 10
101.7264349789087
 20
-114.54873586546
 30
0.0
 10
101.7264349789087
 20
-114.3287665187268
 30
0.0
 10
101.7264349789087
 20
-114.3287665187268
 30
0.0
 10
101.9148817019518
 20
-114.3435804293134
 30
0.0
 10
102.200480117679
 20
-114.3477145438957
 30
0.0
 10
102.2848849570677
 20
-114.3477145438957
 30
0.0
 10
102.2848849570677
 20
-114.3477145438957
 30
0.0
 10
102.8350667060621
 20
-114.3477145438957
 30
0.0
 10
102.8350667060621
 20
-114.3477145438957
 30
0.0
 10
102.8540147312309
 20
-114.3477145438957
 30
0.0
 10
103.1713080254225
 20
-114.3477145438957
 30
0.0
 10
103.3997178560945
 20
-114.3287665187268
 30
0.0
 10
103.3997178560945
 20
-114.3287665187268
 30
0.0
 10
103.3997178560945
 20
-114.54873586546
 30
0.0
 10
103.3997178560945
 20
-114.54873586546
 30
0.0
 10
103.2116156425999
 20
-114.5339219548735
 30
0.0
 10
103.0231689195567
 20
-114.5296155855169
 30
0.0
 10
102.8350667060621
 20
-114.5296155855169
 30
0.0
  0
SPLINE
  5
83
330
63
100
AcDbEntity
  8
_U+30EC_U+30A4_U+30E4_U+30FC 1
370
     0
100
AcDbSpline
210
0.0
220
0.0
230
1.0
 70
    11
 71
     3
 72
    29
 73
    25
 74
     0
 42
0.0000000001
 43
0.0000000001
 12
1.0
 22
0.0
 32
0.0
 13
1.0
 23
0.0
 33
0.0
 40
0.0
 40
0.0
 40
0.0
 40
0.0
 40
1.0
 40
1.0
 40
1.0
 40
2.0
 40
2.0
 40
2.0
 40
3.0
 40
3.0
 40
3.0
 40
4.0
 40
4.0
 40
4.0
 40
5.0
 40
5.0
 40
5.0
 40
6.0
 40
6.0
 40
6.0
 40
7.0
 40
7.0
 40
7.0
 40
8.0
 40
8.0
 40
8.0
 40
8.0
 10
102.7334363892472
 20
-114.0007934285311
 30
0.0
 10
102.7334363892472
 20
-114.0007934285311
 30
0.0
 10
102.3799695924606
 20
-114.0007934285311
 30
0.0
 10
102.3799695924606
 20
-114.0007934285311
 30
0.0
 10
102.2680039891899
 20
-114.0007934285311
 30
0.0
 10
102.1284776220373
 20
-114.0071668551788
 30
0.0
 10
102.020646133349
 20
-114.0199137084742
 30
0.0
 10
102.020646133349
 20
-114.0199137084742
 30
0.0
 10
102.020646133349
 20
-113.7849581963802
 30
0.0
 10
102.020646133349
 20
-113.7849581963802
 30
0.0
 10
102.1388129084931
 20
-113.7997721069667
 30
0.0
 10
102.323125516954
 20
-113.8040784763233
 30
0.0
 10
102.3799695924606
 20
-113.8040784763233
 30
0.0
 10
102.3799695924606
 20
-113.8040784763233
 30
0.0
 10
102.7334363892472
 20
-113.8040784763233
 30
0.0
 10
102.7334363892472
 20
-113.8040784763233
 30
0.0
 10
102.7523844144161
 20
-113.8040784763233
 30
0.0
 10
102.9556450480458
 20
-113.8040784763233
 30
0.0
 10
103.0972384724896
 20
-113.7849581963802
 30
0.0
 10
103.0972384724896
 20
-113.7849581963802
 30
0.0
 10
103.0972384724896
 20
-114.0199137084742
 30
0.0
 10
103.0972384724896
 20
-114.0199137084742
 30
0.0
 10
102.9408311374592
 20
-114.0007934285311
 30
0.0
 10
102.7503173571249
 20
-114.0007934285311
 30
0.0
 10
102.7334363892472
 20
-114.0007934285311
 30
0.0
  0
HATCH
  5
84
330
63
100
AcDbEntity
  8
_U+30EC_U+30A4_U+30E4_U+30FC 1
 62
     7
420
 16777215
100
AcDbHatch
 10
0.0
 20
0.0
 30
0.0
210
0.0
220
0.0
230
1.0
  2
SOLID
 70
     1
 71
     0
 91
        2
 92
        1
 93
        1
 72
     4
 94
        3
 73
     0
 74
     1
 95
       47
 96
       43
 40
0.0
 40
0.0
 40
0.0
 40
0.0
 40
1.0
 40
1.0
 40
1.0
 40
2.0
 40
2.0
 40
2.0
 40
3.0
 40
3.0
 40
3.0
 40
4.0
 40
4.0
 40
4.0
 40
5.0
 40
5.0
 40
5.0
 40
6.0
 40
6.0
 40
6.0
 40
7.0
 40
7.0
 40
7.0
 40
8.0
 40
8.0
 40
8.0
 40
9.0
 40
9.0
 40
9.0
 40
10.0
 40
10.0
 40
10.0
 40
11.0
 40
11.0
 40
11.0
 40
12.0
 40
12.0
 40
12.0
 40
13.0
 40
13.0
 40
13.0
 40
14.0
 40
14.0
 40
14.0
 40
14.0
 10
102.8350667060621
 20
-114.5296155855169
 10
102.8350667060621
 20
-114.5296155855169
 10
102.7334363892472
 20
-114.5296155855169
 10
102.7334363892472
 20
-114.5296155855169
 10
102.7334363892472
 20
-114.6164319917452
 10
102.7124213067872
 20
-115.0057277815784
 10
102.5157063545794
 20
-115.2256971283116
 10
102.3630886245828
 20
-115.3948513166374
 10
102.1560383859193
 20
-115.464786754988
 10
102.0712890369822
 20
-115.4921752640957
 10
102.0712890369822
 20
-115.4921752640957
 10
101.8766411420656
 20
-115.3250881330611
 10
101.8766411420656
 20
-115.3250881330611
 10
101.9741373442981
 20
-115.3123412797657
 10
102.1494927044973
 20
-115.2890868852402
 10
102.3379394275405
 20
-115.1008124169713
 10
102.4120089804734
 20
-115.0289821761039
 10
102.5157063545794
 20
-114.889283554177
 10
102.5157063545794
 20
-114.5296155855169
 10
102.5157063545794
 20
-114.5296155855169
 10
102.2848849570677
 20
-114.5296155855169
 10
102.2848849570677
 20
-114.5296155855169
 10
102.0988498008642
 20
-114.5296155855169
 10
101.9124701351122
 20
-114.5339219548735
 10
101.7264349789087
 20
-114.54873586546
 10
101.7264349789087
 20
-114.54873586546
 10
101.7264349789087
 20
-114.3287665187268
 10
101.7264349789087
 20
-114.3287665187268
 10
101.9148817019518
 20
-114.3435804293134
 10
102.200480117679
 20
-114.3477145438957
 10
102.2848849570677
 20
-114.3477145438957
 10
102.2848849570677
 20
-114.3477145438957
 10
102.8350667060621
 20
-114.3477145438957
 10
102.8350667060621
 20
-114.3477145438957
 10
102.8540147312309
 20
-114.3477145438957
 10
103.1713080254225
 20
-114.3477145438957
 10
103.3997178560945
 20
-114.3287665187268
 10
103.3997178560945
 20
-114.3287665187268
 10
103.3997178560945
 20
-114.54873586546
 10
103.3997178560945
 20
-114.54873586546
 10
103.2116156425999
 20
-114.5339219548735
 10
103.0231689195567
 20
-114.5296155855169
 10
102.8350667060621
 20
-114.5296155855169
 97
        0
 97
        0
 92
        1
 93
        1
 72
     4
 94
        3
 73
     0
 74
     1
 95
       29
 96
       25
 40
0.0
 40
0.0
 40
0.0
 40
0.0
 40
1.0
 40
1.0
 40
1.0
 40
2.0
 40
2.0
 40
2.0
 40
3.0
 40
3.0
 40
3.0
 40
4.0
 40
4.0
 40
4.0
 40
5.0
 40
5.0
 40
5.0
 40
6.0
 40
6.0
 40
6.0
 40
7.0
 40
7.0
 40
7.0
 40
8.0
 40
8.0
 40
8.0
 40
8.0
 10
102.7334363892472
 20
-114.0007934285311
 10
102.7334363892472
 20
-114.0007934285311
 10
102.3799695924606
 20
-114.0007934285311
 10
102.3799695924606
 20
-114.0007934285311
 10
102.2680039891899
 20
-114.0007934285311
 10
102.1284776220373
 20
-114.0071668551788
 10
102.020646133349
 20
-114.0199137084742
 10
102.020646133349
 20
-114.0199137084742
 10
102.020646133349
 20
-113.7849581963802
 10
102.020646133349
 20
-113.7849581963802
 10
102.1388129084931
 20
-113.7997721069667
 10
102.323125516954
 20
-113.8040784763233
 10
102.3799695924606
 20
-113.8040784763233
 10
102.3799695924606
 20
-113.8040784763233
 10
102.7334363892472
 20
-113.8040784763233
 10
102.7334363892472
 20
-113.8040784763233
 10
102.7523844144161
 20
-113.8040784763233
 10
102.9556450480458
 20
-113.8040784763233
 10
103.0972384724896
 20
-113.7849581963802
 10
103.0972384724896
 20
-113.7849581963802
 10
103.0972384724896
 20
-114.0199137084742
 10
103.0972384724896
 20
-114.0199137084742
 10
102.9408311374592
 20
-114.0007934285311
 10
102.7503173571249
 20
-114.0007934285311
 10
102.7334363892472
 20
-114.0007934285311
 97
        0
 97
        0
 75
     2
 76
     1
 98
        0
  0
SPLINE
  5
85
330
63
100
AcDbEntity
  8
_U+30EC_U+30A4_U+30E4_U+30FC 1
370
     0
100
AcDbSpline
210
0.0
220
0.0
230
1.0
 70
    11
 71
     3
 72
    29
 73
    25
 74
     0
 42
0.0000000001
 43
0.0000000001
 12
1.0
 22
0.0
 32
0.0
 13
1.0
 23
0.0
 33
0.0
 40
0.0
 40
0.0
 40
0.0
 40
0.0
 40
1.0
 40
1.0
 40
1.0
 40
2.0
 40
2.0
 40
2.0
 40
3.0
 40
3.0
 40
3.0
 40
4.0
 40
4.0
 40
4.0
 40
5.0
 40
5.0
 40
5.0
 40
6.0
 40
6.0
 40
6.0
 40
7.0
 40
7.0
 40
7.0
 40
8.0
 40
8.0
 40
8.0
 40
8.0
 10
104.6809488670589
 20
-114.6925686019692
 30
0.0
 10
104.6809488670589
 20
-114.6925686019692
 30
0.0
 10
104.1965684418328
 20
-114.6925686019692
 30
0.0
 10
104.1965684418328
 20
-114.6925686019692
 30
0.0
 10
104.1690076779508
 20
-114.6925686019692
 30
0.0
 10
103.8517143837593
 20
-114.6925686019692
 30
0.0
 10
103.640185520965
 20
-114.7178900537858
 30
0.0
 10
103.640185520965
 20
-114.7178900537858
 30
0.0
 10
103.640185520965
 20
-114.4874131658226
 30
0.0
 10
103.640185520965
 20
-114.4874131658226
 30
0.0
 10
103.7986599132865
 20
-114.510667560348
 30
0.0
 10
103.9891736936208
 20
-114.5127346176392
 30
0.0
 10
104.1965684418328
 20
-114.5127346176392
 30
0.0
 10
104.1965684418328
 20
-114.5127346176392
 30
0.0
 10
104.6809488670589
 20
-114.5127346176392
 30
0.0
 10
104.6809488670589
 20
-114.5127346176392
 30
0.0
 10
104.8669840232624
 20
-114.5127346176392
 30
0.0
 10
105.0533636890144
 20
-114.510667560348
 30
0.0
 10
105.2373317879268
 20
-114.4874131658226
 30
0.0
 10
105.2373317879268
 20
-114.4874131658226
 30
0.0
 10
105.2373317879268
 20
-114.7178900537858
 30
0.0
 10
105.2373317879268
 20
-114.7178900537858
 30
0.0
 10
105.0533636890144
 20
-114.6946356592604
 30
0.0
 10
104.805661323625
 20
-114.6925686019692
 30
0.0
 10
104.6809488670589
 20
-114.6925686019692
 30
0.0
  0
HATCH
  5
86
330
63
100
AcDbEntity
  8
_U+30EC_U+30A4_U+30E4_U+30FC 1
 62
     7
420
 16777215
100
AcDbHatch
 10
0.0
 20
0.0
 30
0.0
210
0.0
220
0.0
230
1.0
  2
SOLID
 70
     1
 71
     0
 91
        1
 92
        1
 93
        1
 72
     4
 94
        3
 73
     0
 74
     1
 95
       29
 96
       25
 40
0.0
 40
0.0
 40
0.0
 40
0.0
 40
1.0
 40
1.0
 40
1.0
 40
2.0
 40
2.0
 40
2.0
 40
3.0
 40
3.0
 40
3.0
 40
4.0
 40
4.0
 40
4.0
 40
5.0
 40
5.0
 40
5.0
 40
6.0
 40
6.0
 40
6.0
 40
7.0
 40
7.0
 40
7.0
 40
8.0
 40
8.0
 40
8.0
 40
8.0
 10
104.6809488670589
 20
-114.6925686019692
 10
104.6809488670589
 20
-114.6925686019692
 10
104.1965684418328
 20
-114.6925686019692
 10
104.1965684418328
 20
-114.6925686019692
 10
104.1690076779508
 20
-114.6925686019692
 10
103.8517143837593
 20
-114.6925686019692
 10
103.640185520965
 20
-114.7178900537858
 10
103.640185520965
 20
-114.7178900537858
 10
103.640185520965
 20
-114.4874131658226
 10
103.640185520965
 20
-114.4874131658226
 10
103.7986599132865
 20
-114.510667560348
 10
103.9891736936208
 20
-114.5127346176392
 10
104.1965684418328
 20
-114.5127346176392
 10
104.1965684418328
 20
-114.5127346176392
 10
104.6809488670589
 20
-114.5127346176392
 10
104.6809488670589
 20
-114.5127346176392
 10
104.8669840232624
 20
-114.5127346176392
 10
105.0533636890144
 20
-114.510667560348
 10
105.2373317879268
 20
-114.4874131658226
 10
105.2373317879268
 20
-114.4874131658226
 10
105.2373317879268
 20
-114.7178900537858
 10
105.2373317879268
 20
-114.7178900537858
 10
105.0533636890144
 20
-114.6946356592604
 10
104.805661323625
 20
-114.6925686019692
 10
104.6809488670589
 20
-114.6925686019692
 97
        0
 97
        0
 75
     2
 76
     1
 98
        0
  0
SPLINE
  5
87
330
63
100
AcDbEntity
  8
_U+30EC_U+30A4_U+30E4_U+30FC 1
370
     0
100
AcDbSpline
210
0.0
220
0.0
230
1.0
 70
    11
 71
     3
 72
    44
 73
    40
 74
     0
 42
0.0000000001
 43
0.0000000001
 12
1.0
 22
0.0
 32
0.0
 13
1.0
 23
0.0
 33
0.0
 40
0.0
 40
0.0
 40
0.0
 40
0.0
 40
1.0
 40
1.0
 40
1.0
 40
2.0
 40
2.0
 40
2.0
 40
3.0
 40
3.0
 40
3.0
 40
4.0
 40
4.0
 40
4.0
 40
5.0
 40
5.0
 40
5.0
 40
6.0
 40
6.0
 40
6.0
 40
7.0
 40
7.0
 40
7.0
 40
8.0
 40
8.0
 40
8.0
 40
9.0
 40
9.0
 40
9.0
 40
10.0
 40
10.0
 40
10.0
 40
11.0
 40
11.0
 40
11.0
 40
12.0
 40
12.0
 40
12.0
 40
13.0
 40
13.0
 40
13.0
 40
13.0
 10
106.8923556590408
 20
-114.254696965794
 30
0.0
 10
106.7803900557702
 20
-114.6228054183929
 30
0.0
 10
106.729747152137
 20
-114.7814520654887
 30
0.0
 10
106.5330321999293
 20
-115.031049233395
 30
0.0
 10
106.3487195914684
 20
-115.2616983761325
 30
0.0
 10
106.1120415316317
 20
-115.447733532336
 30
0.0
 10
105.832644287778
 20
-115.540923365212
 30
0.0
 10
105.832644287778
 20
-115.540923365212
 30
0.0
 10
105.6400634501525
 20
-115.3610893808819
 30
0.0
 10
105.6400634501525
 20
-115.3610893808819
 30
0.0
 10
106.2811957199575
 20
-115.2088161604339
 30
0.0
 10
106.6112358674444
 20
-114.6524332395661
 30
0.0
 10
106.674625624373
 20
-114.2123222913254
 30
0.0
 10
106.674625624373
 20
-114.2123222913254
 30
0.0
 10
105.908780898002
 20
-114.2123222913254
 30
0.0
 10
105.908780898002
 20
-114.2123222913254
 30
0.0
 10
105.8157633199002
 20
-114.2123222913254
 30
0.0
 10
105.6317952209879
 20
-114.216628660682
 30
0.0
 10
105.475043376409
 20
-114.2355766858508
 30
0.0
 10
105.475043376409
 20
-114.2355766858508
 30
0.0
 10
105.475043376409
 20
-114.0156073391176
 30
0.0
 10
105.475043376409
 20
-114.0156073391176
 30
0.0
 10
105.5618597826373
 20
-114.0367946763519
 30
0.0
 10
105.8136962626091
 20
-114.0367946763519
 30
0.0
 10
105.9129150125843
 20
-114.0367946763519
 30
0.0
 10
105.9129150125843
 20
-114.0367946763519
 30
0.0
 10
106.3445854768861
 20
-114.0367946763519
 30
0.0
 10
106.3445854768861
 20
-114.0367946763519
 30
0.0
 10
106.3869601513547
 20
-114.0367946763519
 30
0.0
 10
106.6215711539002
 20
-114.0345553642865
 30
0.0
 10
106.6598117137864
 20
-114.0283541924131
 30
0.0
 10
106.702186388255
 20
-114.0219807657653
 30
0.0
 10
106.7042534455462
 20
-114.0199137084742
 30
0.0
 10
106.7655761451836
 20
-113.9796060912968
 30
0.0
 10
106.7655761451836
 20
-113.9796060912968
 30
0.0
 10
106.9536783586782
 20
-114.1341186238102
 30
0.0
 10
106.9536783586782
 20
-114.1341186238102
 30
0.0
 10
106.9243950470536
 20
-114.1637464449834
 30
0.0
 10
106.9095811364671
 20
-114.1954413234477
 30
0.0
 10
106.8923556590408
 20
-114.254696965794
 30
0.0
  0
SPLINE
  5
88
330
63
100
AcDbEntity
  8
_U+30EC_U+30A4_U+30E4_U+30FC 1
370
     0
100
AcDbSpline
210
0.0
220
0.0
230
1.0
 70
    11
 71
     3
 72
    17
 73
    13
 74
     0
 42
0.0000000001
 43
0.0000000001
 12
1.0
 22
0.0
 32
0.0
 13
1.0
 23
0.0
 33
0.0
 40
0.0
 40
0.0
 40
0.0
 40
0.0
 40
1.0
 40
1.0
 40
1.0
 40
2.0
 40
2.0
 40
2.0
 40
3.0
 40
3.0
 40
3.0
 40
4.0
 40
4.0
 40
4.0
 40
4.0
 10
107.101817464544
 20
-114.0557427015208
 30
0.0
 10
106.9750379506868
 20
-114.0557427015208
 30
0.0
 10
106.8734076338719
 20
-113.9542846394802
 30
0.0
 10
106.8734076338719
 20
-113.8273328708487
 30
0.0
 10
106.8734076338719
 20
-113.7003811022173
 30
0.0
 10
106.9750379506868
 20
-113.5966837281112
 30
0.0
 10
107.101817464544
 20
-113.5966837281112
 30
0.0
 10
107.2289414879497
 20
-113.5966837281112
 30
0.0
 10
107.3326388620557
 20
-113.7003811022173
 30
0.0
 10
107.3326388620557
 20
-113.8273328708487
 30
0.0
 10
107.3326388620557
 20
-113.9542846394802
 30
0.0
 10
107.2289414879497
 20
-114.0557427015208
 30
0.0
 10
107.101817464544
 20
-114.0557427015208
 30
0.0
  0
SPLINE
  5
89
330
63
100
AcDbEntity
  8
_U+30EC_U+30A4_U+30E4_U+30FC 1
370
     0
100
AcDbSpline
210
0.0
220
0.0
230
1.0
 70
    11
 71
     3
 72
    17
 73
    13
 74
     0
 42
0.0000000001
 43
0.0000000001
 12
1.0
 22
0.0
 32
0.0
 13
1.0
 23
0.0
 33
0.0
 40
0.0
 40
0.0
 40
0.0
 40
0.0
 40
1.0
 40
1.0
 40
1.0
 40
2.0
 40
2.0
 40
2.0
 40
3.0
 40
3.0
 40
3.0
 40
4.0
 40
4.0
 40
4.0
 40
4.0
 10
107.0997504072528
 20
-113.7257025540339
 30
0.0
 10
107.0449733890374
 20
-113.7257025540339
 30
0.0
 10
107.0005316572776
 20
-113.7701442857936
 30
0.0
 10
107.0005316572776
 20
-113.8252658135576
 30
0.0
 10
107.0005316572776
 20
-113.8822821438385
 30
0.0
 10
107.0449733890374
 20
-113.9310302449547
 30
0.0
 10
107.1038845218351
 20
-113.9310302449547
 30
0.0
 10
107.1631401641814
 20
-113.9310302449547
 30
0.0
 10
107.2034477813589
 20
-113.8802150865473
 30
0.0
 10
107.2034477813589
 20
-113.8273328708487
 30
0.0
 10
107.2034477813589
 20
-113.7701442857936
 30
0.0
 10
107.156938992308
 20
-113.7257025540339
 30
0.0
 10
107.0997504072528
 20
-113.7257025540339
 30
0.0
  0
HATCH
  5
8A
330
63
100
AcDbEntity
  8
_U+30EC_U+30A4_U+30E4_U+30FC 1
 62
     7
420
 16777215
100
AcDbHatch
 10
0.0
 20
0.0
 30
0.0
210
0.0
220
0.0
230
1.0
  2
SOLID
 70
     1
 71
     0
 91
        3
 92
        1
 93
        1
 72
     4
 94
        3
 73
     0
 74
     1
 95
       44
 96
       40
 40
0.0
 40
0.0
 40
0.0
 40
0.0
 40
1.0
 40
1.0
 40
1.0
 40
2.0
 40
2.0
 40
2.0
 40
3.0
 40
3.0
 40
3.0
 40
4.0
 40
4.0
 40
4.0
 40
5.0
 40
5.0
 40
5.0
 40
6.0
 40
6.0
 40
6.0
 40
7.0
 40
7.0
 40
7.0
 40
8.0
 40
8.0
 40
8.0
 40
9.0
 40
9.0
 40
9.0
 40
10.0
 40
10.0
 40
10.0
 40
11.0
 40
11.0
 40
11.0
 40
12.0
 40
12.0
 40
12.0
 40
13.0
 40
13.0
 40
13.0
 40
13.0
 10
106.8923556590408
 20
-114.254696965794
 10
106.7803900557702
 20
-114.6228054183929
 10
106.729747152137
 20
-114.7814520654887
 10
106.5330321999293
 20
-115.031049233395
 10
106.3487195914684
 20
-115.2616983761325
 10
106.1120415316317
 20
-115.447733532336
 10
105.832644287778
 20
-115.540923365212
 10
105.832644287778
 20
-115.540923365212
 10
105.6400634501525
 20
-115.3610893808819
 10
105.6400634501525
 20
-115.3610893808819
 10
106.2811957199575
 20
-115.2088161604339
 10
106.6112358674444
 20
-114.6524332395661
 10
106.674625624373
 20
-114.2123222913254
 10
106.674625624373
 20
-114.2123222913254
 10
105.908780898002
 20
-114.2123222913254
 10
105.908780898002
 20
-114.2123222913254
 10
105.8157633199002
 20
-114.2123222913254
 10
105.6317952209879
 20
-114.216628660682
 10
105.475043376409
 20
-114.2355766858508
 10
105.475043376409
 20
-114.2355766858508
 10
105.475043376409
 20
-114.0156073391176
 10
105.475043376409
 20
-114.0156073391176
 10
105.5618597826373
 20
-114.0367946763519
 10
105.8136962626091
 20
-114.0367946763519
 10
105.9129150125843
 20
-114.0367946763519
 10
105.9129150125843
 20
-114.0367946763519
 10
106.3445854768861
 20
-114.0367946763519
 10
106.3445854768861
 20
-114.0367946763519
 10
106.3869601513547
 20
-114.0367946763519
 10
106.6215711539002
 20
-114.0345553642865
 10
106.6598117137864
 20
-114.0283541924131
 10
106.702186388255
 20
-114.0219807657653
 10
106.7042534455462
 20
-114.0199137084742
 10
106.7655761451836
 20
-113.9796060912968
 10
106.7655761451836
 20
-113.9796060912968
 10
106.9536783586782
 20
-114.1341186238102
 10
106.9536783586782
 20
-114.1341186238102
 10
106.9243950470536
 20
-114.1637464449834
 10
106.9095811364671
 20
-114.1954413234477
 10
106.8923556590408
 20
-114.254696965794
 97
        0
 97
        0
 92
        1
 93
        1
 72
     4
 94
        3
 73
     0
 74
     1
 95
       17
 96
       13
 40
0.0
 40
0.0
 40
0.0
 40
0.0
 40
1.0
 40
1.0
 40
1.0
 40
2.0
 40
2.0
 40
2.0
 40
3.0
 40
3.0
 40
3.0
 40
4.0
 40
4.0
 40
4.0
 40
4.0
 10
107.101817464544
 20
-114.0557427015208
 10
106.9750379506868
 20
-114.0557427015208
 10
106.8734076338719
 20
-113.9542846394802
 10
106.8734076338719
 20
-113.8273328708487
 10
106.8734076338719
 20
-113.7003811022173
 10
106.9750379506868
 20
-113.5966837281112
 10
107.101817464544
 20
-113.5966837281112
 10
107.2289414879497
 20
-113.5966837281112
 10
107.3326388620557
 20
-113.7003811022173
 10
107.3326388620557
 20
-113.8273328708487
 10
107.3326388620557
 20
-113.9542846394802
 10
107.2289414879497
 20
-114.0557427015208
 10
107.101817464544
 20
-114.0557427015208
 97
        0
 97
        0
 92
        1
 93
        1
 72
     4
 94
        3
 73
     0
 74
     1
 95
       17
 96
       13
 40
0.0
 40
0.0
 40
0.0
 40
0.0
 40
1.0
 40
1.0
 40
1.0
 40
2.0
 40
2.0
 40
2.0
 40
3.0
 40
3.0
 40
3.0
 40
4.0
 40
4.0
 40
4.0
 40
4.0
 10
107.0997504072528
 20
-113.7257025540339
 10
107.0449733890374
 20
-113.7257025540339
 10
107.0005316572776
 20
-113.7701442857936
 10
107.0005316572776
 20
-113.8252658135576
 10
107.0005316572776
 20
-113.8822821438385
 10
107.0449733890374
 20
-113.9310302449547
 10
107.1038845218351
 20
-113.9310302449547
 10
107.1631401641814
 20
-113.9310302449547
 10
107.2034477813589
 20
-113.8802150865473
 10
107.2034477813589
 20
-113.8273328708487
 10
107.2034477813589
 20
-113.7701442857936
 10
107.156938992308
 20
-113.7257025540339
 10
107.0997504072528
 20
-113.7257025540339
 97
        0
 97
        0
 75
     2
 76
     1
 98
        0
  0
ENDBLK
  5
66
330
63
100
AcDbEntity
  8
0
100
AcDbBlockEnd
  0
BLOCK
  5
8D
330
8B
100
AcDbEntity
  8
0
100
AcDbBlockBegin
  2
block 3
 70
     0
 10
0.0
 20
0.0
 30
0.0
  3
block 3
  1

  0
POLYLINE
  5
8F
330
8B
100
AcDbEntity
  8
_U+30EC_U+30A4_U+30E4_U+30FC 1
 62
   179
420
  2234388
370
    25
100
AcDb2dPolyline
 66
     1
 10
0.0
 20
0.0
 30
0.0
  0
VERTEX
  5
90
330
8F
100
AcDbEntity
  8
_U+30EC_U+30A4_U+30E4_U+30FC 1
 62
   179
420
  2234388
370
    25
100
AcDbVertex
100
AcDb2dVertex
 10
93.07716873651471
 20
-144.0091099639976
 30
0.0
  0
VERTEX
  5
91
330
8F
100
AcDbEntity
  8
_U+30EC_U+30A4_U+30E4_U+30FC 1
 62
   179
420
  2234388
370
    25
100
AcDbVertex
100
AcDb2dVertex
 10
76.1266222031907
 20
-127.0585610793465
 30
0.0
  0
SEQEND
  5
92
330
8F
100
AcDbEntity
  8
_U+30EC_U+30A4_U+30E4_U+30FC 1
 62
   179
420
  2234388
370
    25
  0
POLYLINE
  5
93
330
8B
100
AcDbEntity
  8
_U+30EC_U+30A4_U+30E4_U+30FC 1
 62
   179
420
  2234388
370
    25
100
AcDb2dPolyline
 66
     1
 10
0.0
 20
0.0
 30
0.0
  0
VERTEX
  5
94
330
93
100
AcDbEntity
  8
_U+30EC_U+30A4_U+30E4_U+30FC 1
 62
   179
420
  2234388
370
    25
100
AcDbVertex
100
AcDb2dVertex
 10
92.80433041014206
 20
-145.0088821859702
 30
0.0
  0
VERTEX
  5
95
330
93
100
AcDbEntity
  8
_U+30EC_U+30A4_U+30E4_U+30FC 1
 62
   179
420
  2234388
370
    25
100
AcDbVertex
100
AcDb2dVertex
 10
75.12684998121816
 20
-127.3314346903895
 30
0.0
  0
SEQEND
  5
96
330
93
100
AcDbEntity
  8
_U+30EC_U+30A4_U+30E4_U+30FC 1
 62
   179
420
  2234388
370
    25
  0
POLYLINE
  5
97
330
8B
100
AcDbEntity
  8
_U+30EC_U+30A4_U+30E4_U+30FC 1
 62
   179
420
  2234388
370
    25
100
AcDb2dPolyline
 66
     1
 10
0.0
 20
0.0
 30
0.0
  0
VERTEX
  5
98
330
97
100
AcDbEntity
  8
_U+30EC_U+30A4_U+30E4_U+30FC 1
 62
   179
420
  2234388
370
    25
100
AcDbVertex
100
AcDb2dVertex
 10
93.07716873651471
 20
-144.0091099639976
 30
0.0
  0
VERTEX
  5
99
330
97
100
AcDbEntity
  8
_U+30EC_U+30A4_U+30E4_U+30FC 1
 62
   179
420
  2234388
370
    25
100
AcDbVertex
100
AcDb2dVertex
 10
113.0773398929345
 20
-144.0091099639976
 30
0.0
  0
SEQEND
  5
9A
330
97
100
AcDbEntity
  8
_U+30EC_U+30A4_U+30E4_U+30FC 1
 62
   179
420
  2234388
370
    25
  0
POLYLINE
  5
9B
330
8B
100
AcDbEntity
  8
_U+30EC_U+30A4_U+30E4_U+30FC 1
 62
   179
420
  2234388
370
    25
100
AcDb2dPolyline
 66
     1
 10
0.0
 20
0.0
 30
0.0
  0
VERTEX
  5
9C
330
9B
100
AcDbEntity
  8
_U+30EC_U+30A4_U+30E4_U+30FC 1
 62
   179
420
  2234388
370
    25
100
AcDbVertex
100
AcDb2dVertex
 10
113.0773398929345
 20
-144.0091099639976
 30
0.0
  0
VERTEX
  5
9D
330
9B
100
AcDbEntity
  8
_U+30EC_U+30A4_U+30E4_U+30FC 1
 62
   179
420
  2234388
370
    25
100
AcDbVertex
100
AcDb2dVertex
 10
113.0773398929345
 20
-144.5093488527613
 30
0.0
  0
SEQEND
  5
9E
330
9B
100
AcDbEntity
  8
_U+30EC_U+30A4_U+30E4_U+30FC 1
 62
   179
420
  2234388
370
    25
  0
POLYLINE
  5
9F
330
8B
100
AcDbEntity
  8
_U+30EC_U+30A4_U+30E4_U+30FC 1
 62
   179
420
  2234388
370
    25
100
AcDb2dPolyline
 66
     1
 10
0.0
 20
0.0
 30
0.0
  0
VERTEX
  5
A0
330
9F
100
AcDbEntity
  8
_U+30EC_U+30A4_U+30E4_U+30FC 1
 62
   179
420
  2234388
370
    25
100
AcDbVertex
100
AcDb2dVertex
 10
92.80433041014206
 20
-145.0088821859702
 30
0.0
  0
VERTEX
  5
A1
330
9F
100
AcDbEntity
  8
_U+30EC_U+30A4_U+30E4_U+30FC 1
 62
   179
420
  2234388
370
    25
100
AcDbVertex
100
AcDb2dVertex
 10
113.0773398929345
 20
-144.5093488527613
 30
0.0
  0
SEQEND
  5
A2
330
9F
100
AcDbEntity
  8
_U+30EC_U+30A4_U+30E4_U+30FC 1
 62
   179
420
  2234388
370
    25
  0
POLYLINE
  5
A3
330
8B
100
AcDbEntity
  8
_U+30EC_U+30A4_U+30E4_U+30FC 1
 62
   179
420
  2234388
370
    25
100
AcDb2dPolyline
 66
     1
 10
0.0
 20
0.0
 30
0.0
  0
VERTEX
  5
A4
330
A3
100
AcDbEntity
  8
_U+30EC_U+30A4_U+30E4_U+30FC 1
 62
   179
420
  2234388
370
    25
100
AcDbVertex
100
AcDb2dVertex
 10
76.1266222031907
 20
-127.0585610793465
 30
0.0
  0
VERTEX
  5
A5
330
A3
100
AcDbEntity
  8
_U+30EC_U+30A4_U+30E4_U+30FC 1
 62
   179
420
  2234388
370
    25
100
AcDbVertex
100
AcDb2dVertex
 10
76.1266222031907
 20
-107.0584246954577
 30
0.0
  0
SEQEND
  5
A6
330
A3
100
AcDbEntity
  8
_U+30EC_U+30A4_U+30E4_U+30FC 1
 62
   179
420
  2234388
370
    25
  0
POLYLINE
  5
A7
330
8B
100
AcDbEntity
  8
_U+30EC_U+30A4_U+30E4_U+30FC 1
 62
   179
420
  2234388
370
    25
100
AcDb2dPolyline
 66
     1
 10
0.0
 20
0.0
 30
0.0
  0
VERTEX
  5
A8
330
A7
100
AcDbEntity
  8
_U+30EC_U+30A4_U+30E4_U+30FC 1
 62
   179
420
  2234388
370
    25
100
AcDbVertex
100
AcDb2dVertex
 10
75.12684998121816
 20
-127.3314346903895
 30
0.0
  0
VERTEX
  5
A9
330
A7
100
AcDbEntity
  8
_U+30EC_U+30A4_U+30E4_U+30FC 1
 62
   179
420
  2234388
370
    25
100
AcDbVertex
100
AcDb2dVertex
 10
75.62673609220442
 20
-107.0584246954577
 30
0.0
  0
SEQEND
  5
AA
330
A7
100
AcDbEntity
  8
_U+30EC_U+30A4_U+30E4_U+30FC 1
 62
   179
420
  2234388
370
    25
  0
POLYLINE
  5
AB
330
8B
100
AcDbEntity
  8
_U+30EC_U+30A4_U+30E4_U+30FC 1
 62
   179
420
  2234388
370
    25
100
AcDb2dPolyline
 66
     1
 10
0.0
 20
0.0
 30
0.0
  0
VERTEX
  5
AC
330
AB
100
AcDbEntity
  8
_U+30EC_U+30A4_U+30E4_U+30FC 1
 62
   179
420
  2234388
370
    25
100
AcDbVertex
100
AcDb2dVertex
 10
76.1266222031907
 20
-107.0584246954577
 30
0.0
  0
VERTEX
  5
AD
330
AB
100
AcDbEntity
  8
_U+30EC_U+30A4_U+30E4_U+30FC 1
 62
   179
420
  2234388
370
    25
100
AcDbVertex
100
AcDb2dVertex
 10
75.62673609220442
 20
-107.0584246954577
 30
0.0
  0
SEQEND
  5
AE
330
AB
100
AcDbEntity
  8
_U+30EC_U+30A4_U+30E4_U+30FC 1
 62
   179
420
  2234388
370
    25
  0
SPLINE
  5
AF
330
8B
100
AcDbEntity
  8
_U+30EC_U+30A4_U+30E4_U+30FC 1
 62
   179
420
  2234388
370
     9
100
AcDbSpline
210
0.0
220
0.0
230
1.0
 70
    11
 71
     3
 72
    17
 73
    13
 74
     0
 42
0.0000000001
 43
0.0000000001
 12
1.0
 22
0.0
 32
0.0
 13
1.0
 23
0.0
 33
0.0
 40
0.0
 40
0.0
 40
0.0
 40
0.0
 40
1.0
 40
1.0
 40
1.0
 40
2.0
 40
2.0
 40
2.0
 40
3.0
 40
3.0
 40
3.0
 40
4.0
 40
4.0
 40
4.0
 40
4.0
 10
113.1775993348211
 20
-149.0093469071919
 30
0.0
 10
113.1775993348211
 20
-148.9535374627615
 30
0.0
 10
113.1327965581863
 20
-148.9087346849948
 30
0.0
 10
113.0773398929345
 20
-148.9087346849948
 30
0.0
 10
113.0222007276745
 20
-148.9087346849948
 30
0.0
 10
112.9774360828668
 20
-148.9535374627615
 30
0.0
 10
112.9774360828668
 20
-149.0093469071919
 30
0.0
 10
112.9774360828668
 20
-149.0644507960675
 30
0.0
 10
113.0222007276745
 20
-149.1092535738336
 30
0.0
 10
113.0773398929345
 20
-149.1092535738336
 30
0.0
 10
113.1327965581863
 20
-149.1092535738336
 30
0.0
 10
113.1775993348211
 20
-149.0644507960675
 30
0.0
 10
113.1775993348211
 20
-149.0093469071919
 30
0.0
  0
SPLINE
  5
B0
330
8B
100
AcDbEntity
  8
_U+30EC_U+30A4_U+30E4_U+30FC 1
 62
   179
420
  2234388
370
     9
100
AcDbSpline
210
0.0
220
0.0
230
1.0
 70
    11
 71
     3
 72
    17
 73
    13
 74
     0
 42
0.0000000001
 43
0.0000000001
 12
1.0
 22
0.0
 32
0.0
 13
1.0
 23
0.0
 33
0.0
 40
0.0
 40
0.0
 40
0.0
 40
0.0
 40
1.0
 40
1.0
 40
1.0
 40
2.0
 40
2.0
 40
2.0
 40
3.0
 40
3.0
 40
3.0
 40
4.0
 40
4.0
 40
4.0
 40
4.0
 10
90.07580831081425
 20
-147.8373132963739
 30
0.0
 10
90.07580831081425
 20
-147.782209407499
 30
0.0
 10
90.03103853645018
 20
-147.7374066297323
 30
0.0
 10
89.97589937119024
 20
-147.7374066297323
 30
0.0
 10
89.92079548370717
 20
-147.7374066297323
 30
0.0
 10
89.8759927070724
 20
-147.782209407499
 30
0.0
 10
89.8759927070724
 20
-147.8373132963739
 30
0.0
 10
89.8759927070724
 20
-147.892452463027
 30
0.0
 10
89.92079548370717
 20
-147.9372199630155
 30
0.0
 10
89.97589937119024
 20
-147.9372199630155
 30
0.0
 10
90.03103853645018
 20
-147.9372199630155
 30
0.0
 10
90.07580831081425
 20
-147.892452463027
 30
0.0
 10
90.07580831081425
 20
-147.8373132963739
 30
0.0
  0
SPLINE
  5
B1
330
8B
100
AcDbEntity
  8
_U+30EC_U+30A4_U+30E4_U+30FC 1
 62
   179
420
  2234388
370
     9
100
AcDbSpline
210
0.0
220
0.0
230
1.0
 70
    11
 71
     3
 72
    17
 73
    13
 74
     0
 42
0.0000000001
 43
0.0000000001
 12
1.0
 22
0.0
 32
0.0
 13
1.0
 23
0.0
 33
0.0
 40
0.0
 40
0.0
 40
0.0
 40
0.0
 40
1.0
 40
1.0
 40
1.0
 40
2.0
 40
2.0
 40
2.0
 40
3.0
 40
3.0
 40
3.0
 40
4.0
 40
4.0
 40
4.0
 40
4.0
 10
93.17707775448343
 20
-149.0093469071919
 30
0.0
 10
93.17707775448343
 20
-148.9535374627615
 30
0.0
 10
93.13230790177465
 20
-148.9087346849948
 30
0.0
 10
93.07716873651471
 20
-148.9087346849948
 30
0.0
 10
93.02206484903164
 20
-148.9087346849948
 30
0.0
 10
92.97726207239687
 20
-148.9535374627615
 30
0.0
 10
92.97726207239687
 20
-149.0093469071919
 30
0.0
 10
92.97726207239687
 20
-149.0644507960675
 30
0.0
 10
93.02206484903164
 20
-149.1092535738336
 30
0.0
 10
93.07716873651471
 20
-149.1092535738336
 30
0.0
 10
93.13230790177465
 20
-149.1092535738336
 30
0.0
 10
93.17707775448343
 20
-149.0644507960675
 30
0.0
 10
93.17707775448343
 20
-149.0093469071919
 30
0.0
  0
SPLINE
  5
B2
330
8B
100
AcDbEntity
  8
_U+30EC_U+30A4_U+30E4_U+30FC 1
 62
   179
420
  2234388
370
     9
100
AcDbSpline
210
0.0
220
0.0
230
1.0
 70
    11
 71
     3
 72
    17
 73
    13
 74
     0
 42
0.0000000001
 43
0.0000000001
 12
1.0
 22
0.0
 32
0.0
 13
1.0
 23
0.0
 33
0.0
 40
0.0
 40
0.0
 40
0.0
 40
0.0
 40
1.0
 40
1.0
 40
1.0
 40
2.0
 40
2.0
 40
2.0
 40
3.0
 40
3.0
 40
3.0
 40
4.0
 40
4.0
 40
4.0
 40
4.0
 10
71.22664290507917
 20
-127.0585610793465
 30
0.0
 10
71.22664290507917
 20
-127.0034571904713
 30
0.0
 10
71.1818754062213
 20
-126.9586544127049
 30
0.0
 10
71.12673624096134
 20
-126.9586544127049
 30
0.0
 10
71.0712795757095
 20
-126.9586544127049
 30
0.0
 10
71.02651387113228
 20
-127.0034571904713
 30
0.0
 10
71.02651387113228
 20
-127.0585610793465
 30
0.0
 10
71.02651387113228
 20
-127.1137002459993
 30
0.0
 10
71.0712795757095
 20
-127.1584677459882
 30
0.0
 10
71.12673624096134
 20
-127.1584677459882
 30
0.0
 10
71.1818754062213
 20
-127.1584677459882
 30
0.0
 10
71.22664290507917
 20
-127.1137002459993
 30
0.0
 10
71.22664290507917
 20
-127.0585610793465
 30
0.0
  0
SPLINE
  5
B3
330
8B
100
AcDbEntity
  8
_U+30EC_U+30A4_U+30E4_U+30FC 1
 62
   179
420
  2234388
370
     9
100
AcDbSpline
210
0.0
220
0.0
230
1.0
 70
    11
 71
     3
 72
    17
 73
    13
 74
     0
 42
0.0000000001
 43
0.0000000001
 12
1.0
 22
0.0
 32
0.0
 13
1.0
 23
0.0
 33
0.0
 40
0.0
 40
0.0
 40
0.0
 40
0.0
 40
1.0
 40
1.0
 40
1.0
 40
2.0
 40
2.0
 40
2.0
 40
3.0
 40
3.0
 40
3.0
 40
4.0
 40
4.0
 40
4.0
 40
4.0
 10
72.39832370852044
 20
-130.1598305230157
 30
0.0
 10
72.39832370852044
 20
-130.1047266341408
 30
0.0
 10
72.35355620966256
 20
-130.0599238563741
 30
0.0
 10
72.2984170444026
 20
-130.0599238563741
 30
0.0
 10
72.24296037915076
 20
-130.0599238563741
 30
0.0
 10
72.19851038028477
 20
-130.1047266341408
 30
0.0
 10
72.19851038028477
 20
-130.1598305230157
 30
0.0
 10
72.19851038028477
 20
-130.2149696896688
 30
0.0
 10
72.24296037915076
 20
-130.2597371896574
 30
0.0
 10
72.2984170444026
 20
-130.2597371896574
 30
0.0
 10
72.35355620966256
 20
-130.2597371896574
 30
0.0
 10
72.39832370852044
 20
-130.2149696896688
 30
0.0
 10
72.39832370852044
 20
-130.1598305230157
 30
0.0
  0
SPLINE
  5
B4
330
8B
100
AcDbEntity
  8
_U+30EC_U+30A4_U+30E4_U+30FC 1
 62
   179
420
  2234388
370
     9
100
AcDbSpline
210
0.0
220
0.0
230
1.0
 70
    11
 71
     3
 72
    17
 73
    13
 74
     0
 42
0.0000000001
 43
0.0000000001
 12
1.0
 22
0.0
 32
0.0
 13
1.0
 23
0.0
 33
0.0
 40
0.0
 40
0.0
 40
0.0
 40
0.0
 40
1.0
 40
1.0
 40
1.0
 40
2.0
 40
2.0
 40
2.0
 40
3.0
 40
3.0
 40
3.0
 40
4.0
 40
4.0
 40
4.0
 40
4.0
 10
71.22664290507917
 20
-107.0584246954577
 30
0.0
 10
71.22664290507917
 20
-107.0032855288046
 30
0.0
 10
71.1818754062213
 20
-106.9585180288161
 30
0.0
 10
71.12673624096134
 20
-106.9585180288161
 30
0.0
 10
71.0712795757095
 20
-106.9585180288161
 30
0.0
 10
71.02651387113228
 20
-107.0032855288046
 30
0.0
 10
71.02651387113228
 20
-107.0584246954577
 30
0.0
 10
71.02651387113228
 20
-107.1135285843326
 30
0.0
 10
71.0712795757095
 20
-107.1583313620993
 30
0.0
 10
71.12673624096134
 20
-107.1583313620993
 30
0.0
 10
71.1818754062213
 20
-107.1583313620993
 30
0.0
 10
71.22664290507917
 20
-107.1135285843326
 30
0.0
 10
71.22664290507917
 20
-107.0584246954577
 30
0.0
  0
POLYLINE
  5
B5
330
8B
100
AcDbEntity
  8
_U+30EC_U+30A4_U+30E4_U+30FC 1
 62
   179
420
  2234388
370
     9
100
AcDb2dPolyline
 66
     1
 10
0.0
 20
0.0
 30
0.0
  0
VERTEX
  5
B6
330
B5
100
AcDbEntity
  8
_U+30EC_U+30A4_U+30E4_U+30FC 1
 62
   179
420
  2234388
370
     9
100
AcDbVertex
100
AcDb2dVertex
 10
72.2984170444026
 20
-130.1598305230157
 30
0.0
  0
VERTEX
  5
B7
330
B5
100
AcDbEntity
  8
_U+30EC_U+30A4_U+30E4_U+30FC 1
 62
   179
420
  2234388
370
     9
100
AcDbVertex
100
AcDb2dVertex
 10
89.97589937119024
 20
-147.8373132963739
 30
0.0
  0
SEQEND
  5
B8
330
B5
100
AcDbEntity
  8
_U+30EC_U+30A4_U+30E4_U+30FC 1
 62
   179
420
  2234388
370
     9
  0
POLYLINE
  5
B9
330
8B
100
AcDbEntity
  8
_U+30EC_U+30A4_U+30E4_U+30FC 1
 62
   179
420
  2234388
370
     9
100
AcDb2dPolyline
 66
     1
 10
0.0
 20
0.0
 30
0.0
  0
VERTEX
  5
BA
330
B9
100
AcDbEntity
  8
_U+30EC_U+30A4_U+30E4_U+30FC 1
 62
   179
420
  2234388
370
     9
100
AcDbVertex
100
AcDb2dVertex
 10
73.33057424029231
 20
-129.1277085788294
 30
0.0
  0
VERTEX
  5
BB
330
B9
100
AcDbEntity
  8
_U+30EC_U+30A4_U+30E4_U+30FC 1
 62
   179
420
  2234388
370
     9
100
AcDbVertex
100
AcDb2dVertex
 10
71.59113289578026
 20
-130.8667619117278
 30
0.0
  0
SEQEND
  5
BC
330
B9
100
AcDbEntity
  8
_U+30EC_U+30A4_U+30E4_U+30FC 1
 62
   179
420
  2234388
370
     9
  0
POLYLINE
  5
BD
330
8B
100
AcDbEntity
  8
_U+30EC_U+30A4_U+30E4_U+30FC 1
 62
   179
420
  2234388
370
     9
100
AcDb2dPolyline
 66
     1
 10
0.0
 20
0.0
 30
0.0
  0
VERTEX
  5
BE
330
BD
100
AcDbEntity
  8
_U+30EC_U+30A4_U+30E4_U+30FC 1
 62
   179
420
  2234388
370
     9
100
AcDbVertex
100
AcDb2dVertex
 10
91.00840934484872
 20
-146.8051560744101
 30
0.0
  0
VERTEX
  5
BF
330
BD
100
AcDbEntity
  8
_U+30EC_U+30A4_U+30E4_U+30FC 1
 62
   179
420
  2234388
370
     9
100
AcDbVertex
100
AcDb2dVertex
 10
89.26896800033667
 20
-148.5449502406415
 30
0.0
  0
SEQEND
  5
C0
330
BD
100
AcDbEntity
  8
_U+30EC_U+30A4_U+30E4_U+30FC 1
 62
   179
420
  2234388
370
     9
  0
INSERT
  5
C2
330
8B
100
AcDbEntity
  8
_U+30EC_U+30A4_U+30E4_U+30FC 1
100
AcDbBlockReference
  2
block 4
 10
0.0
 20
0.0
 30
0.0
  0
POLYLINE
  5
C9
330
8B
100
AcDbEntity
  8
_U+30EC_U+30A4_U+30E4_U+30FC 1
 62
   179
420
  2234388
370
     9
100
AcDb2dPolyline
 66
     1
 10
0.0
 20
0.0
 30
0.0
  0
VERTEX
  5
CA
330
C9
100
AcDbEntity
  8
_U+30EC_U+30A4_U+30E4_U+30FC 1
 62
   179
420
  2234388
370
     9
100
AcDbVertex
100
AcDb2dVertex
 10
93.07716873651471
 20
-149.0093469071919
 30
0.0
  0
VERTEX
  5
CB
330
C9
100
AcDbEntity
  8
_U+30EC_U+30A4_U+30E4_U+30FC 1
 62
   179
420
  2234388
370
     9
100
AcDbVertex
100
AcDb2dVertex
 10
113.0773398929345
 20
-149.0093469071919
 30
0.0
  0
SEQEND
  5
CC
330
C9
100
AcDbEntity
  8
_U+30EC_U+30A4_U+30E4_U+30FC 1
 62
   179
420
  2234388
370
     9
  0
POLYLINE
  5
CD
330
8B
100
AcDbEntity
  8
_U+30EC_U+30A4_U+30E4_U+30FC 1
 62
   179
420
  2234388
370
     9
100
AcDb2dPolyline
 66
     1
 10
0.0
 20
0.0
 30
0.0
  0
VERTEX
  5
CE
330
CD
100
AcDbEntity
  8
_U+30EC_U+30A4_U+30E4_U+30FC 1
 62
   179
420
  2234388
370
     9
100
AcDbVertex
100
AcDb2dVertex
 10
93.07716873651471
 20
-146.5488630189183
 30
0.0
  0
VERTEX
  5
CF
330
CD
100
AcDbEntity
  8
_U+30EC_U+30A4_U+30E4_U+30FC 1
 62
   179
420
  2234388
370
     9
100
AcDbVertex
100
AcDb2dVertex
 10
93.07716873651471
 20
-150.0091191291645
 30
0.0
  0
SEQEND
  5
D0
330
CD
100
AcDbEntity
  8
_U+30EC_U+30A4_U+30E4_U+30FC 1
 62
   179
420
  2234388
370
     9
  0
POLYLINE
  5
D1
330
8B
100
AcDbEntity
  8
_U+30EC_U+30A4_U+30E4_U+30FC 1
 62
   179
420
  2234388
370
     9
100
AcDb2dPolyline
 66
     1
 10
0.0
 20
0.0
 30
0.0
  0
VERTEX
  5
D2
330
D1
100
AcDbEntity
  8
_U+30EC_U+30A4_U+30E4_U+30FC 1
 62
   179
420
  2234388
370
     9
100
AcDbVertex
100
AcDb2dVertex
 10
113.0773398929345
 20
-147.0490666299045
 30
0.0
  0
VERTEX
  5
D3
330
D1
100
AcDbEntity
  8
_U+30EC_U+30A4_U+30E4_U+30FC 1
 62
   179
420
  2234388
370
     9
100
AcDbVertex
100
AcDb2dVertex
 10
113.0773398929345
 20
-150.0091191291645
 30
0.0
  0
SEQEND
  5
D4
330
D1
100
AcDbEntity
  8
_U+30EC_U+30A4_U+30E4_U+30FC 1
 62
   179
420
  2234388
370
     9
  0
INSERT
  5
D6
330
8B
100
AcDbEntity
  8
_U+30EC_U+30A4_U+30E4_U+30FC 1
100
AcDbBlockReference
  2
block 5
 10
0.0
 20
0.0
 30
0.0
  0
POLYLINE
  5
DE
330
8B
100
AcDbEntity
  8
_U+30EC_U+30A4_U+30E4_U+30FC 1
 62
   179
420
  2234388
370
     9
100
AcDb2dPolyline
 66
     1
 10
0.0
 20
0.0
 30
0.0
  0
VERTEX
  5
DF
330
DE
100
AcDbEntity
  8
_U+30EC_U+30A4_U+30E4_U+30FC 1
 62
   179
420
  2234388
370
     9
100
AcDbVertex
100
AcDb2dVertex
 10
71.12673624096134
 20
-127.0585610793465
 30
0.0
  0
VERTEX
  5
E0
330
DE
100
AcDbEntity
  8
_U+30EC_U+30A4_U+30E4_U+30FC 1
 62
   179
420
  2234388
370
     9
100
AcDbVertex
100
AcDb2dVertex
 10
71.12673624096134
 20
-107.0584246954577
 30
0.0
  0
SEQEND
  5
E1
330
DE
100
AcDbEntity
  8
_U+30EC_U+30A4_U+30E4_U+30FC 1
 62
   179
420
  2234388
370
     9
  0
POLYLINE
  5
E2
330
8B
100
AcDbEntity
  8
_U+30EC_U+30A4_U+30E4_U+30FC 1
 62
   179
420
  2234388
370
     9
100
AcDb2dPolyline
 66
     1
 10
0.0
 20
0.0
 30
0.0
  0
VERTEX
  5
E3
330
E2
100
AcDbEntity
  8
_U+30EC_U+30A4_U+30E4_U+30FC 1
 62
   179
420
  2234388
370
     9
100
AcDbVertex
100
AcDb2dVertex
 10
73.58690256708616
 20
-127.0585610793465
 30
0.0
  0
VERTEX
  5
E4
330
E2
100
AcDbEntity
  8
_U+30EC_U+30A4_U+30E4_U+30FC 1
 62
   179
420
  2234388
370
     9
100
AcDbVertex
100
AcDb2dVertex
 10
70.12664654425353
 20
-127.0585610793465
 30
0.0
  0
SEQEND
  5
E5
330
E2
100
AcDbEntity
  8
_U+30EC_U+30A4_U+30E4_U+30FC 1
 62
   179
420
  2234388
370
     9
  0
POLYLINE
  5
E6
330
8B
100
AcDbEntity
  8
_U+30EC_U+30A4_U+30E4_U+30FC 1
 62
   179
420
  2234388
370
     9
100
AcDb2dPolyline
 66
     1
 10
0.0
 20
0.0
 30
0.0
  0
VERTEX
  5
E7
330
E6
100
AcDbEntity
  8
_U+30EC_U+30A4_U+30E4_U+30FC 1
 62
   179
420
  2234388
370
     9
100
AcDbVertex
100
AcDb2dVertex
 10
73.08666369095943
 20
-107.0584246954577
 30
0.0
  0
VERTEX
  5
E8
330
E6
100
AcDbEntity
  8
_U+30EC_U+30A4_U+30E4_U+30FC 1
 62
   179
420
  2234388
370
     9
100
AcDbVertex
100
AcDb2dVertex
 10
70.12664654425353
 20
-107.0584246954577
 30
0.0
  0
SEQEND
  5
E9
330
E6
100
AcDbEntity
  8
_U+30EC_U+30A4_U+30E4_U+30FC 1
 62
   179
420
  2234388
370
     9
  0
INSERT
  5
EB
330
8B
100
AcDbEntity
  8
_U+30EC_U+30A4_U+30E4_U+30FC 1
100
AcDbBlockReference
  2
block 6
 10
0.0
 20
0.0
 30
0.0
  0
ENDBLK
  5
8E
330
8B
100
AcDbEntity
  8
0
100
AcDbBlockEnd
  0
BLOCK
  5
C3
330
C1
100
AcDbEntity
  8
0
100
AcDbBlockBegin
  2
block 4
 70
     0
 10
0.0
 20
0.0
 30
0.0
  3
block 4
  1

  0
SPLINE
  5
C5
330
C1
100
AcDbEntity
  8
_U+30EC_U+30A4_U+30E4_U+30FC 1
370
     0
100
AcDbSpline
210
0.0
220
0.0
230
1.0
 70
    11
 71
     3
 72
    44
 73
    40
 74
     0
 42
0.0000000001
 43
0.0000000001
 12
1.0
 22
0.0
 32
0.0
 13
1.0
 23
0.0
 33
0.0
 40
0.0
 40
0.0
 40
0.0
 40
0.0
 40
1.0
 40
1.0
 40
1.0
 40
2.0
 40
2.0
 40
2.0
 40
3.0
 40
3.0
 40
3.0
 40
4.0
 40
4.0
 40
4.0
 40
5.0
 40
5.0
 40
5.0
 40
6.0
 40
6.0
 40
6.0
 40
7.0
 40
7.0
 40
7.0
 40
8.0
 40
8.0
 40
8.0
 40
9.0
 40
9.0
 40
9.0
 40
10.0
 40
10.0
 40
10.0
 40
11.0
 40
11.0
 40
11.0
 40
12.0
 40
12.0
 40
12.0
 40
13.0
 40
13.0
 40
13.0
 40
13.0
 10
81.9148966266567
 20
-137.9729735983193
 30
0.0
 10
81.64876300042114
 20
-137.9309434333992
 30
0.0
 10
81.53059622527708
 20
-137.9175075610067
 30
0.0
 10
81.39417044406119
 20
-137.9846869229691
 30
0.0
 10
81.39417044406119
 20
-137.9846869229691
 30
0.0
 10
81.9446967026041
 20
-138.535213181512
 30
0.0
 10
81.9446967026041
 20
-138.535213181512
 30
0.0
 10
81.9446967026041
 20
-138.535213181512
 30
0.0
 10
81.79948592790083
 20
-138.6802517014411
 30
0.0
 10
81.79948592790083
 20
-138.6802517014411
 30
0.0
 10
81.79948592790083
 20
-138.6802517014411
 30
0.0
 10
81.07257078051312
 20
-137.9533365540534
 30
0.0
 10
81.07257078051312
 20
-137.9533365540534
 30
0.0
 10
81.34783390978457
 20
-137.7228596660901
 30
0.0
 10
81.4496364813737
 20
-137.7139024178285
 30
0.0
 10
81.93281112318
 20
-137.7752251174659
 30
0.0
 10
82.25458304150233
 20
-137.8158772441919
 30
0.0
 10
82.34863414824964
 20
-137.8141546964492
 30
0.0
 10
82.4457858409337
 20
-137.7170030037652
 30
0.0
 10
82.52967391599952
 20
-137.6332871834736
 30
0.0
 10
82.57135957137105
 20
-137.4892821921902
 30
0.0
 10
82.43252222331549
 20
-137.3504448441346
 30
0.0
 10
82.24855412440314
 20
-137.1664767452223
 30
0.0
 10
82.07939993607738
 20
-137.3235730993497
 30
0.0
 10
81.99396156804318
 20
-137.4028102955104
 30
0.0
 10
81.99396156804318
 20
-137.4028102955104
 30
0.0
 10
81.83548717572168
 20
-137.2443359031889
 30
0.0
 10
81.83548717572168
 20
-137.2443359031889
 30
0.0
 10
81.9314330849859
 20
-137.1606200828973
 30
0.0
 10
82.01824949121419
 20
-137.0889620968042
 30
0.0
 10
82.15898164178665
 20
-137.0620903520192
 30
0.0
 10
82.35018444121802
 20
-137.0259168494241
 30
0.0
 10
82.5059027571513
 20
-137.1337483381124
 30
0.0
 10
82.58789602970025
 20
-137.2157416106614
 30
0.0
 10
82.78392196281096
 20
-137.4117675437721
 30
0.0
 10
82.80063067591443
 20
-137.6887532207861
 30
0.0
 10
82.60770532874044
 20
-137.8816785679601
 30
0.0
 10
82.44613035048222
 20
-138.0432535462184
 30
0.0
 10
82.29351262048566
 20
-138.03119571202
 30
0.0
 10
81.9148966266567
 20
-137.9729735983193
 30
0.0
  0
HATCH
  5
C6
330
C1
100
AcDbEntity
  8
_U+30EC_U+30A4_U+30E4_U+30FC 1
 62
   179
420
  2234388
100
AcDbHatch
 10
0.0
 20
0.0
 30
0.0
210
0.0
220
0.0
230
1.0
  2
SOLID
 70
     1
 71
     0
 91
        1
 92
        1
 93
        1
 72
     4
 94
        3
 73
     0
 74
     1
 95
       44
 96
       40
 40
0.0
 40
0.0
 40
0.0
 40
0.0
 40
1.0
 40
1.0
 40
1.0
 40
2.0
 40
2.0
 40
2.0
 40
3.0
 40
3.0
 40
3.0
 40
4.0
 40
4.0
 40
4.0
 40
5.0
 40
5.0
 40
5.0
 40
6.0
 40
6.0
 40
6.0
 40
7.0
 40
7.0
 40
7.0
 40
8.0
 40
8.0
 40
8.0
 40
9.0
 40
9.0
 40
9.0
 40
10.0
 40
10.0
 40
10.0
 40
11.0
 40
11.0
 40
11.0
 40
12.0
 40
12.0
 40
12.0
 40
13.0
 40
13.0
 40
13.0
 40
13.0
 10
81.9148966266567
 20
-137.9729735983193
 10
81.64876300042114
 20
-137.9309434333992
 10
81.53059622527708
 20
-137.9175075610067
 10
81.39417044406119
 20
-137.9846869229691
 10
81.39417044406119
 20
-137.9846869229691
 10
81.9446967026041
 20
-138.535213181512
 10
81.9446967026041
 20
-138.535213181512
 10
81.9446967026041
 20
-138.535213181512
 10
81.79948592790083
 20
-138.6802517014411
 10
81.79948592790083
 20
-138.6802517014411
 10
81.79948592790083
 20
-138.6802517014411
 10
81.07257078051312
 20
-137.9533365540534
 10
81.07257078051312
 20
-137.9533365540534
 10
81.34783390978457
 20
-137.7228596660901
 10
81.4496364813737
 20
-137.7139024178285
 10
81.93281112318
 20
-137.7752251174659
 10
82.25458304150233
 20
-137.8158772441919
 10
82.34863414824964
 20
-137.8141546964492
 10
82.4457858409337
 20
-137.7170030037652
 10
82.52967391599952
 20
-137.6332871834736
 10
82.57135957137105
 20
-137.4892821921902
 10
82.43252222331549
 20
-137.3504448441346
 10
82.24855412440314
 20
-137.1664767452223
 10
82.07939993607738
 20
-137.3235730993497
 10
81.99396156804318
 20
-137.4028102955104
 10
81.99396156804318
 20
-137.4028102955104
 10
81.83548717572168
 20
-137.2443359031889
 10
81.83548717572168
 20
-137.2443359031889
 10
81.9314330849859
 20
-137.1606200828973
 10
82.01824949121419
 20
-137.0889620968042
 10
82.15898164178665
 20
-137.0620903520192
 10
82.35018444121802
 20
-137.0259168494241
 10
82.5059027571513
 20
-137.1337483381124
 10
82.58789602970025
 20
-137.2157416106614
 10
82.78392196281096
 20
-137.4117675437721
 10
82.80063067591443
 20
-137.6887532207861
 10
82.60770532874044
 20
-137.8816785679601
 10
82.44613035048222
 20
-138.0432535462184
 10
82.29351262048566
 20
-138.03119571202
 10
81.9148966266567
 20
-137.9729735983193
 97
        0
 97
        0
 75
     2
 76
     1
 98
        0
  0
SPLINE
  5
C7
330
C1
100
AcDbEntity
  8
_U+30EC_U+30A4_U+30E4_U+30FC 1
370
     0
100
AcDbSpline
210
0.0
220
0.0
230
1.0
 70
    11
 71
     3
 72
    53
 73
    49
 74
     0
 42
0.0000000001
 43
0.0000000001
 12
1.0
 22
0.0
 32
0.0
 13
1.0
 23
0.0
 33
0.0
 40
0.0
 40
0.0
 40
0.0
 40
0.0
 40
1.0
 40
1.0
 40
1.0
 40
2.0
 40
2.0
 40
2.0
 40
3.0
 40
3.0
 40
3.0
 40
4.0
 40
4.0
 40
4.0
 40
5.0
 40
5.0
 40
5.0
 40
6.0
 40
6.0
 40
6.0
 40
7.0
 40
7.0
 40
7.0
 40
8.0
 40
8.0
 40
8.0
 40
9.0
 40
9.0
 40
9.0
 40
10.0
 40
10.0
 40
10.0
 40
11.0
 40
11.0
 40
11.0
 40
12.0
 40
12.0
 40
12.0
 40
13.0
 40
13.0
 40
13.0
 40
14.0
 40
14.0
 40
14.0
 40
15.0
 40
15.0
 40
15.0
 40
16.0
 40
16.0
 40
16.0
 40
16.0
 10
82.22047659619835
 20
-139.1729003558318
 30
0.0
 10
82.16535506843437
 20
-139.1177788280678
 30
0.0
 10
82.10523815221676
 20
-139.0337184982277
 30
0.0
 10
82.07853866220606
 20
-138.9172742708263
 30
0.0
 10
82.03358016612356
 20
-138.7167697135847
 30
0.0
 10
82.11126706931594
 20
-138.6089382248964
 30
0.0
 10
82.17414006192175
 20
-138.5193657422799
 30
0.0
 10
82.17414006192175
 20
-138.5193657422799
 30
0.0
 10
82.33123641604914
 20
-138.6764620964073
 30
0.0
 10
82.33123641604914
 20
-138.6764620964073
 30
0.0
 10
82.22943384446
 20
-138.8559515711888
 30
0.0
 10
82.29850800893927
 20
-138.9668836458139
 30
0.0
 10
82.36396482315901
 20
-139.0323404600336
 30
0.0
 10
82.46283906358568
 20
-139.1312147004602
 30
0.0
 10
82.64060599062458
 20
-139.1680772221524
 30
0.0
 10
82.80510930004526
 20
-139.003746167506
 30
0.0
 10
82.98614906779514
 20
-138.8225341449819
 30
0.0
 10
82.90846216460275
 20
-138.6461452561371
 30
0.0
 10
82.82336830611708
 20
-138.5610513976514
 30
0.0
 10
82.80097518546296
 20
-138.5386582769973
 30
0.0
 10
82.70072290684219
 20
-138.4384059983765
 30
0.0
 10
82.54672713865152
 20
-138.4670002909041
 30
0.0
 10
82.54672713865152
 20
-138.4670002909041
 30
0.0
 10
82.43579506402646
 20
-138.3291964714941
 30
0.0
 10
82.43579506402646
 20
-138.3291964714941
 30
0.0
 10
82.43579506402646
 20
-138.3291964714941
 30
0.0
 10
83.11964651784857
 20
-137.8162217537404
 30
0.0
 10
83.11964651784857
 20
-137.8162217537404
 30
0.0
 10
83.11964651784857
 20
-137.8162217537404
 30
0.0
 10
83.67017277639148
 20
-138.3667480122833
 30
0.0
 10
83.67017277639148
 20
-138.3667480122833
 30
0.0
 10
83.67017277639148
 20
-138.3667480122833
 30
0.0
 10
83.53254121175576
 20
-138.5045518316933
 30
0.0
 10
83.53254121175576
 20
-138.5045518316933
 30
0.0
 10
83.53254121175576
 20
-138.5045518316933
 30
0.0
 10
83.09708114242018
 20
-138.0690917623577
 30
0.0
 10
83.09708114242018
 20
-138.0690917623577
 30
0.0
 10
83.09708114242018
 20
-138.0690917623577
 30
0.0
 10
82.75171032002388
 20
-138.3219617709751
 30
0.0
 10
82.75171032002388
 20
-138.3219617709751
 30
0.0
 10
82.81906193676052
 20
-138.341598815241
 30
0.0
 10
82.90570608821454
 20
-138.3712266364141
 30
0.0
 10
82.98942190850612
 20
-138.4549424567057
 30
0.0
 10
83.16891138328764
 20
-138.6344319314872
 30
0.0
 10
83.20474037633423
 20
-138.9334662196069
 30
0.0
 10
82.98322073663267
 20
-139.1549858593085
 30
0.0
 10
82.75894502054291
 20
-139.3792615753983
 30
0.0
 10
82.43441702583237
 20
-139.3868407854658
 30
0.0
 10
82.22047659619835
 20
-139.1729003558318
 30
0.0
  0
HATCH
  5
C8
330
C1
100
AcDbEntity
  8
_U+30EC_U+30A4_U+30E4_U+30FC 1
 62
   179
420
  2234388
100
AcDbHatch
 10
0.0
 20
0.0
 30
0.0
210
0.0
220
0.0
230
1.0
  2
SOLID
 70
     1
 71
     0
 91
        1
 92
        1
 93
        1
 72
     4
 94
        3
 73
     0
 74
     1
 95
       53
 96
       49
 40
0.0
 40
0.0
 40
0.0
 40
0.0
 40
1.0
 40
1.0
 40
1.0
 40
2.0
 40
2.0
 40
2.0
 40
3.0
 40
3.0
 40
3.0
 40
4.0
 40
4.0
 40
4.0
 40
5.0
 40
5.0
 40
5.0
 40
6.0
 40
6.0
 40
6.0
 40
7.0
 40
7.0
 40
7.0
 40
8.0
 40
8.0
 40
8.0
 40
9.0
 40
9.0
 40
9.0
 40
10.0
 40
10.0
 40
10.0
 40
11.0
 40
11.0
 40
11.0
 40
12.0
 40
12.0
 40
12.0
 40
13.0
 40
13.0
 40
13.0
 40
14.0
 40
14.0
 40
14.0
 40
15.0
 40
15.0
 40
15.0
 40
16.0
 40
16.0
 40
16.0
 40
16.0
 10
82.22047659619835
 20
-139.1729003558318
 10
82.16535506843437
 20
-139.1177788280678
 10
82.10523815221676
 20
-139.0337184982277
 10
82.07853866220606
 20
-138.9172742708263
 10
82.03358016612356
 20
-138.7167697135847
 10
82.11126706931594
 20
-138.6089382248964
 10
82.17414006192175
 20
-138.5193657422799
 10
82.17414006192175
 20
-138.5193657422799
 10
82.33123641604914
 20
-138.6764620964073
 10
82.33123641604914
 20
-138.6764620964073
 10
82.22943384446
 20
-138.8559515711888
 10
82.29850800893927
 20
-138.9668836458139
 10
82.36396482315901
 20
-139.0323404600336
 10
82.46283906358568
 20
-139.1312147004602
 10
82.64060599062458
 20
-139.1680772221524
 10
82.80510930004526
 20
-139.003746167506
 10
82.98614906779514
 20
-138.8225341449819
 10
82.90846216460275
 20
-138.6461452561371
 10
82.82336830611708
 20
-138.5610513976514
 10
82.80097518546296
 20
-138.5386582769973
 10
82.70072290684219
 20
-138.4384059983765
 10
82.54672713865152
 20
-138.4670002909041
 10
82.54672713865152
 20
-138.4670002909041
 10
82.43579506402646
 20
-138.3291964714941
 10
82.43579506402646
 20
-138.3291964714941
 10
82.43579506402646
 20
-138.3291964714941
 10
83.11964651784857
 20
-137.8162217537404
 10
83.11964651784857
 20
-137.8162217537404
 10
83.11964651784857
 20
-137.8162217537404
 10
83.67017277639148
 20
-138.3667480122833
 10
83.67017277639148
 20
-138.3667480122833
 10
83.67017277639148
 20
-138.3667480122833
 10
83.53254121175576
 20
-138.5045518316933
 10
83.53254121175576
 20
-138.5045518316933
 10
83.53254121175576
 20
-138.5045518316933
 10
83.09708114242018
 20
-138.0690917623577
 10
83.09708114242018
 20
-138.0690917623577
 10
83.09708114242018
 20
-138.0690917623577
 10
82.75171032002388
 20
-138.3219617709751
 10
82.75171032002388
 20
-138.3219617709751
 10
82.81906193676052
 20
-138.341598815241
 10
82.90570608821454
 20
-138.3712266364141
 10
82.98942190850612
 20
-138.4549424567057
 10
83.16891138328764
 20
-138.6344319314872
 10
83.20474037633423
 20
-138.9334662196069
 10
82.98322073663267
 20
-139.1549858593085
 10
82.75894502054291
 20
-139.3792615753983
 10
82.43441702583237
 20
-139.3868407854658
 10
82.22047659619835
 20
-139.1729003558318
 97
        0
 97
        0
 75
     2
 76
     1
 98
        0
  0
ENDBLK
  5
C4
330
C1
100
AcDbEntity
  8
0
100
AcDbBlockEnd
  0
BLOCK
  5
D7
330
D5
100
AcDbEntity
  8
0
100
AcDbBlockBegin
  2
block 5
 70
     0
 10
0.0
 20
0.0
 30
0.0
  3
block 5
  1

  0
SPLINE
  5
D9
330
D5
100
AcDbEntity
  8
_U+30EC_U+30A4_U+30E4_U+30FC 1
370
     0
100
AcDbSpline
210
0.0
220
0.0
230
1.0
 70
    11
 71
     3
 72
    44
 73
    40
 74
     0
 42
0.0000000001
 43
0.0000000001
 12
1.0
 22
0.0
 32
0.0
 13
1.0
 23
0.0
 33
0.0
 40
0.0
 40
0.0
 40
0.0
 40
0.0
 40
1.0
 40
1.0
 40
1.0
 40
2.0
 40
2.0
 40
2.0
 40
3.0
 40
3.0
 40
3.0
 40
4.0
 40
4.0
 40
4.0
 40
5.0
 40
5.0
 40
5.0
 40
6.0
 40
6.0
 40
6.0
 40
7.0
 40
7.0
 40
7.0
 40
8.0
 40
8.0
 40
8.0
 40
9.0
 40
9.0
 40
9.0
 40
10.0
 40
10.0
 40
10.0
 40
11.0
 40
11.0
 40
11.0
 40
12.0
 40
12.0
 40
12.0
 40
13.0
 40
13.0
 40
13.0
 40
13.0
 10
102.5053710681237
 20
-147.7139810828632
 30
0.0
 10
102.2876410334559
 20
-147.8727999847332
 30
0.0
 10
102.1946234553541
 20
-147.9468695376661
 30
0.0
 10
102.1457030994636
 20
-148.090530019401
 30
0.0
 10
102.1457030994636
 20
-148.090530019401
 30
0.0
 10
102.92429467913
 20
-148.090530019401
 30
0.0
 10
102.92429467913
 20
-148.090530019401
 30
0.0
 10
102.92429467913
 20
-148.090530019401
 30
0.0
 10
102.92429467913
 20
-148.2958577103219
 30
0.0
 10
102.92429467913
 20
-148.2958577103219
 30
0.0
 10
102.92429467913
 20
-148.2958577103219
 30
0.0
 10
101.8962781863315
 20
-148.2958577103219
 30
0.0
 10
101.8962781863315
 20
-148.2958577103219
 30
0.0
 10
101.9279730647958
 20
-147.9382567989529
 30
0.0
 10
101.9934298790155
 20
-147.8600531314378
 30
0.0
 10
102.3785915542665
 20
-147.5617078624151
 30
0.0
 10
102.6345621488205
 20
-147.3629258529162
 30
0.0
 10
102.7000189630403
 20
-147.2950574718568
 30
0.0
 10
102.7000189630403
 20
-147.1575981619953
 30
0.0
 10
102.7000189630403
 20
-147.0390868773027
 30
0.0
 10
102.6280164673986
 20
-146.9081732488632
 30
0.0
 10
102.4313015151908
 20
-146.9081732488632
 30
0.0
 10
102.1711968060544
 20
-146.9081732488632
 30
0.0
 10
102.1625840673413
 20
-147.1386501368264
 30
0.0
 10
102.158449952759
 20
-147.2550943642279
 30
0.0
 10
102.158449952759
 20
-147.2550943642279
 30
0.0
 10
101.9341742366692
 20
-147.2550943642279
 30
0.0
 10
101.9341742366692
 20
-147.2550943642279
 30
0.0
 10
101.9427869753824
 20
-147.1279703408222
 30
0.0
 10
101.9534667713866
 20
-147.0160047375516
 30
0.0
 10
102.033737496193
 20
-146.897493452859
 30
0.0
 10
102.1436360421724
 20
-146.7366074936978
 30
0.0
 10
102.3300157079244
 20
-146.7028455579423
 30
0.0
 10
102.4461154257774
 20
-146.7028455579423
 30
0.0
 10
102.72344561234
 20
-146.7028455579423
 30
0.0
 10
102.930840360552
 20
-146.8868136568547
 30
0.0
 10
102.930840360552
 20
-147.1596652192865
 30
0.0
 10
102.930840360552
 20
-147.3884195595071
 30
0.0
 10
102.8143961331506
 20
-147.4876383094823
 30
0.0
 10
102.5053710681237
 20
-147.7139810828632
 30
0.0
  0
HATCH
  5
DA
330
D5
100
AcDbEntity
  8
_U+30EC_U+30A4_U+30E4_U+30FC 1
 62
   179
420
  2234388
100
AcDbHatch
 10
0.0
 20
0.0
 30
0.0
210
0.0
220
0.0
230
1.0
  2
SOLID
 70
     1
 71
     0
 91
        1
 92
        1
 93
        1
 72
     4
 94
        3
 73
     0
 74
     1
 95
       44
 96
       40
 40
0.0
 40
0.0
 40
0.0
 40
0.0
 40
1.0
 40
1.0
 40
1.0
 40
2.0
 40
2.0
 40
2.0
 40
3.0
 40
3.0
 40
3.0
 40
4.0
 40
4.0
 40
4.0
 40
5.0
 40
5.0
 40
5.0
 40
6.0
 40
6.0
 40
6.0
 40
7.0
 40
7.0
 40
7.0
 40
8.0
 40
8.0
 40
8.0
 40
9.0
 40
9.0
 40
9.0
 40
10.0
 40
10.0
 40
10.0
 40
11.0
 40
11.0
 40
11.0
 40
12.0
 40
12.0
 40
12.0
 40
13.0
 40
13.0
 40
13.0
 40
13.0
 10
102.5053710681237
 20
-147.7139810828632
 10
102.2876410334559
 20
-147.8727999847332
 10
102.1946234553541
 20
-147.9468695376661
 10
102.1457030994636
 20
-148.090530019401
 10
102.1457030994636
 20
-148.090530019401
 10
102.92429467913
 20
-148.090530019401
 10
102.92429467913
 20
-148.090530019401
 10
102.92429467913
 20
-148.090530019401
 10
102.92429467913
 20
-148.2958577103219
 10
102.92429467913
 20
-148.2958577103219
 10
102.92429467913
 20
-148.2958577103219
 10
101.8962781863315
 20
-148.2958577103219
 10
101.8962781863315
 20
-148.2958577103219
 10
101.9279730647958
 20
-147.9382567989529
 10
101.9934298790155
 20
-147.8600531314378
 10
102.3785915542665
 20
-147.5617078624151
 10
102.6345621488205
 20
-147.3629258529162
 10
102.7000189630403
 20
-147.2950574718568
 10
102.7000189630403
 20
-147.1575981619953
 10
102.7000189630403
 20
-147.0390868773027
 10
102.6280164673986
 20
-146.9081732488632
 10
102.4313015151908
 20
-146.9081732488632
 10
102.1711968060544
 20
-146.9081732488632
 10
102.1625840673413
 20
-147.1386501368264
 10
102.158449952759
 20
-147.2550943642279
 10
102.158449952759
 20
-147.2550943642279
 10
101.9341742366692
 20
-147.2550943642279
 10
101.9341742366692
 20
-147.2550943642279
 10
101.9427869753824
 20
-147.1279703408222
 10
101.9534667713866
 20
-147.0160047375516
 10
102.033737496193
 20
-146.897493452859
 10
102.1436360421724
 20
-146.7366074936978
 10
102.3300157079244
 20
-146.7028455579423
 10
102.4461154257774
 20
-146.7028455579423
 10
102.72344561234
 20
-146.7028455579423
 10
102.930840360552
 20
-146.8868136568547
 10
102.930840360552
 20
-147.1596652192865
 10
102.930840360552
 20
-147.3884195595071
 10
102.8143961331506
 20
-147.4876383094823
 10
102.5053710681237
 20
-147.7139810828632
 97
        0
 97
        0
 75
     2
 76
     1
 98
        0
  0
SPLINE
  5
DB
330
D5
100
AcDbEntity
  8
_U+30EC_U+30A4_U+30E4_U+30FC 1
370
     0
100
AcDbSpline
210
0.0
220
0.0
230
1.0
 70
    11
 71
     3
 72
    29
 73
    25
 74
     0
 42
0.0000000001
 43
0.0000000001
 12
1.0
 22
0.0
 32
0.0
 13
1.0
 23
0.0
 33
0.0
 40
0.0
 40
0.0
 40
0.0
 40
0.0
 40
1.0
 40
1.0
 40
1.0
 40
2.0
 40
2.0
 40
2.0
 40
3.0
 40
3.0
 40
3.0
 40
4.0
 40
4.0
 40
4.0
 40
5.0
 40
5.0
 40
5.0
 40
6.0
 40
6.0
 40
6.0
 40
7.0
 40
7.0
 40
7.0
 40
8.0
 40
8.0
 40
8.0
 40
8.0
 10
103.9871066363296
 20
-148.118090783283
 30
0.0
 10
103.8789306380928
 20
-148.3275525887862
 30
0.0
 10
103.7056423351847
 20
-148.346500613955
 30
0.0
 10
103.5891981077833
 20
-148.346500613955
 30
0.0
 10
103.4283121486221
 20
-148.346500613955
 30
0.0
 10
103.2867187241783
 20
-148.2999918249042
 30
0.0
 10
103.1916340887854
 20
-148.118090783283
 30
0.0
 10
103.0879367146794
 20
-147.9234428883664
 30
0.0
 10
103.068644179962
 20
-147.6864203189812
 30
0.0
 10
103.068644179962
 20
-147.5238118120774
 30
0.0
 10
103.068644179962
 20
-147.3798068207939
 30
0.0
 10
103.0858696573883
 20
-147.1279703408222
 30
0.0
 10
103.1916340887854
 20
-146.9291883313233
 30
0.0
 10
103.2994655774738
 20
-146.7262722072421
 30
0.0
 10
103.4603515366349
 20
-146.7028455579423
 30
0.0
 10
103.5891981077833
 20
-146.7028455579423
 30
0.0
 10
103.7480170096533
 20
-146.7028455579423
 30
0.0
 10
103.8916774913882
 20
-146.7472872897021
 30
0.0
 10
103.9871066363296
 20
-146.9291883313233
 30
0.0
 10
104.0863253863048
 20
-147.1217691689487
 30
0.0
 10
104.1097520356045
 20
-147.3501789996208
 30
0.0
 10
104.1097520356045
 20
-147.5238118120774
 30
0.0
 10
104.1097520356045
 20
-147.6950330576943
 30
0.0
 10
104.088392443596
 20
-147.9255099456575
 30
0.0
 10
103.9871066363296
 20
-148.118090783283
 30
0.0
  0
SPLINE
  5
DC
330
D5
100
AcDbEntity
  8
_U+30EC_U+30A4_U+30E4_U+30FC 1
370
     0
100
AcDbSpline
210
0.0
220
0.0
230
1.0
 70
    11
 71
     3
 72
    17
 73
    13
 74
     0
 42
0.0000000001
 43
0.0000000001
 12
1.0
 22
0.0
 32
0.0
 13
1.0
 23
0.0
 33
0.0
 40
0.0
 40
0.0
 40
0.0
 40
0.0
 40
1.0
 40
1.0
 40
1.0
 40
2.0
 40
2.0
 40
2.0
 40
3.0
 40
3.0
 40
3.0
 40
4.0
 40
4.0
 40
4.0
 40
4.0
 10
103.5891981077833
 20
-146.8954263955678
 30
0.0
 10
103.3394286851026
 20
-146.8954263955678
 30
0.0
 10
103.2929198960518
 20
-147.1789577540039
 30
0.0
 10
103.2929198960518
 20
-147.5238118120774
 30
0.0
 10
103.2929198960518
 20
-147.84317216356
 30
0.0
 10
103.3290933986469
 20
-148.1518527190384
 30
0.0
 10
103.5891981077833
 20
-148.1518527190384
 30
0.0
 10
103.8369004731727
 20
-148.1518527190384
 30
0.0
 10
103.8854763195148
 20
-147.870732927442
 30
0.0
 10
103.8854763195148
 20
-147.5238118120774
 30
0.0
 10
103.8854763195148
 20
-147.2041069510462
 30
0.0
 10
103.8472357596285
 20
-146.8954263955678
 30
0.0
 10
103.5891981077833
 20
-146.8954263955678
 30
0.0
  0
HATCH
  5
DD
330
D5
100
AcDbEntity
  8
_U+30EC_U+30A4_U+30E4_U+30FC 1
 62
   179
420
  2234388
100
AcDbHatch
 10
0.0
 20
0.0
 30
0.0
210
0.0
220
0.0
230
1.0
  2
SOLID
 70
     1
 71
     0
 91
        2
 92
        1
 93
        1
 72
     4
 94
        3
 73
     0
 74
     1
 95
       29
 96
       25
 40
0.0
 40
0.0
 40
0.0
 40
0.0
 40
1.0
 40
1.0
 40
1.0
 40
2.0
 40
2.0
 40
2.0
 40
3.0
 40
3.0
 40
3.0
 40
4.0
 40
4.0
 40
4.0
 40
5.0
 40
5.0
 40
5.0
 40
6.0
 40
6.0
 40
6.0
 40
7.0
 40
7.0
 40
7.0
 40
8.0
 40
8.0
 40
8.0
 40
8.0
 10
103.9871066363296
 20
-148.118090783283
 10
103.8789306380928
 20
-148.3275525887862
 10
103.7056423351847
 20
-148.346500613955
 10
103.5891981077833
 20
-148.346500613955
 10
103.4283121486221
 20
-148.346500613955
 10
103.2867187241783
 20
-148.2999918249042
 10
103.1916340887854
 20
-148.118090783283
 10
103.0879367146794
 20
-147.9234428883664
 10
103.068644179962
 20
-147.6864203189812
 10
103.068644179962
 20
-147.5238118120774
 10
103.068644179962
 20
-147.3798068207939
 10
103.0858696573883
 20
-147.1279703408222
 10
103.1916340887854
 20
-146.9291883313233
 10
103.2994655774738
 20
-146.7262722072421
 10
103.4603515366349
 20
-146.7028455579423
 10
103.5891981077833
 20
-146.7028455579423
 10
103.7480170096533
 20
-146.7028455579423
 10
103.8916774913882
 20
-146.7472872897021
 10
103.9871066363296
 20
-146.9291883313233
 10
104.0863253863048
 20
-147.1217691689487
 10
104.1097520356045
 20
-147.3501789996208
 10
104.1097520356045
 20
-147.5238118120774
 10
104.1097520356045
 20
-147.6950330576943
 10
104.088392443596
 20
-147.9255099456575
 10
103.9871066363296
 20
-148.118090783283
 97
        0
 97
        0
 92
        1
 93
        1
 72
     4
 94
        3
 73
     0
 74
     1
 95
       17
 96
       13
 40
0.0
 40
0.0
 40
0.0
 40
0.0
 40
1.0
 40
1.0
 40
1.0
 40
2.0
 40
2.0
 40
2.0
 40
3.0
 40
3.0
 40
3.0
 40
4.0
 40
4.0
 40
4.0
 40
4.0
 10
103.5891981077833
 20
-146.8954263955678
 10
103.3394286851026
 20
-146.8954263955678
 10
103.2929198960518
 20
-147.1789577540039
 10
103.2929198960518
 20
-147.5238118120774
 10
103.2929198960518
 20
-147.84317216356
 10
103.3290933986469
 20
-148.1518527190384
 10
103.5891981077833
 20
-148.1518527190384
 10
103.8369004731727
 20
-148.1518527190384
 10
103.8854763195148
 20
-147.870732927442
 10
103.8854763195148
 20
-147.5238118120774
 10
103.8854763195148
 20
-147.2041069510462
 10
103.8472357596285
 20
-146.8954263955678
 10
103.5891981077833
 20
-146.8954263955678
 97
        0
 97
        0
 75
     2
 76
     1
 98
        0
  0
ENDBLK
  5
D8
330
D5
100
AcDbEntity
  8
0
100
AcDbBlockEnd
  0
BLOCK
  5
EC
330
EA
100
AcDbEntity
  8
0
100
AcDbBlockBegin
  2
block 6
 70
     0
 10
0.0
 20
0.0
 30
0.0
  3
block 6
  1

  0
SPLINE
  5
EE
330
EA
100
AcDbEntity
  8
_U+30EC_U+30A4_U+30E4_U+30FC 1
370
     0
100
AcDbSpline
210
0.0
220
0.0
230
1.0
 70
    11
 71
     3
 72
    44
 73
    40
 74
     0
 42
0.0000000001
 43
0.0000000001
 12
1.0
 22
0.0
 32
0.0
 13
1.0
 23
0.0
 33
0.0
 40
0.0
 40
0.0
 40
0.0
 40
0.0
 40
1.0
 40
1.0
 40
1.0
 40
2.0
 40
2.0
 40
2.0
 40
3.0
 40
3.0
 40
3.0
 40
4.0
 40
4.0
 40
4.0
 40
5.0
 40
5.0
 40
5.0
 40
6.0
 40
6.0
 40
6.0
 40
7.0
 40
7.0
 40
7.0
 40
8.0
 40
8.0
 40
8.0
 40
9.0
 40
9.0
 40
9.0
 40
10.0
 40
10.0
 40
10.0
 40
11.0
 40
11.0
 40
11.0
 40
12.0
 40
12.0
 40
12.0
 40
13.0
 40
13.0
 40
13.0
 40
13.0
 10
69.83139646691716
 20
-117.6289957388219
 30
0.0
 10
69.9900431140129
 20
-117.846898028264
 30
0.0
 10
70.06411266694577
 20
-117.94008786114
 30
0.0
 10
70.20794540345496
 20
-117.988663707482
 30
0.0
 10
70.20794540345496
 20
-117.988663707482
 30
0.0
 10
70.20794540345496
 20
-117.2102443825898
 30
0.0
 10
70.20794540345496
 20
-117.2102443825898
 30
0.0
 10
70.20794540345496
 20
-117.2102443825898
 30
0.0
 10
70.41310083960158
 20
-117.2102443825898
 30
0.0
 10
70.41310083960158
 20
-117.2102443825898
 30
0.0
 10
70.41310083960158
 20
-117.2102443825898
 30
0.0
 10
70.41310083960158
 20
-118.2382608753884
 30
0.0
 10
70.41310083960158
 20
-118.2382608753884
 30
0.0
 10
70.05549992823265
 20
-118.2065659969241
 30
0.0
 10
69.97729626071748
 20
-118.14093692793
 30
0.0
 10
69.67895099169485
 20
-117.7559475074534
 30
0.0
 10
69.48016898219593
 20
-117.4999769128993
 30
0.0
 10
69.41247285591078
 20
-117.4345200986796
 30
0.0
 10
69.27501354604931
 20
-117.4345200986796
 30
0.0
 10
69.1565022613567
 20
-117.4345200986796
 30
0.0
 10
69.02541637814295
 20
-117.506350339547
 30
0.0
 10
69.02541637814295
 20
-117.7030652917548
 30
0.0
 10
69.02541637814295
 20
-117.9633422556654
 30
0.0
 10
69.25589326610617
 20
-117.9717827396043
 30
0.0
 10
69.37233749350762
 20
-117.9760891089608
 30
0.0
 10
69.37233749350762
 20
-117.9760891089608
 30
0.0
 10
69.37233749350762
 20
-118.2001925702763
 30
0.0
 10
69.37233749350762
 20
-118.2001925702763
 30
0.0
 10
69.24538572487616
 20
-118.1917520863375
 30
0.0
 10
69.13324786683127
 20
-118.1812445451075
 30
0.0
 10
69.01473658213868
 20
-118.1008015655269
 30
0.0
 10
68.85402287775177
 20
-117.9909030195474
 30
0.0
 10
68.82008868722207
 20
-117.8046956085697
 30
0.0
 10
68.82008868722207
 20
-117.6882513811682
 30
0.0
 10
68.82008868722207
 20
-117.4110934493799
 30
0.0
 10
69.00422904090867
 20
-117.2038709559421
 30
0.0
 10
69.27708060334045
 20
-117.2038709559421
 30
0.0
 10
69.50549043401251
 20
-117.2038709559421
 30
0.0
 10
69.60505369353623
 20
-117.3201429285693
 30
0.0
 10
69.83139646691716
 20
-117.6289957388219
 30
0.0
  0
HATCH
  5
EF
330
EA
100
AcDbEntity
  8
_U+30EC_U+30A4_U+30E4_U+30FC 1
 62
   179
420
  2234388
100
AcDbHatch
 10
0.0
 20
0.0
 30
0.0
210
0.0
220
0.0
230
1.0
  2
SOLID
 70
     1
 71
     0
 91
        1
 92
        1
 93
        1
 72
     4
 94
        3
 73
     0
 74
     1
 95
       44
 96
       40
 40
0.0
 40
0.0
 40
0.0
 40
0.0
 40
1.0
 40
1.0
 40
1.0
 40
2.0
 40
2.0
 40
2.0
 40
3.0
 40
3.0
 40
3.0
 40
4.0
 40
4.0
 40
4.0
 40
5.0
 40
5.0
 40
5.0
 40
6.0
 40
6.0
 40
6.0
 40
7.0
 40
7.0
 40
7.0
 40
8.0
 40
8.0
 40
8.0
 40
9.0
 40
9.0
 40
9.0
 40
10.0
 40
10.0
 40
10.0
 40
11.0
 40
11.0
 40
11.0
 40
12.0
 40
12.0
 40
12.0
 40
13.0
 40
13.0
 40
13.0
 40
13.0
 10
69.83139646691716
 20
-117.6289957388219
 10
69.9900431140129
 20
-117.846898028264
 10
70.06411266694577
 20
-117.94008786114
 10
70.20794540345496
 20
-117.988663707482
 10
70.20794540345496
 20
-117.988663707482
 10
70.20794540345496
 20
-117.2102443825898
 10
70.20794540345496
 20
-117.2102443825898
 10
70.20794540345496
 20
-117.2102443825898
 10
70.41310083960158
 20
-117.2102443825898
 10
70.41310083960158
 20
-117.2102443825898
 10
70.41310083960158
 20
-117.2102443825898
 10
70.41310083960158
 20
-118.2382608753884
 10
70.41310083960158
 20
-118.2382608753884
 10
70.05549992823265
 20
-118.2065659969241
 10
69.97729626071748
 20
-118.14093692793
 10
69.67895099169485
 20
-117.7559475074534
 10
69.48016898219593
 20
-117.4999769128993
 10
69.41247285591078
 20
-117.4345200986796
 10
69.27501354604931
 20
-117.4345200986796
 10
69.1565022613567
 20
-117.4345200986796
 10
69.02541637814295
 20
-117.506350339547
 10
69.02541637814295
 20
-117.7030652917548
 10
69.02541637814295
 20
-117.9633422556654
 10
69.25589326610617
 20
-117.9717827396043
 10
69.37233749350762
 20
-117.9760891089608
 10
69.37233749350762
 20
-117.9760891089608
 10
69.37233749350762
 20
-118.2001925702763
 10
69.37233749350762
 20
-118.2001925702763
 10
69.24538572487616
 20
-118.1917520863375
 10
69.13324786683127
 20
-118.1812445451075
 10
69.01473658213868
 20
-118.1008015655269
 10
68.85402287775177
 20
-117.9909030195474
 10
68.82008868722207
 20
-117.8046956085697
 10
68.82008868722207
 20
-117.6882513811682
 10
68.82008868722207
 20
-117.4110934493799
 10
69.00422904090867
 20
-117.2038709559421
 10
69.27708060334045
 20
-117.2038709559421
 10
69.50549043401251
 20
-117.2038709559421
 10
69.60505369353623
 20
-117.3201429285693
 10
69.83139646691716
 20
-117.6289957388219
 97
        0
 97
        0
 75
     2
 76
     1
 98
        0
  0
SPLINE
  5
F0
330
EA
100
AcDbEntity
  8
_U+30EC_U+30A4_U+30E4_U+30FC 1
370
     0
100
AcDbSpline
210
0.0
220
0.0
230
1.0
 70
    11
 71
     3
 72
    29
 73
    25
 74
     0
 42
0.0000000001
 43
0.0000000001
 12
1.0
 22
0.0
 32
0.0
 13
1.0
 23
0.0
 33
0.0
 40
0.0
 40
0.0
 40
0.0
 40
0.0
 40
1.0
 40
1.0
 40
1.0
 40
2.0
 40
2.0
 40
2.0
 40
3.0
 40
3.0
 40
3.0
 40
4.0
 40
4.0
 40
4.0
 40
5.0
 40
5.0
 40
5.0
 40
6.0
 40
6.0
 40
6.0
 40
7.0
 40
7.0
 40
7.0
 40
8.0
 40
8.0
 40
8.0
 40
8.0
 10
70.2353339125627
 20
-116.1476046801645
 30
0.0
 10
70.44479571806589
 20
-116.2554361688528
 30
0.0
 10
70.46391599800903
 20
-116.4288967265351
 30
0.0
 10
70.46391599800903
 20
-116.5453409539366
 30
0.0
 10
70.46391599800903
 20
-116.7060546583235
 30
0.0
 10
70.41740720895815
 20
-116.8478203375415
 30
0.0
 10
70.2353339125627
 20
-116.9430772277087
 30
0.0
 10
70.04068601764608
 20
-117.0466023470404
 30
0.0
 10
69.80383570303516
 20
-117.0657226269836
 30
0.0
 10
69.64088268658284
 20
-117.0657226269836
 30
0.0
 10
69.49704995007366
 20
-117.0657226269836
 30
0.0
 10
69.24538572487616
 20
-117.0488416591058
 30
0.0
 10
69.04643146060297
 20
-116.9430772277087
 30
0.0
 10
68.8433430817475
 20
-116.8350734842461
 30
0.0
 10
68.82008868722207
 20
-116.6743597798592
 30
0.0
 10
68.82008868722207
 20
-116.5453409539366
 30
0.0
 10
68.82008868722207
 20
-116.3866943068408
 30
0.0
 10
68.86453041898179
 20
-116.2428615703317
 30
0.0
 10
69.04643146060297
 20
-116.1476046801645
 30
0.0
 10
69.23901229822845
 20
-116.048213675415
 30
0.0
 10
69.46742212890051
 20
-116.0249592808896
 30
0.0
 10
69.64088268658284
 20
-116.0249592808896
 30
0.0
 10
69.81227618697402
 20
-116.0249592808896
 30
0.0
 10
70.0429253297115
 20
-116.0459743633496
 30
0.0
 10
70.2353339125627
 20
-116.1476046801645
 30
0.0
  0
SPLINE
  5
F1
330
EA
100
AcDbEntity
  8
_U+30EC_U+30A4_U+30E4_U+30FC 1
370
     0
100
AcDbSpline
210
0.0
220
0.0
230
1.0
 70
    11
 71
     3
 72
    17
 73
    13
 74
     0
 42
0.0000000001
 43
0.0000000001
 12
1.0
 22
0.0
 32
0.0
 13
1.0
 23
0.0
 33
0.0
 40
0.0
 40
0.0
 40
0.0
 40
0.0
 40
1.0
 40
1.0
 40
1.0
 40
2.0
 40
2.0
 40
2.0
 40
3.0
 40
3.0
 40
3.0
 40
4.0
 40
4.0
 40
4.0
 40
4.0
 10
69.01266952484752
 20
-116.5453409539366
 30
0.0
 10
69.01266952484752
 20
-116.7949381218429
 30
0.0
 10
69.29620088328359
 20
-116.8414469108938
 30
0.0
 10
69.64088268658284
 20
-116.8414469108938
 30
0.0
 10
69.96041529283976
 20
-116.8414469108938
 30
0.0
 10
70.26926810309241
 20
-116.8054456630729
 30
0.0
 10
70.26926810309241
 20
-116.5453409539366
 30
0.0
 10
70.26926810309241
 20
-116.2978108433214
 30
0.0
 10
69.98780380194749
 20
-116.2490627422051
 30
0.0
 10
69.64088268658284
 20
-116.2490627422051
 30
0.0
 10
69.32152233510018
 20
-116.2490627422051
 30
0.0
 10
69.01266952484752
 20
-116.2871310473171
 30
0.0
 10
69.01266952484752
 20
-116.5453409539366
 30
0.0
  0
HATCH
  5
F2
330
EA
100
AcDbEntity
  8
_U+30EC_U+30A4_U+30E4_U+30FC 1
 62
   179
420
  2234388
100
AcDbHatch
 10
0.0
 20
0.0
 30
0.0
210
0.0
220
0.0
230
1.0
  2
SOLID
 70
     1
 71
     0
 91
        2
 92
        1
 93
        1
 72
     4
 94
        3
 73
     0
 74
     1
 95
       29
 96
       25
 40
0.0
 40
0.0
 40
0.0
 40
0.0
 40
1.0
 40
1.0
 40
1.0
 40
2.0
 40
2.0
 40
2.0
 40
3.0
 40
3.0
 40
3.0
 40
4.0
 40
4.0
 40
4.0
 40
5.0
 40
5.0
 40
5.0
 40
6.0
 40
6.0
 40
6.0
 40
7.0
 40
7.0
 40
7.0
 40
8.0
 40
8.0
 40
8.0
 40
8.0
 10
70.2353339125627
 20
-116.1476046801645
 10
70.44479571806589
 20
-116.2554361688528
 10
70.46391599800903
 20
-116.4288967265351
 10
70.46391599800903
 20
-116.5453409539366
 10
70.46391599800903
 20
-116.7060546583235
 10
70.41740720895815
 20
-116.8478203375415
 10
70.2353339125627
 20
-116.9430772277087
 10
70.04068601764608
 20
-117.0466023470404
 10
69.80383570303516
 20
-117.0657226269836
 10
69.64088268658284
 20
-117.0657226269836
 10
69.49704995007366
 20
-117.0657226269836
 10
69.24538572487616
 20
-117.0488416591058
 10
69.04643146060297
 20
-116.9430772277087
 10
68.8433430817475
 20
-116.8350734842461
 10
68.82008868722207
 20
-116.6743597798592
 10
68.82008868722207
 20
-116.5453409539366
 10
68.82008868722207
 20
-116.3866943068408
 10
68.86453041898179
 20
-116.2428615703317
 10
69.04643146060297
 20
-116.1476046801645
 10
69.23901229822845
 20
-116.048213675415
 10
69.46742212890051
 20
-116.0249592808896
 10
69.64088268658284
 20
-116.0249592808896
 10
69.81227618697402
 20
-116.0249592808896
 10
70.0429253297115
 20
-116.0459743633496
 10
70.2353339125627
 20
-116.1476046801645
 97
        0
 97
        0
 92
        1
 93
        1
 72
     4
 94
        3
 73
     0
 74
     1
 95
       17
 96
       13
 40
0.0
 40
0.0
 40
0.0
 40
0.0
 40
1.0
 40
1.0
 40
1.0
 40
2.0
 40
2.0
 40
2.0
 40
3.0
 40
3.0
 40
3.0
 40
4.0
 40
4.0
 40
4.0
 40
4.0
 10
69.01266952484752
 20
-116.5453409539366
 10
69.01266952484752
 20
-116.7949381218429
 10
69.29620088328359
 20
-116.8414469108938
 10
69.64088268658284
 20
-116.8414469108938
 10
69.96041529283976
 20
-116.8414469108938
 10
70.26926810309241
 20
-116.8054456630729
 10
70.26926810309241
 20
-116.5453409539366
 10
70.26926810309241
 20
-116.2978108433214
 10
69.98780380194749
 20
-116.2490627422051
 10
69.64088268658284
 20
-116.2490627422051
 10
69.32152233510018
 20
-116.2490627422051
 10
69.01266952484752
 20
-116.2871310473171
 10
69.01266952484752
 20
-116.5453409539366
 97
        0
 97
        0
 75
     2
 76
     1
 98
        0
  0
ENDBLK
  5
ED
330
EA
100
AcDbEntity
  8
0
100
AcDbBlockEnd
  0
ENDSEC
  0
SECTION
  2
ENTITIES
  0
POLYLINE
  5
41
330
1F
100
AcDbEntity
  8
_U+30EC_U+30A4_U+30E4_U+30FC 1
  6
AI-Linetype-1
 62
   154
420
    23468
370
    25
100
AcDb2dPolyline
 66
     1
 10
0.0
 20
0.0
 30
0.0
  0
VERTEX
  5
42
330
41
100
AcDbEntity
  8
_U+30EC_U+30A4_U+30E4_U+30FC 1
  6
AI-Linetype-1
 62
   154
420
    23468
370
    25
100
AcDbVertex
100
AcDb2dVertex
 10
76.82769553996219
 20
-107.0584246954577
 30
0.0
  0
VERTEX
  5
43
330
41
100
AcDbEntity
  8
_U+30EC_U+30A4_U+30E4_U+30FC 1
  6
AI-Linetype-1
 62
   154
420
    23468
370
    25
100
AcDbVertex
100
AcDb2dVertex
 10
76.82769553996219
 20
-117.0581577485133
 30
0.0
  0
SEQEND
  5
45
330
41
100
AcDbEntity
  8
_U+30EC_U+30A4_U+30E4_U+30FC 1
  6
AI-Linetype-1
 62
   154
420
    23468
370
    25
  0
POLYLINE
  5
46
330
1F
100
AcDbEntity
  8
_U+30EC_U+30A4_U+30E4_U+30FC 1
  6
AI-Linetype-2
 62
   154
420
    23468
370
    25
100
AcDb2dPolyline
 66
     1
 10
0.0
 20
0.0
 30
0.0
  0
VERTEX
  5
47
330
46
100
AcDbEntity
  8
_U+30EC_U+30A4_U+30E4_U+30FC 1
  6
AI-Linetype-2
 62
   154
420
    23468
370
    25
100
AcDbVertex
100
AcDb2dVertex
 10
103.17786653438
 20
-143.3545660752723
 30
0.0
  0
VERTEX
  5
48
330
46
100
AcDbEntity
  8
_U+30EC_U+30A4_U+30E4_U+30FC 1
  6
AI-Linetype-2
 62
   154
420
    23468
370
    25
100
AcDbVertex
100
AcDb2dVertex
 10
113.1775993348211
 20
-143.3545660752723
 30
0.0
  0
SEQEND
  5
4A
330
46
100
AcDbEntity
  8
_U+30EC_U+30A4_U+30E4_U+30FC 1
  6
AI-Linetype-2
 62
   154
420
    23468
370
    25
  0
POLYLINE
  5
4B
330
1F
100
AcDbEntity
  8
_U+30EC_U+30A4_U+30E4_U+30FC 1
 62
     7
420
 16777215
370
     9
100
AcDb2dPolyline
 66
     1
 10
0.0
 20
0.0
 30
0.0
  0
VERTEX
  5
4C
330
4B
100
AcDbEntity
  8
_U+30EC_U+30A4_U+30E4_U+30FC 1
 62
     7
420
 16777215
370
     9
100
AcDbVertex
100
AcDb2dVertex
 10
77.26866775093428
 20
-114.8622571935065
 30
0.0
  0
VERTEX
  5
4D
330
4B
100
AcDbEntity
  8
_U+30EC_U+30A4_U+30E4_U+30FC 1
 62
     7
420
 16777215
370
     9
100
AcDbVertex
100
AcDb2dVertex
 10
95.97622588477581
 20
-114.8622571935065
 30
0.0
  0
SEQEND
  5
4E
330
4B
100
AcDbEntity
  8
_U+30EC_U+30A4_U+30E4_U+30FC 1
 62
     7
420
 16777215
370
     9
  0
POLYLINE
  5
4F
330
1F
100
AcDbEntity
  8
_U+30EC_U+30A4_U+30E4_U+30FC 1
 62
     7
420
 16777215
370
     9
100
AcDb2dPolyline
 66
     1
 10
0.0
 20
0.0
 30
0.0
  0
VERTEX
  5
50
330
4F
100
AcDbEntity
  8
_U+30EC_U+30A4_U+30E4_U+30FC 1
 62
     7
420
 16777215
370
     9
100
AcDbVertex
100
AcDb2dVertex
 10
77.26866775093428
 20
-114.8622571935065
 30
0.0
  0
VERTEX
  5
51
330
4F
100
AcDbEntity
  8
_U+30EC_U+30A4_U+30E4_U+30FC 1
 62
     7
420
 16777215
370
     9
100
AcDbVertex
100
AcDb2dVertex
 10
78.23467911517817
 20
-114.603529971349
 30
0.0
  0
SEQEND
  5
52
330
4F
100
AcDbEntity
  8
_U+30EC_U+30A4_U+30E4_U+30FC 1
 62
     7
420
 16777215
370
     9
  0
POLYLINE
  5
53
330
1F
100
AcDbEntity
  8
_U+30EC_U+30A4_U+30E4_U+30FC 1
 62
     7
420
 16777215
370
     9
100
AcDb2dPolyline
 66
     1
 10
0.0
 20
0.0
 30
0.0
  0
VERTEX
  5
54
330
53
100
AcDbEntity
  8
_U+30EC_U+30A4_U+30E4_U+30FC 1
 62
     7
420
 16777215
370
     9
100
AcDbVertex
100
AcDb2dVertex
 10
77.26866775093428
 20
-114.8622571935065
 30
0.0
  0
VERTEX
  5
55
330
53
100
AcDbEntity
  8
_U+30EC_U+30A4_U+30E4_U+30FC 1
 62
     7
420
 16777215
370
     9
100
AcDbVertex
100
AcDb2dVertex
 10
78.23467911517817
 20
-115.121301915664
 30
0.0
  0
SEQEND
  5
56
330
53
100
AcDbEntity
  8
_U+30EC_U+30A4_U+30E4_U+30FC 1
 62
     7
420
 16777215
370
     9
  0
POLYLINE
  5
57
330
1F
100
AcDbEntity
  8
_U+30EC_U+30A4_U+30E4_U+30FC 1
 62
     7
420
 16777215
370
     9
100
AcDb2dPolyline
 66
     1
 10
0.0
 20
0.0
 30
0.0
  0
VERTEX
  5
58
330
57
100
AcDbEntity
  8
_U+30EC_U+30A4_U+30E4_U+30FC 1
 62
     7
420
 16777215
370
     9
100
AcDbVertex
100
AcDb2dVertex
 10
105.0984971959474
 20
-142.2073327422262
 30
0.0
  0
VERTEX
  5
59
330
57
100
AcDbEntity
  8
_U+30EC_U+30A4_U+30E4_U+30FC 1
 62
     7
420
 16777215
370
     9
100
AcDbVertex
100
AcDb2dVertex
 10
105.3575745343266
 20
-141.2413213535785
 30
0.0
  0
SEQEND
  5
5A
330
57
100
AcDbEntity
  8
_U+30EC_U+30A4_U+30E4_U+30FC 1
 62
     7
420
 16777215
370
     9
  0
POLYLINE
  5
5B
330
1F
100
AcDbEntity
  8
_U+30EC_U+30A4_U+30E4_U+30FC 1
 62
     7
420
 16777215
370
     9
100
AcDb2dPolyline
 66
     1
 10
0.0
 20
0.0
 30
0.0
  0
VERTEX
  5
5C
330
5B
100
AcDbEntity
  8
_U+30EC_U+30A4_U+30E4_U+30FC 1
 62
     7
420
 16777215
370
     9
100
AcDbVertex
100
AcDb2dVertex
 10
105.0984971959474
 20
-142.2073327422262
 30
0.0
  0
VERTEX
  5
5D
330
5B
100
AcDbEntity
  8
_U+30EC_U+30A4_U+30E4_U+30FC 1
 62
     7
420
 16777215
370
     9
100
AcDbVertex
100
AcDb2dVertex
 10
105.0984971959474
 20
-116.8576388596745
 30
0.0
  0
SEQEND
  5
5E
330
5B
100
AcDbEntity
  8
_U+30EC_U+30A4_U+30E4_U+30FC 1
 62
     7
420
 16777215
370
     9
  0
POLYLINE
  5
5F
330
1F
100
AcDbEntity
  8
_U+30EC_U+30A4_U+30E4_U+30FC 1
 62
     7
420
 16777215
370
     9
100
AcDb2dPolyline
 66
     1
 10
0.0
 20
0.0
 30
0.0
  0
VERTEX
  5
60
330
5F
100
AcDbEntity
  8
_U+30EC_U+30A4_U+30E4_U+30FC 1
 62
     7
420
 16777215
370
     9
100
AcDbVertex
100
AcDb2dVertex
 10
105.0984971959474
 20
-142.2073327422262
 30
0.0
  0
VERTEX
  5
61
330
5F
100
AcDbEntity
  8
_U+30EC_U+30A4_U+30E4_U+30FC 1
 62
     7
420
 16777215
370
     9
100
AcDbVertex
100
AcDb2dVertex
 10
104.8394145475459
 20
-141.2413213535785
 30
0.0
  0
SEQEND
  5
62
330
5F
100
AcDbEntity
  8
_U+30EC_U+30A4_U+30E4_U+30FC 1
 62
     7
420
 16777215
370
     9
  0
INSERT
  5
64
330
1F
100
AcDbEntity
  8
_U+30EC_U+30A4_U+30E4_U+30FC 1
100
AcDbBlockReference
  2
block 2
 10
0.0
 20
0.0
 30
0.0
  0
INSERT
  5
8C
330
1F
100
AcDbEntity
  8
_U+30EC_U+30A4_U+30E4_U+30FC 1
100
AcDbBlockReference
  2
block 3
 10
0.0
 20
0.0
 30
0.0
  0
ENDSEC
  0
SECTION
  2
OBJECTS
  0
DICTIONARY
  5
C
330
0
100
AcDbDictionary
281
     1
  3
ACAD_GROUP
350
D
  3
ACAD_LAYOUT
350
1A
  3
ACAD_MATERIAL
350
3B
  3
ACAD_MLEADERSTYLE
350
F4
  3
ACAD_MLINESTYLE
350
17
  3
ACAD_PLOTSETTINGS
350
19
  3
ACAD_PLOTSTYLENAME
350
E
  3
ACAD_TABLESTYLE
350
F3
  3
ACAD_VISUALSTYLE
350
2A
  0
SUN
  5
3F
330
29
100
AcDbSun
 90
        1
290
     0
 63
     7
421
 16777215
 40
1.0
291
     1
 91
  2455826
 92
 54000000
292
     0
 70
     2
 71
   256
280
     1
  0
DICTIONARY
  5
D
102
{ACAD_REACTORS
330
C
102
}
330
C
100
AcDbDictionary
281
     1
  0
DICTIONARY
  5
1A
102
{ACAD_REACTORS
330
C
102
}
330
C
100
AcDbDictionary
281
     1
  3
Layout1
350
1E
  3
Layout2
350
26
  3
Model
350
22
  0
DICTIONARY
  5
3B
102
{ACAD_REACTORS
330
C
102
}
330
C
100
AcDbDictionary
281
     1
  3
ByBlock
350
3D
  3
ByLayer
350
3C
  3
Global
350
3E
  0
DICTIONARY
  5
F4
102
{ACAD_REACTORS
330
C
102
}
330
C
100
AcDbDictionary
281
     1
  0
DICTIONARY
  5
17
102
{ACAD_REACTORS
330
C
102
}
330
C
100
AcDbDictionary
281
     1
  3
Standard
350
18
  0
DICTIONARY
  5
19
102
{ACAD_REACTORS
330
C
102
}
330
C
100
AcDbDictionary
281
     1
  0
ACDBDICTIONARYWDFLT
  5
E
102
{ACAD_REACTORS
330
C
102
}
330
C
100
AcDbDictionary
281
     1
  3
Normal
350
F
100
AcDbDictionaryWithDefault
340
F
  0
DICTIONARY
  5
F3
102
{ACAD_REACTORS
330
C
102
}
330
C
100
AcDbDictionary
281
     1
  0
DICTIONARY
  5
2A
102
{ACAD_REACTORS
330
C
102
}
330
C
100
AcDbDictionary
281
     1
  3
2dWireframe
350
2F
  3
3D Hidden
350
31
  3
3dWireframe
350
30
  3
Basic
350
32
  3
Brighten
350
36
  3
ColorChange
350
3A
  3
Conceptual
350
34
  3
Dim
350
35
  3
Facepattern
350
39
  3
Flat
350
2B
  3
FlatWithEdges
350
2C
  3
Gouraud
350
2D
  3
GouraudWithEdges
350
2E
  3
Linepattern
350
38
  3
Realistic
350
33
  3
Thicken
350
37
  0
LAYOUT
  5
1E
102
{ACAD_REACTORS
330
1A
102
}
330
1A
100
AcDbPlotSettings
  1

  2
none_device
  4

  6

 40
0.0
 41
0.0
 42
0.0
 43
0.0
 44
0.0
 45
0.0
 46
0.0
 47
0.0
 48
0.0
 49
0.0
140
0.0
141
0.0
142
1.0
143
1.0
 70
   688
 72
     0
 73
     0
 74
     5
  7

 75
    16
 76
     0
 77
     2
 78
   300
147
1.0
148
0.0
149
0.0
100
AcDbLayout
  1
Layout1
 70
     1
 71
     1
 10
0.0
 20
0.0
 11
12.0
 21
9.0
 12
0.0
 22
0.0
 32
0.0
 14
1.000000000000000E+20
 24
1.000000000000000E+20
 34
1.000000000000000E+20
 15
-1.000000000000000E+20
 25
-1.000000000000000E+20
 35
-1.000000000000000E+20
146
0.0
 13
0.0
 23
0.0
 33
0.0
 16
1.0
 26
0.0
 36
0.0
 17
0.0
 27
1.0
 37
0.0
 76
     0
330
1B
  0
LAYOUT
  5
26
102
{ACAD_REACTORS
330
1A
102
}
330
1A
100
AcDbPlotSettings
  1

  2
none_device
  4

  6

 40
0.0
 41
0.0
 42
0.0
 43
0.0
 44
0.0
 45
0.0
 46
0.0
 47
0.0
 48
0.0
 49
0.0
140
0.0
141
0.0
142
1.0
143
1.0
 70
   688
 72
     0
 73
     0
 74
     5
  7

 75
    16
 76
     0
 77
     2
 78
   300
147
1.0
148
0.0
149
0.0
100
AcDbLayout
  1
Layout2
 70
     1
 71
     2
 10
0.0
 20
0.0
 11
0.0
 21
0.0
 12
0.0
 22
0.0
 32
0.0
 14
0.0
 24
0.0
 34
0.0
 15
0.0
 25
0.0
 35
0.0
146
0.0
 13
0.0
 23
0.0
 33
0.0
 16
1.0
 26
0.0
 36
0.0
 17
0.0
 27
1.0
 37
0.0
 76
     0
330
23
  0
LAYOUT
  5
22
102
{ACAD_REACTORS
330
1A
102
}
330
1A
100
AcDbPlotSettings
  1

  2
none_device
  4

  6

 40
0.0
 41
0.0
 42
0.0
 43
0.0
 44
0.0
 45
0.0
 46
0.0
 47
0.0
 48
0.0
 49
0.0
140
0.0
141
0.0
142
1.0
143
1.0
 70
  1712
 72
     0
 73
     0
 74
     0
  7

 75
     0
 76
     0
 77
     2
 78
   300
147
1.0
148
0.0
149
0.0
100
AcDbLayout
  1
Model
 70
     1
 71
     0
 10
0.0
 20
0.0
 11
12.0
 21
9.0
 12
0.0
 22
0.0
 32
0.0
 14
1.000000000000000E+20
 24
1.000000000000000E+20
 34
1.000000000000000E+20
 15
-1.000000000000000E+20
 25
-1.000000000000000E+20
 35
-1.000000000000000E+20
146
0.0
 13
0.0
 23
0.0
 33
0.0
 16
1.0
 26
0.0
 36
0.0
 17
0.0
 27
1.0
 37
0.0
 76
     0
330
1F
331
29
  0
MATERIAL
  5
3D
102
{ACAD_REACTORS
330
3B
102
}
330
3B
100
AcDbMaterial
  1
ByBlock
 72
     1
 94
      127
  0
MATERIAL
  5
3C
102
{ACAD_REACTORS
330
3B
102
}
330
3B
100
AcDbMaterial
  1
ByLayer
 72
     1
 94
      127
  0
MATERIAL
  5
3E
102
{ACAD_REACTORS
330
3B
102
}
330
3B
100
AcDbMaterial
  1
Global
 72
     1
 94
      127
  0
MLINESTYLE
  5
18
102
{ACAD_REACTORS
330
17
102
}
330
17
100
AcDbMlineStyle
  2
Standard
 70
     0
  3

 62
   256
 51
90.0
 52
90.0
 71
     2
 49
0.5
 62
   256
  6
BYLAYER
 49
-0.5
 62
   256
  6
BYLAYER
  0
ACDBPLACEHOLDER
  5
F
102
{ACAD_REACTORS
330
E
102
}
330
E
  0
VISUALSTYLE
  5
2F
102
{ACAD_REACTORS
330
2A
102
}
330
2A
100
AcDbVisualStyle
  2
2dWireframe
 70
     4
177
     2
291
     0
 71
     0
176
     1
 72
     2
176
     1
 73
     0
176
     1
 90
        0
176
     1
 40
-0.6
176
     1
 41
-30.0
176
     1
 62
     5
 63
     7
421
 16777215
176
     1
 74
     1
176
     1
 91
        4
176
     1
 64
     7
176
     1
 65
   257
176
     1
 75
     1
176
     1
175
     1
176
     1
 42
1.0
176
     1
 92
        0
176
     1
 66
   257
176
     1
 43
1.0
176
     1
 76
     1
176
     1
 77
     6
176
     1
 78
     2
176
     1
 67
     7
176
     1
 79
     5
176
     1
170
     0
176
     1
171
     0
176
     1
290
     0
176
     1
 93
        1
176
     1
 44
0.0
176
     1
173
     0
176
     1
  0
VISUALSTYLE
  5
31
102
{ACAD_REACTORS
330
2A
102
}
330
2A
100
AcDbVisualStyle
  2
3D Hidden
 70
     6
177
     2
291
     0
 71
     1
176
     1
 72
     2
176
     1
 73
     2
176
     1
 90
        0
176
     1
 40
-0.6
176
     1
 41
-30.0
176
     1
 62
     5
 63
     7
421
 16777215
176
     1
 74
     2
176
     1
 91
        2
176
     1
 64
     7
176
     1
 65
   257
176
     1
 75
     2
176
     1
175
     1
176
     1
 42
40.0
176
     1
 92
        0
176
     1
 66
   257
176
     1
 43
1.0
176
     1
 76
     1
176
     1
 77
     6
176
     1
 78
     2
176
     1
 67
     7
176
     1
 79
     3
176
     1
170
     0
176
     1
171
     0
176
     1
290
     0
176
     1
 93
        1
176
     1
 44
0.0
176
     1
173
     0
176
     1
  0
VISUALSTYLE
  5
30
102
{ACAD_REACTORS
330
2A
102
}
330
2A
100
AcDbVisualStyle
  2
3dWireframe
 70
     5
177
     2
291
     0
 71
     0
176
     1
 72
     2
176
     1
 73
     0
176
     1
 90
        0
176
     1
 40
-0.6
176
     1
 41
-30.0
176
     1
 62
     5
 63
     7
421
 16777215
176
     1
 74
     1
176
     1
 91
        4
176
     1
 64
     7
176
     1
 65
   257
176
     1
 75
     1
176
     1
175
     1
176
     1
 42
1.0
176
     1
 92
        0
176
     1
 66
   257
176
     1
 43
1.0
176
     1
 76
     1
176
     1
 77
     6
176
     1
 78
     2
176
     1
 67
     7
176
     1
 79
     5
176
     1
170
     0
176
     1
171
     0
176
     1
290
     0
176
     1
 93
        1
176
     1
 44
0.0
176
     1
173
     0
176
     1
  0
VISUALSTYLE
  5
32
102
{ACAD_REACTORS
330
2A
102
}
330
2A
100
AcDbVisualStyle
  2
Basic
 70
     7
177
     2
291
     1
 71
     1
176
     1
 72
     0
176
     1
 73
     1
176
     1
 90
        0
176
     1
 40
-0.6
176
     1
 41
-30.0
176
     1
 62
     5
 63
     7
421
 16777215
176
     1
 74
     0
176
     1
 91
        4
176
     1
 64
     7
176
     1
 65
   257
176
     1
 75
     1
176
     1
175
     1
176
     1
 42
1.0
176
     1
 92
        8
176
     1
 66
     7
176
     1
 43
1.0
176
     1
 76
     1
176
     1
 77
     6
176
     1
 78
     2
176
     1
 67
     7
176
     1
 79
     5
176
     1
170
     0
176
     1
171
     0
176
     1
290
     0
176
     1
 93
        1
176
     1
 44
0.0
176
     1
173
     0
176
     1
  0
VISUALSTYLE
  5
36
102
{ACAD_REACTORS
330
2A
102
}
330
2A
100
AcDbVisualStyle
  2
Brighten
 70
    12
177
     2
291
     1
 71
     2
176
     1
 72
     2
176
     1
 73
     0
176
     1
 90
        0
176
     1
 40
-0.6
176
     1
 41
-30.0
176
     1
 62
     5
 63
     7
421
 16777215
176
     1
 74
     1
176
     1
 91
        4
176
     1
 64
     7
176
     1
 65
   257
176
     1
 75
     1
176
     1
175
     1
176
     1
 42
1.0
176
     1
 92
        8
176
     1
 66
     7
176
     1
 43
1.0
176
     1
 76
     1
176
     1
 77
     6
176
     1
 78
     2
176
     1
 67
     7
176
     1
 79
     5
176
     1
170
     0
176
     1
171
     0
176
     1
290
     0
176
     1
 93
        1
176
     1
 44
50.0
176
     1
173
     0
176
     1
  0
VISUALSTYLE
  5
3A
102
{ACAD_REACTORS
330
2A
102
}
330
2A
100
AcDbVisualStyle
  2
ColorChange
 70
    16
177
     2
291
     1
 71
     2
176
     1
 72
     2
176
     1
 73
     3
176
     1
 90
        0
176
     1
 40
-0.6
176
     1
 41
-30.0
176
     1
 62
     5
 63
     8
421
  8421504
176
     1
 74
     1
176
     1
 91
        4
176
     1
 64
     7
176
     1
 65
   257
176
     1
 75
     1
176
     1
175
     1
176
     1
 42
1.0
176
     1
 92
        8
176
     1
 66
     8
424
  8421504
176
     1
 43
1.0
176
     1
 76
     1
176
     1
 77
     6
176
     1
 78
     2
176
     1
 67
     7
176
     1
 79
     5
176
     1
170
     0
176
     1
171
     0
176
     1
290
     0
176
     1
 93
        1
176
     1
 44
0.0
176
     1
173
     0
176
     1
  0
VISUALSTYLE
  5
34
102
{ACAD_REACTORS
330
2A
102
}
330
2A
100
AcDbVisualStyle
  2
Conceptual
 70
     9
177
     2
291
     0
 71
     3
176
     1
 72
     2
176
     1
 73
     0
176
     1
 90
        0
176
     1
 40
-0.6
176
     1
 41
-30.0
176
     1
 62
     5
 63
     7
421
 16777215
176
     1
 74
     2
176
     1
 91
        2
176
     1
 64
     7
176
     1
 65
   257
176
     1
 75
     1
176
     1
175
     1
176
     1
 42
40.0
176
     1
 92
        8
176
     1
 66
     7
176
     1
 43
1.0
176
     1
 76
     1
176
     1
 77
     6
176
     1
 78
     2
176
     1
 67
     7
176
     1
 79
     3
176
     1
170
     0
176
     1
171
     0
176
     1
290
     0
176
     1
 93
        1
176
     1
 44
0.0
176
     1
173
     0
176
     1
  0
VISUALSTYLE
  5
35
102
{ACAD_REACTORS
330
2A
102
}
330
2A
100
AcDbVisualStyle
  2
Dim
 70
    11
177
     2
291
     1
 71
     2
176
     1
 72
     2
176
     1
 73
     0
176
     1
 90
        0
176
     1
 40
-0.6
176
     1
 41
-30.0
176
     1
 62
     5
 63
     7
421
 16777215
176
     1
 74
     1
176
     1
 91
        4
176
     1
 64
     7
176
     1
 65
   257
176
     1
 75
     1
176
     1
175
     1
176
     1
 42
1.0
176
     1
 92
        8
176
     1
 66
     7
176
     1
 43
1.0
176
     1
 76
     1
176
     1
 77
     6
176
     1
 78
     2
176
     1
 67
     7
176
     1
 79
     5
176
     1
170
     0
176
     1
171
     0
176
     1
290
     0
176
     1
 93
        1
176
     1
 44
-50.0
176
     1
173
     0
176
     1
  0
VISUALSTYLE
  5
39
102
{ACAD_REACTORS
330
2A
102
}
330
2A
100
AcDbVisualStyle
  2
Facepattern
 70
    15
177
     2
291
     1
 71
     2
176
     1
 72
     2
176
     1
 73
     0
176
     1
 90
        0
176
     1
 40
-0.6
176
     1
 41
-30.0
176
     1
 62
     5
 63
     7
421
 16777215
176
     1
 74
     1
176
     1
 91
        4
176
     1
 64
     7
176
     1
 65
   257
176
     1
 75
     1
176
     1
175
     1
176
     1
 42
1.0
176
     1
 92
        8
176
     1
 66
     7
176
     1
 43
1.0
176
     1
 76
     1
176
     1
 77
     6
176
     1
 78
     2
176
     1
 67
     7
176
     1
 79
     5
176
     1
170
     0
176
     1
171
     0
176
     1
290
     0
176
     1
 93
        1
176
     1
 44
0.0
176
     1
173
     0
176
     1
  0
VISUALSTYLE
  5
2B
102
{ACAD_REACTORS
330
2A
102
}
330
2A
100
AcDbVisualStyle
  2
Flat
 70
     0
177
     2
291
     1
 71
     2
176
     1
 72
     1
176
     1
 73
     1
176
     1
 90
        2
176
     1
 40
-0.6
176
     1
 41
30.0
176
     1
 62
     5
 63
     7
421
 16777215
176
     1
 74
     0
176
     1
 91
        4
176
     1
 64
     7
176
     1
 65
   257
176
     1
 75
     1
176
     1
175
     1
176
     1
 42
1.0
176
     1
 92
        8
176
     1
 66
     7
176
     1
 43
1.0
176
     1
 76
     1
176
     1
 77
     6
176
     1
 78
     2
176
     1
 67
     7
176
     1
 79
     5
176
     1
170
     0
176
     1
171
     0
176
     1
290
     0
176
     1
 93
       13
176
     1
 44
0.0
176
     1
173
     0
176
     1
  0
VISUALSTYLE
  5
2C
102
{ACAD_REACTORS
330
2A
102
}
330
2A
100
AcDbVisualStyle
  2
FlatWithEdges
 70
     1
177
     2
291
     1
 71
     2
176
     1
 72
     1
176
     1
 73
     1
176
     1
 90
        2
176
     1
 40
-0.6
176
     1
 41
30.0
176
     1
 62
     5
 63
     7
421
 16777215
176
     1
 74
     1
176
     1
 91
        4
176
     1
 64
     7
176
     1
 65
   257
176
     1
 75
     1
176
     1
175
     1
176
     1
 42
1.0
176
     1
 92
        0
176
     1
 66
   257
176
     1
 43
1.0
176
     1
 76
     1
176
     1
 77
     6
176
     1
 78
     2
176
     1
 67
     7
176
     1
 79
     5
176
     1
170
     0
176
     1
171
     0
176
     1
290
     0
176
     1
 93
       13
176
     1
 44
0.0
176
     1
173
     0
176
     1
  0
VISUALSTYLE
  5
2D
102
{ACAD_REACTORS
330
2A
102
}
330
2A
100
AcDbVisualStyle
  2
Gouraud
 70
     2
177
     2
291
     1
 71
     2
176
     1
 72
     2
176
     1
 73
     1
176
     1
 90
        2
176
     1
 40
-0.6
176
     1
 41
30.0
176
     1
 62
     5
 63
     7
421
 16777215
176
     1
 74
     0
176
     1
 91
        4
176
     1
 64
     7
176
     1
 65
   257
176
     1
 75
     1
176
     1
175
     1
176
     1
 42
1.0
176
     1
 92
        0
176
     1
 66
     7
176
     1
 43
1.0
176
     1
 76
     1
176
     1
 77
     6
176
     1
 78
     2
176
     1
 67
     7
176
     1
 79
     5
176
     1
170
     0
176
     1
171
     0
176
     1
290
     0
176
     1
 93
       13
176
     1
 44
0.0
176
     1
173
     0
176
     1
  0
VISUALSTYLE
  5
2E
102
{ACAD_REACTORS
330
2A
102
}
330
2A
100
AcDbVisualStyle
  2
GouraudWithEdges
 70
     3
177
     2
291
     1
 71
     2
176
     1
 72
     2
176
     1
 73
     1
176
     1
 90
        2
176
     1
 40
-0.6
176
     1
 41
30.0
176
     1
 62
     5
 63
     7
421
 16777215
176
     1
 74
     1
176
     1
 91
        4
176
     1
 64
     7
176
     1
 65
   257
176
     1
 75
     1
176
     1
175
     1
176
     1
 42
1.0
176
     1
 92
        0
176
     1
 66
   257
176
     1
 43
1.0
176
     1
 76
     1
176
     1
 77
     6
176
     1
 78
     2
176
     1
 67
     7
176
     1
 79
     5
176
     1
170
     0
176
     1
171
     0
176
     1
290
     0
176
     1
 93
       13
176
     1
 44
0.0
176
     1
173
     0
176
     1
  0
VISUALSTYLE
  5
38
102
{ACAD_REACTORS
330
2A
102
}
330
2A
100
AcDbVisualStyle
  2
Linepattern
 70
    14
177
     2
291
     1
 71
     2
176
     1
 72
     2
176
     1
 73
     0
176
     1
 90
        0
176
     1
 40
-0.6
176
     1
 41
-30.0
176
     1
 62
     5
 63
     7
421
 16777215
176
     1
 74
     1
176
     1
 91
        4
176
     1
 64
     7
176
     1
 65
   257
176
     1
 75
     7
176
     1
175
     7
176
     1
 42
1.0
176
     1
 92
        8
176
     1
 66
     7
176
     1
 43
1.0
176
     1
 76
     1
176
     1
 77
     6
176
     1
 78
     2
176
     1
 67
     7
176
     1
 79
     5
176
     1
170
     0
176
     1
171
     0
176
     1
290
     0
176
     1
 93
        1
176
     1
 44
0.0
176
     1
173
     0
176
     1
  0
VISUALSTYLE
  5
33
102
{ACAD_REACTORS
330
2A
102
}
330
2A
100
AcDbVisualStyle
  2
Realistic
 70
     8
177
     2
291
     0
 71
     2
176
     1
 72
     2
176
     1
 73
     0
176
     1
 90
        0
176
     1
 40
-0.6
176
     1
 41
-30.0
176
     1
 62
     5
 63
     7
421
 16777215
176
     1
 74
     1
176
     1
 91
        0
176
     1
 64
     7
176
     1
 65
   257
176
     1
 75
     1
176
     1
175
     1
176
     1
 42
1.0
176
     1
 92
        8
176
     1
 66
     8
424
  7895160
176
     1
 43
1.0
176
     1
 76
     1
176
     1
 77
     6
176
     1
 78
     2
176
     1
 67
     7
176
     1
 79
     5
176
     1
170
     0
176
     1
171
     0
176
     1
290
     0
176
     1
 93
       13
176
     1
 44
0.0
176
     1
173
     0
176
     1
  0
VISUALSTYLE
  5
37
102
{ACAD_REACTORS
330
2A
102
}
330
2A
100
AcDbVisualStyle
  2
Thicken
 70
    13
177
     2
291
     1
 71
     2
176
     1
 72
     2
176
     1
 73
     0
176
     1
 90
        0
176
     1
 40
-0.6
176
     1
 41
-30.0
176
     1
 62
     5
 63
     7
421
 16777215
176
     1
 74
     1
176
     1
 91
        4
176
     1
 64
     7
176
     1
 65
   257
176
     1
 75
     1
176
     1
175
     1
176
     1
 42
1.0
176
     1
 92
       12
176
     1
 66
     7
176
     1
 43
1.0
176
     1
 76
     1
176
     1
 77
     6
176
     1
 78
     2
176
     1
 67
     7
176
     1
 79
     5
176
     1
170
     0
176
     1
171
     0
176
     1
290
     0
176
     1
 93
        1
176
     1
 44
0.0
176
     1
173
     0
176
     1
  0
ENDSEC
  0
EOF
